  0
SECTION
  2
HEADER
  9
$ACADVER
  1
AC1009
  9
$INSBASE
 10
0.0
 20
0.0
 30
0.0
  9
$EXTMIN
 10
-50.9658813400000028
 20
-101.894570139999999
 30
0.0
  9
$EXTMAX
 10
185.4686758078127014
 20
100.4939120747932009
 30
0.0
  9
$LIMMIN
 10
-59.6447631799999911
 20
-109.9311927499999939
  9
$LIMMAX
 10
123.0250356899999957
 20
59.220578500000002
  9
$ORTHOMODE
 70
     0
  9
$REGENMODE
 70
     1
  9
$FILLMODE
 70
     1
  9
$QTEXTMODE
 70
     0
  9
$MIRRTEXT
 70
     1
  9
$DRAGMODE
 70
     2
  9
$LTSCALE
 40
1.0
  9
$OSMODE
 70
    37
  9
$ATTMODE
 70
     1
  9
$TEXTSIZE
 40
5.0
  9
$TRACEWID
 40
0.05
  9
$TEXTSTYLE
  7
STANDARD
  9
$CLAYER
  8
0
  9
$CELTYPE
  6
CONTINUOUS
  9
$CECOLOR
 62
   256
  9
$DIMSCALE
 40
1.0
  9
$DIMASZ
 40
0.18
  9
$DIMEXO
 40
0.0625
  9
$DIMDLI
 40
0.38
  9
$DIMRND
 40
0.0
  9
$DIMDLE
 40
0.0
  9
$DIMEXE
 40
0.18
  9
$DIMTP
 40
0.0
  9
$DIMTM
 40
0.0
  9
$DIMTXT
 40
0.18
  9
$DIMCEN
 40
0.09
  9
$DIMTSZ
 40
0.0
  9
$DIMTOL
 70
     0
  9
$DIMLIM
 70
     0
  9
$DIMTIH
 70
     1
  9
$DIMTOH
 70
     1
  9
$DIMSE1
 70
     0
  9
$DIMSE2
 70
     0
  9
$DIMTAD
 70
     0
  9
$DIMZIN
 70
     0
  9
$DIMBLK
  1

  9
$DIMASO
 70
     1
  9
$DIMSHO
 70
     1
  9
$DIMPOST
  1

  9
$DIMAPOST
  1

  9
$DIMALT
 70
     0
  9
$DIMALTD
 70
     2
  9
$DIMALTF
 40
25.3999999999999986
  9
$DIMLFAC
 40
1.0
  9
$DIMTOFL
 70
     0
  9
$DIMTVP
 40
0.0
  9
$DIMTIX
 70
     0
  9
$DIMSOXD
 70
     0
  9
$DIMSAH
 70
     0
  9
$DIMBLK1
  1

  9
$DIMBLK2
  1

  9
$DIMSTYLE
  2
STANDARD
  9
$DIMCLRD
 70
     0
  9
$DIMCLRE
 70
     0
  9
$DIMCLRT
 70
     0
  9
$DIMTFAC
 40
1.0
  9
$DIMGAP
 40
0.09
  9
$LUNITS
 70
     2
  9
$LUPREC
 70
     4
  9
$SKETCHINC
 40
0.1
  9
$FILLETRAD
 40
0.0
  9
$AUNITS
 70
     0
  9
$AUPREC
 70
     0
  9
$MENU
  1
acad
  9
$ELEVATION
 40
0.0
  9
$PELEVATION
 40
0.0
  9
$THICKNESS
 40
0.0
  9
$LIMCHECK
 70
     0
  9
$BLIPMODE
 70
     0
  9
$CHAMFERA
 40
0.0
  9
$CHAMFERB
 40
0.0
  9
$SKPOLY
 70
     0
  9
$TDCREATE
 40
2440588.749988425988704
  9
$TDUPDATE
 40
2460090.5744097228161991
  9
$TDINDWG
 40
0.0815162037
  9
$TDUSRTIMER
 40
0.0815162037
  9
$USRTIMER
 70
     1
  9
$ANGBASE
 50
0.0
  9
$ANGDIR
 70
     0
  9
$PDMODE
 70
     0
  9
$PDSIZE
 40
1.0
  9
$PLINEWID
 40
0.0
  9
$COORDS
 70
     1
  9
$SPLFRAME
 70
     0
  9
$SPLINETYPE
 70
     6
  9
$SPLINESEGS
 70
     8
  9
$ATTDIA
 70
     1
  9
$ATTREQ
 70
     1
  9
$HANDLING
 70
     1
  9
$HANDSEED
  5
1214
  9
$SURFTAB1
 70
     6
  9
$SURFTAB2
 70
     6
  9
$SURFTYPE
 70
     6
  9
$SURFU
 70
     6
  9
$SURFV
 70
     6
  9
$UCSNAME
  2

  9
$UCSORG
 10
0.0
 20
0.0
 30
0.0
  9
$UCSXDIR
 10
1.0
 20
0.0
 30
0.0
  9
$UCSYDIR
 10
0.0
 20
1.0
 30
0.0
  9
$PUCSNAME
  2

  9
$PUCSORG
 10
0.0
 20
0.0
 30
0.0
  9
$PUCSXDIR
 10
1.0
 20
0.0
 30
0.0
  9
$PUCSYDIR
 10
0.0
 20
1.0
 30
0.0
  9
$USERI1
 70
     0
  9
$USERI2
 70
     0
  9
$USERI3
 70
     0
  9
$USERI4
 70
     0
  9
$USERI5
 70
     0
  9
$USERR1
 40
0.0
  9
$USERR2
 40
0.0
  9
$USERR3
 40
0.0
  9
$USERR4
 40
0.0
  9
$USERR5
 40
0.0
  9
$WORLDVIEW
 70
     1
  9
$SHADEDGE
 70
     3
  9
$SHADEDIF
 70
    70
  9
$TILEMODE
 70
     1
  9
$MAXACTVP
 70
    16
  9
$PLIMCHECK
 70
     0
  9
$PEXTMIN
 10
1.0000000000000000E+20
 20
1.0000000000000000E+20
 30
1.0000000000000000E+20
  9
$PEXTMAX
 10
-1.0000000000000000E+20
 20
-1.0000000000000000E+20
 30
-1.0000000000000000E+20
  9
$PLIMMIN
 10
0.0
 20
0.0
  9
$PLIMMAX
 10
12.0
 20
9.0
  9
$UNITMODE
 70
     0
  9
$VISRETAIN
 70
     0
  9
$PLINEGEN
 70
     1
  9
$PSLTSCALE
 70
     0
  0
ENDSEC
  0
SECTION
  2
TABLES
  0
TABLE
  2
VPORT
 70
     1
  0
VPORT
  2
*ACTIVE
 70
     0
 10
0.0
 20
0.0
 11
1.0
 21
1.0
 12
30.8511047068273001
 22
-26.9674249954835901
 13
0.0
 23
0.0
 14
1.0
 24
1.0
 15
0.0
 25
0.0
 16
0.0
 26
0.0
 36
1.0
 17
0.0
 27
0.0
 37
0.0
 40
182.1421337159962093
 41
1.9341040462427741
 42
50.0
 43
0.0
 44
0.0
 50
0.0
 51
0.0
 71
     0
 72
   100
 73
     1
 74
     1
 75
     0
 76
     0
 77
     0
 78
     0
  0
ENDTAB
  0
TABLE
  2
LTYPE
 70
    30
  0
LTYPE
  2
CONTINUOUS
 70
     0
  3
Solid line
 72
    65
 73
     0
 40
0.0
  0
LTYPE
  2
HIDDENX2
 70
     0
  3
CADPAC LINETYPE
 72
    65
 73
     2
 40
11.8800000000000008
 49
8.9100000000000001
 49
-2.9700000000000002
  0
LTYPE
  2
HIDDEN
 70
     0
  3
CADPAC LINETYPE
 72
    65
 73
     2
 40
8.9100000000000001
 49
5.9400000000000004
 49
-2.9700000000000002
  0
LTYPE
  2
HIDDEN2
 70
     0
  3
CADPAC LINETYPE
 72
    65
 73
     2
 40
7.4249999999999989
 49
4.4550000000000001
 49
-2.9700000000000002
  0
LTYPE
  2
DASHED
 70
     0
  3
CADPAC LINETYPE
 72
    65
 73
     2
 40
8.9100000000000001
 49
5.9400000000000004
 49
-2.9700000000000002
  0
LTYPE
  2
DASHED2
 70
     0
  3
CADPAC LINETYPE
 72
    65
 73
     2
 40
6.6825000000000001
 49
4.4550000000000001
 49
-2.2275
  0
LTYPE
  2
DASHEDX2
 70
     0
  3
CADPAC LINETYPE
 72
    65
 73
     2
 40
13.3650000000000002
 49
8.9100000000000001
 49
-4.4550000000000001
  0
LTYPE
  2
DOTX2
 70
     0
  3
CADPAC LINETYPE
 72
    65
 73
     2
 40
3.712499999999999
 49
0.0
 49
-3.712499999999999
  0
LTYPE
  2
DOT
 70
     0
  3
CADPAC LINETYPE
 72
    65
 73
     2
 40
2.9700000000000002
 49
0.0
 49
-2.9700000000000002
  0
LTYPE
  2
DOT2
 70
     0
  3
CADPAC LINETYPE
 72
    65
 73
     2
 40
2.2275
 49
0.0
 49
-2.2275
  0
LTYPE
  2
CENTERX2
 70
     0
  3
CADPAC LINETYPE
 72
    65
 73
     4
 40
17.8200000000000003
 49
7.4249999999999989
 49
-3.712499999999999
 49
2.9700000000000002
 49
-3.712499999999999
  0
LTYPE
  2
CENTER
 70
     0
  3
CADPAC LINETYPE
 72
    65
 73
     4
 40
13.6620000000000008
 49
5.9400000000000004
 49
-2.9700000000000002
 49
1.781999999999998
 49
-2.9700000000000002
  0
LTYPE
  2
CENTER2
 70
     0
  3
CADPAC LINETYPE
 72
    65
 73
     4
 40
9.5039999999999996
 49
4.4550000000000001
 49
-2.2275
 49
0.594
 49
-2.2275
  0
LTYPE
  2
DASHDOTX2
 70
     0
  3
CADPAC LINETYPE
 72
    65
 73
     4
 40
14.8499999999999996
 49
7.4249999999999989
 49
-3.712499999999999
 49
0.0
 49
-3.712499999999999
  0
LTYPE
  2
DASHDOT
 70
     0
  3
CADPAC LINETYPE
 72
    65
 73
     4
 40
11.8800000000000008
 49
5.9400000000000004
 49
-2.9700000000000002
 49
0.0
 49
-2.9700000000000002
  0
LTYPE
  2
DASHDOT2
 70
     0
  3
CADPAC LINETYPE
 72
    65
 73
     4
 40
8.9100000000000001
 49
4.4550000000000001
 49
-2.2275
 49
0.0
 49
-2.2275
  0
LTYPE
  2
DIVIDEX2
 70
     0
  3
CADPAC LINETYPE
 72
    65
 73
     6
 40
18.5625
 49
7.4249999999999989
 49
-3.712499999999999
 49
0.0
 49
-3.712499999999999
 49
0.0
 49
-3.712499999999999
  0
LTYPE
  2
DIVIDE
 70
     0
  3
CADPAC LINETYPE
 72
    65
 73
     6
 40
14.8499999999999996
 49
5.9400000000000004
 49
-2.9700000000000002
 49
0.0
 49
-2.9700000000000002
 49
0.0
 49
-2.9700000000000002
  0
LTYPE
  2
DIVIDE2
 70
     0
  3
CADPAC LINETYPE
 72
    65
 73
     6
 40
11.1374999999999993
 49
4.4550000000000001
 49
-2.2275
 49
0.0
 49
-2.2275
 49
0.0
 49
-2.2275
  0
LTYPE
  2
BORDERX2
 70
     0
  3
CADPAC LINETYPE
 72
    65
 73
     6
 40
25.9875000000000007
 49
7.4249999999999989
 49
-3.712499999999999
 49
7.4249999999999989
 49
-3.712499999999999
 49
0.0
 49
-3.712499999999999
  0
LTYPE
  2
BORDER
 70
     0
  3
CADPAC LINETYPE
 72
    65
 73
     6
 40
20.7899999999999991
 49
5.9400000000000004
 49
-2.9700000000000002
 49
5.9400000000000004
 49
-2.9700000000000002
 49
0.0
 49
-2.9700000000000002
  0
LTYPE
  2
BORDER2
 70
     0
  3
CADPAC LINETYPE
 72
    65
 73
     6
 40
15.5924999999999994
 49
4.4550000000000001
 49
-2.2275
 49
4.4550000000000001
 49
-2.2275
 49
0.0
 49
-2.2275
  0
LTYPE
  2
PHANTOMX2
 70
     0
  3
CADPAC LINETYPE
 72
    65
 73
     6
 40
22.2749999999999986
 49
7.4249999999999989
 49
-2.9700000000000002
 49
2.9700000000000002
 49
-2.9700000000000002
 49
2.9700000000000002
 49
-2.9700000000000002
  0
LTYPE
  2
PHANTOM
 70
     0
  3
CADPAC LINETYPE
 72
    65
 73
     6
 40
18.4140000000000015
 49
5.9400000000000004
 49
-2.9700000000000002
 49
1.781999999999998
 49
-2.9700000000000002
 49
1.781999999999998
 49
-2.9700000000000002
  0
LTYPE
  2
PHANTOM2
 70
     0
  3
CADPAC LINETYPE
 72
    65
 73
     6
 40
15.7409999999999997
 49
4.4550000000000001
 49
-2.9700000000000002
 49
1.1879999999999991
 49
-2.9700000000000002
 49
1.1879999999999991
 49
-2.9700000000000002
  0
LTYPE
  2
ACAD_ISO06W100
 70
     0
  3
CADPAC LINETYPE
 72
    65
 73
     8
 40
20.0474999999999994
 49
7.4249999999999989
 49
-3.712499999999999
 49
0.0
 49
-2.9700000000000002
 49
0.0
 49
-2.9700000000000002
 49
0.0
 49
-2.9700000000000002
  0
LTYPE
  2
ACAD_ISO13W100
 70
     0
  3
CADPAC LINETYPE
 72
    65
 73
     8
 40
23.7600000000000016
 49
5.9400000000000004
 49
-2.9700000000000002
 49
5.9400000000000004
 49
-2.9700000000000002
 49
0.0
 49
-2.9700000000000002
 49
0.0
 49
-2.9700000000000002
  0
LTYPE
  2
ACAD_ISO14W100
 70
     0
  3
CADPAC LINETYPE
 72
    65
 73
     8
 40
17.8200000000000003
 49
5.9400000000000004
 49
-2.9700000000000002
 49
0.0
 49
-2.9700000000000002
 49
0.0
 49
-2.9700000000000002
 49
0.0
 49
-2.9700000000000002
  0
ENDTAB
  0
TABLE
  2
LAYER
 70
     3
  0
LAYER
  2
0
 70
     0
 62
     7
  6
CONTINUOUS
  0
LAYER
  2
レイヤー_1
 70
     0
 62
     7
  6
CONTINUOUS
  0
LAYER
  2
DEFPOINTS
 70
     0
 62
     7
  6
CONTINUOUS
  0
ENDTAB
  0
TABLE
  2
STYLE
 70
     3
  0
STYLE
  2
STANDARD
 70
     0
 40
0.0
 41
0.8
 50
0.0
 71
     0
 42
5.0
  3
txt.shx
  4
bigfont.shx
  0
STYLE
  2
ANNOTATIVE
 70
     0
 40
0.0
 41
1.0
 50
0.0
 71
     0
 42
0.2
  3
txt
  4

  0
STYLE
  2
SLDTEXTSTYLE0
 70
     0
 40
0.0
 41
0.7
 50
0.0
 71
     0
 42
3.5
  3
TXT
  4
bigfont
  0
ENDTAB
  0
TABLE
  2
VIEW
 70
     1
  0
VIEW
  2
QQQQ
 70
     0
 40
169.1517712499999959
 10
31.6901362599999992
 20
-25.3553071299999999
 41
182.6697988800000019
 11
0.0
 21
0.0
 31
1.0
 12
100.0
 22
100.0
 32
0.0
 42
50.0
 43
0.0
 44
0.0
 50
0.0
 71
     0
  0
ENDTAB
  0
TABLE
  2
UCS
 70
     0
  0
ENDTAB
  0
TABLE
  2
APPID
 70
     6
  0
APPID
  2
ACAD
 70
     0
  0
APPID
  2
ACADANNOTATIVE
 70
     0
  0
APPID
  2
ACAD_NAV_VCDISPLAY
 70
     0
  0
APPID
  2
ACAD_MLEADERVER
 70
     0
  0
APPID
  2
ACAD_EXEMPT_FROM_CAD_STANDARDS
 70
     0
  0
APPID
  2
ACAD_DSTYLE_DIMRADIAL_EXTENSION
 70
     0
  0
ENDTAB
  0
TABLE
  2
DIMSTYLE
 70
     7
  0
DIMSTYLE
  2
STANDARD
 70
     0
  3

  4

  5

  6

  7

 40
1.0
 41
0.18
 42
0.0625
 43
0.38
 44
0.18
 45
0.0
 46
0.0
 47
0.0
 48
0.0
140
0.18
141
0.09
142
0.0
143
25.3999999999999986
144
1.0
145
0.0
146
1.0
147
0.09
 71
     0
 72
     0
 73
     1
 74
     1
 75
     0
 76
     0
 77
     0
 78
     0
170
     0
171
     2
172
     0
173
     0
174
     0
175
     0
176
     0
177
     0
178
     0
  0
DIMSTYLE
  2
ANNOTATIVE
 70
     0
  3

  4

  5

  6

  7

 40
1.0
 41
0.18
 42
0.0625
 43
0.38
 44
0.18
 45
0.0
 46
0.0
 47
0.0
 48
0.0
140
0.18
141
0.09
142
0.0
143
25.3999999999999986
144
1.0
145
0.0
146
1.0
147
0.09
 71
     0
 72
     0
 73
     1
 74
     1
 75
     0
 76
     0
 77
     0
 78
     0
170
     0
171
     2
172
     0
173
     0
174
     0
175
     0
176
     0
177
     0
178
     0
  0
DIMSTYLE
  2
ISO-25
 70
     0
  3

  4

  5

  6

  7

 40
1.0
 41
2.5
 42
0.625
 43
3.75
 44
1.25
 45
0.0
 46
0.0
 47
0.0
 48
0.0
140
2.5
141
2.5
142
0.0
143
0.0393700787
144
1.0
145
0.0
146
1.0
147
0.625
 71
     0
 72
     0
 73
     0
 74
     0
 75
     0
 76
     0
 77
     1
 78
     8
170
     0
171
     3
172
     1
173
     0
174
     0
175
     0
176
     0
177
     0
178
     0
  0
DIMSTYLE
  2
SLDDIMSTYLE0
 70
     0
  3

  4

  5

  6
OPEN30
  7
OPEN30
 40
1.0
 41
2.0
 42
0.0625
 43
0.38
 44
0.0
 45
0.000000001
 46
0.0
 47
0.0
 48
0.0
140
3.5
141
0.09
142
0.0
143
25.3999999999999986
144
1.0
145
0.0
146
1.0
147
0.875
 71
     0
 72
     0
 73
     0
 74
     0
 75
     0
 76
     0
 77
     3
 78
    12
170
     0
171
     2
172
     0
173
     1
174
     0
175
     0
176
     0
177
     0
178
     0
  0
DIMSTYLE
  2
SLDDIMSTYLE1
 70
     0
  3

  4

  5

  6
OPEN30
  7
OPEN30
 40
1.0
 41
2.0
 42
0.0625
 43
0.38
 44
0.0
 45
0.000000001
 46
0.0
 47
0.0
 48
0.0
140
3.5
141
0.09
142
0.0
143
25.3999999999999986
144
1.0
145
0.0
146
1.0
147
0.875
 71
     0
 72
     0
 73
     0
 74
     0
 75
     0
 76
     0
 77
     3
 78
    12
170
     0
171
     2
172
     1
173
     1
174
     0
175
     0
176
     0
177
     0
178
     0
  0
ENDTAB
  0
ENDSEC
  0
SECTION
  2
BLOCKS
  0
BLOCK
  8
0
  2
$MODEL_SPACE
 70
     0
 10
0.0
 20
0.0
 30
0.0
  3
$MODEL_SPACE
  1

  0
ENDBLK
  5
29C
  8
0
  0
BLOCK
 67
     1
  8
0
  2
$PAPER_SPACE
 70
     0
 10
0.0
 20
0.0
 30
0.0
  3
$PAPER_SPACE
  1

  0
ENDBLK
  5
298
 67
     1
  8
0
  0
BLOCK
  8
0
  2
A$CB3C681B5
 70
     0
 10
0.0
 20
0.0
 30
0.0
  3
A$CB3C681B5
  1

  0
CIRCLE
  5
F0
  8
0
  6
CONTINUOUS
 62
     7
 10
3.9989999999999939
 20
34.2000000000000028
 30
0.0
 40
0.8499999999999943
  0
ARC
  5
F1
  8
0
  6
CONTINUOUS
 62
     7
 10
3.9989999999999939
 20
34.2000000000000028
 30
0.0
 40
2.0010000000000141
 50
98.6048297422996711
 51
81.3951702577003573
  0
LINE
  5
F2
  8
0
  6
CONTINUOUS
 62
     7
 10
3.7000000000000011
 20
36.1773425876999966
 30
0.0
 11
3.7000000000000011
 21
35.9748239349000016
 31
0.0
  0
ARC
  5
F3
  8
0
  6
CONTINUOUS
 62
     7
 10
3.9989999999999939
 20
34.2000000000000028
 30
0.0
 40
1.800414213562378
 50
99.573087021400454
 51
80.4269129785995602
  0
LINE
  5
F4
  8
0
  6
CONTINUOUS
 62
     7
 10
4.298
 20
35.9746875353000206
 30
0.0
 11
4.298
 21
36.1773425876999966
 31
0.0
  0
LINE
  5
F5
  8
0
  6
CONTINUOUS
 62
     7
 10
3.7000000000000011
 20
35.8010000000000019
 30
0.0
 11
3.7000000000000011
 21
35.9751523518000127
 31
0.0
  0
LINE
  5
F6
  8
0
  6
CONTINUOUS
 62
     7
 10
4.298
 20
35.8010000000000019
 30
0.0
 11
3.7000000000000011
 21
35.8010000000000019
 31
0.0
  0
LINE
  5
F7
  8
0
  6
CONTINUOUS
 62
     7
 10
4.298
 20
35.9751523518000127
 30
0.0
 11
4.298
 21
35.8010000000000019
 31
0.0
  0
LINE
  5
F8
  8
0
  6
CONTINUOUS
 62
     7
 10
2.9996180339000049
 20
33.8500000000000085
 30
0.0
 11
2.9996180339000049
 21
34.5499999999999972
 31
0.0
  0
ARC
  5
F9
  8
0
  6
CONTINUOUS
 62
     7
 10
3.9989999999999939
 20
33.8500000000000085
 30
0.0
 40
0.9993819660112563
 50
180.0
 51
0.0
  0
LINE
  5
FA
  8
0
  6
CONTINUOUS
 62
     7
 10
4.9983819660000091
 20
34.5499999999999972
 30
0.0
 11
4.9983819660000091
 21
33.8500000000000085
 31
0.0
  0
ARC
  5
FB
  8
0
  6
CONTINUOUS
 62
     7
 10
3.9989999999999939
 20
34.5499999999999972
 30
0.0
 40
0.9993819660112563
 50
0.0
 51
180.0
  0
LINE
  5
FC
  8
0
  6
CONTINUOUS
 62
     7
 10
3.099999999999993
 20
34.5499999999999972
 30
0.0
 11
3.099999999999993
 21
33.8500000000000085
 31
0.0
  0
LINE
  5
FD
  8
0
  6
CONTINUOUS
 62
     7
 10
4.8979999999999961
 20
33.8500000000000085
 30
0.0
 11
4.8979999999999961
 21
34.5499999999999972
 31
0.0
  0
ARC
  5
FE
  8
0
  6
CONTINUOUS
 62
     7
 10
3.9989999999999939
 20
34.5499999999999972
 30
0.0
 40
0.8990000000000009
 50
0.0
 51
180.0
  0
ARC
  5
FF
  8
0
  6
CONTINUOUS
 62
     7
 10
3.9989999999999939
 20
33.8500000000000085
 30
0.0
 40
0.8990000000000151
 50
180.0
 51
0.0
  0
ARC
  5
100
  8
0
  6
CONTINUOUS
 62
     7
 10
3.9989999999999939
 20
34.2000000000000028
 30
0.0
 40
2.0010000000000141
 50
81.3951702577003573
 51
98.6048297422996711
  0
ARC
  5
101
  8
0
  6
CONTINUOUS
 62
     7
 10
3.9989999999999939
 20
34.2000000000000028
 30
0.0
 40
0.9627848737237359
 50
20.97293438739975
 51
159.0270656126002109
  0
ARC
  5
102
  8
0
  6
CONTINUOUS
 62
     7
 10
3.9989999999999939
 20
34.2000000000000028
 30
0.0
 40
0.9627848737237339
 50
200.9729343873997038
 51
339.0270656126002109
  0
LINE
  5
103
  8
0
  6
CONTINUOUS
 62
     7
 10
5.9997351908999956
 20
34.2325529697999968
 30
0.0
 11
5.9997351908999956
 21
35.7003530138999992
 31
0.0
  0
LINE
  5
104
  8
0
  6
CONTINUOUS
 62
     7
 10
1.9982648089999899
 20
35.6976836198999976
 30
0.0
 11
1.9982648089999899
 21
34.2325529697999968
 31
0.0
  0
LINE
  5
105
  8
0
  6
CONTINUOUS
 62
     7
 10
5.9997351908999956
 20
32.6996469861000065
 30
0.0
 11
5.9997351908999956
 21
34.1674470302000088
 31
0.0
  0
LINE
  5
106
  8
0
  6
CONTINUOUS
 62
     7
 10
1.9982648089999899
 20
34.1674470302000088
 30
0.0
 11
1.9982648089999899
 21
32.7023163799999992
 31
0.0
  0
LINE
  5
107
  8
0
  6
CONTINUOUS
 62
     7
 10
1.748000000000004
 20
33.1144144437000065
 30
0.0
 11
1.748000000000004
 21
35.2855855563000134
 31
0.0
  0
LINE
  5
108
  8
0
  6
CONTINUOUS
 62
     7
 10
4.75
 20
24.8000000000000007
 30
0.0
 11
4.75
 21
23.3000000000000007
 31
0.0
  0
LINE
  5
109
  8
0
  6
CONTINUOUS
 62
     7
 10
3.5499999999999958
 20
23.3000000000000007
 30
0.0
 11
4.75
 21
23.3000000000000007
 31
0.0
  0
LINE
  5
10A
  8
0
  6
CONTINUOUS
 62
     7
 10
3.5499999999999958
 20
23.3000000000000007
 30
0.0
 11
3.5499999999999958
 21
24.8000000000000007
 31
0.0
  0
LINE
  5
10B
  8
0
  6
CONTINUOUS
 62
     7
 10
4.75
 20
24.8000000000000007
 30
0.0
 11
3.5499999999999958
 21
24.8000000000000007
 31
0.0
  0
LINE
  5
10C
  8
0
  6
CONTINUOUS
 62
     7
 10
4.75
 20
24.8000000000000007
 30
0.0
 11
4.7999999999999972
 21
24.8000000000000007
 31
0.0
  0
LINE
  5
10D
  8
0
  6
CONTINUOUS
 62
     7
 10
3.4510000000000072
 20
24.8000000000000007
 30
0.0
 11
3.5499999999999958
 21
24.8000000000000007
 31
0.0
  0
LINE
  5
10E
  8
0
  6
CONTINUOUS
 62
     7
 10
4.7999999999999972
 20
21.3000000000000007
 30
0.0
 11
3.4510000000000072
 21
21.3000000000000007
 31
0.0
  0
LINE
  5
10F
  8
0
  6
CONTINUOUS
 62
     7
 10
4.7999999999999972
 20
24.8000000000000007
 30
0.0
 11
4.7999999999999972
 21
21.3000000000000007
 31
0.0
  0
LINE
  5
110
  8
0
  6
CONTINUOUS
 62
     7
 10
3.2489999999999939
 20
25.5992490225000111
 30
0.0
 11
3.2489999999999939
 21
20.5007509775000116
 31
0.0
  0
LINE
  5
111
  8
0
  6
CONTINUOUS
 62
     7
 10
3.4510000000000072
 20
24.8000000000000007
 30
0.0
 11
3.4510000000000072
 21
21.3000000000000007
 31
0.0
  0
LINE
  5
112
  8
0
  6
CONTINUOUS
 62
     7
 10
3.1500000000000039
 20
18.3000000000000007
 30
0.0
 11
5.1500000000000039
 21
18.3000000000000007
 31
0.0
  0
ARC
  5
113
  8
0
  6
CONTINUOUS
 62
     7
 10
3.1500000000000039
 20
20.3000000000000007
 30
0.0
 40
2.0
 50
180.0
 51
270.0
  0
ARC
  5
114
  8
0
  6
CONTINUOUS
 62
     7
 10
5.1500000000000039
 20
25.8000000000000007
 30
0.0
 40
2.0000000000000142
 50
0.0
 51
90.0
  0
ARC
  5
115
  8
0
  6
CONTINUOUS
 62
     7
 10
5.1500000000000039
 20
20.3000000000000007
 30
0.0
 40
2.0
 50
270.0
 51
0.0
  0
LINE
  5
116
  8
0
  6
CONTINUOUS
 62
     7
 10
1.150000000000005
 20
25.8000000000000007
 30
0.0
 11
1.150000000000005
 21
20.3000000000000007
 31
0.0
  0
CIRCLE
  5
117
  8
0
  6
CONTINUOUS
 62
     7
 10
4.0
 20
34.2000000000000028
 30
0.0
 40
2.5
  0
LINE
  5
118
  8
0
  6
CONTINUOUS
 62
     7
 10
7.1500000000000039
 20
20.3000000000000007
 30
0.0
 11
7.1500000000000039
 21
25.8000000000000007
 31
0.0
  0
ARC
  5
119
  8
0
  6
CONTINUOUS
 62
     7
 10
3.1500000000000039
 20
25.8000000000000007
 30
0.0
 40
2.0000000000000142
 50
90.0
 51
180.0
  0
CIRCLE
  5
11A
  8
0
  6
CONTINUOUS
 62
     7
 10
3.6500000000000039
 20
41.0
 30
0.0
 40
1.5
  0
CIRCLE
  5
11B
  8
0
  6
CONTINUOUS
 62
     7
 10
4.25
 20
4.25
 30
0.0
 40
4.25
  0
LINE
  5
11C
  8
0
  6
CONTINUOUS
 62
     7
 10
5.1500000000000039
 20
27.8000000000000007
 30
0.0
 11
3.1500000000000039
 21
27.8000000000000007
 31
0.0
  0
CIRCLE
  5
11D
  8
0
  6
CONTINUOUS
 62
     7
 10
4.25
 20
4.25
 30
0.0
 40
2.4499999999999882
  0
LINE
  5
11E
  8
0
  6
CONTINUOUS
 62
     7
 10
5.4500000000000011
 20
24.8000000000000007
 30
0.0
 11
5.4500000000000011
 21
21.3000000000000007
 31
0.0
  0
ARC
  5
11F
  8
0
  6
CONTINUOUS
 62
     7
 10
4.4500000000000011
 20
24.8000000000000007
 30
0.0
 40
1.0
 50
0.0
 51
90.0
  0
LINE
  5
120
  8
0
  6
CONTINUOUS
 62
     7
 10
3.849999999999993
 20
25.8000000000000007
 30
0.0
 11
4.4500000000000011
 21
25.8000000000000007
 31
0.0
  0
ARC
  5
121
  8
0
  6
CONTINUOUS
 62
     7
 10
3.849999999999993
 20
24.8000000000000007
 30
0.0
 40
1.0000000000000131
 50
90.0
 51
180.0
  0
LINE
  5
122
  8
0
  6
CONTINUOUS
 62
     7
 10
2.849999999999993
 20
21.3000000000000007
 30
0.0
 11
2.849999999999993
 21
24.8000000000000007
 31
0.0
  0
ARC
  5
123
  8
0
  6
CONTINUOUS
 62
     7
 10
3.849999999999993
 20
21.3000000000000007
 30
0.0
 40
1.0
 50
180.0
 51
270.0
  0
ARC
  5
124
  8
0
  6
CONTINUOUS
 62
     7
 10
4.4500000000000011
 20
21.3000000000000007
 30
0.0
 40
1.0000000000000131
 50
270.0
 51
0.0
  0
LINE
  5
125
  8
0
  6
CONTINUOUS
 62
     7
 10
4.4500000000000011
 20
20.3000000000000007
 30
0.0
 11
3.849999999999993
 21
20.3000000000000007
 31
0.0
  0
CIRCLE
  5
126
  8
0
  6
CONTINUOUS
 62
     7
 10
3.6500000000000039
 20
41.0
 30
0.0
 40
1.1999999999999891
  0
LINE
  5
127
  8
0
  6
CONTINUOUS
 62
     7
 10
2.25
 20
41.5385164806999967
 30
0.0
 11
2.25
 21
40.4614835193000033
 31
0.0
  0
LINE
  5
128
  8
0
  6
CONTINUOUS
 62
     7
 10
3.5
 20
41.1500000000000128
 30
0.0
 11
3.5
 21
40.8499999999999872
 31
0.0
  0
LINE
  5
129
  8
0
  6
CONTINUOUS
 62
     7
 10
3.5
 20
40.8499999999999872
 30
0.0
 11
3.7999999999999958
 21
40.8499999999999872
 31
0.0
  0
LINE
  5
12A
  8
0
  6
CONTINUOUS
 62
     7
 10
3.7999999999999958
 20
40.8499999999999872
 30
0.0
 11
3.7999999999999958
 21
41.1500000000000128
 31
0.0
  0
LINE
  5
12B
  8
0
  6
CONTINUOUS
 62
     7
 10
3.7999999999999958
 20
41.1500000000000128
 30
0.0
 11
3.5
 21
41.1500000000000128
 31
0.0
  0
CIRCLE
  5
12C
  8
0
  6
CONTINUOUS
 62
     7
 10
4.25
 20
4.25
 30
0.0
 40
2.0
  0
CIRCLE
  5
12D
  8
0
  6
CONTINUOUS
 62
     7
 10
4.25
 20
4.25
 30
0.0
 40
1.2999999999999949
  0
LINE
  5
12E
  8
0
  6
CONTINUOUS
 62
     7
 10
2.25
 20
5.6650971697999921
 30
0.0
 11
2.25
 21
4.25
 31
0.0
  0
LINE
  5
12F
  8
0
  6
CONTINUOUS
 62
     7
 10
5.511942946399996
 20
6.3500000000000068
 30
0.0
 11
2.9880570534999999
 21
6.3500000000000068
 31
0.0
  0
LINE
  5
130
  8
0
  6
CONTINUOUS
 62
     7
 10
2.25
 20
4.25
 30
0.0
 11
2.25
 21
2.8349028302000061
 31
0.0
  0
LINE
  5
131
  8
0
  6
CONTINUOUS
 62
     7
 10
6.25
 20
2.8349028302000061
 30
0.0
 11
6.25
 21
5.6650971697999921
 31
0.0
  0
LINE
  5
132
  8
0
  6
CONTINUOUS
 62
     7
 10
6.25
 20
33.1102752640999967
 30
0.0
 11
6.25
 21
35.289724735900009
 31
0.0
  0
LINE
  5
133
  8
0
  6
CONTINUOUS
 62
     7
 10
45.6788811139999922
 20
33.3500000000000085
 30
0.0
 11
48.2578811139999999
 21
33.3500000000000085
 31
0.0
  0
LINE
  5
134
  8
0
  6
CONTINUOUS
 62
     7
 10
48.2578811139999999
 20
35.0499999999999972
 30
0.0
 11
45.6788811139999922
 21
35.0499999999999972
 31
0.0
  0
LINE
  5
135
  8
0
  6
CONTINUOUS
 62
     7
 10
45.6788811139999922
 20
35.0499999999999972
 30
0.0
 11
45.4447170353000018
 21
34.9329179607000029
 31
0.0
  0
LINE
  5
136
  8
0
  6
CONTINUOUS
 62
     7
 10
45.4447170353000018
 20
33.4670820393000099
 30
0.0
 11
45.6788811139999922
 21
33.3500000000000085
 31
0.0
  0
ARC
  5
137
  8
0
  6
CONTINUOUS
 62
     7
 10
45.5788811139999908
 20
33.7354101966000002
 30
0.0
 40
0.2999999999999972
 50
180.0
 51
243.4349488229001963
  0
ARC
  5
138
  8
0
  6
CONTINUOUS
 62
     7
 10
45.5788811139999908
 20
34.6645898033999984
 30
0.0
 40
0.3000000000000078
 50
116.5650511770998037
 51
180.0
  0
LINE
  5
139
  8
0
  6
CONTINUOUS
 62
     7
 10
45.6788811139999922
 20
35.0499999999999972
 30
0.0
 11
45.6788811139999922
 21
33.3500000000000085
 31
0.0
  0
LINE
  5
13A
  8
0
  6
CONTINUOUS
 62
     7
 10
45.2788811140000007
 20
33.7354101966000002
 30
0.0
 11
45.2788811140000007
 21
34.6645898033999984
 31
0.0
  0
ENDBLK
  5
13C
  8
0
  0
BLOCK
  8
0
  2
_OPEN30
 70
     0
 10
0.0
 20
0.0
 30
0.0
  3
_OPEN30
  1

  0
LINE
  5
2CB
  8
0
  6
BYBLOCK
 62
     0
 10
-1.0
 20
0.267949
 30
0.0
 11
0.0
 21
0.0
 31
0.0
  0
LINE
  5
2CC
  8
0
  6
BYBLOCK
 62
     0
 10
0.0
 20
0.0
 30
0.0
 11
-1.0
 21
-0.267949
 31
0.0
  0
LINE
  5
2CD
  8
0
  6
BYBLOCK
 62
     0
 10
0.0
 20
0.0
 30
0.0
 11
-1.0
 21
0.0
 31
0.0
  0
ENDBLK
  5
2CE
  8
0
  0
BLOCK
  8
0
  2
_D
 70
     0
 10
0.0
 20
0.0
 30
0.0
  3
_D
  1

  0
INSERT
  5
2D1
  8
0
  6
CONTINUOUS
 62
     7
  2
_OPEN30
 10
100.5579567552999976
 20
248.2497306479000088
 30
-8.1999999999999993
 41
2.0
 42
2.0
 50
180.0
  0
INSERT
  5
2D2
  8
0
  6
CONTINUOUS
 62
     7
  2
_OPEN30
 10
128.5579567553000118
 20
248.2497306479000088
 30
-8.1999999999999993
 41
2.0
 42
2.0
  0
LINE
  5
2D3
  8
0
  6
CONTINUOUS
 62
     7
 10
100.5579567552999976
 20
241.1330668871
 30
0.0
 11
100.5579567552999976
 21
249.2497306479000088
 31
0.0
  0
LINE
  5
2D4
  8
0
  6
CONTINUOUS
 62
     7
 10
128.5579567553000118
 20
241.1330668871
 30
0.0
 11
128.5579567553000118
 21
249.2497306479000088
 31
0.0
  0
LINE
  5
2D5
  8
0
  6
CONTINUOUS
 62
     7
 10
100.5579567552999976
 20
248.2497306479000088
 30
0.0
 11
128.5579567553000118
 21
248.2497306479000088
 31
0.0
  0
INSERT
  5
2D6
  8
0
  6
CONTINUOUS
  2
*U16
 10
0.0
 20
0.0
 30
0.0
  0
ENDBLK
  5
2D7
  8
0
  0
BLOCK
  8
0
  2
_D_1
 70
     0
 10
0.0
 20
0.0
 30
0.0
  3
_D_1
  1

  0
INSERT
  5
2DA
  8
0
  6
CONTINUOUS
 62
     7
  2
_OPEN30
 10
138.5579567553000118
 20
240.6330668871
 30
-8.1999999999999993
 41
2.0
 42
2.0
 50
90.0
  0
INSERT
  5
2DB
  8
0
  6
CONTINUOUS
 62
     7
  2
_OPEN30
 10
138.5579567553000118
 20
135.6330668871
 30
-8.1999999999999993
 41
2.0
 42
2.0
 50
270.0
  0
LINE
  5
2DC
  8
0
  6
CONTINUOUS
 62
     7
 10
129.0579567553000118
 20
240.6330668871
 30
0.0
 11
139.5579567553000118
 21
240.6330668871
 31
0.0
  0
LINE
  5
2DD
  8
0
  6
CONTINUOUS
 62
     7
 10
129.0579567553000118
 20
135.6330668871
 30
0.0
 11
139.5579567553000118
 21
135.6330668871
 31
0.0
  0
LINE
  5
2DE
  8
0
  6
CONTINUOUS
 62
     7
 10
138.5579567553000118
 20
240.6330668871
 30
0.0
 11
138.5579567553000118
 21
135.6330668871
 31
0.0
  0
INSERT
  5
2DF
  8
0
  6
CONTINUOUS
  2
*U17
 10
0.0
 20
0.0
 30
0.0
  0
ENDBLK
  5
2E0
  8
0
  0
BLOCK
  8
0
  2
_D_2
 70
     0
 10
0.0
 20
0.0
 30
0.0
  3
_D_2
  1

  0
INSERT
  5
2E3
  8
0
  6
CONTINUOUS
 62
     7
  2
_OPEN30
 10
138.5579567553000118
 20
135.6330668871
 30
-8.1999999999999993
 41
2.0
 42
2.0
 50
270.0
  0
INSERT
  5
2E4
  8
0
  6
CONTINUOUS
 62
     7
  2
_OPEN30
 10
138.5579567553000118
 20
131.7330668870999943
 30
-8.1999999999999993
 41
2.0
 42
2.0
 50
90.0
  0
LINE
  5
2E5
  8
0
  6
CONTINUOUS
 62
     7
 10
129.0579567553000118
 20
135.6330668871
 30
0.0
 11
139.5579567553000118
 21
135.6330668871
 31
0.0
  0
LINE
  5
2E6
  8
0
  6
CONTINUOUS
 62
     7
 10
115.5579567552999976
 20
131.7330668870999943
 30
0.0
 11
139.5579567553000118
 21
131.7330668870999943
 31
0.0
  0
LINE
  5
2E7
  8
0
  6
CONTINUOUS
 62
     7
 10
138.5579567553000118
 20
135.6330668871
 30
0.0
 11
138.5579567553000118
 21
139.6330668871
 31
0.0
  0
LINE
  5
2E8
  8
0
  6
CONTINUOUS
 62
     7
 10
138.5579567553000118
 20
135.6330668871
 30
0.0
 11
138.5579567553000118
 21
131.7330668870999943
 31
0.0
  0
LINE
  5
2E9
  8
0
  6
CONTINUOUS
 62
     7
 10
138.5579567553000118
 20
131.7330668870999943
 30
0.0
 11
138.5579567553000118
 21
126.5467419882999991
 31
0.0
  0
INSERT
  5
2EA
  8
0
  6
CONTINUOUS
  2
*U18
 10
0.0
 20
0.0
 30
0.0
  0
ENDBLK
  5
2EB
  8
0
  0
BLOCK
  8
0
  2
_D_3
 70
     0
 10
0.0
 20
0.0
 30
0.0
  3
_D_3
  1

  0
INSERT
  5
2EE
  8
0
  6
CONTINUOUS
 62
     7
  2
_OPEN30
 10
205.4674943374000122
 20
248.9944337844000017
 30
0.0
 41
2.0
 42
2.0
  0
INSERT
  5
2EF
  8
0
  6
CONTINUOUS
 62
     7
  2
_OPEN30
 10
164.9674943374000122
 20
248.9944337844000017
 30
0.0
 41
2.0
 42
2.0
 50
180.0
  0
LINE
  5
2F0
  8
0
  6
CONTINUOUS
 62
     7
 10
205.4674943374000122
 20
241.1330668871
 30
0.0
 11
205.4674943374000122
 21
249.9944337844000017
 31
0.0
  0
LINE
  5
2F1
  8
0
  6
CONTINUOUS
 62
     7
 10
164.9674943374000122
 20
221.6093387752000012
 30
0.0
 11
164.9674943374000122
 21
249.9944337844000017
 31
0.0
  0
LINE
  5
2F2
  8
0
  6
CONTINUOUS
 62
     7
 10
205.4674943374000122
 20
248.9944337844000017
 30
0.0
 11
164.9674943374000122
 21
248.9944337844000017
 31
0.0
  0
INSERT
  5
2F3
  8
0
  6
CONTINUOUS
  2
*U19
 10
0.0
 20
0.0
 30
0.0
  0
ENDBLK
  5
2F4
  8
0
  0
BLOCK
  8
0
  2
_D_4
 70
     0
 10
0.0
 20
0.0
 30
0.0
  3
_D_4
  1

  0
ARC
  5
2F7
  8
0
  6
CONTINUOUS
 62
     7
 10
219.4790097439000078
 20
216.3896895649000101
 30
0.0
 40
4.5544355493159649
 50
153.4349488228999974
 51
206.5650511771000026
  0
ARC
  5
2F8
  8
0
  6
CONTINUOUS
 62
     7
 10
213.3685932514000001
 20
216.3896895649000101
 30
0.0
 40
4.5544355493159649
 50
333.4349488229000258
 51
26.5650511770999991
  0
INSERT
  5
2F9
  8
0
  6
CONTINUOUS
 62
     7
  2
_OPEN30
 10
205.4674943374000122
 20
214.352884067399998
 30
0.0
 41
2.0
 42
2.0
  0
INSERT
  5
2FA
  8
0
  6
CONTINUOUS
 62
     7
  2
_OPEN30
 10
209.5674943374000065
 20
214.352884067399998
 30
0.0
 41
2.0
 42
2.0
 50
180.0
  0
LINE
  5
2FB
  8
0
  6
CONTINUOUS
 62
     7
 10
209.5674943374000065
 20
201.6330668871
 30
0.0
 11
209.5674943374000065
 21
215.352884067399998
 31
0.0
  0
LINE
  5
2FC
  8
0
  6
CONTINUOUS
 62
     7
 10
205.4674943374000122
 20
214.352884067399998
 30
0.0
 11
201.4674943374000122
 21
214.352884067399998
 31
0.0
  0
LINE
  5
2FD
  8
0
  6
CONTINUOUS
 62
     7
 10
205.4674943374000122
 20
214.352884067399998
 30
0.0
 11
209.5674943374000065
 21
214.352884067399998
 31
0.0
  0
LINE
  5
2FE
  8
0
  6
CONTINUOUS
 62
     7
 10
209.5674943374000065
 20
214.352884067399998
 30
0.0
 11
217.9230286876000093
 21
214.352884067399998
 31
0.0
  0
INSERT
  5
2FF
  8
0
  6
CONTINUOUS
  2
*U20
 10
0.0
 20
0.0
 30
0.0
  0
ENDBLK
  5
300
  8
0
  0
BLOCK
  8
0
  2
*D10
 70
     1
 10
0.0
 20
0.0
 30
0.0
  3
*D10
  1

  0
LINE
  5
82D
  8
0
  6
CONTINUOUS
 62
     0
 10
80.5591382257126867
 20
47.5564120747932293
 30
0.0
 11
80.5591382257126867
 21
55.610575835593238
 31
0.0
  0
LINE
  5
82E
  8
0
  6
CONTINUOUS
 62
     0
 10
108.5591382257127009
 20
47.5564120747932293
 30
0.0
 11
108.5591382257127009
 21
55.610575835593238
 31
0.0
  0
LINE
  5
82F
  8
0
  6
CONTINUOUS
 62
     0
 10
82.5591382257126725
 20
55.610575835593238
 30
0.0
 11
106.5591382257127009
 21
55.610575835593238
 31
0.0
  0
INSERT
  5
830
  8
0
  6
CONTINUOUS
 62
     0
  2
_OPEN30
 10
80.5591382257126867
 20
55.610575835593238
 30
0.0
 41
2.0
 42
2.0
 43
2.0
 50
180.0
  0
INSERT
  5
831
  8
0
  6
CONTINUOUS
 62
     0
  2
_OPEN30
 10
108.5591382257127009
 20
55.610575835593238
 30
0.0
 41
2.0
 42
2.0
 43
2.0
  0
INSERT
  5
832
  8
0
  6
CONTINUOUS
  2
*U21
 10
0.0
 20
0.0
 30
0.0
  0
POINT
  5
833
  8
DEFPOINTS
  6
CONTINUOUS
 62
     0
 10
80.5591382257126867
 20
47.4939120747932222
 30
0.0
  0
POINT
  5
834
  8
DEFPOINTS
  6
CONTINUOUS
 62
     0
 10
108.5591382257127009
 20
47.4939120747932222
 30
0.0
  0
POINT
  5
835
  8
DEFPOINTS
  6
CONTINUOUS
 62
     0
 10
108.5591382257127009
 20
55.610575835593238
 30
0.0
  0
ENDBLK
  5
7EF
  8
0
  0
BLOCK
  8
0
  2
*D11
 70
     1
 10
0.0
 20
0.0
 30
0.0
  3
*D11
  1

  0
LINE
  5
836
  8
0
  6
CONTINUOUS
 62
     0
 10
108.1216382257127009
 20
47.9939120747932435
 30
0.0
 11
118.5591382257127009
 21
47.9939120747932506
 31
0.0
  0
LINE
  5
837
  8
0
  6
CONTINUOUS
 62
     0
 10
108.1216382257127009
 20
-57.0060879252067991
 30
0.0
 11
118.5591382257127009
 21
-57.006087925206792
 31
0.0
  0
LINE
  5
838
  8
0
  6
CONTINUOUS
 62
     0
 10
118.5591382257127009
 20
45.9939120747932506
 30
0.0
 11
118.5591382257127009
 21
-55.006087925206792
 31
0.0
  0
INSERT
  5
839
  8
0
  6
CONTINUOUS
 62
     0
  2
_OPEN30
 10
118.5591382257127009
 20
47.9939120747932506
 30
0.0
 41
2.0
 42
2.0
 43
2.0
 50
90.0
  0
INSERT
  5
83A
  8
0
  6
CONTINUOUS
 62
     0
  2
_OPEN30
 10
118.5591382257127009
 20
-57.006087925206792
 30
0.0
 41
2.0
 42
2.0
 43
2.0
 50
270.0
  0
INSERT
  5
83B
  8
0
  6
CONTINUOUS
  2
*U22
 10
0.0
 20
0.0
 30
0.0
  0
POINT
  5
83C
  8
DEFPOINTS
  6
CONTINUOUS
 62
     0
 10
108.0591382257127009
 20
47.9939120747932435
 30
0.0
  0
POINT
  5
83D
  8
DEFPOINTS
  6
CONTINUOUS
 62
     0
 10
108.0591382257127009
 20
-57.0060879252067991
 30
0.0
  0
POINT
  5
83E
  8
DEFPOINTS
  6
CONTINUOUS
 62
     0
 10
118.5591382257127009
 20
-57.006087925206792
 30
0.0
  0
ENDBLK
  5
7FB
  8
0
  0
BLOCK
  8
0
  2
*D12
 70
     1
 10
0.0
 20
0.0
 30
0.0
  3
*D12
  1

  0
LINE
  5
83F
  8
0
  6
CONTINUOUS
 62
     0
 10
108.1216382257127009
 20
-57.0060879252067991
 30
0.0
 11
118.5591382257127009
 21
-57.006087925206792
 31
0.0
  0
LINE
  5
840
  8
0
  6
CONTINUOUS
 62
     0
 10
94.6216382257127009
 20
-60.9060879252067977
 30
0.0
 11
118.5591382257127009
 21
-60.9060879252067906
 31
0.0
  0
LINE
  5
841
  8
0
  6
CONTINUOUS
 62
     0
 10
118.5591382257127009
 20
-55.006087925206792
 30
0.0
 11
118.5591382257127009
 21
-53.006087925206792
 31
0.0
  0
LINE
  5
842
  8
0
  6
CONTINUOUS
 62
     0
 10
118.5591382257127009
 20
-62.9060879252067906
 30
0.0
 11
118.5591382257127009
 21
-68.2894212585401448
 31
0.0
  0
LINE
  5
843
  8
0
  6
CONTINUOUS
 62
     0
 10
118.5591382257127009
 20
-57.006087925206792
 30
0.0
 11
118.5591382257127009
 21
-60.9060879252067906
 31
0.0
  0
INSERT
  5
844
  8
0
  6
CONTINUOUS
 62
     0
  2
_OPEN30
 10
118.5591382257127009
 20
-57.006087925206792
 30
0.0
 41
2.0
 42
2.0
 43
2.0
 50
270.0
  0
INSERT
  5
845
  8
0
  6
CONTINUOUS
 62
     0
  2
_OPEN30
 10
118.5591382257127009
 20
-60.9060879252067906
 30
0.0
 41
2.0
 42
2.0
 43
2.0
 50
90.0
  0
INSERT
  5
846
  8
0
  6
CONTINUOUS
  2
*U23
 10
0.0
 20
0.0
 30
0.0
  0
POINT
  5
847
  8
DEFPOINTS
  6
CONTINUOUS
 62
     0
 10
108.0591382257127009
 20
-57.0060879252067991
 30
0.0
  0
POINT
  5
848
  8
DEFPOINTS
  6
CONTINUOUS
 62
     0
 10
94.5591382257127009
 20
-60.9060879252067977
 30
0.0
  0
POINT
  5
849
  8
DEFPOINTS
  6
CONTINUOUS
 62
     0
 10
118.5591382257127009
 20
-60.9060879252067906
 30
0.0
  0
ENDBLK
  5
807
  8
0
  0
BLOCK
  8
0
  2
*D13
 70
     1
 10
0.0
 20
0.0
 30
0.0
  3
*D13
  1

  0
LINE
  5
84A
  8
0
  6
CONTINUOUS
 62
     0
 10
185.4686758078127014
 20
47.5564120747932293
 30
0.0
 11
185.4686758078127014
 21
56.3552789720932026
 31
0.0
  0
LINE
  5
84B
  8
0
  6
CONTINUOUS
 62
     0
 10
144.9686758078125877
 20
28.0326839628932305
 30
0.0
 11
144.9686758078125877
 21
56.3552789720932026
 31
0.0
  0
LINE
  5
84C
  8
0
  6
CONTINUOUS
 62
     0
 10
183.4686758078125877
 20
56.3552789720932026
 30
0.0
 11
146.9686758078125877
 21
56.3552789720932026
 31
0.0
  0
INSERT
  5
84D
  8
0
  6
CONTINUOUS
 62
     0
  2
_OPEN30
 10
185.4686758078127014
 20
56.3552789720932026
 30
0.0
 41
2.0
 42
2.0
 43
2.0
  0
INSERT
  5
84E
  8
0
  6
CONTINUOUS
 62
     0
  2
_OPEN30
 10
144.9686758078125877
 20
56.3552789720932026
 30
0.0
 41
2.0
 42
2.0
 43
2.0
 50
180.0
  0
INSERT
  5
84F
  8
0
  6
CONTINUOUS
  2
*U24
 10
0.0
 20
0.0
 30
0.0
  0
POINT
  5
850
  8
DEFPOINTS
  6
CONTINUOUS
 62
     0
 10
185.4686758078127014
 20
47.4939120747932222
 30
0.0
  0
POINT
  5
851
  8
DEFPOINTS
  6
CONTINUOUS
 62
     0
 10
144.9686758078125877
 20
27.9701839628932305
 30
0.0
  0
POINT
  5
852
  8
DEFPOINTS
  6
CONTINUOUS
 62
     0
 10
144.9686758078125877
 20
56.3552789720932026
 30
0.0
  0
ENDBLK
  5
815
  8
0
  0
BLOCK
  8
0
  2
*D14
 70
     1
 10
0.0
 20
0.0
 30
0.0
  3
*D14
  1

  0
LINE
  5
853
  8
0
  6
CONTINUOUS
 62
     0
 10
185.4686758078127014
 20
13.3064120747932293
 30
0.0
 11
185.4686758078127014
 21
21.7137292550932486
 31
0.0
  0
LINE
  5
854
  8
0
  6
CONTINUOUS
 62
     0
 10
189.5686758078126104
 20
8.0564120747932293
 30
0.0
 11
189.5686758078126104
 21
21.7137292550932486
 31
0.0
  0
LINE
  5
855
  8
0
  6
CONTINUOUS
 62
     0
 10
183.4686758078125877
 20
21.7137292550932486
 30
0.0
 11
181.4686758078125877
 21
21.7137292550932486
 31
0.0
  0
LINE
  5
856
  8
0
  6
CONTINUOUS
 62
     0
 10
191.5686758078126957
 20
21.7137292550932486
 30
0.0
 11
200.2186758078127014
 21
21.7137292550932486
 31
0.0
  0
LINE
  5
857
  8
0
  6
CONTINUOUS
 62
     0
 10
185.4686758078127014
 20
21.7137292550932486
 30
0.0
 11
189.5686758078126104
 21
21.7137292550932486
 31
0.0
  0
INSERT
  5
858
  8
0
  6
CONTINUOUS
 62
     0
  2
_OPEN30
 10
185.4686758078127014
 20
21.7137292550932486
 30
0.0
 41
2.0
 42
2.0
 43
2.0
  0
INSERT
  5
859
  8
0
  6
CONTINUOUS
 62
     0
  2
_OPEN30
 10
189.5686758078126104
 20
21.7137292550932486
 30
0.0
 41
2.0
 42
2.0
 43
2.0
 50
180.0
  0
INSERT
  5
85A
  8
0
  6
CONTINUOUS
  2
*U25
 10
0.0
 20
0.0
 30
0.0
  0
POINT
  5
85B
  8
DEFPOINTS
  6
CONTINUOUS
 62
     0
 10
185.4686758078127014
 20
13.2439120747932293
 30
0.0
  0
POINT
  5
85C
  8
DEFPOINTS
  6
CONTINUOUS
 62
     0
 10
189.5686758078126104
 20
7.9939120747932293
 30
0.0
  0
POINT
  5
85D
  8
DEFPOINTS
  6
CONTINUOUS
 62
     0
 10
189.5686758078126104
 20
21.7137292550932486
 30
0.0
  0
ENDBLK
  5
821
  8
0
  0
BLOCK
  8
0
  2
*U16
 70
     1
 10
0.0
 20
0.0
 30
0.0
  3
*U16
  1

  0
TEXT
  5
8EA
  8
0
  6
CONTINUOUS
 62
     7
 10
112.5211512577999997
 20
249.2614675042999863
 30
0.0
 40
3.5
  1
28
 41
0.7
  7
SLDTEXTSTYLE0
  0
ENDBLK
  5
8EC
  8
0
  0
BLOCK
  8
0
  2
*U17
 70
     1
 10
0.0
 20
0.0
 30
0.0
  3
*U17
  1

  0
TEXT
  5
8EE
  8
0
  6
CONTINUOUS
 62
     7
 10
137.5462198989000058
 20
185.0778585244999874
 30
0.0
 40
3.5
  1
105
 50
90.0000000000003979
 41
0.7
  7
SLDTEXTSTYLE0
  0
ENDBLK
  5
8F0
  8
0
  0
BLOCK
  8
0
  2
*U18
 70
     1
 10
0.0
 20
0.0
 30
0.0
  3
*U18
  1

  0
TEXT
  5
8F2
  8
0
  6
CONTINUOUS
 62
     7
 10
137.5462198989000058
 20
126.5467419882999991
 30
0.0
 40
3.5
  1
4
 50
90.0000000000003979
 41
0.7
  7
SLDTEXTSTYLE0
  0
ENDBLK
  5
8F4
  8
0
  0
BLOCK
  8
0
  2
*U19
 70
     1
 10
0.0
 20
0.0
 30
0.0
  3
*U19
  1

  0
TEXT
  5
8F6
  8
0
  6
CONTINUOUS
 62
     7
 10
183.6600889439999946
 20
250.0061706408000077
 30
0.0
 40
3.5
  1
41
 41
0.7
  7
SLDTEXTSTYLE0
  0
ENDBLK
  5
8F8
  8
0
  0
BLOCK
  8
0
  2
*U20
 70
     1
 10
0.0
 20
0.0
 30
0.0
  3
*U20
  1

  0
TEXT
  5
8FA
  8
0
  6
CONTINUOUS
 62
     7
 10
215.4053987489000122
 20
215.364620923800004
 30
0.0
 40
3.5
  1
4
 41
0.7
  7
SLDTEXTSTYLE0
  0
ENDBLK
  5
8FC
  8
0
  0
BLOCK
  8
0
  2
*U21
 70
     1
 10
0.0
 20
0.0
 30
0.0
  3
*U21
  1

  0
TEXT
  5
AE2
  8
0
  6
CONTINUOUS
 62
     0
 10
92.5174715590460153
 20
56.4855758355932309
 30
0.0
 40
3.5
  1
28
 41
0.7
  7
SLDTEXTSTYLE0
  0
ENDBLK
  5
AE4
  8
0
  0
BLOCK
  8
0
  2
*U22
 70
     1
 10
0.0
 20
0.0
 30
0.0
  3
*U22
  1

  0
TEXT
  5
AE6
  8
0
  6
CONTINUOUS
 62
     0
 10
117.6841382257126014
 20
-7.1602545918734366
 30
0.0
 40
3.5
  1
105
 50
90.0
 41
0.7
  7
SLDTEXTSTYLE0
  0
ENDBLK
  5
AE8
  8
0
  0
BLOCK
  8
0
  2
*U23
 70
     1
 10
0.0
 20
0.0
 30
0.0
  3
*U23
  1

  0
TEXT
  5
AEA
  8
0
  6
CONTINUOUS
 62
     0
 10
117.6841382257126014
 20
-67.4144212585401448
 30
0.0
 40
3.5
  1
4
 50
90.0
 41
0.7
  7
SLDTEXTSTYLE0
  0
ENDBLK
  5
AEC
  8
0
  0
BLOCK
  8
0
  2
*U24
 70
     1
 10
0.0
 20
0.0
 30
0.0
  3
*U24
  1

  0
TEXT
  5
AEE
  8
0
  6
CONTINUOUS
 62
     0
 10
164.0647425785793132
 20
57.2302789720932026
 30
0.0
 40
3.5
  1
41
 41
0.7
  7
SLDTEXTSTYLE0
  0
ENDBLK
  5
AF0
  8
0
  0
BLOCK
  8
0
  2
*U25
 70
     1
 10
0.0
 20
0.0
 30
0.0
  3
*U25
  1

  0
TEXT
  5
AF2
  8
0
  6
CONTINUOUS
 62
     0
 10
194.4436758078126104
 20
22.5887292550932592
 30
0.0
 40
3.5
  1
(4)
 41
0.7
  7
SLDTEXTSTYLE0
  0
ENDBLK
  5
AF4
  8
0
  0
ENDSEC
  0
SECTION
  2
ENTITIES
  0
TEXT
  5
91
  8
0
 62
     7
 10
111.9461538500000017
 20
-101.894570139999999
 30
0.0
 40
5.0
  1
000
 41
1.1076923076923071
 72
     5
 11
123.9461538500000017
 21
-101.894570139999999
 31
0.0
  0
LINE
  5
57B
  8
0
  6
CONTINUOUS
 62
     7
 10
5.3092221082924453
 20
-59.5703301491067805
 30
0.0
 11
5.3092221082924453
 21
-57.9172369905067725
 31
0.0
  0
LINE
  5
57C
  8
0
  6
CONTINUOUS
 62
     7
 10
-7.4907778917075509
 20
-57.9172369905067725
 30
0.0
 11
-7.4907778917075509
 21
-59.5703301491067805
 31
0.0
  0
ARC
  5
57D
  8
0
  6
CONTINUOUS
 62
     7
 10
-1.0907778917075459
 20
-44.9060879252067693
 30
0.0
 40
14.4999999999999805
 50
243.8080802774998119
 51
296.1919197225001881
  0
ARC
  5
57E
  8
0
  6
CONTINUOUS
 62
     7
 10
-1.0907778917075459
 20
-44.9060879252067693
 30
0.0
 40
15.9999999999999805
 50
246.4218215217995862
 51
293.5781784782005275
  0
LINE
  5
57F
  8
0
  6
CONTINUOUS
 62
     7
 10
6.909222108292453
 20
-55.2560879252067707
 30
0.0
 11
6.909222108292453
 21
-55.0060879252067707
 31
0.0
  0
LINE
  5
580
  8
0
  6
CONTINUOUS
 62
     7
 10
5.3092221082924453
 20
-55.2560879252067707
 30
0.0
 11
6.909222108292453
 21
-55.2560879252067707
 31
0.0
  0
LINE
  5
581
  8
0
  6
CONTINUOUS
 62
     7
 10
-9.0907778917075461
 20
-55.2560879252067707
 30
0.0
 11
-7.4907778917075509
 21
-55.2560879252067707
 31
0.0
  0
LINE
  5
582
  8
0
  6
CONTINUOUS
 62
     7
 10
-9.0907778917075461
 20
-55.0060879252067707
 30
0.0
 11
-9.0907778917075461
 21
-55.2560879252067707
 31
0.0
  0
ARC
  5
583
  8
0
  6
CONTINUOUS
 62
     7
 10
-1.0907778917075459
 20
-55.2560879252067707
 30
0.0
 40
2.2500000000000111
 50
231.0575587309998866
 51
308.9424412690000281
  0
LINE
  5
584
  8
0
  6
CONTINUOUS
 62
     7
 10
5.3092221082924453
 20
-55.2560879252067707
 30
0.0
 11
5.3092221082924453
 21
-55.5060879252067707
 31
0.0
  0
LINE
  5
585
  8
0
  6
CONTINUOUS
 62
     7
 10
5.3092221082924453
 20
-57.0060879252067707
 30
0.0
 11
5.3092221082924453
 21
-57.9172369905067725
 31
0.0
  0
LINE
  5
586
  8
0
  6
CONTINUOUS
 62
     7
 10
-7.4907778917075509
 20
-57.9172369905067725
 30
0.0
 11
-7.4907778917075509
 21
-57.0060879252067707
 31
0.0
  0
LINE
  5
587
  8
0
  6
CONTINUOUS
 62
     7
 10
-7.4907778917075509
 20
-55.5060879252067707
 30
0.0
 11
-7.4907778917075509
 21
-55.2560879252067707
 31
0.0
  0
LINE
  5
588
  8
0
  6
CONTINUOUS
 62
     7
 10
12.9092221082924503
 20
27.9701839628932305
 30
0.0
 11
12.9092221082924503
 21
-36.9823598133067719
 31
0.0
  0
LINE
  5
589
  8
0
  6
CONTINUOUS
 62
     7
 10
8.8092221082924453
 20
-37.4822836609067735
 30
0.0
 11
8.8092221082924453
 21
-36.9823598133067719
 31
0.0
  0
LINE
  5
58A
  8
0
  6
CONTINUOUS
 62
     7
 10
-9.9907778917075518
 20
27.9701839628932305
 30
0.0
 11
-9.9907778917075518
 21
28.4701078104932002
 31
0.0
  0
LINE
  5
58B
  8
0
  6
CONTINUOUS
 62
     7
 10
7.8092221082924453
 20
28.4701078104932002
 30
0.0
 11
7.8092221082924453
 21
27.9701839628932305
 31
0.0
  0
LINE
  5
58C
  8
0
  6
CONTINUOUS
 62
     7
 10
-10.99077789170755
 20
-36.9823598133067719
 30
0.0
 11
-10.99077789170755
 21
-37.4822836609067735
 31
0.0
  0
LINE
  5
58D
  8
0
  6
CONTINUOUS
 62
     7
 10
-15.0907778917075408
 20
-36.9823598133067719
 30
0.0
 11
-15.0907778917075408
 21
27.9701839628932305
 31
0.0
  0
LINE
  5
58E
  8
0
  6
CONTINUOUS
 62
     7
 10
-10.99077789170755
 20
28.4701078104932002
 30
0.0
 11
-10.99077789170755
 21
27.9701839628932305
 31
0.0
  0
LINE
  5
58F
  8
0
  6
CONTINUOUS
 62
     7
 10
7.8092221082924453
 20
-36.9823598133067719
 30
0.0
 11
7.8092221082924453
 21
-37.4822836609067735
 31
0.0
  0
LINE
  5
590
  8
0
  6
CONTINUOUS
 62
     7
 10
-9.9907778917075518
 20
-37.4822836609067735
 30
0.0
 11
-9.9907778917075518
 21
-36.9823598133067719
 31
0.0
  0
LINE
  5
591
  8
0
  6
CONTINUOUS
 62
     7
 10
8.8092221082924453
 20
27.9701839628932305
 30
0.0
 11
8.8092221082924453
 21
28.4701078104932002
 31
0.0
  0
LINE
  5
592
  8
0
  6
CONTINUOUS
 62
     7
 10
-10.99077789170755
 20
27.9701839628932305
 30
0.0
 11
-10.99077789170755
 21
23.4939120747932293
 31
0.0
  0
LINE
  5
593
  8
0
  6
CONTINUOUS
 62
     7
 10
-9.9907778917075518
 20
23.4939120747932293
 30
0.0
 11
-9.9907778917075518
 21
27.9701839628932305
 31
0.0
  0
CIRCLE
  5
594
  8
0
  6
CONTINUOUS
 62
     7
 10
5.709222108292451
 20
-27.0060879252067707
 30
0.0
 40
5.0
  0
LINE
  5
595
  8
0
  6
CONTINUOUS
 62
     7
 10
7.8092221082924453
 20
27.9701839628932305
 30
0.0
 11
7.8092221082924453
 21
23.4939120747932293
 31
0.0
  0
CIRCLE
  5
596
  8
0
  6
CONTINUOUS
 62
     7
 10
4.909222108292453
 20
-17.5060879252067707
 30
0.0
 40
1.0
  0
LINE
  5
597
  8
0
  6
CONTINUOUS
 62
     7
 10
7.8092221082924453
 20
-32.5060879252067707
 30
0.0
 11
7.8092221082924453
 21
-36.9823598133067719
 31
0.0
  0
LINE
  5
598
  8
0
  6
CONTINUOUS
 62
     7
 10
8.8092221082924453
 20
-36.9823598133067719
 30
0.0
 11
8.8092221082924453
 21
-32.5060879252067707
 31
0.0
  0
CIRCLE
  5
599
  8
0
  6
CONTINUOUS
 62
     7
 10
4.909222108292453
 20
-11.5060879252067707
 30
0.0
 40
1.0
  0
LINE
  5
59A
  8
0
  6
CONTINUOUS
 62
     7
 10
8.8092221082924453
 20
-32.5060879252067707
 30
0.0
 11
7.8092221082924453
 21
-32.5060879252067707
 31
0.0
  0
LINE
  5
59B
  8
0
  6
CONTINUOUS
 62
     7
 10
-9.9907778917075518
 20
-36.9823598133067719
 30
0.0
 11
-9.9907778917075518
 21
-32.5060879252067707
 31
0.0
  0
LINE
  5
59C
  8
0
  6
CONTINUOUS
 62
     7
 10
-10.99077789170755
 20
-32.5060879252067707
 30
0.0
 11
-10.99077789170755
 21
-36.9823598133067719
 31
0.0
  0
LINE
  5
59D
  8
0
  6
CONTINUOUS
 62
     7
 10
-10.99077789170755
 20
23.4939120747932293
 30
0.0
 11
-9.9907778917075518
 21
23.4939120747932293
 31
0.0
  0
LINE
  5
59E
  8
0
  6
CONTINUOUS
 62
     7
 10
7.8092221082924453
 20
23.4939120747932293
 30
0.0
 11
8.8092221082924453
 21
23.4939120747932293
 31
0.0
  0
LINE
  5
59F
  8
0
  6
CONTINUOUS
 62
     7
 10
8.8092221082924453
 20
23.4939120747932293
 30
0.0
 11
8.8092221082924453
 21
27.9701839628932305
 31
0.0
  0
LINE
  5
5A0
  8
0
  6
CONTINUOUS
 62
     7
 10
-9.9907778917075518
 20
-32.5060879252067707
 30
0.0
 11
-10.99077789170755
 21
-32.5060879252067707
 31
0.0
  0
LINE
  5
5A1
  8
0
  6
CONTINUOUS
 62
     7
 10
-9.9907778917075518
 20
28.4877151918932192
 30
0.0
 11
-10.99077789170755
 21
28.4877151918932192
 31
0.0
  0
POLYLINE
  5
5A2
  8
0
  6
CONTINUOUS
 62
     7
 10
-14.390777891707538
 20
28.9886755552932094
 30
0.0
 66
     1
 70
     8
  0
VERTEX
  8
0
  5
AF8
 10
-14.3908
 20
28.9887
 30
0.00000
  70
    32
  0
VERTEX
  8
0
  5
AF9
 10
-14.3908
 20
28.9887
 30
0.00000
  70
    32
  0
VERTEX
  8
0
  5
AFA
 10
-14.3908
 20
28.9888
 30
0.00000
  70
    32
  0
VERTEX
  8
0
  5
AFB
 10
-14.3909
 20
28.9888
 30
0.00000
  70
    32
  0
VERTEX
  8
0
  5
AFC
 10
-14.3910
 20
28.9889
 30
0.00000
  70
    32
  0
VERTEX
  8
0
  5
AFD
 10
-14.3911
 20
28.9889
 30
0.00000
  70
    32
  0
VERTEX
  8
0
  5
AFE
 10
-14.3913
 20
28.9890
 30
0.00000
  70
    32
  0
VERTEX
  8
0
  5
AFF
 10
-14.3915
 20
28.9890
 30
0.00000
  70
    32
  0
VERTEX
  8
0
  5
B00
 10
-14.3917
 20
28.9891
 30
0.00000
  70
    32
  0
VERTEX
  8
0
  5
B01
 10
-14.3919
 20
28.9891
 30
0.00000
  70
    32
  0
VERTEX
  8
0
  5
B02
 10
-14.3922
 20
28.9892
 30
0.00000
  70
    32
  0
VERTEX
  8
0
  5
B03
 10
-14.3925
 20
28.9892
 30
0.00000
  70
    32
  0
VERTEX
  8
0
  5
B04
 10
-14.3928
 20
28.9893
 30
0.00000
  70
    32
  0
VERTEX
  8
0
  5
B05
 10
-14.3931
 20
28.9893
 30
0.00000
  70
    32
  0
VERTEX
  8
0
  5
B06
 10
-14.3935
 20
28.9894
 30
0.00000
  70
    32
  0
VERTEX
  8
0
  5
B07
 10
-14.3939
 20
28.9894
 30
0.00000
  70
    32
  0
VERTEX
  8
0
  5
B08
 10
-14.3943
 20
28.9895
 30
0.00000
  70
    32
  0
VERTEX
  8
0
  5
B09
 10
-14.3948
 20
28.9895
 30
0.00000
  70
    32
  0
VERTEX
  8
0
  5
B0A
 10
-14.3953
 20
28.9896
 30
0.00000
  70
    32
  0
VERTEX
  8
0
  5
B0B
 10
-14.3958
 20
28.9896
 30
0.00000
  70
    32
  0
VERTEX
  8
0
  5
B0C
 10
-14.3963
 20
28.9897
 30
0.00000
  70
    32
  0
VERTEX
  8
0
  5
B0D
 10
-14.3969
 20
28.9897
 30
0.00000
  70
    32
  0
VERTEX
  8
0
  5
B0E
 10
-14.3975
 20
28.9898
 30
0.00000
  70
    32
  0
VERTEX
  8
0
  5
B0F
 10
-14.3981
 20
28.9898
 30
0.00000
  70
    32
  0
VERTEX
  8
0
  5
B10
 10
-14.3987
 20
28.9899
 30
0.00000
  70
    32
  0
VERTEX
  8
0
  5
B11
 10
-14.3994
 20
28.9899
 30
0.00000
  70
    32
  0
VERTEX
  8
0
  5
B12
 10
-14.4001
 20
28.9900
 30
0.00000
  70
    32
  0
VERTEX
  8
0
  5
B13
 10
-14.4008
 20
28.9900
 30
0.00000
  70
    32
  0
VERTEX
  8
0
  5
B14
 10
-14.4016
 20
28.9901
 30
0.00000
  70
    32
  0
VERTEX
  8
0
  5
B15
 10
-14.4024
 20
28.9901
 30
0.00000
  70
    32
  0
VERTEX
  8
0
  5
B16
 10
-14.4032
 20
28.9902
 30
0.00000
  70
    32
  0
VERTEX
  8
0
  5
B17
 10
-14.4040
 20
28.9902
 30
0.00000
  70
    32
  0
VERTEX
  8
0
  5
B18
 10
-14.4049
 20
28.9903
 30
0.00000
  70
    32
  0
VERTEX
  8
0
  5
B19
 10
-14.4058
 20
28.9903
 30
0.00000
  70
    32
  0
VERTEX
  8
0
  5
B1A
 10
-14.4067
 20
28.9904
 30
0.00000
  70
    32
  0
VERTEX
  8
0
  5
B1B
 10
-14.4076
 20
28.9904
 30
0.00000
  70
    32
  0
VERTEX
  8
0
  5
B1C
 10
-14.4086
 20
28.9905
 30
0.00000
  70
    32
  0
VERTEX
  8
0
  5
B1D
 10
-14.4096
 20
28.9905
 30
0.00000
  70
    32
  0
VERTEX
  8
0
  5
B1E
 10
-14.4106
 20
28.9905
 30
0.00000
  70
    32
  0
VERTEX
  8
0
  5
B1F
 10
-14.4116
 20
28.9906
 30
0.00000
  70
    32
  0
VERTEX
  8
0
  5
B20
 10
-14.4127
 20
28.9906
 30
0.00000
  70
    32
  0
VERTEX
  8
0
  5
B21
 10
-14.4138
 20
28.9907
 30
0.00000
  70
    32
  0
VERTEX
  8
0
  5
B22
 10
-14.4149
 20
28.9907
 30
0.00000
  70
    32
  0
VERTEX
  8
0
  5
B23
 10
-14.4161
 20
28.9908
 30
0.00000
  70
    32
  0
VERTEX
  8
0
  5
B24
 10
-14.4172
 20
28.9908
 30
0.00000
  70
    32
  0
VERTEX
  8
0
  5
B25
 10
-14.4184
 20
28.9909
 30
0.00000
  70
    32
  0
VERTEX
  8
0
  5
B26
 10
-14.4197
 20
28.9909
 30
0.00000
  70
    32
  0
VERTEX
  8
0
  5
B27
 10
-14.4209
 20
28.9910
 30
0.00000
  70
    32
  0
VERTEX
  8
0
  5
B28
 10
-14.4222
 20
28.9910
 30
0.00000
  70
    32
  0
VERTEX
  8
0
  5
B29
 10
-14.4235
 20
28.9911
 30
0.00000
  70
    32
  0
VERTEX
  8
0
  5
B2A
 10
-14.4248
 20
28.9911
 30
0.00000
  70
    32
  0
VERTEX
  8
0
  5
B2B
 10
-14.4261
 20
28.9911
 30
0.00000
  70
    32
  0
VERTEX
  8
0
  5
B2C
 10
-14.4275
 20
28.9912
 30
0.00000
  70
    32
  0
VERTEX
  8
0
  5
B2D
 10
-14.4289
 20
28.9912
 30
0.00000
  70
    32
  0
VERTEX
  8
0
  5
B2E
 10
-14.4303
 20
28.9913
 30
0.00000
  70
    32
  0
VERTEX
  8
0
  5
B2F
 10
-14.4318
 20
28.9913
 30
0.00000
  70
    32
  0
VERTEX
  8
0
  5
B30
 10
-14.4332
 20
28.9914
 30
0.00000
  70
    32
  0
VERTEX
  8
0
  5
B31
 10
-14.4347
 20
28.9914
 30
0.00000
  70
    32
  0
VERTEX
  8
0
  5
B32
 10
-14.4362
 20
28.9914
 30
0.00000
  70
    32
  0
VERTEX
  8
0
  5
B33
 10
-14.4378
 20
28.9915
 30
0.00000
  70
    32
  0
VERTEX
  8
0
  5
B34
 10
-14.4393
 20
28.9915
 30
0.00000
  70
    32
  0
VERTEX
  8
0
  5
B35
 10
-14.4409
 20
28.9916
 30
0.00000
  70
    32
  0
VERTEX
  8
0
  5
B36
 10
-14.4425
 20
28.9916
 30
0.00000
  70
    32
  0
VERTEX
  8
0
  5
B37
 10
-14.4442
 20
28.9917
 30
0.00000
  70
    32
  0
VERTEX
  8
0
  5
B38
 10
-14.4458
 20
28.9917
 30
0.00000
  70
    32
  0
VERTEX
  8
0
  5
B39
 10
-14.4475
 20
28.9917
 30
0.00000
  70
    32
  0
VERTEX
  8
0
  5
B3A
 10
-14.4492
 20
28.9918
 30
0.00000
  70
    32
  0
VERTEX
  8
0
  5
B3B
 10
-14.4509
 20
28.9918
 30
0.00000
  70
    32
  0
VERTEX
  8
0
  5
B3C
 10
-14.4527
 20
28.9919
 30
0.00000
  70
    32
  0
VERTEX
  8
0
  5
B3D
 10
-14.4544
 20
28.9919
 30
0.00000
  70
    32
  0
VERTEX
  8
0
  5
B3E
 10
-14.4562
 20
28.9919
 30
0.00000
  70
    32
  0
VERTEX
  8
0
  5
B3F
 10
-14.4580
 20
28.9920
 30
0.00000
  70
    32
  0
VERTEX
  8
0
  5
B40
 10
-14.4599
 20
28.9920
 30
0.00000
  70
    32
  0
VERTEX
  8
0
  5
B41
 10
-14.4617
 20
28.9921
 30
0.00000
  70
    32
  0
VERTEX
  8
0
  5
B42
 10
-14.4636
 20
28.9921
 30
0.00000
  70
    32
  0
VERTEX
  8
0
  5
B43
 10
-14.4655
 20
28.9921
 30
0.00000
  70
    32
  0
VERTEX
  8
0
  5
B44
 10
-14.4674
 20
28.9922
 30
0.00000
  70
    32
  0
VERTEX
  8
0
  5
B45
 10
-14.4693
 20
28.9922
 30
0.00000
  70
    32
  0
VERTEX
  8
0
  5
B46
 10
-14.4713
 20
28.9922
 30
0.00000
  70
    32
  0
VERTEX
  8
0
  5
B47
 10
-14.4733
 20
28.9923
 30
0.00000
  70
    32
  0
VERTEX
  8
0
  5
B48
 10
-14.4753
 20
28.9923
 30
0.00000
  70
    32
  0
VERTEX
  8
0
  5
B49
 10
-14.4773
 20
28.9924
 30
0.00000
  70
    32
  0
VERTEX
  8
0
  5
B4A
 10
-14.4793
 20
28.9924
 30
0.00000
  70
    32
  0
VERTEX
  8
0
  5
B4B
 10
-14.4814
 20
28.9924
 30
0.00000
  70
    32
  0
VERTEX
  8
0
  5
B4C
 10
-14.4835
 20
28.9925
 30
0.00000
  70
    32
  0
VERTEX
  8
0
  5
B4D
 10
-14.4855
 20
28.9925
 30
0.00000
  70
    32
  0
VERTEX
  8
0
  5
B4E
 10
-14.4877
 20
28.9925
 30
0.00000
  70
    32
  0
VERTEX
  8
0
  5
B4F
 10
-14.4898
 20
28.9926
 30
0.00000
  70
    32
  0
VERTEX
  8
0
  5
B50
 10
-14.4919
 20
28.9926
 30
0.00000
  70
    32
  0
VERTEX
  8
0
  5
B51
 10
-14.4941
 20
28.9926
 30
0.00000
  70
    32
  0
VERTEX
  8
0
  5
B52
 10
-14.4963
 20
28.9927
 30
0.00000
  70
    32
  0
VERTEX
  8
0
  5
B53
 10
-14.4985
 20
28.9927
 30
0.00000
  70
    32
  0
VERTEX
  8
0
  5
B54
 10
-14.5007
 20
28.9927
 30
0.00000
  70
    32
  0
VERTEX
  8
0
  5
B55
 10
-14.5030
 20
28.9928
 30
0.00000
  70
    32
  0
VERTEX
  8
0
  5
B56
 10
-14.5052
 20
28.9928
 30
0.00000
  70
    32
  0
VERTEX
  8
0
  5
B57
 10
-14.5075
 20
28.9928
 30
0.00000
  70
    32
  0
VERTEX
  8
0
  5
B58
 10
-14.5098
 20
28.9929
 30
0.00000
  70
    32
  0
VERTEX
  8
0
  5
B59
 10
-14.5121
 20
28.9929
 30
0.00000
  70
    32
  0
VERTEX
  8
0
  5
B5A
 10
-14.5144
 20
28.9929
 30
0.00000
  70
    32
  0
VERTEX
  8
0
  5
B5B
 10
-14.5168
 20
28.9929
 30
0.00000
  70
    32
  0
VERTEX
  8
0
  5
B5C
 10
-14.5191
 20
28.9930
 30
0.00000
  70
    32
  0
VERTEX
  8
0
  5
B5D
 10
-14.5215
 20
28.9930
 30
0.00000
  70
    32
  0
VERTEX
  8
0
  5
B5E
 10
-14.5239
 20
28.9930
 30
0.00000
  70
    32
  0
VERTEX
  8
0
  5
B5F
 10
-14.5263
 20
28.9931
 30
0.00000
  70
    32
  0
VERTEX
  8
0
  5
B60
 10
-14.5287
 20
28.9931
 30
0.00000
  70
    32
  0
VERTEX
  8
0
  5
B61
 10
-14.5312
 20
28.9931
 30
0.00000
  70
    32
  0
VERTEX
  8
0
  5
B62
 10
-14.5336
 20
28.9931
 30
0.00000
  70
    32
  0
VERTEX
  8
0
  5
B63
 10
-14.5361
 20
28.9932
 30
0.00000
  70
    32
  0
VERTEX
  8
0
  5
B64
 10
-14.5386
 20
28.9932
 30
0.00000
  70
    32
  0
VERTEX
  8
0
  5
B65
 10
-14.5410
 20
28.9932
 30
0.00000
  70
    32
  0
VERTEX
  8
0
  5
B66
 10
-14.5436
 20
28.9932
 30
0.00000
  70
    32
  0
VERTEX
  8
0
  5
B67
 10
-14.5461
 20
28.9933
 30
0.00000
  70
    32
  0
VERTEX
  8
0
  5
B68
 10
-14.5486
 20
28.9933
 30
0.00000
  70
    32
  0
VERTEX
  8
0
  5
B69
 10
-14.5512
 20
28.9933
 30
0.00000
  70
    32
  0
VERTEX
  8
0
  5
B6A
 10
-14.5537
 20
28.9933
 30
0.00000
  70
    32
  0
VERTEX
  8
0
  5
B6B
 10
-14.5563
 20
28.9934
 30
0.00000
  70
    32
  0
VERTEX
  8
0
  5
B6C
 10
-14.5589
 20
28.9934
 30
0.00000
  70
    32
  0
VERTEX
  8
0
  5
B6D
 10
-14.5615
 20
28.9934
 30
0.00000
  70
    32
  0
VERTEX
  8
0
  5
B6E
 10
-14.5641
 20
28.9934
 30
0.00000
  70
    32
  0
VERTEX
  8
0
  5
B6F
 10
-14.5667
 20
28.9934
 30
0.00000
  70
    32
  0
VERTEX
  8
0
  5
B70
 10
-14.5693
 20
28.9935
 30
0.00000
  70
    32
  0
VERTEX
  8
0
  5
B71
 10
-14.5720
 20
28.9935
 30
0.00000
  70
    32
  0
VERTEX
  8
0
  5
B72
 10
-14.5746
 20
28.9935
 30
0.00000
  70
    32
  0
VERTEX
  8
0
  5
B73
 10
-14.5773
 20
28.9935
 30
0.00000
  70
    32
  0
VERTEX
  8
0
  5
B74
 10
-14.5800
 20
28.9935
 30
0.00000
  70
    32
  0
VERTEX
  8
0
  5
B75
 10
-14.5827
 20
28.9936
 30
0.00000
  70
    32
  0
VERTEX
  8
0
  5
B76
 10
-14.5854
 20
28.9936
 30
0.00000
  70
    32
  0
VERTEX
  8
0
  5
B77
 10
-14.5881
 20
28.9936
 30
0.00000
  70
    32
  0
VERTEX
  8
0
  5
B78
 10
-14.5908
 20
28.9936
 30
0.00000
  70
    32
  0
SEQEND
  8
0
  5
B79
  0
LINE
  5
5A3
  8
0
  6
CONTINUOUS
 62
     7
 10
-14.3907778917075593
 20
28.9572564384932605
 30
0.0
 11
-14.3907778917075593
 21
28.9886755552932094
 31
0.0
  0
LINE
  5
5A4
  8
0
  6
CONTINUOUS
 62
     7
 10
-14.3907778917075593
 20
28.9572564384932605
 30
0.0
 11
-12.0907778917075408
 21
28.9572564384932605
 31
0.0
  0
LINE
  5
5A5
  8
0
  6
CONTINUOUS
 62
     7
 10
-12.0907778917075408
 20
28.9939120747932293
 30
0.0
 11
-12.0907778917075408
 21
28.9572564384932605
 31
0.0
  0
LINE
  5
5A6
  8
0
  6
CONTINUOUS
 62
     7
 10
9.9092221082924539
 20
28.9939120747932293
 30
0.0
 11
-12.0907778917075408
 21
28.9939120747932293
 31
0.0
  0
LINE
  5
5A7
  8
0
  6
CONTINUOUS
 62
     7
 10
9.9092221082924539
 20
28.9572564384932605
 30
0.0
 11
9.9092221082924539
 21
28.9939120747932293
 31
0.0
  0
LINE
  5
5A8
  8
0
  6
CONTINUOUS
 62
     7
 10
9.9092221082924539
 20
28.9572564384932605
 30
0.0
 11
12.2092221082924492
 21
28.9572564384932605
 31
0.0
  0
LINE
  5
5A9
  8
0
  6
CONTINUOUS
 62
     7
 10
12.2092221082924492
 20
28.9886755552932094
 30
0.0
 11
12.2092221082924492
 21
28.9572564384932605
 31
0.0
  0
POLYLINE
  5
5AA
  8
0
  6
CONTINUOUS
 62
     7
 10
12.409222108292628
 20
28.9936125931959481
 30
0.0
 66
     1
 70
     8
  0
VERTEX
  8
0
  5
B7A
 10
12.4092
 20
28.9936
 30
0.00000
  70
    32
  0
VERTEX
  8
0
  5
B7B
 10
12.4065
 20
28.9936
 30
0.00000
  70
    32
  0
VERTEX
  8
0
  5
B7C
 10
12.4038
 20
28.9936
 30
0.00000
  70
    32
  0
VERTEX
  8
0
  5
B7D
 10
12.4011
 20
28.9936
 30
0.00000
  70
    32
  0
VERTEX
  8
0
  5
B7E
 10
12.3984
 20
28.9935
 30
0.00000
  70
    32
  0
VERTEX
  8
0
  5
B7F
 10
12.3957
 20
28.9935
 30
0.00000
  70
    32
  0
VERTEX
  8
0
  5
B80
 10
12.3931
 20
28.9935
 30
0.00000
  70
    32
  0
VERTEX
  8
0
  5
B81
 10
12.3904
 20
28.9935
 30
0.00000
  70
    32
  0
VERTEX
  8
0
  5
B82
 10
12.3878
 20
28.9935
 30
0.00000
  70
    32
  0
VERTEX
  8
0
  5
B83
 10
12.3851
 20
28.9934
 30
0.00000
  70
    32
  0
VERTEX
  8
0
  5
B84
 10
12.3825
 20
28.9934
 30
0.00000
  70
    32
  0
VERTEX
  8
0
  5
B85
 10
12.3799
 20
28.9934
 30
0.00000
  70
    32
  0
VERTEX
  8
0
  5
B86
 10
12.3773
 20
28.9934
 30
0.00000
  70
    32
  0
VERTEX
  8
0
  5
B87
 10
12.3747
 20
28.9934
 30
0.00000
  70
    32
  0
VERTEX
  8
0
  5
B88
 10
12.3722
 20
28.9933
 30
0.00000
  70
    32
  0
VERTEX
  8
0
  5
B89
 10
12.3696
 20
28.9933
 30
0.00000
  70
    32
  0
VERTEX
  8
0
  5
B8A
 10
12.3671
 20
28.9933
 30
0.00000
  70
    32
  0
VERTEX
  8
0
  5
B8B
 10
12.3645
 20
28.9933
 30
0.00000
  70
    32
  0
VERTEX
  8
0
  5
B8C
 10
12.3620
 20
28.9932
 30
0.00000
  70
    32
  0
VERTEX
  8
0
  5
B8D
 10
12.3595
 20
28.9932
 30
0.00000
  70
    32
  0
VERTEX
  8
0
  5
B8E
 10
12.3570
 20
28.9932
 30
0.00000
  70
    32
  0
VERTEX
  8
0
  5
B8F
 10
12.3545
 20
28.9932
 30
0.00000
  70
    32
  0
VERTEX
  8
0
  5
B90
 10
12.3521
 20
28.9931
 30
0.00000
  70
    32
  0
VERTEX
  8
0
  5
B91
 10
12.3496
 20
28.9931
 30
0.00000
  70
    32
  0
VERTEX
  8
0
  5
B92
 10
12.3472
 20
28.9931
 30
0.00000
  70
    32
  0
VERTEX
  8
0
  5
B93
 10
12.3448
 20
28.9931
 30
0.00000
  70
    32
  0
VERTEX
  8
0
  5
B94
 10
12.3423
 20
28.9930
 30
0.00000
  70
    32
  0
VERTEX
  8
0
  5
B95
 10
12.3400
 20
28.9930
 30
0.00000
  70
    32
  0
VERTEX
  8
0
  5
B96
 10
12.3376
 20
28.9930
 30
0.00000
  70
    32
  0
VERTEX
  8
0
  5
B97
 10
12.3352
 20
28.9929
 30
0.00000
  70
    32
  0
VERTEX
  8
0
  5
B98
 10
12.3329
 20
28.9929
 30
0.00000
  70
    32
  0
VERTEX
  8
0
  5
B99
 10
12.3306
 20
28.9929
 30
0.00000
  70
    32
  0
VERTEX
  8
0
  5
B9A
 10
12.3282
 20
28.9929
 30
0.00000
  70
    32
  0
VERTEX
  8
0
  5
B9B
 10
12.3260
 20
28.9928
 30
0.00000
  70
    32
  0
VERTEX
  8
0
  5
B9C
 10
12.3237
 20
28.9928
 30
0.00000
  70
    32
  0
VERTEX
  8
0
  5
B9D
 10
12.3214
 20
28.9928
 30
0.00000
  70
    32
  0
VERTEX
  8
0
  5
B9E
 10
12.3192
 20
28.9927
 30
0.00000
  70
    32
  0
VERTEX
  8
0
  5
B9F
 10
12.3170
 20
28.9927
 30
0.00000
  70
    32
  0
VERTEX
  8
0
  5
BA0
 10
12.3147
 20
28.9927
 30
0.00000
  70
    32
  0
VERTEX
  8
0
  5
BA1
 10
12.3126
 20
28.9926
 30
0.00000
  70
    32
  0
VERTEX
  8
0
  5
BA2
 10
12.3104
 20
28.9926
 30
0.00000
  70
    32
  0
VERTEX
  8
0
  5
BA3
 10
12.3082
 20
28.9926
 30
0.00000
  70
    32
  0
VERTEX
  8
0
  5
BA4
 10
12.3061
 20
28.9925
 30
0.00000
  70
    32
  0
VERTEX
  8
0
  5
BA5
 10
12.3040
 20
28.9925
 30
0.00000
  70
    32
  0
VERTEX
  8
0
  5
BA6
 10
12.3019
 20
28.9925
 30
0.00000
  70
    32
  0
VERTEX
  8
0
  5
BA7
 10
12.2998
 20
28.9924
 30
0.00000
  70
    32
  0
VERTEX
  8
0
  5
BA8
 10
12.2978
 20
28.9924
 30
0.00000
  70
    32
  0
VERTEX
  8
0
  5
BA9
 10
12.2957
 20
28.9924
 30
0.00000
  70
    32
  0
VERTEX
  8
0
  5
BAA
 10
12.2937
 20
28.9923
 30
0.00000
  70
    32
  0
VERTEX
  8
0
  5
BAB
 10
12.2917
 20
28.9923
 30
0.00000
  70
    32
  0
VERTEX
  8
0
  5
BAC
 10
12.2897
 20
28.9922
 30
0.00000
  70
    32
  0
VERTEX
  8
0
  5
BAD
 10
12.2878
 20
28.9922
 30
0.00000
  70
    32
  0
VERTEX
  8
0
  5
BAE
 10
12.2858
 20
28.9922
 30
0.00000
  70
    32
  0
VERTEX
  8
0
  5
BAF
 10
12.2839
 20
28.9921
 30
0.00000
  70
    32
  0
VERTEX
  8
0
  5
BB0
 10
12.2820
 20
28.9921
 30
0.00000
  70
    32
  0
VERTEX
  8
0
  5
BB1
 10
12.2802
 20
28.9921
 30
0.00000
  70
    32
  0
VERTEX
  8
0
  5
BB2
 10
12.2783
 20
28.9920
 30
0.00000
  70
    32
  0
VERTEX
  8
0
  5
BB3
 10
12.2765
 20
28.9920
 30
0.00000
  70
    32
  0
VERTEX
  8
0
  5
BB4
 10
12.2747
 20
28.9919
 30
0.00000
  70
    32
  0
VERTEX
  8
0
  5
BB5
 10
12.2729
 20
28.9919
 30
0.00000
  70
    32
  0
VERTEX
  8
0
  5
BB6
 10
12.2711
 20
28.9919
 30
0.00000
  70
    32
  0
VERTEX
  8
0
  5
BB7
 10
12.2694
 20
28.9918
 30
0.00000
  70
    32
  0
VERTEX
  8
0
  5
BB8
 10
12.2676
 20
28.9918
 30
0.00000
  70
    32
  0
VERTEX
  8
0
  5
BB9
 10
12.2660
 20
28.9917
 30
0.00000
  70
    32
  0
VERTEX
  8
0
  5
BBA
 10
12.2643
 20
28.9917
 30
0.00000
  70
    32
  0
VERTEX
  8
0
  5
BBB
 10
12.2626
 20
28.9917
 30
0.00000
  70
    32
  0
VERTEX
  8
0
  5
BBC
 10
12.2610
 20
28.9916
 30
0.00000
  70
    32
  0
VERTEX
  8
0
  5
BBD
 10
12.2594
 20
28.9916
 30
0.00000
  70
    32
  0
VERTEX
  8
0
  5
BBE
 10
12.2578
 20
28.9915
 30
0.00000
  70
    32
  0
VERTEX
  8
0
  5
BBF
 10
12.2562
 20
28.9915
 30
0.00000
  70
    32
  0
VERTEX
  8
0
  5
BC0
 10
12.2547
 20
28.9914
 30
0.00000
  70
    32
  0
VERTEX
  8
0
  5
BC1
 10
12.2532
 20
28.9914
 30
0.00000
  70
    32
  0
VERTEX
  8
0
  5
BC2
 10
12.2517
 20
28.9914
 30
0.00000
  70
    32
  0
VERTEX
  8
0
  5
BC3
 10
12.2502
 20
28.9913
 30
0.00000
  70
    32
  0
VERTEX
  8
0
  5
BC4
 10
12.2488
 20
28.9913
 30
0.00000
  70
    32
  0
VERTEX
  8
0
  5
BC5
 10
12.2474
 20
28.9912
 30
0.00000
  70
    32
  0
VERTEX
  8
0
  5
BC6
 10
12.2460
 20
28.9912
 30
0.00000
  70
    32
  0
VERTEX
  8
0
  5
BC7
 10
12.2446
 20
28.9911
 30
0.00000
  70
    32
  0
VERTEX
  8
0
  5
BC8
 10
12.2432
 20
28.9911
 30
0.00000
  70
    32
  0
VERTEX
  8
0
  5
BC9
 10
12.2419
 20
28.9911
 30
0.00000
  70
    32
  0
VERTEX
  8
0
  5
BCA
 10
12.2406
 20
28.9910
 30
0.00000
  70
    32
  0
VERTEX
  8
0
  5
BCB
 10
12.2393
 20
28.9910
 30
0.00000
  70
    32
  0
VERTEX
  8
0
  5
BCC
 10
12.2381
 20
28.9909
 30
0.00000
  70
    32
  0
VERTEX
  8
0
  5
BCD
 10
12.2369
 20
28.9909
 30
0.00000
  70
    32
  0
VERTEX
  8
0
  5
BCE
 10
12.2357
 20
28.9908
 30
0.00000
  70
    32
  0
VERTEX
  8
0
  5
BCF
 10
12.2345
 20
28.9908
 30
0.00000
  70
    32
  0
VERTEX
  8
0
  5
BD0
 10
12.2334
 20
28.9907
 30
0.00000
  70
    32
  0
VERTEX
  8
0
  5
BD1
 10
12.2322
 20
28.9907
 30
0.00000
  70
    32
  0
VERTEX
  8
0
  5
BD2
 10
12.2311
 20
28.9906
 30
0.00000
  70
    32
  0
VERTEX
  8
0
  5
BD3
 10
12.2301
 20
28.9906
 30
0.00000
  70
    32
  0
VERTEX
  8
0
  5
BD4
 10
12.2290
 20
28.9905
 30
0.00000
  70
    32
  0
VERTEX
  8
0
  5
BD5
 10
12.2280
 20
28.9905
 30
0.00000
  70
    32
  0
VERTEX
  8
0
  5
BD6
 10
12.2270
 20
28.9905
 30
0.00000
  70
    32
  0
VERTEX
  8
0
  5
BD7
 10
12.2261
 20
28.9904
 30
0.00000
  70
    32
  0
VERTEX
  8
0
  5
BD8
 10
12.2251
 20
28.9904
 30
0.00000
  70
    32
  0
VERTEX
  8
0
  5
BD9
 10
12.2242
 20
28.9903
 30
0.00000
  70
    32
  0
VERTEX
  8
0
  5
BDA
 10
12.2233
 20
28.9903
 30
0.00000
  70
    32
  0
VERTEX
  8
0
  5
BDB
 10
12.2225
 20
28.9902
 30
0.00000
  70
    32
  0
VERTEX
  8
0
  5
BDC
 10
12.2216
 20
28.9902
 30
0.00000
  70
    32
  0
VERTEX
  8
0
  5
BDD
 10
12.2208
 20
28.9901
 30
0.00000
  70
    32
  0
VERTEX
  8
0
  5
BDE
 10
12.2200
 20
28.9901
 30
0.00000
  70
    32
  0
VERTEX
  8
0
  5
BDF
 10
12.2193
 20
28.9900
 30
0.00000
  70
    32
  0
VERTEX
  8
0
  5
BE0
 10
12.2186
 20
28.9900
 30
0.00000
  70
    32
  0
VERTEX
  8
0
  5
BE1
 10
12.2179
 20
28.9899
 30
0.00000
  70
    32
  0
VERTEX
  8
0
  5
BE2
 10
12.2172
 20
28.9899
 30
0.00000
  70
    32
  0
VERTEX
  8
0
  5
BE3
 10
12.2165
 20
28.9898
 30
0.00000
  70
    32
  0
VERTEX
  8
0
  5
BE4
 10
12.2159
 20
28.9898
 30
0.00000
  70
    32
  0
VERTEX
  8
0
  5
BE5
 10
12.2153
 20
28.9897
 30
0.00000
  70
    32
  0
VERTEX
  8
0
  5
BE6
 10
12.2148
 20
28.9897
 30
0.00000
  70
    32
  0
VERTEX
  8
0
  5
BE7
 10
12.2142
 20
28.9896
 30
0.00000
  70
    32
  0
VERTEX
  8
0
  5
BE8
 10
12.2137
 20
28.9896
 30
0.00000
  70
    32
  0
VERTEX
  8
0
  5
BE9
 10
12.2132
 20
28.9895
 30
0.00000
  70
    32
  0
VERTEX
  8
0
  5
BEA
 10
12.2128
 20
28.9895
 30
0.00000
  70
    32
  0
VERTEX
  8
0
  5
BEB
 10
12.2123
 20
28.9894
 30
0.00000
  70
    32
  0
VERTEX
  8
0
  5
BEC
 10
12.2119
 20
28.9894
 30
0.00000
  70
    32
  0
VERTEX
  8
0
  5
BED
 10
12.2116
 20
28.9893
 30
0.00000
  70
    32
  0
VERTEX
  8
0
  5
BEE
 10
12.2112
 20
28.9893
 30
0.00000
  70
    32
  0
VERTEX
  8
0
  5
BEF
 10
12.2109
 20
28.9892
 30
0.00000
  70
    32
  0
VERTEX
  8
0
  5
BF0
 10
12.2106
 20
28.9892
 30
0.00000
  70
    32
  0
VERTEX
  8
0
  5
BF1
 10
12.2103
 20
28.9891
 30
0.00000
  70
    32
  0
VERTEX
  8
0
  5
BF2
 10
12.2101
 20
28.9891
 30
0.00000
  70
    32
  0
VERTEX
  8
0
  5
BF3
 10
12.2099
 20
28.9890
 30
0.00000
  70
    32
  0
VERTEX
  8
0
  5
BF4
 10
12.2097
 20
28.9890
 30
0.00000
  70
    32
  0
VERTEX
  8
0
  5
BF5
 10
12.2096
 20
28.9889
 30
0.00000
  70
    32
  0
VERTEX
  8
0
  5
BF6
 10
12.2094
 20
28.9889
 30
0.00000
  70
    32
  0
VERTEX
  8
0
  5
BF7
 10
12.2093
 20
28.9888
 30
0.00000
  70
    32
  0
VERTEX
  8
0
  5
BF8
 10
12.2093
 20
28.9888
 30
0.00000
  70
    32
  0
VERTEX
  8
0
  5
BF9
 10
12.2092
 20
28.9887
 30
0.00000
  70
    32
  0
VERTEX
  8
0
  5
BFA
 10
12.2092
 20
28.9887
 30
0.00000
  70
    32
  0
SEQEND
  8
0
  5
BFB
  0
LINE
  5
5AB
  8
0
  6
CONTINUOUS
 62
     7
 10
8.8092221082924453
 20
28.4877151918932192
 30
0.0
 11
7.8092221082924453
 21
28.4877151918932192
 31
0.0
  0
LINE
  5
5AC
  8
0
  6
CONTINUOUS
 62
     7
 10
-10.99077789170755
 20
28.4701078104932002
 30
0.0
 11
-10.99077789170755
 21
28.4877151918932192
 31
0.0
  0
LINE
  5
5AD
  8
0
  6
CONTINUOUS
 62
     7
 10
-9.9907778917075518
 20
28.4877151918932192
 30
0.0
 11
-9.9907778917075518
 21
28.4701078104932002
 31
0.0
  0
LINE
  5
5AE
  8
0
  6
CONTINUOUS
 62
     7
 10
7.8092221082924453
 20
28.4701078104932002
 30
0.0
 11
7.8092221082924453
 21
28.4877151918932192
 31
0.0
  0
LINE
  5
5AF
  8
0
  6
CONTINUOUS
 62
     7
 10
8.8092221082924453
 20
28.4877151918932192
 30
0.0
 11
8.8092221082924453
 21
28.4701078104932002
 31
0.0
  0
POLYLINE
  5
5B0
  8
0
  6
CONTINUOUS
 62
     7
 10
12.90922210831428
 20
28.4938359107932513
 30
0.0
 66
     1
 70
     8
  0
VERTEX
  8
0
  5
BFC
 10
12.9092
 20
28.4938
 30
0.00000
  70
    32
  0
VERTEX
  8
0
  5
BFD
 10
12.9092
 20
28.4992
 30
0.00000
  70
    32
  0
VERTEX
  8
0
  5
BFE
 10
12.9091
 20
28.5045
 30
0.00000
  70
    32
  0
VERTEX
  8
0
  5
BFF
 10
12.9090
 20
28.5099
 30
0.00000
  70
    32
  0
VERTEX
  8
0
  5
C00
 10
12.9088
 20
28.5152
 30
0.00000
  70
    32
  0
VERTEX
  8
0
  5
C01
 10
12.9085
 20
28.5206
 30
0.00000
  70
    32
  0
VERTEX
  8
0
  5
C02
 10
12.9082
 20
28.5259
 30
0.00000
  70
    32
  0
VERTEX
  8
0
  5
C03
 10
12.9078
 20
28.5313
 30
0.00000
  70
    32
  0
VERTEX
  8
0
  5
C04
 10
12.9074
 20
28.5366
 30
0.00000
  70
    32
  0
VERTEX
  8
0
  5
C05
 10
12.9069
 20
28.5419
 30
0.00000
  70
    32
  0
VERTEX
  8
0
  5
C06
 10
12.9064
 20
28.5472
 30
0.00000
  70
    32
  0
VERTEX
  8
0
  5
C07
 10
12.9058
 20
28.5526
 30
0.00000
  70
    32
  0
VERTEX
  8
0
  5
C08
 10
12.9051
 20
28.5579
 30
0.00000
  70
    32
  0
VERTEX
  8
0
  5
C09
 10
12.9044
 20
28.5632
 30
0.00000
  70
    32
  0
VERTEX
  8
0
  5
C0A
 10
12.9036
 20
28.5685
 30
0.00000
  70
    32
  0
VERTEX
  8
0
  5
C0B
 10
12.9028
 20
28.5737
 30
0.00000
  70
    32
  0
VERTEX
  8
0
  5
C0C
 10
12.9019
 20
28.5790
 30
0.00000
  70
    32
  0
VERTEX
  8
0
  5
C0D
 10
12.9010
 20
28.5843
 30
0.00000
  70
    32
  0
VERTEX
  8
0
  5
C0E
 10
12.9000
 20
28.5895
 30
0.00000
  70
    32
  0
VERTEX
  8
0
  5
C0F
 10
12.8989
 20
28.5948
 30
0.00000
  70
    32
  0
VERTEX
  8
0
  5
C10
 10
12.8978
 20
28.6000
 30
0.00000
  70
    32
  0
VERTEX
  8
0
  5
C11
 10
12.8967
 20
28.6052
 30
0.00000
  70
    32
  0
VERTEX
  8
0
  5
C12
 10
12.8954
 20
28.6105
 30
0.00000
  70
    32
  0
VERTEX
  8
0
  5
C13
 10
12.8942
 20
28.6157
 30
0.00000
  70
    32
  0
VERTEX
  8
0
  5
C14
 10
12.8928
 20
28.6208
 30
0.00000
  70
    32
  0
VERTEX
  8
0
  5
C15
 10
12.8914
 20
28.6260
 30
0.00000
  70
    32
  0
VERTEX
  8
0
  5
C16
 10
12.8900
 20
28.6312
 30
0.00000
  70
    32
  0
VERTEX
  8
0
  5
C17
 10
12.8885
 20
28.6363
 30
0.00000
  70
    32
  0
VERTEX
  8
0
  5
C18
 10
12.8870
 20
28.6414
 30
0.00000
  70
    32
  0
VERTEX
  8
0
  5
C19
 10
12.8853
 20
28.6465
 30
0.00000
  70
    32
  0
VERTEX
  8
0
  5
C1A
 10
12.8837
 20
28.6516
 30
0.00000
  70
    32
  0
VERTEX
  8
0
  5
C1B
 10
12.8820
 20
28.6567
 30
0.00000
  70
    32
  0
VERTEX
  8
0
  5
C1C
 10
12.8802
 20
28.6617
 30
0.00000
  70
    32
  0
VERTEX
  8
0
  5
C1D
 10
12.8784
 20
28.6667
 30
0.00000
  70
    32
  0
VERTEX
  8
0
  5
C1E
 10
12.8765
 20
28.6718
 30
0.00000
  70
    32
  0
VERTEX
  8
0
  5
C1F
 10
12.8746
 20
28.6767
 30
0.00000
  70
    32
  0
VERTEX
  8
0
  5
C20
 10
12.8726
 20
28.6817
 30
0.00000
  70
    32
  0
VERTEX
  8
0
  5
C21
 10
12.8706
 20
28.6867
 30
0.00000
  70
    32
  0
VERTEX
  8
0
  5
C22
 10
12.8685
 20
28.6916
 30
0.00000
  70
    32
  0
VERTEX
  8
0
  5
C23
 10
12.8663
 20
28.6965
 30
0.00000
  70
    32
  0
VERTEX
  8
0
  5
C24
 10
12.8641
 20
28.7014
 30
0.00000
  70
    32
  0
VERTEX
  8
0
  5
C25
 10
12.8619
 20
28.7062
 30
0.00000
  70
    32
  0
VERTEX
  8
0
  5
C26
 10
12.8596
 20
28.7111
 30
0.00000
  70
    32
  0
VERTEX
  8
0
  5
C27
 10
12.8572
 20
28.7159
 30
0.00000
  70
    32
  0
VERTEX
  8
0
  5
C28
 10
12.8548
 20
28.7206
 30
0.00000
  70
    32
  0
VERTEX
  8
0
  5
C29
 10
12.8524
 20
28.7254
 30
0.00000
  70
    32
  0
VERTEX
  8
0
  5
C2A
 10
12.8499
 20
28.7301
 30
0.00000
  70
    32
  0
VERTEX
  8
0
  5
C2B
 10
12.8473
 20
28.7348
 30
0.00000
  70
    32
  0
VERTEX
  8
0
  5
C2C
 10
12.8447
 20
28.7395
 30
0.00000
  70
    32
  0
VERTEX
  8
0
  5
C2D
 10
12.8421
 20
28.7442
 30
0.00000
  70
    32
  0
VERTEX
  8
0
  5
C2E
 10
12.8394
 20
28.7488
 30
0.00000
  70
    32
  0
VERTEX
  8
0
  5
C2F
 10
12.8366
 20
28.7534
 30
0.00000
  70
    32
  0
VERTEX
  8
0
  5
C30
 10
12.8338
 20
28.7579
 30
0.00000
  70
    32
  0
VERTEX
  8
0
  5
C31
 10
12.8310
 20
28.7624
 30
0.00000
  70
    32
  0
VERTEX
  8
0
  5
C32
 10
12.8281
 20
28.7669
 30
0.00000
  70
    32
  0
VERTEX
  8
0
  5
C33
 10
12.8251
 20
28.7714
 30
0.00000
  70
    32
  0
VERTEX
  8
0
  5
C34
 10
12.8221
 20
28.7758
 30
0.00000
  70
    32
  0
VERTEX
  8
0
  5
C35
 10
12.8191
 20
28.7802
 30
0.00000
  70
    32
  0
VERTEX
  8
0
  5
C36
 10
12.8160
 20
28.7846
 30
0.00000
  70
    32
  0
VERTEX
  8
0
  5
C37
 10
12.8129
 20
28.7889
 30
0.00000
  70
    32
  0
VERTEX
  8
0
  5
C38
 10
12.8097
 20
28.7933
 30
0.00000
  70
    32
  0
VERTEX
  8
0
  5
C39
 10
12.8065
 20
28.7975
 30
0.00000
  70
    32
  0
VERTEX
  8
0
  5
C3A
 10
12.8032
 20
28.8018
 30
0.00000
  70
    32
  0
VERTEX
  8
0
  5
C3B
 10
12.7999
 20
28.8059
 30
0.00000
  70
    32
  0
VERTEX
  8
0
  5
C3C
 10
12.7965
 20
28.8101
 30
0.00000
  70
    32
  0
VERTEX
  8
0
  5
C3D
 10
12.7931
 20
28.8142
 30
0.00000
  70
    32
  0
VERTEX
  8
0
  5
C3E
 10
12.7897
 20
28.8183
 30
0.00000
  70
    32
  0
VERTEX
  8
0
  5
C3F
 10
12.7862
 20
28.8224
 30
0.00000
  70
    32
  0
VERTEX
  8
0
  5
C40
 10
12.7826
 20
28.8264
 30
0.00000
  70
    32
  0
VERTEX
  8
0
  5
C41
 10
12.7791
 20
28.8304
 30
0.00000
  70
    32
  0
VERTEX
  8
0
  5
C42
 10
12.7754
 20
28.8343
 30
0.00000
  70
    32
  0
VERTEX
  8
0
  5
C43
 10
12.7718
 20
28.8382
 30
0.00000
  70
    32
  0
VERTEX
  8
0
  5
C44
 10
12.7681
 20
28.8421
 30
0.00000
  70
    32
  0
VERTEX
  8
0
  5
C45
 10
12.7643
 20
28.8459
 30
0.00000
  70
    32
  0
VERTEX
  8
0
  5
C46
 10
12.7605
 20
28.8497
 30
0.00000
  70
    32
  0
VERTEX
  8
0
  5
C47
 10
12.7567
 20
28.8534
 30
0.00000
  70
    32
  0
VERTEX
  8
0
  5
C48
 10
12.7528
 20
28.8571
 30
0.00000
  70
    32
  0
VERTEX
  8
0
  5
C49
 10
12.7489
 20
28.8608
 30
0.00000
  70
    32
  0
VERTEX
  8
0
  5
C4A
 10
12.7450
 20
28.8644
 30
0.00000
  70
    32
  0
VERTEX
  8
0
  5
C4B
 10
12.7410
 20
28.8679
 30
0.00000
  70
    32
  0
VERTEX
  8
0
  5
C4C
 10
12.7370
 20
28.8715
 30
0.00000
  70
    32
  0
VERTEX
  8
0
  5
C4D
 10
12.7329
 20
28.8750
 30
0.00000
  70
    32
  0
VERTEX
  8
0
  5
C4E
 10
12.7288
 20
28.8784
 30
0.00000
  70
    32
  0
VERTEX
  8
0
  5
C4F
 10
12.7247
 20
28.8818
 30
0.00000
  70
    32
  0
VERTEX
  8
0
  5
C50
 10
12.7205
 20
28.8852
 30
0.00000
  70
    32
  0
VERTEX
  8
0
  5
C51
 10
12.7163
 20
28.8885
 30
0.00000
  70
    32
  0
VERTEX
  8
0
  5
C52
 10
12.7121
 20
28.8917
 30
0.00000
  70
    32
  0
VERTEX
  8
0
  5
C53
 10
12.7078
 20
28.8949
 30
0.00000
  70
    32
  0
VERTEX
  8
0
  5
C54
 10
12.7035
 20
28.8981
 30
0.00000
  70
    32
  0
VERTEX
  8
0
  5
C55
 10
12.6992
 20
28.9012
 30
0.00000
  70
    32
  0
VERTEX
  8
0
  5
C56
 10
12.6948
 20
28.9043
 30
0.00000
  70
    32
  0
VERTEX
  8
0
  5
C57
 10
12.6904
 20
28.9074
 30
0.00000
  70
    32
  0
VERTEX
  8
0
  5
C58
 10
12.6860
 20
28.9103
 30
0.00000
  70
    32
  0
VERTEX
  8
0
  5
C59
 10
12.6815
 20
28.9133
 30
0.00000
  70
    32
  0
VERTEX
  8
0
  5
C5A
 10
12.6770
 20
28.9162
 30
0.00000
  70
    32
  0
VERTEX
  8
0
  5
C5B
 10
12.6724
 20
28.9190
 30
0.00000
  70
    32
  0
VERTEX
  8
0
  5
C5C
 10
12.6679
 20
28.9218
 30
0.00000
  70
    32
  0
VERTEX
  8
0
  5
C5D
 10
12.6633
 20
28.9245
 30
0.00000
  70
    32
  0
VERTEX
  8
0
  5
C5E
 10
12.6587
 20
28.9272
 30
0.00000
  70
    32
  0
VERTEX
  8
0
  5
C5F
 10
12.6540
 20
28.9299
 30
0.00000
  70
    32
  0
VERTEX
  8
0
  5
C60
 10
12.6493
 20
28.9325
 30
0.00000
  70
    32
  0
VERTEX
  8
0
  5
C61
 10
12.6446
 20
28.9350
 30
0.00000
  70
    32
  0
VERTEX
  8
0
  5
C62
 10
12.6399
 20
28.9375
 30
0.00000
  70
    32
  0
VERTEX
  8
0
  5
C63
 10
12.6351
 20
28.9400
 30
0.00000
  70
    32
  0
VERTEX
  8
0
  5
C64
 10
12.6304
 20
28.9423
 30
0.00000
  70
    32
  0
VERTEX
  8
0
  5
C65
 10
12.6255
 20
28.9447
 30
0.00000
  70
    32
  0
VERTEX
  8
0
  5
C66
 10
12.6207
 20
28.9470
 30
0.00000
  70
    32
  0
VERTEX
  8
0
  5
C67
 10
12.6159
 20
28.9492
 30
0.00000
  70
    32
  0
VERTEX
  8
0
  5
C68
 10
12.6110
 20
28.9514
 30
0.00000
  70
    32
  0
VERTEX
  8
0
  5
C69
 10
12.6061
 20
28.9535
 30
0.00000
  70
    32
  0
VERTEX
  8
0
  5
C6A
 10
12.6011
 20
28.9556
 30
0.00000
  70
    32
  0
VERTEX
  8
0
  5
C6B
 10
12.5962
 20
28.9576
 30
0.00000
  70
    32
  0
VERTEX
  8
0
  5
C6C
 10
12.5912
 20
28.9596
 30
0.00000
  70
    32
  0
VERTEX
  8
0
  5
C6D
 10
12.5862
 20
28.9615
 30
0.00000
  70
    32
  0
VERTEX
  8
0
  5
C6E
 10
12.5812
 20
28.9634
 30
0.00000
  70
    32
  0
VERTEX
  8
0
  5
C6F
 10
12.5762
 20
28.9652
 30
0.00000
  70
    32
  0
VERTEX
  8
0
  5
C70
 10
12.5711
 20
28.9670
 30
0.00000
  70
    32
  0
VERTEX
  8
0
  5
C71
 10
12.5661
 20
28.9687
 30
0.00000
  70
    32
  0
VERTEX
  8
0
  5
C72
 10
12.5610
 20
28.9703
 30
0.00000
  70
    32
  0
VERTEX
  8
0
  5
C73
 10
12.5559
 20
28.9719
 30
0.00000
  70
    32
  0
VERTEX
  8
0
  5
C74
 10
12.5507
 20
28.9735
 30
0.00000
  70
    32
  0
VERTEX
  8
0
  5
C75
 10
12.5456
 20
28.9750
 30
0.00000
  70
    32
  0
VERTEX
  8
0
  5
C76
 10
12.5404
 20
28.9764
 30
0.00000
  70
    32
  0
VERTEX
  8
0
  5
C77
 10
12.5353
 20
28.9778
 30
0.00000
  70
    32
  0
VERTEX
  8
0
  5
C78
 10
12.5301
 20
28.9791
 30
0.00000
  70
    32
  0
VERTEX
  8
0
  5
C79
 10
12.5249
 20
28.9803
 30
0.00000
  70
    32
  0
VERTEX
  8
0
  5
C7A
 10
12.5197
 20
28.9816
 30
0.00000
  70
    32
  0
VERTEX
  8
0
  5
C7B
 10
12.5145
 20
28.9827
 30
0.00000
  70
    32
  0
VERTEX
  8
0
  5
C7C
 10
12.5092
 20
28.9838
 30
0.00000
  70
    32
  0
SEQEND
  8
0
  5
C7D
  0
LINE
  5
5B1
  8
0
  6
CONTINUOUS
 62
     7
 10
12.9092221082924503
 20
28.4938359107932513
 30
0.0
 11
12.9092221082924503
 21
27.9701839628932305
 31
0.0
  0
POLYLINE
  8
0
  5
C7E
  62
7
  66
     1
 10
0.00000
 20
0.00000
 30
0.00000
  70
     8
  0
VERTEX
  8
0
  5
C7F
 10
12.4092
 20
28.9936
 30
0.00000
  70
    32
  0
VERTEX
  8
0
  5
C80
 10
12.4100
 20
28.9936
 30
0.00000
  70
    32
  0
VERTEX
  8
0
  5
C81
 10
12.4108
 20
28.9936
 30
0.00000
  70
    32
  0
VERTEX
  8
0
  5
C82
 10
12.4115
 20
28.9936
 30
0.00000
  70
    32
  0
VERTEX
  8
0
  5
C83
 10
12.4123
 20
28.9936
 30
0.00000
  70
    32
  0
VERTEX
  8
0
  5
C84
 10
12.4131
 20
28.9936
 30
0.00000
  70
    32
  0
VERTEX
  8
0
  5
C85
 10
12.4139
 20
28.9936
 30
0.00000
  70
    32
  0
VERTEX
  8
0
  5
C86
 10
12.4146
 20
28.9936
 30
0.00000
  70
    32
  0
VERTEX
  8
0
  5
C87
 10
12.4154
 20
28.9936
 30
0.00000
  70
    32
  0
VERTEX
  8
0
  5
C88
 10
12.4162
 20
28.9936
 30
0.00000
  70
    32
  0
VERTEX
  8
0
  5
C89
 10
12.4170
 20
28.9936
 30
0.00000
  70
    32
  0
VERTEX
  8
0
  5
C8A
 10
12.4177
 20
28.9936
 30
0.00000
  70
    32
  0
VERTEX
  8
0
  5
C8B
 10
12.4185
 20
28.9936
 30
0.00000
  70
    32
  0
VERTEX
  8
0
  5
C8C
 10
12.4193
 20
28.9936
 30
0.00000
  70
    32
  0
VERTEX
  8
0
  5
C8D
 10
12.4201
 20
28.9936
 30
0.00000
  70
    32
  0
VERTEX
  8
0
  5
C8E
 10
12.4208
 20
28.9935
 30
0.00000
  70
    32
  0
VERTEX
  8
0
  5
C8F
 10
12.4216
 20
28.9935
 30
0.00000
  70
    32
  0
VERTEX
  8
0
  5
C90
 10
12.4224
 20
28.9935
 30
0.00000
  70
    32
  0
VERTEX
  8
0
  5
C91
 10
12.4232
 20
28.9935
 30
0.00000
  70
    32
  0
VERTEX
  8
0
  5
C92
 10
12.4239
 20
28.9935
 30
0.00000
  70
    32
  0
VERTEX
  8
0
  5
C93
 10
12.4247
 20
28.9935
 30
0.00000
  70
    32
  0
VERTEX
  8
0
  5
C94
 10
12.4255
 20
28.9934
 30
0.00000
  70
    32
  0
VERTEX
  8
0
  5
C95
 10
12.4263
 20
28.9934
 30
0.00000
  70
    32
  0
VERTEX
  8
0
  5
C96
 10
12.4270
 20
28.9934
 30
0.00000
  70
    32
  0
VERTEX
  8
0
  5
C97
 10
12.4278
 20
28.9934
 30
0.00000
  70
    32
  0
VERTEX
  8
0
  5
C98
 10
12.4286
 20
28.9933
 30
0.00000
  70
    32
  0
VERTEX
  8
0
  5
C99
 10
12.4294
 20
28.9933
 30
0.00000
  70
    32
  0
VERTEX
  8
0
  5
C9A
 10
12.4302
 20
28.9933
 30
0.00000
  70
    32
  0
VERTEX
  8
0
  5
C9B
 10
12.4309
 20
28.9933
 30
0.00000
  70
    32
  0
VERTEX
  8
0
  5
C9C
 10
12.4317
 20
28.9932
 30
0.00000
  70
    32
  0
VERTEX
  8
0
  5
C9D
 10
12.4325
 20
28.9932
 30
0.00000
  70
    32
  0
VERTEX
  8
0
  5
C9E
 10
12.4333
 20
28.9932
 30
0.00000
  70
    32
  0
VERTEX
  8
0
  5
C9F
 10
12.4341
 20
28.9931
 30
0.00000
  70
    32
  0
VERTEX
  8
0
  5
CA0
 10
12.4348
 20
28.9931
 30
0.00000
  70
    32
  0
VERTEX
  8
0
  5
CA1
 10
12.4356
 20
28.9931
 30
0.00000
  70
    32
  0
VERTEX
  8
0
  5
CA2
 10
12.4364
 20
28.9930
 30
0.00000
  70
    32
  0
VERTEX
  8
0
  5
CA3
 10
12.4372
 20
28.9930
 30
0.00000
  70
    32
  0
VERTEX
  8
0
  5
CA4
 10
12.4380
 20
28.9929
 30
0.00000
  70
    32
  0
VERTEX
  8
0
  5
CA5
 10
12.4387
 20
28.9929
 30
0.00000
  70
    32
  0
VERTEX
  8
0
  5
CA6
 10
12.4395
 20
28.9929
 30
0.00000
  70
    32
  0
VERTEX
  8
0
  5
CA7
 10
12.4403
 20
28.9928
 30
0.00000
  70
    32
  0
VERTEX
  8
0
  5
CA8
 10
12.4411
 20
28.9928
 30
0.00000
  70
    32
  0
VERTEX
  8
0
  5
CA9
 10
12.4419
 20
28.9927
 30
0.00000
  70
    32
  0
VERTEX
  8
0
  5
CAA
 10
12.4426
 20
28.9927
 30
0.00000
  70
    32
  0
VERTEX
  8
0
  5
CAB
 10
12.4434
 20
28.9926
 30
0.00000
  70
    32
  0
VERTEX
  8
0
  5
CAC
 10
12.4442
 20
28.9926
 30
0.00000
  70
    32
  0
VERTEX
  8
0
  5
CAD
 10
12.4450
 20
28.9925
 30
0.00000
  70
    32
  0
VERTEX
  8
0
  5
CAE
 10
12.4458
 20
28.9925
 30
0.00000
  70
    32
  0
VERTEX
  8
0
  5
CAF
 10
12.4466
 20
28.9924
 30
0.00000
  70
    32
  0
VERTEX
  8
0
  5
CB0
 10
12.4473
 20
28.9923
 30
0.00000
  70
    32
  0
VERTEX
  8
0
  5
CB1
 10
12.4481
 20
28.9923
 30
0.00000
  70
    32
  0
VERTEX
  8
0
  5
CB2
 10
12.4489
 20
28.9922
 30
0.00000
  70
    32
  0
VERTEX
  8
0
  5
CB3
 10
12.4497
 20
28.9922
 30
0.00000
  70
    32
  0
VERTEX
  8
0
  5
CB4
 10
12.4505
 20
28.9921
 30
0.00000
  70
    32
  0
VERTEX
  8
0
  5
CB5
 10
12.4513
 20
28.9920
 30
0.00000
  70
    32
  0
VERTEX
  8
0
  5
CB6
 10
12.4521
 20
28.9920
 30
0.00000
  70
    32
  0
VERTEX
  8
0
  5
CB7
 10
12.4528
 20
28.9919
 30
0.00000
  70
    32
  0
VERTEX
  8
0
  5
CB8
 10
12.4536
 20
28.9919
 30
0.00000
  70
    32
  0
VERTEX
  8
0
  5
CB9
 10
12.4544
 20
28.9918
 30
0.00000
  70
    32
  0
VERTEX
  8
0
  5
CBA
 10
12.4552
 20
28.9917
 30
0.00000
  70
    32
  0
VERTEX
  8
0
  5
CBB
 10
12.4560
 20
28.9916
 30
0.00000
  70
    32
  0
VERTEX
  8
0
  5
CBC
 10
12.4568
 20
28.9916
 30
0.00000
  70
    32
  0
VERTEX
  8
0
  5
CBD
 10
12.4576
 20
28.9915
 30
0.00000
  70
    32
  0
VERTEX
  8
0
  5
CBE
 10
12.4583
 20
28.9914
 30
0.00000
  70
    32
  0
VERTEX
  8
0
  5
CBF
 10
12.4591
 20
28.9913
 30
0.00000
  70
    32
  0
VERTEX
  8
0
  5
CC0
 10
12.4599
 20
28.9913
 30
0.00000
  70
    32
  0
VERTEX
  8
0
  5
CC1
 10
12.4607
 20
28.9912
 30
0.00000
  70
    32
  0
VERTEX
  8
0
  5
CC2
 10
12.4615
 20
28.9911
 30
0.00000
  70
    32
  0
VERTEX
  8
0
  5
CC3
 10
12.4623
 20
28.9910
 30
0.00000
  70
    32
  0
VERTEX
  8
0
  5
CC4
 10
12.4631
 20
28.9909
 30
0.00000
  70
    32
  0
VERTEX
  8
0
  5
CC5
 10
12.4639
 20
28.9909
 30
0.00000
  70
    32
  0
VERTEX
  8
0
  5
CC6
 10
12.4647
 20
28.9908
 30
0.00000
  70
    32
  0
VERTEX
  8
0
  5
CC7
 10
12.4654
 20
28.9907
 30
0.00000
  70
    32
  0
VERTEX
  8
0
  5
CC8
 10
12.4662
 20
28.9906
 30
0.00000
  70
    32
  0
VERTEX
  8
0
  5
CC9
 10
12.4670
 20
28.9905
 30
0.00000
  70
    32
  0
VERTEX
  8
0
  5
CCA
 10
12.4678
 20
28.9904
 30
0.00000
  70
    32
  0
VERTEX
  8
0
  5
CCB
 10
12.4686
 20
28.9903
 30
0.00000
  70
    32
  0
VERTEX
  8
0
  5
CCC
 10
12.4694
 20
28.9902
 30
0.00000
  70
    32
  0
VERTEX
  8
0
  5
CCD
 10
12.4702
 20
28.9901
 30
0.00000
  70
    32
  0
VERTEX
  8
0
  5
CCE
 10
12.4710
 20
28.9900
 30
0.00000
  70
    32
  0
VERTEX
  8
0
  5
CCF
 10
12.4718
 20
28.9899
 30
0.00000
  70
    32
  0
VERTEX
  8
0
  5
CD0
 10
12.4726
 20
28.9899
 30
0.00000
  70
    32
  0
VERTEX
  8
0
  5
CD1
 10
12.4734
 20
28.9897
 30
0.00000
  70
    32
  0
VERTEX
  8
0
  5
CD2
 10
12.4741
 20
28.9896
 30
0.00000
  70
    32
  0
VERTEX
  8
0
  5
CD3
 10
12.4749
 20
28.9895
 30
0.00000
  70
    32
  0
VERTEX
  8
0
  5
CD4
 10
12.4757
 20
28.9894
 30
0.00000
  70
    32
  0
VERTEX
  8
0
  5
CD5
 10
12.4765
 20
28.9893
 30
0.00000
  70
    32
  0
VERTEX
  8
0
  5
CD6
 10
12.4773
 20
28.9892
 30
0.00000
  70
    32
  0
VERTEX
  8
0
  5
CD7
 10
12.4781
 20
28.9891
 30
0.00000
  70
    32
  0
VERTEX
  8
0
  5
CD8
 10
12.4789
 20
28.9890
 30
0.00000
  70
    32
  0
VERTEX
  8
0
  5
CD9
 10
12.4797
 20
28.9889
 30
0.00000
  70
    32
  0
VERTEX
  8
0
  5
CDA
 10
12.4805
 20
28.9888
 30
0.00000
  70
    32
  0
VERTEX
  8
0
  5
CDB
 10
12.4813
 20
28.9887
 30
0.00000
  70
    32
  0
VERTEX
  8
0
  5
CDC
 10
12.4821
 20
28.9886
 30
0.00000
  70
    32
  0
VERTEX
  8
0
  5
CDD
 10
12.4829
 20
28.9884
 30
0.00000
  70
    32
  0
VERTEX
  8
0
  5
CDE
 10
12.4837
 20
28.9883
 30
0.00000
  70
    32
  0
VERTEX
  8
0
  5
CDF
 10
12.4845
 20
28.9882
 30
0.00000
  70
    32
  0
VERTEX
  8
0
  5
CE0
 10
12.4853
 20
28.9881
 30
0.00000
  70
    32
  0
VERTEX
  8
0
  5
CE1
 10
12.4861
 20
28.9880
 30
0.00000
  70
    32
  0
VERTEX
  8
0
  5
CE2
 10
12.4868
 20
28.9878
 30
0.00000
  70
    32
  0
VERTEX
  8
0
  5
CE3
 10
12.4876
 20
28.9877
 30
0.00000
  70
    32
  0
VERTEX
  8
0
  5
CE4
 10
12.4884
 20
28.9876
 30
0.00000
  70
    32
  0
VERTEX
  8
0
  5
CE5
 10
12.4892
 20
28.9875
 30
0.00000
  70
    32
  0
VERTEX
  8
0
  5
CE6
 10
12.4900
 20
28.9873
 30
0.00000
  70
    32
  0
VERTEX
  8
0
  5
CE7
 10
12.4908
 20
28.9872
 30
0.00000
  70
    32
  0
VERTEX
  8
0
  5
CE8
 10
12.4916
 20
28.9871
 30
0.00000
  70
    32
  0
VERTEX
  8
0
  5
CE9
 10
12.4924
 20
28.9869
 30
0.00000
  70
    32
  0
VERTEX
  8
0
  5
CEA
 10
12.4932
 20
28.9868
 30
0.00000
  70
    32
  0
VERTEX
  8
0
  5
CEB
 10
12.4940
 20
28.9867
 30
0.00000
  70
    32
  0
VERTEX
  8
0
  5
CEC
 10
12.4948
 20
28.9865
 30
0.00000
  70
    32
  0
VERTEX
  8
0
  5
CED
 10
12.4956
 20
28.9864
 30
0.00000
  70
    32
  0
VERTEX
  8
0
  5
CEE
 10
12.4964
 20
28.9862
 30
0.00000
  70
    32
  0
VERTEX
  8
0
  5
CEF
 10
12.4972
 20
28.9861
 30
0.00000
  70
    32
  0
VERTEX
  8
0
  5
CF0
 10
12.4980
 20
28.9860
 30
0.00000
  70
    32
  0
VERTEX
  8
0
  5
CF1
 10
12.4988
 20
28.9858
 30
0.00000
  70
    32
  0
VERTEX
  8
0
  5
CF2
 10
12.4996
 20
28.9857
 30
0.00000
  70
    32
  0
VERTEX
  8
0
  5
CF3
 10
12.5004
 20
28.9855
 30
0.00000
  70
    32
  0
VERTEX
  8
0
  5
CF4
 10
12.5012
 20
28.9854
 30
0.00000
  70
    32
  0
VERTEX
  8
0
  5
CF5
 10
12.5020
 20
28.9852
 30
0.00000
  70
    32
  0
VERTEX
  8
0
  5
CF6
 10
12.5028
 20
28.9851
 30
0.00000
  70
    32
  0
VERTEX
  8
0
  5
CF7
 10
12.5036
 20
28.9849
 30
0.00000
  70
    32
  0
VERTEX
  8
0
  5
CF8
 10
12.5044
 20
28.9848
 30
0.00000
  70
    32
  0
VERTEX
  8
0
  5
CF9
 10
12.5052
 20
28.9846
 30
0.00000
  70
    32
  0
VERTEX
  8
0
  5
CFA
 10
12.5060
 20
28.9845
 30
0.00000
  70
    32
  0
VERTEX
  8
0
  5
CFB
 10
12.5068
 20
28.9843
 30
0.00000
  70
    32
  0
VERTEX
  8
0
  5
CFC
 10
12.5076
 20
28.9841
 30
0.00000
  70
    32
  0
VERTEX
  8
0
  5
CFD
 10
12.5084
 20
28.9840
 30
0.00000
  70
    32
  0
VERTEX
  8
0
  5
CFE
 10
12.5092
 20
28.9838
 30
0.00000
  70
    32
  0
SEQEND
  8
0
  5
CFF
  0
POLYLINE
  8
0
  5
D00
  62
7
  66
     1
 10
0.00000
 20
0.00000
 30
0.00000
  70
     8
  0
VERTEX
  8
0
  5
D01
 10
12.5092
 20
-37.9960
 30
0.00000
  70
    32
  0
VERTEX
  8
0
  5
D02
 10
12.5084
 20
-37.9961
 30
0.00000
  70
    32
  0
VERTEX
  8
0
  5
D03
 10
12.5076
 20
-37.9963
 30
0.00000
  70
    32
  0
VERTEX
  8
0
  5
D04
 10
12.5068
 20
-37.9965
 30
0.00000
  70
    32
  0
VERTEX
  8
0
  5
D05
 10
12.5060
 20
-37.9966
 30
0.00000
  70
    32
  0
VERTEX
  8
0
  5
D06
 10
12.5052
 20
-37.9968
 30
0.00000
  70
    32
  0
VERTEX
  8
0
  5
D07
 10
12.5044
 20
-37.9969
 30
0.00000
  70
    32
  0
VERTEX
  8
0
  5
D08
 10
12.5036
 20
-37.9971
 30
0.00000
  70
    32
  0
VERTEX
  8
0
  5
D09
 10
12.5028
 20
-37.9972
 30
0.00000
  70
    32
  0
VERTEX
  8
0
  5
D0A
 10
12.5020
 20
-37.9974
 30
0.00000
  70
    32
  0
VERTEX
  8
0
  5
D0B
 10
12.5012
 20
-37.9976
 30
0.00000
  70
    32
  0
VERTEX
  8
0
  5
D0C
 10
12.5004
 20
-37.9977
 30
0.00000
  70
    32
  0
VERTEX
  8
0
  5
D0D
 10
12.4996
 20
-37.9978
 30
0.00000
  70
    32
  0
VERTEX
  8
0
  5
D0E
 10
12.4988
 20
-37.9980
 30
0.00000
  70
    32
  0
VERTEX
  8
0
  5
D0F
 10
12.4980
 20
-37.9981
 30
0.00000
  70
    32
  0
VERTEX
  8
0
  5
D10
 10
12.4972
 20
-37.9983
 30
0.00000
  70
    32
  0
VERTEX
  8
0
  5
D11
 10
12.4964
 20
-37.9984
 30
0.00000
  70
    32
  0
VERTEX
  8
0
  5
D12
 10
12.4956
 20
-37.9986
 30
0.00000
  70
    32
  0
VERTEX
  8
0
  5
D13
 10
12.4948
 20
-37.9987
 30
0.00000
  70
    32
  0
VERTEX
  8
0
  5
D14
 10
12.4940
 20
-37.9988
 30
0.00000
  70
    32
  0
VERTEX
  8
0
  5
D15
 10
12.4932
 20
-37.9990
 30
0.00000
  70
    32
  0
VERTEX
  8
0
  5
D16
 10
12.4924
 20
-37.9991
 30
0.00000
  70
    32
  0
VERTEX
  8
0
  5
D17
 10
12.4916
 20
-37.9992
 30
0.00000
  70
    32
  0
VERTEX
  8
0
  5
D18
 10
12.4908
 20
-37.9994
 30
0.00000
  70
    32
  0
VERTEX
  8
0
  5
D19
 10
12.4900
 20
-37.9995
 30
0.00000
  70
    32
  0
VERTEX
  8
0
  5
D1A
 10
12.4892
 20
-37.9996
 30
0.00000
  70
    32
  0
VERTEX
  8
0
  5
D1B
 10
12.4884
 20
-37.9998
 30
0.00000
  70
    32
  0
VERTEX
  8
0
  5
D1C
 10
12.4876
 20
-37.9999
 30
0.00000
  70
    32
  0
VERTEX
  8
0
  5
D1D
 10
12.4868
 20
-38.0000
 30
0.00000
  70
    32
  0
VERTEX
  8
0
  5
D1E
 10
12.4861
 20
-38.0001
 30
0.00000
  70
    32
  0
VERTEX
  8
0
  5
D1F
 10
12.4853
 20
-38.0003
 30
0.00000
  70
    32
  0
VERTEX
  8
0
  5
D20
 10
12.4845
 20
-38.0004
 30
0.00000
  70
    32
  0
VERTEX
  8
0
  5
D21
 10
12.4837
 20
-38.0005
 30
0.00000
  70
    32
  0
VERTEX
  8
0
  5
D22
 10
12.4829
 20
-38.0006
 30
0.00000
  70
    32
  0
VERTEX
  8
0
  5
D23
 10
12.4821
 20
-38.0007
 30
0.00000
  70
    32
  0
VERTEX
  8
0
  5
D24
 10
12.4813
 20
-38.0008
 30
0.00000
  70
    32
  0
VERTEX
  8
0
  5
D25
 10
12.4805
 20
-38.0010
 30
0.00000
  70
    32
  0
VERTEX
  8
0
  5
D26
 10
12.4797
 20
-38.0011
 30
0.00000
  70
    32
  0
VERTEX
  8
0
  5
D27
 10
12.4789
 20
-38.0012
 30
0.00000
  70
    32
  0
VERTEX
  8
0
  5
D28
 10
12.4781
 20
-38.0013
 30
0.00000
  70
    32
  0
VERTEX
  8
0
  5
D29
 10
12.4773
 20
-38.0014
 30
0.00000
  70
    32
  0
VERTEX
  8
0
  5
D2A
 10
12.4765
 20
-38.0015
 30
0.00000
  70
    32
  0
VERTEX
  8
0
  5
D2B
 10
12.4757
 20
-38.0016
 30
0.00000
  70
    32
  0
VERTEX
  8
0
  5
D2C
 10
12.4749
 20
-38.0017
 30
0.00000
  70
    32
  0
VERTEX
  8
0
  5
D2D
 10
12.4741
 20
-38.0018
 30
0.00000
  70
    32
  0
VERTEX
  8
0
  5
D2E
 10
12.4734
 20
-38.0019
 30
0.00000
  70
    32
  0
VERTEX
  8
0
  5
D2F
 10
12.4726
 20
-38.0020
 30
0.00000
  70
    32
  0
VERTEX
  8
0
  5
D30
 10
12.4718
 20
-38.0021
 30
0.00000
  70
    32
  0
VERTEX
  8
0
  5
D31
 10
12.4710
 20
-38.0022
 30
0.00000
  70
    32
  0
VERTEX
  8
0
  5
D32
 10
12.4702
 20
-38.0023
 30
0.00000
  70
    32
  0
VERTEX
  8
0
  5
D33
 10
12.4694
 20
-38.0024
 30
0.00000
  70
    32
  0
VERTEX
  8
0
  5
D34
 10
12.4686
 20
-38.0025
 30
0.00000
  70
    32
  0
VERTEX
  8
0
  5
D35
 10
12.4678
 20
-38.0026
 30
0.00000
  70
    32
  0
VERTEX
  8
0
  5
D36
 10
12.4670
 20
-38.0027
 30
0.00000
  70
    32
  0
VERTEX
  8
0
  5
D37
 10
12.4662
 20
-38.0028
 30
0.00000
  70
    32
  0
VERTEX
  8
0
  5
D38
 10
12.4654
 20
-38.0029
 30
0.00000
  70
    32
  0
VERTEX
  8
0
  5
D39
 10
12.4647
 20
-38.0030
 30
0.00000
  70
    32
  0
VERTEX
  8
0
  5
D3A
 10
12.4639
 20
-38.0030
 30
0.00000
  70
    32
  0
VERTEX
  8
0
  5
D3B
 10
12.4631
 20
-38.0031
 30
0.00000
  70
    32
  0
VERTEX
  8
0
  5
D3C
 10
12.4623
 20
-38.0032
 30
0.00000
  70
    32
  0
VERTEX
  8
0
  5
D3D
 10
12.4615
 20
-38.0033
 30
0.00000
  70
    32
  0
VERTEX
  8
0
  5
D3E
 10
12.4607
 20
-38.0034
 30
0.00000
  70
    32
  0
VERTEX
  8
0
  5
D3F
 10
12.4599
 20
-38.0034
 30
0.00000
  70
    32
  0
VERTEX
  8
0
  5
D40
 10
12.4591
 20
-38.0035
 30
0.00000
  70
    32
  0
VERTEX
  8
0
  5
D41
 10
12.4583
 20
-38.0036
 30
0.00000
  70
    32
  0
VERTEX
  8
0
  5
D42
 10
12.4576
 20
-38.0037
 30
0.00000
  70
    32
  0
VERTEX
  8
0
  5
D43
 10
12.4568
 20
-38.0037
 30
0.00000
  70
    32
  0
VERTEX
  8
0
  5
D44
 10
12.4560
 20
-38.0038
 30
0.00000
  70
    32
  0
VERTEX
  8
0
  5
D45
 10
12.4552
 20
-38.0039
 30
0.00000
  70
    32
  0
VERTEX
  8
0
  5
D46
 10
12.4544
 20
-38.0040
 30
0.00000
  70
    32
  0
VERTEX
  8
0
  5
D47
 10
12.4536
 20
-38.0040
 30
0.00000
  70
    32
  0
VERTEX
  8
0
  5
D48
 10
12.4528
 20
-38.0041
 30
0.00000
  70
    32
  0
VERTEX
  8
0
  5
D49
 10
12.4521
 20
-38.0042
 30
0.00000
  70
    32
  0
VERTEX
  8
0
  5
D4A
 10
12.4513
 20
-38.0042
 30
0.00000
  70
    32
  0
VERTEX
  8
0
  5
D4B
 10
12.4505
 20
-38.0043
 30
0.00000
  70
    32
  0
VERTEX
  8
0
  5
D4C
 10
12.4497
 20
-38.0043
 30
0.00000
  70
    32
  0
VERTEX
  8
0
  5
D4D
 10
12.4489
 20
-38.0044
 30
0.00000
  70
    32
  0
VERTEX
  8
0
  5
D4E
 10
12.4481
 20
-38.0045
 30
0.00000
  70
    32
  0
VERTEX
  8
0
  5
D4F
 10
12.4473
 20
-38.0045
 30
0.00000
  70
    32
  0
VERTEX
  8
0
  5
D50
 10
12.4466
 20
-38.0046
 30
0.00000
  70
    32
  0
VERTEX
  8
0
  5
D51
 10
12.4458
 20
-38.0046
 30
0.00000
  70
    32
  0
VERTEX
  8
0
  5
D52
 10
12.4450
 20
-38.0047
 30
0.00000
  70
    32
  0
VERTEX
  8
0
  5
D53
 10
12.4442
 20
-38.0047
 30
0.00000
  70
    32
  0
VERTEX
  8
0
  5
D54
 10
12.4434
 20
-38.0048
 30
0.00000
  70
    32
  0
VERTEX
  8
0
  5
D55
 10
12.4426
 20
-38.0048
 30
0.00000
  70
    32
  0
VERTEX
  8
0
  5
D56
 10
12.4419
 20
-38.0049
 30
0.00000
  70
    32
  0
VERTEX
  8
0
  5
D57
 10
12.4411
 20
-38.0049
 30
0.00000
  70
    32
  0
VERTEX
  8
0
  5
D58
 10
12.4403
 20
-38.0050
 30
0.00000
  70
    32
  0
VERTEX
  8
0
  5
D59
 10
12.4395
 20
-38.0050
 30
0.00000
  70
    32
  0
VERTEX
  8
0
  5
D5A
 10
12.4387
 20
-38.0051
 30
0.00000
  70
    32
  0
VERTEX
  8
0
  5
D5B
 10
12.4380
 20
-38.0051
 30
0.00000
  70
    32
  0
VERTEX
  8
0
  5
D5C
 10
12.4372
 20
-38.0052
 30
0.00000
  70
    32
  0
VERTEX
  8
0
  5
D5D
 10
12.4364
 20
-38.0052
 30
0.00000
  70
    32
  0
VERTEX
  8
0
  5
D5E
 10
12.4356
 20
-38.0052
 30
0.00000
  70
    32
  0
VERTEX
  8
0
  5
D5F
 10
12.4348
 20
-38.0053
 30
0.00000
  70
    32
  0
VERTEX
  8
0
  5
D60
 10
12.4341
 20
-38.0053
 30
0.00000
  70
    32
  0
VERTEX
  8
0
  5
D61
 10
12.4333
 20
-38.0053
 30
0.00000
  70
    32
  0
VERTEX
  8
0
  5
D62
 10
12.4325
 20
-38.0054
 30
0.00000
  70
    32
  0
VERTEX
  8
0
  5
D63
 10
12.4317
 20
-38.0054
 30
0.00000
  70
    32
  0
VERTEX
  8
0
  5
D64
 10
12.4309
 20
-38.0054
 30
0.00000
  70
    32
  0
VERTEX
  8
0
  5
D65
 10
12.4302
 20
-38.0055
 30
0.00000
  70
    32
  0
VERTEX
  8
0
  5
D66
 10
12.4294
 20
-38.0055
 30
0.00000
  70
    32
  0
VERTEX
  8
0
  5
D67
 10
12.4286
 20
-38.0055
 30
0.00000
  70
    32
  0
VERTEX
  8
0
  5
D68
 10
12.4278
 20
-38.0055
 30
0.00000
  70
    32
  0
VERTEX
  8
0
  5
D69
 10
12.4270
 20
-38.0056
 30
0.00000
  70
    32
  0
VERTEX
  8
0
  5
D6A
 10
12.4263
 20
-38.0056
 30
0.00000
  70
    32
  0
VERTEX
  8
0
  5
D6B
 10
12.4255
 20
-38.0056
 30
0.00000
  70
    32
  0
VERTEX
  8
0
  5
D6C
 10
12.4247
 20
-38.0056
 30
0.00000
  70
    32
  0
VERTEX
  8
0
  5
D6D
 10
12.4239
 20
-38.0057
 30
0.00000
  70
    32
  0
VERTEX
  8
0
  5
D6E
 10
12.4232
 20
-38.0057
 30
0.00000
  70
    32
  0
VERTEX
  8
0
  5
D6F
 10
12.4224
 20
-38.0057
 30
0.00000
  70
    32
  0
VERTEX
  8
0
  5
D70
 10
12.4216
 20
-38.0057
 30
0.00000
  70
    32
  0
VERTEX
  8
0
  5
D71
 10
12.4208
 20
-38.0057
 30
0.00000
  70
    32
  0
VERTEX
  8
0
  5
D72
 10
12.4201
 20
-38.0057
 30
0.00000
  70
    32
  0
VERTEX
  8
0
  5
D73
 10
12.4193
 20
-38.0057
 30
0.00000
  70
    32
  0
VERTEX
  8
0
  5
D74
 10
12.4185
 20
-38.0058
 30
0.00000
  70
    32
  0
VERTEX
  8
0
  5
D75
 10
12.4177
 20
-38.0058
 30
0.00000
  70
    32
  0
VERTEX
  8
0
  5
D76
 10
12.4170
 20
-38.0058
 30
0.00000
  70
    32
  0
VERTEX
  8
0
  5
D77
 10
12.4162
 20
-38.0058
 30
0.00000
  70
    32
  0
VERTEX
  8
0
  5
D78
 10
12.4154
 20
-38.0058
 30
0.00000
  70
    32
  0
VERTEX
  8
0
  5
D79
 10
12.4146
 20
-38.0058
 30
0.00000
  70
    32
  0
VERTEX
  8
0
  5
D7A
 10
12.4139
 20
-38.0058
 30
0.00000
  70
    32
  0
VERTEX
  8
0
  5
D7B
 10
12.4131
 20
-38.0058
 30
0.00000
  70
    32
  0
VERTEX
  8
0
  5
D7C
 10
12.4123
 20
-38.0058
 30
0.00000
  70
    32
  0
VERTEX
  8
0
  5
D7D
 10
12.4115
 20
-38.0058
 30
0.00000
  70
    32
  0
VERTEX
  8
0
  5
D7E
 10
12.4108
 20
-38.0058
 30
0.00000
  70
    32
  0
VERTEX
  8
0
  5
D7F
 10
12.4100
 20
-38.0058
 30
0.00000
  70
    32
  0
VERTEX
  8
0
  5
D80
 10
12.4092
 20
-38.0058
 30
0.00000
  70
    32
  0
SEQEND
  8
0
  5
D81
  0
LINE
  5
5B4
  8
0
  6
CONTINUOUS
 62
     7
 10
12.9092221082924503
 20
-36.9823598133067719
 30
0.0
 11
12.9092221082924503
 21
-37.5060117612067714
 31
0.0
  0
POLYLINE
  5
5B5
  8
0
  6
CONTINUOUS
 62
     7
 10
12.5092221082968109
 20
-37.9959843349596227
 30
0.0
 66
     1
 70
     8
  0
VERTEX
  8
0
  5
D82
 10
12.5092
 20
-37.9960
 30
0.00000
  70
    32
  0
VERTEX
  8
0
  5
D83
 10
12.5145
 20
-37.9949
 30
0.00000
  70
    32
  0
VERTEX
  8
0
  5
D84
 10
12.5197
 20
-37.9937
 30
0.00000
  70
    32
  0
VERTEX
  8
0
  5
D85
 10
12.5249
 20
-37.9925
 30
0.00000
  70
    32
  0
VERTEX
  8
0
  5
D86
 10
12.5301
 20
-37.9913
 30
0.00000
  70
    32
  0
VERTEX
  8
0
  5
D87
 10
12.5353
 20
-37.9899
 30
0.00000
  70
    32
  0
VERTEX
  8
0
  5
D88
 10
12.5404
 20
-37.9886
 30
0.00000
  70
    32
  0
VERTEX
  8
0
  5
D89
 10
12.5456
 20
-37.9871
 30
0.00000
  70
    32
  0
VERTEX
  8
0
  5
D8A
 10
12.5507
 20
-37.9856
 30
0.00000
  70
    32
  0
VERTEX
  8
0
  5
D8B
 10
12.5559
 20
-37.9841
 30
0.00000
  70
    32
  0
VERTEX
  8
0
  5
D8C
 10
12.5610
 20
-37.9825
 30
0.00000
  70
    32
  0
VERTEX
  8
0
  5
D8D
 10
12.5661
 20
-37.9809
 30
0.00000
  70
    32
  0
VERTEX
  8
0
  5
D8E
 10
12.5711
 20
-37.9791
 30
0.00000
  70
    32
  0
VERTEX
  8
0
  5
D8F
 10
12.5762
 20
-37.9774
 30
0.00000
  70
    32
  0
VERTEX
  8
0
  5
D90
 10
12.5812
 20
-37.9756
 30
0.00000
  70
    32
  0
VERTEX
  8
0
  5
D91
 10
12.5862
 20
-37.9737
 30
0.00000
  70
    32
  0
VERTEX
  8
0
  5
D92
 10
12.5912
 20
-37.9718
 30
0.00000
  70
    32
  0
VERTEX
  8
0
  5
D93
 10
12.5962
 20
-37.9698
 30
0.00000
  70
    32
  0
VERTEX
  8
0
  5
D94
 10
12.6011
 20
-37.9678
 30
0.00000
  70
    32
  0
VERTEX
  8
0
  5
D95
 10
12.6061
 20
-37.9657
 30
0.00000
  70
    32
  0
VERTEX
  8
0
  5
D96
 10
12.6110
 20
-37.9636
 30
0.00000
  70
    32
  0
VERTEX
  8
0
  5
D97
 10
12.6159
 20
-37.9614
 30
0.00000
  70
    32
  0
VERTEX
  8
0
  5
D98
 10
12.6207
 20
-37.9592
 30
0.00000
  70
    32
  0
VERTEX
  8
0
  5
D99
 10
12.6255
 20
-37.9569
 30
0.00000
  70
    32
  0
VERTEX
  8
0
  5
D9A
 10
12.6304
 20
-37.9545
 30
0.00000
  70
    32
  0
VERTEX
  8
0
  5
D9B
 10
12.6351
 20
-37.9521
 30
0.00000
  70
    32
  0
VERTEX
  8
0
  5
D9C
 10
12.6399
 20
-37.9497
 30
0.00000
  70
    32
  0
VERTEX
  8
0
  5
D9D
 10
12.6446
 20
-37.9472
 30
0.00000
  70
    32
  0
VERTEX
  8
0
  5
D9E
 10
12.6493
 20
-37.9446
 30
0.00000
  70
    32
  0
VERTEX
  8
0
  5
D9F
 10
12.6540
 20
-37.9421
 30
0.00000
  70
    32
  0
VERTEX
  8
0
  5
DA0
 10
12.6587
 20
-37.9394
 30
0.00000
  70
    32
  0
VERTEX
  8
0
  5
DA1
 10
12.6633
 20
-37.9367
 30
0.00000
  70
    32
  0
VERTEX
  8
0
  5
DA2
 10
12.6679
 20
-37.9340
 30
0.00000
  70
    32
  0
VERTEX
  8
0
  5
DA3
 10
12.6724
 20
-37.9312
 30
0.00000
  70
    32
  0
VERTEX
  8
0
  5
DA4
 10
12.6770
 20
-37.9283
 30
0.00000
  70
    32
  0
VERTEX
  8
0
  5
DA5
 10
12.6815
 20
-37.9255
 30
0.00000
  70
    32
  0
VERTEX
  8
0
  5
DA6
 10
12.6860
 20
-37.9225
 30
0.00000
  70
    32
  0
VERTEX
  8
0
  5
DA7
 10
12.6904
 20
-37.9195
 30
0.00000
  70
    32
  0
VERTEX
  8
0
  5
DA8
 10
12.6948
 20
-37.9165
 30
0.00000
  70
    32
  0
VERTEX
  8
0
  5
DA9
 10
12.6992
 20
-37.9134
 30
0.00000
  70
    32
  0
VERTEX
  8
0
  5
DAA
 10
12.7035
 20
-37.9103
 30
0.00000
  70
    32
  0
VERTEX
  8
0
  5
DAB
 10
12.7078
 20
-37.9071
 30
0.00000
  70
    32
  0
VERTEX
  8
0
  5
DAC
 10
12.7121
 20
-37.9039
 30
0.00000
  70
    32
  0
VERTEX
  8
0
  5
DAD
 10
12.7163
 20
-37.9006
 30
0.00000
  70
    32
  0
VERTEX
  8
0
  5
DAE
 10
12.7205
 20
-37.8973
 30
0.00000
  70
    32
  0
VERTEX
  8
0
  5
DAF
 10
12.7247
 20
-37.8940
 30
0.00000
  70
    32
  0
VERTEX
  8
0
  5
DB0
 10
12.7288
 20
-37.8906
 30
0.00000
  70
    32
  0
VERTEX
  8
0
  5
DB1
 10
12.7329
 20
-37.8871
 30
0.00000
  70
    32
  0
VERTEX
  8
0
  5
DB2
 10
12.7370
 20
-37.8836
 30
0.00000
  70
    32
  0
VERTEX
  8
0
  5
DB3
 10
12.7410
 20
-37.8801
 30
0.00000
  70
    32
  0
VERTEX
  8
0
  5
DB4
 10
12.7450
 20
-37.8765
 30
0.00000
  70
    32
  0
VERTEX
  8
0
  5
DB5
 10
12.7489
 20
-37.8729
 30
0.00000
  70
    32
  0
VERTEX
  8
0
  5
DB6
 10
12.7528
 20
-37.8693
 30
0.00000
  70
    32
  0
VERTEX
  8
0
  5
DB7
 10
12.7567
 20
-37.8656
 30
0.00000
  70
    32
  0
VERTEX
  8
0
  5
DB8
 10
12.7605
 20
-37.8618
 30
0.00000
  70
    32
  0
VERTEX
  8
0
  5
DB9
 10
12.7643
 20
-37.8581
 30
0.00000
  70
    32
  0
VERTEX
  8
0
  5
DBA
 10
12.7681
 20
-37.8542
 30
0.00000
  70
    32
  0
VERTEX
  8
0
  5
DBB
 10
12.7718
 20
-37.8504
 30
0.00000
  70
    32
  0
VERTEX
  8
0
  5
DBC
 10
12.7754
 20
-37.8465
 30
0.00000
  70
    32
  0
VERTEX
  8
0
  5
DBD
 10
12.7791
 20
-37.8425
 30
0.00000
  70
    32
  0
VERTEX
  8
0
  5
DBE
 10
12.7826
 20
-37.8386
 30
0.00000
  70
    32
  0
VERTEX
  8
0
  5
DBF
 10
12.7862
 20
-37.8346
 30
0.00000
  70
    32
  0
VERTEX
  8
0
  5
DC0
 10
12.7897
 20
-37.8305
 30
0.00000
  70
    32
  0
VERTEX
  8
0
  5
DC1
 10
12.7931
 20
-37.8264
 30
0.00000
  70
    32
  0
VERTEX
  8
0
  5
DC2
 10
12.7965
 20
-37.8223
 30
0.00000
  70
    32
  0
VERTEX
  8
0
  5
DC3
 10
12.7999
 20
-37.8181
 30
0.00000
  70
    32
  0
VERTEX
  8
0
  5
DC4
 10
12.8032
 20
-37.8139
 30
0.00000
  70
    32
  0
VERTEX
  8
0
  5
DC5
 10
12.8065
 20
-37.8097
 30
0.00000
  70
    32
  0
VERTEX
  8
0
  5
DC6
 10
12.8097
 20
-37.8054
 30
0.00000
  70
    32
  0
VERTEX
  8
0
  5
DC7
 10
12.8129
 20
-37.8011
 30
0.00000
  70
    32
  0
VERTEX
  8
0
  5
DC8
 10
12.8160
 20
-37.7968
 30
0.00000
  70
    32
  0
VERTEX
  8
0
  5
DC9
 10
12.8191
 20
-37.7924
 30
0.00000
  70
    32
  0
VERTEX
  8
0
  5
DCA
 10
12.8221
 20
-37.7880
 30
0.00000
  70
    32
  0
VERTEX
  8
0
  5
DCB
 10
12.8251
 20
-37.7836
 30
0.00000
  70
    32
  0
VERTEX
  8
0
  5
DCC
 10
12.8281
 20
-37.7791
 30
0.00000
  70
    32
  0
VERTEX
  8
0
  5
DCD
 10
12.8310
 20
-37.7746
 30
0.00000
  70
    32
  0
VERTEX
  8
0
  5
DCE
 10
12.8338
 20
-37.7701
 30
0.00000
  70
    32
  0
VERTEX
  8
0
  5
DCF
 10
12.8366
 20
-37.7655
 30
0.00000
  70
    32
  0
VERTEX
  8
0
  5
DD0
 10
12.8394
 20
-37.7609
 30
0.00000
  70
    32
  0
VERTEX
  8
0
  5
DD1
 10
12.8421
 20
-37.7563
 30
0.00000
  70
    32
  0
VERTEX
  8
0
  5
DD2
 10
12.8447
 20
-37.7517
 30
0.00000
  70
    32
  0
VERTEX
  8
0
  5
DD3
 10
12.8473
 20
-37.7470
 30
0.00000
  70
    32
  0
VERTEX
  8
0
  5
DD4
 10
12.8499
 20
-37.7423
 30
0.00000
  70
    32
  0
VERTEX
  8
0
  5
DD5
 10
12.8524
 20
-37.7376
 30
0.00000
  70
    32
  0
VERTEX
  8
0
  5
DD6
 10
12.8548
 20
-37.7328
 30
0.00000
  70
    32
  0
VERTEX
  8
0
  5
DD7
 10
12.8572
 20
-37.7280
 30
0.00000
  70
    32
  0
VERTEX
  8
0
  5
DD8
 10
12.8596
 20
-37.7232
 30
0.00000
  70
    32
  0
VERTEX
  8
0
  5
DD9
 10
12.8619
 20
-37.7184
 30
0.00000
  70
    32
  0
VERTEX
  8
0
  5
DDA
 10
12.8641
 20
-37.7135
 30
0.00000
  70
    32
  0
VERTEX
  8
0
  5
DDB
 10
12.8663
 20
-37.7087
 30
0.00000
  70
    32
  0
VERTEX
  8
0
  5
DDC
 10
12.8685
 20
-37.7038
 30
0.00000
  70
    32
  0
VERTEX
  8
0
  5
DDD
 10
12.8706
 20
-37.6988
 30
0.00000
  70
    32
  0
VERTEX
  8
0
  5
DDE
 10
12.8726
 20
-37.6939
 30
0.00000
  70
    32
  0
VERTEX
  8
0
  5
DDF
 10
12.8746
 20
-37.6889
 30
0.00000
  70
    32
  0
VERTEX
  8
0
  5
DE0
 10
12.8765
 20
-37.6839
 30
0.00000
  70
    32
  0
VERTEX
  8
0
  5
DE1
 10
12.8784
 20
-37.6789
 30
0.00000
  70
    32
  0
VERTEX
  8
0
  5
DE2
 10
12.8802
 20
-37.6739
 30
0.00000
  70
    32
  0
VERTEX
  8
0
  5
DE3
 10
12.8820
 20
-37.6688
 30
0.00000
  70
    32
  0
VERTEX
  8
0
  5
DE4
 10
12.8837
 20
-37.6638
 30
0.00000
  70
    32
  0
VERTEX
  8
0
  5
DE5
 10
12.8853
 20
-37.6587
 30
0.00000
  70
    32
  0
VERTEX
  8
0
  5
DE6
 10
12.8870
 20
-37.6536
 30
0.00000
  70
    32
  0
VERTEX
  8
0
  5
DE7
 10
12.8885
 20
-37.6485
 30
0.00000
  70
    32
  0
VERTEX
  8
0
  5
DE8
 10
12.8900
 20
-37.6433
 30
0.00000
  70
    32
  0
VERTEX
  8
0
  5
DE9
 10
12.8914
 20
-37.6382
 30
0.00000
  70
    32
  0
VERTEX
  8
0
  5
DEA
 10
12.8928
 20
-37.6330
 30
0.00000
  70
    32
  0
VERTEX
  8
0
  5
DEB
 10
12.8942
 20
-37.6278
 30
0.00000
  70
    32
  0
VERTEX
  8
0
  5
DEC
 10
12.8954
 20
-37.6226
 30
0.00000
  70
    32
  0
VERTEX
  8
0
  5
DED
 10
12.8967
 20
-37.6174
 30
0.00000
  70
    32
  0
VERTEX
  8
0
  5
DEE
 10
12.8978
 20
-37.6122
 30
0.00000
  70
    32
  0
VERTEX
  8
0
  5
DEF
 10
12.8989
 20
-37.6070
 30
0.00000
  70
    32
  0
VERTEX
  8
0
  5
DF0
 10
12.9000
 20
-37.6017
 30
0.00000
  70
    32
  0
VERTEX
  8
0
  5
DF1
 10
12.9010
 20
-37.5965
 30
0.00000
  70
    32
  0
VERTEX
  8
0
  5
DF2
 10
12.9019
 20
-37.5912
 30
0.00000
  70
    32
  0
VERTEX
  8
0
  5
DF3
 10
12.9028
 20
-37.5859
 30
0.00000
  70
    32
  0
VERTEX
  8
0
  5
DF4
 10
12.9036
 20
-37.5806
 30
0.00000
  70
    32
  0
VERTEX
  8
0
  5
DF5
 10
12.9044
 20
-37.5753
 30
0.00000
  70
    32
  0
VERTEX
  8
0
  5
DF6
 10
12.9051
 20
-37.5700
 30
0.00000
  70
    32
  0
VERTEX
  8
0
  5
DF7
 10
12.9058
 20
-37.5647
 30
0.00000
  70
    32
  0
VERTEX
  8
0
  5
DF8
 10
12.9064
 20
-37.5594
 30
0.00000
  70
    32
  0
VERTEX
  8
0
  5
DF9
 10
12.9069
 20
-37.5541
 30
0.00000
  70
    32
  0
VERTEX
  8
0
  5
DFA
 10
12.9074
 20
-37.5488
 30
0.00000
  70
    32
  0
VERTEX
  8
0
  5
DFB
 10
12.9078
 20
-37.5434
 30
0.00000
  70
    32
  0
VERTEX
  8
0
  5
DFC
 10
12.9082
 20
-37.5381
 30
0.00000
  70
    32
  0
VERTEX
  8
0
  5
DFD
 10
12.9085
 20
-37.5327
 30
0.00000
  70
    32
  0
VERTEX
  8
0
  5
DFE
 10
12.9088
 20
-37.5274
 30
0.00000
  70
    32
  0
VERTEX
  8
0
  5
DFF
 10
12.9090
 20
-37.5221
 30
0.00000
  70
    32
  0
VERTEX
  8
0
  5
E00
 10
12.9091
 20
-37.5167
 30
0.00000
  70
    32
  0
VERTEX
  8
0
  5
E01
 10
12.9092
 20
-37.5114
 30
0.00000
  70
    32
  0
VERTEX
  8
0
  5
E02
 10
12.9092
 20
-37.5060
 30
0.00000
  70
    32
  0
SEQEND
  8
0
  5
E03
  0
LINE
  5
5B6
  8
0
  6
CONTINUOUS
 62
     7
 10
7.8092221082924453
 20
-37.4998910423067571
 30
0.0
 11
8.8092221082924453
 21
-37.4998910423067571
 31
0.0
  0
POLYLINE
  5
5B7
  8
0
  6
CONTINUOUS
 62
     7
 10
12.209222108292467
 20
-38.0008514057067828
 30
0.0
 66
     1
 70
     8
  0
VERTEX
  8
0
  5
E04
 10
12.2092
 20
-38.0009
 30
0.00000
  70
    32
  0
VERTEX
  8
0
  5
E05
 10
12.2092
 20
-38.0009
 30
0.00000
  70
    32
  0
VERTEX
  8
0
  5
E06
 10
12.2093
 20
-38.0010
 30
0.00000
  70
    32
  0
VERTEX
  8
0
  5
E07
 10
12.2093
 20
-38.0010
 30
0.00000
  70
    32
  0
VERTEX
  8
0
  5
E08
 10
12.2094
 20
-38.0011
 30
0.00000
  70
    32
  0
VERTEX
  8
0
  5
E09
 10
12.2096
 20
-38.0011
 30
0.00000
  70
    32
  0
VERTEX
  8
0
  5
E0A
 10
12.2097
 20
-38.0012
 30
0.00000
  70
    32
  0
VERTEX
  8
0
  5
E0B
 10
12.2099
 20
-38.0012
 30
0.00000
  70
    32
  0
VERTEX
  8
0
  5
E0C
 10
12.2101
 20
-38.0013
 30
0.00000
  70
    32
  0
VERTEX
  8
0
  5
E0D
 10
12.2103
 20
-38.0013
 30
0.00000
  70
    32
  0
VERTEX
  8
0
  5
E0E
 10
12.2106
 20
-38.0014
 30
0.00000
  70
    32
  0
VERTEX
  8
0
  5
E0F
 10
12.2109
 20
-38.0014
 30
0.00000
  70
    32
  0
VERTEX
  8
0
  5
E10
 10
12.2112
 20
-38.0015
 30
0.00000
  70
    32
  0
VERTEX
  8
0
  5
E11
 10
12.2116
 20
-38.0015
 30
0.00000
  70
    32
  0
VERTEX
  8
0
  5
E12
 10
12.2119
 20
-38.0016
 30
0.00000
  70
    32
  0
VERTEX
  8
0
  5
E13
 10
12.2123
 20
-38.0016
 30
0.00000
  70
    32
  0
VERTEX
  8
0
  5
E14
 10
12.2128
 20
-38.0017
 30
0.00000
  70
    32
  0
VERTEX
  8
0
  5
E15
 10
12.2132
 20
-38.0017
 30
0.00000
  70
    32
  0
VERTEX
  8
0
  5
E16
 10
12.2137
 20
-38.0018
 30
0.00000
  70
    32
  0
VERTEX
  8
0
  5
E17
 10
12.2142
 20
-38.0018
 30
0.00000
  70
    32
  0
VERTEX
  8
0
  5
E18
 10
12.2148
 20
-38.0019
 30
0.00000
  70
    32
  0
VERTEX
  8
0
  5
E19
 10
12.2153
 20
-38.0019
 30
0.00000
  70
    32
  0
VERTEX
  8
0
  5
E1A
 10
12.2159
 20
-38.0020
 30
0.00000
  70
    32
  0
VERTEX
  8
0
  5
E1B
 10
12.2165
 20
-38.0020
 30
0.00000
  70
    32
  0
VERTEX
  8
0
  5
E1C
 10
12.2172
 20
-38.0020
 30
0.00000
  70
    32
  0
VERTEX
  8
0
  5
E1D
 10
12.2179
 20
-38.0021
 30
0.00000
  70
    32
  0
VERTEX
  8
0
  5
E1E
 10
12.2186
 20
-38.0021
 30
0.00000
  70
    32
  0
VERTEX
  8
0
  5
E1F
 10
12.2193
 20
-38.0022
 30
0.00000
  70
    32
  0
VERTEX
  8
0
  5
E20
 10
12.2200
 20
-38.0022
 30
0.00000
  70
    32
  0
VERTEX
  8
0
  5
E21
 10
12.2208
 20
-38.0023
 30
0.00000
  70
    32
  0
VERTEX
  8
0
  5
E22
 10
12.2216
 20
-38.0023
 30
0.00000
  70
    32
  0
VERTEX
  8
0
  5
E23
 10
12.2225
 20
-38.0024
 30
0.00000
  70
    32
  0
VERTEX
  8
0
  5
E24
 10
12.2233
 20
-38.0024
 30
0.00000
  70
    32
  0
VERTEX
  8
0
  5
E25
 10
12.2242
 20
-38.0025
 30
0.00000
  70
    32
  0
VERTEX
  8
0
  5
E26
 10
12.2251
 20
-38.0025
 30
0.00000
  70
    32
  0
VERTEX
  8
0
  5
E27
 10
12.2261
 20
-38.0026
 30
0.00000
  70
    32
  0
VERTEX
  8
0
  5
E28
 10
12.2270
 20
-38.0026
 30
0.00000
  70
    32
  0
VERTEX
  8
0
  5
E29
 10
12.2280
 20
-38.0027
 30
0.00000
  70
    32
  0
VERTEX
  8
0
  5
E2A
 10
12.2290
 20
-38.0027
 30
0.00000
  70
    32
  0
VERTEX
  8
0
  5
E2B
 10
12.2301
 20
-38.0028
 30
0.00000
  70
    32
  0
VERTEX
  8
0
  5
E2C
 10
12.2311
 20
-38.0028
 30
0.00000
  70
    32
  0
VERTEX
  8
0
  5
E2D
 10
12.2322
 20
-38.0029
 30
0.00000
  70
    32
  0
VERTEX
  8
0
  5
E2E
 10
12.2334
 20
-38.0029
 30
0.00000
  70
    32
  0
VERTEX
  8
0
  5
E2F
 10
12.2345
 20
-38.0030
 30
0.00000
  70
    32
  0
VERTEX
  8
0
  5
E30
 10
12.2357
 20
-38.0030
 30
0.00000
  70
    32
  0
VERTEX
  8
0
  5
E31
 10
12.2369
 20
-38.0030
 30
0.00000
  70
    32
  0
VERTEX
  8
0
  5
E32
 10
12.2381
 20
-38.0031
 30
0.00000
  70
    32
  0
VERTEX
  8
0
  5
E33
 10
12.2393
 20
-38.0031
 30
0.00000
  70
    32
  0
VERTEX
  8
0
  5
E34
 10
12.2406
 20
-38.0032
 30
0.00000
  70
    32
  0
VERTEX
  8
0
  5
E35
 10
12.2419
 20
-38.0032
 30
0.00000
  70
    32
  0
VERTEX
  8
0
  5
E36
 10
12.2432
 20
-38.0033
 30
0.00000
  70
    32
  0
VERTEX
  8
0
  5
E37
 10
12.2446
 20
-38.0033
 30
0.00000
  70
    32
  0
VERTEX
  8
0
  5
E38
 10
12.2460
 20
-38.0034
 30
0.00000
  70
    32
  0
VERTEX
  8
0
  5
E39
 10
12.2474
 20
-38.0034
 30
0.00000
  70
    32
  0
VERTEX
  8
0
  5
E3A
 10
12.2488
 20
-38.0035
 30
0.00000
  70
    32
  0
VERTEX
  8
0
  5
E3B
 10
12.2502
 20
-38.0035
 30
0.00000
  70
    32
  0
VERTEX
  8
0
  5
E3C
 10
12.2517
 20
-38.0035
 30
0.00000
  70
    32
  0
VERTEX
  8
0
  5
E3D
 10
12.2532
 20
-38.0036
 30
0.00000
  70
    32
  0
VERTEX
  8
0
  5
E3E
 10
12.2547
 20
-38.0036
 30
0.00000
  70
    32
  0
VERTEX
  8
0
  5
E3F
 10
12.2562
 20
-38.0037
 30
0.00000
  70
    32
  0
VERTEX
  8
0
  5
E40
 10
12.2578
 20
-38.0037
 30
0.00000
  70
    32
  0
VERTEX
  8
0
  5
E41
 10
12.2594
 20
-38.0038
 30
0.00000
  70
    32
  0
VERTEX
  8
0
  5
E42
 10
12.2610
 20
-38.0038
 30
0.00000
  70
    32
  0
VERTEX
  8
0
  5
E43
 10
12.2626
 20
-38.0038
 30
0.00000
  70
    32
  0
VERTEX
  8
0
  5
E44
 10
12.2643
 20
-38.0039
 30
0.00000
  70
    32
  0
VERTEX
  8
0
  5
E45
 10
12.2660
 20
-38.0039
 30
0.00000
  70
    32
  0
VERTEX
  8
0
  5
E46
 10
12.2676
 20
-38.0040
 30
0.00000
  70
    32
  0
VERTEX
  8
0
  5
E47
 10
12.2694
 20
-38.0040
 30
0.00000
  70
    32
  0
VERTEX
  8
0
  5
E48
 10
12.2711
 20
-38.0040
 30
0.00000
  70
    32
  0
VERTEX
  8
0
  5
E49
 10
12.2729
 20
-38.0041
 30
0.00000
  70
    32
  0
VERTEX
  8
0
  5
E4A
 10
12.2747
 20
-38.0041
 30
0.00000
  70
    32
  0
VERTEX
  8
0
  5
E4B
 10
12.2765
 20
-38.0042
 30
0.00000
  70
    32
  0
VERTEX
  8
0
  5
E4C
 10
12.2783
 20
-38.0042
 30
0.00000
  70
    32
  0
VERTEX
  8
0
  5
E4D
 10
12.2802
 20
-38.0042
 30
0.00000
  70
    32
  0
VERTEX
  8
0
  5
E4E
 10
12.2820
 20
-38.0043
 30
0.00000
  70
    32
  0
VERTEX
  8
0
  5
E4F
 10
12.2839
 20
-38.0043
 30
0.00000
  70
    32
  0
VERTEX
  8
0
  5
E50
 10
12.2858
 20
-38.0043
 30
0.00000
  70
    32
  0
VERTEX
  8
0
  5
E51
 10
12.2878
 20
-38.0044
 30
0.00000
  70
    32
  0
VERTEX
  8
0
  5
E52
 10
12.2897
 20
-38.0044
 30
0.00000
  70
    32
  0
VERTEX
  8
0
  5
E53
 10
12.2917
 20
-38.0045
 30
0.00000
  70
    32
  0
VERTEX
  8
0
  5
E54
 10
12.2937
 20
-38.0045
 30
0.00000
  70
    32
  0
VERTEX
  8
0
  5
E55
 10
12.2957
 20
-38.0045
 30
0.00000
  70
    32
  0
VERTEX
  8
0
  5
E56
 10
12.2978
 20
-38.0046
 30
0.00000
  70
    32
  0
VERTEX
  8
0
  5
E57
 10
12.2998
 20
-38.0046
 30
0.00000
  70
    32
  0
VERTEX
  8
0
  5
E58
 10
12.3019
 20
-38.0046
 30
0.00000
  70
    32
  0
VERTEX
  8
0
  5
E59
 10
12.3040
 20
-38.0047
 30
0.00000
  70
    32
  0
VERTEX
  8
0
  5
E5A
 10
12.3061
 20
-38.0047
 30
0.00000
  70
    32
  0
VERTEX
  8
0
  5
E5B
 10
12.3082
 20
-38.0047
 30
0.00000
  70
    32
  0
VERTEX
  8
0
  5
E5C
 10
12.3104
 20
-38.0048
 30
0.00000
  70
    32
  0
VERTEX
  8
0
  5
E5D
 10
12.3126
 20
-38.0048
 30
0.00000
  70
    32
  0
VERTEX
  8
0
  5
E5E
 10
12.3147
 20
-38.0048
 30
0.00000
  70
    32
  0
VERTEX
  8
0
  5
E5F
 10
12.3170
 20
-38.0049
 30
0.00000
  70
    32
  0
VERTEX
  8
0
  5
E60
 10
12.3192
 20
-38.0049
 30
0.00000
  70
    32
  0
VERTEX
  8
0
  5
E61
 10
12.3214
 20
-38.0049
 30
0.00000
  70
    32
  0
VERTEX
  8
0
  5
E62
 10
12.3237
 20
-38.0050
 30
0.00000
  70
    32
  0
VERTEX
  8
0
  5
E63
 10
12.3260
 20
-38.0050
 30
0.00000
  70
    32
  0
VERTEX
  8
0
  5
E64
 10
12.3282
 20
-38.0050
 30
0.00000
  70
    32
  0
VERTEX
  8
0
  5
E65
 10
12.3306
 20
-38.0051
 30
0.00000
  70
    32
  0
VERTEX
  8
0
  5
E66
 10
12.3329
 20
-38.0051
 30
0.00000
  70
    32
  0
VERTEX
  8
0
  5
E67
 10
12.3352
 20
-38.0051
 30
0.00000
  70
    32
  0
VERTEX
  8
0
  5
E68
 10
12.3376
 20
-38.0051
 30
0.00000
  70
    32
  0
VERTEX
  8
0
  5
E69
 10
12.3400
 20
-38.0052
 30
0.00000
  70
    32
  0
VERTEX
  8
0
  5
E6A
 10
12.3423
 20
-38.0052
 30
0.00000
  70
    32
  0
VERTEX
  8
0
  5
E6B
 10
12.3448
 20
-38.0052
 30
0.00000
  70
    32
  0
VERTEX
  8
0
  5
E6C
 10
12.3472
 20
-38.0053
 30
0.00000
  70
    32
  0
VERTEX
  8
0
  5
E6D
 10
12.3496
 20
-38.0053
 30
0.00000
  70
    32
  0
VERTEX
  8
0
  5
E6E
 10
12.3521
 20
-38.0053
 30
0.00000
  70
    32
  0
VERTEX
  8
0
  5
E6F
 10
12.3545
 20
-38.0053
 30
0.00000
  70
    32
  0
VERTEX
  8
0
  5
E70
 10
12.3570
 20
-38.0054
 30
0.00000
  70
    32
  0
VERTEX
  8
0
  5
E71
 10
12.3595
 20
-38.0054
 30
0.00000
  70
    32
  0
VERTEX
  8
0
  5
E72
 10
12.3620
 20
-38.0054
 30
0.00000
  70
    32
  0
VERTEX
  8
0
  5
E73
 10
12.3645
 20
-38.0054
 30
0.00000
  70
    32
  0
VERTEX
  8
0
  5
E74
 10
12.3671
 20
-38.0055
 30
0.00000
  70
    32
  0
VERTEX
  8
0
  5
E75
 10
12.3696
 20
-38.0055
 30
0.00000
  70
    32
  0
VERTEX
  8
0
  5
E76
 10
12.3722
 20
-38.0055
 30
0.00000
  70
    32
  0
VERTEX
  8
0
  5
E77
 10
12.3747
 20
-38.0055
 30
0.00000
  70
    32
  0
VERTEX
  8
0
  5
E78
 10
12.3773
 20
-38.0056
 30
0.00000
  70
    32
  0
VERTEX
  8
0
  5
E79
 10
12.3799
 20
-38.0056
 30
0.00000
  70
    32
  0
VERTEX
  8
0
  5
E7A
 10
12.3825
 20
-38.0056
 30
0.00000
  70
    32
  0
VERTEX
  8
0
  5
E7B
 10
12.3851
 20
-38.0056
 30
0.00000
  70
    32
  0
VERTEX
  8
0
  5
E7C
 10
12.3878
 20
-38.0056
 30
0.00000
  70
    32
  0
VERTEX
  8
0
  5
E7D
 10
12.3904
 20
-38.0057
 30
0.00000
  70
    32
  0
VERTEX
  8
0
  5
E7E
 10
12.3931
 20
-38.0057
 30
0.00000
  70
    32
  0
VERTEX
  8
0
  5
E7F
 10
12.3957
 20
-38.0057
 30
0.00000
  70
    32
  0
VERTEX
  8
0
  5
E80
 10
12.3984
 20
-38.0057
 30
0.00000
  70
    32
  0
VERTEX
  8
0
  5
E81
 10
12.4011
 20
-38.0057
 30
0.00000
  70
    32
  0
VERTEX
  8
0
  5
E82
 10
12.4038
 20
-38.0058
 30
0.00000
  70
    32
  0
VERTEX
  8
0
  5
E83
 10
12.4065
 20
-38.0058
 30
0.00000
  70
    32
  0
VERTEX
  8
0
  5
E84
 10
12.4092
 20
-38.0058
 30
0.00000
  70
    32
  0
SEQEND
  8
0
  5
E85
  0
LINE
  5
5B8
  8
0
  6
CONTINUOUS
 62
     7
 10
12.2092221082924492
 20
-37.9694322888067575
 30
0.0
 11
12.2092221082924492
 21
-38.0008514057067828
 31
0.0
  0
LINE
  5
5B9
  8
0
  6
CONTINUOUS
 62
     7
 10
12.2092221082924492
 20
-37.9694322888067575
 30
0.0
 11
9.9092221082924539
 21
-37.9694322888067575
 31
0.0
  0
LINE
  5
5BA
  8
0
  6
CONTINUOUS
 62
     7
 10
9.9092221082924539
 20
-38.0060879252067707
 30
0.0
 11
9.9092221082924539
 21
-37.9694322888067575
 31
0.0
  0
LINE
  5
5BB
  8
0
  6
CONTINUOUS
 62
     7
 10
-12.0907778917075408
 20
-38.0060879252067707
 30
0.0
 11
9.9092221082924539
 21
-38.0060879252067707
 31
0.0
  0
LINE
  5
5BC
  8
0
  6
CONTINUOUS
 62
     7
 10
-12.0907778917075408
 20
-37.9694322888067575
 30
0.0
 11
-12.0907778917075408
 21
-38.0060879252067707
 31
0.0
  0
LINE
  5
5BD
  8
0
  6
CONTINUOUS
 62
     7
 10
-12.0907778917075408
 20
-37.9694322888067575
 30
0.0
 11
-14.3907778917075593
 21
-37.9694322888067575
 31
0.0
  0
LINE
  5
5BE
  8
0
  6
CONTINUOUS
 62
     7
 10
-14.3907778917075593
 20
-38.0008514057067828
 30
0.0
 11
-14.3907778917075593
 21
-37.9694322888067575
 31
0.0
  0
POLYLINE
  5
5BF
  8
0
  6
CONTINUOUS
 62
     7
 10
-14.5907778917067112
 20
-38.0057884436095108
 30
0.0
 66
     1
 70
     8
  0
VERTEX
  8
0
  5
E86
 10
-14.5908
 20
-38.0058
 30
0.00000
  70
    32
  0
VERTEX
  8
0
  5
E87
 10
-14.5881
 20
-38.0058
 30
0.00000
  70
    32
  0
VERTEX
  8
0
  5
E88
 10
-14.5854
 20
-38.0058
 30
0.00000
  70
    32
  0
VERTEX
  8
0
  5
E89
 10
-14.5827
 20
-38.0057
 30
0.00000
  70
    32
  0
VERTEX
  8
0
  5
E8A
 10
-14.5800
 20
-38.0057
 30
0.00000
  70
    32
  0
VERTEX
  8
0
  5
E8B
 10
-14.5773
 20
-38.0057
 30
0.00000
  70
    32
  0
VERTEX
  8
0
  5
E8C
 10
-14.5746
 20
-38.0057
 30
0.00000
  70
    32
  0
VERTEX
  8
0
  5
E8D
 10
-14.5720
 20
-38.0057
 30
0.00000
  70
    32
  0
VERTEX
  8
0
  5
E8E
 10
-14.5693
 20
-38.0056
 30
0.00000
  70
    32
  0
VERTEX
  8
0
  5
E8F
 10
-14.5667
 20
-38.0056
 30
0.00000
  70
    32
  0
VERTEX
  8
0
  5
E90
 10
-14.5641
 20
-38.0056
 30
0.00000
  70
    32
  0
VERTEX
  8
0
  5
E91
 10
-14.5615
 20
-38.0056
 30
0.00000
  70
    32
  0
VERTEX
  8
0
  5
E92
 10
-14.5589
 20
-38.0056
 30
0.00000
  70
    32
  0
VERTEX
  8
0
  5
E93
 10
-14.5563
 20
-38.0055
 30
0.00000
  70
    32
  0
VERTEX
  8
0
  5
E94
 10
-14.5537
 20
-38.0055
 30
0.00000
  70
    32
  0
VERTEX
  8
0
  5
E95
 10
-14.5512
 20
-38.0055
 30
0.00000
  70
    32
  0
VERTEX
  8
0
  5
E96
 10
-14.5486
 20
-38.0055
 30
0.00000
  70
    32
  0
VERTEX
  8
0
  5
E97
 10
-14.5461
 20
-38.0054
 30
0.00000
  70
    32
  0
VERTEX
  8
0
  5
E98
 10
-14.5436
 20
-38.0054
 30
0.00000
  70
    32
  0
VERTEX
  8
0
  5
E99
 10
-14.5410
 20
-38.0054
 30
0.00000
  70
    32
  0
VERTEX
  8
0
  5
E9A
 10
-14.5386
 20
-38.0054
 30
0.00000
  70
    32
  0
VERTEX
  8
0
  5
E9B
 10
-14.5361
 20
-38.0053
 30
0.00000
  70
    32
  0
VERTEX
  8
0
  5
E9C
 10
-14.5336
 20
-38.0053
 30
0.00000
  70
    32
  0
VERTEX
  8
0
  5
E9D
 10
-14.5312
 20
-38.0053
 30
0.00000
  70
    32
  0
VERTEX
  8
0
  5
E9E
 10
-14.5287
 20
-38.0053
 30
0.00000
  70
    32
  0
VERTEX
  8
0
  5
E9F
 10
-14.5263
 20
-38.0052
 30
0.00000
  70
    32
  0
VERTEX
  8
0
  5
EA0
 10
-14.5239
 20
-38.0052
 30
0.00000
  70
    32
  0
VERTEX
  8
0
  5
EA1
 10
-14.5215
 20
-38.0052
 30
0.00000
  70
    32
  0
VERTEX
  8
0
  5
EA2
 10
-14.5191
 20
-38.0051
 30
0.00000
  70
    32
  0
VERTEX
  8
0
  5
EA3
 10
-14.5168
 20
-38.0051
 30
0.00000
  70
    32
  0
VERTEX
  8
0
  5
EA4
 10
-14.5144
 20
-38.0051
 30
0.00000
  70
    32
  0
VERTEX
  8
0
  5
EA5
 10
-14.5121
 20
-38.0051
 30
0.00000
  70
    32
  0
VERTEX
  8
0
  5
EA6
 10
-14.5098
 20
-38.0050
 30
0.00000
  70
    32
  0
VERTEX
  8
0
  5
EA7
 10
-14.5075
 20
-38.0050
 30
0.00000
  70
    32
  0
VERTEX
  8
0
  5
EA8
 10
-14.5052
 20
-38.0050
 30
0.00000
  70
    32
  0
VERTEX
  8
0
  5
EA9
 10
-14.5030
 20
-38.0049
 30
0.00000
  70
    32
  0
VERTEX
  8
0
  5
EAA
 10
-14.5007
 20
-38.0049
 30
0.00000
  70
    32
  0
VERTEX
  8
0
  5
EAB
 10
-14.4985
 20
-38.0049
 30
0.00000
  70
    32
  0
VERTEX
  8
0
  5
EAC
 10
-14.4963
 20
-38.0048
 30
0.00000
  70
    32
  0
VERTEX
  8
0
  5
EAD
 10
-14.4941
 20
-38.0048
 30
0.00000
  70
    32
  0
VERTEX
  8
0
  5
EAE
 10
-14.4919
 20
-38.0048
 30
0.00000
  70
    32
  0
VERTEX
  8
0
  5
EAF
 10
-14.4898
 20
-38.0047
 30
0.00000
  70
    32
  0
VERTEX
  8
0
  5
EB0
 10
-14.4877
 20
-38.0047
 30
0.00000
  70
    32
  0
VERTEX
  8
0
  5
EB1
 10
-14.4855
 20
-38.0047
 30
0.00000
  70
    32
  0
VERTEX
  8
0
  5
EB2
 10
-14.4835
 20
-38.0046
 30
0.00000
  70
    32
  0
VERTEX
  8
0
  5
EB3
 10
-14.4814
 20
-38.0046
 30
0.00000
  70
    32
  0
VERTEX
  8
0
  5
EB4
 10
-14.4793
 20
-38.0046
 30
0.00000
  70
    32
  0
VERTEX
  8
0
  5
EB5
 10
-14.4773
 20
-38.0045
 30
0.00000
  70
    32
  0
VERTEX
  8
0
  5
EB6
 10
-14.4753
 20
-38.0045
 30
0.00000
  70
    32
  0
VERTEX
  8
0
  5
EB7
 10
-14.4733
 20
-38.0045
 30
0.00000
  70
    32
  0
VERTEX
  8
0
  5
EB8
 10
-14.4713
 20
-38.0044
 30
0.00000
  70
    32
  0
VERTEX
  8
0
  5
EB9
 10
-14.4693
 20
-38.0044
 30
0.00000
  70
    32
  0
VERTEX
  8
0
  5
EBA
 10
-14.4674
 20
-38.0043
 30
0.00000
  70
    32
  0
VERTEX
  8
0
  5
EBB
 10
-14.4655
 20
-38.0043
 30
0.00000
  70
    32
  0
VERTEX
  8
0
  5
EBC
 10
-14.4636
 20
-38.0043
 30
0.00000
  70
    32
  0
VERTEX
  8
0
  5
EBD
 10
-14.4617
 20
-38.0042
 30
0.00000
  70
    32
  0
VERTEX
  8
0
  5
EBE
 10
-14.4599
 20
-38.0042
 30
0.00000
  70
    32
  0
VERTEX
  8
0
  5
EBF
 10
-14.4580
 20
-38.0042
 30
0.00000
  70
    32
  0
VERTEX
  8
0
  5
EC0
 10
-14.4562
 20
-38.0041
 30
0.00000
  70
    32
  0
VERTEX
  8
0
  5
EC1
 10
-14.4544
 20
-38.0041
 30
0.00000
  70
    32
  0
VERTEX
  8
0
  5
EC2
 10
-14.4527
 20
-38.0040
 30
0.00000
  70
    32
  0
VERTEX
  8
0
  5
EC3
 10
-14.4509
 20
-38.0040
 30
0.00000
  70
    32
  0
VERTEX
  8
0
  5
EC4
 10
-14.4492
 20
-38.0040
 30
0.00000
  70
    32
  0
VERTEX
  8
0
  5
EC5
 10
-14.4475
 20
-38.0039
 30
0.00000
  70
    32
  0
VERTEX
  8
0
  5
EC6
 10
-14.4458
 20
-38.0039
 30
0.00000
  70
    32
  0
VERTEX
  8
0
  5
EC7
 10
-14.4442
 20
-38.0038
 30
0.00000
  70
    32
  0
VERTEX
  8
0
  5
EC8
 10
-14.4425
 20
-38.0038
 30
0.00000
  70
    32
  0
VERTEX
  8
0
  5
EC9
 10
-14.4409
 20
-38.0038
 30
0.00000
  70
    32
  0
VERTEX
  8
0
  5
ECA
 10
-14.4393
 20
-38.0037
 30
0.00000
  70
    32
  0
VERTEX
  8
0
  5
ECB
 10
-14.4378
 20
-38.0037
 30
0.00000
  70
    32
  0
VERTEX
  8
0
  5
ECC
 10
-14.4362
 20
-38.0036
 30
0.00000
  70
    32
  0
VERTEX
  8
0
  5
ECD
 10
-14.4347
 20
-38.0036
 30
0.00000
  70
    32
  0
VERTEX
  8
0
  5
ECE
 10
-14.4332
 20
-38.0035
 30
0.00000
  70
    32
  0
VERTEX
  8
0
  5
ECF
 10
-14.4318
 20
-38.0035
 30
0.00000
  70
    32
  0
VERTEX
  8
0
  5
ED0
 10
-14.4303
 20
-38.0035
 30
0.00000
  70
    32
  0
VERTEX
  8
0
  5
ED1
 10
-14.4289
 20
-38.0034
 30
0.00000
  70
    32
  0
VERTEX
  8
0
  5
ED2
 10
-14.4275
 20
-38.0034
 30
0.00000
  70
    32
  0
VERTEX
  8
0
  5
ED3
 10
-14.4261
 20
-38.0033
 30
0.00000
  70
    32
  0
VERTEX
  8
0
  5
ED4
 10
-14.4248
 20
-38.0033
 30
0.00000
  70
    32
  0
VERTEX
  8
0
  5
ED5
 10
-14.4235
 20
-38.0032
 30
0.00000
  70
    32
  0
VERTEX
  8
0
  5
ED6
 10
-14.4222
 20
-38.0032
 30
0.00000
  70
    32
  0
VERTEX
  8
0
  5
ED7
 10
-14.4209
 20
-38.0031
 30
0.00000
  70
    32
  0
VERTEX
  8
0
  5
ED8
 10
-14.4197
 20
-38.0031
 30
0.00000
  70
    32
  0
VERTEX
  8
0
  5
ED9
 10
-14.4184
 20
-38.0030
 30
0.00000
  70
    32
  0
VERTEX
  8
0
  5
EDA
 10
-14.4172
 20
-38.0030
 30
0.00000
  70
    32
  0
VERTEX
  8
0
  5
EDB
 10
-14.4161
 20
-38.0030
 30
0.00000
  70
    32
  0
VERTEX
  8
0
  5
EDC
 10
-14.4149
 20
-38.0029
 30
0.00000
  70
    32
  0
VERTEX
  8
0
  5
EDD
 10
-14.4138
 20
-38.0029
 30
0.00000
  70
    32
  0
VERTEX
  8
0
  5
EDE
 10
-14.4127
 20
-38.0028
 30
0.00000
  70
    32
  0
VERTEX
  8
0
  5
EDF
 10
-14.4116
 20
-38.0028
 30
0.00000
  70
    32
  0
VERTEX
  8
0
  5
EE0
 10
-14.4106
 20
-38.0027
 30
0.00000
  70
    32
  0
VERTEX
  8
0
  5
EE1
 10
-14.4096
 20
-38.0027
 30
0.00000
  70
    32
  0
VERTEX
  8
0
  5
EE2
 10
-14.4086
 20
-38.0026
 30
0.00000
  70
    32
  0
VERTEX
  8
0
  5
EE3
 10
-14.4076
 20
-38.0026
 30
0.00000
  70
    32
  0
VERTEX
  8
0
  5
EE4
 10
-14.4067
 20
-38.0025
 30
0.00000
  70
    32
  0
VERTEX
  8
0
  5
EE5
 10
-14.4058
 20
-38.0025
 30
0.00000
  70
    32
  0
VERTEX
  8
0
  5
EE6
 10
-14.4049
 20
-38.0024
 30
0.00000
  70
    32
  0
VERTEX
  8
0
  5
EE7
 10
-14.4040
 20
-38.0024
 30
0.00000
  70
    32
  0
VERTEX
  8
0
  5
EE8
 10
-14.4032
 20
-38.0023
 30
0.00000
  70
    32
  0
VERTEX
  8
0
  5
EE9
 10
-14.4024
 20
-38.0023
 30
0.00000
  70
    32
  0
VERTEX
  8
0
  5
EEA
 10
-14.4016
 20
-38.0022
 30
0.00000
  70
    32
  0
VERTEX
  8
0
  5
EEB
 10
-14.4008
 20
-38.0022
 30
0.00000
  70
    32
  0
VERTEX
  8
0
  5
EEC
 10
-14.4001
 20
-38.0021
 30
0.00000
  70
    32
  0
VERTEX
  8
0
  5
EED
 10
-14.3994
 20
-38.0021
 30
0.00000
  70
    32
  0
VERTEX
  8
0
  5
EEE
 10
-14.3987
 20
-38.0020
 30
0.00000
  70
    32
  0
VERTEX
  8
0
  5
EEF
 10
-14.3981
 20
-38.0020
 30
0.00000
  70
    32
  0
VERTEX
  8
0
  5
EF0
 10
-14.3975
 20
-38.0020
 30
0.00000
  70
    32
  0
VERTEX
  8
0
  5
EF1
 10
-14.3969
 20
-38.0019
 30
0.00000
  70
    32
  0
VERTEX
  8
0
  5
EF2
 10
-14.3963
 20
-38.0019
 30
0.00000
  70
    32
  0
VERTEX
  8
0
  5
EF3
 10
-14.3958
 20
-38.0018
 30
0.00000
  70
    32
  0
VERTEX
  8
0
  5
EF4
 10
-14.3953
 20
-38.0018
 30
0.00000
  70
    32
  0
VERTEX
  8
0
  5
EF5
 10
-14.3948
 20
-38.0017
 30
0.00000
  70
    32
  0
VERTEX
  8
0
  5
EF6
 10
-14.3943
 20
-38.0017
 30
0.00000
  70
    32
  0
VERTEX
  8
0
  5
EF7
 10
-14.3939
 20
-38.0016
 30
0.00000
  70
    32
  0
VERTEX
  8
0
  5
EF8
 10
-14.3935
 20
-38.0016
 30
0.00000
  70
    32
  0
VERTEX
  8
0
  5
EF9
 10
-14.3931
 20
-38.0015
 30
0.00000
  70
    32
  0
VERTEX
  8
0
  5
EFA
 10
-14.3928
 20
-38.0015
 30
0.00000
  70
    32
  0
VERTEX
  8
0
  5
EFB
 10
-14.3925
 20
-38.0014
 30
0.00000
  70
    32
  0
VERTEX
  8
0
  5
EFC
 10
-14.3922
 20
-38.0014
 30
0.00000
  70
    32
  0
VERTEX
  8
0
  5
EFD
 10
-14.3919
 20
-38.0013
 30
0.00000
  70
    32
  0
VERTEX
  8
0
  5
EFE
 10
-14.3917
 20
-38.0013
 30
0.00000
  70
    32
  0
VERTEX
  8
0
  5
EFF
 10
-14.3915
 20
-38.0012
 30
0.00000
  70
    32
  0
VERTEX
  8
0
  5
F00
 10
-14.3913
 20
-38.0012
 30
0.00000
  70
    32
  0
VERTEX
  8
0
  5
F01
 10
-14.3911
 20
-38.0011
 30
0.00000
  70
    32
  0
VERTEX
  8
0
  5
F02
 10
-14.3910
 20
-38.0011
 30
0.00000
  70
    32
  0
VERTEX
  8
0
  5
F03
 10
-14.3909
 20
-38.0010
 30
0.00000
  70
    32
  0
VERTEX
  8
0
  5
F04
 10
-14.3908
 20
-38.0010
 30
0.00000
  70
    32
  0
VERTEX
  8
0
  5
F05
 10
-14.3908
 20
-38.0009
 30
0.00000
  70
    32
  0
VERTEX
  8
0
  5
F06
 10
-14.3908
 20
-38.0009
 30
0.00000
  70
    32
  0
SEQEND
  8
0
  5
F07
  0
LINE
  5
5C0
  8
0
  6
CONTINUOUS
 62
     7
 10
-10.99077789170755
 20
-37.4998910423067571
 30
0.0
 11
-9.9907778917075518
 21
-37.4998910423067571
 31
0.0
  0
LINE
  5
5C1
  8
0
  6
CONTINUOUS
 62
     7
 10
7.8092221082924453
 20
-37.4998910423067571
 30
0.0
 11
7.8092221082924453
 21
-37.4822836609067735
 31
0.0
  0
LINE
  5
5C2
  8
0
  6
CONTINUOUS
 62
     7
 10
8.8092221082924453
 20
-37.4822836609067735
 30
0.0
 11
8.8092221082924453
 21
-37.4998910423067571
 31
0.0
  0
LINE
  5
5C3
  8
0
  6
CONTINUOUS
 62
     7
 10
-9.9907778917075518
 20
-37.4822836609067735
 30
0.0
 11
-9.9907778917075518
 21
-37.4998910423067571
 31
0.0
  0
LINE
  5
5C4
  8
0
  6
CONTINUOUS
 62
     7
 10
-10.99077789170755
 20
-37.4998910423067571
 30
0.0
 11
-10.99077789170755
 21
-37.4822836609067735
 31
0.0
  0
POLYLINE
  8
0
  5
F08
  62
7
  66
     1
 10
0.00000
 20
0.00000
 30
0.00000
  70
     8
  0
VERTEX
  8
0
  5
F09
 10
-14.6908
 20
28.9838
 30
0.00000
  70
    32
  0
VERTEX
  8
0
  5
F0A
 10
-14.6900
 20
28.9840
 30
0.00000
  70
    32
  0
VERTEX
  8
0
  5
F0B
 10
-14.6892
 20
28.9841
 30
0.00000
  70
    32
  0
VERTEX
  8
0
  5
F0C
 10
-14.6884
 20
28.9843
 30
0.00000
  70
    32
  0
VERTEX
  8
0
  5
F0D
 10
-14.6876
 20
28.9845
 30
0.00000
  70
    32
  0
VERTEX
  8
0
  5
F0E
 10
-14.6868
 20
28.9846
 30
0.00000
  70
    32
  0
VERTEX
  8
0
  5
F0F
 10
-14.6860
 20
28.9848
 30
0.00000
  70
    32
  0
VERTEX
  8
0
  5
F10
 10
-14.6852
 20
28.9849
 30
0.00000
  70
    32
  0
VERTEX
  8
0
  5
F11
 10
-14.6844
 20
28.9851
 30
0.00000
  70
    32
  0
VERTEX
  8
0
  5
F12
 10
-14.6836
 20
28.9852
 30
0.00000
  70
    32
  0
VERTEX
  8
0
  5
F13
 10
-14.6828
 20
28.9854
 30
0.00000
  70
    32
  0
VERTEX
  8
0
  5
F14
 10
-14.6820
 20
28.9855
 30
0.00000
  70
    32
  0
VERTEX
  8
0
  5
F15
 10
-14.6812
 20
28.9857
 30
0.00000
  70
    32
  0
VERTEX
  8
0
  5
F16
 10
-14.6804
 20
28.9858
 30
0.00000
  70
    32
  0
VERTEX
  8
0
  5
F17
 10
-14.6796
 20
28.9860
 30
0.00000
  70
    32
  0
VERTEX
  8
0
  5
F18
 10
-14.6788
 20
28.9861
 30
0.00000
  70
    32
  0
VERTEX
  8
0
  5
F19
 10
-14.6780
 20
28.9862
 30
0.00000
  70
    32
  0
VERTEX
  8
0
  5
F1A
 10
-14.6772
 20
28.9864
 30
0.00000
  70
    32
  0
VERTEX
  8
0
  5
F1B
 10
-14.6764
 20
28.9865
 30
0.00000
  70
    32
  0
VERTEX
  8
0
  5
F1C
 10
-14.6756
 20
28.9867
 30
0.00000
  70
    32
  0
VERTEX
  8
0
  5
F1D
 10
-14.6748
 20
28.9868
 30
0.00000
  70
    32
  0
VERTEX
  8
0
  5
F1E
 10
-14.6740
 20
28.9869
 30
0.00000
  70
    32
  0
VERTEX
  8
0
  5
F1F
 10
-14.6732
 20
28.9871
 30
0.00000
  70
    32
  0
VERTEX
  8
0
  5
F20
 10
-14.6724
 20
28.9872
 30
0.00000
  70
    32
  0
VERTEX
  8
0
  5
F21
 10
-14.6716
 20
28.9873
 30
0.00000
  70
    32
  0
VERTEX
  8
0
  5
F22
 10
-14.6708
 20
28.9875
 30
0.00000
  70
    32
  0
VERTEX
  8
0
  5
F23
 10
-14.6700
 20
28.9876
 30
0.00000
  70
    32
  0
VERTEX
  8
0
  5
F24
 10
-14.6692
 20
28.9877
 30
0.00000
  70
    32
  0
VERTEX
  8
0
  5
F25
 10
-14.6684
 20
28.9878
 30
0.00000
  70
    32
  0
VERTEX
  8
0
  5
F26
 10
-14.6676
 20
28.9880
 30
0.00000
  70
    32
  0
VERTEX
  8
0
  5
F27
 10
-14.6668
 20
28.9881
 30
0.00000
  70
    32
  0
VERTEX
  8
0
  5
F28
 10
-14.6660
 20
28.9882
 30
0.00000
  70
    32
  0
VERTEX
  8
0
  5
F29
 10
-14.6652
 20
28.9883
 30
0.00000
  70
    32
  0
VERTEX
  8
0
  5
F2A
 10
-14.6644
 20
28.9884
 30
0.00000
  70
    32
  0
VERTEX
  8
0
  5
F2B
 10
-14.6636
 20
28.9886
 30
0.00000
  70
    32
  0
VERTEX
  8
0
  5
F2C
 10
-14.6628
 20
28.9887
 30
0.00000
  70
    32
  0
VERTEX
  8
0
  5
F2D
 10
-14.6620
 20
28.9888
 30
0.00000
  70
    32
  0
VERTEX
  8
0
  5
F2E
 10
-14.6613
 20
28.9889
 30
0.00000
  70
    32
  0
VERTEX
  8
0
  5
F2F
 10
-14.6605
 20
28.9890
 30
0.00000
  70
    32
  0
VERTEX
  8
0
  5
F30
 10
-14.6597
 20
28.9891
 30
0.00000
  70
    32
  0
VERTEX
  8
0
  5
F31
 10
-14.6589
 20
28.9892
 30
0.00000
  70
    32
  0
VERTEX
  8
0
  5
F32
 10
-14.6581
 20
28.9893
 30
0.00000
  70
    32
  0
VERTEX
  8
0
  5
F33
 10
-14.6573
 20
28.9894
 30
0.00000
  70
    32
  0
VERTEX
  8
0
  5
F34
 10
-14.6565
 20
28.9895
 30
0.00000
  70
    32
  0
VERTEX
  8
0
  5
F35
 10
-14.6557
 20
28.9896
 30
0.00000
  70
    32
  0
VERTEX
  8
0
  5
F36
 10
-14.6549
 20
28.9897
 30
0.00000
  70
    32
  0
VERTEX
  8
0
  5
F37
 10
-14.6541
 20
28.9899
 30
0.00000
  70
    32
  0
VERTEX
  8
0
  5
F38
 10
-14.6533
 20
28.9899
 30
0.00000
  70
    32
  0
VERTEX
  8
0
  5
F39
 10
-14.6525
 20
28.9900
 30
0.00000
  70
    32
  0
VERTEX
  8
0
  5
F3A
 10
-14.6517
 20
28.9901
 30
0.00000
  70
    32
  0
VERTEX
  8
0
  5
F3B
 10
-14.6510
 20
28.9902
 30
0.00000
  70
    32
  0
VERTEX
  8
0
  5
F3C
 10
-14.6502
 20
28.9903
 30
0.00000
  70
    32
  0
VERTEX
  8
0
  5
F3D
 10
-14.6494
 20
28.9904
 30
0.00000
  70
    32
  0
VERTEX
  8
0
  5
F3E
 10
-14.6486
 20
28.9905
 30
0.00000
  70
    32
  0
VERTEX
  8
0
  5
F3F
 10
-14.6478
 20
28.9906
 30
0.00000
  70
    32
  0
VERTEX
  8
0
  5
F40
 10
-14.6470
 20
28.9907
 30
0.00000
  70
    32
  0
VERTEX
  8
0
  5
F41
 10
-14.6462
 20
28.9908
 30
0.00000
  70
    32
  0
VERTEX
  8
0
  5
F42
 10
-14.6454
 20
28.9909
 30
0.00000
  70
    32
  0
VERTEX
  8
0
  5
F43
 10
-14.6446
 20
28.9909
 30
0.00000
  70
    32
  0
VERTEX
  8
0
  5
F44
 10
-14.6438
 20
28.9910
 30
0.00000
  70
    32
  0
VERTEX
  8
0
  5
F45
 10
-14.6431
 20
28.9911
 30
0.00000
  70
    32
  0
VERTEX
  8
0
  5
F46
 10
-14.6423
 20
28.9912
 30
0.00000
  70
    32
  0
VERTEX
  8
0
  5
F47
 10
-14.6415
 20
28.9913
 30
0.00000
  70
    32
  0
VERTEX
  8
0
  5
F48
 10
-14.6407
 20
28.9913
 30
0.00000
  70
    32
  0
VERTEX
  8
0
  5
F49
 10
-14.6399
 20
28.9914
 30
0.00000
  70
    32
  0
VERTEX
  8
0
  5
F4A
 10
-14.6391
 20
28.9915
 30
0.00000
  70
    32
  0
VERTEX
  8
0
  5
F4B
 10
-14.6383
 20
28.9916
 30
0.00000
  70
    32
  0
VERTEX
  8
0
  5
F4C
 10
-14.6375
 20
28.9916
 30
0.00000
  70
    32
  0
VERTEX
  8
0
  5
F4D
 10
-14.6368
 20
28.9917
 30
0.00000
  70
    32
  0
VERTEX
  8
0
  5
F4E
 10
-14.6360
 20
28.9918
 30
0.00000
  70
    32
  0
VERTEX
  8
0
  5
F4F
 10
-14.6352
 20
28.9919
 30
0.00000
  70
    32
  0
VERTEX
  8
0
  5
F50
 10
-14.6344
 20
28.9919
 30
0.00000
  70
    32
  0
VERTEX
  8
0
  5
F51
 10
-14.6336
 20
28.9920
 30
0.00000
  70
    32
  0
VERTEX
  8
0
  5
F52
 10
-14.6328
 20
28.9920
 30
0.00000
  70
    32
  0
VERTEX
  8
0
  5
F53
 10
-14.6320
 20
28.9921
 30
0.00000
  70
    32
  0
VERTEX
  8
0
  5
F54
 10
-14.6313
 20
28.9922
 30
0.00000
  70
    32
  0
VERTEX
  8
0
  5
F55
 10
-14.6305
 20
28.9922
 30
0.00000
  70
    32
  0
VERTEX
  8
0
  5
F56
 10
-14.6297
 20
28.9923
 30
0.00000
  70
    32
  0
VERTEX
  8
0
  5
F57
 10
-14.6289
 20
28.9923
 30
0.00000
  70
    32
  0
VERTEX
  8
0
  5
F58
 10
-14.6281
 20
28.9924
 30
0.00000
  70
    32
  0
VERTEX
  8
0
  5
F59
 10
-14.6273
 20
28.9925
 30
0.00000
  70
    32
  0
VERTEX
  8
0
  5
F5A
 10
-14.6266
 20
28.9925
 30
0.00000
  70
    32
  0
VERTEX
  8
0
  5
F5B
 10
-14.6258
 20
28.9926
 30
0.00000
  70
    32
  0
VERTEX
  8
0
  5
F5C
 10
-14.6250
 20
28.9926
 30
0.00000
  70
    32
  0
VERTEX
  8
0
  5
F5D
 10
-14.6242
 20
28.9927
 30
0.00000
  70
    32
  0
VERTEX
  8
0
  5
F5E
 10
-14.6234
 20
28.9927
 30
0.00000
  70
    32
  0
VERTEX
  8
0
  5
F5F
 10
-14.6226
 20
28.9928
 30
0.00000
  70
    32
  0
VERTEX
  8
0
  5
F60
 10
-14.6219
 20
28.9928
 30
0.00000
  70
    32
  0
VERTEX
  8
0
  5
F61
 10
-14.6211
 20
28.9929
 30
0.00000
  70
    32
  0
VERTEX
  8
0
  5
F62
 10
-14.6203
 20
28.9929
 30
0.00000
  70
    32
  0
VERTEX
  8
0
  5
F63
 10
-14.6195
 20
28.9929
 30
0.00000
  70
    32
  0
VERTEX
  8
0
  5
F64
 10
-14.6187
 20
28.9930
 30
0.00000
  70
    32
  0
VERTEX
  8
0
  5
F65
 10
-14.6179
 20
28.9930
 30
0.00000
  70
    32
  0
VERTEX
  8
0
  5
F66
 10
-14.6172
 20
28.9931
 30
0.00000
  70
    32
  0
VERTEX
  8
0
  5
F67
 10
-14.6164
 20
28.9931
 30
0.00000
  70
    32
  0
VERTEX
  8
0
  5
F68
 10
-14.6156
 20
28.9931
 30
0.00000
  70
    32
  0
VERTEX
  8
0
  5
F69
 10
-14.6148
 20
28.9932
 30
0.00000
  70
    32
  0
VERTEX
  8
0
  5
F6A
 10
-14.6140
 20
28.9932
 30
0.00000
  70
    32
  0
VERTEX
  8
0
  5
F6B
 10
-14.6133
 20
28.9932
 30
0.00000
  70
    32
  0
VERTEX
  8
0
  5
F6C
 10
-14.6125
 20
28.9933
 30
0.00000
  70
    32
  0
VERTEX
  8
0
  5
F6D
 10
-14.6117
 20
28.9933
 30
0.00000
  70
    32
  0
VERTEX
  8
0
  5
F6E
 10
-14.6109
 20
28.9933
 30
0.00000
  70
    32
  0
VERTEX
  8
0
  5
F6F
 10
-14.6102
 20
28.9933
 30
0.00000
  70
    32
  0
VERTEX
  8
0
  5
F70
 10
-14.6094
 20
28.9934
 30
0.00000
  70
    32
  0
VERTEX
  8
0
  5
F71
 10
-14.6086
 20
28.9934
 30
0.00000
  70
    32
  0
VERTEX
  8
0
  5
F72
 10
-14.6078
 20
28.9934
 30
0.00000
  70
    32
  0
VERTEX
  8
0
  5
F73
 10
-14.6070
 20
28.9934
 30
0.00000
  70
    32
  0
VERTEX
  8
0
  5
F74
 10
-14.6063
 20
28.9935
 30
0.00000
  70
    32
  0
VERTEX
  8
0
  5
F75
 10
-14.6055
 20
28.9935
 30
0.00000
  70
    32
  0
VERTEX
  8
0
  5
F76
 10
-14.6047
 20
28.9935
 30
0.00000
  70
    32
  0
VERTEX
  8
0
  5
F77
 10
-14.6039
 20
28.9935
 30
0.00000
  70
    32
  0
VERTEX
  8
0
  5
F78
 10
-14.6032
 20
28.9935
 30
0.00000
  70
    32
  0
VERTEX
  8
0
  5
F79
 10
-14.6024
 20
28.9935
 30
0.00000
  70
    32
  0
VERTEX
  8
0
  5
F7A
 10
-14.6016
 20
28.9936
 30
0.00000
  70
    32
  0
VERTEX
  8
0
  5
F7B
 10
-14.6008
 20
28.9936
 30
0.00000
  70
    32
  0
VERTEX
  8
0
  5
F7C
 10
-14.6001
 20
28.9936
 30
0.00000
  70
    32
  0
VERTEX
  8
0
  5
F7D
 10
-14.5993
 20
28.9936
 30
0.00000
  70
    32
  0
VERTEX
  8
0
  5
F7E
 10
-14.5985
 20
28.9936
 30
0.00000
  70
    32
  0
VERTEX
  8
0
  5
F7F
 10
-14.5977
 20
28.9936
 30
0.00000
  70
    32
  0
VERTEX
  8
0
  5
F80
 10
-14.5970
 20
28.9936
 30
0.00000
  70
    32
  0
VERTEX
  8
0
  5
F81
 10
-14.5962
 20
28.9936
 30
0.00000
  70
    32
  0
VERTEX
  8
0
  5
F82
 10
-14.5954
 20
28.9936
 30
0.00000
  70
    32
  0
VERTEX
  8
0
  5
F83
 10
-14.5946
 20
28.9936
 30
0.00000
  70
    32
  0
VERTEX
  8
0
  5
F84
 10
-14.5939
 20
28.9936
 30
0.00000
  70
    32
  0
VERTEX
  8
0
  5
F85
 10
-14.5931
 20
28.9936
 30
0.00000
  70
    32
  0
VERTEX
  8
0
  5
F86
 10
-14.5923
 20
28.9936
 30
0.00000
  70
    32
  0
VERTEX
  8
0
  5
F87
 10
-14.5915
 20
28.9936
 30
0.00000
  70
    32
  0
VERTEX
  8
0
  5
F88
 10
-14.5908
 20
28.9936
 30
0.00000
  70
    32
  0
SEQEND
  8
0
  5
F89
  0
LINE
  5
5C6
  8
0
  6
CONTINUOUS
 62
     7
 10
-15.0907778917075408
 20
27.9701839628932305
 30
0.0
 11
-15.0907778917075408
 21
28.4938359107932513
 31
0.0
  0
POLYLINE
  5
5C7
  8
0
  6
CONTINUOUS
 62
     7
 10
-14.6907778917119316
 20
28.9838084845461204
 30
0.0
 66
     1
 70
     8
  0
VERTEX
  8
0
  5
F8A
 10
-14.6908
 20
28.9838
 30
0.00000
  70
    32
  0
VERTEX
  8
0
  5
F8B
 10
-14.6960
 20
28.9827
 30
0.00000
  70
    32
  0
VERTEX
  8
0
  5
F8C
 10
-14.7012
 20
28.9816
 30
0.00000
  70
    32
  0
VERTEX
  8
0
  5
F8D
 10
-14.7064
 20
28.9803
 30
0.00000
  70
    32
  0
VERTEX
  8
0
  5
F8E
 10
-14.7116
 20
28.9791
 30
0.00000
  70
    32
  0
VERTEX
  8
0
  5
F8F
 10
-14.7168
 20
28.9778
 30
0.00000
  70
    32
  0
VERTEX
  8
0
  5
F90
 10
-14.7220
 20
28.9764
 30
0.00000
  70
    32
  0
VERTEX
  8
0
  5
F91
 10
-14.7272
 20
28.9750
 30
0.00000
  70
    32
  0
VERTEX
  8
0
  5
F92
 10
-14.7323
 20
28.9735
 30
0.00000
  70
    32
  0
VERTEX
  8
0
  5
F93
 10
-14.7374
 20
28.9719
 30
0.00000
  70
    32
  0
VERTEX
  8
0
  5
F94
 10
-14.7425
 20
28.9703
 30
0.00000
  70
    32
  0
VERTEX
  8
0
  5
F95
 10
-14.7476
 20
28.9687
 30
0.00000
  70
    32
  0
VERTEX
  8
0
  5
F96
 10
-14.7527
 20
28.9670
 30
0.00000
  70
    32
  0
VERTEX
  8
0
  5
F97
 10
-14.7577
 20
28.9652
 30
0.00000
  70
    32
  0
VERTEX
  8
0
  5
F98
 10
-14.7628
 20
28.9634
 30
0.00000
  70
    32
  0
VERTEX
  8
0
  5
F99
 10
-14.7678
 20
28.9615
 30
0.00000
  70
    32
  0
VERTEX
  8
0
  5
F9A
 10
-14.7728
 20
28.9596
 30
0.00000
  70
    32
  0
VERTEX
  8
0
  5
F9B
 10
-14.7777
 20
28.9576
 30
0.00000
  70
    32
  0
VERTEX
  8
0
  5
F9C
 10
-14.7827
 20
28.9556
 30
0.00000
  70
    32
  0
VERTEX
  8
0
  5
F9D
 10
-14.7876
 20
28.9535
 30
0.00000
  70
    32
  0
VERTEX
  8
0
  5
F9E
 10
-14.7925
 20
28.9514
 30
0.00000
  70
    32
  0
VERTEX
  8
0
  5
F9F
 10
-14.7974
 20
28.9492
 30
0.00000
  70
    32
  0
VERTEX
  8
0
  5
FA0
 10
-14.8023
 20
28.9470
 30
0.00000
  70
    32
  0
VERTEX
  8
0
  5
FA1
 10
-14.8071
 20
28.9447
 30
0.00000
  70
    32
  0
VERTEX
  8
0
  5
FA2
 10
-14.8119
 20
28.9423
 30
0.00000
  70
    32
  0
VERTEX
  8
0
  5
FA3
 10
-14.8167
 20
28.9400
 30
0.00000
  70
    32
  0
VERTEX
  8
0
  5
FA4
 10
-14.8215
 20
28.9375
 30
0.00000
  70
    32
  0
VERTEX
  8
0
  5
FA5
 10
-14.8262
 20
28.9350
 30
0.00000
  70
    32
  0
VERTEX
  8
0
  5
FA6
 10
-14.8309
 20
28.9325
 30
0.00000
  70
    32
  0
VERTEX
  8
0
  5
FA7
 10
-14.8356
 20
28.9299
 30
0.00000
  70
    32
  0
VERTEX
  8
0
  5
FA8
 10
-14.8402
 20
28.9272
 30
0.00000
  70
    32
  0
VERTEX
  8
0
  5
FA9
 10
-14.8448
 20
28.9245
 30
0.00000
  70
    32
  0
VERTEX
  8
0
  5
FAA
 10
-14.8494
 20
28.9218
 30
0.00000
  70
    32
  0
VERTEX
  8
0
  5
FAB
 10
-14.8540
 20
28.9190
 30
0.00000
  70
    32
  0
VERTEX
  8
0
  5
FAC
 10
-14.8585
 20
28.9162
 30
0.00000
  70
    32
  0
VERTEX
  8
0
  5
FAD
 10
-14.8630
 20
28.9133
 30
0.00000
  70
    32
  0
VERTEX
  8
0
  5
FAE
 10
-14.8675
 20
28.9103
 30
0.00000
  70
    32
  0
VERTEX
  8
0
  5
FAF
 10
-14.8719
 20
28.9074
 30
0.00000
  70
    32
  0
VERTEX
  8
0
  5
FB0
 10
-14.8764
 20
28.9043
 30
0.00000
  70
    32
  0
VERTEX
  8
0
  5
FB1
 10
-14.8807
 20
28.9012
 30
0.00000
  70
    32
  0
VERTEX
  8
0
  5
FB2
 10
-14.8851
 20
28.8981
 30
0.00000
  70
    32
  0
VERTEX
  8
0
  5
FB3
 10
-14.8894
 20
28.8949
 30
0.00000
  70
    32
  0
VERTEX
  8
0
  5
FB4
 10
-14.8937
 20
28.8917
 30
0.00000
  70
    32
  0
VERTEX
  8
0
  5
FB5
 10
-14.8979
 20
28.8885
 30
0.00000
  70
    32
  0
VERTEX
  8
0
  5
FB6
 10
-14.9021
 20
28.8852
 30
0.00000
  70
    32
  0
VERTEX
  8
0
  5
FB7
 10
-14.9063
 20
28.8818
 30
0.00000
  70
    32
  0
VERTEX
  8
0
  5
FB8
 10
-14.9104
 20
28.8784
 30
0.00000
  70
    32
  0
VERTEX
  8
0
  5
FB9
 10
-14.9145
 20
28.8750
 30
0.00000
  70
    32
  0
VERTEX
  8
0
  5
FBA
 10
-14.9185
 20
28.8715
 30
0.00000
  70
    32
  0
VERTEX
  8
0
  5
FBB
 10
-14.9226
 20
28.8679
 30
0.00000
  70
    32
  0
VERTEX
  8
0
  5
FBC
 10
-14.9266
 20
28.8644
 30
0.00000
  70
    32
  0
VERTEX
  8
0
  5
FBD
 10
-14.9305
 20
28.8608
 30
0.00000
  70
    32
  0
VERTEX
  8
0
  5
FBE
 10
-14.9344
 20
28.8571
 30
0.00000
  70
    32
  0
VERTEX
  8
0
  5
FBF
 10
-14.9383
 20
28.8534
 30
0.00000
  70
    32
  0
VERTEX
  8
0
  5
FC0
 10
-14.9421
 20
28.8497
 30
0.00000
  70
    32
  0
VERTEX
  8
0
  5
FC1
 10
-14.9459
 20
28.8459
 30
0.00000
  70
    32
  0
VERTEX
  8
0
  5
FC2
 10
-14.9496
 20
28.8421
 30
0.00000
  70
    32
  0
VERTEX
  8
0
  5
FC3
 10
-14.9533
 20
28.8382
 30
0.00000
  70
    32
  0
VERTEX
  8
0
  5
FC4
 10
-14.9570
 20
28.8343
 30
0.00000
  70
    32
  0
VERTEX
  8
0
  5
FC5
 10
-14.9606
 20
28.8304
 30
0.00000
  70
    32
  0
VERTEX
  8
0
  5
FC6
 10
-14.9642
 20
28.8264
 30
0.00000
  70
    32
  0
VERTEX
  8
0
  5
FC7
 10
-14.9677
 20
28.8224
 30
0.00000
  70
    32
  0
VERTEX
  8
0
  5
FC8
 10
-14.9712
 20
28.8183
 30
0.00000
  70
    32
  0
VERTEX
  8
0
  5
FC9
 10
-14.9747
 20
28.8142
 30
0.00000
  70
    32
  0
VERTEX
  8
0
  5
FCA
 10
-14.9781
 20
28.8101
 30
0.00000
  70
    32
  0
VERTEX
  8
0
  5
FCB
 10
-14.9814
 20
28.8059
 30
0.00000
  70
    32
  0
VERTEX
  8
0
  5
FCC
 10
-14.9848
 20
28.8018
 30
0.00000
  70
    32
  0
VERTEX
  8
0
  5
FCD
 10
-14.9880
 20
28.7975
 30
0.00000
  70
    32
  0
VERTEX
  8
0
  5
FCE
 10
-14.9913
 20
28.7933
 30
0.00000
  70
    32
  0
VERTEX
  8
0
  5
FCF
 10
-14.9944
 20
28.7889
 30
0.00000
  70
    32
  0
VERTEX
  8
0
  5
FD0
 10
-14.9976
 20
28.7846
 30
0.00000
  70
    32
  0
VERTEX
  8
0
  5
FD1
 10
-15.0007
 20
28.7802
 30
0.00000
  70
    32
  0
VERTEX
  8
0
  5
FD2
 10
-15.0037
 20
28.7758
 30
0.00000
  70
    32
  0
VERTEX
  8
0
  5
FD3
 10
-15.0067
 20
28.7714
 30
0.00000
  70
    32
  0
VERTEX
  8
0
  5
FD4
 10
-15.0096
 20
28.7669
 30
0.00000
  70
    32
  0
VERTEX
  8
0
  5
FD5
 10
-15.0125
 20
28.7624
 30
0.00000
  70
    32
  0
VERTEX
  8
0
  5
FD6
 10
-15.0154
 20
28.7579
 30
0.00000
  70
    32
  0
VERTEX
  8
0
  5
FD7
 10
-15.0182
 20
28.7534
 30
0.00000
  70
    32
  0
VERTEX
  8
0
  5
FD8
 10
-15.0209
 20
28.7488
 30
0.00000
  70
    32
  0
VERTEX
  8
0
  5
FD9
 10
-15.0236
 20
28.7442
 30
0.00000
  70
    32
  0
VERTEX
  8
0
  5
FDA
 10
-15.0263
 20
28.7395
 30
0.00000
  70
    32
  0
VERTEX
  8
0
  5
FDB
 10
-15.0289
 20
28.7348
 30
0.00000
  70
    32
  0
VERTEX
  8
0
  5
FDC
 10
-15.0314
 20
28.7301
 30
0.00000
  70
    32
  0
VERTEX
  8
0
  5
FDD
 10
-15.0339
 20
28.7254
 30
0.00000
  70
    32
  0
VERTEX
  8
0
  5
FDE
 10
-15.0364
 20
28.7206
 30
0.00000
  70
    32
  0
VERTEX
  8
0
  5
FDF
 10
-15.0388
 20
28.7159
 30
0.00000
  70
    32
  0
VERTEX
  8
0
  5
FE0
 10
-15.0411
 20
28.7111
 30
0.00000
  70
    32
  0
VERTEX
  8
0
  5
FE1
 10
-15.0434
 20
28.7062
 30
0.00000
  70
    32
  0
VERTEX
  8
0
  5
FE2
 10
-15.0457
 20
28.7014
 30
0.00000
  70
    32
  0
VERTEX
  8
0
  5
FE3
 10
-15.0479
 20
28.6965
 30
0.00000
  70
    32
  0
VERTEX
  8
0
  5
FE4
 10
-15.0500
 20
28.6916
 30
0.00000
  70
    32
  0
VERTEX
  8
0
  5
FE5
 10
-15.0521
 20
28.6867
 30
0.00000
  70
    32
  0
VERTEX
  8
0
  5
FE6
 10
-15.0541
 20
28.6817
 30
0.00000
  70
    32
  0
VERTEX
  8
0
  5
FE7
 10
-15.0561
 20
28.6767
 30
0.00000
  70
    32
  0
VERTEX
  8
0
  5
FE8
 10
-15.0581
 20
28.6718
 30
0.00000
  70
    32
  0
VERTEX
  8
0
  5
FE9
 10
-15.0599
 20
28.6667
 30
0.00000
  70
    32
  0
VERTEX
  8
0
  5
FEA
 10
-15.0618
 20
28.6617
 30
0.00000
  70
    32
  0
VERTEX
  8
0
  5
FEB
 10
-15.0635
 20
28.6567
 30
0.00000
  70
    32
  0
VERTEX
  8
0
  5
FEC
 10
-15.0652
 20
28.6516
 30
0.00000
  70
    32
  0
VERTEX
  8
0
  5
FED
 10
-15.0669
 20
28.6465
 30
0.00000
  70
    32
  0
VERTEX
  8
0
  5
FEE
 10
-15.0685
 20
28.6414
 30
0.00000
  70
    32
  0
VERTEX
  8
0
  5
FEF
 10
-15.0701
 20
28.6363
 30
0.00000
  70
    32
  0
VERTEX
  8
0
  5
FF0
 10
-15.0716
 20
28.6312
 30
0.00000
  70
    32
  0
VERTEX
  8
0
  5
FF1
 10
-15.0730
 20
28.6260
 30
0.00000
  70
    32
  0
VERTEX
  8
0
  5
FF2
 10
-15.0744
 20
28.6208
 30
0.00000
  70
    32
  0
VERTEX
  8
0
  5
FF3
 10
-15.0757
 20
28.6157
 30
0.00000
  70
    32
  0
VERTEX
  8
0
  5
FF4
 10
-15.0770
 20
28.6105
 30
0.00000
  70
    32
  0
VERTEX
  8
0
  5
FF5
 10
-15.0782
 20
28.6052
 30
0.00000
  70
    32
  0
VERTEX
  8
0
  5
FF6
 10
-15.0794
 20
28.6000
 30
0.00000
  70
    32
  0
VERTEX
  8
0
  5
FF7
 10
-15.0805
 20
28.5948
 30
0.00000
  70
    32
  0
VERTEX
  8
0
  5
FF8
 10
-15.0815
 20
28.5895
 30
0.00000
  70
    32
  0
VERTEX
  8
0
  5
FF9
 10
-15.0825
 20
28.5843
 30
0.00000
  70
    32
  0
VERTEX
  8
0
  5
FFA
 10
-15.0835
 20
28.5790
 30
0.00000
  70
    32
  0
VERTEX
  8
0
  5
FFB
 10
-15.0844
 20
28.5737
 30
0.00000
  70
    32
  0
VERTEX
  8
0
  5
FFC
 10
-15.0852
 20
28.5685
 30
0.00000
  70
    32
  0
VERTEX
  8
0
  5
FFD
 10
-15.0859
 20
28.5632
 30
0.00000
  70
    32
  0
VERTEX
  8
0
  5
FFE
 10
-15.0867
 20
28.5579
 30
0.00000
  70
    32
  0
VERTEX
  8
0
  5
FFF
 10
-15.0873
 20
28.5526
 30
0.00000
  70
    32
  0
VERTEX
  8
0
  5
1000
 10
-15.0879
 20
28.5472
 30
0.00000
  70
    32
  0
VERTEX
  8
0
  5
1001
 10
-15.0885
 20
28.5419
 30
0.00000
  70
    32
  0
VERTEX
  8
0
  5
1002
 10
-15.0889
 20
28.5366
 30
0.00000
  70
    32
  0
VERTEX
  8
0
  5
1003
 10
-15.0894
 20
28.5313
 30
0.00000
  70
    32
  0
VERTEX
  8
0
  5
1004
 10
-15.0897
 20
28.5259
 30
0.00000
  70
    32
  0
VERTEX
  8
0
  5
1005
 10
-15.0901
 20
28.5206
 30
0.00000
  70
    32
  0
VERTEX
  8
0
  5
1006
 10
-15.0903
 20
28.5152
 30
0.00000
  70
    32
  0
VERTEX
  8
0
  5
1007
 10
-15.0905
 20
28.5099
 30
0.00000
  70
    32
  0
VERTEX
  8
0
  5
1008
 10
-15.0907
 20
28.5045
 30
0.00000
  70
    32
  0
VERTEX
  8
0
  5
1009
 10
-15.0907
 20
28.4992
 30
0.00000
  70
    32
  0
VERTEX
  8
0
  5
100A
 10
-15.0908
 20
28.4938
 30
0.00000
  70
    32
  0
SEQEND
  8
0
  5
100B
  0
POLYLINE
  5
5C8
  8
0
  6
CONTINUOUS
 62
     7
 10
-15.090777891729342
 20
-37.5060117612067714
 30
0.0
 66
     1
 70
     8
  0
VERTEX
  8
0
  5
100C
 10
-15.0908
 20
-37.5060
 30
0.00000
  70
    32
  0
VERTEX
  8
0
  5
100D
 10
-15.0907
 20
-37.5114
 30
0.00000
  70
    32
  0
VERTEX
  8
0
  5
100E
 10
-15.0907
 20
-37.5167
 30
0.00000
  70
    32
  0
VERTEX
  8
0
  5
100F
 10
-15.0905
 20
-37.5221
 30
0.00000
  70
    32
  0
VERTEX
  8
0
  5
1010
 10
-15.0903
 20
-37.5274
 30
0.00000
  70
    32
  0
VERTEX
  8
0
  5
1011
 10
-15.0901
 20
-37.5327
 30
0.00000
  70
    32
  0
VERTEX
  8
0
  5
1012
 10
-15.0897
 20
-37.5381
 30
0.00000
  70
    32
  0
VERTEX
  8
0
  5
1013
 10
-15.0894
 20
-37.5434
 30
0.00000
  70
    32
  0
VERTEX
  8
0
  5
1014
 10
-15.0889
 20
-37.5488
 30
0.00000
  70
    32
  0
VERTEX
  8
0
  5
1015
 10
-15.0885
 20
-37.5541
 30
0.00000
  70
    32
  0
VERTEX
  8
0
  5
1016
 10
-15.0879
 20
-37.5594
 30
0.00000
  70
    32
  0
VERTEX
  8
0
  5
1017
 10
-15.0873
 20
-37.5647
 30
0.00000
  70
    32
  0
VERTEX
  8
0
  5
1018
 10
-15.0867
 20
-37.5700
 30
0.00000
  70
    32
  0
VERTEX
  8
0
  5
1019
 10
-15.0859
 20
-37.5753
 30
0.00000
  70
    32
  0
VERTEX
  8
0
  5
101A
 10
-15.0852
 20
-37.5806
 30
0.00000
  70
    32
  0
VERTEX
  8
0
  5
101B
 10
-15.0844
 20
-37.5859
 30
0.00000
  70
    32
  0
VERTEX
  8
0
  5
101C
 10
-15.0835
 20
-37.5912
 30
0.00000
  70
    32
  0
VERTEX
  8
0
  5
101D
 10
-15.0825
 20
-37.5965
 30
0.00000
  70
    32
  0
VERTEX
  8
0
  5
101E
 10
-15.0815
 20
-37.6017
 30
0.00000
  70
    32
  0
VERTEX
  8
0
  5
101F
 10
-15.0805
 20
-37.6070
 30
0.00000
  70
    32
  0
VERTEX
  8
0
  5
1020
 10
-15.0794
 20
-37.6122
 30
0.00000
  70
    32
  0
VERTEX
  8
0
  5
1021
 10
-15.0782
 20
-37.6174
 30
0.00000
  70
    32
  0
VERTEX
  8
0
  5
1022
 10
-15.0770
 20
-37.6226
 30
0.00000
  70
    32
  0
VERTEX
  8
0
  5
1023
 10
-15.0757
 20
-37.6278
 30
0.00000
  70
    32
  0
VERTEX
  8
0
  5
1024
 10
-15.0744
 20
-37.6330
 30
0.00000
  70
    32
  0
VERTEX
  8
0
  5
1025
 10
-15.0730
 20
-37.6382
 30
0.00000
  70
    32
  0
VERTEX
  8
0
  5
1026
 10
-15.0716
 20
-37.6433
 30
0.00000
  70
    32
  0
VERTEX
  8
0
  5
1027
 10
-15.0701
 20
-37.6485
 30
0.00000
  70
    32
  0
VERTEX
  8
0
  5
1028
 10
-15.0685
 20
-37.6536
 30
0.00000
  70
    32
  0
VERTEX
  8
0
  5
1029
 10
-15.0669
 20
-37.6587
 30
0.00000
  70
    32
  0
VERTEX
  8
0
  5
102A
 10
-15.0652
 20
-37.6638
 30
0.00000
  70
    32
  0
VERTEX
  8
0
  5
102B
 10
-15.0635
 20
-37.6688
 30
0.00000
  70
    32
  0
VERTEX
  8
0
  5
102C
 10
-15.0618
 20
-37.6739
 30
0.00000
  70
    32
  0
VERTEX
  8
0
  5
102D
 10
-15.0599
 20
-37.6789
 30
0.00000
  70
    32
  0
VERTEX
  8
0
  5
102E
 10
-15.0581
 20
-37.6839
 30
0.00000
  70
    32
  0
VERTEX
  8
0
  5
102F
 10
-15.0561
 20
-37.6889
 30
0.00000
  70
    32
  0
VERTEX
  8
0
  5
1030
 10
-15.0541
 20
-37.6939
 30
0.00000
  70
    32
  0
VERTEX
  8
0
  5
1031
 10
-15.0521
 20
-37.6988
 30
0.00000
  70
    32
  0
VERTEX
  8
0
  5
1032
 10
-15.0500
 20
-37.7038
 30
0.00000
  70
    32
  0
VERTEX
  8
0
  5
1033
 10
-15.0479
 20
-37.7087
 30
0.00000
  70
    32
  0
VERTEX
  8
0
  5
1034
 10
-15.0457
 20
-37.7135
 30
0.00000
  70
    32
  0
VERTEX
  8
0
  5
1035
 10
-15.0434
 20
-37.7184
 30
0.00000
  70
    32
  0
VERTEX
  8
0
  5
1036
 10
-15.0411
 20
-37.7232
 30
0.00000
  70
    32
  0
VERTEX
  8
0
  5
1037
 10
-15.0388
 20
-37.7280
 30
0.00000
  70
    32
  0
VERTEX
  8
0
  5
1038
 10
-15.0364
 20
-37.7328
 30
0.00000
  70
    32
  0
VERTEX
  8
0
  5
1039
 10
-15.0339
 20
-37.7376
 30
0.00000
  70
    32
  0
VERTEX
  8
0
  5
103A
 10
-15.0314
 20
-37.7423
 30
0.00000
  70
    32
  0
VERTEX
  8
0
  5
103B
 10
-15.0289
 20
-37.7470
 30
0.00000
  70
    32
  0
VERTEX
  8
0
  5
103C
 10
-15.0263
 20
-37.7517
 30
0.00000
  70
    32
  0
VERTEX
  8
0
  5
103D
 10
-15.0236
 20
-37.7563
 30
0.00000
  70
    32
  0
VERTEX
  8
0
  5
103E
 10
-15.0209
 20
-37.7609
 30
0.00000
  70
    32
  0
VERTEX
  8
0
  5
103F
 10
-15.0182
 20
-37.7655
 30
0.00000
  70
    32
  0
VERTEX
  8
0
  5
1040
 10
-15.0154
 20
-37.7701
 30
0.00000
  70
    32
  0
VERTEX
  8
0
  5
1041
 10
-15.0125
 20
-37.7746
 30
0.00000
  70
    32
  0
VERTEX
  8
0
  5
1042
 10
-15.0096
 20
-37.7791
 30
0.00000
  70
    32
  0
VERTEX
  8
0
  5
1043
 10
-15.0067
 20
-37.7836
 30
0.00000
  70
    32
  0
VERTEX
  8
0
  5
1044
 10
-15.0037
 20
-37.7880
 30
0.00000
  70
    32
  0
VERTEX
  8
0
  5
1045
 10
-15.0007
 20
-37.7924
 30
0.00000
  70
    32
  0
VERTEX
  8
0
  5
1046
 10
-14.9976
 20
-37.7968
 30
0.00000
  70
    32
  0
VERTEX
  8
0
  5
1047
 10
-14.9944
 20
-37.8011
 30
0.00000
  70
    32
  0
VERTEX
  8
0
  5
1048
 10
-14.9913
 20
-37.8054
 30
0.00000
  70
    32
  0
VERTEX
  8
0
  5
1049
 10
-14.9880
 20
-37.8097
 30
0.00000
  70
    32
  0
VERTEX
  8
0
  5
104A
 10
-14.9848
 20
-37.8139
 30
0.00000
  70
    32
  0
VERTEX
  8
0
  5
104B
 10
-14.9814
 20
-37.8181
 30
0.00000
  70
    32
  0
VERTEX
  8
0
  5
104C
 10
-14.9781
 20
-37.8223
 30
0.00000
  70
    32
  0
VERTEX
  8
0
  5
104D
 10
-14.9747
 20
-37.8264
 30
0.00000
  70
    32
  0
VERTEX
  8
0
  5
104E
 10
-14.9712
 20
-37.8305
 30
0.00000
  70
    32
  0
VERTEX
  8
0
  5
104F
 10
-14.9677
 20
-37.8346
 30
0.00000
  70
    32
  0
VERTEX
  8
0
  5
1050
 10
-14.9642
 20
-37.8386
 30
0.00000
  70
    32
  0
VERTEX
  8
0
  5
1051
 10
-14.9606
 20
-37.8425
 30
0.00000
  70
    32
  0
VERTEX
  8
0
  5
1052
 10
-14.9570
 20
-37.8465
 30
0.00000
  70
    32
  0
VERTEX
  8
0
  5
1053
 10
-14.9533
 20
-37.8504
 30
0.00000
  70
    32
  0
VERTEX
  8
0
  5
1054
 10
-14.9496
 20
-37.8542
 30
0.00000
  70
    32
  0
VERTEX
  8
0
  5
1055
 10
-14.9459
 20
-37.8581
 30
0.00000
  70
    32
  0
VERTEX
  8
0
  5
1056
 10
-14.9421
 20
-37.8618
 30
0.00000
  70
    32
  0
VERTEX
  8
0
  5
1057
 10
-14.9383
 20
-37.8656
 30
0.00000
  70
    32
  0
VERTEX
  8
0
  5
1058
 10
-14.9344
 20
-37.8693
 30
0.00000
  70
    32
  0
VERTEX
  8
0
  5
1059
 10
-14.9305
 20
-37.8729
 30
0.00000
  70
    32
  0
VERTEX
  8
0
  5
105A
 10
-14.9266
 20
-37.8765
 30
0.00000
  70
    32
  0
VERTEX
  8
0
  5
105B
 10
-14.9226
 20
-37.8801
 30
0.00000
  70
    32
  0
VERTEX
  8
0
  5
105C
 10
-14.9185
 20
-37.8836
 30
0.00000
  70
    32
  0
VERTEX
  8
0
  5
105D
 10
-14.9145
 20
-37.8871
 30
0.00000
  70
    32
  0
VERTEX
  8
0
  5
105E
 10
-14.9104
 20
-37.8906
 30
0.00000
  70
    32
  0
VERTEX
  8
0
  5
105F
 10
-14.9063
 20
-37.8940
 30
0.00000
  70
    32
  0
VERTEX
  8
0
  5
1060
 10
-14.9021
 20
-37.8973
 30
0.00000
  70
    32
  0
VERTEX
  8
0
  5
1061
 10
-14.8979
 20
-37.9006
 30
0.00000
  70
    32
  0
VERTEX
  8
0
  5
1062
 10
-14.8937
 20
-37.9039
 30
0.00000
  70
    32
  0
VERTEX
  8
0
  5
1063
 10
-14.8894
 20
-37.9071
 30
0.00000
  70
    32
  0
VERTEX
  8
0
  5
1064
 10
-14.8851
 20
-37.9103
 30
0.00000
  70
    32
  0
VERTEX
  8
0
  5
1065
 10
-14.8807
 20
-37.9134
 30
0.00000
  70
    32
  0
VERTEX
  8
0
  5
1066
 10
-14.8764
 20
-37.9165
 30
0.00000
  70
    32
  0
VERTEX
  8
0
  5
1067
 10
-14.8719
 20
-37.9195
 30
0.00000
  70
    32
  0
VERTEX
  8
0
  5
1068
 10
-14.8675
 20
-37.9225
 30
0.00000
  70
    32
  0
VERTEX
  8
0
  5
1069
 10
-14.8630
 20
-37.9255
 30
0.00000
  70
    32
  0
VERTEX
  8
0
  5
106A
 10
-14.8585
 20
-37.9283
 30
0.00000
  70
    32
  0
VERTEX
  8
0
  5
106B
 10
-14.8540
 20
-37.9312
 30
0.00000
  70
    32
  0
VERTEX
  8
0
  5
106C
 10
-14.8494
 20
-37.9340
 30
0.00000
  70
    32
  0
VERTEX
  8
0
  5
106D
 10
-14.8448
 20
-37.9367
 30
0.00000
  70
    32
  0
VERTEX
  8
0
  5
106E
 10
-14.8402
 20
-37.9394
 30
0.00000
  70
    32
  0
VERTEX
  8
0
  5
106F
 10
-14.8356
 20
-37.9421
 30
0.00000
  70
    32
  0
VERTEX
  8
0
  5
1070
 10
-14.8309
 20
-37.9446
 30
0.00000
  70
    32
  0
VERTEX
  8
0
  5
1071
 10
-14.8262
 20
-37.9472
 30
0.00000
  70
    32
  0
VERTEX
  8
0
  5
1072
 10
-14.8215
 20
-37.9497
 30
0.00000
  70
    32
  0
VERTEX
  8
0
  5
1073
 10
-14.8167
 20
-37.9521
 30
0.00000
  70
    32
  0
VERTEX
  8
0
  5
1074
 10
-14.8119
 20
-37.9545
 30
0.00000
  70
    32
  0
VERTEX
  8
0
  5
1075
 10
-14.8071
 20
-37.9569
 30
0.00000
  70
    32
  0
VERTEX
  8
0
  5
1076
 10
-14.8023
 20
-37.9592
 30
0.00000
  70
    32
  0
VERTEX
  8
0
  5
1077
 10
-14.7974
 20
-37.9614
 30
0.00000
  70
    32
  0
VERTEX
  8
0
  5
1078
 10
-14.7925
 20
-37.9636
 30
0.00000
  70
    32
  0
VERTEX
  8
0
  5
1079
 10
-14.7876
 20
-37.9657
 30
0.00000
  70
    32
  0
VERTEX
  8
0
  5
107A
 10
-14.7827
 20
-37.9678
 30
0.00000
  70
    32
  0
VERTEX
  8
0
  5
107B
 10
-14.7777
 20
-37.9698
 30
0.00000
  70
    32
  0
VERTEX
  8
0
  5
107C
 10
-14.7728
 20
-37.9718
 30
0.00000
  70
    32
  0
VERTEX
  8
0
  5
107D
 10
-14.7678
 20
-37.9737
 30
0.00000
  70
    32
  0
VERTEX
  8
0
  5
107E
 10
-14.7628
 20
-37.9756
 30
0.00000
  70
    32
  0
VERTEX
  8
0
  5
107F
 10
-14.7577
 20
-37.9774
 30
0.00000
  70
    32
  0
VERTEX
  8
0
  5
1080
 10
-14.7527
 20
-37.9791
 30
0.00000
  70
    32
  0
VERTEX
  8
0
  5
1081
 10
-14.7476
 20
-37.9809
 30
0.00000
  70
    32
  0
VERTEX
  8
0
  5
1082
 10
-14.7425
 20
-37.9825
 30
0.00000
  70
    32
  0
VERTEX
  8
0
  5
1083
 10
-14.7374
 20
-37.9841
 30
0.00000
  70
    32
  0
VERTEX
  8
0
  5
1084
 10
-14.7323
 20
-37.9856
 30
0.00000
  70
    32
  0
VERTEX
  8
0
  5
1085
 10
-14.7272
 20
-37.9871
 30
0.00000
  70
    32
  0
VERTEX
  8
0
  5
1086
 10
-14.7220
 20
-37.9886
 30
0.00000
  70
    32
  0
VERTEX
  8
0
  5
1087
 10
-14.7168
 20
-37.9899
 30
0.00000
  70
    32
  0
VERTEX
  8
0
  5
1088
 10
-14.7116
 20
-37.9913
 30
0.00000
  70
    32
  0
VERTEX
  8
0
  5
1089
 10
-14.7064
 20
-37.9925
 30
0.00000
  70
    32
  0
VERTEX
  8
0
  5
108A
 10
-14.7012
 20
-37.9937
 30
0.00000
  70
    32
  0
VERTEX
  8
0
  5
108B
 10
-14.6960
 20
-37.9949
 30
0.00000
  70
    32
  0
VERTEX
  8
0
  5
108C
 10
-14.6908
 20
-37.9960
 30
0.00000
  70
    32
  0
SEQEND
  8
0
  5
108D
  0
LINE
  5
5C9
  8
0
  6
CONTINUOUS
 62
     7
 10
-15.0907778917075408
 20
-37.5060117612067714
 30
0.0
 11
-15.0907778917075408
 21
-36.9823598133067719
 31
0.0
  0
POLYLINE
  8
0
  5
108E
  62
7
  66
     1
 10
0.00000
 20
0.00000
 30
0.00000
  70
     8
  0
VERTEX
  8
0
  5
108F
 10
-14.5908
 20
-38.0058
 30
0.00000
  70
    32
  0
VERTEX
  8
0
  5
1090
 10
-14.5915
 20
-38.0058
 30
0.00000
  70
    32
  0
VERTEX
  8
0
  5
1091
 10
-14.5923
 20
-38.0058
 30
0.00000
  70
    32
  0
VERTEX
  8
0
  5
1092
 10
-14.5931
 20
-38.0058
 30
0.00000
  70
    32
  0
VERTEX
  8
0
  5
1093
 10
-14.5939
 20
-38.0058
 30
0.00000
  70
    32
  0
VERTEX
  8
0
  5
1094
 10
-14.5946
 20
-38.0058
 30
0.00000
  70
    32
  0
VERTEX
  8
0
  5
1095
 10
-14.5954
 20
-38.0058
 30
0.00000
  70
    32
  0
VERTEX
  8
0
  5
1096
 10
-14.5962
 20
-38.0058
 30
0.00000
  70
    32
  0
VERTEX
  8
0
  5
1097
 10
-14.5970
 20
-38.0058
 30
0.00000
  70
    32
  0
VERTEX
  8
0
  5
1098
 10
-14.5977
 20
-38.0058
 30
0.00000
  70
    32
  0
VERTEX
  8
0
  5
1099
 10
-14.5985
 20
-38.0058
 30
0.00000
  70
    32
  0
VERTEX
  8
0
  5
109A
 10
-14.5993
 20
-38.0058
 30
0.00000
  70
    32
  0
VERTEX
  8
0
  5
109B
 10
-14.6001
 20
-38.0058
 30
0.00000
  70
    32
  0
VERTEX
  8
0
  5
109C
 10
-14.6008
 20
-38.0057
 30
0.00000
  70
    32
  0
VERTEX
  8
0
  5
109D
 10
-14.6016
 20
-38.0057
 30
0.00000
  70
    32
  0
VERTEX
  8
0
  5
109E
 10
-14.6024
 20
-38.0057
 30
0.00000
  70
    32
  0
VERTEX
  8
0
  5
109F
 10
-14.6032
 20
-38.0057
 30
0.00000
  70
    32
  0
VERTEX
  8
0
  5
10A0
 10
-14.6039
 20
-38.0057
 30
0.00000
  70
    32
  0
VERTEX
  8
0
  5
10A1
 10
-14.6047
 20
-38.0057
 30
0.00000
  70
    32
  0
VERTEX
  8
0
  5
10A2
 10
-14.6055
 20
-38.0057
 30
0.00000
  70
    32
  0
VERTEX
  8
0
  5
10A3
 10
-14.6063
 20
-38.0056
 30
0.00000
  70
    32
  0
VERTEX
  8
0
  5
10A4
 10
-14.6070
 20
-38.0056
 30
0.00000
  70
    32
  0
VERTEX
  8
0
  5
10A5
 10
-14.6078
 20
-38.0056
 30
0.00000
  70
    32
  0
VERTEX
  8
0
  5
10A6
 10
-14.6086
 20
-38.0056
 30
0.00000
  70
    32
  0
VERTEX
  8
0
  5
10A7
 10
-14.6094
 20
-38.0055
 30
0.00000
  70
    32
  0
VERTEX
  8
0
  5
10A8
 10
-14.6102
 20
-38.0055
 30
0.00000
  70
    32
  0
VERTEX
  8
0
  5
10A9
 10
-14.6109
 20
-38.0055
 30
0.00000
  70
    32
  0
VERTEX
  8
0
  5
10AA
 10
-14.6117
 20
-38.0055
 30
0.00000
  70
    32
  0
VERTEX
  8
0
  5
10AB
 10
-14.6125
 20
-38.0054
 30
0.00000
  70
    32
  0
VERTEX
  8
0
  5
10AC
 10
-14.6133
 20
-38.0054
 30
0.00000
  70
    32
  0
VERTEX
  8
0
  5
10AD
 10
-14.6140
 20
-38.0054
 30
0.00000
  70
    32
  0
VERTEX
  8
0
  5
10AE
 10
-14.6148
 20
-38.0053
 30
0.00000
  70
    32
  0
VERTEX
  8
0
  5
10AF
 10
-14.6156
 20
-38.0053
 30
0.00000
  70
    32
  0
VERTEX
  8
0
  5
10B0
 10
-14.6164
 20
-38.0053
 30
0.00000
  70
    32
  0
VERTEX
  8
0
  5
10B1
 10
-14.6172
 20
-38.0052
 30
0.00000
  70
    32
  0
VERTEX
  8
0
  5
10B2
 10
-14.6179
 20
-38.0052
 30
0.00000
  70
    32
  0
VERTEX
  8
0
  5
10B3
 10
-14.6187
 20
-38.0052
 30
0.00000
  70
    32
  0
VERTEX
  8
0
  5
10B4
 10
-14.6195
 20
-38.0051
 30
0.00000
  70
    32
  0
VERTEX
  8
0
  5
10B5
 10
-14.6203
 20
-38.0051
 30
0.00000
  70
    32
  0
VERTEX
  8
0
  5
10B6
 10
-14.6211
 20
-38.0050
 30
0.00000
  70
    32
  0
VERTEX
  8
0
  5
10B7
 10
-14.6219
 20
-38.0050
 30
0.00000
  70
    32
  0
VERTEX
  8
0
  5
10B8
 10
-14.6226
 20
-38.0049
 30
0.00000
  70
    32
  0
VERTEX
  8
0
  5
10B9
 10
-14.6234
 20
-38.0049
 30
0.00000
  70
    32
  0
VERTEX
  8
0
  5
10BA
 10
-14.6242
 20
-38.0048
 30
0.00000
  70
    32
  0
VERTEX
  8
0
  5
10BB
 10
-14.6250
 20
-38.0048
 30
0.00000
  70
    32
  0
VERTEX
  8
0
  5
10BC
 10
-14.6258
 20
-38.0047
 30
0.00000
  70
    32
  0
VERTEX
  8
0
  5
10BD
 10
-14.6266
 20
-38.0047
 30
0.00000
  70
    32
  0
VERTEX
  8
0
  5
10BE
 10
-14.6273
 20
-38.0046
 30
0.00000
  70
    32
  0
VERTEX
  8
0
  5
10BF
 10
-14.6281
 20
-38.0046
 30
0.00000
  70
    32
  0
VERTEX
  8
0
  5
10C0
 10
-14.6289
 20
-38.0045
 30
0.00000
  70
    32
  0
VERTEX
  8
0
  5
10C1
 10
-14.6297
 20
-38.0045
 30
0.00000
  70
    32
  0
VERTEX
  8
0
  5
10C2
 10
-14.6305
 20
-38.0044
 30
0.00000
  70
    32
  0
VERTEX
  8
0
  5
10C3
 10
-14.6313
 20
-38.0043
 30
0.00000
  70
    32
  0
VERTEX
  8
0
  5
10C4
 10
-14.6320
 20
-38.0043
 30
0.00000
  70
    32
  0
VERTEX
  8
0
  5
10C5
 10
-14.6328
 20
-38.0042
 30
0.00000
  70
    32
  0
VERTEX
  8
0
  5
10C6
 10
-14.6336
 20
-38.0042
 30
0.00000
  70
    32
  0
VERTEX
  8
0
  5
10C7
 10
-14.6344
 20
-38.0041
 30
0.00000
  70
    32
  0
VERTEX
  8
0
  5
10C8
 10
-14.6352
 20
-38.0040
 30
0.00000
  70
    32
  0
VERTEX
  8
0
  5
10C9
 10
-14.6360
 20
-38.0040
 30
0.00000
  70
    32
  0
VERTEX
  8
0
  5
10CA
 10
-14.6368
 20
-38.0039
 30
0.00000
  70
    32
  0
VERTEX
  8
0
  5
10CB
 10
-14.6375
 20
-38.0038
 30
0.00000
  70
    32
  0
VERTEX
  8
0
  5
10CC
 10
-14.6383
 20
-38.0037
 30
0.00000
  70
    32
  0
VERTEX
  8
0
  5
10CD
 10
-14.6391
 20
-38.0037
 30
0.00000
  70
    32
  0
VERTEX
  8
0
  5
10CE
 10
-14.6399
 20
-38.0036
 30
0.00000
  70
    32
  0
VERTEX
  8
0
  5
10CF
 10
-14.6407
 20
-38.0035
 30
0.00000
  70
    32
  0
VERTEX
  8
0
  5
10D0
 10
-14.6415
 20
-38.0034
 30
0.00000
  70
    32
  0
VERTEX
  8
0
  5
10D1
 10
-14.6423
 20
-38.0034
 30
0.00000
  70
    32
  0
VERTEX
  8
0
  5
10D2
 10
-14.6431
 20
-38.0033
 30
0.00000
  70
    32
  0
VERTEX
  8
0
  5
10D3
 10
-14.6438
 20
-38.0032
 30
0.00000
  70
    32
  0
VERTEX
  8
0
  5
10D4
 10
-14.6446
 20
-38.0031
 30
0.00000
  70
    32
  0
VERTEX
  8
0
  5
10D5
 10
-14.6454
 20
-38.0030
 30
0.00000
  70
    32
  0
VERTEX
  8
0
  5
10D6
 10
-14.6462
 20
-38.0030
 30
0.00000
  70
    32
  0
VERTEX
  8
0
  5
10D7
 10
-14.6470
 20
-38.0029
 30
0.00000
  70
    32
  0
VERTEX
  8
0
  5
10D8
 10
-14.6478
 20
-38.0028
 30
0.00000
  70
    32
  0
VERTEX
  8
0
  5
10D9
 10
-14.6486
 20
-38.0027
 30
0.00000
  70
    32
  0
VERTEX
  8
0
  5
10DA
 10
-14.6494
 20
-38.0026
 30
0.00000
  70
    32
  0
VERTEX
  8
0
  5
10DB
 10
-14.6502
 20
-38.0025
 30
0.00000
  70
    32
  0
VERTEX
  8
0
  5
10DC
 10
-14.6510
 20
-38.0024
 30
0.00000
  70
    32
  0
VERTEX
  8
0
  5
10DD
 10
-14.6517
 20
-38.0023
 30
0.00000
  70
    32
  0
VERTEX
  8
0
  5
10DE
 10
-14.6525
 20
-38.0022
 30
0.00000
  70
    32
  0
VERTEX
  8
0
  5
10DF
 10
-14.6533
 20
-38.0021
 30
0.00000
  70
    32
  0
VERTEX
  8
0
  5
10E0
 10
-14.6541
 20
-38.0020
 30
0.00000
  70
    32
  0
VERTEX
  8
0
  5
10E1
 10
-14.6549
 20
-38.0019
 30
0.00000
  70
    32
  0
VERTEX
  8
0
  5
10E2
 10
-14.6557
 20
-38.0018
 30
0.00000
  70
    32
  0
VERTEX
  8
0
  5
10E3
 10
-14.6565
 20
-38.0017
 30
0.00000
  70
    32
  0
VERTEX
  8
0
  5
10E4
 10
-14.6573
 20
-38.0016
 30
0.00000
  70
    32
  0
VERTEX
  8
0
  5
10E5
 10
-14.6581
 20
-38.0015
 30
0.00000
  70
    32
  0
VERTEX
  8
0
  5
10E6
 10
-14.6589
 20
-38.0014
 30
0.00000
  70
    32
  0
VERTEX
  8
0
  5
10E7
 10
-14.6597
 20
-38.0013
 30
0.00000
  70
    32
  0
VERTEX
  8
0
  5
10E8
 10
-14.6605
 20
-38.0012
 30
0.00000
  70
    32
  0
VERTEX
  8
0
  5
10E9
 10
-14.6613
 20
-38.0011
 30
0.00000
  70
    32
  0
VERTEX
  8
0
  5
10EA
 10
-14.6620
 20
-38.0010
 30
0.00000
  70
    32
  0
VERTEX
  8
0
  5
10EB
 10
-14.6628
 20
-38.0008
 30
0.00000
  70
    32
  0
VERTEX
  8
0
  5
10EC
 10
-14.6636
 20
-38.0007
 30
0.00000
  70
    32
  0
VERTEX
  8
0
  5
10ED
 10
-14.6644
 20
-38.0006
 30
0.00000
  70
    32
  0
VERTEX
  8
0
  5
10EE
 10
-14.6652
 20
-38.0005
 30
0.00000
  70
    32
  0
VERTEX
  8
0
  5
10EF
 10
-14.6660
 20
-38.0004
 30
0.00000
  70
    32
  0
VERTEX
  8
0
  5
10F0
 10
-14.6668
 20
-38.0003
 30
0.00000
  70
    32
  0
VERTEX
  8
0
  5
10F1
 10
-14.6676
 20
-38.0001
 30
0.00000
  70
    32
  0
VERTEX
  8
0
  5
10F2
 10
-14.6684
 20
-38.0000
 30
0.00000
  70
    32
  0
VERTEX
  8
0
  5
10F3
 10
-14.6692
 20
-37.9999
 30
0.00000
  70
    32
  0
VERTEX
  8
0
  5
10F4
 10
-14.6700
 20
-37.9998
 30
0.00000
  70
    32
  0
VERTEX
  8
0
  5
10F5
 10
-14.6708
 20
-37.9996
 30
0.00000
  70
    32
  0
VERTEX
  8
0
  5
10F6
 10
-14.6716
 20
-37.9995
 30
0.00000
  70
    32
  0
VERTEX
  8
0
  5
10F7
 10
-14.6724
 20
-37.9994
 30
0.00000
  70
    32
  0
VERTEX
  8
0
  5
10F8
 10
-14.6732
 20
-37.9992
 30
0.00000
  70
    32
  0
VERTEX
  8
0
  5
10F9
 10
-14.6740
 20
-37.9991
 30
0.00000
  70
    32
  0
VERTEX
  8
0
  5
10FA
 10
-14.6748
 20
-37.9990
 30
0.00000
  70
    32
  0
VERTEX
  8
0
  5
10FB
 10
-14.6756
 20
-37.9988
 30
0.00000
  70
    32
  0
VERTEX
  8
0
  5
10FC
 10
-14.6764
 20
-37.9987
 30
0.00000
  70
    32
  0
VERTEX
  8
0
  5
10FD
 10
-14.6772
 20
-37.9986
 30
0.00000
  70
    32
  0
VERTEX
  8
0
  5
10FE
 10
-14.6780
 20
-37.9984
 30
0.00000
  70
    32
  0
VERTEX
  8
0
  5
10FF
 10
-14.6788
 20
-37.9983
 30
0.00000
  70
    32
  0
VERTEX
  8
0
  5
1100
 10
-14.6796
 20
-37.9981
 30
0.00000
  70
    32
  0
VERTEX
  8
0
  5
1101
 10
-14.6804
 20
-37.9980
 30
0.00000
  70
    32
  0
VERTEX
  8
0
  5
1102
 10
-14.6812
 20
-37.9978
 30
0.00000
  70
    32
  0
VERTEX
  8
0
  5
1103
 10
-14.6820
 20
-37.9977
 30
0.00000
  70
    32
  0
VERTEX
  8
0
  5
1104
 10
-14.6828
 20
-37.9976
 30
0.00000
  70
    32
  0
VERTEX
  8
0
  5
1105
 10
-14.6836
 20
-37.9974
 30
0.00000
  70
    32
  0
VERTEX
  8
0
  5
1106
 10
-14.6844
 20
-37.9972
 30
0.00000
  70
    32
  0
VERTEX
  8
0
  5
1107
 10
-14.6852
 20
-37.9971
 30
0.00000
  70
    32
  0
VERTEX
  8
0
  5
1108
 10
-14.6860
 20
-37.9969
 30
0.00000
  70
    32
  0
VERTEX
  8
0
  5
1109
 10
-14.6868
 20
-37.9968
 30
0.00000
  70
    32
  0
VERTEX
  8
0
  5
110A
 10
-14.6876
 20
-37.9966
 30
0.00000
  70
    32
  0
VERTEX
  8
0
  5
110B
 10
-14.6884
 20
-37.9965
 30
0.00000
  70
    32
  0
VERTEX
  8
0
  5
110C
 10
-14.6892
 20
-37.9963
 30
0.00000
  70
    32
  0
VERTEX
  8
0
  5
110D
 10
-14.6900
 20
-37.9961
 30
0.00000
  70
    32
  0
VERTEX
  8
0
  5
110E
 10
-14.6908
 20
-37.9960
 30
0.00000
  70
    32
  0
SEQEND
  8
0
  5
110F
  0
CIRCLE
  5
5CB
  8
0
  6
CONTINUOUS
 62
     7
 10
5.709222108292451
 20
-27.0060879252067707
 30
0.0
 40
2.5
  0
LINE
  5
5CC
  8
0
  6
CONTINUOUS
 62
     7
 10
7.8092221082924453
 20
-36.3793222593067824
 30
0.0
 11
8.8092221082924453
 21
-36.3793222593067824
 31
0.0
  0
LINE
  5
5CD
  8
0
  6
CONTINUOUS
 62
     7
 10
-10.99077789170755
 20
-36.3793222593067824
 30
0.0
 11
-9.9907778917075518
 21
-36.3793222593067824
 31
0.0
  0
LINE
  5
5CE
  8
0
  6
CONTINUOUS
 62
     7
 10
-9.9907778917075518
 20
27.367146408893209
 30
0.0
 11
-10.99077789170755
 21
27.367146408893209
 31
0.0
  0
LINE
  5
5CF
  8
0
  6
CONTINUOUS
 62
     7
 10
8.8092221082924453
 20
27.367146408893209
 30
0.0
 11
7.8092221082924453
 21
27.367146408893209
 31
0.0
  0
LINE
  5
5D0
  8
0
  6
CONTINUOUS
 62
     7
 10
-9.9907778917075518
 20
26.4939120747932293
 30
0.0
 11
-10.99077789170755
 21
26.4939120747932293
 31
0.0
  0
LINE
  5
5D1
  8
0
  6
CONTINUOUS
 62
     7
 10
-9.9907778917075518
 20
-35.5060879252067707
 30
0.0
 11
-10.99077789170755
 21
-35.5060879252067707
 31
0.0
  0
LINE
  5
5D2
  8
0
  6
CONTINUOUS
 62
     7
 10
5.0592221082924453
 20
-11.6560879252067693
 30
0.0
 11
5.0592221082924453
 21
-11.3560879252067899
 31
0.0
  0
LINE
  5
5D3
  8
0
  6
CONTINUOUS
 62
     7
 10
5.0592221082924453
 20
-11.3560879252067899
 30
0.0
 11
4.7592221082924482
 21
-11.3560879252067899
 31
0.0
  0
LINE
  5
5D4
  8
0
  6
CONTINUOUS
 62
     7
 10
4.7592221082924482
 20
-11.3560879252067899
 30
0.0
 11
4.7592221082924482
 21
-11.6560879252067693
 31
0.0
  0
LINE
  5
5D5
  8
0
  6
CONTINUOUS
 62
     7
 10
4.7592221082924482
 20
-11.6560879252067693
 30
0.0
 11
5.0592221082924453
 21
-11.6560879252067693
 31
0.0
  0
LINE
  5
5D6
  8
0
  6
CONTINUOUS
 62
     7
 10
5.0592221082924453
 20
-17.6560879252067693
 30
0.0
 11
5.0592221082924453
 21
-17.3560879252067899
 31
0.0
  0
LINE
  5
5D7
  8
0
  6
CONTINUOUS
 62
     7
 10
5.0592221082924453
 20
-17.3560879252067899
 30
0.0
 11
4.7592221082924482
 21
-17.3560879252067899
 31
0.0
  0
LINE
  5
5D8
  8
0
  6
CONTINUOUS
 62
     7
 10
4.7592221082924482
 20
-17.3560879252067899
 30
0.0
 11
4.7592221082924482
 21
-17.6560879252067693
 31
0.0
  0
LINE
  5
5D9
  8
0
  6
CONTINUOUS
 62
     7
 10
4.7592221082924482
 20
-17.6560879252067693
 30
0.0
 11
5.0592221082924453
 21
-17.6560879252067693
 31
0.0
  0
CIRCLE
  5
5DA
  8
0
  6
CONTINUOUS
 62
     7
 10
5.709222108292451
 20
-27.0060879252067707
 30
0.0
 40
2.0
  0
CIRCLE
  5
5DB
  8
0
  6
CONTINUOUS
 62
     7
 10
5.709222108292451
 20
-27.0060879252067707
 30
0.0
 40
1.900000000000005
  0
CIRCLE
  5
5DC
  8
0
  6
CONTINUOUS
 62
     7
 10
5.709222108292451
 20
-27.0060879252067707
 30
0.0
 40
1.299999999999996
  0
LINE
  5
5DD
  8
0
  6
CONTINUOUS
 62
     7
 10
3.709222108292451
 20
-28.5060879252067707
 30
0.0
 11
3.709222108292451
 21
-27.0060879252067707
 31
0.0
  0
LINE
  5
5DE
  8
0
  6
CONTINUOUS
 62
     7
 10
4.5374692851924294
 20
-24.7976959035067992
 30
0.0
 11
6.8809749313924442
 21
-24.7976959035067992
 31
0.0
  0
LINE
  5
5DF
  8
0
  6
CONTINUOUS
 62
     7
 10
3.709222108292451
 20
-27.0060879252067707
 30
0.0
 11
3.709222108292451
 21
-25.5060879252067707
 31
0.0
  0
LINE
  5
5E0
  8
0
  6
CONTINUOUS
 62
     7
 10
8.8092221082924453
 20
26.4939120747932293
 30
0.0
 11
7.8092221082924453
 21
26.4939120747932293
 31
0.0
  0
LINE
  5
5E1
  8
0
  6
CONTINUOUS
 62
     7
 10
8.8092221082924453
 20
-35.5060879252067707
 30
0.0
 11
7.8092221082924453
 21
-35.5060879252067707
 31
0.0
  0
LINE
  5
5E2
  8
0
  6
CONTINUOUS
 62
     7
 10
7.709222108292451
 20
-25.5060879252067707
 30
0.0
 11
7.709222108292451
 21
-28.5060879252067707
 31
0.0
  0
LINE
  5
5E3
  8
0
  6
CONTINUOUS
 62
     7
 10
11.4092221082924503
 20
-38.1060879252068005
 30
0.0
 11
12.9092221082924503
 21
-38.1060879252068005
 31
0.0
  0
LINE
  5
5E4
  8
0
  6
CONTINUOUS
 62
     7
 10
12.9092221082924503
 20
-38.1060879252068005
 30
0.0
 11
12.9092221082924503
 21
-40.1060879252067934
 31
0.0
  0
LINE
  5
5E5
  8
0
  6
CONTINUOUS
 62
     7
 10
11.4092221082924503
 20
-40.1060879252067934
 30
0.0
 11
11.4092221082924503
 21
-38.1060879252068005
 31
0.0
  0
LINE
  5
5E6
  8
0
  6
CONTINUOUS
 62
     7
 10
11.4092221082924503
 20
-46.1060879252067934
 30
0.0
 11
12.9092221082924503
 21
-46.1060879252067934
 31
0.0
  0
LINE
  5
5E7
  8
0
  6
CONTINUOUS
 62
     7
 10
12.9092221082924503
 20
-40.1060879252067934
 30
0.0
 11
12.9092221082924503
 21
-46.1060879252067934
 31
0.0
  0
LINE
  5
5E8
  8
0
  6
CONTINUOUS
 62
     7
 10
11.4092221082924503
 20
-40.1060879252067934
 30
0.0
 11
11.4092221082924503
 21
-46.1060879252067934
 31
0.0
  0
LINE
  5
5E9
  8
0
  6
CONTINUOUS
 62
     7
 10
11.4092221082924503
 20
-55.0060879252067707
 30
0.0
 11
12.9092221082924503
 21
-55.0060879252067707
 31
0.0
  0
LINE
  5
5EA
  8
0
  6
CONTINUOUS
 62
     7
 10
12.9092221082924503
 20
-46.1060879252067934
 30
0.0
 11
12.9092221082924503
 21
-55.0060879252067707
 31
0.0
  0
LINE
  5
5EB
  8
0
  6
CONTINUOUS
 62
     7
 10
11.4092221082924503
 20
-46.1060879252067934
 30
0.0
 11
11.4092221082924503
 21
-55.0060879252067707
 31
0.0
  0
LINE
  5
5EC
  8
0
  6
CONTINUOUS
 62
     7
 10
6.409222108292453
 20
-46.1060879252067934
 30
0.0
 11
11.4092221082924503
 21
-46.1060879252067934
 31
0.0
  0
LINE
  5
5ED
  8
0
  6
CONTINUOUS
 62
     7
 10
6.409222108292453
 20
-46.1060879252067934
 30
0.0
 11
6.409222108292453
 21
-40.1060879252067934
 31
0.0
  0
LINE
  5
5EE
  8
0
  6
CONTINUOUS
 62
     7
 10
6.409222108292453
 20
-55.0060879252067707
 30
0.0
 11
11.4092221082924503
 21
-55.0060879252067707
 31
0.0
  0
LINE
  5
5EF
  8
0
  6
CONTINUOUS
 62
     7
 10
6.409222108292453
 20
-55.0060879252067707
 30
0.0
 11
6.409222108292453
 21
-46.1060879252067934
 31
0.0
  0
POLYLINE
  5
5F0
  8
0
  6
CONTINUOUS
 62
     7
 66
     1
 10
0.0
 20
0.0
 30
0.0
 70
   128
  0
VERTEX
  5
9F1
  8
0
  6
CONTINUOUS
 62
     7
 10
8.9092221082924539
 20
-54.7082340963067679
 30
0.0
  0
VERTEX
  5
9F2
  8
0
  6
CONTINUOUS
 62
     7
 10
9.4726872219924445
 20
-54.6599734047067614
 30
0.0
  0
VERTEX
  5
9F3
  8
0
  6
CONTINUOUS
 62
     7
 10
9.9905037431924484
 20
-54.5191011241067827
 30
0.0
  0
VERTEX
  5
9F4
  8
0
  6
CONTINUOUS
 62
     7
 10
10.4207212569924401
 20
-54.2970298888067688
 30
0.0
  0
VERTEX
  5
9F5
  8
0
  6
CONTINUOUS
 62
     7
 10
10.72848609899245
 20
-54.0117505897067574
 30
0.0
  0
VERTEX
  5
9F6
  8
0
  6
CONTINUOUS
 62
     7
 10
10.8888649920924294
 20
-53.6863748588067722
 30
0.0
  0
VERTEX
  5
9F7
  8
0
  6
CONTINUOUS
 62
     7
 10
10.8888649920924294
 20
-53.3472627030067699
 30
0.0
  0
VERTEX
  5
9F8
  8
0
  6
CONTINUOUS
 62
     7
 10
10.72848609899245
 20
-53.0218869722067723
 30
0.0
  0
VERTEX
  5
9F9
  8
0
  6
CONTINUOUS
 62
     7
 10
10.4207212569924401
 20
-52.7366076730067732
 30
0.0
  0
VERTEX
  5
9FA
  8
0
  6
CONTINUOUS
 62
     7
 10
9.9905037431924484
 20
-52.5145364377067665
 30
0.0
  0
VERTEX
  5
9FB
  8
0
  6
CONTINUOUS
 62
     7
 10
9.4726872219924445
 20
-52.3736641571067594
 30
0.0
  0
VERTEX
  5
9FC
  8
0
  6
CONTINUOUS
 62
     7
 10
8.9092221082924539
 20
-52.3254034655067812
 30
0.0
  0
VERTEX
  5
9FD
  8
0
  6
CONTINUOUS
 62
     7
 10
8.3457569945924348
 20
-52.3736641571067594
 30
0.0
  0
VERTEX
  5
9FE
  8
0
  6
CONTINUOUS
 62
     7
 10
7.8279404733924451
 20
-52.5145364377067665
 30
0.0
  0
VERTEX
  5
9FF
  8
0
  6
CONTINUOUS
 62
     7
 10
7.3977229595924419
 20
-52.7366076730067732
 30
0.0
  0
VERTEX
  5
A00
  8
0
  6
CONTINUOUS
 62
     7
 10
7.0899581175924311
 20
-53.0218869722067723
 30
0.0
  0
VERTEX
  5
A01
  8
0
  6
CONTINUOUS
 62
     7
 10
6.9295792244924419
 20
-53.3472627030067699
 30
0.0
  0
VERTEX
  5
A02
  8
0
  6
CONTINUOUS
 62
     7
 10
6.9295792244924419
 20
-53.6863748588067722
 30
0.0
  0
VERTEX
  5
A03
  8
0
  6
CONTINUOUS
 62
     7
 10
7.0899581175924311
 20
-54.0117505897067574
 30
0.0
  0
VERTEX
  5
A04
  8
0
  6
CONTINUOUS
 62
     7
 10
7.3977229595924419
 20
-54.2970298888067688
 30
0.0
  0
VERTEX
  5
A05
  8
0
  6
CONTINUOUS
 62
     7
 10
7.8279404733924451
 20
-54.5191011241067827
 30
0.0
  0
VERTEX
  5
A06
  8
0
  6
CONTINUOUS
 62
     7
 10
8.3457569945924348
 20
-54.6599734047067614
 30
0.0
  0
VERTEX
  5
A07
  8
0
  6
CONTINUOUS
 62
     7
 10
8.9092221082924539
 20
-54.7082340963067679
 30
0.0
  0
SEQEND
  5
A08
  8
0
  6
CONTINUOUS
 62
     7
  0
POLYLINE
  5
5F1
  8
0
  6
CONTINUOUS
 62
     7
 66
     1
 10
0.0
 20
0.0
 30
0.0
 70
   128
  0
VERTEX
  5
A09
  8
0
  6
CONTINUOUS
 62
     7
 10
8.9092221082924539
 20
-50.2404266635067813
 30
0.0
  0
VERTEX
  5
A0A
  8
0
  6
CONTINUOUS
 62
     7
 10
9.4726872219924445
 20
-50.1921659719067677
 30
0.0
  0
VERTEX
  5
A0B
  8
0
  6
CONTINUOUS
 62
     7
 10
9.9905037431924484
 20
-50.0512936912067516
 30
0.0
  0
VERTEX
  5
A0C
  8
0
  6
CONTINUOUS
 62
     7
 10
10.4207212569924401
 20
-49.8292224560067893
 30
0.0
  0
VERTEX
  5
A0D
  8
0
  6
CONTINUOUS
 62
     7
 10
10.72848609899245
 20
-49.5439431568067903
 30
0.0
  0
VERTEX
  5
A0E
  8
0
  6
CONTINUOUS
 62
     7
 10
10.8888649920924294
 20
-49.2185674260067785
 30
0.0
  0
VERTEX
  5
A0F
  8
0
  6
CONTINUOUS
 62
     7
 10
10.8888649920924294
 20
-48.8794552701067673
 30
0.0
  0
VERTEX
  5
A10
  8
0
  6
CONTINUOUS
 62
     7
 10
10.72848609899245
 20
-48.5540795393067697
 30
0.0
  0
VERTEX
  5
A11
  8
0
  6
CONTINUOUS
 62
     7
 10
10.4207212569924401
 20
-48.2688002402067795
 30
0.0
  0
VERTEX
  5
A12
  8
0
  6
CONTINUOUS
 62
     7
 10
9.9905037431924484
 20
-48.0467290049067799
 30
0.0
  0
VERTEX
  5
A13
  8
0
  6
CONTINUOUS
 62
     7
 10
9.4726872219924445
 20
-47.9058567243067728
 30
0.0
  0
VERTEX
  5
A14
  8
0
  6
CONTINUOUS
 62
     7
 10
8.9092221082924539
 20
-47.8575960326067786
 30
0.0
  0
VERTEX
  5
A15
  8
0
  6
CONTINUOUS
 62
     7
 10
8.3457569945924348
 20
-47.9058567243067728
 30
0.0
  0
VERTEX
  5
A16
  8
0
  6
CONTINUOUS
 62
     7
 10
7.8279404733924451
 20
-48.0467290049067799
 30
0.0
  0
VERTEX
  5
A17
  8
0
  6
CONTINUOUS
 62
     7
 10
7.3977229595924419
 20
-48.2688002402067795
 30
0.0
  0
VERTEX
  5
A18
  8
0
  6
CONTINUOUS
 62
     7
 10
7.0899581175924311
 20
-48.5540795393067697
 30
0.0
  0
VERTEX
  5
A19
  8
0
  6
CONTINUOUS
 62
     7
 10
6.9295792244924419
 20
-48.8794552701067673
 30
0.0
  0
VERTEX
  5
A1A
  8
0
  6
CONTINUOUS
 62
     7
 10
6.9295792244924419
 20
-49.2185674260067785
 30
0.0
  0
VERTEX
  5
A1B
  8
0
  6
CONTINUOUS
 62
     7
 10
7.0899581175924311
 20
-49.5439431568067903
 30
0.0
  0
VERTEX
  5
A1C
  8
0
  6
CONTINUOUS
 62
     7
 10
7.3977229595924419
 20
-49.8292224560067893
 30
0.0
  0
VERTEX
  5
A1D
  8
0
  6
CONTINUOUS
 62
     7
 10
7.8279404733924451
 20
-50.0512936912067516
 30
0.0
  0
VERTEX
  5
A1E
  8
0
  6
CONTINUOUS
 62
     7
 10
8.3457569945924348
 20
-50.1921659719067677
 30
0.0
  0
VERTEX
  5
A1F
  8
0
  6
CONTINUOUS
 62
     7
 10
8.9092221082924539
 20
-50.2404266635067813
 30
0.0
  0
SEQEND
  5
A20
  8
0
  6
CONTINUOUS
 62
     7
  0
LINE
  5
5F2
  8
0
  6
CONTINUOUS
 62
     7
 10
6.409222108292453
 20
-38.1060879252068005
 30
0.0
 11
11.4092221082924503
 21
-38.1060879252068005
 31
0.0
  0
LINE
  5
5F3
  8
0
  6
CONTINUOUS
 62
     7
 10
6.409222108292453
 20
-40.1060879252067934
 30
0.0
 11
6.409222108292453
 21
-38.1060879252068005
 31
0.0
  0
LINE
  5
5F4
  8
0
  6
CONTINUOUS
 62
     7
 10
1.409222108292453
 20
-40.1060879252067934
 30
0.0
 11
1.409222108292453
 21
-38.1060879252068005
 31
0.0
  0
LINE
  5
5F5
  8
0
  6
CONTINUOUS
 62
     7
 10
1.409222108292453
 20
-38.1060879252068005
 30
0.0
 11
6.409222108292453
 21
-38.1060879252068005
 31
0.0
  0
LINE
  5
5F6
  8
0
  6
CONTINUOUS
 62
     7
 10
1.409222108292453
 20
-46.1060879252067934
 30
0.0
 11
6.409222108292453
 21
-46.1060879252067934
 31
0.0
  0
LINE
  5
5F7
  8
0
  6
CONTINUOUS
 62
     7
 10
1.409222108292453
 20
-46.1060879252067934
 30
0.0
 11
1.409222108292453
 21
-40.1060879252067934
 31
0.0
  0
LINE
  5
5F8
  8
0
  6
CONTINUOUS
 62
     7
 10
1.409222108292453
 20
-55.0060879252067707
 30
0.0
 11
6.409222108292453
 21
-55.0060879252067707
 31
0.0
  0
POLYLINE
  5
5F9
  8
0
  6
CONTINUOUS
 62
     7
 66
     1
 10
0.0
 20
0.0
 30
0.0
 70
   128
  0
VERTEX
  5
A21
  8
0
  6
CONTINUOUS
 62
     7
 10
3.909222108292453
 20
-54.7082340963067679
 30
0.0
  0
VERTEX
  5
A22
  8
0
  6
CONTINUOUS
 62
     7
 10
4.4726872219924436
 20
-54.6599734047067614
 30
0.0
  0
VERTEX
  5
A23
  8
0
  6
CONTINUOUS
 62
     7
 10
4.9905037431924484
 20
-54.5191011241067827
 30
0.0
  0
VERTEX
  5
A24
  8
0
  6
CONTINUOUS
 62
     7
 10
5.4207212569924357
 20
-54.2970298888067688
 30
0.0
  0
VERTEX
  5
A25
  8
0
  6
CONTINUOUS
 62
     7
 10
5.7284860989924482
 20
-54.0117505897067574
 30
0.0
  0
VERTEX
  5
A26
  8
0
  6
CONTINUOUS
 62
     7
 10
5.8888649920924356
 20
-53.6863748588067722
 30
0.0
  0
VERTEX
  5
A27
  8
0
  6
CONTINUOUS
 62
     7
 10
5.8888649920924356
 20
-53.3472627030067699
 30
0.0
  0
VERTEX
  5
A28
  8
0
  6
CONTINUOUS
 62
     7
 10
5.7284860989924482
 20
-53.0218869722067723
 30
0.0
  0
VERTEX
  5
A29
  8
0
  6
CONTINUOUS
 62
     7
 10
5.4207212569924357
 20
-52.7366076730067732
 30
0.0
  0
VERTEX
  5
A2A
  8
0
  6
CONTINUOUS
 62
     7
 10
4.9905037431924484
 20
-52.5145364377067665
 30
0.0
  0
VERTEX
  5
A2B
  8
0
  6
CONTINUOUS
 62
     7
 10
4.4726872219924436
 20
-52.3736641571067594
 30
0.0
  0
VERTEX
  5
A2C
  8
0
  6
CONTINUOUS
 62
     7
 10
3.909222108292453
 20
-52.3254034655067812
 30
0.0
  0
VERTEX
  5
A2D
  8
0
  6
CONTINUOUS
 62
     7
 10
3.3457569945924339
 20
-52.3736641571067594
 30
0.0
  0
VERTEX
  5
A2E
  8
0
  6
CONTINUOUS
 62
     7
 10
2.8279404733924451
 20
-52.5145364377067665
 30
0.0
  0
VERTEX
  5
A2F
  8
0
  6
CONTINUOUS
 62
     7
 10
2.3977229595924419
 20
-52.7366076730067732
 30
0.0
  0
VERTEX
  5
A30
  8
0
  6
CONTINUOUS
 62
     7
 10
2.0899581175924311
 20
-53.0218869722067723
 30
0.0
  0
VERTEX
  5
A31
  8
0
  6
CONTINUOUS
 62
     7
 10
1.9295792244924419
 20
-53.3472627030067699
 30
0.0
  0
VERTEX
  5
A32
  8
0
  6
CONTINUOUS
 62
     7
 10
1.9295792244924419
 20
-53.6863748588067722
 30
0.0
  0
VERTEX
  5
A33
  8
0
  6
CONTINUOUS
 62
     7
 10
2.0899581175924311
 20
-54.0117505897067574
 30
0.0
  0
VERTEX
  5
A34
  8
0
  6
CONTINUOUS
 62
     7
 10
2.3977229595924419
 20
-54.2970298888067688
 30
0.0
  0
VERTEX
  5
A35
  8
0
  6
CONTINUOUS
 62
     7
 10
2.8279404733924451
 20
-54.5191011241067827
 30
0.0
  0
VERTEX
  5
A36
  8
0
  6
CONTINUOUS
 62
     7
 10
3.3457569945924339
 20
-54.6599734047067614
 30
0.0
  0
VERTEX
  5
A37
  8
0
  6
CONTINUOUS
 62
     7
 10
3.909222108292453
 20
-54.7082340963067679
 30
0.0
  0
SEQEND
  5
A38
  8
0
  6
CONTINUOUS
 62
     7
  0
POLYLINE
  5
5FA
  8
0
  6
CONTINUOUS
 62
     7
 66
     1
 10
0.0
 20
0.0
 30
0.0
 70
   128
  0
VERTEX
  5
A39
  8
0
  6
CONTINUOUS
 62
     7
 10
3.909222108292453
 20
-50.2404266635067813
 30
0.0
  0
VERTEX
  5
A3A
  8
0
  6
CONTINUOUS
 62
     7
 10
4.4726872219924436
 20
-50.1921659719067677
 30
0.0
  0
VERTEX
  5
A3B
  8
0
  6
CONTINUOUS
 62
     7
 10
4.9905037431924484
 20
-50.0512936912067516
 30
0.0
  0
VERTEX
  5
A3C
  8
0
  6
CONTINUOUS
 62
     7
 10
5.4207212569924357
 20
-49.8292224560067893
 30
0.0
  0
VERTEX
  5
A3D
  8
0
  6
CONTINUOUS
 62
     7
 10
5.7284860989924482
 20
-49.5439431568067903
 30
0.0
  0
VERTEX
  5
A3E
  8
0
  6
CONTINUOUS
 62
     7
 10
5.8888649920924356
 20
-49.2185674260067785
 30
0.0
  0
VERTEX
  5
A3F
  8
0
  6
CONTINUOUS
 62
     7
 10
5.8888649920924356
 20
-48.8794552701067673
 30
0.0
  0
VERTEX
  5
A40
  8
0
  6
CONTINUOUS
 62
     7
 10
5.7284860989924482
 20
-48.5540795393067697
 30
0.0
  0
VERTEX
  5
A41
  8
0
  6
CONTINUOUS
 62
     7
 10
5.4207212569924357
 20
-48.2688002402067795
 30
0.0
  0
VERTEX
  5
A42
  8
0
  6
CONTINUOUS
 62
     7
 10
4.9905037431924484
 20
-48.0467290049067799
 30
0.0
  0
VERTEX
  5
A43
  8
0
  6
CONTINUOUS
 62
     7
 10
4.4726872219924436
 20
-47.9058567243067728
 30
0.0
  0
VERTEX
  5
A44
  8
0
  6
CONTINUOUS
 62
     7
 10
3.909222108292453
 20
-47.8575960326067786
 30
0.0
  0
VERTEX
  5
A45
  8
0
  6
CONTINUOUS
 62
     7
 10
3.3457569945924339
 20
-47.9058567243067728
 30
0.0
  0
VERTEX
  5
A46
  8
0
  6
CONTINUOUS
 62
     7
 10
2.8279404733924451
 20
-48.0467290049067799
 30
0.0
  0
VERTEX
  5
A47
  8
0
  6
CONTINUOUS
 62
     7
 10
2.3977229595924419
 20
-48.2688002402067795
 30
0.0
  0
VERTEX
  5
A48
  8
0
  6
CONTINUOUS
 62
     7
 10
2.0899581175924311
 20
-48.5540795393067697
 30
0.0
  0
VERTEX
  5
A49
  8
0
  6
CONTINUOUS
 62
     7
 10
1.9295792244924419
 20
-48.8794552701067673
 30
0.0
  0
VERTEX
  5
A4A
  8
0
  6
CONTINUOUS
 62
     7
 10
1.9295792244924419
 20
-49.2185674260067785
 30
0.0
  0
VERTEX
  5
A4B
  8
0
  6
CONTINUOUS
 62
     7
 10
2.0899581175924311
 20
-49.5439431568067903
 30
0.0
  0
VERTEX
  5
A4C
  8
0
  6
CONTINUOUS
 62
     7
 10
2.3977229595924419
 20
-49.8292224560067893
 30
0.0
  0
VERTEX
  5
A4D
  8
0
  6
CONTINUOUS
 62
     7
 10
2.8279404733924451
 20
-50.0512936912067516
 30
0.0
  0
VERTEX
  5
A4E
  8
0
  6
CONTINUOUS
 62
     7
 10
3.3457569945924339
 20
-50.1921659719067677
 30
0.0
  0
VERTEX
  5
A4F
  8
0
  6
CONTINUOUS
 62
     7
 10
3.909222108292453
 20
-50.2404266635067813
 30
0.0
  0
SEQEND
  5
A50
  8
0
  6
CONTINUOUS
 62
     7
  0
LINE
  5
5FB
  8
0
  6
CONTINUOUS
 62
     7
 10
1.409222108292453
 20
-55.0060879252067707
 30
0.0
 11
1.409222108292453
 21
-46.1060879252067934
 31
0.0
  0
LINE
  5
5FC
  8
0
  6
CONTINUOUS
 62
     7
 10
-3.5907778917075461
 20
-38.1060879252068005
 30
0.0
 11
1.409222108292453
 21
-38.1060879252068005
 31
0.0
  0
LINE
  5
5FD
  8
0
  6
CONTINUOUS
 62
     7
 10
-3.5907778917075461
 20
-40.1060879252067934
 30
0.0
 11
-3.5907778917075461
 21
-38.1060879252068005
 31
0.0
  0
LINE
  5
5FE
  8
0
  6
CONTINUOUS
 62
     7
 10
-3.5907778917075461
 20
-46.1060879252067934
 30
0.0
 11
1.409222108292453
 21
-46.1060879252067934
 31
0.0
  0
LINE
  5
5FF
  8
0
  6
CONTINUOUS
 62
     7
 10
-3.5907778917075461
 20
-46.1060879252067934
 30
0.0
 11
-3.5907778917075461
 21
-40.1060879252067934
 31
0.0
  0
LINE
  5
600
  8
0
  6
CONTINUOUS
 62
     7
 10
-3.5907778917075461
 20
-55.0060879252067707
 30
0.0
 11
1.409222108292453
 21
-55.0060879252067707
 31
0.0
  0
POLYLINE
  5
601
  8
0
  6
CONTINUOUS
 62
     7
 66
     1
 10
0.0
 20
0.0
 30
0.0
 70
   128
  0
VERTEX
  5
A51
  8
0
  6
CONTINUOUS
 62
     7
 10
-1.0907778917075459
 20
-54.7082340963067679
 30
0.0
  0
VERTEX
  5
A52
  8
0
  6
CONTINUOUS
 62
     7
 10
-0.5273127780075555
 20
-54.6599734047067614
 30
0.0
  0
VERTEX
  5
A53
  8
0
  6
CONTINUOUS
 62
     7
 10
-0.0094962568075516
 20
-54.5191011241067827
 30
0.0
  0
VERTEX
  5
A54
  8
0
  6
CONTINUOUS
 62
     7
 10
0.4207212569924366
 20
-54.2970298888067688
 30
0.0
  0
VERTEX
  5
A55
  8
0
  6
CONTINUOUS
 62
     7
 10
0.7284860989924482
 20
-54.0117505897067574
 30
0.0
  0
VERTEX
  5
A56
  8
0
  6
CONTINUOUS
 62
     7
 10
0.8888649920924365
 20
-53.6863748588067722
 30
0.0
  0
VERTEX
  5
A57
  8
0
  6
CONTINUOUS
 62
     7
 10
0.8888649920924365
 20
-53.3472627030067699
 30
0.0
  0
VERTEX
  5
A58
  8
0
  6
CONTINUOUS
 62
     7
 10
0.7284860989924482
 20
-53.0218869722067723
 30
0.0
  0
VERTEX
  5
A59
  8
0
  6
CONTINUOUS
 62
     7
 10
0.4207212569924366
 20
-52.7366076730067732
 30
0.0
  0
VERTEX
  5
A5A
  8
0
  6
CONTINUOUS
 62
     7
 10
-0.0094962568075516
 20
-52.5145364377067665
 30
0.0
  0
VERTEX
  5
A5B
  8
0
  6
CONTINUOUS
 62
     7
 10
-0.5273127780075555
 20
-52.3736641571067594
 30
0.0
  0
VERTEX
  5
A5C
  8
0
  6
CONTINUOUS
 62
     7
 10
-1.0907778917075459
 20
-52.3254034655067812
 30
0.0
  0
VERTEX
  5
A5D
  8
0
  6
CONTINUOUS
 62
     7
 10
-1.654243005407565
 20
-52.3736641571067594
 30
0.0
  0
VERTEX
  5
A5E
  8
0
  6
CONTINUOUS
 62
     7
 10
-2.172059526607554
 20
-52.5145364377067665
 30
0.0
  0
VERTEX
  5
A5F
  8
0
  6
CONTINUOUS
 62
     7
 10
-2.6022770404075568
 20
-52.7366076730067732
 30
0.0
  0
VERTEX
  5
A60
  8
0
  6
CONTINUOUS
 62
     7
 10
-2.910041882407568
 20
-53.0218869722067723
 30
0.0
  0
VERTEX
  5
A61
  8
0
  6
CONTINUOUS
 62
     7
 10
-3.0704207755075572
 20
-53.3472627030067699
 30
0.0
  0
VERTEX
  5
A62
  8
0
  6
CONTINUOUS
 62
     7
 10
-3.0704207755075572
 20
-53.6863748588067722
 30
0.0
  0
VERTEX
  5
A63
  8
0
  6
CONTINUOUS
 62
     7
 10
-2.910041882407568
 20
-54.0117505897067574
 30
0.0
  0
VERTEX
  5
A64
  8
0
  6
CONTINUOUS
 62
     7
 10
-2.6022770404075568
 20
-54.2970298888067688
 30
0.0
  0
VERTEX
  5
A65
  8
0
  6
CONTINUOUS
 62
     7
 10
-2.172059526607554
 20
-54.5191011241067827
 30
0.0
  0
VERTEX
  5
A66
  8
0
  6
CONTINUOUS
 62
     7
 10
-1.654243005407565
 20
-54.6599734047067614
 30
0.0
  0
VERTEX
  5
A67
  8
0
  6
CONTINUOUS
 62
     7
 10
-1.0907778917075459
 20
-54.7082340963067679
 30
0.0
  0
SEQEND
  5
A68
  8
0
  6
CONTINUOUS
 62
     7
  0
POLYLINE
  5
602
  8
0
  6
CONTINUOUS
 62
     7
 66
     1
 10
0.0
 20
0.0
 30
0.0
 70
   128
  0
VERTEX
  5
A69
  8
0
  6
CONTINUOUS
 62
     7
 10
-1.0907778917075459
 20
-50.2404266635067813
 30
0.0
  0
VERTEX
  5
A6A
  8
0
  6
CONTINUOUS
 62
     7
 10
-0.5273127780075555
 20
-50.1921659719067677
 30
0.0
  0
VERTEX
  5
A6B
  8
0
  6
CONTINUOUS
 62
     7
 10
-0.0094962568075516
 20
-50.0512936912067516
 30
0.0
  0
VERTEX
  5
A6C
  8
0
  6
CONTINUOUS
 62
     7
 10
0.4207212569924366
 20
-49.8292224560067893
 30
0.0
  0
VERTEX
  5
A6D
  8
0
  6
CONTINUOUS
 62
     7
 10
0.7284860989924482
 20
-49.5439431568067903
 30
0.0
  0
VERTEX
  5
A6E
  8
0
  6
CONTINUOUS
 62
     7
 10
0.8888649920924365
 20
-49.2185674260067785
 30
0.0
  0
VERTEX
  5
A6F
  8
0
  6
CONTINUOUS
 62
     7
 10
0.8888649920924365
 20
-48.8794552701067673
 30
0.0
  0
VERTEX
  5
A70
  8
0
  6
CONTINUOUS
 62
     7
 10
0.7284860989924482
 20
-48.5540795393067697
 30
0.0
  0
VERTEX
  5
A71
  8
0
  6
CONTINUOUS
 62
     7
 10
0.4207212569924366
 20
-48.2688002402067795
 30
0.0
  0
VERTEX
  5
A72
  8
0
  6
CONTINUOUS
 62
     7
 10
-0.0094962568075516
 20
-48.0467290049067799
 30
0.0
  0
VERTEX
  5
A73
  8
0
  6
CONTINUOUS
 62
     7
 10
-0.5273127780075555
 20
-47.9058567243067728
 30
0.0
  0
VERTEX
  5
A74
  8
0
  6
CONTINUOUS
 62
     7
 10
-1.0907778917075459
 20
-47.8575960326067786
 30
0.0
  0
VERTEX
  5
A75
  8
0
  6
CONTINUOUS
 62
     7
 10
-1.654243005407565
 20
-47.9058567243067728
 30
0.0
  0
VERTEX
  5
A76
  8
0
  6
CONTINUOUS
 62
     7
 10
-2.172059526607554
 20
-48.0467290049067799
 30
0.0
  0
VERTEX
  5
A77
  8
0
  6
CONTINUOUS
 62
     7
 10
-2.6022770404075568
 20
-48.2688002402067795
 30
0.0
  0
VERTEX
  5
A78
  8
0
  6
CONTINUOUS
 62
     7
 10
-2.910041882407568
 20
-48.5540795393067697
 30
0.0
  0
VERTEX
  5
A79
  8
0
  6
CONTINUOUS
 62
     7
 10
-3.0704207755075572
 20
-48.8794552701067673
 30
0.0
  0
VERTEX
  5
A7A
  8
0
  6
CONTINUOUS
 62
     7
 10
-3.0704207755075572
 20
-49.2185674260067785
 30
0.0
  0
VERTEX
  5
A7B
  8
0
  6
CONTINUOUS
 62
     7
 10
-2.910041882407568
 20
-49.5439431568067903
 30
0.0
  0
VERTEX
  5
A7C
  8
0
  6
CONTINUOUS
 62
     7
 10
-2.6022770404075568
 20
-49.8292224560067893
 30
0.0
  0
VERTEX
  5
A7D
  8
0
  6
CONTINUOUS
 62
     7
 10
-2.172059526607554
 20
-50.0512936912067516
 30
0.0
  0
VERTEX
  5
A7E
  8
0
  6
CONTINUOUS
 62
     7
 10
-1.654243005407565
 20
-50.1921659719067677
 30
0.0
  0
VERTEX
  5
A7F
  8
0
  6
CONTINUOUS
 62
     7
 10
-1.0907778917075459
 20
-50.2404266635067813
 30
0.0
  0
SEQEND
  5
A80
  8
0
  6
CONTINUOUS
 62
     7
  0
LINE
  5
603
  8
0
  6
CONTINUOUS
 62
     7
 10
-3.5907778917075461
 20
-55.0060879252067707
 30
0.0
 11
-3.5907778917075461
 21
-46.1060879252067934
 31
0.0
  0
LINE
  5
604
  8
0
  6
CONTINUOUS
 62
     7
 10
-8.5907778917075461
 20
-40.1060879252067934
 30
0.0
 11
-8.5907778917075461
 21
-38.1060879252068005
 31
0.0
  0
LINE
  5
605
  8
0
  6
CONTINUOUS
 62
     7
 10
-8.5907778917075461
 20
-38.1060879252068005
 30
0.0
 11
-3.5907778917075461
 21
-38.1060879252068005
 31
0.0
  0
LINE
  5
606
  8
0
  6
CONTINUOUS
 62
     7
 10
-8.5907778917075461
 20
-46.1060879252067934
 30
0.0
 11
-3.5907778917075461
 21
-46.1060879252067934
 31
0.0
  0
LINE
  5
607
  8
0
  6
CONTINUOUS
 62
     7
 10
-8.5907778917075461
 20
-46.1060879252067934
 30
0.0
 11
-8.5907778917075461
 21
-40.1060879252067934
 31
0.0
  0
LINE
  5
608
  8
0
  6
CONTINUOUS
 62
     7
 10
-8.5907778917075461
 20
-55.0060879252067707
 30
0.0
 11
-3.5907778917075461
 21
-55.0060879252067707
 31
0.0
  0
POLYLINE
  5
609
  8
0
  6
CONTINUOUS
 62
     7
 66
     1
 10
0.0
 20
0.0
 30
0.0
 70
   128
  0
VERTEX
  5
A81
  8
0
  6
CONTINUOUS
 62
     7
 10
-6.0907778917075461
 20
-54.7082340963067679
 30
0.0
  0
VERTEX
  5
A82
  8
0
  6
CONTINUOUS
 62
     7
 10
-5.5273127780075546
 20
-54.6599734047067614
 30
0.0
  0
VERTEX
  5
A83
  8
0
  6
CONTINUOUS
 62
     7
 10
-5.0094962568075507
 20
-54.5191011241067827
 30
0.0
  0
VERTEX
  5
A84
  8
0
  6
CONTINUOUS
 62
     7
 10
-4.5792787430075634
 20
-54.2970298888067688
 30
0.0
  0
VERTEX
  5
A85
  8
0
  6
CONTINUOUS
 62
     7
 10
-4.2715139010075509
 20
-54.0117505897067574
 30
0.0
  0
VERTEX
  5
A86
  8
0
  6
CONTINUOUS
 62
     7
 10
-4.1111350079075626
 20
-53.6863748588067722
 30
0.0
  0
VERTEX
  5
A87
  8
0
  6
CONTINUOUS
 62
     7
 10
-4.1111350079075626
 20
-53.3472627030067699
 30
0.0
  0
VERTEX
  5
A88
  8
0
  6
CONTINUOUS
 62
     7
 10
-4.2715139010075509
 20
-53.0218869722067723
 30
0.0
  0
VERTEX
  5
A89
  8
0
  6
CONTINUOUS
 62
     7
 10
-4.5792787430075634
 20
-52.7366076730067732
 30
0.0
  0
VERTEX
  5
A8A
  8
0
  6
CONTINUOUS
 62
     7
 10
-5.0094962568075507
 20
-52.5145364377067665
 30
0.0
  0
VERTEX
  5
A8B
  8
0
  6
CONTINUOUS
 62
     7
 10
-5.5273127780075546
 20
-52.3736641571067594
 30
0.0
  0
VERTEX
  5
A8C
  8
0
  6
CONTINUOUS
 62
     7
 10
-6.0907778917075461
 20
-52.3254034655067812
 30
0.0
  0
VERTEX
  5
A8D
  8
0
  6
CONTINUOUS
 62
     7
 10
-6.6542430054075652
 20
-52.3736641571067594
 30
0.0
  0
VERTEX
  5
A8E
  8
0
  6
CONTINUOUS
 62
     7
 10
-7.172059526607554
 20
-52.5145364377067665
 30
0.0
  0
VERTEX
  5
A8F
  8
0
  6
CONTINUOUS
 62
     7
 10
-7.6022770404075573
 20
-52.7366076730067732
 30
0.0
  0
VERTEX
  5
A90
  8
0
  6
CONTINUOUS
 62
     7
 10
-7.910041882407568
 20
-53.0218869722067723
 30
0.0
  0
VERTEX
  5
A91
  8
0
  6
CONTINUOUS
 62
     7
 10
-8.0704207755075572
 20
-53.3472627030067699
 30
0.0
  0
VERTEX
  5
A92
  8
0
  6
CONTINUOUS
 62
     7
 10
-8.0704207755075572
 20
-53.6863748588067722
 30
0.0
  0
VERTEX
  5
A93
  8
0
  6
CONTINUOUS
 62
     7
 10
-7.910041882407568
 20
-54.0117505897067574
 30
0.0
  0
VERTEX
  5
A94
  8
0
  6
CONTINUOUS
 62
     7
 10
-7.6022770404075573
 20
-54.2970298888067688
 30
0.0
  0
VERTEX
  5
A95
  8
0
  6
CONTINUOUS
 62
     7
 10
-7.172059526607554
 20
-54.5191011241067827
 30
0.0
  0
VERTEX
  5
A96
  8
0
  6
CONTINUOUS
 62
     7
 10
-6.6542430054075652
 20
-54.6599734047067614
 30
0.0
  0
VERTEX
  5
A97
  8
0
  6
CONTINUOUS
 62
     7
 10
-6.0907778917075461
 20
-54.7082340963067679
 30
0.0
  0
SEQEND
  5
A98
  8
0
  6
CONTINUOUS
 62
     7
  0
POLYLINE
  5
60A
  8
0
  6
CONTINUOUS
 62
     7
 66
     1
 10
0.0
 20
0.0
 30
0.0
 70
   128
  0
VERTEX
  5
A99
  8
0
  6
CONTINUOUS
 62
     7
 10
-6.0907778917075461
 20
-50.2404266635067813
 30
0.0
  0
VERTEX
  5
A9A
  8
0
  6
CONTINUOUS
 62
     7
 10
-5.5273127780075546
 20
-50.1921659719067677
 30
0.0
  0
VERTEX
  5
A9B
  8
0
  6
CONTINUOUS
 62
     7
 10
-5.0094962568075507
 20
-50.0512936912067516
 30
0.0
  0
VERTEX
  5
A9C
  8
0
  6
CONTINUOUS
 62
     7
 10
-4.5792787430075634
 20
-49.8292224560067893
 30
0.0
  0
VERTEX
  5
A9D
  8
0
  6
CONTINUOUS
 62
     7
 10
-4.2715139010075509
 20
-49.5439431568067903
 30
0.0
  0
VERTEX
  5
A9E
  8
0
  6
CONTINUOUS
 62
     7
 10
-4.1111350079075626
 20
-49.2185674260067785
 30
0.0
  0
VERTEX
  5
A9F
  8
0
  6
CONTINUOUS
 62
     7
 10
-4.1111350079075626
 20
-48.8794552701067673
 30
0.0
  0
VERTEX
  5
AA0
  8
0
  6
CONTINUOUS
 62
     7
 10
-4.2715139010075509
 20
-48.5540795393067697
 30
0.0
  0
VERTEX
  5
AA1
  8
0
  6
CONTINUOUS
 62
     7
 10
-4.5792787430075634
 20
-48.2688002402067795
 30
0.0
  0
VERTEX
  5
AA2
  8
0
  6
CONTINUOUS
 62
     7
 10
-5.0094962568075507
 20
-48.0467290049067799
 30
0.0
  0
VERTEX
  5
AA3
  8
0
  6
CONTINUOUS
 62
     7
 10
-5.5273127780075546
 20
-47.9058567243067728
 30
0.0
  0
VERTEX
  5
AA4
  8
0
  6
CONTINUOUS
 62
     7
 10
-6.0907778917075461
 20
-47.8575960326067786
 30
0.0
  0
VERTEX
  5
AA5
  8
0
  6
CONTINUOUS
 62
     7
 10
-6.6542430054075652
 20
-47.9058567243067728
 30
0.0
  0
VERTEX
  5
AA6
  8
0
  6
CONTINUOUS
 62
     7
 10
-7.172059526607554
 20
-48.0467290049067799
 30
0.0
  0
VERTEX
  5
AA7
  8
0
  6
CONTINUOUS
 62
     7
 10
-7.6022770404075573
 20
-48.2688002402067795
 30
0.0
  0
VERTEX
  5
AA8
  8
0
  6
CONTINUOUS
 62
     7
 10
-7.910041882407568
 20
-48.5540795393067697
 30
0.0
  0
VERTEX
  5
AA9
  8
0
  6
CONTINUOUS
 62
     7
 10
-8.0704207755075572
 20
-48.8794552701067673
 30
0.0
  0
VERTEX
  5
AAA
  8
0
  6
CONTINUOUS
 62
     7
 10
-8.0704207755075572
 20
-49.2185674260067785
 30
0.0
  0
VERTEX
  5
AAB
  8
0
  6
CONTINUOUS
 62
     7
 10
-7.910041882407568
 20
-49.5439431568067903
 30
0.0
  0
VERTEX
  5
AAC
  8
0
  6
CONTINUOUS
 62
     7
 10
-7.6022770404075573
 20
-49.8292224560067893
 30
0.0
  0
VERTEX
  5
AAD
  8
0
  6
CONTINUOUS
 62
     7
 10
-7.172059526607554
 20
-50.0512936912067516
 30
0.0
  0
VERTEX
  5
AAE
  8
0
  6
CONTINUOUS
 62
     7
 10
-6.6542430054075652
 20
-50.1921659719067677
 30
0.0
  0
VERTEX
  5
AAF
  8
0
  6
CONTINUOUS
 62
     7
 10
-6.0907778917075461
 20
-50.2404266635067813
 30
0.0
  0
SEQEND
  5
AB0
  8
0
  6
CONTINUOUS
 62
     7
  0
LINE
  5
60B
  8
0
  6
CONTINUOUS
 62
     7
 10
-8.5907778917075461
 20
-55.0060879252067707
 30
0.0
 11
-8.5907778917075461
 21
-46.1060879252067934
 31
0.0
  0
LINE
  5
60C
  8
0
  6
CONTINUOUS
 62
     7
 10
-13.5907778917075408
 20
-55.0060879252067707
 30
0.0
 11
-8.5907778917075461
 21
-55.0060879252067707
 31
0.0
  0
LINE
  5
60D
  8
0
  6
CONTINUOUS
 62
     7
 10
-13.5907778917075408
 20
-55.0060879252067707
 30
0.0
 11
-13.5907778917075408
 21
-46.1060879252067934
 31
0.0
  0
LINE
  5
60E
  8
0
  6
CONTINUOUS
 62
     7
 10
-13.5907778917075408
 20
-46.1060879252067934
 30
0.0
 11
-8.5907778917075461
 21
-46.1060879252067934
 31
0.0
  0
POLYLINE
  5
60F
  8
0
  6
CONTINUOUS
 62
     7
 66
     1
 10
0.0
 20
0.0
 30
0.0
 70
   128
  0
VERTEX
  5
AB1
  8
0
  6
CONTINUOUS
 62
     7
 10
-11.0907778917075408
 20
-54.7082340963067679
 30
0.0
  0
VERTEX
  5
AB2
  8
0
  6
CONTINUOUS
 62
     7
 10
-10.5273127780075502
 20
-54.6599734047067614
 30
0.0
  0
VERTEX
  5
AB3
  8
0
  6
CONTINUOUS
 62
     7
 10
-10.0094962568075498
 20
-54.5191011241067827
 30
0.0
  0
VERTEX
  5
AB4
  8
0
  6
CONTINUOUS
 62
     7
 10
-9.5792787430075634
 20
-54.2970298888067688
 30
0.0
  0
VERTEX
  5
AB5
  8
0
  6
CONTINUOUS
 62
     7
 10
-9.2715139010075518
 20
-54.0117505897067574
 30
0.0
  0
VERTEX
  5
AB6
  8
0
  6
CONTINUOUS
 62
     7
 10
-9.1111350079075635
 20
-53.6863748588067722
 30
0.0
  0
VERTEX
  5
AB7
  8
0
  6
CONTINUOUS
 62
     7
 10
-9.1111350079075635
 20
-53.3472627030067699
 30
0.0
  0
VERTEX
  5
AB8
  8
0
  6
CONTINUOUS
 62
     7
 10
-9.2715139010075518
 20
-53.0218869722067723
 30
0.0
  0
VERTEX
  5
AB9
  8
0
  6
CONTINUOUS
 62
     7
 10
-9.5792787430075634
 20
-52.7366076730067732
 30
0.0
  0
VERTEX
  5
ABA
  8
0
  6
CONTINUOUS
 62
     7
 10
-10.0094962568075498
 20
-52.5145364377067665
 30
0.0
  0
VERTEX
  5
ABB
  8
0
  6
CONTINUOUS
 62
     7
 10
-10.5273127780075502
 20
-52.3736641571067594
 30
0.0
  0
VERTEX
  5
ABC
  8
0
  6
CONTINUOUS
 62
     7
 10
-11.0907778917075408
 20
-52.3254034655067812
 30
0.0
  0
VERTEX
  5
ABD
  8
0
  6
CONTINUOUS
 62
     7
 10
-11.6542430054075599
 20
-52.3736641571067594
 30
0.0
  0
VERTEX
  5
ABE
  8
0
  6
CONTINUOUS
 62
     7
 10
-12.1720595266075495
 20
-52.5145364377067665
 30
0.0
  0
VERTEX
  5
ABF
  8
0
  6
CONTINUOUS
 62
     7
 10
-12.6022770404075608
 20
-52.7366076730067732
 30
0.0
  0
VERTEX
  5
AC0
  8
0
  6
CONTINUOUS
 62
     7
 10
-12.9100418824075707
 20
-53.0218869722067723
 30
0.0
  0
VERTEX
  5
AC1
  8
0
  6
CONTINUOUS
 62
     7
 10
-13.0704207755075608
 20
-53.3472627030067699
 30
0.0
  0
VERTEX
  5
AC2
  8
0
  6
CONTINUOUS
 62
     7
 10
-13.0704207755075608
 20
-53.6863748588067722
 30
0.0
  0
VERTEX
  5
AC3
  8
0
  6
CONTINUOUS
 62
     7
 10
-12.9100418824075707
 20
-54.0117505897067574
 30
0.0
  0
VERTEX
  5
AC4
  8
0
  6
CONTINUOUS
 62
     7
 10
-12.6022770404075608
 20
-54.2970298888067688
 30
0.0
  0
VERTEX
  5
AC5
  8
0
  6
CONTINUOUS
 62
     7
 10
-12.1720595266075495
 20
-54.5191011241067827
 30
0.0
  0
VERTEX
  5
AC6
  8
0
  6
CONTINUOUS
 62
     7
 10
-11.6542430054075599
 20
-54.6599734047067614
 30
0.0
  0
VERTEX
  5
AC7
  8
0
  6
CONTINUOUS
 62
     7
 10
-11.0907778917075408
 20
-54.7082340963067679
 30
0.0
  0
SEQEND
  5
AC8
  8
0
  6
CONTINUOUS
 62
     7
  0
POLYLINE
  5
610
  8
0
  6
CONTINUOUS
 62
     7
 66
     1
 10
0.0
 20
0.0
 30
0.0
 70
   128
  0
VERTEX
  5
AC9
  8
0
  6
CONTINUOUS
 62
     7
 10
-11.0907778917075408
 20
-50.2404266635067813
 30
0.0
  0
VERTEX
  5
ACA
  8
0
  6
CONTINUOUS
 62
     7
 10
-10.5273127780075502
 20
-50.1921659719067677
 30
0.0
  0
VERTEX
  5
ACB
  8
0
  6
CONTINUOUS
 62
     7
 10
-10.0094962568075498
 20
-50.0512936912067516
 30
0.0
  0
VERTEX
  5
ACC
  8
0
  6
CONTINUOUS
 62
     7
 10
-9.5792787430075634
 20
-49.8292224560067893
 30
0.0
  0
VERTEX
  5
ACD
  8
0
  6
CONTINUOUS
 62
     7
 10
-9.2715139010075518
 20
-49.5439431568067903
 30
0.0
  0
VERTEX
  5
ACE
  8
0
  6
CONTINUOUS
 62
     7
 10
-9.1111350079075635
 20
-49.2185674260067785
 30
0.0
  0
VERTEX
  5
ACF
  8
0
  6
CONTINUOUS
 62
     7
 10
-9.1111350079075635
 20
-48.8794552701067673
 30
0.0
  0
VERTEX
  5
AD0
  8
0
  6
CONTINUOUS
 62
     7
 10
-9.2715139010075518
 20
-48.5540795393067697
 30
0.0
  0
VERTEX
  5
AD1
  8
0
  6
CONTINUOUS
 62
     7
 10
-9.5792787430075634
 20
-48.2688002402067795
 30
0.0
  0
VERTEX
  5
AD2
  8
0
  6
CONTINUOUS
 62
     7
 10
-10.0094962568075498
 20
-48.0467290049067799
 30
0.0
  0
VERTEX
  5
AD3
  8
0
  6
CONTINUOUS
 62
     7
 10
-10.5273127780075502
 20
-47.9058567243067728
 30
0.0
  0
VERTEX
  5
AD4
  8
0
  6
CONTINUOUS
 62
     7
 10
-11.0907778917075408
 20
-47.8575960326067786
 30
0.0
  0
VERTEX
  5
AD5
  8
0
  6
CONTINUOUS
 62
     7
 10
-11.6542430054075599
 20
-47.9058567243067728
 30
0.0
  0
VERTEX
  5
AD6
  8
0
  6
CONTINUOUS
 62
     7
 10
-12.1720595266075495
 20
-48.0467290049067799
 30
0.0
  0
VERTEX
  5
AD7
  8
0
  6
CONTINUOUS
 62
     7
 10
-12.6022770404075608
 20
-48.2688002402067795
 30
0.0
  0
VERTEX
  5
AD8
  8
0
  6
CONTINUOUS
 62
     7
 10
-12.9100418824075707
 20
-48.5540795393067697
 30
0.0
  0
VERTEX
  5
AD9
  8
0
  6
CONTINUOUS
 62
     7
 10
-13.0704207755075608
 20
-48.8794552701067673
 30
0.0
  0
VERTEX
  5
ADA
  8
0
  6
CONTINUOUS
 62
     7
 10
-13.0704207755075608
 20
-49.2185674260067785
 30
0.0
  0
VERTEX
  5
ADB
  8
0
  6
CONTINUOUS
 62
     7
 10
-12.9100418824075707
 20
-49.5439431568067903
 30
0.0
  0
VERTEX
  5
ADC
  8
0
  6
CONTINUOUS
 62
     7
 10
-12.6022770404075608
 20
-49.8292224560067893
 30
0.0
  0
VERTEX
  5
ADD
  8
0
  6
CONTINUOUS
 62
     7
 10
-12.1720595266075495
 20
-50.0512936912067516
 30
0.0
  0
VERTEX
  5
ADE
  8
0
  6
CONTINUOUS
 62
     7
 10
-11.6542430054075599
 20
-50.1921659719067677
 30
0.0
  0
VERTEX
  5
ADF
  8
0
  6
CONTINUOUS
 62
     7
 10
-11.0907778917075408
 20
-50.2404266635067813
 30
0.0
  0
SEQEND
  5
AE0
  8
0
  6
CONTINUOUS
 62
     7
  0
LINE
  5
611
  8
0
  6
CONTINUOUS
 62
     7
 10
-13.5907778917075408
 20
-46.1060879252067934
 30
0.0
 11
-13.5907778917075408
 21
-40.1060879252067934
 31
0.0
  0
LINE
  5
612
  8
0
  6
CONTINUOUS
 62
     7
 10
-13.5907778917075408
 20
-40.1060879252067934
 30
0.0
 11
-13.5907778917075408
 21
-38.1060879252068005
 31
0.0
  0
LINE
  5
613
  8
0
  6
CONTINUOUS
 62
     7
 10
-13.5907778917075408
 20
-38.1060879252068005
 30
0.0
 11
-8.5907778917075461
 21
-38.1060879252068005
 31
0.0
  0
LINE
  5
614
  8
0
  6
CONTINUOUS
 62
     7
 10
-13.0907778917075497
 20
37.0939120747932307
 30
0.0
 11
-14.5907778917075408
 21
37.0939120747932307
 31
0.0
  0
LINE
  5
615
  8
0
  6
CONTINUOUS
 62
     7
 10
-13.0907778917075497
 20
31.0939120747932307
 30
0.0
 11
-13.0907778917075497
 21
37.0939120747932307
 31
0.0
  0
LINE
  5
616
  8
0
  6
CONTINUOUS
 62
     7
 10
-14.5907778917075408
 20
31.0939120747932307
 30
0.0
 11
-14.5907778917075408
 21
37.0939120747932307
 31
0.0
  0
LINE
  5
617
  8
0
  6
CONTINUOUS
 62
     7
 10
-13.0907778917075497
 20
29.0939120747932201
 30
0.0
 11
-14.5907778917075408
 21
29.0939120747932201
 31
0.0
  0
LINE
  5
618
  8
0
  6
CONTINUOUS
 62
     7
 10
-14.5907778917075408
 20
29.0939120747932201
 30
0.0
 11
-14.5907778917075408
 21
31.0939120747932307
 31
0.0
  0
LINE
  5
619
  8
0
  6
CONTINUOUS
 62
     7
 10
-13.0907778917075497
 20
31.0939120747932307
 30
0.0
 11
-13.0907778917075497
 21
29.0939120747932201
 31
0.0
  0
LINE
  5
61A
  8
0
  6
CONTINUOUS
 62
     7
 10
-13.0907778917075497
 20
45.9939120747932293
 30
0.0
 11
-14.5907778917075408
 21
45.9939120747932293
 31
0.0
  0
LINE
  5
61B
  8
0
  6
CONTINUOUS
 62
     7
 10
-14.5907778917075408
 20
37.0939120747932307
 30
0.0
 11
-14.5907778917075408
 21
45.9939120747932293
 31
0.0
  0
LINE
  5
61C
  8
0
  6
CONTINUOUS
 62
     7
 10
-13.0907778917075497
 20
37.0939120747932307
 30
0.0
 11
-13.0907778917075497
 21
45.9939120747932293
 31
0.0
  0
LINE
  5
61D
  8
0
  6
CONTINUOUS
 62
     7
 10
-9.5907778917075461
 20
31.0939120747932307
 30
0.0
 11
-9.5907778917075461
 21
29.0939120747932201
 31
0.0
  0
LINE
  5
61E
  8
0
  6
CONTINUOUS
 62
     7
 10
-9.5907778917075461
 20
29.0939120747932201
 30
0.0
 11
-13.0907778917075497
 21
29.0939120747932201
 31
0.0
  0
LINE
  5
61F
  8
0
  6
CONTINUOUS
 62
     7
 10
-9.5907778917075461
 20
37.0939120747932307
 30
0.0
 11
-13.0907778917075497
 21
37.0939120747932307
 31
0.0
  0
LINE
  5
620
  8
0
  6
CONTINUOUS
 62
     7
 10
-13.0907778917075497
 20
39.4950340616932465
 30
0.0
 11
-13.0907778917075497
 21
37.0939120747932307
 31
0.0
  0
ARC
  5
621
  8
0
  6
CONTINUOUS
 62
     7
 10
-11.3407778917075408
 20
41.5929682061931985
 30
0.0
 40
2.732000672554455
 50
230.1666927138003871
 51
309.8333072861996129
  0
LINE
  5
622
  8
0
  6
CONTINUOUS
 62
     7
 10
-9.5907778917075461
 20
39.4950340616932465
 30
0.0
 11
-9.5907778917075461
 21
37.0939120747932307
 31
0.0
  0
LINE
  5
623
  8
0
  6
CONTINUOUS
 62
     7
 10
-9.5907778917075461
 20
37.0939120747932307
 30
0.0
 11
-9.5907778917075461
 21
31.0939120747932307
 31
0.0
  0
ARC
  5
624
  8
0
  6
CONTINUOUS
 62
     7
 10
-11.3407778917075408
 20
38.5445051944932402
 30
0.0
 40
2.7320006725544488
 50
50.1666927138003587
 51
129.8333072861996129
  0
LINE
  5
625
  8
0
  6
CONTINUOUS
 62
     7
 10
-9.5907778917075461
 20
39.4950340616932465
 30
0.0
 11
-9.5907778917075461
 21
40.6424393390932082
 31
0.0
  0
ARC
  5
626
  8
0
  6
CONTINUOUS
 62
     7
 10
-11.3407778917075408
 20
46.0368497369932186
 30
0.0
 40
2.7320006725543582
 50
230.1666927138003871
 51
309.8333072863002826
  0
LINE
  5
627
  8
0
  6
CONTINUOUS
 62
     7
 10
-13.0907778917075497
 20
43.9389155924932311
 30
0.0
 11
-13.0907778917075497
 21
40.6424393390932082
 31
0.0
  0
LINE
  5
628
  8
0
  6
CONTINUOUS
 62
     7
 10
-9.5907778917075461
 20
43.9389155924932311
 30
0.0
 11
-9.5907778917075461
 21
40.6424393390932082
 31
0.0
  0
LINE
  5
629
  8
0
  6
CONTINUOUS
 62
     7
 10
-9.5907778917075461
 20
45.9939120747932293
 30
0.0
 11
-13.0907778917075497
 21
45.9939120747932293
 31
0.0
  0
ARC
  5
62A
  8
0
  6
CONTINUOUS
 62
     7
 10
-11.3407778917075408
 20
42.9883867253932408
 30
0.0
 40
2.7320006725543191
 50
50.1666927138003587
 51
129.8333072861996129
  0
LINE
  5
62B
  8
0
  6
CONTINUOUS
 62
     7
 10
-13.0907778917075497
 20
45.9939120747932293
 30
0.0
 11
-13.0907778917075497
 21
45.0863208698932212
 31
0.0
  0
LINE
  5
62C
  8
0
  6
CONTINUOUS
 62
     7
 10
-9.5907778917075461
 20
45.9939120747932293
 30
0.0
 11
-9.5907778917075461
 21
45.0863208698932212
 31
0.0
  0
LINE
  5
62D
  8
0
  6
CONTINUOUS
 62
     7
 10
-9.5907778917075461
 20
43.9389155924932311
 30
0.0
 11
-9.5907778917075461
 21
45.0863208698932212
 31
0.0
  0
LINE
  5
62E
  8
0
  6
CONTINUOUS
 62
     7
 10
-6.0907778917075461
 20
37.0939120747932307
 30
0.0
 11
-9.5907778917075461
 21
37.0939120747932307
 31
0.0
  0
LINE
  5
62F
  8
0
  6
CONTINUOUS
 62
     7
 10
-6.0907778917075461
 20
37.0939120747932307
 30
0.0
 11
-6.0907778917075461
 21
31.0939120747932307
 31
0.0
  0
LINE
  5
630
  8
0
  6
CONTINUOUS
 62
     7
 10
-6.0907778917075461
 20
31.0939120747932307
 30
0.0
 11
-6.0907778917075461
 21
29.0939120747932201
 31
0.0
  0
LINE
  5
631
  8
0
  6
CONTINUOUS
 62
     7
 10
-6.0907778917075461
 20
29.0939120747932201
 30
0.0
 11
-9.5907778917075461
 21
29.0939120747932201
 31
0.0
  0
ARC
  5
632
  8
0
  6
CONTINUOUS
 62
     7
 10
-7.8407778917075461
 20
41.5929682061931985
 30
0.0
 40
2.732000672554411
 50
230.1666927138003871
 51
309.8333072861996129
  0
LINE
  5
633
  8
0
  6
CONTINUOUS
 62
     7
 10
-6.0907778917075461
 20
39.4950340616932465
 30
0.0
 11
-6.0907778917075461
 21
37.0939120747932307
 31
0.0
  0
ARC
  5
634
  8
0
  6
CONTINUOUS
 62
     7
 10
-7.8407778917075461
 20
46.0368497369932186
 30
0.0
 40
2.7320006725544488
 50
230.1666927138003871
 51
309.8333072861996129
  0
ARC
  5
635
  8
0
  6
CONTINUOUS
 62
     7
 10
-7.8407778917075461
 20
38.5445051944932402
 30
0.0
 40
2.7320006725543191
 50
50.1666927138003587
 51
129.833307286300311
  0
LINE
  5
636
  8
0
  6
CONTINUOUS
 62
     7
 10
-6.0907778917075461
 20
43.9389155924932311
 30
0.0
 11
-6.0907778917075461
 21
40.6424393390932082
 31
0.0
  0
LINE
  5
637
  8
0
  6
CONTINUOUS
 62
     7
 10
-6.0907778917075461
 20
39.4950340616932465
 30
0.0
 11
-6.0907778917075461
 21
40.6424393390932082
 31
0.0
  0
LINE
  5
638
  8
0
  6
CONTINUOUS
 62
     7
 10
-6.0907778917075461
 20
45.9939120747932293
 30
0.0
 11
-9.5907778917075461
 21
45.9939120747932293
 31
0.0
  0
ARC
  5
639
  8
0
  6
CONTINUOUS
 62
     7
 10
-7.8407778917075461
 20
42.9883867253932408
 30
0.0
 40
2.732000672554376
 50
50.1666927138003587
 51
129.833307286300311
  0
LINE
  5
63A
  8
0
  6
CONTINUOUS
 62
     7
 10
-6.0907778917075461
 20
45.9939120747932293
 30
0.0
 11
-6.0907778917075461
 21
45.0863208698932212
 31
0.0
  0
LINE
  5
63B
  8
0
  6
CONTINUOUS
 62
     7
 10
-6.0907778917075461
 20
43.9389155924932311
 30
0.0
 11
-6.0907778917075461
 21
45.0863208698932212
 31
0.0
  0
LINE
  5
63C
  8
0
  6
CONTINUOUS
 62
     7
 10
-2.5907778917075461
 20
31.0939120747932307
 30
0.0
 11
-2.5907778917075461
 21
29.0939120747932201
 31
0.0
  0
LINE
  5
63D
  8
0
  6
CONTINUOUS
 62
     7
 10
-2.5907778917075461
 20
29.0939120747932201
 30
0.0
 11
-6.0907778917075461
 21
29.0939120747932201
 31
0.0
  0
LINE
  5
63E
  8
0
  6
CONTINUOUS
 62
     7
 10
-2.5907778917075461
 20
37.0939120747932307
 30
0.0
 11
-6.0907778917075461
 21
37.0939120747932307
 31
0.0
  0
ARC
  5
63F
  8
0
  6
CONTINUOUS
 62
     7
 10
-4.3407778917075461
 20
41.5929682061931985
 30
0.0
 40
2.7320006725543888
 50
230.1666927138003871
 51
309.8333072863002826
  0
LINE
  5
640
  8
0
  6
CONTINUOUS
 62
     7
 10
-2.5907778917075461
 20
39.4950340616932465
 30
0.0
 11
-2.5907778917075461
 21
37.0939120747932307
 31
0.0
  0
LINE
  5
641
  8
0
  6
CONTINUOUS
 62
     7
 10
-2.5907778917075461
 20
37.0939120747932307
 30
0.0
 11
-2.5907778917075461
 21
31.0939120747932307
 31
0.0
  0
ARC
  5
642
  8
0
  6
CONTINUOUS
 62
     7
 10
-4.3407778917075461
 20
46.0368497369932186
 30
0.0
 40
2.732000672554419
 50
230.1666927138003871
 51
309.8333072861996129
  0
ARC
  5
643
  8
0
  6
CONTINUOUS
 62
     7
 10
-4.3407778917075461
 20
38.5445051944932402
 30
0.0
 40
2.7320006725543959
 50
50.1666927138003587
 51
129.8333072861996129
  0
LINE
  5
644
  8
0
  6
CONTINUOUS
 62
     7
 10
-2.5907778917075461
 20
43.9389155924932311
 30
0.0
 11
-2.5907778917075461
 21
40.6424393390932082
 31
0.0
  0
LINE
  5
645
  8
0
  6
CONTINUOUS
 62
     7
 10
-2.5907778917075461
 20
39.4950340616932465
 30
0.0
 11
-2.5907778917075461
 21
40.6424393390932082
 31
0.0
  0
ARC
  5
646
  8
0
  6
CONTINUOUS
 62
     7
 10
-4.3407778917075461
 20
42.9883867253932408
 30
0.0
 40
2.7320006725543839
 50
50.1666927138003587
 51
129.8333072861996129
  0
LINE
  5
647
  8
0
  6
CONTINUOUS
 62
     7
 10
-2.5907778917075461
 20
43.9389155924932311
 30
0.0
 11
-2.5907778917075461
 21
45.0863208698932212
 31
0.0
  0
LINE
  5
648
  8
0
  6
CONTINUOUS
 62
     7
 10
-2.5907778917075461
 20
45.9939120747932293
 30
0.0
 11
-6.0907778917075461
 21
45.9939120747932293
 31
0.0
  0
LINE
  5
649
  8
0
  6
CONTINUOUS
 62
     7
 10
-2.5907778917075461
 20
45.9939120747932293
 30
0.0
 11
-2.5907778917075461
 21
45.0863208698932212
 31
0.0
  0
LINE
  5
64A
  8
0
  6
CONTINUOUS
 62
     7
 10
0.9092221082924538
 20
29.0939120747932201
 30
0.0
 11
-2.5907778917075461
 21
29.0939120747932201
 31
0.0
  0
LINE
  5
64B
  8
0
  6
CONTINUOUS
 62
     7
 10
0.9092221082924538
 20
31.0939120747932307
 30
0.0
 11
0.9092221082924538
 21
29.0939120747932201
 31
0.0
  0
LINE
  5
64C
  8
0
  6
CONTINUOUS
 62
     7
 10
0.9092221082924538
 20
37.0939120747932307
 30
0.0
 11
-2.5907778917075461
 21
37.0939120747932307
 31
0.0
  0
ARC
  5
64D
  8
0
  6
CONTINUOUS
 62
     7
 10
-0.8407778917075461
 20
41.5929682061931985
 30
0.0
 40
2.7320006725544488
 50
230.1666927138003871
 51
309.8333072861996129
  0
LINE
  5
64E
  8
0
  6
CONTINUOUS
 62
     7
 10
0.9092221082924538
 20
39.4950340616932465
 30
0.0
 11
0.9092221082924538
 21
37.0939120747932307
 31
0.0
  0
LINE
  5
64F
  8
0
  6
CONTINUOUS
 62
     7
 10
0.9092221082924538
 20
37.0939120747932307
 30
0.0
 11
0.9092221082924538
 21
31.0939120747932307
 31
0.0
  0
ARC
  5
650
  8
0
  6
CONTINUOUS
 62
     7
 10
-0.8407778917075461
 20
38.5445051944932402
 30
0.0
 40
2.7320006725544328
 50
50.1666927138003587
 51
129.8333072861996129
  0
LINE
  5
651
  8
0
  6
CONTINUOUS
 62
     7
 10
0.9092221082924538
 20
39.4950340616932465
 30
0.0
 11
0.9092221082924538
 21
40.6424393390932082
 31
0.0
  0
ARC
  5
652
  8
0
  6
CONTINUOUS
 62
     7
 10
-0.8407778917075461
 20
46.0368497369932186
 30
0.0
 40
2.7320006725543919
 50
230.1666927138003871
 51
309.8333072863002826
  0
LINE
  5
653
  8
0
  6
CONTINUOUS
 62
     7
 10
0.9092221082924538
 20
43.9389155924932311
 30
0.0
 11
0.9092221082924538
 21
40.6424393390932082
 31
0.0
  0
LINE
  5
654
  8
0
  6
CONTINUOUS
 62
     7
 10
0.9092221082924538
 20
45.9939120747932293
 30
0.0
 11
-2.5907778917075461
 21
45.9939120747932293
 31
0.0
  0
ARC
  5
655
  8
0
  6
CONTINUOUS
 62
     7
 10
-0.8407778917075461
 20
42.9883867253932408
 30
0.0
 40
2.732000672554423
 50
50.1666927138003587
 51
129.8333072861996129
  0
LINE
  5
656
  8
0
  6
CONTINUOUS
 62
     7
 10
0.9092221082924538
 20
45.9939120747932293
 30
0.0
 11
0.9092221082924538
 21
45.0863208698932212
 31
0.0
  0
LINE
  5
657
  8
0
  6
CONTINUOUS
 62
     7
 10
0.9092221082924538
 20
43.9389155924932311
 30
0.0
 11
0.9092221082924538
 21
45.0863208698932212
 31
0.0
  0
LINE
  5
658
  8
0
  6
CONTINUOUS
 62
     7
 10
4.409222108292453
 20
37.0939120747932307
 30
0.0
 11
0.9092221082924538
 21
37.0939120747932307
 31
0.0
  0
ARC
  5
659
  8
0
  6
CONTINUOUS
 62
     7
 10
2.659222108292453
 20
41.5929682061931985
 30
0.0
 40
2.7320006725544048
 50
230.1666927138003871
 51
309.8333072863002826
  0
LINE
  5
65A
  8
0
  6
CONTINUOUS
 62
     7
 10
4.409222108292453
 20
39.4950340616932465
 30
0.0
 11
4.409222108292453
 21
37.0939120747932307
 31
0.0
  0
LINE
  5
65B
  8
0
  6
CONTINUOUS
 62
     7
 10
4.409222108292453
 20
29.0939120747932201
 30
0.0
 11
0.9092221082924538
 21
29.0939120747932201
 31
0.0
  0
LINE
  5
65C
  8
0
  6
CONTINUOUS
 62
     7
 10
4.409222108292453
 20
31.0939120747932307
 30
0.0
 11
4.409222108292453
 21
29.0939120747932201
 31
0.0
  0
LINE
  5
65D
  8
0
  6
CONTINUOUS
 62
     7
 10
4.409222108292453
 20
37.0939120747932307
 30
0.0
 11
4.409222108292453
 21
31.0939120747932307
 31
0.0
  0
ARC
  5
65E
  8
0
  6
CONTINUOUS
 62
     7
 10
2.659222108292453
 20
46.0368497369932186
 30
0.0
 40
2.7320006725543609
 50
230.1666927138003871
 51
309.8333072863002826
  0
ARC
  5
65F
  8
0
  6
CONTINUOUS
 62
     7
 10
2.659222108292453
 20
38.5445051944932402
 30
0.0
 40
2.7320006725543888
 50
50.1666927138003587
 51
129.8333072861996129
  0
LINE
  5
660
  8
0
  6
CONTINUOUS
 62
     7
 10
4.409222108292453
 20
43.9389155924932311
 30
0.0
 11
4.409222108292453
 21
40.6424393390932082
 31
0.0
  0
LINE
  5
661
  8
0
  6
CONTINUOUS
 62
     7
 10
4.409222108292453
 20
39.4950340616932465
 30
0.0
 11
4.409222108292453
 21
40.6424393390932082
 31
0.0
  0
LINE
  5
662
  8
0
  6
CONTINUOUS
 62
     7
 10
4.409222108292453
 20
45.9939120747932293
 30
0.0
 11
0.9092221082924538
 21
45.9939120747932293
 31
0.0
  0
ARC
  5
663
  8
0
  6
CONTINUOUS
 62
     7
 10
2.659222108292453
 20
42.9883867253932408
 30
0.0
 40
2.7320006725543089
 50
50.1666927138003587
 51
129.833307286300311
  0
LINE
  5
664
  8
0
  6
CONTINUOUS
 62
     7
 10
4.409222108292453
 20
45.9939120747932293
 30
0.0
 11
4.409222108292453
 21
45.0863208698932212
 31
0.0
  0
LINE
  5
665
  8
0
  6
CONTINUOUS
 62
     7
 10
4.409222108292453
 20
43.9389155924932311
 30
0.0
 11
4.409222108292453
 21
45.0863208698932212
 31
0.0
  0
LINE
  5
666
  8
0
  6
CONTINUOUS
 62
     7
 10
7.909222108292453
 20
29.0939120747932201
 30
0.0
 11
4.409222108292453
 21
29.0939120747932201
 31
0.0
  0
LINE
  5
667
  8
0
  6
CONTINUOUS
 62
     7
 10
7.909222108292453
 20
31.0939120747932307
 30
0.0
 11
7.909222108292453
 21
29.0939120747932201
 31
0.0
  0
LINE
  5
668
  8
0
  6
CONTINUOUS
 62
     7
 10
7.909222108292453
 20
37.0939120747932307
 30
0.0
 11
4.409222108292453
 21
37.0939120747932307
 31
0.0
  0
LINE
  5
669
  8
0
  6
CONTINUOUS
 62
     7
 10
7.909222108292453
 20
37.0939120747932307
 30
0.0
 11
7.909222108292453
 21
31.0939120747932307
 31
0.0
  0
ARC
  5
66A
  8
0
  6
CONTINUOUS
 62
     7
 10
6.159222108292453
 20
41.5929682061931985
 30
0.0
 40
2.7320006725544328
 50
230.1666927138003871
 51
309.8333072861996129
  0
LINE
  5
66B
  8
0
  6
CONTINUOUS
 62
     7
 10
7.909222108292453
 20
39.4950340616932465
 30
0.0
 11
7.909222108292453
 21
37.0939120747932307
 31
0.0
  0
ARC
  5
66C
  8
0
  6
CONTINUOUS
 62
     7
 10
6.159222108292453
 20
38.5445051944932402
 30
0.0
 40
2.7320006725543662
 50
50.1666927138003587
 51
129.833307286300311
  0
LINE
  5
66D
  8
0
  6
CONTINUOUS
 62
     7
 10
7.909222108292453
 20
39.4950340616932465
 30
0.0
 11
7.909222108292453
 21
40.6424393390932082
 31
0.0
  0
ARC
  5
66E
  8
0
  6
CONTINUOUS
 62
     7
 10
6.159222108292453
 20
46.0368497369932186
 30
0.0
 40
2.7320006725544621
 50
230.1666927138003871
 51
309.8333072861996129
  0
LINE
  5
66F
  8
0
  6
CONTINUOUS
 62
     7
 10
7.909222108292453
 20
43.9389155924932311
 30
0.0
 11
7.909222108292453
 21
40.6424393390932082
 31
0.0
  0
ARC
  5
670
  8
0
  6
CONTINUOUS
 62
     7
 10
6.159222108292453
 20
42.9883867253932408
 30
0.0
 40
2.7320006725543449
 50
50.1666927138003587
 51
129.833307286300311
  0
LINE
  5
671
  8
0
  6
CONTINUOUS
 62
     7
 10
7.909222108292453
 20
43.9389155924932311
 30
0.0
 11
7.909222108292453
 21
45.0863208698932212
 31
0.0
  0
LINE
  5
672
  8
0
  6
CONTINUOUS
 62
     7
 10
7.909222108292453
 20
45.9939120747932293
 30
0.0
 11
4.409222108292453
 21
45.9939120747932293
 31
0.0
  0
LINE
  5
673
  8
0
  6
CONTINUOUS
 62
     7
 10
7.909222108292453
 20
45.9939120747932293
 30
0.0
 11
7.909222108292453
 21
45.0863208698932212
 31
0.0
  0
LINE
  5
674
  8
0
  6
CONTINUOUS
 62
     7
 10
11.4092221082924503
 20
37.0939120747932307
 30
0.0
 11
7.909222108292453
 21
37.0939120747932307
 31
0.0
  0
LINE
  5
675
  8
0
  6
CONTINUOUS
 62
     7
 10
11.4092221082924503
 20
37.0939120747932307
 30
0.0
 11
11.4092221082924503
 21
31.0939120747932307
 31
0.0
  0
ARC
  5
676
  8
0
  6
CONTINUOUS
 62
     7
 10
9.6592221082924539
 20
41.5929682061931985
 30
0.0
 40
2.732000672554455
 50
230.1666927138003871
 51
309.8333072861996129
  0
LINE
  5
677
  8
0
  6
CONTINUOUS
 62
     7
 10
11.4092221082924503
 20
39.4950340616932465
 30
0.0
 11
11.4092221082924503
 21
37.0939120747932307
 31
0.0
  0
LINE
  5
678
  8
0
  6
CONTINUOUS
 62
     7
 10
11.4092221082924503
 20
29.0939120747932201
 30
0.0
 11
7.909222108292453
 21
29.0939120747932201
 31
0.0
  0
LINE
  5
679
  8
0
  6
CONTINUOUS
 62
     7
 10
11.4092221082924503
 20
31.0939120747932307
 30
0.0
 11
11.4092221082924503
 21
29.0939120747932201
 31
0.0
  0
ARC
  5
67A
  8
0
  6
CONTINUOUS
 62
     7
 10
9.6592221082924539
 20
46.0368497369932186
 30
0.0
 40
2.7320006725543711
 50
230.1666927138003871
 51
309.8333072863002826
  0
ARC
  5
67B
  8
0
  6
CONTINUOUS
 62
     7
 10
9.6592221082924539
 20
38.5445051944932402
 30
0.0
 40
2.7320006725544852
 50
50.1666927138003587
 51
129.8333072861996129
  0
LINE
  5
67C
  8
0
  6
CONTINUOUS
 62
     7
 10
11.4092221082924503
 20
43.9389155924932311
 30
0.0
 11
11.4092221082924503
 21
40.6424393390932082
 31
0.0
  0
LINE
  5
67D
  8
0
  6
CONTINUOUS
 62
     7
 10
11.4092221082924503
 20
39.4950340616932465
 30
0.0
 11
11.4092221082924503
 21
40.6424393390932082
 31
0.0
  0
ARC
  5
67E
  8
0
  6
CONTINUOUS
 62
     7
 10
9.6592221082924539
 20
42.9883867253932408
 30
0.0
 40
2.7320006725544359
 50
50.1666927138003587
 51
129.8333072861996129
  0
LINE
  5
67F
  8
0
  6
CONTINUOUS
 62
     7
 10
11.4092221082924503
 20
43.9389155924932311
 30
0.0
 11
11.4092221082924503
 21
45.0863208698932212
 31
0.0
  0
LINE
  5
680
  8
0
  6
CONTINUOUS
 62
     7
 10
11.4092221082924503
 20
45.9939120747932293
 30
0.0
 11
7.909222108292453
 21
45.9939120747932293
 31
0.0
  0
LINE
  5
681
  8
0
  6
CONTINUOUS
 62
     7
 10
11.4092221082924503
 20
45.9939120747932293
 30
0.0
 11
11.4092221082924503
 21
45.0863208698932212
 31
0.0
  0
LINE
  5
682
  8
0
  6
CONTINUOUS
 62
     7
 10
10.9092221082924503
 20
-38.1060879252068005
 30
0.0
 11
10.9092221082924503
 21
-37.9694322888067575
 31
0.0
  0
LINE
  5
683
  8
0
  6
CONTINUOUS
 62
     7
 10
-13.0907778917075497
 20
-37.9694322888067575
 30
0.0
 11
-13.0907778917075497
 21
-38.1060879252068005
 31
0.0
  0
LINE
  5
684
  8
0
  6
CONTINUOUS
 62
     7
 10
10.9092221082924503
 20
28.9572564384932605
 30
0.0
 11
10.9092221082924503
 21
29.0939120747932201
 31
0.0
  0
LINE
  5
685
  8
0
  6
CONTINUOUS
 62
     7
 10
-13.0907778917075497
 20
29.0939120747932201
 30
0.0
 11
-13.0907778917075497
 21
28.9572564384932605
 31
0.0
  0
LINE
  5
686
  8
0
  6
CONTINUOUS
 62
     7
 10
11.4092221082924503
 20
43.2939120747932122
 30
0.0
 11
12.7092221082924297
 21
43.2939120747932122
 31
0.0
  0
LINE
  5
687
  8
0
  6
CONTINUOUS
 62
     7
 10
-0.3407778917075461
 20
46.4939120747932293
 30
0.0
 11
-0.3407778917075461
 21
46.3939120747931995
 31
0.0
  0
LINE
  5
688
  8
0
  6
CONTINUOUS
 62
     7
 10
-1.8407778917075459
 20
46.3939120747931995
 30
0.0
 11
-1.8407778917075459
 21
46.4939120747932293
 31
0.0
  0
LINE
  5
689
  8
0
  6
CONTINUOUS
 62
     7
 10
-13.5907778917075408
 20
46.4939120747932293
 30
0.0
 11
-13.5907778917075408
 21
45.9939120747932293
 31
0.0
  0
LINE
  5
68A
  8
0
  6
CONTINUOUS
 62
     7
 10
-14.5907778917075408
 20
39.6939120747932179
 30
0.0
 11
-14.8907778917075593
 21
39.6939120747932179
 31
0.0
  0
LINE
  5
68B
  8
0
  6
CONTINUOUS
 62
     7
 10
-14.5907778917075408
 20
29.2939120747932087
 30
0.0
 11
-15.0907778917075408
 21
29.2939120747932087
 31
0.0
  0
LINE
  5
68C
  8
0
  6
CONTINUOUS
 62
     7
 10
-15.0907778917075408
 20
47.4939120747932222
 30
0.0
 11
-15.0907778917075408
 21
29.2939120747932087
 31
0.0
  0
ARC
  5
68D
  8
0
  6
CONTINUOUS
 62
     7
 10
-14.5907778917075408
 20
47.4939120747932222
 30
0.0
 40
0.5
 50
90.0
 51
180.0
  0
LINE
  5
68E
  8
0
  6
CONTINUOUS
 62
     7
 10
12.4092221082924503
 20
47.9939120747932293
 30
0.0
 11
-14.5907778917075408
 21
47.9939120747932293
 31
0.0
  0
ARC
  5
68F
  8
0
  6
CONTINUOUS
 62
     7
 10
12.4092221082924503
 20
47.4939120747932222
 30
0.0
 40
0.5
 50
0.0
 51
90.0
  0
LINE
  5
690
  8
0
  6
CONTINUOUS
 62
     7
 10
12.9092221082924503
 20
29.2939120747932087
 30
0.0
 11
12.9092221082924503
 21
47.4939120747932222
 31
0.0
  0
LINE
  5
691
  8
0
  6
CONTINUOUS
 62
     7
 10
12.9092221082924503
 20
29.2939120747932087
 30
0.0
 11
11.4092221082924503
 21
29.2939120747932087
 31
0.0
  0
LINE
  5
692
  8
0
  6
CONTINUOUS
 62
     7
 10
12.7092221082924297
 20
39.6939120747932179
 30
0.0
 11
11.4092221082924503
 21
39.6939120747932179
 31
0.0
  0
LINE
  5
693
  8
0
  6
CONTINUOUS
 62
     7
 10
11.4092221082924503
 20
45.9939120747932293
 30
0.0
 11
11.4092221082924503
 21
46.4939120747932293
 31
0.0
  0
LINE
  5
694
  8
0
  6
CONTINUOUS
 62
     7
 10
-14.8907778917075593
 20
43.2939120747932122
 30
0.0
 11
-14.5907778917075408
 21
43.2939120747932122
 31
0.0
  0
LINE
  5
695
  8
0
  6
CONTINUOUS
 62
     7
 10
-1.8407778917075459
 20
46.4939120747932293
 30
0.0
 11
-13.5907778917075408
 21
46.4939120747932293
 31
0.0
  0
LINE
  5
696
  8
0
  6
CONTINUOUS
 62
     7
 10
11.4092221082924503
 20
46.4939120747932293
 30
0.0
 11
-0.3407778917075461
 21
46.4939120747932293
 31
0.0
  0
LINE
  5
697
  8
0
  6
CONTINUOUS
 62
     7
 10
-0.3407778917075461
 20
46.0939120747932165
 30
0.0
 11
-1.8407778917075459
 21
46.0939120747932165
 31
0.0
  0
LINE
  5
698
  8
0
  6
CONTINUOUS
 62
     7
 10
-0.3407778917075461
 20
46.3939120747931995
 30
0.0
 11
-0.3407778917075461
 21
46.0939120747932165
 31
0.0
  0
LINE
  5
699
  8
0
  6
CONTINUOUS
 62
     7
 10
-1.8407778917075459
 20
46.0939120747932165
 30
0.0
 11
-1.8407778917075459
 21
46.3939120747931995
 31
0.0
  0
LINE
  5
69A
  8
0
  6
CONTINUOUS
 62
     7
 10
-13.5907778917075408
 20
-52.3060879252067821
 30
0.0
 11
-14.8907778917075593
 21
-52.3060879252067821
 31
0.0
  0
LINE
  5
69B
  8
0
  6
CONTINUOUS
 62
     7
 10
-13.5907778917075408
 20
-55.5060879252067707
 30
0.0
 11
-1.8407778917075459
 21
-55.5060879252067707
 31
0.0
  0
LINE
  5
69C
  8
0
  6
CONTINUOUS
 62
     7
 10
-1.8407778917075459
 20
-55.5060879252067707
 30
0.0
 11
-1.8407778917075459
 21
-55.4060879252067835
 31
0.0
  0
LINE
  5
69D
  8
0
  6
CONTINUOUS
 62
     7
 10
-0.3407778917075461
 20
-55.5060879252067707
 30
0.0
 11
11.4092221082924503
 21
-55.5060879252067707
 31
0.0
  0
LINE
  5
69E
  8
0
  6
CONTINUOUS
 62
     7
 10
12.9092221082924503
 20
-56.5060879252067707
 30
0.0
 11
12.9092221082924503
 21
-55.0060879252067707
 31
0.0
  0
LINE
  5
69F
  8
0
  6
CONTINUOUS
 62
     7
 10
-14.8907778917075593
 20
-48.7060879252067878
 30
0.0
 11
-13.5907778917075408
 21
-48.7060879252067878
 31
0.0
  0
LINE
  5
6A0
  8
0
  6
CONTINUOUS
 62
     7
 10
-15.0907778917075408
 20
-38.3060879252067821
 30
0.0
 11
-15.0907778917075408
 21
-56.5060879252067707
 31
0.0
  0
ARC
  5
6A1
  8
0
  6
CONTINUOUS
 62
     7
 10
12.4092221082924503
 20
-56.5060879252067707
 30
0.0
 40
0.5
 50
270.0
 51
0.0
  0
LINE
  5
6A2
  8
0
  6
CONTINUOUS
 62
     7
 10
-15.0907778917075408
 20
-38.3060879252067821
 30
0.0
 11
-13.5907778917075408
 21
-38.3060879252067821
 31
0.0
  0
LINE
  5
6A3
  8
0
  6
CONTINUOUS
 62
     7
 10
-14.5907778917075408
 20
-57.0060879252067707
 30
0.0
 11
12.4092221082924503
 21
-57.0060879252067707
 31
0.0
  0
LINE
  5
6A4
  8
0
  6
CONTINUOUS
 62
     7
 10
-13.5907778917075408
 20
-55.0060879252067707
 30
0.0
 11
-13.5907778917075408
 21
-55.5060879252067707
 31
0.0
  0
LINE
  5
6A5
  8
0
  6
CONTINUOUS
 62
     7
 10
-0.3407778917075461
 20
-55.4060879252067835
 30
0.0
 11
-0.3407778917075461
 21
-55.5060879252067707
 31
0.0
  0
LINE
  5
6A6
  8
0
  6
CONTINUOUS
 62
     7
 10
11.4092221082924503
 20
-55.5060879252067707
 30
0.0
 11
11.4092221082924503
 21
-55.0060879252067707
 31
0.0
  0
ARC
  5
6A7
  8
0
  6
CONTINUOUS
 62
     7
 10
-14.5907778917075408
 20
-56.5060879252067707
 30
0.0
 40
0.5
 50
180.0
 51
270.0
  0
LINE
  5
6A8
  8
0
  6
CONTINUOUS
 62
     7
 10
-1.8407778917075459
 20
-55.1060879252067934
 30
0.0
 11
-0.3407778917075461
 21
-55.1060879252067934
 31
0.0
  0
LINE
  5
6A9
  8
0
  6
CONTINUOUS
 62
     7
 10
-1.8407778917075459
 20
-55.4060879252067835
 30
0.0
 11
-1.8407778917075459
 21
-55.1060879252067934
 31
0.0
  0
LINE
  5
6AA
  8
0
  6
CONTINUOUS
 62
     7
 10
-0.3407778917075461
 20
-55.1060879252067934
 30
0.0
 11
-0.3407778917075461
 21
-55.4060879252067835
 31
0.0
  0
LINE
  5
6AB
  8
0
  6
CONTINUOUS
 62
     7
 10
-14.3907778917075593
 20
-48.7060879252067878
 30
0.0
 11
-14.3907778917075593
 21
-52.3060879252067821
 31
0.0
  0
LINE
  5
6AC
  8
0
  6
CONTINUOUS
 62
     7
 10
12.2092221082924492
 20
39.6939120747932179
 30
0.0
 11
12.2092221082924492
 21
43.2939120747932122
 31
0.0
  0
LINE
  5
6AD
  8
0
  6
CONTINUOUS
 62
     7
 10
-1.8407778917075459
 20
-55.0060879252067707
 30
0.0
 11
-1.8407778917075459
 21
-55.1060879252067934
 31
0.0
  0
LINE
  5
6AE
  8
0
  6
CONTINUOUS
 62
     7
 10
-0.3407778917075461
 20
-55.1060879252067934
 30
0.0
 11
-0.3407778917075461
 21
-55.0060879252067707
 31
0.0
  0
LINE
  5
6AF
  8
0
  6
CONTINUOUS
 62
     7
 10
-0.3407778917075461
 20
45.9939120747932293
 30
0.0
 11
-0.3407778917075461
 21
46.0939120747932165
 31
0.0
  0
LINE
  5
6B0
  8
0
  6
CONTINUOUS
 62
     7
 10
-1.8407778917075459
 20
46.0939120747932165
 30
0.0
 11
-1.8407778917075459
 21
45.9939120747932293
 31
0.0
  0
LINE
  5
6B1
  8
0
  6
CONTINUOUS
 62
     7
 10
-6.6407778917075566
 20
-55.0060879252067707
 30
0.0
 11
-6.6407778917075566
 21
-55.5060879252067707
 31
0.0
  0
LINE
  5
6B2
  8
0
  6
CONTINUOUS
 62
     7
 10
4.459222108292451
 20
-55.5060879252067707
 30
0.0
 11
4.459222108292451
 21
-55.0060879252067707
 31
0.0
  0
LINE
  5
6B3
  8
0
  6
CONTINUOUS
 62
     7
 10
-15.0907778917075408
 20
28.4938359107932513
 30
0.0
 11
-15.0907778917075408
 21
29.2939120747932087
 31
0.0
  0
LINE
  5
6B4
  8
0
  6
CONTINUOUS
 62
     7
 10
-13.5907778917075408
 20
29.0939120747932201
 30
0.0
 11
-13.5907778917075408
 21
28.9572564384932605
 31
0.0
  0
LINE
  5
6B5
  8
0
  6
CONTINUOUS
 62
     7
 10
11.4092221082924503
 20
28.9572564384932605
 30
0.0
 11
11.4092221082924503
 21
29.0939120747932201
 31
0.0
  0
LINE
  5
6B6
  8
0
  6
CONTINUOUS
 62
     7
 10
12.9092221082924503
 20
29.2939120747932087
 30
0.0
 11
12.9092221082924503
 21
28.4938359107932513
 31
0.0
  0
LINE
  5
6B7
  8
0
  6
CONTINUOUS
 62
     7
 10
8.459222108292451
 20
-55.0060879252067707
 30
0.0
 11
8.459222108292451
 21
-55.5060879252067707
 31
0.0
  0
LINE
  5
6B8
  8
0
  6
CONTINUOUS
 62
     7
 10
7.0592221082924453
 20
-55.5060879252067707
 30
0.0
 11
7.0592221082924453
 21
-55.0060879252067707
 31
0.0
  0
LINE
  5
6B9
  8
0
  6
CONTINUOUS
 62
     7
 10
-9.2407778917075518
 20
-55.0060879252067707
 30
0.0
 11
-9.2407778917075518
 21
-55.5060879252067707
 31
0.0
  0
LINE
  5
6BA
  8
0
  6
CONTINUOUS
 62
     7
 10
-10.6407778917075593
 20
-55.5060879252067707
 30
0.0
 11
-10.6407778917075593
 21
-55.0060879252067707
 31
0.0
  0
LINE
  5
6BB
  8
0
  6
CONTINUOUS
 62
     7
 10
-13.5907778917075408
 20
-37.9694322888067575
 30
0.0
 11
-13.5907778917075408
 21
-38.1060879252068005
 31
0.0
  0
LINE
  5
6BC
  8
0
  6
CONTINUOUS
 62
     7
 10
-15.0907778917075408
 20
-38.3060879252067821
 30
0.0
 11
-15.0907778917075408
 21
-37.5060117612067714
 31
0.0
  0
LINE
  5
6BD
  8
0
  6
CONTINUOUS
 62
     7
 10
12.9092221082924503
 20
-37.5060117612067714
 30
0.0
 11
12.9092221082924503
 21
-38.1060879252068005
 31
0.0
  0
LINE
  5
6BE
  8
0
  6
CONTINUOUS
 62
     7
 10
11.4092221082924503
 20
-38.1060879252068005
 30
0.0
 11
11.4092221082924503
 21
-37.9694322888067575
 31
0.0
  0
LINE
  5
6DD
  8
0
  6
PHANTOM
 62
     8
 10
12.9092221082924503
 20
-40.1060879252067934
 30
0.0
 11
11.4092221082924503
 21
-40.1060879252067934
 31
0.0
  0
LINE
  5
6DE
  8
0
  6
PHANTOM
 62
     8
 10
6.409222108292453
 20
-40.1060879252067934
 30
0.0
 11
11.4092221082924503
 21
-40.1060879252067934
 31
0.0
  0
LINE
  5
6DF
  8
0
  6
PHANTOM
 62
     8
 10
1.409222108292453
 20
-40.1060879252067934
 30
0.0
 11
6.409222108292453
 21
-40.1060879252067934
 31
0.0
  0
LINE
  5
6E0
  8
0
  6
PHANTOM
 62
     8
 10
-3.5907778917075461
 20
-40.1060879252067934
 30
0.0
 11
1.409222108292453
 21
-40.1060879252067934
 31
0.0
  0
LINE
  5
6E1
  8
0
  6
PHANTOM
 62
     8
 10
-8.5907778917075461
 20
-40.1060879252067934
 30
0.0
 11
-3.5907778917075461
 21
-40.1060879252067934
 31
0.0
  0
LINE
  5
6E2
  8
0
  6
PHANTOM
 62
     8
 10
-13.5907778917075408
 20
-40.1060879252067934
 30
0.0
 11
-8.5907778917075461
 21
-40.1060879252067934
 31
0.0
  0
LINE
  5
6E3
  8
0
  6
PHANTOM
 62
     8
 10
-14.5907778917075408
 20
31.0939120747932307
 30
0.0
 11
-13.0907778917075497
 21
31.0939120747932307
 31
0.0
  0
LINE
  5
6E4
  8
0
  6
PHANTOM
 62
     8
 10
-9.5907778917075461
 20
31.0939120747932307
 30
0.0
 11
-13.0907778917075497
 21
31.0939120747932307
 31
0.0
  0
LINE
  5
6E5
  8
0
  6
PHANTOM
 62
     8
 10
-6.0907778917075461
 20
31.0939120747932307
 30
0.0
 11
-9.5907778917075461
 21
31.0939120747932307
 31
0.0
  0
LINE
  5
6E6
  8
0
  6
PHANTOM
 62
     8
 10
-2.5907778917075461
 20
31.0939120747932307
 30
0.0
 11
-6.0907778917075461
 21
31.0939120747932307
 31
0.0
  0
LINE
  5
6E7
  8
0
  6
PHANTOM
 62
     8
 10
0.9092221082924538
 20
31.0939120747932307
 30
0.0
 11
-2.5907778917075461
 21
31.0939120747932307
 31
0.0
  0
LINE
  5
6E8
  8
0
  6
PHANTOM
 62
     8
 10
4.409222108292453
 20
31.0939120747932307
 30
0.0
 11
0.9092221082924538
 21
31.0939120747932307
 31
0.0
  0
LINE
  5
6E9
  8
0
  6
PHANTOM
 62
     8
 10
7.909222108292453
 20
31.0939120747932307
 30
0.0
 11
4.409222108292453
 21
31.0939120747932307
 31
0.0
  0
LINE
  5
6EA
  8
0
  6
PHANTOM
 62
     8
 10
11.4092221082924503
 20
31.0939120747932307
 30
0.0
 11
7.909222108292453
 21
31.0939120747932307
 31
0.0
  0
LINE
  5
6EB
  8
0
  6
PHANTOM
 62
     8
 10
-1.8407778917075459
 20
46.3939120747931995
 30
0.0
 11
-0.3407778917075461
 21
46.3939120747931995
 31
0.0
  0
LINE
  5
6EC
  8
0
  6
PHANTOM
 62
     8
 10
-14.8907778917075593
 20
39.6939120747932179
 30
0.0
 11
-14.8907778917075593
 21
43.2939120747932122
 31
0.0
  0
LINE
  5
6ED
  8
0
  6
PHANTOM
 62
     8
 10
12.7092221082924297
 20
43.2939120747932122
 30
0.0
 11
12.7092221082924297
 21
39.6939120747932179
 31
0.0
  0
LINE
  5
6EE
  8
0
  6
PHANTOM
 62
     8
 10
-0.3407778917075461
 20
-55.4060879252067835
 30
0.0
 11
-1.8407778917075459
 21
-55.4060879252067835
 31
0.0
  0
LINE
  5
6EF
  8
0
  6
PHANTOM
 62
     8
 10
-14.8907778917075593
 20
-52.3060879252067821
 30
0.0
 11
-14.8907778917075593
 21
-48.7060879252067878
 31
0.0
  0
LINE
  5
6F3
  8
0
  6
CONTINUOUS
 62
     7
 10
83.8187596903924543
 20
-60.9060879252067693
 30
0.0
 11
89.8187596903924543
 21
-60.9060879252067693
 31
0.0
  0
LINE
  5
6F4
  8
0
  6
CONTINUOUS
 62
     7
 10
83.3187596903924543
 20
-52.0060879252067707
 30
0.0
 11
81.8187596903924543
 21
-52.0060879252067707
 31
0.0
  0
LINE
  5
709
  8
0
  6
CONTINUOUS
 62
     7
 10
88.3187596903924543
 20
-20.2560879252067707
 30
0.0
 11
89.8187596903924543
 21
-23.472848306006771
 31
0.0
  0
LINE
  5
70A
  8
0
  6
CONTINUOUS
 62
     7
 10
89.8187596903924543
 20
-23.472848306006771
 30
0.0
 11
89.8187596903924543
 21
-23.7560879252067707
 31
0.0
  0
LINE
  5
70B
  8
0
  6
CONTINUOUS
 62
     7
 10
89.8187596903924543
 20
-56.5060879252067707
 30
0.0
 11
89.8187596903924543
 21
-59.5703301491067805
 31
0.0
  0
LINE
  5
70C
  8
0
  6
CONTINUOUS
 62
     7
 10
89.8187596903924543
 20
-59.5703301491067805
 30
0.0
 11
83.8187596903924543
 21
-59.5703301491067805
 31
0.0
  0
LINE
  5
70D
  8
0
  6
CONTINUOUS
 62
     7
 10
83.8187596903924543
 20
-59.5703301491067805
 30
0.0
 11
83.8187596903924543
 21
-57.9172369905067725
 31
0.0
  0
LINE
  5
70E
  8
0
  6
CONTINUOUS
 62
     7
 10
83.8187596903924543
 20
-57.9172369905067725
 30
0.0
 11
85.8187596903924543
 21
-57.9172369905067725
 31
0.0
  0
LINE
  5
70F
  8
0
  6
CONTINUOUS
 62
     7
 10
85.8187596903924543
 20
-21.7560879252067707
 30
0.0
 11
87.1187596903924657
 21
-21.7560879252067707
 31
0.0
  0
LINE
  5
710
  8
0
  6
CONTINUOUS
 62
     7
 10
87.1187596903924657
 20
-21.7560879252067707
 30
0.0
 11
87.3187596903924543
 21
-21.7560879252067707
 31
0.0
  0
LINE
  5
711
  8
0
  6
CONTINUOUS
 62
     7
 10
87.3187596903924543
 20
-21.7560879252067707
 30
0.0
 11
87.5187596903924714
 21
-20.2560879252067707
 31
0.0
  0
LINE
  5
712
  8
0
  6
CONTINUOUS
 62
     7
 10
87.5187596903924714
 20
-20.2560879252067707
 30
0.0
 11
88.3187596903924543
 21
-20.2560879252067707
 31
0.0
  0
LINE
  5
713
  8
0
  6
CONTINUOUS
 62
     7
 10
85.8187596903924543
 20
-57.0060879252067707
 30
0.0
 11
85.8187596903924543
 21
-57.9172369905067725
 31
0.0
  0
LINE
  5
714
  8
0
  6
CONTINUOUS
 62
     7
 10
89.8187596903924543
 20
-59.5703301491067805
 30
0.0
 11
89.8187596903924543
 21
-60.9060879252067693
 31
0.0
  0
LINE
  5
715
  8
0
  6
CONTINUOUS
 62
     7
 10
83.8187596903924543
 20
-60.9060879252067693
 30
0.0
 11
83.8187596903924543
 21
-59.5703301491067805
 31
0.0
  0
LINE
  5
716
  8
0
  6
CONTINUOUS
 62
     7
 10
79.8187596903924543
 20
22.5939120747932201
 30
0.0
 11
79.8187596903924543
 21
28.4938359107932513
 31
0.0
  0
LINE
  5
717
  8
0
  6
CONTINUOUS
 62
     7
 10
71.8187596903924543
 20
22.5939120747932201
 30
0.0
 11
79.8187596903924543
 21
22.5939120747932201
 31
0.0
  0
LINE
  5
718
  8
0
  6
CONTINUOUS
 62
     7
 10
71.8187596903924543
 20
21.7939120747932087
 30
0.0
 11
71.8187596903924543
 21
22.5939120747932201
 31
0.0
  0
LINE
  5
719
  8
0
  6
CONTINUOUS
 62
     7
 10
83.5187596903924572
 20
21.7939120747932087
 30
0.0
 11
71.8187596903924543
 21
21.7939120747932087
 31
0.0
  0
ARC
  5
71A
  8
0
  6
CONTINUOUS
 62
     7
 10
83.5187596903924572
 20
21.2939120747932087
 30
0.0
 40
0.5
 50
0.0
 51
90.0
  0
LINE
  5
71B
  8
0
  6
CONTINUOUS
 62
     7
 10
84.0187596903924714
 20
21.2939120747932087
 30
0.0
 11
84.0187596903924714
 21
13.6939120747932197
 31
0.0
  0
ARC
  5
71C
  8
0
  6
CONTINUOUS
 62
     7
 10
83.5187596903924572
 20
13.6939120747932197
 30
0.0
 40
0.5
 50
270.0
 51
0.0
  0
LINE
  5
71D
  8
0
  6
CONTINUOUS
 62
     7
 10
83.5187596903924572
 20
13.1939120747932197
 30
0.0
 11
71.8187596903924543
 21
13.1939120747932197
 31
0.0
  0
LINE
  5
71E
  8
0
  6
CONTINUOUS
 62
     7
 10
71.8187596903924543
 20
12.3939120747931995
 30
0.0
 11
71.8187596903924543
 21
13.1939120747932197
 31
0.0
  0
LINE
  5
71F
  8
0
  6
CONTINUOUS
 62
     7
 10
79.8187596903924543
 20
12.3939120747931995
 30
0.0
 11
71.8187596903924543
 21
12.3939120747931995
 31
0.0
  0
LINE
  5
720
  8
0
  6
CONTINUOUS
 62
     7
 10
79.8187596903924543
 20
-21.4060879252067799
 30
0.0
 11
79.8187596903924543
 21
12.3939120747931995
 31
0.0
  0
LINE
  5
721
  8
0
  6
CONTINUOUS
 62
     7
 10
71.8187596903924543
 20
-21.4060879252067799
 30
0.0
 11
79.8187596903924543
 21
-21.4060879252067799
 31
0.0
  0
LINE
  5
722
  8
0
  6
CONTINUOUS
 62
     7
 10
71.8187596903924543
 20
-22.2060879252067913
 30
0.0
 11
71.8187596903924543
 21
-21.4060879252067799
 31
0.0
  0
LINE
  5
723
  8
0
  6
CONTINUOUS
 62
     7
 10
83.5187596903924572
 20
-22.2060879252067913
 30
0.0
 11
71.8187596903924543
 21
-22.2060879252067913
 31
0.0
  0
ARC
  5
724
  8
0
  6
CONTINUOUS
 62
     7
 10
83.5187596903924572
 20
-22.7060879252067913
 30
0.0
 40
0.5
 50
0.0
 51
90.0
  0
LINE
  5
725
  8
0
  6
CONTINUOUS
 62
     7
 10
84.0187596903924714
 20
-22.7060879252067913
 30
0.0
 11
84.0187596903924714
 21
-30.3060879252067785
 31
0.0
  0
ARC
  5
726
  8
0
  6
CONTINUOUS
 62
     7
 10
83.5187596903924572
 20
-30.3060879252067785
 30
0.0
 40
0.5
 50
270.0
 51
0.0
  0
LINE
  5
727
  8
0
  6
CONTINUOUS
 62
     7
 10
83.5187596903924572
 20
-30.8060879252067785
 30
0.0
 11
71.8187596903924543
 21
-30.8060879252067785
 31
0.0
  0
LINE
  5
728
  8
0
  6
CONTINUOUS
 62
     7
 10
71.8187596903924543
 20
-31.6060879252068005
 30
0.0
 11
71.8187596903924543
 21
-30.8060879252067785
 31
0.0
  0
LINE
  5
729
  8
0
  6
CONTINUOUS
 62
     7
 10
79.8187596903924543
 20
-31.6060879252068005
 30
0.0
 11
71.8187596903924543
 21
-31.6060879252068005
 31
0.0
  0
LINE
  5
72A
  8
0
  6
CONTINUOUS
 62
     7
 10
79.8187596903924543
 20
-37.5060117612067714
 30
0.0
 11
79.8187596903924543
 21
-31.6060879252068005
 31
0.0
  0
LINE
  5
72B
  8
0
  6
CONTINUOUS
 62
     7
 10
82.0187596903924856
 20
-29.8060879252067785
 30
0.0
 11
82.0187596903924856
 21
-23.2060879252067913
 31
0.0
  0
LINE
  5
72C
  8
0
  6
CONTINUOUS
 62
     7
 10
82.0187596903924856
 20
-23.2060879252067913
 30
0.0
 11
79.6187596903924657
 21
-23.2060879252067913
 31
0.0
  0
LINE
  5
72D
  8
0
  6
CONTINUOUS
 62
     7
 10
79.6187596903924657
 20
-23.2060879252067913
 30
0.0
 11
79.6187596903924657
 21
-29.8060879252067785
 31
0.0
  0
LINE
  5
72E
  8
0
  6
CONTINUOUS
 62
     7
 10
79.6187596903924657
 20
-29.8060879252067785
 30
0.0
 11
82.0187596903924856
 21
-29.8060879252067785
 31
0.0
  0
LINE
  5
72F
  8
0
  6
CONTINUOUS
 62
     7
 10
79.6187596903924657
 20
20.7939120747932087
 30
0.0
 11
79.6187596903924657
 21
14.1939120747932108
 31
0.0
  0
LINE
  5
730
  8
0
  6
CONTINUOUS
 62
     7
 10
79.6187596903924657
 20
14.1939120747932108
 30
0.0
 11
82.0187596903924856
 21
14.1939120747932108
 31
0.0
  0
LINE
  5
731
  8
0
  6
CONTINUOUS
 62
     7
 10
82.0187596903924856
 20
14.1939120747932108
 30
0.0
 11
82.0187596903924856
 21
20.7939120747932087
 31
0.0
  0
LINE
  5
732
  8
0
  6
CONTINUOUS
 62
     7
 10
82.0187596903924856
 20
20.7939120747932087
 30
0.0
 11
79.6187596903924657
 21
20.7939120747932087
 31
0.0
  0
ARC
  5
733
  8
0
  6
CONTINUOUS
 62
     7
 10
65.6187596903924657
 20
-30.9060879252067799
 30
0.0
 40
1.0
 50
90.0
 51
180.0
  0
LINE
  5
734
  8
0
  6
CONTINUOUS
 62
     7
 10
64.6187596903924657
 20
-30.9060879252067799
 30
0.0
 11
64.6187596903924657
 21
-31.9060879252067799
 31
0.0
  0
ARC
  5
735
  8
0
  6
CONTINUOUS
 62
     7
 10
65.6187596903924657
 20
-31.9060879252067799
 30
0.0
 40
1.0
 50
180.0
 51
270.0
  0
LINE
  5
736
  8
0
  6
CONTINUOUS
 62
     7
 10
65.6187596903924657
 20
-32.9060879252067835
 30
0.0
 11
69.6187596903924657
 21
-32.9060879252067835
 31
0.0
  0
ARC
  5
737
  8
0
  6
CONTINUOUS
 62
     7
 10
69.6187596903924657
 20
-31.9060879252067799
 30
0.0
 40
1.0
 50
270.0
 51
0.0
  0
LINE
  5
738
  8
0
  6
CONTINUOUS
 62
     7
 10
70.6187596903924657
 20
-31.9060879252067799
 30
0.0
 11
70.6187596903924657
 21
-30.9060879252067799
 31
0.0
  0
ARC
  5
739
  8
0
  6
CONTINUOUS
 62
     7
 10
69.6187596903924657
 20
-30.9060879252067799
 30
0.0
 40
1.0000000000000271
 50
0.0
 51
90.0
  0
LINE
  5
73A
  8
0
  6
CONTINUOUS
 62
     7
 10
69.6187596903924657
 20
-29.9060879252067799
 30
0.0
 11
65.6187596903924657
 21
-29.9060879252067799
 31
0.0
  0
POLYLINE
  8
0
  5
1110
  62
7
  66
     1
 10
0.00000
 20
0.00000
 30
0.00000
  70
     8
  0
VERTEX
  8
0
  5
1111
 10
79.8188
 20
-37.9960
 30
0.00000
  70
    32
  0
VERTEX
  8
0
  5
1112
 10
79.8188
 20
-37.9961
 30
0.00000
  70
    32
  0
VERTEX
  8
0
  5
1113
 10
79.8188
 20
-37.9963
 30
0.00000
  70
    32
  0
VERTEX
  8
0
  5
1114
 10
79.8188
 20
-37.9965
 30
0.00000
  70
    32
  0
VERTEX
  8
0
  5
1115
 10
79.8187
 20
-37.9966
 30
0.00000
  70
    32
  0
VERTEX
  8
0
  5
1116
 10
79.8187
 20
-37.9968
 30
0.00000
  70
    32
  0
VERTEX
  8
0
  5
1117
 10
79.8187
 20
-37.9969
 30
0.00000
  70
    32
  0
VERTEX
  8
0
  5
1118
 10
79.8187
 20
-37.9971
 30
0.00000
  70
    32
  0
VERTEX
  8
0
  5
1119
 10
79.8187
 20
-37.9972
 30
0.00000
  70
    32
  0
VERTEX
  8
0
  5
111A
 10
79.8187
 20
-37.9974
 30
0.00000
  70
    32
  0
VERTEX
  8
0
  5
111B
 10
79.8187
 20
-37.9976
 30
0.00000
  70
    32
  0
VERTEX
  8
0
  5
111C
 10
79.8186
 20
-37.9977
 30
0.00000
  70
    32
  0
VERTEX
  8
0
  5
111D
 10
79.8186
 20
-37.9978
 30
0.00000
  70
    32
  0
VERTEX
  8
0
  5
111E
 10
79.8186
 20
-37.9980
 30
0.00000
  70
    32
  0
VERTEX
  8
0
  5
111F
 10
79.8186
 20
-37.9981
 30
0.00000
  70
    32
  0
VERTEX
  8
0
  5
1120
 10
79.8185
 20
-37.9983
 30
0.00000
  70
    32
  0
VERTEX
  8
0
  5
1121
 10
79.8185
 20
-37.9984
 30
0.00000
  70
    32
  0
VERTEX
  8
0
  5
1122
 10
79.8185
 20
-37.9986
 30
0.00000
  70
    32
  0
VERTEX
  8
0
  5
1123
 10
79.8184
 20
-37.9987
 30
0.00000
  70
    32
  0
VERTEX
  8
0
  5
1124
 10
79.8184
 20
-37.9988
 30
0.00000
  70
    32
  0
VERTEX
  8
0
  5
1125
 10
79.8183
 20
-37.9990
 30
0.00000
  70
    32
  0
VERTEX
  8
0
  5
1126
 10
79.8183
 20
-37.9991
 30
0.00000
  70
    32
  0
VERTEX
  8
0
  5
1127
 10
79.8183
 20
-37.9992
 30
0.00000
  70
    32
  0
VERTEX
  8
0
  5
1128
 10
79.8182
 20
-37.9994
 30
0.00000
  70
    32
  0
VERTEX
  8
0
  5
1129
 10
79.8182
 20
-37.9995
 30
0.00000
  70
    32
  0
VERTEX
  8
0
  5
112A
 10
79.8181
 20
-37.9996
 30
0.00000
  70
    32
  0
VERTEX
  8
0
  5
112B
 10
79.8181
 20
-37.9998
 30
0.00000
  70
    32
  0
VERTEX
  8
0
  5
112C
 10
79.8180
 20
-37.9999
 30
0.00000
  70
    32
  0
VERTEX
  8
0
  5
112D
 10
79.8179
 20
-38.0000
 30
0.00000
  70
    32
  0
VERTEX
  8
0
  5
112E
 10
79.8179
 20
-38.0001
 30
0.00000
  70
    32
  0
VERTEX
  8
0
  5
112F
 10
79.8178
 20
-38.0003
 30
0.00000
  70
    32
  0
VERTEX
  8
0
  5
1130
 10
79.8178
 20
-38.0004
 30
0.00000
  70
    32
  0
VERTEX
  8
0
  5
1131
 10
79.8177
 20
-38.0005
 30
0.00000
  70
    32
  0
VERTEX
  8
0
  5
1132
 10
79.8176
 20
-38.0006
 30
0.00000
  70
    32
  0
VERTEX
  8
0
  5
1133
 10
79.8175
 20
-38.0007
 30
0.00000
  70
    32
  0
VERTEX
  8
0
  5
1134
 10
79.8175
 20
-38.0008
 30
0.00000
  70
    32
  0
VERTEX
  8
0
  5
1135
 10
79.8174
 20
-38.0010
 30
0.00000
  70
    32
  0
VERTEX
  8
0
  5
1136
 10
79.8173
 20
-38.0011
 30
0.00000
  70
    32
  0
VERTEX
  8
0
  5
1137
 10
79.8172
 20
-38.0012
 30
0.00000
  70
    32
  0
VERTEX
  8
0
  5
1138
 10
79.8172
 20
-38.0013
 30
0.00000
  70
    32
  0
VERTEX
  8
0
  5
1139
 10
79.8171
 20
-38.0014
 30
0.00000
  70
    32
  0
VERTEX
  8
0
  5
113A
 10
79.8170
 20
-38.0015
 30
0.00000
  70
    32
  0
VERTEX
  8
0
  5
113B
 10
79.8169
 20
-38.0016
 30
0.00000
  70
    32
  0
VERTEX
  8
0
  5
113C
 10
79.8168
 20
-38.0017
 30
0.00000
  70
    32
  0
VERTEX
  8
0
  5
113D
 10
79.8167
 20
-38.0018
 30
0.00000
  70
    32
  0
VERTEX
  8
0
  5
113E
 10
79.8166
 20
-38.0019
 30
0.00000
  70
    32
  0
VERTEX
  8
0
  5
113F
 10
79.8165
 20
-38.0020
 30
0.00000
  70
    32
  0
VERTEX
  8
0
  5
1140
 10
79.8164
 20
-38.0021
 30
0.00000
  70
    32
  0
VERTEX
  8
0
  5
1141
 10
79.8163
 20
-38.0022
 30
0.00000
  70
    32
  0
VERTEX
  8
0
  5
1142
 10
79.8162
 20
-38.0023
 30
0.00000
  70
    32
  0
VERTEX
  8
0
  5
1143
 10
79.8161
 20
-38.0024
 30
0.00000
  70
    32
  0
VERTEX
  8
0
  5
1144
 10
79.8160
 20
-38.0025
 30
0.00000
  70
    32
  0
VERTEX
  8
0
  5
1145
 10
79.8159
 20
-38.0026
 30
0.00000
  70
    32
  0
VERTEX
  8
0
  5
1146
 10
79.8158
 20
-38.0027
 30
0.00000
  70
    32
  0
VERTEX
  8
0
  5
1147
 10
79.8157
 20
-38.0028
 30
0.00000
  70
    32
  0
VERTEX
  8
0
  5
1148
 10
79.8156
 20
-38.0029
 30
0.00000
  70
    32
  0
VERTEX
  8
0
  5
1149
 10
79.8155
 20
-38.0030
 30
0.00000
  70
    32
  0
VERTEX
  8
0
  5
114A
 10
79.8153
 20
-38.0030
 30
0.00000
  70
    32
  0
VERTEX
  8
0
  5
114B
 10
79.8152
 20
-38.0031
 30
0.00000
  70
    32
  0
VERTEX
  8
0
  5
114C
 10
79.8151
 20
-38.0032
 30
0.00000
  70
    32
  0
VERTEX
  8
0
  5
114D
 10
79.8150
 20
-38.0033
 30
0.00000
  70
    32
  0
VERTEX
  8
0
  5
114E
 10
79.8148
 20
-38.0034
 30
0.00000
  70
    32
  0
VERTEX
  8
0
  5
114F
 10
79.8147
 20
-38.0034
 30
0.00000
  70
    32
  0
VERTEX
  8
0
  5
1150
 10
79.8146
 20
-38.0035
 30
0.00000
  70
    32
  0
VERTEX
  8
0
  5
1151
 10
79.8144
 20
-38.0036
 30
0.00000
  70
    32
  0
VERTEX
  8
0
  5
1152
 10
79.8143
 20
-38.0037
 30
0.00000
  70
    32
  0
VERTEX
  8
0
  5
1153
 10
79.8142
 20
-38.0037
 30
0.00000
  70
    32
  0
VERTEX
  8
0
  5
1154
 10
79.8140
 20
-38.0038
 30
0.00000
  70
    32
  0
VERTEX
  8
0
  5
1155
 10
79.8139
 20
-38.0039
 30
0.00000
  70
    32
  0
VERTEX
  8
0
  5
1156
 10
79.8137
 20
-38.0040
 30
0.00000
  70
    32
  0
VERTEX
  8
0
  5
1157
 10
79.8136
 20
-38.0040
 30
0.00000
  70
    32
  0
VERTEX
  8
0
  5
1158
 10
79.8134
 20
-38.0041
 30
0.00000
  70
    32
  0
VERTEX
  8
0
  5
1159
 10
79.8133
 20
-38.0042
 30
0.00000
  70
    32
  0
VERTEX
  8
0
  5
115A
 10
79.8131
 20
-38.0042
 30
0.00000
  70
    32
  0
VERTEX
  8
0
  5
115B
 10
79.8130
 20
-38.0043
 30
0.00000
  70
    32
  0
VERTEX
  8
0
  5
115C
 10
79.8128
 20
-38.0043
 30
0.00000
  70
    32
  0
VERTEX
  8
0
  5
115D
 10
79.8127
 20
-38.0044
 30
0.00000
  70
    32
  0
VERTEX
  8
0
  5
115E
 10
79.8125
 20
-38.0045
 30
0.00000
  70
    32
  0
VERTEX
  8
0
  5
115F
 10
79.8123
 20
-38.0045
 30
0.00000
  70
    32
  0
VERTEX
  8
0
  5
1160
 10
79.8122
 20
-38.0046
 30
0.00000
  70
    32
  0
VERTEX
  8
0
  5
1161
 10
79.8120
 20
-38.0046
 30
0.00000
  70
    32
  0
VERTEX
  8
0
  5
1162
 10
79.8118
 20
-38.0047
 30
0.00000
  70
    32
  0
VERTEX
  8
0
  5
1163
 10
79.8117
 20
-38.0047
 30
0.00000
  70
    32
  0
VERTEX
  8
0
  5
1164
 10
79.8115
 20
-38.0048
 30
0.00000
  70
    32
  0
VERTEX
  8
0
  5
1165
 10
79.8113
 20
-38.0048
 30
0.00000
  70
    32
  0
VERTEX
  8
0
  5
1166
 10
79.8111
 20
-38.0049
 30
0.00000
  70
    32
  0
VERTEX
  8
0
  5
1167
 10
79.8109
 20
-38.0049
 30
0.00000
  70
    32
  0
VERTEX
  8
0
  5
1168
 10
79.8108
 20
-38.0050
 30
0.00000
  70
    32
  0
VERTEX
  8
0
  5
1169
 10
79.8106
 20
-38.0050
 30
0.00000
  70
    32
  0
VERTEX
  8
0
  5
116A
 10
79.8104
 20
-38.0051
 30
0.00000
  70
    32
  0
VERTEX
  8
0
  5
116B
 10
79.8102
 20
-38.0051
 30
0.00000
  70
    32
  0
VERTEX
  8
0
  5
116C
 10
79.8100
 20
-38.0052
 30
0.00000
  70
    32
  0
VERTEX
  8
0
  5
116D
 10
79.8098
 20
-38.0052
 30
0.00000
  70
    32
  0
VERTEX
  8
0
  5
116E
 10
79.8096
 20
-38.0052
 30
0.00000
  70
    32
  0
VERTEX
  8
0
  5
116F
 10
79.8094
 20
-38.0053
 30
0.00000
  70
    32
  0
VERTEX
  8
0
  5
1170
 10
79.8092
 20
-38.0053
 30
0.00000
  70
    32
  0
VERTEX
  8
0
  5
1171
 10
79.8090
 20
-38.0053
 30
0.00000
  70
    32
  0
VERTEX
  8
0
  5
1172
 10
79.8088
 20
-38.0054
 30
0.00000
  70
    32
  0
VERTEX
  8
0
  5
1173
 10
79.8086
 20
-38.0054
 30
0.00000
  70
    32
  0
VERTEX
  8
0
  5
1174
 10
79.8084
 20
-38.0054
 30
0.00000
  70
    32
  0
VERTEX
  8
0
  5
1175
 10
79.8082
 20
-38.0055
 30
0.00000
  70
    32
  0
VERTEX
  8
0
  5
1176
 10
79.8080
 20
-38.0055
 30
0.00000
  70
    32
  0
VERTEX
  8
0
  5
1177
 10
79.8077
 20
-38.0055
 30
0.00000
  70
    32
  0
VERTEX
  8
0
  5
1178
 10
79.8075
 20
-38.0055
 30
0.00000
  70
    32
  0
VERTEX
  8
0
  5
1179
 10
79.8073
 20
-38.0056
 30
0.00000
  70
    32
  0
VERTEX
  8
0
  5
117A
 10
79.8071
 20
-38.0056
 30
0.00000
  70
    32
  0
VERTEX
  8
0
  5
117B
 10
79.8068
 20
-38.0056
 30
0.00000
  70
    32
  0
VERTEX
  8
0
  5
117C
 10
79.8066
 20
-38.0056
 30
0.00000
  70
    32
  0
VERTEX
  8
0
  5
117D
 10
79.8064
 20
-38.0057
 30
0.00000
  70
    32
  0
VERTEX
  8
0
  5
117E
 10
79.8062
 20
-38.0057
 30
0.00000
  70
    32
  0
VERTEX
  8
0
  5
117F
 10
79.8059
 20
-38.0057
 30
0.00000
  70
    32
  0
VERTEX
  8
0
  5
1180
 10
79.8057
 20
-38.0057
 30
0.00000
  70
    32
  0
VERTEX
  8
0
  5
1181
 10
79.8054
 20
-38.0057
 30
0.00000
  70
    32
  0
VERTEX
  8
0
  5
1182
 10
79.8052
 20
-38.0057
 30
0.00000
  70
    32
  0
VERTEX
  8
0
  5
1183
 10
79.8050
 20
-38.0057
 30
0.00000
  70
    32
  0
VERTEX
  8
0
  5
1184
 10
79.8047
 20
-38.0058
 30
0.00000
  70
    32
  0
VERTEX
  8
0
  5
1185
 10
79.8045
 20
-38.0058
 30
0.00000
  70
    32
  0
VERTEX
  8
0
  5
1186
 10
79.8042
 20
-38.0058
 30
0.00000
  70
    32
  0
VERTEX
  8
0
  5
1187
 10
79.8040
 20
-38.0058
 30
0.00000
  70
    32
  0
VERTEX
  8
0
  5
1188
 10
79.8037
 20
-38.0058
 30
0.00000
  70
    32
  0
VERTEX
  8
0
  5
1189
 10
79.8035
 20
-38.0058
 30
0.00000
  70
    32
  0
VERTEX
  8
0
  5
118A
 10
79.8032
 20
-38.0058
 30
0.00000
  70
    32
  0
VERTEX
  8
0
  5
118B
 10
79.8029
 20
-38.0058
 30
0.00000
  70
    32
  0
VERTEX
  8
0
  5
118C
 10
79.8027
 20
-38.0058
 30
0.00000
  70
    32
  0
VERTEX
  8
0
  5
118D
 10
79.8024
 20
-38.0058
 30
0.00000
  70
    32
  0
VERTEX
  8
0
  5
118E
 10
79.8021
 20
-38.0058
 30
0.00000
  70
    32
  0
VERTEX
  8
0
  5
118F
 10
79.8019
 20
-38.0058
 30
0.00000
  70
    32
  0
VERTEX
  8
0
  5
1190
 10
79.8016
 20
-38.0058
 30
0.00000
  70
    32
  0
SEQEND
  8
0
  5
1191
  0
LINE
  5
73C
  8
0
  6
CONTINUOUS
 62
     7
 10
79.8016024027924402
 20
-38.0057884436067823
 30
0.0
 11
49.810033487092447
 21
-37.4822836609067735
 31
0.0
  0
LINE
  5
73D
  8
0
  6
CONTINUOUS
 62
     7
 10
79.8187596903924543
 20
-37.5060117612067714
 30
0.0
 11
79.8187596903924543
 21
-37.9959843349067796
 31
0.0
  0
LINE
  5
73E
  8
0
  6
CONTINUOUS
 62
     7
 10
49.810033487092447
 20
28.4701078104932002
 30
0.0
 11
79.8016024027924402
 21
28.9936125931932409
 31
0.0
  0
POLYLINE
  8
0
  5
1192
  62
7
  66
     1
 10
0.00000
 20
0.00000
 30
0.00000
  70
     8
  0
VERTEX
  8
0
  5
1193
 10
79.8016
 20
28.9936
 30
0.00000
  70
    32
  0
VERTEX
  8
0
  5
1194
 10
79.8019
 20
28.9936
 30
0.00000
  70
    32
  0
VERTEX
  8
0
  5
1195
 10
79.8021
 20
28.9936
 30
0.00000
  70
    32
  0
VERTEX
  8
0
  5
1196
 10
79.8024
 20
28.9936
 30
0.00000
  70
    32
  0
VERTEX
  8
0
  5
1197
 10
79.8027
 20
28.9936
 30
0.00000
  70
    32
  0
VERTEX
  8
0
  5
1198
 10
79.8029
 20
28.9936
 30
0.00000
  70
    32
  0
VERTEX
  8
0
  5
1199
 10
79.8032
 20
28.9936
 30
0.00000
  70
    32
  0
VERTEX
  8
0
  5
119A
 10
79.8035
 20
28.9936
 30
0.00000
  70
    32
  0
VERTEX
  8
0
  5
119B
 10
79.8037
 20
28.9936
 30
0.00000
  70
    32
  0
VERTEX
  8
0
  5
119C
 10
79.8040
 20
28.9936
 30
0.00000
  70
    32
  0
VERTEX
  8
0
  5
119D
 10
79.8042
 20
28.9936
 30
0.00000
  70
    32
  0
VERTEX
  8
0
  5
119E
 10
79.8045
 20
28.9936
 30
0.00000
  70
    32
  0
VERTEX
  8
0
  5
119F
 10
79.8047
 20
28.9936
 30
0.00000
  70
    32
  0
VERTEX
  8
0
  5
11A0
 10
79.8050
 20
28.9936
 30
0.00000
  70
    32
  0
VERTEX
  8
0
  5
11A1
 10
79.8052
 20
28.9936
 30
0.00000
  70
    32
  0
VERTEX
  8
0
  5
11A2
 10
79.8054
 20
28.9935
 30
0.00000
  70
    32
  0
VERTEX
  8
0
  5
11A3
 10
79.8057
 20
28.9935
 30
0.00000
  70
    32
  0
VERTEX
  8
0
  5
11A4
 10
79.8059
 20
28.9935
 30
0.00000
  70
    32
  0
VERTEX
  8
0
  5
11A5
 10
79.8062
 20
28.9935
 30
0.00000
  70
    32
  0
VERTEX
  8
0
  5
11A6
 10
79.8064
 20
28.9935
 30
0.00000
  70
    32
  0
VERTEX
  8
0
  5
11A7
 10
79.8066
 20
28.9935
 30
0.00000
  70
    32
  0
VERTEX
  8
0
  5
11A8
 10
79.8068
 20
28.9934
 30
0.00000
  70
    32
  0
VERTEX
  8
0
  5
11A9
 10
79.8071
 20
28.9934
 30
0.00000
  70
    32
  0
VERTEX
  8
0
  5
11AA
 10
79.8073
 20
28.9934
 30
0.00000
  70
    32
  0
VERTEX
  8
0
  5
11AB
 10
79.8075
 20
28.9934
 30
0.00000
  70
    32
  0
VERTEX
  8
0
  5
11AC
 10
79.8077
 20
28.9933
 30
0.00000
  70
    32
  0
VERTEX
  8
0
  5
11AD
 10
79.8080
 20
28.9933
 30
0.00000
  70
    32
  0
VERTEX
  8
0
  5
11AE
 10
79.8082
 20
28.9933
 30
0.00000
  70
    32
  0
VERTEX
  8
0
  5
11AF
 10
79.8084
 20
28.9933
 30
0.00000
  70
    32
  0
VERTEX
  8
0
  5
11B0
 10
79.8086
 20
28.9932
 30
0.00000
  70
    32
  0
VERTEX
  8
0
  5
11B1
 10
79.8088
 20
28.9932
 30
0.00000
  70
    32
  0
VERTEX
  8
0
  5
11B2
 10
79.8090
 20
28.9932
 30
0.00000
  70
    32
  0
VERTEX
  8
0
  5
11B3
 10
79.8092
 20
28.9931
 30
0.00000
  70
    32
  0
VERTEX
  8
0
  5
11B4
 10
79.8094
 20
28.9931
 30
0.00000
  70
    32
  0
VERTEX
  8
0
  5
11B5
 10
79.8096
 20
28.9931
 30
0.00000
  70
    32
  0
VERTEX
  8
0
  5
11B6
 10
79.8098
 20
28.9930
 30
0.00000
  70
    32
  0
VERTEX
  8
0
  5
11B7
 10
79.8100
 20
28.9930
 30
0.00000
  70
    32
  0
VERTEX
  8
0
  5
11B8
 10
79.8102
 20
28.9929
 30
0.00000
  70
    32
  0
VERTEX
  8
0
  5
11B9
 10
79.8104
 20
28.9929
 30
0.00000
  70
    32
  0
VERTEX
  8
0
  5
11BA
 10
79.8106
 20
28.9929
 30
0.00000
  70
    32
  0
VERTEX
  8
0
  5
11BB
 10
79.8108
 20
28.9928
 30
0.00000
  70
    32
  0
VERTEX
  8
0
  5
11BC
 10
79.8109
 20
28.9928
 30
0.00000
  70
    32
  0
VERTEX
  8
0
  5
11BD
 10
79.8111
 20
28.9927
 30
0.00000
  70
    32
  0
VERTEX
  8
0
  5
11BE
 10
79.8113
 20
28.9927
 30
0.00000
  70
    32
  0
VERTEX
  8
0
  5
11BF
 10
79.8115
 20
28.9926
 30
0.00000
  70
    32
  0
VERTEX
  8
0
  5
11C0
 10
79.8117
 20
28.9926
 30
0.00000
  70
    32
  0
VERTEX
  8
0
  5
11C1
 10
79.8118
 20
28.9925
 30
0.00000
  70
    32
  0
VERTEX
  8
0
  5
11C2
 10
79.8120
 20
28.9925
 30
0.00000
  70
    32
  0
VERTEX
  8
0
  5
11C3
 10
79.8122
 20
28.9924
 30
0.00000
  70
    32
  0
VERTEX
  8
0
  5
11C4
 10
79.8123
 20
28.9923
 30
0.00000
  70
    32
  0
VERTEX
  8
0
  5
11C5
 10
79.8125
 20
28.9923
 30
0.00000
  70
    32
  0
VERTEX
  8
0
  5
11C6
 10
79.8127
 20
28.9922
 30
0.00000
  70
    32
  0
VERTEX
  8
0
  5
11C7
 10
79.8128
 20
28.9922
 30
0.00000
  70
    32
  0
VERTEX
  8
0
  5
11C8
 10
79.8130
 20
28.9921
 30
0.00000
  70
    32
  0
VERTEX
  8
0
  5
11C9
 10
79.8131
 20
28.9920
 30
0.00000
  70
    32
  0
VERTEX
  8
0
  5
11CA
 10
79.8133
 20
28.9920
 30
0.00000
  70
    32
  0
VERTEX
  8
0
  5
11CB
 10
79.8134
 20
28.9919
 30
0.00000
  70
    32
  0
VERTEX
  8
0
  5
11CC
 10
79.8136
 20
28.9919
 30
0.00000
  70
    32
  0
VERTEX
  8
0
  5
11CD
 10
79.8137
 20
28.9918
 30
0.00000
  70
    32
  0
VERTEX
  8
0
  5
11CE
 10
79.8139
 20
28.9917
 30
0.00000
  70
    32
  0
VERTEX
  8
0
  5
11CF
 10
79.8140
 20
28.9916
 30
0.00000
  70
    32
  0
VERTEX
  8
0
  5
11D0
 10
79.8142
 20
28.9916
 30
0.00000
  70
    32
  0
VERTEX
  8
0
  5
11D1
 10
79.8143
 20
28.9915
 30
0.00000
  70
    32
  0
VERTEX
  8
0
  5
11D2
 10
79.8144
 20
28.9914
 30
0.00000
  70
    32
  0
VERTEX
  8
0
  5
11D3
 10
79.8146
 20
28.9913
 30
0.00000
  70
    32
  0
VERTEX
  8
0
  5
11D4
 10
79.8147
 20
28.9913
 30
0.00000
  70
    32
  0
VERTEX
  8
0
  5
11D5
 10
79.8148
 20
28.9912
 30
0.00000
  70
    32
  0
VERTEX
  8
0
  5
11D6
 10
79.8150
 20
28.9911
 30
0.00000
  70
    32
  0
VERTEX
  8
0
  5
11D7
 10
79.8151
 20
28.9910
 30
0.00000
  70
    32
  0
VERTEX
  8
0
  5
11D8
 10
79.8152
 20
28.9909
 30
0.00000
  70
    32
  0
VERTEX
  8
0
  5
11D9
 10
79.8153
 20
28.9909
 30
0.00000
  70
    32
  0
VERTEX
  8
0
  5
11DA
 10
79.8155
 20
28.9908
 30
0.00000
  70
    32
  0
VERTEX
  8
0
  5
11DB
 10
79.8156
 20
28.9907
 30
0.00000
  70
    32
  0
VERTEX
  8
0
  5
11DC
 10
79.8157
 20
28.9906
 30
0.00000
  70
    32
  0
VERTEX
  8
0
  5
11DD
 10
79.8158
 20
28.9905
 30
0.00000
  70
    32
  0
VERTEX
  8
0
  5
11DE
 10
79.8159
 20
28.9904
 30
0.00000
  70
    32
  0
VERTEX
  8
0
  5
11DF
 10
79.8160
 20
28.9903
 30
0.00000
  70
    32
  0
VERTEX
  8
0
  5
11E0
 10
79.8161
 20
28.9902
 30
0.00000
  70
    32
  0
VERTEX
  8
0
  5
11E1
 10
79.8162
 20
28.9901
 30
0.00000
  70
    32
  0
VERTEX
  8
0
  5
11E2
 10
79.8163
 20
28.9900
 30
0.00000
  70
    32
  0
VERTEX
  8
0
  5
11E3
 10
79.8164
 20
28.9899
 30
0.00000
  70
    32
  0
VERTEX
  8
0
  5
11E4
 10
79.8165
 20
28.9899
 30
0.00000
  70
    32
  0
VERTEX
  8
0
  5
11E5
 10
79.8166
 20
28.9897
 30
0.00000
  70
    32
  0
VERTEX
  8
0
  5
11E6
 10
79.8167
 20
28.9896
 30
0.00000
  70
    32
  0
VERTEX
  8
0
  5
11E7
 10
79.8168
 20
28.9895
 30
0.00000
  70
    32
  0
VERTEX
  8
0
  5
11E8
 10
79.8169
 20
28.9894
 30
0.00000
  70
    32
  0
VERTEX
  8
0
  5
11E9
 10
79.8170
 20
28.9893
 30
0.00000
  70
    32
  0
VERTEX
  8
0
  5
11EA
 10
79.8171
 20
28.9892
 30
0.00000
  70
    32
  0
VERTEX
  8
0
  5
11EB
 10
79.8172
 20
28.9891
 30
0.00000
  70
    32
  0
VERTEX
  8
0
  5
11EC
 10
79.8172
 20
28.9890
 30
0.00000
  70
    32
  0
VERTEX
  8
0
  5
11ED
 10
79.8173
 20
28.9889
 30
0.00000
  70
    32
  0
VERTEX
  8
0
  5
11EE
 10
79.8174
 20
28.9888
 30
0.00000
  70
    32
  0
VERTEX
  8
0
  5
11EF
 10
79.8175
 20
28.9887
 30
0.00000
  70
    32
  0
VERTEX
  8
0
  5
11F0
 10
79.8175
 20
28.9886
 30
0.00000
  70
    32
  0
VERTEX
  8
0
  5
11F1
 10
79.8176
 20
28.9884
 30
0.00000
  70
    32
  0
VERTEX
  8
0
  5
11F2
 10
79.8177
 20
28.9883
 30
0.00000
  70
    32
  0
VERTEX
  8
0
  5
11F3
 10
79.8178
 20
28.9882
 30
0.00000
  70
    32
  0
VERTEX
  8
0
  5
11F4
 10
79.8178
 20
28.9881
 30
0.00000
  70
    32
  0
VERTEX
  8
0
  5
11F5
 10
79.8179
 20
28.9880
 30
0.00000
  70
    32
  0
VERTEX
  8
0
  5
11F6
 10
79.8179
 20
28.9878
 30
0.00000
  70
    32
  0
VERTEX
  8
0
  5
11F7
 10
79.8180
 20
28.9877
 30
0.00000
  70
    32
  0
VERTEX
  8
0
  5
11F8
 10
79.8181
 20
28.9876
 30
0.00000
  70
    32
  0
VERTEX
  8
0
  5
11F9
 10
79.8181
 20
28.9875
 30
0.00000
  70
    32
  0
VERTEX
  8
0
  5
11FA
 10
79.8182
 20
28.9873
 30
0.00000
  70
    32
  0
VERTEX
  8
0
  5
11FB
 10
79.8182
 20
28.9872
 30
0.00000
  70
    32
  0
VERTEX
  8
0
  5
11FC
 10
79.8183
 20
28.9871
 30
0.00000
  70
    32
  0
VERTEX
  8
0
  5
11FD
 10
79.8183
 20
28.9869
 30
0.00000
  70
    32
  0
VERTEX
  8
0
  5
11FE
 10
79.8183
 20
28.9868
 30
0.00000
  70
    32
  0
VERTEX
  8
0
  5
11FF
 10
79.8184
 20
28.9867
 30
0.00000
  70
    32
  0
VERTEX
  8
0
  5
1200
 10
79.8184
 20
28.9865
 30
0.00000
  70
    32
  0
VERTEX
  8
0
  5
1201
 10
79.8185
 20
28.9864
 30
0.00000
  70
    32
  0
VERTEX
  8
0
  5
1202
 10
79.8185
 20
28.9862
 30
0.00000
  70
    32
  0
VERTEX
  8
0
  5
1203
 10
79.8185
 20
28.9861
 30
0.00000
  70
    32
  0
VERTEX
  8
0
  5
1204
 10
79.8186
 20
28.9860
 30
0.00000
  70
    32
  0
VERTEX
  8
0
  5
1205
 10
79.8186
 20
28.9858
 30
0.00000
  70
    32
  0
VERTEX
  8
0
  5
1206
 10
79.8186
 20
28.9857
 30
0.00000
  70
    32
  0
VERTEX
  8
0
  5
1207
 10
79.8186
 20
28.9855
 30
0.00000
  70
    32
  0
VERTEX
  8
0
  5
1208
 10
79.8187
 20
28.9854
 30
0.00000
  70
    32
  0
VERTEX
  8
0
  5
1209
 10
79.8187
 20
28.9852
 30
0.00000
  70
    32
  0
VERTEX
  8
0
  5
120A
 10
79.8187
 20
28.9851
 30
0.00000
  70
    32
  0
VERTEX
  8
0
  5
120B
 10
79.8187
 20
28.9849
 30
0.00000
  70
    32
  0
VERTEX
  8
0
  5
120C
 10
79.8187
 20
28.9848
 30
0.00000
  70
    32
  0
VERTEX
  8
0
  5
120D
 10
79.8187
 20
28.9846
 30
0.00000
  70
    32
  0
VERTEX
  8
0
  5
120E
 10
79.8187
 20
28.9845
 30
0.00000
  70
    32
  0
VERTEX
  8
0
  5
120F
 10
79.8188
 20
28.9843
 30
0.00000
  70
    32
  0
VERTEX
  8
0
  5
1210
 10
79.8188
 20
28.9841
 30
0.00000
  70
    32
  0
VERTEX
  8
0
  5
1211
 10
79.8188
 20
28.9840
 30
0.00000
  70
    32
  0
VERTEX
  8
0
  5
1212
 10
79.8188
 20
28.9838
 30
0.00000
  70
    32
  0
SEQEND
  8
0
  5
1213
  0
LINE
  5
740
  8
0
  6
CONTINUOUS
 62
     7
 10
79.8187596903924543
 20
28.9838084844932418
 30
0.0
 11
79.8187596903924543
 21
28.4938359107932513
 31
0.0
  0
ARC
  5
741
  8
0
  6
CONTINUOUS
 62
     7
 10
49.818759690392433
 20
-36.9823598133067719
 30
0.0
 40
0.5
 50
180.0
 51
268.9999999999997726
  0
LINE
  5
742
  8
0
  6
CONTINUOUS
 62
     7
 10
49.318759690392433
 20
-36.9823598133067719
 30
0.0
 11
49.318759690392433
 21
27.9701839628932305
 31
0.0
  0
ARC
  5
743
  8
0
  6
CONTINUOUS
 62
     7
 10
49.818759690392433
 20
27.9701839628932305
 30
0.0
 40
0.5
 50
91.0000000000001563
 51
180.0
  0
LINE
  5
744
  8
0
  6
CONTINUOUS
 62
     7
 10
79.8187596903924543
 20
-38.0060879252067707
 30
0.0
 11
79.8016024027924402
 21
-38.0057884436067823
 31
0.0
  0
LINE
  5
745
  8
0
  6
CONTINUOUS
 62
     7
 10
79.8016024027924402
 20
28.9936125931932409
 30
0.0
 11
79.8187596903924543
 21
28.9939120747932293
 31
0.0
  0
LINE
  5
746
  8
0
  6
CONTINUOUS
 62
     7
 10
64.9573218625924369
 20
-32.6560879252067835
 30
0.0
 11
70.2801975180924217
 21
-32.6560879252067835
 31
0.0
  0
LINE
  5
747
  8
0
  6
CONTINUOUS
 62
     7
 10
64.9187596903924486
 20
-30.1919450823067805
 30
0.0
 11
64.9187596903924486
 21
-32.6202307681067794
 31
0.0
  0
LINE
  5
748
  8
0
  6
CONTINUOUS
 62
     7
 10
70.2801975180924217
 20
-30.1560879252067799
 30
0.0
 11
64.9573218625924369
 21
-30.1560879252067799
 31
0.0
  0
LINE
  5
749
  8
0
  6
CONTINUOUS
 62
     7
 10
66.1187596903924657
 20
-30.77869834320677
 30
0.0
 11
66.1187596903924657
 21
-32.0334775072067615
 31
0.0
  0
LINE
  5
74A
  8
0
  6
CONTINUOUS
 62
     7
 10
69.1187596903924657
 20
-32.0334775072067615
 30
0.0
 11
66.1187596903924657
 21
-32.0334775072067615
 31
0.0
  0
LINE
  5
74B
  8
0
  6
CONTINUOUS
 62
     7
 10
69.1187596903924657
 20
-30.77869834320677
 30
0.0
 11
69.1187596903924657
 21
-32.0334775072067615
 31
0.0
  0
LINE
  5
74C
  8
0
  6
CONTINUOUS
 62
     7
 10
69.1187596903924657
 20
-30.77869834320677
 30
0.0
 11
66.1187596903924657
 21
-30.77869834320677
 31
0.0
  0
LINE
  5
74D
  8
0
  6
CONTINUOUS
 62
     7
 10
70.3187596903924543
 20
-32.6202307681067794
 30
0.0
 11
70.3187596903924543
 21
-30.1919450823067805
 31
0.0
  0
LINE
  5
74E
  8
0
  6
CONTINUOUS
 62
     7
 10
68.2687596903924714
 20
-30.9060879252067799
 30
0.0
 11
68.2687596903924714
 21
-31.9060879252067799
 31
0.0
  0
LINE
  5
74F
  8
0
  6
CONTINUOUS
 62
     7
 10
68.2687596903924714
 20
-30.9060879252067799
 30
0.0
 11
69.1187596903924657
 21
-30.77869834320677
 31
0.0
  0
LINE
  5
750
  8
0
  6
CONTINUOUS
 62
     7
 10
68.2687596903924714
 20
-31.9060879252067799
 30
0.0
 11
69.1187596903924657
 21
-32.0334775072067615
 31
0.0
  0
LINE
  5
751
  8
0
  6
CONTINUOUS
 62
     7
 10
66.1187596903924657
 20
-32.0334775072067615
 30
0.0
 11
66.96875969039246
 21
-31.9060879252067799
 31
0.0
  0
LINE
  5
752
  8
0
  6
CONTINUOUS
 62
     7
 10
66.96875969039246
 20
-31.9060879252067799
 30
0.0
 11
68.2687596903924714
 21
-31.9060879252067799
 31
0.0
  0
LINE
  5
753
  8
0
  6
CONTINUOUS
 62
     7
 10
66.1187596903924657
 20
-30.77869834320677
 30
0.0
 11
66.96875969039246
 21
-30.9060879252067799
 31
0.0
  0
LINE
  5
754
  8
0
  6
CONTINUOUS
 62
     7
 10
66.96875969039246
 20
-30.9060879252067799
 30
0.0
 11
66.96875969039246
 21
-31.9060879252067799
 31
0.0
  0
LINE
  5
755
  8
0
  6
CONTINUOUS
 62
     7
 10
66.96875969039246
 20
-30.9060879252067799
 30
0.0
 11
68.2687596903924714
 21
-30.9060879252067799
 31
0.0
  0
LINE
  5
756
  8
0
  6
CONTINUOUS
 62
     7
 10
67.3187596903924543
 20
-32.8060879252067821
 30
0.0
 11
67.9187596903924486
 21
-32.8060879252067821
 31
0.0
  0
LINE
  5
757
  8
0
  6
CONTINUOUS
 62
     7
 10
67.9187596903924486
 20
-32.8060879252067821
 30
0.0
 11
67.9187596903924486
 21
-32.6560879252067835
 31
0.0
  0
LINE
  5
758
  8
0
  6
CONTINUOUS
 62
     7
 10
67.3187596903924543
 20
-32.8060879252067821
 30
0.0
 11
67.3187596903924543
 21
-32.6560879252067835
 31
0.0
  0
LINE
  5
759
  8
0
  6
CONTINUOUS
 62
     7
 10
65.5687596903924543
 20
-30.0060879252067707
 30
0.0
 11
66.1687596903924486
 21
-30.0060879252067707
 31
0.0
  0
LINE
  5
75A
  8
0
  6
CONTINUOUS
 62
     7
 10
65.5687596903924543
 20
-30.1560879252067799
 30
0.0
 11
65.5687596903924543
 21
-30.0060879252067707
 31
0.0
  0
LINE
  5
75B
  8
0
  6
CONTINUOUS
 62
     7
 10
66.1687596903924486
 20
-30.1560879252067799
 30
0.0
 11
66.1687596903924486
 21
-30.0060879252067707
 31
0.0
  0
LINE
  5
75C
  8
0
  6
CONTINUOUS
 62
     7
 10
69.0687596903924543
 20
-30.0060879252067707
 30
0.0
 11
69.6687596903924486
 21
-30.0060879252067707
 31
0.0
  0
LINE
  5
75D
  8
0
  6
CONTINUOUS
 62
     7
 10
69.0687596903924543
 20
-30.1560879252067799
 30
0.0
 11
69.0687596903924543
 21
-30.0060879252067707
 31
0.0
  0
LINE
  5
75E
  8
0
  6
CONTINUOUS
 62
     7
 10
69.6687596903924486
 20
-30.1560879252067799
 30
0.0
 11
69.6687596903924486
 21
-30.0060879252067707
 31
0.0
  0
LINE
  5
75F
  8
0
  6
CONTINUOUS
 62
     7
 10
79.8187596903924543
 20
-55.0060879252067707
 30
0.0
 11
79.8187596903924543
 21
-38.1060879252068005
 31
0.0
  0
LINE
  5
760
  8
0
  6
CONTINUOUS
 62
     7
 10
70.8187596903924543
 20
-55.0060879252067707
 30
0.0
 11
79.8187596903924543
 21
-55.0060879252067707
 31
0.0
  0
LINE
  5
761
  8
0
  6
CONTINUOUS
 62
     7
 10
58.8187596903924614
 20
-46.1060879252067934
 30
0.0
 11
70.8187596903924543
 21
-55.0060879252067707
 31
0.0
  0
LINE
  5
762
  8
0
  6
CONTINUOUS
 62
     7
 10
58.8187596903924614
 20
-40.1060879252067934
 30
0.0
 11
58.8187596903924614
 21
-46.1060879252067934
 31
0.0
  0
ARC
  5
763
  8
0
  6
CONTINUOUS
 62
     7
 10
60.8187596903924472
 20
-40.1060879252067934
 30
0.0
 40
2.0
 50
90.0
 51
180.0
  0
LINE
  5
764
  8
0
  6
CONTINUOUS
 62
     7
 10
79.8187596903924543
 20
-38.1060879252068005
 30
0.0
 11
60.8187596903924472
 21
-38.1060879252068005
 31
0.0
  0
LINE
  5
765
  8
0
  6
CONTINUOUS
 62
     7
 10
83.3187596903924543
 20
-52.0060879252067707
 30
0.0
 11
83.3187596903924543
 21
-52.3060879252067821
 31
0.0
  0
LINE
  5
766
  8
0
  6
CONTINUOUS
 62
     7
 10
62.9832064364924165
 20
39.4950340616932465
 30
0.0
 11
64.5431619260924663
 21
40.6424393390932082
 31
0.0
  0
LINE
  5
767
  8
0
  6
CONTINUOUS
 62
     7
 10
69.0248880682924266
 20
43.9389155924932311
 30
0.0
 11
70.5848435578924551
 21
45.0863208698932212
 31
0.0
  0
LINE
  5
768
  8
0
  6
CONTINUOUS
 62
     7
 10
69.0248880682924266
 20
43.9389155924932311
 30
0.0
 11
64.5431619260924663
 21
40.6424393390932082
 31
0.0
  0
LINE
  5
769
  8
0
  6
CONTINUOUS
 62
     7
 10
69.0248880682924266
 20
43.9389155924932311
 30
0.0
 11
71.0986994493924271
 21
41.1194641642932126
 31
0.0
  0
LINE
  5
76A
  8
0
  6
CONTINUOUS
 62
     7
 10
72.6586549388924539
 20
42.2668694416932382
 30
0.0
 11
71.0986994493924271
 21
41.1194641642932126
 31
0.0
  0
LINE
  5
76B
  8
0
  6
CONTINUOUS
 62
     7
 10
72.6586549388924539
 20
42.2668694416932382
 30
0.0
 11
70.5848435578924551
 21
45.0863208698932212
 31
0.0
  0
LINE
  5
76C
  8
0
  6
CONTINUOUS
 62
     7
 10
71.8187596903924543
 20
45.9939120747932293
 30
0.0
 11
70.5848435578924551
 21
45.0863208698932212
 31
0.0
  0
LINE
  5
76D
  8
0
  6
CONTINUOUS
 62
     7
 10
79.8187596903924543
 20
45.9939120747932293
 30
0.0
 11
71.8187596903924543
 21
45.9939120747932293
 31
0.0
  0
LINE
  5
76E
  8
0
  6
CONTINUOUS
 62
     7
 10
61.71875969039246
 20
29.0939120747932201
 30
0.0
 11
79.8187596903924543
 21
29.0939120747932201
 31
0.0
  0
ARC
  5
76F
  8
0
  6
CONTINUOUS
 62
     7
 10
61.71875969039246
 20
31.0939120747932307
 30
0.0
 40
2.0
 50
180.0
 51
270.0
  0
LINE
  5
770
  8
0
  6
CONTINUOUS
 62
     7
 10
59.71875969039246
 20
37.0939120747932307
 30
0.0
 11
59.71875969039246
 21
31.0939120747932307
 31
0.0
  0
LINE
  5
771
  8
0
  6
CONTINUOUS
 62
     7
 10
62.9832064364924165
 20
39.4950340616932465
 30
0.0
 11
59.71875969039246
 21
37.0939120747932307
 31
0.0
  0
LINE
  5
772
  8
0
  6
CONTINUOUS
 62
     7
 10
62.9832064364924165
 20
39.4950340616932465
 30
0.0
 11
65.0570178175924241
 21
36.6755826334932422
 31
0.0
  0
LINE
  5
773
  8
0
  6
CONTINUOUS
 62
     7
 10
66.6169733070924508
 20
37.8229879108932323
 30
0.0
 11
65.0570178175924241
 21
36.6755826334932422
 31
0.0
  0
LINE
  5
774
  8
0
  6
CONTINUOUS
 62
     7
 10
66.6169733070924508
 20
37.8229879108932323
 30
0.0
 11
64.5431619260924663
 21
40.6424393390932082
 31
0.0
  0
LINE
  5
775
  8
0
  6
CONTINUOUS
 62
     7
 10
79.8187596903924543
 20
29.0939120747932201
 30
0.0
 11
79.8187596903924543
 21
29.2939120747932087
 31
0.0
  0
LINE
  5
776
  8
0
  6
CONTINUOUS
 62
     7
 10
79.8187596903924543
 20
-38.1060879252068005
 30
0.0
 11
79.8187596903924543
 21
-37.9959843349067796
 31
0.0
  0
LINE
  5
777
  8
0
  6
CONTINUOUS
 62
     7
 10
80.8187596903924543
 20
-33.2060879252067878
 30
0.0
 11
79.8187596903924543
 21
-33.2060879252067878
 31
0.0
  0
LINE
  5
778
  8
0
  6
CONTINUOUS
 62
     7
 10
80.8187596903924543
 20
-38.3060879252067821
 30
0.0
 11
80.8187596903924543
 21
-37.5060879252067707
 31
0.0
  0
LINE
  5
779
  8
0
  6
CONTINUOUS
 62
     7
 10
80.8187596903924543
 20
-33.5060879252067707
 30
0.0
 11
80.8187596903924543
 21
-33.2060879252067878
 31
0.0
  0
LINE
  5
77A
  8
0
  6
CONTINUOUS
 62
     7
 10
80.8187596903924543
 20
24.1939120747932215
 30
0.0
 11
79.8187596903924543
 21
24.1939120747932215
 31
0.0
  0
LINE
  5
77B
  8
0
  6
CONTINUOUS
 62
     7
 10
79.8187596903924543
 20
28.9838084844932418
 30
0.0
 11
79.8187596903924543
 21
29.0939120747932201
 31
0.0
  0
LINE
  5
77C
  8
0
  6
CONTINUOUS
 62
     7
 10
80.8187596903924543
 20
24.1939120747932215
 30
0.0
 11
80.8187596903924543
 21
24.4939120747932293
 31
0.0
  0
LINE
  5
77D
  8
0
  6
CONTINUOUS
 62
     7
 10
80.8187596903924543
 20
28.4939120747932293
 30
0.0
 11
80.8187596903924543
 21
29.2939120747932087
 31
0.0
  0
LINE
  5
77E
  8
0
  6
CONTINUOUS
 62
     7
 10
80.8187596903924543
 20
23.6939120747932215
 30
0.0
 11
80.8187596903924543
 21
24.1939120747932215
 31
0.0
  0
LINE
  5
77F
  8
0
  6
CONTINUOUS
 62
     7
 10
80.8187596903924543
 20
-33.2060879252067878
 30
0.0
 11
80.8187596903924543
 21
-32.7060879252067878
 31
0.0
  0
LINE
  5
780
  8
0
  6
CONTINUOUS
 62
     7
 10
89.8187596903924543
 20
-23.7560879252067707
 30
0.0
 11
89.8187596903924543
 21
-56.5060879252067707
 31
0.0
  0
ARC
  5
782
  8
0
  6
CONTINUOUS
 62
     7
 10
89.3187596903924543
 20
-56.5060879252067707
 30
0.0
 40
0.5
 50
270.0
 51
0.0
  0
LINE
  5
783
  8
0
  6
CONTINUOUS
 62
     7
 10
89.3187596903924543
 20
-57.0060879252067707
 30
0.0
 11
79.8187596903924543
 21
-57.0060879252067707
 31
0.0
  0
LINE
  5
784
  8
0
  6
CONTINUOUS
 62
     7
 10
79.8187596903924543
 20
-57.0060879252067707
 30
0.0
 11
79.8187596903924543
 21
-56.5060879252067707
 31
0.0
  0
LINE
  5
785
  8
0
  6
CONTINUOUS
 62
     7
 10
84.3187596903924543
 20
-38.3060879252067821
 30
0.0
 11
79.8187596903924543
 21
-38.3060879252067821
 31
0.0
  0
LINE
  5
786
  8
0
  6
CONTINUOUS
 62
     7
 10
84.3187596903924543
 20
-32.7060879252067878
 30
0.0
 11
84.3187596903924543
 21
-38.3060879252067821
 31
0.0
  0
LINE
  5
787
  8
0
  6
CONTINUOUS
 62
     7
 10
84.3187596903924543
 20
-32.7060879252067878
 30
0.0
 11
79.8187596903924543
 21
-32.7060879252067878
 31
0.0
  0
LINE
  5
788
  8
0
  6
CONTINUOUS
 62
     7
 10
79.8187596903924543
 20
-32.7060879252067878
 30
0.0
 11
79.8187596903924543
 21
-30.9560879252067913
 31
0.0
  0
LINE
  5
789
  8
0
  6
CONTINUOUS
 62
     7
 10
79.8187596903924543
 20
-30.9560879252067913
 30
0.0
 11
85.21875969039246
 21
-30.9560879252067913
 31
0.0
  0
LINE
  5
78A
  8
0
  6
CONTINUOUS
 62
     7
 10
85.21875969039246
 20
-22.0560879252067785
 30
0.0
 11
85.21875969039246
 21
-30.9560879252067913
 31
0.0
  0
LINE
  5
78B
  8
0
  6
CONTINUOUS
 62
     7
 10
79.8187596903924543
 20
-22.0560879252067785
 30
0.0
 11
85.21875969039246
 21
-22.0560879252067785
 31
0.0
  0
LINE
  5
78C
  8
0
  6
CONTINUOUS
 62
     7
 10
79.8187596903924543
 20
-22.0560879252067785
 30
0.0
 11
79.8187596903924543
 21
13.0439120747932105
 31
0.0
  0
LINE
  5
78D
  8
0
  6
CONTINUOUS
 62
     7
 10
79.8187596903924543
 20
13.0439120747932105
 30
0.0
 11
85.21875969039246
 21
13.0439120747932105
 31
0.0
  0
LINE
  5
78E
  8
0
  6
CONTINUOUS
 62
     7
 10
85.21875969039246
 20
13.0439120747932105
 30
0.0
 11
85.21875969039246
 21
21.9439120747932215
 31
0.0
  0
LINE
  5
78F
  8
0
  6
CONTINUOUS
 62
     7
 10
79.8187596903924543
 20
21.9439120747932215
 30
0.0
 11
85.21875969039246
 21
21.9439120747932215
 31
0.0
  0
LINE
  5
790
  8
0
  6
CONTINUOUS
 62
     7
 10
79.8187596903924543
 20
21.9439120747932215
 30
0.0
 11
79.8187596903924543
 21
23.6939120747932215
 31
0.0
  0
LINE
  5
791
  8
0
  6
CONTINUOUS
 62
     7
 10
84.3187596903924543
 20
23.6939120747932215
 30
0.0
 11
79.8187596903924543
 21
23.6939120747932215
 31
0.0
  0
LINE
  5
792
  8
0
  6
CONTINUOUS
 62
     7
 10
84.3187596903924543
 20
29.2939120747932087
 30
0.0
 11
84.3187596903924543
 21
23.6939120747932215
 31
0.0
  0
LINE
  5
793
  8
0
  6
CONTINUOUS
 62
     7
 10
84.3187596903924543
 20
29.2939120747932087
 30
0.0
 11
79.8187596903924543
 21
29.2939120747932087
 31
0.0
  0
LINE
  5
794
  8
0
  6
CONTINUOUS
 62
     7
 10
79.8187596903924543
 20
29.2939120747932087
 30
0.0
 11
79.8187596903924543
 21
47.4939120747932222
 31
0.0
  0
LINE
  5
795
  8
0
  6
CONTINUOUS
 62
     7
 10
85.8187596903924543
 20
13.2439120747932293
 30
0.0
 11
85.8187596903924543
 21
10.5939120747932201
 31
0.0
  0
LINE
  5
796
  8
0
  6
CONTINUOUS
 62
     7
 10
85.96875969039246
 20
10.5939120747932201
 30
0.0
 11
85.8187596903924543
 21
10.5939120747932201
 31
0.0
  0
ARC
  5
797
  8
0
  6
CONTINUOUS
 62
     7
 10
85.1687596903924486
 20
9.9939120747932293
 30
0.0
 40
1.000000000000022
 50
323.1301023542004032
 51
36.8698976457996608
  0
LINE
  5
798
  8
0
  6
CONTINUOUS
 62
     7
 10
85.8187596903924543
 20
9.3939120747932066
 30
0.0
 11
85.96875969039246
 21
9.3939120747932066
 31
0.0
  0
LINE
  5
799
  8
0
  6
CONTINUOUS
 62
     7
 10
85.8187596903924543
 20
9.3939120747932066
 30
0.0
 11
85.8187596903924543
 21
-22.2560879252067707
 31
0.0
  0
LINE
  5
79A
  8
0
  6
CONTINUOUS
 62
     7
 10
79.8187596903924543
 20
-56.5060879252067707
 30
0.0
 11
79.8187596903924543
 21
-38.3060879252067821
 31
0.0
  0
LINE
  5
79B
  8
0
  6
CONTINUOUS
 62
     7
 10
83.8187596903924543
 20
-52.3060879252067821
 30
0.0
 11
83.8187596903924543
 21
-48.7060879252067878
 31
0.0
  0
LINE
  5
79C
  8
0
  6
CONTINUOUS
 62
     7
 10
83.8187596903924543
 20
-48.7060879252067878
 30
0.0
 11
81.8187596903924543
 21
-48.7060879252067878
 31
0.0
  0
LINE
  5
79D
  8
0
  6
CONTINUOUS
 62
     7
 10
81.8187596903924543
 20
-48.7060879252067878
 30
0.0
 11
81.8187596903924543
 21
-52.3060879252067821
 31
0.0
  0
LINE
  5
79E
  8
0
  6
CONTINUOUS
 62
     7
 10
81.8187596903924543
 20
-52.3060879252067821
 30
0.0
 11
83.8187596903924543
 21
-52.3060879252067821
 31
0.0
  0
LINE
  5
79F
  8
0
  6
CONTINUOUS
 62
     7
 10
81.8187596903924543
 20
39.6939120747932179
 30
0.0
 11
83.8187596903924543
 21
39.6939120747932179
 31
0.0
  0
LINE
  5
7A0
  8
0
  6
CONTINUOUS
 62
     7
 10
83.8187596903924543
 20
39.6939120747932179
 30
0.0
 11
83.8187596903924543
 21
43.2939120747932122
 31
0.0
  0
LINE
  5
7A1
  8
0
  6
CONTINUOUS
 62
     7
 10
83.8187596903924543
 20
43.2939120747932122
 30
0.0
 11
81.8187596903924543
 21
43.2939120747932122
 31
0.0
  0
LINE
  5
7A2
  8
0
  6
CONTINUOUS
 62
     7
 10
81.8187596903924543
 20
43.2939120747932122
 30
0.0
 11
81.8187596903924543
 21
39.6939120747932179
 31
0.0
  0
LINE
  5
7A3
  8
0
  6
CONTINUOUS
 62
     7
 10
88.9527342865924595
 20
-22.2560879252067707
 30
0.0
 11
89.8187596903924543
 21
-23.7560879252067707
 31
0.0
  0
LINE
  5
7A5
  8
0
  6
CONTINUOUS
 62
     7
 10
85.8187596903924543
 20
-22.2560879252067707
 30
0.0
 11
88.9527342865924595
 21
-22.2560879252067707
 31
0.0
  0
LINE
  5
7A6
  8
0
  6
CONTINUOUS
 62
     7
 10
89.8187596903924543
 20
13.2439120747932293
 30
0.0
 11
85.8187596903924543
 21
13.2439120747932293
 31
0.0
  0
LINE
  5
7A8
  8
0
  6
CONTINUOUS
 62
     7
 10
89.8187596903924543
 20
47.4939120747932222
 30
0.0
 11
89.8187596903924543
 21
13.2439120747932293
 31
0.0
  0
ARC
  5
7A9
  8
0
  6
CONTINUOUS
 62
     7
 10
89.3187596903924543
 20
47.4939120747932222
 30
0.0
 40
0.5
 50
0.0
 51
90.0
  0
LINE
  5
7AA
  8
0
  6
CONTINUOUS
 62
     7
 10
79.8187596903924543
 20
47.9939120747932293
 30
0.0
 11
89.3187596903924543
 21
47.9939120747932293
 31
0.0
  0
LINE
  5
7AB
  8
0
  6
CONTINUOUS
 62
     7
 10
79.8187596903924543
 20
47.4939120747932222
 30
0.0
 11
79.8187596903924543
 21
47.9939120747932293
 31
0.0
  0
LINE
  5
7AC
  8
0
  6
CONTINUOUS
 62
     7
 10
84.3187596903924543
 20
13.0439120747932105
 30
0.0
 11
84.3187596903924543
 21
21.9439120747932215
 31
0.0
  0
LINE
  5
7AD
  8
0
  6
CONTINUOUS
 62
     7
 10
84.3187596903924543
 20
-22.0560879252067785
 30
0.0
 11
84.3187596903924543
 21
-30.9560879252067913
 31
0.0
  0
LINE
  5
7AE
  8
0
  6
CONTINUOUS
 62
     7
 10
81.3187596903924543
 20
20.4939120747932293
 30
0.0
 11
81.3187596903924543
 21
14.4939120747932293
 31
0.0
  0
LINE
  5
7AF
  8
0
  6
CONTINUOUS
 62
     7
 10
81.3187596903924543
 20
20.4939120747932293
 30
0.0
 11
81.9187596903924344
 21
20.4939120747932293
 31
0.0
  0
LINE
  5
7B0
  8
0
  6
CONTINUOUS
 62
     7
 10
81.9187596903924344
 20
20.4939120747932293
 30
0.0
 11
81.9187596903924344
 21
14.4939120747932293
 31
0.0
  0
LINE
  5
7B1
  8
0
  6
CONTINUOUS
 62
     7
 10
81.3187596903924543
 20
14.4939120747932293
 30
0.0
 11
81.9187596903924344
 21
14.4939120747932293
 31
0.0
  0
LINE
  5
7B2
  8
0
  6
CONTINUOUS
 62
     7
 10
81.9187596903924344
 20
-29.5060879252067707
 30
0.0
 11
81.9187596903924344
 21
-23.5060879252067707
 31
0.0
  0
LINE
  5
7B3
  8
0
  6
CONTINUOUS
 62
     7
 10
81.3187596903924543
 20
-29.5060879252067707
 30
0.0
 11
81.3187596903924543
 21
-23.5060879252067707
 31
0.0
  0
LINE
  5
7B4
  8
0
  6
CONTINUOUS
 62
     7
 10
81.3187596903924543
 20
-29.5060879252067707
 30
0.0
 11
81.9187596903924344
 21
-29.5060879252067707
 31
0.0
  0
LINE
  5
7B5
  8
0
  6
CONTINUOUS
 62
     7
 10
81.3187596903924543
 20
-23.5060879252067707
 30
0.0
 11
81.9187596903924344
 21
-23.5060879252067707
 31
0.0
  0
LINE
  5
7B6
  8
0
  6
CONTINUOUS
 62
     7
 10
80.5187596903924714
 20
20.4939120747932293
 30
0.0
 11
80.5187596903924714
 21
14.4939120747932293
 31
0.0
  0
LINE
  5
7B7
  8
0
  6
CONTINUOUS
 62
     7
 10
80.5187596903924714
 20
20.4939120747932293
 30
0.0
 11
81.3187596903924543
 21
20.4939120747932293
 31
0.0
  0
LINE
  5
7B8
  8
0
  6
CONTINUOUS
 62
     7
 10
80.5187596903924714
 20
14.4939120747932293
 30
0.0
 11
81.3187596903924543
 21
14.4939120747932293
 31
0.0
  0
LINE
  5
7B9
  8
0
  6
CONTINUOUS
 62
     7
 10
80.5187596903924714
 20
-29.5060879252067707
 30
0.0
 11
80.5187596903924714
 21
-23.5060879252067707
 31
0.0
  0
LINE
  5
7BA
  8
0
  6
CONTINUOUS
 62
     7
 10
80.5187596903924714
 20
-29.5060879252067707
 30
0.0
 11
81.3187596903924543
 21
-29.5060879252067707
 31
0.0
  0
LINE
  5
7BB
  8
0
  6
CONTINUOUS
 62
     7
 10
80.5187596903924714
 20
-23.5060879252067707
 30
0.0
 11
81.3187596903924543
 21
-23.5060879252067707
 31
0.0
  0
LINE
  5
7BC
  8
0
  6
CONTINUOUS
 62
     7
 10
84.3187596903924543
 20
-37.5060879252067707
 30
0.0
 11
83.8187596903924543
 21
-37.5060879252067707
 31
0.0
  0
LINE
  5
7BD
  8
0
  6
CONTINUOUS
 62
     7
 10
83.8187596903924543
 20
-33.5060879252067707
 30
0.0
 11
84.3187596903924543
 21
-33.5060879252067707
 31
0.0
  0
LINE
  5
7BE
  8
0
  6
CONTINUOUS
 62
     7
 10
83.8187596903924543
 20
28.4939120747932293
 30
0.0
 11
84.3187596903924543
 21
28.4939120747932293
 31
0.0
  0
LINE
  5
7BF
  8
0
  6
CONTINUOUS
 62
     7
 10
84.3187596903924543
 20
24.4939120747932293
 30
0.0
 11
83.8187596903924543
 21
24.4939120747932293
 31
0.0
  0
LINE
  5
7C0
  8
0
  6
CONTINUOUS
 62
     7
 10
79.8187596903924543
 20
-37.5060879252067707
 30
0.0
 11
83.8187596903924543
 21
-37.5060879252067707
 31
0.0
  0
LINE
  5
7C1
  8
0
  6
CONTINUOUS
 62
     7
 10
79.8187596903924543
 20
-33.5060879252067707
 30
0.0
 11
83.8187596903924543
 21
-33.5060879252067707
 31
0.0
  0
LINE
  5
7C2
  8
0
  6
CONTINUOUS
 62
     7
 10
79.8187596903924543
 20
28.4939120747932293
 30
0.0
 11
83.8187596903924543
 21
28.4939120747932293
 31
0.0
  0
LINE
  5
7C3
  8
0
  6
CONTINUOUS
 62
     7
 10
79.8187596903924543
 20
24.4939120747932293
 30
0.0
 11
83.8187596903924543
 21
24.4939120747932293
 31
0.0
  0
LINE
  5
7C4
  8
0
  6
CONTINUOUS
 62
     7
 10
80.3187596903924543
 20
21.9439120747932215
 30
0.0
 11
80.3187596903924543
 21
21.7939120747932087
 31
0.0
  0
LINE
  5
7C5
  8
0
  6
CONTINUOUS
 62
     7
 10
80.3187596903924543
 20
20.7939120747932087
 30
0.0
 11
80.3187596903924543
 21
14.1939120747932108
 31
0.0
  0
LINE
  5
7C6
  8
0
  6
CONTINUOUS
 62
     7
 10
80.3187596903924543
 20
13.1939120747932197
 30
0.0
 11
80.3187596903924543
 21
13.0439120747932105
 31
0.0
  0
LINE
  5
7C7
  8
0
  6
CONTINUOUS
 62
     7
 10
80.3187596903924543
 20
-22.0560879252067785
 30
0.0
 11
80.3187596903924543
 21
-22.2060879252067913
 31
0.0
  0
LINE
  5
7C8
  8
0
  6
CONTINUOUS
 62
     7
 10
80.3187596903924543
 20
-23.2060879252067913
 30
0.0
 11
80.3187596903924543
 21
-29.8060879252067785
 31
0.0
  0
LINE
  5
7C9
  8
0
  6
CONTINUOUS
 62
     7
 10
80.3187596903924543
 20
-30.8060879252067785
 30
0.0
 11
80.3187596903924543
 21
-30.9560879252067913
 31
0.0
  0
LINE
  5
7CA
  8
0
  6
CONTINUOUS
 62
     7
 10
79.8187596903924543
 20
13.0439120747932105
 30
0.0
 11
79.8187596903924543
 21
13.1939120747932197
 31
0.0
  0
LINE
  5
7CB
  8
0
  6
CONTINUOUS
 62
     7
 10
79.8187596903924543
 20
14.1939120747932108
 30
0.0
 11
79.8187596903924543
 21
20.7939120747932087
 31
0.0
  0
LINE
  5
7CC
  8
0
  6
CONTINUOUS
 62
     7
 10
79.8187596903924543
 20
21.7939120747932087
 30
0.0
 11
79.8187596903924543
 21
21.9439120747932215
 31
0.0
  0
LINE
  5
7CD
  8
0
  6
CONTINUOUS
 62
     7
 10
79.8187596903924543
 20
-30.9560879252067913
 30
0.0
 11
79.8187596903924543
 21
-30.8060879252067785
 31
0.0
  0
LINE
  5
7CE
  8
0
  6
CONTINUOUS
 62
     7
 10
79.8187596903924543
 20
-29.8060879252067785
 30
0.0
 11
79.8187596903924543
 21
-23.2060879252067913
 31
0.0
  0
LINE
  5
7CF
  8
0
  6
CONTINUOUS
 62
     7
 10
79.8187596903924543
 20
-22.2060879252067913
 30
0.0
 11
79.8187596903924543
 21
-22.0560879252067785
 31
0.0
  0
LINE
  5
7D0
  8
0
  6
CONTINUOUS
 62
     7
 10
83.8187596903924543
 20
-38.3060879252067821
 30
0.0
 11
83.8187596903924543
 21
-37.5060879252067707
 31
0.0
  0
LINE
  5
7D1
  8
0
  6
CONTINUOUS
 62
     7
 10
88.4087135903924661
 20
11.5518567548932296
 30
0.0
 11
89.8187596903924543
 21
13.2439120747932293
 31
0.0
  0
ARC
  5
7D2
  8
0
  6
CONTINUOUS
 62
     7
 10
88.1782472065924452
 20
11.7439120747932293
 30
0.0
 40
0.3000000000000114
 50
270.0
 51
320.1944289076998871
  0
LINE
  5
7D3
  8
0
  6
CONTINUOUS
 62
     7
 10
87.5872725282924449
 20
11.4439120747932197
 30
0.0
 11
88.1782472065924452
 21
11.4439120747932197
 31
0.0
  0
ARC
  5
7D4
  8
0
  6
CONTINUOUS
 62
     7
 10
87.5872725282924449
 20
11.7439120747932293
 30
0.0
 40
0.3000000000000114
 50
186.3401917459001993
 51
270.0
  0
LINE
  5
7D5
  8
0
  6
CONTINUOUS
 62
     7
 10
87.1187596903924657
 20
13.2439120747932293
 30
0.0
 11
87.2891074078924447
 21
11.7107826169932405
 31
0.0
  0
LINE
  5
7E8
  8
0
  6
PHANTOM
 62
     8
 10
83.8187596903924543
 20
-37.5060879252067707
 30
0.0
 11
83.8187596903924543
 21
-33.5060879252067707
 31
0.0
  0
LINE
  5
7E9
  8
0
  6
PHANTOM
 62
     8
 10
83.8187596903924543
 20
24.4939120747932293
 30
0.0
 11
83.8187596903924543
 21
28.4939120747932293
 31
0.0
  0
LINE
  5
872
  8
レイヤー_1
  6
CENTERX2
 62
     3
 10
45.6355228976399019
 20
-4.4999005807919721
 30
0.0
 11
89.6183679376399169
 21
-4.4999005807919721
 31
0.0
  0
LINE
  5
873
  8
レイヤー_1
  6
CENTERX2
 62
     3
 10
-1.0800355829292689
 20
50.5985166704524474
 30
0.0
 11
-1.0800355829292689
 21
-62.9673934422612476
 31
0.0
  0
LINE
  5
874
  8
レイヤー_1
  6
CENTERX2
 62
     3
 10
-17.7196091427817883
 20
-4.4999005807919721
 30
0.0
 11
15.5038581972182197
 21
-4.4999005807919721
 31
0.0
  0
ENDSEC
  0
EOF
