  0
SECTION
  2
HEADER
  9
$ACADVER
  1
AC1009
  9
$INSBASE
 10
0.0
 20
0.0
 30
0.0
  9
$EXTMIN
 10
-50.9658813400000028
 20
-101.894570139999999
 30
0.0
  9
$EXTMAX
 10
123.9461538500000017
 20
51.1839558799999992
 30
0.0
  9
$LIMMIN
 10
-59.6447631799999911
 20
-109.9311927499999939
  9
$LIMMAX
 10
123.0250356899999957
 20
59.220578500000002
  9
$ORTHOMODE
 70
     0
  9
$REGENMODE
 70
     1
  9
$FILLMODE
 70
     1
  9
$QTEXTMODE
 70
     0
  9
$MIRRTEXT
 70
     1
  9
$DRAGMODE
 70
     2
  9
$LTSCALE
 40
1.0
  9
$OSMODE
 70
    37
  9
$ATTMODE
 70
     1
  9
$TEXTSIZE
 40
5.0
  9
$TRACEWID
 40
0.05
  9
$TEXTSTYLE
  7
STANDARD
  9
$CLAYER
  8
0
  9
$CELTYPE
  6
CONTINUOUS
  9
$CECOLOR
 62
   256
  9
$DIMSCALE
 40
1.0
  9
$DIMASZ
 40
0.18
  9
$DIMEXO
 40
0.0625
  9
$DIMDLI
 40
0.38
  9
$DIMRND
 40
0.0
  9
$DIMDLE
 40
0.0
  9
$DIMEXE
 40
0.18
  9
$DIMTP
 40
0.0
  9
$DIMTM
 40
0.0
  9
$DIMTXT
 40
0.18
  9
$DIMCEN
 40
0.09
  9
$DIMTSZ
 40
0.0
  9
$DIMTOL
 70
     0
  9
$DIMLIM
 70
     0
  9
$DIMTIH
 70
     1
  9
$DIMTOH
 70
     1
  9
$DIMSE1
 70
     0
  9
$DIMSE2
 70
     0
  9
$DIMTAD
 70
     0
  9
$DIMZIN
 70
     0
  9
$DIMBLK
  1

  9
$DIMASO
 70
     1
  9
$DIMSHO
 70
     1
  9
$DIMPOST
  1

  9
$DIMAPOST
  1

  9
$DIMALT
 70
     0
  9
$DIMALTD
 70
     2
  9
$DIMALTF
 40
25.3999999999999986
  9
$DIMLFAC
 40
1.0
  9
$DIMTOFL
 70
     0
  9
$DIMTVP
 40
0.0
  9
$DIMTIX
 70
     0
  9
$DIMSOXD
 70
     0
  9
$DIMSAH
 70
     0
  9
$DIMBLK1
  1

  9
$DIMBLK2
  1

  9
$DIMSTYLE
  2
STANDARD
  9
$DIMCLRD
 70
     0
  9
$DIMCLRE
 70
     0
  9
$DIMCLRT
 70
     0
  9
$DIMTFAC
 40
1.0
  9
$DIMGAP
 40
0.09
  9
$LUNITS
 70
     2
  9
$LUPREC
 70
     4
  9
$SKETCHINC
 40
0.1
  9
$FILLETRAD
 40
0.0
  9
$AUNITS
 70
     0
  9
$AUPREC
 70
     0
  9
$MENU
  1
acad
  9
$ELEVATION
 40
0.0
  9
$PELEVATION
 40
0.0
  9
$THICKNESS
 40
0.0
  9
$LIMCHECK
 70
     0
  9
$BLIPMODE
 70
     0
  9
$CHAMFERA
 40
0.0
  9
$CHAMFERB
 40
0.0
  9
$SKPOLY
 70
     0
  9
$TDCREATE
 40
2440588.749988425988704
  9
$TDUPDATE
 40
2460090.4921064809896052
  9
$TDINDWG
 40
0.005625
  9
$TDUSRTIMER
 40
0.005625
  9
$USRTIMER
 70
     1
  9
$ANGBASE
 50
0.0
  9
$ANGDIR
 70
     0
  9
$PDMODE
 70
     0
  9
$PDSIZE
 40
1.0
  9
$PLINEWID
 40
0.0
  9
$COORDS
 70
     1
  9
$SPLFRAME
 70
     0
  9
$SPLINETYPE
 70
     6
  9
$SPLINESEGS
 70
     8
  9
$ATTDIA
 70
     1
  9
$ATTREQ
 70
     1
  9
$HANDLING
 70
     1
  9
$HANDSEED
  5
22C
  9
$SURFTAB1
 70
     6
  9
$SURFTAB2
 70
     6
  9
$SURFTYPE
 70
     6
  9
$SURFU
 70
     6
  9
$SURFV
 70
     6
  9
$UCSNAME
  2

  9
$UCSORG
 10
0.0
 20
0.0
 30
0.0
  9
$UCSXDIR
 10
1.0
 20
0.0
 30
0.0
  9
$UCSYDIR
 10
0.0
 20
1.0
 30
0.0
  9
$PUCSNAME
  2

  9
$PUCSORG
 10
0.0
 20
0.0
 30
0.0
  9
$PUCSXDIR
 10
1.0
 20
0.0
 30
0.0
  9
$PUCSYDIR
 10
0.0
 20
1.0
 30
0.0
  9
$USERI1
 70
     0
  9
$USERI2
 70
     0
  9
$USERI3
 70
     0
  9
$USERI4
 70
     0
  9
$USERI5
 70
     0
  9
$USERR1
 40
0.0
  9
$USERR2
 40
0.0
  9
$USERR3
 40
0.0
  9
$USERR4
 40
0.0
  9
$USERR5
 40
0.0
  9
$WORLDVIEW
 70
     1
  9
$SHADEDGE
 70
     3
  9
$SHADEDIF
 70
    70
  9
$TILEMODE
 70
     1
  9
$MAXACTVP
 70
    16
  9
$PLIMCHECK
 70
     0
  9
$PEXTMIN
 10
1.0000000000000000E+20
 20
1.0000000000000000E+20
 30
1.0000000000000000E+20
  9
$PEXTMAX
 10
-1.0000000000000000E+20
 20
-1.0000000000000000E+20
 30
-1.0000000000000000E+20
  9
$PLIMMIN
 10
0.0
 20
0.0
  9
$PLIMMAX
 10
12.0
 20
9.0
  9
$UNITMODE
 70
     0
  9
$VISRETAIN
 70
     0
  9
$PLINEGEN
 70
     1
  9
$PSLTSCALE
 70
     0
  0
ENDSEC
  0
SECTION
  2
TABLES
  0
TABLE
  2
VPORT
 70
     1
  0
VPORT
  2
*ACTIVE
 70
     0
 10
0.0
 20
0.0
 11
1.0
 21
1.0
 12
24.2455621404075714
 22
-18.4365202774647798
 13
0.0
 23
0.0
 14
1.0
 24
1.0
 15
0.0
 25
0.0
 16
0.0
 26
0.0
 36
1.0
 17
0.0
 27
0.0
 37
0.0
 40
170.6067840415614114
 41
1.9341040462427741
 42
50.0
 43
0.0
 44
0.0
 50
0.0
 51
0.0
 71
     0
 72
   100
 73
     1
 74
     1
 75
     0
 76
     0
 77
     0
 78
     0
  0
ENDTAB
  0
TABLE
  2
LTYPE
 70
    28
  0
LTYPE
  2
CONTINUOUS
 70
     0
  3
Solid line
 72
    65
 73
     0
 40
0.0
  0
LTYPE
  2
HIDDENX2
 70
     0
  3
CADPAC LINETYPE
 72
    65
 73
     2
 40
11.8800000000000008
 49
8.9100000000000001
 49
-2.9700000000000002
  0
LTYPE
  2
HIDDEN
 70
     0
  3
CADPAC LINETYPE
 72
    65
 73
     2
 40
8.9100000000000001
 49
5.9400000000000004
 49
-2.9700000000000002
  0
LTYPE
  2
HIDDEN2
 70
     0
  3
CADPAC LINETYPE
 72
    65
 73
     2
 40
7.4249999999999989
 49
4.4550000000000001
 49
-2.9700000000000002
  0
LTYPE
  2
DASHED
 70
     0
  3
CADPAC LINETYPE
 72
    65
 73
     2
 40
8.9100000000000001
 49
5.9400000000000004
 49
-2.9700000000000002
  0
LTYPE
  2
DASHED2
 70
     0
  3
CADPAC LINETYPE
 72
    65
 73
     2
 40
6.6825000000000001
 49
4.4550000000000001
 49
-2.2275
  0
LTYPE
  2
DASHEDX2
 70
     0
  3
CADPAC LINETYPE
 72
    65
 73
     2
 40
13.3650000000000002
 49
8.9100000000000001
 49
-4.4550000000000001
  0
LTYPE
  2
DOTX2
 70
     0
  3
CADPAC LINETYPE
 72
    65
 73
     2
 40
3.712499999999999
 49
0.0
 49
-3.712499999999999
  0
LTYPE
  2
DOT
 70
     0
  3
CADPAC LINETYPE
 72
    65
 73
     2
 40
2.9700000000000002
 49
0.0
 49
-2.9700000000000002
  0
LTYPE
  2
DOT2
 70
     0
  3
CADPAC LINETYPE
 72
    65
 73
     2
 40
2.2275
 49
0.0
 49
-2.2275
  0
LTYPE
  2
CENTERX2
 70
     0
  3
CADPAC LINETYPE
 72
    65
 73
     4
 40
17.8200000000000003
 49
7.4249999999999989
 49
-3.712499999999999
 49
2.9700000000000002
 49
-3.712499999999999
  0
LTYPE
  2
CENTER
 70
     0
  3
CADPAC LINETYPE
 72
    65
 73
     4
 40
13.6620000000000008
 49
5.9400000000000004
 49
-2.9700000000000002
 49
1.7819999999999989
 49
-2.9700000000000002
  0
LTYPE
  2
CENTER2
 70
     0
  3
CADPAC LINETYPE
 72
    65
 73
     4
 40
9.5039999999999996
 49
4.4550000000000001
 49
-2.2275
 49
0.594
 49
-2.2275
  0
LTYPE
  2
DASHDOTX2
 70
     0
  3
CADPAC LINETYPE
 72
    65
 73
     4
 40
14.8499999999999996
 49
7.4249999999999989
 49
-3.712499999999999
 49
0.0
 49
-3.712499999999999
  0
LTYPE
  2
DASHDOT
 70
     0
  3
CADPAC LINETYPE
 72
    65
 73
     4
 40
11.8800000000000008
 49
5.9400000000000004
 49
-2.9700000000000002
 49
0.0
 49
-2.9700000000000002
  0
LTYPE
  2
DASHDOT2
 70
     0
  3
CADPAC LINETYPE
 72
    65
 73
     4
 40
8.9100000000000001
 49
4.4550000000000001
 49
-2.2275
 49
0.0
 49
-2.2275
  0
LTYPE
  2
DIVIDEX2
 70
     0
  3
CADPAC LINETYPE
 72
    65
 73
     6
 40
18.5625
 49
7.4249999999999989
 49
-3.712499999999999
 49
0.0
 49
-3.712499999999999
 49
0.0
 49
-3.712499999999999
  0
LTYPE
  2
DIVIDE
 70
     0
  3
CADPAC LINETYPE
 72
    65
 73
     6
 40
14.8499999999999996
 49
5.9400000000000004
 49
-2.9700000000000002
 49
0.0
 49
-2.9700000000000002
 49
0.0
 49
-2.9700000000000002
  0
LTYPE
  2
DIVIDE2
 70
     0
  3
CADPAC LINETYPE
 72
    65
 73
     6
 40
11.1374999999999993
 49
4.4550000000000001
 49
-2.2275
 49
0.0
 49
-2.2275
 49
0.0
 49
-2.2275
  0
LTYPE
  2
BORDERX2
 70
     0
  3
CADPAC LINETYPE
 72
    65
 73
     6
 40
25.9875000000000007
 49
7.4249999999999989
 49
-3.712499999999999
 49
7.4249999999999989
 49
-3.712499999999999
 49
0.0
 49
-3.712499999999999
  0
LTYPE
  2
BORDER
 70
     0
  3
CADPAC LINETYPE
 72
    65
 73
     6
 40
20.7899999999999991
 49
5.9400000000000004
 49
-2.9700000000000002
 49
5.9400000000000004
 49
-2.9700000000000002
 49
0.0
 49
-2.9700000000000002
  0
LTYPE
  2
BORDER2
 70
     0
  3
CADPAC LINETYPE
 72
    65
 73
     6
 40
15.5924999999999994
 49
4.4550000000000001
 49
-2.2275
 49
4.4550000000000001
 49
-2.2275
 49
0.0
 49
-2.2275
  0
LTYPE
  2
PHANTOMX2
 70
     0
  3
CADPAC LINETYPE
 72
    65
 73
     6
 40
22.2749999999999986
 49
7.4249999999999989
 49
-2.9700000000000002
 49
2.9700000000000002
 49
-2.9700000000000002
 49
2.9700000000000002
 49
-2.9700000000000002
  0
LTYPE
  2
PHANTOM
 70
     0
  3
CADPAC LINETYPE
 72
    65
 73
     6
 40
18.4140000000000015
 49
5.9400000000000004
 49
-2.9700000000000002
 49
1.7819999999999989
 49
-2.9700000000000002
 49
1.7819999999999989
 49
-2.9700000000000002
  0
LTYPE
  2
PHANTOM2
 70
     0
  3
CADPAC LINETYPE
 72
    65
 73
     6
 40
15.7409999999999997
 49
4.4550000000000001
 49
-2.9700000000000002
 49
1.1879999999999991
 49
-2.9700000000000002
 49
1.1879999999999991
 49
-2.9700000000000002
  0
LTYPE
  2
ACAD_ISO06W100
 70
     0
  3
CADPAC LINETYPE
 72
    65
 73
     8
 40
20.0474999999999994
 49
7.4249999999999989
 49
-3.712499999999999
 49
0.0
 49
-2.9700000000000002
 49
0.0
 49
-2.9700000000000002
 49
0.0
 49
-2.9700000000000002
  0
LTYPE
  2
ACAD_ISO13W100
 70
     0
  3
CADPAC LINETYPE
 72
    65
 73
     8
 40
23.7600000000000016
 49
5.9400000000000004
 49
-2.9700000000000002
 49
5.9400000000000004
 49
-2.9700000000000002
 49
0.0
 49
-2.9700000000000002
 49
0.0
 49
-2.9700000000000002
  0
LTYPE
  2
ACAD_ISO14W100
 70
     0
  3
CADPAC LINETYPE
 72
    65
 73
     8
 40
17.8200000000000003
 49
5.9400000000000004
 49
-2.9700000000000002
 49
0.0
 49
-2.9700000000000002
 49
0.0
 49
-2.9700000000000002
 49
0.0
 49
-2.9700000000000002
  0
ENDTAB
  0
TABLE
  2
LAYER
 70
     2
  0
LAYER
  2
0
 70
     0
 62
     7
  6
CONTINUOUS
  0
LAYER
  2
レイヤー_1
 70
     0
 62
     7
  6
CONTINUOUS
  0
ENDTAB
  0
TABLE
  2
STYLE
 70
     1
  0
STYLE
  2
STANDARD
 70
     0
 40
0.0
 41
0.8
 50
0.0
 71
     0
 42
5.0
  3
txt.shx
  4
bigfont.shx
  0
ENDTAB
  0
TABLE
  2
VIEW
 70
     1
  0
VIEW
  2
QQQQ
 70
     0
 40
169.1517712499999959
 10
31.6901362599999992
 20
-25.3553071299999999
 41
182.6697988800000019
 11
0.0
 21
0.0
 31
1.0
 12
100.0
 22
100.0
 32
0.0
 42
50.0
 43
0.0
 44
0.0
 50
0.0
 71
     0
  0
ENDTAB
  0
TABLE
  2
UCS
 70
     0
  0
ENDTAB
  0
TABLE
  2
APPID
 70
     3
  0
APPID
  2
ACAD
 70
     0
  0
APPID
  2
ACAD_NAV_VCDISPLAY
 70
     0
  0
APPID
  2
ACAD_MLEADERVER
 70
     0
  0
ENDTAB
  0
TABLE
  2
DIMSTYLE
 70
     2
  0
DIMSTYLE
  2
STANDARD
 70
     0
  3

  4

  5

  6

  7

 40
1.0
 41
0.18
 42
0.0625
 43
0.38
 44
0.18
 45
0.0
 46
0.0
 47
0.0
 48
0.0
140
0.18
141
0.09
142
0.0
143
25.3999999999999986
144
1.0
145
0.0
146
1.0
147
0.09
 71
     0
 72
     0
 73
     1
 74
     1
 75
     0
 76
     0
 77
     0
 78
     0
170
     0
171
     2
172
     0
173
     0
174
     0
175
     0
176
     0
177
     0
178
     0
  0
DIMSTYLE
  2
ISO-25
 70
     0
  3

  4

  5

  6

  7

 40
1.0
 41
2.5
 42
0.625
 43
3.75
 44
1.25
 45
0.0
 46
0.0
 47
0.0
 48
0.0
140
2.5
141
2.5
142
0.0
143
0.0393700787
144
1.0
145
0.0
146
1.0
147
0.625
 71
     0
 72
     0
 73
     0
 74
     0
 75
     0
 76
     0
 77
     1
 78
     8
170
     0
171
     3
172
     1
173
     0
174
     0
175
     0
176
     0
177
     0
178
     0
  0
ENDTAB
  0
ENDSEC
  0
SECTION
  2
BLOCKS
  0
BLOCK
  8
0
  2
$MODEL_SPACE
 70
     0
 10
0.0
 20
0.0
 30
0.0
  3
$MODEL_SPACE
  1

  0
ENDBLK
  5
E
  8
0
  0
BLOCK
 67
     1
  8
0
  2
$PAPER_SPACE
 70
     0
 10
0.0
 20
0.0
 30
0.0
  3
$PAPER_SPACE
  1

  0
ENDBLK
  5
10
 67
     1
  8
0
  0
BLOCK
  8
0
  2
A$CB3C681B5
 70
     0
 10
0.0
 20
0.0
 30
0.0
  3
A$CB3C681B5
  1

  0
CIRCLE
  5
F0
  8
0
  6
CONTINUOUS
 62
     7
 10
3.9989999999999948
 20
34.2000000000000028
 30
0.0
 40
0.8499999999999943
  0
ARC
  5
F1
  8
0
  6
CONTINUOUS
 62
     7
 10
3.9989999999999948
 20
34.2000000000000028
 30
0.0
 40
2.0010000000000141
 50
98.6048297422996711
 51
81.3951702577003573
  0
LINE
  5
F2
  8
0
  6
CONTINUOUS
 62
     7
 10
3.700000000000002
 20
36.1773425877000108
 30
0.0
 11
3.700000000000002
 21
35.9748239349000016
 31
0.0
  0
ARC
  5
F3
  8
0
  6
CONTINUOUS
 62
     7
 10
3.9989999999999948
 20
34.2000000000000028
 30
0.0
 40
1.800414213562378
 50
99.573087021400454
 51
80.4269129785995744
  0
LINE
  5
F4
  8
0
  6
CONTINUOUS
 62
     7
 10
4.2980000000000009
 20
35.9746875353000135
 30
0.0
 11
4.2980000000000009
 21
36.1773425877000108
 31
0.0
  0
LINE
  5
F5
  8
0
  6
CONTINUOUS
 62
     7
 10
3.700000000000002
 20
35.8010000000000019
 30
0.0
 11
3.700000000000002
 21
35.9751523518000127
 31
0.0
  0
LINE
  5
F6
  8
0
  6
CONTINUOUS
 62
     7
 10
4.2980000000000009
 20
35.8010000000000019
 30
0.0
 11
3.700000000000002
 21
35.8010000000000019
 31
0.0
  0
LINE
  5
F7
  8
0
  6
CONTINUOUS
 62
     7
 10
4.2980000000000009
 20
35.9751523518000127
 30
0.0
 11
4.2980000000000009
 21
35.8010000000000019
 31
0.0
  0
LINE
  5
F8
  8
0
  6
CONTINUOUS
 62
     7
 10
2.9996180339000058
 20
33.8500000000000085
 30
0.0
 11
2.9996180339000058
 21
34.5499999999999972
 31
0.0
  0
ARC
  5
F9
  8
0
  6
CONTINUOUS
 62
     7
 10
3.9989999999999948
 20
33.8500000000000085
 30
0.0
 40
0.9993819660112563
 50
180.0
 51
0.0
  0
LINE
  5
FA
  8
0
  6
CONTINUOUS
 62
     7
 10
4.9983819660000099
 20
34.5499999999999972
 30
0.0
 11
4.9983819660000099
 21
33.8500000000000085
 31
0.0
  0
ARC
  5
FB
  8
0
  6
CONTINUOUS
 62
     7
 10
3.9989999999999948
 20
34.5499999999999972
 30
0.0
 40
0.9993819660112563
 50
0.0
 51
180.0
  0
LINE
  5
FC
  8
0
  6
CONTINUOUS
 62
     7
 10
3.0999999999999939
 20
34.5499999999999972
 30
0.0
 11
3.0999999999999939
 21
33.8500000000000085
 31
0.0
  0
LINE
  5
FD
  8
0
  6
CONTINUOUS
 62
     7
 10
4.8979999999999961
 20
33.8500000000000085
 30
0.0
 11
4.8979999999999961
 21
34.5499999999999972
 31
0.0
  0
ARC
  5
FE
  8
0
  6
CONTINUOUS
 62
     7
 10
3.9989999999999948
 20
34.5499999999999972
 30
0.0
 40
0.8990000000000009
 50
0.0
 51
180.0
  0
ARC
  5
FF
  8
0
  6
CONTINUOUS
 62
     7
 10
3.9989999999999948
 20
33.8500000000000085
 30
0.0
 40
0.8990000000000151
 50
180.0
 51
0.0
  0
ARC
  5
100
  8
0
  6
CONTINUOUS
 62
     7
 10
3.9989999999999948
 20
34.2000000000000028
 30
0.0
 40
2.0010000000000141
 50
81.3951702577003573
 51
98.6048297422996711
  0
ARC
  5
101
  8
0
  6
CONTINUOUS
 62
     7
 10
3.9989999999999948
 20
34.2000000000000028
 30
0.0
 40
0.9627848737237359
 50
20.97293438739975
 51
159.0270656126002109
  0
ARC
  5
102
  8
0
  6
CONTINUOUS
 62
     7
 10
3.9989999999999948
 20
34.2000000000000028
 30
0.0
 40
0.9627848737237339
 50
200.9729343873997038
 51
339.0270656126002109
  0
LINE
  5
103
  8
0
  6
CONTINUOUS
 62
     7
 10
5.9997351908999974
 20
34.2325529697999968
 30
0.0
 11
5.9997351908999974
 21
35.7003530138999992
 31
0.0
  0
LINE
  5
104
  8
0
  6
CONTINUOUS
 62
     7
 10
1.998264808999991
 20
35.6976836198999976
 30
0.0
 11
1.998264808999991
 21
34.2325529697999968
 31
0.0
  0
LINE
  5
105
  8
0
  6
CONTINUOUS
 62
     7
 10
5.9997351908999974
 20
32.6996469861000065
 30
0.0
 11
5.9997351908999974
 21
34.1674470302000088
 31
0.0
  0
LINE
  5
106
  8
0
  6
CONTINUOUS
 62
     7
 10
1.998264808999991
 20
34.1674470302000088
 30
0.0
 11
1.998264808999991
 21
32.7023163799999992
 31
0.0
  0
LINE
  5
107
  8
0
  6
CONTINUOUS
 62
     7
 10
1.748000000000004
 20
33.1144144437000065
 30
0.0
 11
1.748000000000004
 21
35.2855855563000134
 31
0.0
  0
LINE
  5
108
  8
0
  6
CONTINUOUS
 62
     7
 10
4.75
 20
24.8000000000000007
 30
0.0
 11
4.75
 21
23.3000000000000007
 31
0.0
  0
LINE
  5
109
  8
0
  6
CONTINUOUS
 62
     7
 10
3.5499999999999972
 20
23.3000000000000007
 30
0.0
 11
4.75
 21
23.3000000000000007
 31
0.0
  0
LINE
  5
10A
  8
0
  6
CONTINUOUS
 62
     7
 10
3.5499999999999972
 20
23.3000000000000007
 30
0.0
 11
3.5499999999999972
 21
24.8000000000000007
 31
0.0
  0
LINE
  5
10B
  8
0
  6
CONTINUOUS
 62
     7
 10
4.75
 20
24.8000000000000007
 30
0.0
 11
3.5499999999999972
 21
24.8000000000000007
 31
0.0
  0
LINE
  5
10C
  8
0
  6
CONTINUOUS
 62
     7
 10
4.75
 20
24.8000000000000007
 30
0.0
 11
4.7999999999999972
 21
24.8000000000000007
 31
0.0
  0
LINE
  5
10D
  8
0
  6
CONTINUOUS
 62
     7
 10
3.4510000000000072
 20
24.8000000000000007
 30
0.0
 11
3.5499999999999972
 21
24.8000000000000007
 31
0.0
  0
LINE
  5
10E
  8
0
  6
CONTINUOUS
 62
     7
 10
4.7999999999999972
 20
21.3000000000000007
 30
0.0
 11
3.4510000000000072
 21
21.3000000000000007
 31
0.0
  0
LINE
  5
10F
  8
0
  6
CONTINUOUS
 62
     7
 10
4.7999999999999972
 20
24.8000000000000007
 30
0.0
 11
4.7999999999999972
 21
21.3000000000000007
 31
0.0
  0
LINE
  5
110
  8
0
  6
CONTINUOUS
 62
     7
 10
3.2489999999999948
 20
25.5992490225000111
 30
0.0
 11
3.2489999999999948
 21
20.5007509775000116
 31
0.0
  0
LINE
  5
111
  8
0
  6
CONTINUOUS
 62
     7
 10
3.4510000000000072
 20
24.8000000000000007
 30
0.0
 11
3.4510000000000072
 21
21.3000000000000007
 31
0.0
  0
LINE
  5
112
  8
0
  6
CONTINUOUS
 62
     7
 10
3.1500000000000048
 20
18.3000000000000007
 30
0.0
 11
5.1500000000000048
 21
18.3000000000000007
 31
0.0
  0
ARC
  5
113
  8
0
  6
CONTINUOUS
 62
     7
 10
3.1500000000000048
 20
20.3000000000000007
 30
0.0
 40
2.0
 50
180.0
 51
270.0
  0
ARC
  5
114
  8
0
  6
CONTINUOUS
 62
     7
 10
5.1500000000000048
 20
25.8000000000000007
 30
0.0
 40
2.0000000000000142
 50
0.0
 51
90.0
  0
ARC
  5
115
  8
0
  6
CONTINUOUS
 62
     7
 10
5.1500000000000048
 20
20.3000000000000007
 30
0.0
 40
2.0
 50
270.0
 51
0.0
  0
LINE
  5
116
  8
0
  6
CONTINUOUS
 62
     7
 10
1.150000000000005
 20
25.8000000000000007
 30
0.0
 11
1.150000000000005
 21
20.3000000000000007
 31
0.0
  0
CIRCLE
  5
117
  8
0
  6
CONTINUOUS
 62
     7
 10
4.0
 20
34.2000000000000028
 30
0.0
 40
2.5
  0
LINE
  5
118
  8
0
  6
CONTINUOUS
 62
     7
 10
7.1500000000000048
 20
20.3000000000000007
 30
0.0
 11
7.1500000000000048
 21
25.8000000000000007
 31
0.0
  0
ARC
  5
119
  8
0
  6
CONTINUOUS
 62
     7
 10
3.1500000000000048
 20
25.8000000000000007
 30
0.0
 40
2.0000000000000142
 50
90.0
 51
180.0
  0
CIRCLE
  5
11A
  8
0
  6
CONTINUOUS
 62
     7
 10
3.6500000000000048
 20
41.0
 30
0.0
 40
1.5
  0
CIRCLE
  5
11B
  8
0
  6
CONTINUOUS
 62
     7
 10
4.25
 20
4.25
 30
0.0
 40
4.25
  0
LINE
  5
11C
  8
0
  6
CONTINUOUS
 62
     7
 10
5.1500000000000048
 20
27.8000000000000007
 30
0.0
 11
3.1500000000000048
 21
27.8000000000000007
 31
0.0
  0
CIRCLE
  5
11D
  8
0
  6
CONTINUOUS
 62
     7
 10
4.25
 20
4.25
 30
0.0
 40
2.4499999999999891
  0
LINE
  5
11E
  8
0
  6
CONTINUOUS
 62
     7
 10
5.450000000000002
 20
24.8000000000000007
 30
0.0
 11
5.450000000000002
 21
21.3000000000000007
 31
0.0
  0
ARC
  5
11F
  8
0
  6
CONTINUOUS
 62
     7
 10
4.450000000000002
 20
24.8000000000000007
 30
0.0
 40
1.0
 50
0.0
 51
90.0
  0
LINE
  5
120
  8
0
  6
CONTINUOUS
 62
     7
 10
3.8499999999999939
 20
25.8000000000000007
 30
0.0
 11
4.450000000000002
 21
25.8000000000000007
 31
0.0
  0
ARC
  5
121
  8
0
  6
CONTINUOUS
 62
     7
 10
3.8499999999999939
 20
24.8000000000000007
 30
0.0
 40
1.0000000000000131
 50
90.0
 51
180.0
  0
LINE
  5
122
  8
0
  6
CONTINUOUS
 62
     7
 10
2.8499999999999939
 20
21.3000000000000007
 30
0.0
 11
2.8499999999999939
 21
24.8000000000000007
 31
0.0
  0
ARC
  5
123
  8
0
  6
CONTINUOUS
 62
     7
 10
3.8499999999999939
 20
21.3000000000000007
 30
0.0
 40
1.0
 50
180.0
 51
270.0
  0
ARC
  5
124
  8
0
  6
CONTINUOUS
 62
     7
 10
4.450000000000002
 20
21.3000000000000007
 30
0.0
 40
1.0000000000000131
 50
270.0
 51
0.0
  0
LINE
  5
125
  8
0
  6
CONTINUOUS
 62
     7
 10
4.450000000000002
 20
20.3000000000000007
 30
0.0
 11
3.8499999999999939
 21
20.3000000000000007
 31
0.0
  0
CIRCLE
  5
126
  8
0
  6
CONTINUOUS
 62
     7
 10
3.6500000000000048
 20
41.0
 30
0.0
 40
1.1999999999999891
  0
LINE
  5
127
  8
0
  6
CONTINUOUS
 62
     7
 10
2.25
 20
41.5385164807000109
 30
0.0
 11
2.25
 21
40.4614835193000033
 31
0.0
  0
LINE
  5
128
  8
0
  6
CONTINUOUS
 62
     7
 10
3.5
 20
41.1500000000000128
 30
0.0
 11
3.5
 21
40.8500000000000014
 31
0.0
  0
LINE
  5
129
  8
0
  6
CONTINUOUS
 62
     7
 10
3.5
 20
40.8500000000000014
 30
0.0
 11
3.7999999999999972
 21
40.8500000000000014
 31
0.0
  0
LINE
  5
12A
  8
0
  6
CONTINUOUS
 62
     7
 10
3.7999999999999972
 20
40.8500000000000014
 30
0.0
 11
3.7999999999999972
 21
41.1500000000000128
 31
0.0
  0
LINE
  5
12B
  8
0
  6
CONTINUOUS
 62
     7
 10
3.7999999999999972
 20
41.1500000000000128
 30
0.0
 11
3.5
 21
41.1500000000000128
 31
0.0
  0
CIRCLE
  5
12C
  8
0
  6
CONTINUOUS
 62
     7
 10
4.25
 20
4.25
 30
0.0
 40
2.0
  0
CIRCLE
  5
12D
  8
0
  6
CONTINUOUS
 62
     7
 10
4.25
 20
4.25
 30
0.0
 40
1.299999999999996
  0
LINE
  5
12E
  8
0
  6
CONTINUOUS
 62
     7
 10
2.25
 20
5.6650971697999921
 30
0.0
 11
2.25
 21
4.25
 31
0.0
  0
LINE
  5
12F
  8
0
  6
CONTINUOUS
 62
     7
 10
5.5119429463999969
 20
6.3500000000000076
 30
0.0
 11
2.9880570534999999
 21
6.3500000000000076
 31
0.0
  0
LINE
  5
130
  8
0
  6
CONTINUOUS
 62
     7
 10
2.25
 20
4.25
 30
0.0
 11
2.25
 21
2.834902830200007
 31
0.0
  0
LINE
  5
131
  8
0
  6
CONTINUOUS
 62
     7
 10
6.25
 20
2.834902830200007
 30
0.0
 11
6.25
 21
5.6650971697999921
 31
0.0
  0
LINE
  5
132
  8
0
  6
CONTINUOUS
 62
     7
 10
6.25
 20
33.1102752640999967
 30
0.0
 11
6.25
 21
35.289724735900009
 31
0.0
  0
LINE
  5
133
  8
0
  6
CONTINUOUS
 62
     7
 10
45.6788811139999922
 20
33.3500000000000085
 30
0.0
 11
48.2578811139999999
 21
33.3500000000000085
 31
0.0
  0
LINE
  5
134
  8
0
  6
CONTINUOUS
 62
     7
 10
48.2578811139999999
 20
35.0499999999999972
 30
0.0
 11
45.6788811139999922
 21
35.0499999999999972
 31
0.0
  0
LINE
  5
135
  8
0
  6
CONTINUOUS
 62
     7
 10
45.6788811139999922
 20
35.0499999999999972
 30
0.0
 11
45.4447170353000018
 21
34.9329179607000029
 31
0.0
  0
LINE
  5
136
  8
0
  6
CONTINUOUS
 62
     7
 10
45.4447170353000018
 20
33.4670820393000099
 30
0.0
 11
45.6788811139999922
 21
33.3500000000000085
 31
0.0
  0
ARC
  5
137
  8
0
  6
CONTINUOUS
 62
     7
 10
45.5788811139999908
 20
33.7354101966000002
 30
0.0
 40
0.2999999999999972
 50
180.0
 51
243.4349488229001963
  0
ARC
  5
138
  8
0
  6
CONTINUOUS
 62
     7
 10
45.5788811139999908
 20
34.6645898033999984
 30
0.0
 40
0.3000000000000078
 50
116.5650511770998037
 51
180.0
  0
LINE
  5
139
  8
0
  6
CONTINUOUS
 62
     7
 10
45.6788811139999922
 20
35.0499999999999972
 30
0.0
 11
45.6788811139999922
 21
33.3500000000000085
 31
0.0
  0
LINE
  5
13A
  8
0
  6
CONTINUOUS
 62
     7
 10
45.2788811140000007
 20
33.7354101966000002
 30
0.0
 11
45.2788811140000007
 21
34.6645898033999984
 31
0.0
  0
ENDBLK
  5
13C
  8
0
  0
ENDSEC
  0
SECTION
  2
ENTITIES
  0
LINE
  5
3A
  8
レイヤー_1
  6
CENTERX2
 62
     3
 10
5.983269589999999
 20
0.08871121
 30
0.0
 11
49.9661146299999999
 21
0.08871121
 31
0.0
  0
LINE
  5
3B
  8
レイヤー_1
  6
CENTERX2
 62
     3
 10
-34.3563869800000035
 20
51.1839558799999992
 30
0.0
 11
-34.3563869800000035
 21
-51.1839558799999992
 31
0.0
  0
LINE
  5
3C
  8
レイヤー_1
  6
CENTERX2
 62
     3
 10
-50.9658813400000028
 20
0.08871121
 30
0.0
 11
-17.7424140000000001
 21
0.08871121
 31
0.0
  0
LINE
  5
3D
  8
レイヤー_1
  6
CONTINUOUS
 62
     3
 10
47.1714531699999924
 20
-18.4920667799999983
 30
0.0
 11
47.1714531699999924
 21
-16.8918199300000005
 31
0.0
  0
LINE
  5
3E
  8
レイヤー_1
  6
CONTINUOUS
 62
     3
 10
47.1714531699999924
 20
-16.8918199300000005
 30
0.0
 11
47.5655720900000034
 21
-16.8918199300000005
 31
0.0
  0
LINE
  5
3F
  8
レイヤー_1
  6
CONTINUOUS
 62
     3
 10
47.5655720900000034
 20
-16.8918199300000005
 30
0.0
 11
49.1716756100000012
 21
-18.4920667799999983
 31
0.0
  0
LINE
  5
40
  8
レイヤー_1
  6
CONTINUOUS
 62
     3
 10
47.1714531699999924
 20
18.7466593400000008
 30
0.0
 11
47.1714531699999924
 21
17.1464124799999986
 31
0.0
  0
LINE
  5
41
  8
レイヤー_1
  6
CONTINUOUS
 62
     3
 10
47.1714531699999924
 20
17.1464124799999986
 30
0.0
 11
47.5655720900000034
 21
17.1464124799999986
 31
0.0
  0
LINE
  5
42
  8
レイヤー_1
  6
CONTINUOUS
 62
     3
 10
47.5655720900000034
 20
17.1464124799999986
 30
0.0
 11
49.1716756100000012
 21
18.7466593400000008
 31
0.0
  0
LINE
  5
43
  8
レイヤー_1
  6
CONTINUOUS
 62
     3
 10
-31.9558444500000007
 20
-24.3749118299999985
 30
0.0
 11
-29.9563110200000011
 21
-24.3749118299999985
 31
0.0
  0
LINE
  5
44
  8
レイヤー_1
  6
CONTINUOUS
 62
     3
 10
-35.3561536799999985
 20
-24.3749118299999985
 30
0.0
 11
-33.3566202700000005
 21
-24.3749118299999985
 31
0.0
  0
LINE
  5
45
  8
レイヤー_1
  6
CONTINUOUS
 62
     3
 10
-38.75611842
 20
-24.3749118299999985
 30
0.0
 11
-36.7558959799999982
 21
-24.3749118299999985
 31
0.0
  0
LINE
  5
46
  8
レイヤー_1
  6
CONTINUOUS
 62
     3
 10
-38.75611842
 20
-25.1748629999999984
 30
0.0
 11
-38.75611842
 21
-23.8753729899999989
 31
0.0
  0
LINE
  5
47
  8
レイヤー_1
  6
CONTINUOUS
 62
     3
 10
-36.7558959799999982
 20
-25.1748629999999984
 30
0.0
 11
-36.7558959799999982
 21
-23.8753729899999989
 31
0.0
  0
LINE
  5
48
  8
レイヤー_1
  6
CONTINUOUS
 62
     3
 10
-35.3561536799999985
 20
-25.1748629999999984
 30
0.0
 11
-35.3561536799999985
 21
-23.8753729899999989
 31
0.0
  0
LINE
  5
49
  8
レイヤー_1
  6
CONTINUOUS
 62
     3
 10
-29.9563110200000011
 20
-25.1748629999999984
 30
0.0
 11
-29.9563110200000011
 21
-23.8753729899999989
 31
0.0
  0
LINE
  5
4A
  8
レイヤー_1
  6
CONTINUOUS
 62
     3
 10
-31.9558444500000007
 20
-25.1748629999999984
 30
0.0
 11
-31.9558444500000007
 21
-23.8753729899999989
 31
0.0
  0
LINE
  5
4B
  8
レイヤー_1
  6
CONTINUOUS
 62
     3
 10
-33.3566202700000005
 20
-25.1748629999999984
 30
0.0
 11
-33.3566202700000005
 21
-23.8753729899999989
 31
0.0
  0
LINE
  5
4C
  8
レイヤー_1
  6
CONTINUOUS
 62
     3
 10
-31.9558444500000007
 20
24.6253702700000012
 30
0.0
 11
-29.9563110200000011
 21
24.6253702700000012
 31
0.0
  0
LINE
  5
4D
  8
レイヤー_1
  6
CONTINUOUS
 62
     3
 10
-35.3561536799999985
 20
24.6253702700000012
 30
0.0
 11
-33.3566202700000005
 21
24.6253702700000012
 31
0.0
  0
LINE
  5
4E
  8
レイヤー_1
  6
CONTINUOUS
 62
     3
 10
-38.75611842
 20
24.6253702700000012
 30
0.0
 11
-36.7558959799999982
 21
24.6253702700000012
 31
0.0
  0
LINE
  5
4F
  8
レイヤー_1
  6
CONTINUOUS
 62
     3
 10
-38.75611842
 20
25.4253214400000012
 30
0.0
 11
-38.75611842
 21
24.1258314300000016
 31
0.0
  0
LINE
  5
50
  8
レイヤー_1
  6
CONTINUOUS
 62
     3
 10
-36.7558959799999982
 20
25.4253214400000012
 30
0.0
 11
-36.7558959799999982
 21
24.1258314300000016
 31
0.0
  0
LINE
  5
51
  8
レイヤー_1
  6
CONTINUOUS
 62
     3
 10
-35.3561536799999985
 20
25.4253214400000012
 30
0.0
 11
-35.3561536799999985
 21
24.1258314300000016
 31
0.0
  0
LINE
  5
52
  8
レイヤー_1
  6
CONTINUOUS
 62
     3
 10
-29.9563110200000011
 20
25.4253214400000012
 30
0.0
 11
-29.9563110200000011
 21
24.1258314300000016
 31
0.0
  0
LINE
  5
53
  8
レイヤー_1
  6
CONTINUOUS
 62
     3
 10
-31.9558444500000007
 20
25.4253214400000012
 30
0.0
 11
-31.9558444500000007
 21
24.1258314300000016
 31
0.0
  0
LINE
  5
54
  8
レイヤー_1
  6
CONTINUOUS
 62
     3
 10
-33.3566202700000005
 20
25.4253214400000012
 30
0.0
 11
-33.3566202700000005
 21
24.1258314300000016
 31
0.0
  0
LINE
  5
55
  8
レイヤー_1
  6
CONTINUOUS
 62
     3
 10
-24.2564005400000013
 20
-21.8751505500000007
 30
0.0
 11
-26.5563462900000005
 21
-23.8753729899999989
 31
0.0
  0
LINE
  5
56
  8
レイヤー_1
  6
CONTINUOUS
 62
     3
 10
-26.5563462900000005
 20
-23.8753729899999989
 30
0.0
 11
-44.4563734199999985
 21
-23.8753729899999989
 31
0.0
  0
LINE
  5
57
  8
レイヤー_1
  6
CONTINUOUS
 62
     3
 10
-44.4563734199999985
 20
-23.8753729899999989
 30
0.0
 11
-44.4563734199999985
 21
24.1258314300000016
 31
0.0
  0
LINE
  5
58
  8
レイヤー_1
  6
CONTINUOUS
 62
     3
 10
-44.4563734199999985
 20
24.1258314300000016
 30
0.0
 11
-24.2564005400000013
 21
24.1258314300000016
 31
0.0
  0
LINE
  5
59
  8
レイヤー_1
  6
CONTINUOUS
 62
     3
 10
-24.2564005400000013
 20
24.1258314300000016
 30
0.0
 11
-24.2564005400000013
 21
-21.8751505500000007
 31
0.0
  0
LINE
  5
5A
  8
レイヤー_1
  6
CONTINUOUS
 62
     3
 10
50.9390095999999986
 20
-46.9112887899999933
 30
0.0
 11
50.9390095999999986
 21
-18.4545152399999992
 31
0.0
  0
LINE
  5
5B
  8
レイヤー_1
  6
CONTINUOUS
 62
     3
 10
50.9390095999999986
 20
-18.4545152399999992
 30
0.0
 11
45.9663587799999931
 21
-18.4545152399999992
 31
0.0
  0
LINE
  5
5C
  8
レイヤー_1
  6
CONTINUOUS
 62
     3
 10
45.9663587799999931
 20
-18.4545152399999992
 30
0.0
 11
45.9663587799999931
 21
18.7466593400000008
 31
0.0
  0
LINE
  5
5D
  8
レイヤー_1
  6
CONTINUOUS
 62
     3
 10
45.9663587799999931
 20
18.7466593400000008
 30
0.0
 11
50.9658813400000028
 21
18.7466593400000008
 31
0.0
  0
LINE
  5
5E
  8
レイヤー_1
  6
CONTINUOUS
 62
     3
 10
50.9658813400000028
 20
18.7466593400000008
 30
0.0
 11
50.9658813400000028
 21
47.0887112099999996
 31
0.0
  0
LINE
  5
5F
  8
レイヤー_1
  6
CONTINUOUS
 62
     3
 10
48.9119154099999989
 20
26.3758232899999996
 30
0.0
 11
48.9119154099999989
 21
31.3753458599999995
 31
0.0
  0
LINE
  5
60
  8
レイヤー_1
  6
CONTINUOUS
 62
     3
 10
48.9119154099999989
 20
31.3753458599999995
 30
0.0
 11
46.4114651100000017
 21
31.3753458599999995
 31
0.0
  0
LINE
  5
61
  8
レイヤー_1
  6
CONTINUOUS
 62
     3
 10
46.4114651100000017
 20
31.3753458599999995
 30
0.0
 11
46.4114651100000017
 21
26.3758232899999996
 31
0.0
  0
LINE
  5
62
  8
レイヤー_1
  6
CONTINUOUS
 62
     3
 10
46.4114651100000017
 20
26.3758232899999996
 30
0.0
 11
48.9119154099999989
 21
26.3758232899999996
 31
0.0
  0
LINE
  5
63
  8
レイヤー_1
  6
CONTINUOUS
 62
     3
 10
48.7885810000000006
 20
-31.1248874200000003
 30
0.0
 11
48.7885810000000006
 21
-26.1253648500000004
 31
0.0
  0
LINE
  5
64
  8
レイヤー_1
  6
CONTINUOUS
 62
     3
 10
48.7885810000000006
 20
-26.1253648500000004
 30
0.0
 11
46.2881306800000019
 21
-26.1253648500000004
 31
0.0
  0
LINE
  5
65
  8
レイヤー_1
  6
CONTINUOUS
 62
     3
 10
46.2881306800000019
 20
-26.1253648500000004
 30
0.0
 11
46.2881306800000019
 21
-31.1248874200000003
 31
0.0
  0
LINE
  5
66
  8
レイヤー_1
  6
CONTINUOUS
 62
     3
 10
46.2881306800000019
 20
-31.1248874200000003
 30
0.0
 11
48.7885810000000006
 21
-31.1248874200000003
 31
0.0
  0
LINE
  5
67
  8
レイヤー_1
  6
CONTINUOUS
 62
     3
 10
-24.2564005400000013
 20
-46.9112887899999933
 30
0.0
 11
-24.2564005400000013
 21
-25.1748629999999984
 31
0.0
  0
LINE
  5
68
  8
レイヤー_1
  6
CONTINUOUS
 62
     3
 10
-24.2564005400000013
 20
-25.1748629999999984
 30
0.0
 11
-44.4563734199999985
 21
-25.1748629999999984
 31
0.0
  0
LINE
  5
69
  8
レイヤー_1
  6
CONTINUOUS
 62
     3
 10
-44.4563734199999985
 20
-25.1748629999999984
 30
0.0
 11
-44.4563734199999985
 21
-46.9112887899999933
 31
0.0
  0
LINE
  5
6A
  8
レイヤー_1
  6
CONTINUOUS
 62
     3
 10
-24.2564005400000013
 20
25.4253214400000012
 30
0.0
 11
-24.2564005400000013
 21
47.0887112099999996
 31
0.0
  0
LINE
  5
6B
  8
レイヤー_1
  6
CONTINUOUS
 62
     3
 10
-44.4563734199999985
 20
47.0887112099999996
 30
0.0
 11
-44.4563734199999985
 21
25.4253214400000012
 31
0.0
  0
LINE
  5
6C
  8
レイヤー_1
  6
CONTINUOUS
 62
     3
 10
-44.4563734199999985
 20
25.4253214400000012
 30
0.0
 11
-24.2564005400000013
 21
25.4253214400000012
 31
0.0
  0
LINE
  5
6D
  8
レイヤー_1
  6
CONTINUOUS
 62
     3
 10
-36.5061265499999976
 20
45.5250420300000016
 30
0.0
 11
-36.5061265499999976
 21
37.0253024499999981
 31
0.0
  0
LINE
  5
6E
  8
レイヤー_1
  6
CONTINUOUS
 62
     3
 10
-32.2063028800000097
 20
37.0253024499999981
 30
0.0
 11
-32.2063028800000097
 21
27.0255683000000104
 31
0.0
  0
LINE
  5
6F
  8
レイヤー_1
  6
CONTINUOUS
 62
     3
 10
-43.206148259999992
 20
37.0253024499999981
 30
0.0
 11
-25.5066257000000007
 21
37.0253024499999981
 31
0.0
  0
LINE
  5
70
  8
レイヤー_1
  6
CONTINUOUS
 62
     3
 10
-25.5066257000000007
 20
27.0255683000000104
 30
0.0
 11
-25.5066257000000007
 21
45.5250420300000016
 31
0.0
  0
LINE
  5
71
  8
レイヤー_1
  6
CONTINUOUS
 62
     3
 10
-25.5066257000000007
 20
45.5250420300000016
 30
0.0
 11
-43.206148259999992
 21
45.5250420300000016
 31
0.0
  0
LINE
  5
72
  8
レイヤー_1
  6
CONTINUOUS
 62
     3
 10
-43.206148259999992
 20
45.5250420300000016
 30
0.0
 11
-43.206148259999992
 21
27.0255683000000104
 31
0.0
  0
LINE
  5
73
  8
レイヤー_1
  6
CONTINUOUS
 62
     3
 10
-43.206148259999992
 20
27.0255683000000104
 30
0.0
 11
-25.5066257000000007
 21
27.0255683000000104
 31
0.0
  0
LINE
  5
74
  8
レイヤー_1
  6
CONTINUOUS
 62
     3
 10
-40.1558607199999997
 20
27.0255683000000104
 30
0.0
 11
-40.1558607199999997
 21
37.0253024499999981
 31
0.0
  0
LINE
  5
75
  8
レイヤー_1
  6
CONTINUOUS
 62
     3
 10
-28.5558796999999984
 20
45.5250420300000016
 30
0.0
 11
-28.5558796999999984
 21
37.0253024499999981
 31
0.0
  0
LINE
  5
76
  8
レイヤー_1
  6
CONTINUOUS
 62
     3
 10
-32.2063028800000097
 20
-45.2749280999999968
 30
0.0
 11
-32.2063028800000097
 21
-36.7748440100000025
 31
0.0
  0
LINE
  5
77
  8
レイヤー_1
  6
CONTINUOUS
 62
     3
 10
-36.5061265499999976
 20
-36.7748440100000025
 30
0.0
 11
-36.5061265499999976
 21
-26.7751098600000006
 31
0.0
  0
LINE
  5
78
  8
レイヤー_1
  6
CONTINUOUS
 62
     3
 10
-25.5066257000000007
 20
-36.7748440100000025
 30
0.0
 11
-43.206148259999992
 21
-36.7748440100000025
 31
0.0
  0
LINE
  5
79
  8
レイヤー_1
  6
CONTINUOUS
 62
     3
 10
-43.206148259999992
 20
-26.7751098600000006
 30
0.0
 11
-43.206148259999992
 21
-45.2749280999999968
 31
0.0
  0
LINE
  5
7A
  8
レイヤー_1
  6
CONTINUOUS
 62
     3
 10
-43.206148259999992
 20
-45.2749280999999968
 30
0.0
 11
-25.5066257000000007
 21
-45.2749280999999968
 31
0.0
  0
LINE
  5
7B
  8
レイヤー_1
  6
CONTINUOUS
 62
     3
 10
-25.5066257000000007
 20
-45.2749280999999968
 30
0.0
 11
-25.5066257000000007
 21
-26.7751098600000006
 31
0.0
  0
LINE
  5
7C
  8
レイヤー_1
  6
CONTINUOUS
 62
     3
 10
-25.5066257000000007
 20
-26.7751098600000006
 30
0.0
 11
-43.206148259999992
 21
-26.7751098600000006
 31
0.0
  0
LINE
  5
7D
  8
レイヤー_1
  6
CONTINUOUS
 62
     3
 10
-28.5558796999999984
 20
-26.7751098600000006
 30
0.0
 11
-28.5558796999999984
 21
-36.7748440100000025
 31
0.0
  0
LINE
  5
7E
  8
レイヤー_1
  6
CONTINUOUS
 62
     3
 10
-40.1558607199999997
 20
-45.2749280999999968
 30
0.0
 11
-40.1558607199999997
 21
-36.7748440100000025
 31
0.0
  0
LINE
  5
7F
  8
レイヤー_1
  6
CONTINUOUS
 62
     3
 10
-39.485100629999998
 20
-46.8751749600000025
 30
0.0
 11
-39.485100629999998
 21
-49.9112887900000004
 31
0.0
  0
LINE
  5
80
  8
レイヤー_1
  6
CONTINUOUS
 62
     3
 10
-29.1846096400000015
 20
-49.9112887900000004
 30
0.0
 11
-29.1846096400000015
 21
-46.8751749600000025
 31
0.0
  0
LINE
  5
81
  8
レイヤー_1
  6
CONTINUOUS
 62
     3
 10
46.5382446300000012
 20
-46.8751749600000025
 30
0.0
 11
46.5382446300000012
 21
-49.9112887900000004
 31
0.0
  0
LINE
  5
82
  8
レイヤー_1
  6
CONTINUOUS
 62
     3
 10
50.9390095999999986
 20
-49.9112887900000004
 30
0.0
 11
50.9390095999999986
 21
-46.8751749600000025
 31
0.0
  0
LINE
  5
83
  8
レイヤー_1
  6
CONTINUOUS
 62
     3
 10
-37.8855428000000032
 20
-46.8751749600000025
 30
0.0
 11
-37.8855428000000032
 21
-48.5336439200000029
 31
0.0
  0
LINE
  5
84
  8
レイヤー_1
  6
CONTINUOUS
 62
     3
 10
-37.8855428000000032
 20
-48.5336439200000029
 30
0.0
 11
-30.7855455000000013
 21
-48.5336439200000029
 31
0.0
  0
LINE
  5
85
  8
レイヤー_1
  6
CONTINUOUS
 62
     3
 10
-30.7855455000000013
 20
-48.5336439200000029
 30
0.0
 11
-30.7855455000000013
 21
-46.8751749600000025
 31
0.0
  0
LINE
  5
86
  8
レイヤー_1
  6
CONTINUOUS
 62
     3
 10
10.9658813399999993
 20
47.0887112099999996
 30
0.0
 11
50.9658813400000028
 21
47.0887112099999996
 31
0.0
  0
LINE
  5
87
  8
レイヤー_1
  6
CONTINUOUS
 62
     3
 10
10.9658813399999993
 20
-46.9112887899999933
 30
0.0
 11
50.9390095999999986
 21
-46.9112887899999933
 31
0.0
  0
LINE
  5
88
  8
レイヤー_1
  6
CONTINUOUS
 62
     3
 10
9.9658813399999993
 20
-45.9112887900000004
 30
0.0
 11
9.9658813399999993
 21
46.0887112099999925
 31
0.0
  0
LINE
  5
89
  8
レイヤー_1
  6
CONTINUOUS
 62
     3
 10
-46.8563869800000035
 20
-46.9112887899999933
 30
0.0
 11
-21.8563869699999991
 21
-46.9112887899999933
 31
0.0
  0
LINE
  5
8A
  8
レイヤー_1
  6
CONTINUOUS
 62
     3
 10
-46.8563869800000035
 20
47.0887112099999996
 30
0.0
 11
-21.8563869699999991
 21
47.0887112099999996
 31
0.0
  0
LINE
  5
8B
  8
レイヤー_1
  6
CONTINUOUS
 62
     3
 10
-46.8563869800000035
 20
47.0887112099999996
 30
0.0
 11
-46.8563869800000035
 21
-46.9112887899999933
 31
0.0
  0
LINE
  5
8C
  8
レイヤー_1
  6
CONTINUOUS
 62
     3
 10
-21.8563869699999991
 20
47.0887112099999996
 30
0.0
 11
-21.8563869699999991
 21
-46.9112887899999933
 31
0.0
  0
LINE
  5
8D
  8
レイヤー_1
  6
CONTINUOUS
 62
     3
 10
-39.485100629999998
 20
-49.9112887900000004
 30
0.0
 11
-29.1846096400000015
 21
-49.9112887900000004
 31
0.0
  0
LINE
  5
8E
  8
レイヤー_1
  6
CONTINUOUS
 62
     3
 10
46.5382446300000012
 20
-49.9112887900000004
 30
0.0
 11
50.9390095999999986
 21
-49.9112887900000004
 31
0.0
  0
ARC
  5
8F
  8
レイヤー_1
  6
CONTINUOUS
 62
     3
 10
10.9658813399999993
 20
-45.9112887900000004
 30
0.0
 40
1.0
 50
180.0
 51
270.0
  0
ARC
  5
90
  8
レイヤー_1
  6
CONTINUOUS
 62
     3
 10
10.9658813399999993
 20
46.0887112099999925
 30
0.0
 40
1.0
 50
90.0
 51
180.0
  0
TEXT
  5
91
  8
0
 62
     7
 10
111.9461538500000017
 20
-101.894570139999999
 30
0.0
 40
5.0
  1
000
 41
1.1076923076923071
 72
     5
 11
123.9461538500000017
 21
-101.894570139999999
 31
0.0
  0
CIRCLE
  5
18D
  8
0
  6
CONTINUOUS
 62
     7
 10
-29.6176539516607384
 20
11.8246270100000004
 30
0.0
 40
0.8499999999999943
  0
ARC
  5
18E
  8
0
  6
CONTINUOUS
 62
     7
 10
-29.6176539516607384
 20
11.8246270100000004
 30
0.0
 40
2.0010000000000141
 50
98.6048297422996853
 51
81.3951702577003147
  0
LINE
  5
18F
  8
0
  6
CONTINUOUS
 62
     7
 10
-29.9166539516607308
 20
13.8019695977000101
 30
0.0
 11
-29.9166539516607308
 21
13.5994509448999992
 31
0.0
  0
ARC
  5
190
  8
0
  6
CONTINUOUS
 62
     7
 10
-29.6176539516607384
 20
11.8246270100000004
 30
0.0
 40
1.800414213562378
 50
99.5730870214003403
 51
80.4269129785996455
  0
LINE
  5
191
  8
0
  6
CONTINUOUS
 62
     7
 10
-29.318653951660739
 20
13.5993145453000004
 30
0.0
 11
-29.318653951660739
 21
13.8019695977000101
 31
0.0
  0
LINE
  5
192
  8
0
  6
CONTINUOUS
 62
     7
 10
-29.9166539516607308
 20
13.4256270099999995
 30
0.0
 11
-29.9166539516607308
 21
13.5997793618000102
 31
0.0
  0
LINE
  5
193
  8
0
  6
CONTINUOUS
 62
     7
 10
-29.318653951660739
 20
13.4256270099999995
 30
0.0
 11
-29.9166539516607308
 21
13.4256270099999995
 31
0.0
  0
LINE
  5
194
  8
0
  6
CONTINUOUS
 62
     7
 10
-29.318653951660739
 20
13.5997793618000102
 30
0.0
 11
-29.318653951660739
 21
13.4256270099999995
 31
0.0
  0
LINE
  5
195
  8
0
  6
CONTINUOUS
 62
     7
 10
-30.617035917760731
 20
11.4746270100000096
 30
0.0
 11
-30.617035917760731
 21
12.17462701
 31
0.0
  0
ARC
  5
196
  8
0
  6
CONTINUOUS
 62
     7
 10
-29.6176539516607384
 20
11.4746270100000096
 30
0.0
 40
0.9993819660112563
 50
180.0
 51
0.0
  0
LINE
  5
197
  8
0
  6
CONTINUOUS
 62
     7
 10
-28.6182719856607299
 20
12.17462701
 30
0.0
 11
-28.6182719856607299
 21
11.4746270100000096
 31
0.0
  0
ARC
  5
198
  8
0
  6
CONTINUOUS
 62
     7
 10
-29.6176539516607384
 20
12.17462701
 30
0.0
 40
0.9993819660112563
 50
0.0
 51
180.0
  0
LINE
  5
199
  8
0
  6
CONTINUOUS
 62
     7
 10
-30.5166539516607394
 20
12.17462701
 30
0.0
 11
-30.5166539516607394
 21
11.4746270100000096
 31
0.0
  0
LINE
  5
19A
  8
0
  6
CONTINUOUS
 62
     7
 10
-28.7186539516607411
 20
11.4746270100000096
 30
0.0
 11
-28.7186539516607411
 21
12.17462701
 31
0.0
  0
ARC
  5
19B
  8
0
  6
CONTINUOUS
 62
     7
 10
-29.6176539516607384
 20
12.17462701
 30
0.0
 40
0.8990000000000009
 50
0.0
 51
180.0
  0
ARC
  5
19C
  8
0
  6
CONTINUOUS
 62
     7
 10
-29.6176539516607384
 20
11.4746270100000096
 30
0.0
 40
0.8990000000000151
 50
180.0
 51
0.0
  0
ARC
  5
19D
  8
0
  6
CONTINUOUS
 62
     7
 10
-29.6176539516607384
 20
11.8246270100000004
 30
0.0
 40
2.0010000000000141
 50
81.3951702577003147
 51
98.6048297422996853
  0
ARC
  5
19E
  8
0
  6
CONTINUOUS
 62
     7
 10
-29.6176539516607384
 20
11.8246270100000004
 30
0.0
 40
0.9627848737237359
 50
20.97293438739975
 51
159.0270656126002109
  0
ARC
  5
19F
  8
0
  6
CONTINUOUS
 62
     7
 10
-29.6176539516607384
 20
11.8246270100000004
 30
0.0
 40
0.9627848737237339
 50
200.9729343873997038
 51
339.0270656126002109
  0
LINE
  5
1A0
  8
0
  6
CONTINUOUS
 62
     7
 10
-27.6169187607607398
 20
11.8571799797999997
 30
0.0
 11
-27.6169187607607398
 21
13.3249800239000002
 31
0.0
  0
LINE
  5
1A1
  8
0
  6
CONTINUOUS
 62
     7
 10
-31.6183891426607495
 20
13.3223106299000005
 30
0.0
 11
-31.6183891426607495
 21
11.8571799797999997
 31
0.0
  0
LINE
  5
1A2
  8
0
  6
CONTINUOUS
 62
     7
 10
-27.6169187607607398
 20
10.3242739961000094
 30
0.0
 11
-27.6169187607607398
 21
11.7920740402000099
 31
0.0
  0
LINE
  5
1A3
  8
0
  6
CONTINUOUS
 62
     7
 10
-31.6183891426607495
 20
11.7920740402000099
 30
0.0
 11
-31.6183891426607495
 21
10.3269433900000003
 31
0.0
  0
LINE
  5
1A4
  8
0
  6
CONTINUOUS
 62
     7
 10
-31.868653951660729
 20
10.7390414537000094
 30
0.0
 11
-31.868653951660729
 21
12.9102125663000091
 31
0.0
  0
LINE
  5
1A5
  8
0
  6
CONTINUOUS
 62
     7
 10
-28.8666539516607408
 20
2.4246270099999978
 30
0.0
 11
-28.8666539516607408
 21
0.9246270099999983
 31
0.0
  0
LINE
  5
1A6
  8
0
  6
CONTINUOUS
 62
     7
 10
-30.0666539516607401
 20
0.9246270099999983
 30
0.0
 11
-28.8666539516607408
 21
0.9246270099999983
 31
0.0
  0
LINE
  5
1A7
  8
0
  6
CONTINUOUS
 62
     7
 10
-30.0666539516607401
 20
0.9246270099999983
 30
0.0
 11
-30.0666539516607401
 21
2.4246270099999978
 31
0.0
  0
LINE
  5
1A8
  8
0
  6
CONTINUOUS
 62
     7
 10
-28.8666539516607408
 20
2.4246270099999978
 30
0.0
 11
-30.0666539516607401
 21
2.4246270099999978
 31
0.0
  0
LINE
  5
1A9
  8
0
  6
CONTINUOUS
 62
     7
 10
-28.8666539516607408
 20
2.4246270099999978
 30
0.0
 11
-28.8166539516607401
 21
2.4246270099999978
 31
0.0
  0
LINE
  5
1AA
  8
0
  6
CONTINUOUS
 62
     7
 10
-30.1656539516607296
 20
2.4246270099999978
 30
0.0
 11
-30.0666539516607401
 21
2.4246270099999978
 31
0.0
  0
LINE
  5
1AB
  8
0
  6
CONTINUOUS
 62
     7
 10
-28.8166539516607401
 20
-1.0753729900000011
 30
0.0
 11
-30.1656539516607296
 21
-1.0753729900000011
 31
0.0
  0
LINE
  5
1AC
  8
0
  6
CONTINUOUS
 62
     7
 10
-28.8166539516607401
 20
2.4246270099999978
 30
0.0
 11
-28.8166539516607401
 21
-1.0753729900000011
 31
0.0
  0
LINE
  5
1AD
  8
0
  6
CONTINUOUS
 62
     7
 10
-30.3676539516607384
 20
3.2238760325000051
 30
0.0
 11
-30.3676539516607384
 21
-1.8746220124999939
 31
0.0
  0
LINE
  5
1AE
  8
0
  6
CONTINUOUS
 62
     7
 10
-30.1656539516607296
 20
2.4246270099999978
 30
0.0
 11
-30.1656539516607296
 21
-1.0753729900000011
 31
0.0
  0
LINE
  5
1B0
  8
0
  6
CONTINUOUS
 62
     7
 10
-30.4666539516607315
 20
-4.0753729900000009
 30
0.0
 11
-28.4666539516607315
 21
-4.0753729900000009
 31
0.0
  0
ARC
  5
1B1
  8
0
  6
CONTINUOUS
 62
     7
 10
-30.4666539516607315
 20
-2.0753729900000009
 30
0.0
 40
2.0
 50
180.0
 51
270.0
  0
ARC
  5
1B2
  8
0
  6
CONTINUOUS
 62
     7
 10
-28.4666539516607315
 20
3.4246270099999978
 30
0.0
 40
2.0000000000000142
 50
0.0
 51
90.0
  0
ARC
  5
1B3
  8
0
  6
CONTINUOUS
 62
     7
 10
-28.4666539516607315
 20
-2.0753729900000009
 30
0.0
 40
2.0
 50
270.0
 51
0.0
  0
LINE
  5
1B4
  8
0
  6
CONTINUOUS
 62
     7
 10
-32.4666539516607315
 20
3.4246270099999978
 30
0.0
 11
-32.4666539516607315
 21
-2.0753729900000009
 31
0.0
  0
CIRCLE
  5
1B5
  8
0
  6
CONTINUOUS
 62
     7
 10
-29.6166539516607408
 20
11.8246270100000004
 30
0.0
 40
2.5
  0
LINE
  5
1B6
  8
0
  6
CONTINUOUS
 62
     7
 10
-26.4666539516607315
 20
-2.0753729900000009
 30
0.0
 11
-26.4666539516607315
 21
3.4246270099999978
 31
0.0
  0
ARC
  5
1B7
  8
0
  6
CONTINUOUS
 62
     7
 10
-30.4666539516607315
 20
3.4246270099999978
 30
0.0
 40
2.0000000000000142
 50
90.0
 51
180.0
  0
CIRCLE
  5
1B8
  8
0
  6
CONTINUOUS
 62
     7
 10
-29.9666539516607315
 20
18.6246270100000011
 30
0.0
 40
1.5
  0
CIRCLE
  5
1B9
  8
0
  6
CONTINUOUS
 62
     7
 10
-29.3666539516607408
 20
-18.1253729899999989
 30
0.0
 40
4.25
  0
LINE
  5
1BA
  8
0
  6
CONTINUOUS
 62
     7
 10
-28.4666539516607315
 20
5.4246270099999983
 30
0.0
 11
-30.4666539516607315
 21
5.4246270099999983
 31
0.0
  0
CIRCLE
  5
1BB
  8
0
  6
CONTINUOUS
 62
     7
 10
-29.3666539516607408
 20
-18.1253729899999989
 30
0.0
 40
2.4499999999999891
  0
LINE
  5
1BC
  8
0
  6
CONTINUOUS
 62
     7
 10
-28.1666539516607415
 20
2.4246270099999978
 30
0.0
 11
-28.1666539516607415
 21
-1.0753729900000011
 31
0.0
  0
ARC
  5
1BD
  8
0
  6
CONTINUOUS
 62
     7
 10
-29.1666539516607415
 20
2.4246270099999978
 30
0.0
 40
1.0
 50
0.0
 51
90.0
  0
LINE
  5
1BE
  8
0
  6
CONTINUOUS
 62
     7
 10
-29.76665395166075
 20
3.4246270099999978
 30
0.0
 11
-29.1666539516607415
 21
3.4246270099999978
 31
0.0
  0
ARC
  5
1BF
  8
0
  6
CONTINUOUS
 62
     7
 10
-29.76665395166075
 20
2.4246270099999978
 30
0.0
 40
1.0000000000000131
 50
90.0
 51
180.0
  0
LINE
  5
1C0
  8
0
  6
CONTINUOUS
 62
     7
 10
-30.7666539516607394
 20
-1.0753729900000011
 30
0.0
 11
-30.7666539516607394
 21
2.4246270099999978
 31
0.0
  0
ARC
  5
1C1
  8
0
  6
CONTINUOUS
 62
     7
 10
-29.76665395166075
 20
-1.0753729900000011
 30
0.0
 40
1.0
 50
180.0
 51
270.0
  0
ARC
  5
1C2
  8
0
  6
CONTINUOUS
 62
     7
 10
-29.1666539516607415
 20
-1.0753729900000011
 30
0.0
 40
1.0000000000000131
 50
270.0
 51
0.0
  0
LINE
  5
1C3
  8
0
  6
CONTINUOUS
 62
     7
 10
-29.1666539516607415
 20
-2.0753729900000009
 30
0.0
 11
-29.76665395166075
 21
-2.0753729900000009
 31
0.0
  0
CIRCLE
  5
1C4
  8
0
  6
CONTINUOUS
 62
     7
 10
-29.9666539516607315
 20
18.6246270100000011
 30
0.0
 40
1.1999999999999891
  0
LINE
  5
1C5
  8
0
  6
CONTINUOUS
 62
     7
 10
-31.3666539516607408
 20
19.1631434907000084
 30
0.0
 11
-31.3666539516607408
 21
18.0861105293000008
 31
0.0
  0
LINE
  5
1C6
  8
0
  6
CONTINUOUS
 62
     7
 10
-30.1166539516607408
 20
18.7746270099999997
 30
0.0
 11
-30.1166539516607408
 21
18.4746270100000096
 31
0.0
  0
LINE
  5
1C7
  8
0
  6
CONTINUOUS
 62
     7
 10
-30.1166539516607408
 20
18.4746270100000096
 30
0.0
 11
-29.8166539516607401
 21
18.4746270100000096
 31
0.0
  0
LINE
  5
1C8
  8
0
  6
CONTINUOUS
 62
     7
 10
-29.8166539516607401
 20
18.4746270100000096
 30
0.0
 11
-29.8166539516607401
 21
18.7746270099999997
 31
0.0
  0
LINE
  5
1C9
  8
0
  6
CONTINUOUS
 62
     7
 10
-29.8166539516607401
 20
18.7746270099999997
 30
0.0
 11
-30.1166539516607408
 21
18.7746270099999997
 31
0.0
  0
CIRCLE
  5
1CA
  8
0
  6
CONTINUOUS
 62
     7
 10
-29.3666539516607408
 20
-18.1253729899999989
 30
0.0
 40
2.0
  0
CIRCLE
  5
1CB
  8
0
  6
CONTINUOUS
 62
     7
 10
-29.3666539516607408
 20
-18.1253729899999989
 30
0.0
 40
1.299999999999996
  0
LINE
  5
1CC
  8
0
  6
CONTINUOUS
 62
     7
 10
-31.3666539516607408
 20
-16.7102758201999997
 30
0.0
 11
-31.3666539516607408
 21
-18.1253729899999989
 31
0.0
  0
LINE
  5
1CD
  8
0
  6
CONTINUOUS
 62
     7
 10
-28.1047110052607394
 20
-16.0253729899999904
 30
0.0
 11
-30.6285968981607404
 21
-16.0253729899999904
 31
0.0
  0
LINE
  5
1CE
  8
0
  6
CONTINUOUS
 62
     7
 10
-31.3666539516607408
 20
-18.1253729899999989
 30
0.0
 11
-31.3666539516607408
 21
-19.540470159799991
 31
0.0
  0
LINE
  5
1CF
  8
0
  6
CONTINUOUS
 62
     7
 10
-27.3666539516607408
 20
-19.540470159799991
 30
0.0
 11
-27.3666539516607408
 21
-16.7102758201999997
 31
0.0
  0
LINE
  5
1D0
  8
0
  6
CONTINUOUS
 62
     7
 10
-27.3666539516607408
 20
10.7349022740999906
 30
0.0
 11
-27.3666539516607408
 21
12.9143517459000101
 31
0.0
  0
LINE
  5
1D1
  8
0
  6
CONTINUOUS
 62
     7
 10
7.3868813399999906
 20
10.9746270100000096
 30
0.0
 11
9.9658813399999993
 21
10.9746270100000096
 31
0.0
  0
LINE
  5
1D2
  8
0
  6
CONTINUOUS
 62
     7
 10
9.9658813399999993
 20
12.67462701
 30
0.0
 11
7.3868813399999906
 21
12.67462701
 31
0.0
  0
LINE
  5
1D3
  8
0
  6
CONTINUOUS
 62
     7
 10
7.3868813399999906
 20
12.67462701
 30
0.0
 11
7.1527172613000012
 21
12.5575449707000004
 31
0.0
  0
LINE
  5
1D4
  8
0
  6
CONTINUOUS
 62
     7
 10
7.1527172613000012
 20
11.0917090493000092
 30
0.0
 11
7.3868813399999906
 21
10.9746270100000096
 31
0.0
  0
ARC
  5
1D5
  8
0
  6
CONTINUOUS
 62
     7
 10
7.2868813399999972
 20
11.3600372065999995
 30
0.0
 40
0.2999999999999972
 50
180.0
 51
243.4349488229001111
  0
ARC
  5
1D6
  8
0
  6
CONTINUOUS
 62
     7
 10
7.2868813399999972
 20
12.2892168134000102
 30
0.0
 40
0.3000000000000078
 50
116.5650511770999032
 51
180.0
  0
LINE
  5
1D7
  8
0
  6
CONTINUOUS
 62
     7
 10
7.3868813399999906
 20
12.67462701
 30
0.0
 11
7.3868813399999906
 21
10.9746270100000096
 31
0.0
  0
LINE
  5
1D8
  8
0
  6
CONTINUOUS
 62
     7
 10
6.9868813400000001
 20
11.3600372065999995
 30
0.0
 11
6.9868813400000001
 21
12.2892168134000102
 31
0.0
  0
ENDSEC
  0
EOF
