  0
SECTION
  2
HEADER
  9
$ACADVER
  1
AC1014
  9
$ACADMAINTVER
 70
       0
  9
$DWGCODEPAGE
  3
ANSI_932
  9
$INSBASE
 10
0.0
 20
0.0
 30
0.0
  9
$EXTMIN
 10
-75.53665254
 20
-103.8567554
 30
0.0
  9
$EXTMAX
 10
117.79529769
 20
54.08276071
 30
0.0
  9
$LIMMIN
 10
-81.57827598
 20
-108.79236528
  9
$LIMMAX
 10
123.83692113
 20
59.01837059
  9
$ORTHOMODE
 70
       0
  9
$REGENMODE
 70
       1
  9
$FILLMODE
 70
       1
  9
$QTEXTMODE
 70
       0
  9
$MIRRTEXT
 70
       1
  9
$DRAGMODE
 70
       2
  9
$LTSCALE
 40
1.0
  9
$OSMODE
 70
       0
  9
$ATTMODE
 70
       1
  9
$TEXTSIZE
 40
0.2
  9
$TRACEWID
 40
0.05
  9
$TEXTSTYLE
  7
STANDARD
  9
$CLAYER
  8
0
  9
$CELTYPE
  6
CONTINUOUS
  9
$CECOLOR
 62
     256
  9
$CELTSCALE
 40
1.0
  9
$DELOBJ
 70
       1
  9
$DISPSILH
 70
       0
  9
$DIMSCALE
 40
1.0
  9
$DIMASZ
 40
0.18
  9
$DIMEXO
 40
0.0625
  9
$DIMDLI
 40
0.38
  9
$DIMRND
 40
0.0
  9
$DIMDLE
 40
0.0
  9
$DIMEXE
 40
0.18
  9
$DIMTP
 40
0.0
  9
$DIMTM
 40
0.0
  9
$DIMTXT
 40
0.18
  9
$DIMCEN
 40
0.09
  9
$DIMTSZ
 40
0.0
  9
$DIMTOL
 70
       0
  9
$DIMLIM
 70
       0
  9
$DIMTIH
 70
       1
  9
$DIMTOH
 70
       1
  9
$DIMSE1
 70
       0
  9
$DIMSE2
 70
       0
  9
$DIMTAD
 70
       0
  9
$DIMZIN
 70
       0
  9
$DIMBLK
  1

  9
$DIMASO
 70
       1
  9
$DIMSHO
 70
       1
  9
$DIMPOST
  1

  9
$DIMAPOST
  1

  9
$DIMALT
 70
       0
  9
$DIMALTD
 70
       2
  9
$DIMALTF
 40
25.4
  9
$DIMLFAC
 40
1.0
  9
$DIMTOFL
 70
       0
  9
$DIMTVP
 40
0.0
  9
$DIMTIX
 70
       0
  9
$DIMSOXD
 70
       0
  9
$DIMSAH
 70
       0
  9
$DIMBLK1
  1

  9
$DIMBLK2
  1

  9
$DIMSTYLE
  2
STANDARD
  9
$DIMCLRD
 70
       0
  9
$DIMCLRE
 70
       0
  9
$DIMCLRT
 70
       0
  9
$DIMTFAC
 40
1.0
  9
$DIMGAP
 40
0.09
  9
$DIMJUST
 70
       0
  9
$DIMSD1
 70
       0
  9
$DIMSD2
 70
       0
  9
$DIMTOLJ
 70
       1
  9
$DIMTZIN
 70
       0
  9
$DIMALTZ
 70
       0
  9
$DIMALTTZ
 70
       0
  9
$DIMFIT
 70
       3
  9
$DIMUPT
 70
       0
  9
$DIMUNIT
 70
       2
  9
$DIMDEC
 70
       4
  9
$DIMTDEC
 70
       4
  9
$DIMALTU
 70
       2
  9
$DIMALTTD
 70
       2
  9
$DIMTXSTY
  7
STANDARD
  9
$DIMAUNIT
 70
       0
  9
$LUNITS
 70
       2
  9
$LUPREC
 70
       4
  9
$SKETCHINC
 40
0.1
  9
$FILLETRAD
 40
0.0
  9
$AUNITS
 70
       0
  9
$AUPREC
 70
       0
  9
$MENU
  1
acad
  9
$ELEVATION
 40
0.0
  9
$PELEVATION
 40
0.0
  9
$THICKNESS
 40
0.0
  9
$LIMCHECK
 70
       0
  9
$BLIPMODE
 70
       1
  9
$CHAMFERA
 40
0.0
  9
$CHAMFERB
 40
0.0
  9
$CHAMFERC
 40
0.0
  9
$CHAMFERD
 40
0.0
  9
$SKPOLY
 70
       0
  9
$TDCREATE
 40
0.000000000
  9
$TDUPDATE
 40
0.000000000
  9
$TDINDWG
 40
0.0000000000
  9
$TDUSRTIMER
 40
0.0000000000
  9
$USRTIMER
 70
       1
  9
$ANGBASE
 50
0.0
  9
$ANGDIR
 70
       0
  9
$PDMODE
 70
       0
  9
$PDSIZE
 40
1.0
  9
$PLINEWID
 40
0.0
  9
$COORDS
 70
       1
  9
$SPLFRAME
 70
       0
  9
$SPLINETYPE
 70
       6
  9
$SPLINESEGS
 70
       8
  9
$ATTDIA
 70
       0
  9
$ATTREQ
 70
       1
  9
$HANDLING
 70
       1
  9
$HANDSEED
  5
3C5
  9
$SURFTAB1
 70
       6
  9
$SURFTAB2
 70
       6
  9
$SURFTYPE
 70
       6
  9
$SURFU
 70
       6
  9
$SURFV
 70
       6
  9
$UCSNAME
  2

  9
$UCSORG
 10
0.0
 20
0.0
 30
0.0
  9
$UCSXDIR
 10
1.0
 20
0.0
 30
0.0
  9
$UCSYDIR
 10
0.0
 20
1.0
 30
0.0
  9
$PUCSNAME
  2

  9
$PUCSORG
 10
0.0
 20
0.0
 30
0.0
  9
$PUCSXDIR
 10
1.0
 20
0.0
 30
0.0
  9
$PUCSYDIR
 10
0.0
 20
1.0
 30
0.0
  9
$USERI1
 70
       0
  9
$USERI2
 70
       0
  9
$USERI3
 70
       0
  9
$USERI4
 70
       0
  9
$USERI5
 70
       0
  9
$USERR1
 40
0.0
  9
$USERR2
 40
0.0
  9
$USERR3
 40
0.0
  9
$USERR4
 40
0.0
  9
$USERR5
 40
0.0
  9
$WORLDVIEW
 70
       1
  9
$SHADEDGE
 70
       3
  9
$SHADEDIF
 70
      70
  9
$TILEMODE
 70
       1
  9
$MAXACTVP
 70
      16
  9
$PINSBASE
 10
0.0
 20
0.0
 30
0.0
  9
$PLIMCHECK
 70
       0
  9
$PEXTMIN
 10
1.00000000E+20
 20
1.00000000E+20
 30
1.00000000E+20
  9
$PEXTMAX
 10
-1.00000000E+20
 20
-1.00000000E+20
 30
-1.00000000E+20
  9
$PLIMMIN
 10
0.0
 20
0.0
  9
$PLIMMAX
 10
12.0
 20
9.0
  9
$UNITMODE
 70
       0
  9
$VISRETAIN
 70
       0
  9
$PLINEGEN
 70
       1
  9
$PSLTSCALE
 70
       0
  9
$TREEDEPTH
 70
    3020
  9
$PICKSTYLE
 70
       1
  9
$CMLSTYLE
  2
STANDARD
  9
$CMLJUST
 70
       0
  9
$CMLSCALE
 40
1.0
  9
$PROXYGRAPHICS
 70
       0
  9
$MEASUREMENT
 70
       0
  0
ENDSEC
  0
SECTION
  2
CLASSES
  0
CLASS
  1
LWPOLYLINE
  2
AcDbPolyline
  3
"AutoCAD"
 90
        0
280
       0
281
       1
  0
CLASS
  1
IMAGE
  2
AcDbRasterImage
  3
ISM
 90
      127
280
       0
281
       1
  0
CLASS
  1
OLE2FRAME
  2
AcDbOle2Frame
  3
""
 90
        0
280
       0
281
       1
  0
CLASS
  1
HATCH
  2
AcDbHatch
  3
"ACAD_SEDONA"
 90
        0
280
       0
281
       1
  0
CLASS
  1
DICTIONARYVAR
  2
AcDbDictionaryVar
  3
"AutoCAD"
 90
        0
280
       0
281
       0
  0
CLASS
  1
RASTERVARIABLES
  2
AcDbRasterVariables
  3
ISM
 90
        0
280
       0
281
       0
  0
CLASS
  1
IMAGEDEF
  2
AcDbRasterImageDef
  3
ISM
 90
        0
280
       0
281
       0
  0
CLASS
  1
IMAGEDEF_REACTOR
  2
AcDbRasterImageDefReactor
  3
ISM
 90
        1
280
       0
281
       0
  0
CLASS
  1
IDBUFFER
  2
AcDbIdBuffer
  3
"Acad"
 90
        0
280
       0
281
       0
  0
CLASS
  1
SPATIAL_FILTER
  2
AcDbSpatialFilter
  3
"Acad"
 90
        0
280
       0
281
       0
  0
CLASS
  1
XRECORD
  2
AcDbXrecord
  3
"<Built In>"
 90
        0
280
       0
281
       0
  0
CLASS
  1
SORTENTSTABLE
  2
AcDbSortentsTable
  3
"AutoCAD"
 90
        0
280
       0
281
       0
  0
CLASS
  1
LAYER_INDEX
  2
AcDbLayerIndex
  3
"Acad"
 90
        0
280
       0
281
       0
  0
CLASS
  1
SPATIAL_INDEX
  2
AcDbSpatialIndex
  3
"Acad"
 90
        0
280
       0
281
       0
  0
CLASS
  1
OBJECT_PTR
  2
CAseDLPNTableRecord
  3
"ASE-LPNTableRecord"
 90
        1
280
       0
281
       0
  0
CLASS
  1
LAYOUT
  2
AcDbLayout
  3
"AutoCAD 2000"
 90
        1
280
       0
281
       0
  0
CLASS
  1
PLOTSETTINGS
  2
AcDbPlotSettings
  3
"AutoCAD 2000"
 90
        1
280
       0
281
       0
  0
CLASS
  1
ACDBDICTIONARYWDFLT
  2
AcDbDictionaryWithDefault
  3
"AutoCAD 2000"
 90
        1
280
       0
281
       0
  0
CLASS
  1
ACDBPLACEHOLDER
  2
AcDbPlaceHolder
  3
"AutoCAD 2000"
 90
        1
280
       0
281
       0
  0
CLASS
  1
VBA_PROJECT
  2
AcDbVbaProject
  3
"acadvba"
 90
        1
280
       0
281
       0
  0
CLASS
  1
WIPEOUT
  2
AcDbWipeout
  3
WipeOut|AutoCAD Express Tool|expresstools@autodesk.com
 90
      127
280
       0
281
       1
  0
CLASS
  1
WIPEOUTVARIABLES
  2
AcDbWipeoutVariables
  3
WipeOut|AutoCAD Express Tool|expresstools@autodesk.com
 90
        0
280
       0
281
       0
  0
CLASS
  1
RTEXT
  2
RText
  3
RText|AutoCAD Express Tool|expresstools@autodesk.com
 90
        0
280
       0
281
       1
  0
CLASS
  1
ARCALIGNEDTEXT
  2
AcDbArcAlignedText
  3
ATEXT|AutoCAD Express Tool|expresstools@autodesk.com
 90
        0
280
       0
281
       1
  0
ENDSEC
  0
SECTION
  2
TABLES
  0
TABLE
  2
VPORT
  5
7
100
AcDbSymbolTable
 70
       1
  0
VPORT
  5
15
100
AcDbSymbolTableRecord
100
AcDbViewportTableRecord
  2
*ACTIVE
 70
       0
 10
0.0
 20
0.0
 11
1.0
 21
1.0
 12
21.12932257
 22
-24.88699735
 13
0.0
 23
0.0
 14
1.0
 24
1.0
 15
0.0
 25
0.0
 16
0.0
 26
0.0
 36
1.0
 17
0.0
 27
0.0
 37
0.0
 40
167.81073586
 41
1.22408853
 42
50.0
 43
0.0
 44
0.0
 50
0.0
 51
0.0
 71
       0
 72
     100
 73
       1
 74
       1
 75
       0
 76
       0
 77
       0
 78
       0
  0
ENDTAB
  0
TABLE
  2
LTYPE
  5
4
100
AcDbSymbolTable
 70
      30
  0
LTYPE
  5
11
100
AcDbSymbolTableRecord
100
AcDbLinetypeTableRecord
  2
BYBLOCK
 70
      64
  3

 72
      65
 73
       0
 40
0.0
  0
LTYPE
  5
12
100
AcDbSymbolTableRecord
100
AcDbLinetypeTableRecord
  2
BYLAYER
 70
      64
  3

 72
      65
 73
       0
 40
0.0
  0
LTYPE
  5
13
100
AcDbSymbolTableRecord
100
AcDbLinetypeTableRecord
  2
CONTINUOUS
 70
      64
  3
Solid line
 72
      65
 73
       0
 40
0.0
  0
LTYPE
  5
1D
100
AcDbSymbolTableRecord
100
AcDbLinetypeTableRecord
  2
HIDDENX2
 70
      64
  3
CADPAC LINETYPE
 72
      65
 73
       2
 40
11.88
 49
8.91
 74
       0
 49
-2.97
 74
       0
  0
LTYPE
  5
1E
100
AcDbSymbolTableRecord
100
AcDbLinetypeTableRecord
  2
HIDDEN
 70
      64
  3
CADPAC LINETYPE
 72
      65
 73
       2
 40
8.91
 49
5.94
 74
       0
 49
-2.97
 74
       0
  0
LTYPE
  5
1F
100
AcDbSymbolTableRecord
100
AcDbLinetypeTableRecord
  2
HIDDEN2
 70
      64
  3
CADPAC LINETYPE
 72
      65
 73
       2
 40
7.425
 49
4.455
 74
       0
 49
-2.97
 74
       0
  0
LTYPE
  5
20
100
AcDbSymbolTableRecord
100
AcDbLinetypeTableRecord
  2
DASHED
 70
      64
  3
CADPAC LINETYPE
 72
      65
 73
       2
 40
8.91
 49
5.94
 74
       0
 49
-2.97
 74
       0
  0
LTYPE
  5
21
100
AcDbSymbolTableRecord
100
AcDbLinetypeTableRecord
  2
DASHED2
 70
      64
  3
CADPAC LINETYPE
 72
      65
 73
       2
 40
6.6825
 49
4.455
 74
       0
 49
-2.2275
 74
       0
  0
LTYPE
  5
22
100
AcDbSymbolTableRecord
100
AcDbLinetypeTableRecord
  2
DASHEDX2
 70
      64
  3
CADPAC LINETYPE
 72
      65
 73
       2
 40
13.365
 49
8.91
 74
       0
 49
-4.455
 74
       0
  0
LTYPE
  5
23
100
AcDbSymbolTableRecord
100
AcDbLinetypeTableRecord
  2
DOTX2
 70
      64
  3
CADPAC LINETYPE
 72
      65
 73
       2
 40
3.7125
 49
0.0
 74
       0
 49
-3.7125
 74
       0
  0
LTYPE
  5
24
100
AcDbSymbolTableRecord
100
AcDbLinetypeTableRecord
  2
DOT
 70
      64
  3
CADPAC LINETYPE
 72
      65
 73
       2
 40
2.97
 49
0.0
 74
       0
 49
-2.97
 74
       0
  0
LTYPE
  5
25
100
AcDbSymbolTableRecord
100
AcDbLinetypeTableRecord
  2
DOT2
 70
      64
  3
CADPAC LINETYPE
 72
      65
 73
       2
 40
2.2275
 49
0.0
 74
       0
 49
-2.2275
 74
       0
  0
LTYPE
  5
26
100
AcDbSymbolTableRecord
100
AcDbLinetypeTableRecord
  2
CENTERX2
 70
      64
  3
CADPAC LINETYPE
 72
      65
 73
       4
 40
17.82
 49
7.425
 74
       0
 49
-3.7125
 74
       0
 49
2.97
 74
       0
 49
-3.7125
 74
       0
  0
LTYPE
  5
27
100
AcDbSymbolTableRecord
100
AcDbLinetypeTableRecord
  2
CENTER
 70
      64
  3
CADPAC LINETYPE
 72
      65
 73
       4
 40
13.662
 49
5.94
 74
       0
 49
-2.97
 74
       0
 49
1.782
 74
       0
 49
-2.97
 74
       0
  0
LTYPE
  5
28
100
AcDbSymbolTableRecord
100
AcDbLinetypeTableRecord
  2
CENTER2
 70
      64
  3
CADPAC LINETYPE
 72
      65
 73
       4
 40
9.504
 49
4.455
 74
       0
 49
-2.2275
 74
       0
 49
0.594
 74
       0
 49
-2.2275
 74
       0
  0
LTYPE
  5
29
100
AcDbSymbolTableRecord
100
AcDbLinetypeTableRecord
  2
DASHDOTX2
 70
      64
  3
CADPAC LINETYPE
 72
      65
 73
       4
 40
14.85
 49
7.425
 74
       0
 49
-3.7125
 74
       0
 49
0.0
 74
       0
 49
-3.7125
 74
       0
  0
LTYPE
  5
2A
100
AcDbSymbolTableRecord
100
AcDbLinetypeTableRecord
  2
DASHDOT
 70
      64
  3
CADPAC LINETYPE
 72
      65
 73
       4
 40
11.88
 49
5.94
 74
       0
 49
-2.97
 74
       0
 49
0.0
 74
       0
 49
-2.97
 74
       0
  0
LTYPE
  5
2B
100
AcDbSymbolTableRecord
100
AcDbLinetypeTableRecord
  2
DASHDOT2
 70
      64
  3
CADPAC LINETYPE
 72
      65
 73
       4
 40
8.91
 49
4.455
 74
       0
 49
-2.2275
 74
       0
 49
0.0
 74
       0
 49
-2.2275
 74
       0
  0
LTYPE
  5
2C
100
AcDbSymbolTableRecord
100
AcDbLinetypeTableRecord
  2
DIVIDEX2
 70
      64
  3
CADPAC LINETYPE
 72
      65
 73
       6
 40
18.5625
 49
7.425
 74
       0
 49
-3.7125
 74
       0
 49
0.0
 74
       0
 49
-3.7125
 74
       0
 49
0.0
 74
       0
 49
-3.7125
 74
       0
  0
LTYPE
  5
2D
100
AcDbSymbolTableRecord
100
AcDbLinetypeTableRecord
  2
DIVIDE
 70
      64
  3
CADPAC LINETYPE
 72
      65
 73
       6
 40
14.85
 49
5.94
 74
       0
 49
-2.97
 74
       0
 49
0.0
 74
       0
 49
-2.97
 74
       0
 49
0.0
 74
       0
 49
-2.97
 74
       0
  0
LTYPE
  5
2E
100
AcDbSymbolTableRecord
100
AcDbLinetypeTableRecord
  2
DIVIDE2
 70
      64
  3
CADPAC LINETYPE
 72
      65
 73
       6
 40
11.1375
 49
4.455
 74
       0
 49
-2.2275
 74
       0
 49
0.0
 74
       0
 49
-2.2275
 74
       0
 49
0.0
 74
       0
 49
-2.2275
 74
       0
  0
LTYPE
  5
2F
100
AcDbSymbolTableRecord
100
AcDbLinetypeTableRecord
  2
BORDERX2
 70
      64
  3
CADPAC LINETYPE
 72
      65
 73
       6
 40
25.9875
 49
7.425
 74
       0
 49
-3.7125
 74
       0
 49
7.425
 74
       0
 49
-3.7125
 74
       0
 49
0.0
 74
       0
 49
-3.7125
 74
       0
  0
LTYPE
  5
30
100
AcDbSymbolTableRecord
100
AcDbLinetypeTableRecord
  2
BORDER
 70
      64
  3
CADPAC LINETYPE
 72
      65
 73
       6
 40
20.79
 49
5.94
 74
       0
 49
-2.97
 74
       0
 49
5.94
 74
       0
 49
-2.97
 74
       0
 49
0.0
 74
       0
 49
-2.97
 74
       0
  0
LTYPE
  5
31
100
AcDbSymbolTableRecord
100
AcDbLinetypeTableRecord
  2
BORDER2
 70
      64
  3
CADPAC LINETYPE
 72
      65
 73
       6
 40
15.5925
 49
4.455
 74
       0
 49
-2.2275
 74
       0
 49
4.455
 74
       0
 49
-2.2275
 74
       0
 49
0.0
 74
       0
 49
-2.2275
 74
       0
  0
LTYPE
  5
32
100
AcDbSymbolTableRecord
100
AcDbLinetypeTableRecord
  2
PHANTOMX2
 70
      64
  3
CADPAC LINETYPE
 72
      65
 73
       6
 40
22.275
 49
7.425
 74
       0
 49
-2.97
 74
       0
 49
2.97
 74
       0
 49
-2.97
 74
       0
 49
2.97
 74
       0
 49
-2.97
 74
       0
  0
LTYPE
  5
33
100
AcDbSymbolTableRecord
100
AcDbLinetypeTableRecord
  2
PHANTOM
 70
      64
  3
CADPAC LINETYPE
 72
      65
 73
       6
 40
18.414
 49
5.94
 74
       0
 49
-2.97
 74
       0
 49
1.782
 74
       0
 49
-2.97
 74
       0
 49
1.782
 74
       0
 49
-2.97
 74
       0
  0
LTYPE
  5
34
100
AcDbSymbolTableRecord
100
AcDbLinetypeTableRecord
  2
PHANTOM2
 70
      64
  3
CADPAC LINETYPE
 72
      65
 73
       6
 40
15.741
 49
4.455
 74
       0
 49
-2.97
 74
       0
 49
1.188
 74
       0
 49
-2.97
 74
       0
 49
1.188
 74
       0
 49
-2.97
 74
       0
  0
LTYPE
  5
35
100
AcDbSymbolTableRecord
100
AcDbLinetypeTableRecord
  2
ACAD_ISO06W100
 70
      64
  3
CADPAC LINETYPE
 72
      65
 73
       8
 40
20.0475
 49
7.425
 74
       0
 49
-3.7125
 74
       0
 49
0.0
 74
       0
 49
-2.97
 74
       0
 49
0.0
 74
       0
 49
-2.97
 74
       0
 49
0.0
 74
       0
 49
-2.97
 74
       0
  0
LTYPE
  5
36
100
AcDbSymbolTableRecord
100
AcDbLinetypeTableRecord
  2
ACAD_ISO13W100
 70
      64
  3
CADPAC LINETYPE
 72
      65
 73
       8
 40
23.76
 49
5.94
 74
       0
 49
-2.97
 74
       0
 49
5.94
 74
       0
 49
-2.97
 74
       0
 49
0.0
 74
       0
 49
-2.97
 74
       0
 49
0.0
 74
       0
 49
-2.97
 74
       0
  0
LTYPE
  5
37
100
AcDbSymbolTableRecord
100
AcDbLinetypeTableRecord
  2
ACAD_ISO14W100
 70
      64
  3
CADPAC LINETYPE
 72
      65
 73
       8
 40
17.82
 49
5.94
 74
       0
 49
-2.97
 74
       0
 49
0.0
 74
       0
 49
-2.97
 74
       0
 49
0.0
 74
       0
 49
-2.97
 74
       0
 49
0.0
 74
       0
 49
-2.97
 74
       0
  0
ENDTAB
  0
TABLE
  2
LAYER
  5
2
100
AcDbSymbolTable
 70
       2
  0
LAYER
  5
14
100
AcDbSymbolTableRecord
100
AcDbLayerTableRecord
  2
0
 70
       0
 62
       7
  6
CONTINUOUS
  0
LAYER
  5
38
100
AcDbSymbolTableRecord
100
AcDbLayerTableRecord
  2
レイヤー_1
 70
       0
 62
       7
  6
CONTINUOUS
  0
ENDTAB
  0
TABLE
  2
STYLE
  5
3
100
AcDbSymbolTable
 70
       1
  0
STYLE
  5
17
100
AcDbSymbolTableRecord
100
AcDbTextStyleTableRecord
  2
STANDARD
 70
       0
 40
0.0
 41
0.8
 50
0.0
 71
       0
 42
5.0
  3
txt.shx
  4
bigfont.shx
  0
ENDTAB
  0
TABLE
  2
VIEW
  5
5
100
AcDbSymbolTable
 70
       1
  0
VIEW
  5
39
100
AcDbSymbolTableRecord
100
AcDbViewTableRecord
  2
QQQQ
 70
       0
 40
167.81073586
 10
21.12932257
 20
-24.88699735
 41
205.41519711
 11
0.0
 21
0.0
 31
1.0
 12
100.0
 22
100.0
 32
0.0
 42
50.0
 43
0.0
 44
0.0
 50
0.0
 71
       0
  0
ENDTAB
  0
TABLE
  2
UCS
  5
6
100
AcDbSymbolTable
 70
       0
  0
ENDTAB
  0
TABLE
  2
APPID
  5
8
100
AcDbSymbolTable
 70
       1
  0
APPID
  5
16
100
AcDbSymbolTableRecord
100
AcDbRegAppTableRecord
  2
ACAD
 70
       0
  0
ENDTAB
  0
TABLE
  2
DIMSTYLE
  5
9
100
AcDbSymbolTable
 70
       1
  0
DIMSTYLE
105
18
100
AcDbSymbolTableRecord
100
AcDbDimStyleTableRecord
  2
STANDARD
 70
       0
  3

  4

  5

  6

  7

 40
1.0
 41
0.18
 42
0.0625
 43
0.38
 44
0.18
 45
0.0
 46
0.0
 47
0.0
 48
0.0
 71
       0
 72
       0
 73
       1
 74
       1
 75
       0
 76
       0
 77
       0
 78
       0
140
0.18
141
0.09
142
0.0
143
25.4
144
1.0
145
0.0
146
1.0
147
0.09
170
       0
171
       2
172
       0
173
       0
174
       0
175
       0
176
       0
177
       0
178
       0
270
       2
271
       4
272
       4
273
       2
274
       2
275
       0
280
       0
281
       0
282
       0
283
       1
284
       0
285
       0
286
       0
287
       0
288
       0
340
17
  0
ENDTAB
  0
TABLE
  2
BLOCK_RECORD
  5
1
100
AcDbSymbolTable
 70
       0
  0
BLOCK_RECORD
  5
A
100
AcDbSymbolTableRecord
100
AcDbBlockTableRecord
  2
*MODEL_SPACE
  0
BLOCK_RECORD
  5
B
100
AcDbSymbolTableRecord
100
AcDbBlockTableRecord
  2
*PAPER_SPACE
  0
ENDTAB
  0
ENDSEC
  0
SECTION
  2
BLOCKS
  0
BLOCK
  5
D
100
AcDbEntity
  8
0
100
AcDbBlockBegin
  2
*MODEL_SPACE
 70
       0
 10
0.0
 20
0.0
 30
0.0
  3
*MODEL_SPACE
  1

  0
ENDBLK
  5
E
100
AcDbEntity
  8
0
100
AcDbBlockEnd
  0
BLOCK
  5
F
100
AcDbEntity
 67
       1
  8
0
100
AcDbBlockBegin
  2
*PAPER_SPACE
 70
       0
 10
0.0
 20
0.0
 30
0.0
  3
*PAPER_SPACE
  1

  0
ENDBLK
  5
10
100
AcDbEntity
 67
       1
  8
0
100
AcDbBlockEnd
  0
ENDSEC
  0
SECTION
  2
ENTITIES
  0
LINE
  5
3A
100
AcDbEntity
  8
レイヤー_1
  6
CONTINUOUS
 62
       3
100
AcDbLine
 10
69.95466689
 20
-18.31013264
 30
0.0
 11
69.95466689
 21
-44.82692242
 31
0.0
  0
LINE
  5
3B
100
AcDbEntity
  8
レイヤー_1
  6
CONTINUOUS
 62
       3
100
AcDbLine
 10
-67.74809147
 20
47.56173474
 30
0.0
 11
-67.74809147
 21
-45.78136684
 31
0.0
  0
LINE
  5
3C
100
AcDbEntity
  8
レイヤー_1
  6
CONTINUOUS
 62
       3
100
AcDbLine
 10
-61.84809147
 20
47.56173474
 30
0.0
 11
-61.84809147
 21
-45.78136684
 31
0.0
  0
LINE
  5
3D
100
AcDbEntity
  8
レイヤー_1
  6
CONTINUOUS
 62
       3
100
AcDbLine
 10
-61.84809147
 20
47.56173474
 30
0.0
 11
-67.74809147
 21
47.56173474
 31
0.0
  0
LINE
  5
3E
100
AcDbEntity
  8
レイヤー_1
  6
CONTINUOUS
 62
       3
100
AcDbLine
 10
-26.80834015
 20
47.56173474
 30
0.0
 11
-22.68985171
 21
47.56173474
 31
0.0
  0
LINE
  5
3F
100
AcDbEntity
  8
レイヤー_1
  6
CONTINUOUS
 62
       3
100
AcDbLine
 10
-6.17820505
 20
47.56173474
 30
0.0
 11
-2.05860629
 21
47.56173474
 31
0.0
  0
LINE
  5
40
100
AcDbEntity
  8
レイヤー_1
  6
CONTINUOUS
 62
       3
100
AcDbLine
 10
14.45116186
 20
47.56173474
 30
0.0
 11
18.57462042
 21
47.56173474
 31
0.0
  0
LINE
  5
41
100
AcDbEntity
  8
レイヤー_1
  6
CONTINUOUS
 62
       3
100
AcDbLine
 10
35.08616194
 20
47.56173474
 30
0.0
 11
39.20525003
 21
47.56173474
 31
0.0
  0
LINE
  5
42
100
AcDbEntity
  8
レイヤー_1
  6
CONTINUOUS
 62
       3
100
AcDbLine
 10
54.84812805
 20
47.56173474
 30
0.0
 11
63.11898392
 21
47.56173474
 31
0.0
  0
LINE
  5
43
100
AcDbEntity
  8
レイヤー_1
  6
CONTINUOUS
 62
       3
100
AcDbLine
 10
62.91040021
 20
-16.51926508
 30
0.0
 11
62.92463006
 21
-16.51926508
 31
0.0
  0
LINE
  5
44
100
AcDbEntity
  8
レイヤー_1
  6
CONTINUOUS
 62
       3
100
AcDbLine
 10
62.92463006
 20
-16.51926508
 30
0.0
 11
62.96471758
 21
-16.51926508
 31
0.0
  0
LINE
  5
45
100
AcDbEntity
  8
レイヤー_1
  6
CONTINUOUS
 62
       3
100
AcDbLine
 10
62.96471758
 20
-16.51926508
 30
0.0
 11
63.02675973
 21
-16.51926508
 31
0.0
  0
LINE
  5
46
100
AcDbEntity
  8
レイヤー_1
  6
CONTINUOUS
 62
       3
100
AcDbLine
 10
63.02675973
 20
-16.51926508
 30
0.0
 11
63.10685345
 21
-16.51926508
 31
0.0
  0
LINE
  5
47
100
AcDbEntity
  8
レイヤー_1
  6
CONTINUOUS
 62
       3
100
AcDbLine
 10
63.10685345
 20
-16.51926508
 30
0.0
 11
63.20109571
 21
-16.51926508
 31
0.0
  0
LINE
  5
48
100
AcDbEntity
  8
レイヤー_1
  6
CONTINUOUS
 62
       3
100
AcDbLine
 10
63.20109571
 20
-16.51926508
 30
0.0
 11
63.30558347
 21
-16.51926508
 31
0.0
  0
LINE
  5
49
100
AcDbEntity
  8
レイヤー_1
  6
CONTINUOUS
 62
       3
100
AcDbLine
 10
63.30558347
 20
-16.51926508
 30
0.0
 11
63.41641367
 21
-16.51926508
 31
0.0
  0
LINE
  5
4A
100
AcDbEntity
  8
レイヤー_1
  6
CONTINUOUS
 62
       3
100
AcDbLine
 10
63.41641367
 20
-16.51926508
 30
0.0
 11
63.52968327
 21
-16.51926508
 31
0.0
  0
LINE
  5
4B
100
AcDbEntity
  8
レイヤー_1
  6
CONTINUOUS
 62
       3
100
AcDbLine
 10
63.52968327
 20
-16.51926508
 30
0.0
 11
63.64148924
 21
-16.51926508
 31
0.0
  0
LINE
  5
4C
100
AcDbEntity
  8
レイヤー_1
  6
CONTINUOUS
 62
       3
100
AcDbLine
 10
63.64148924
 20
-16.51926508
 30
0.0
 11
63.74792851
 21
-16.51926508
 31
0.0
  0
LINE
  5
4D
100
AcDbEntity
  8
レイヤー_1
  6
CONTINUOUS
 62
       3
100
AcDbLine
 10
63.74792851
 20
-16.51926508
 30
0.0
 11
63.84509806
 21
-16.51926508
 31
0.0
  0
LINE
  5
4E
100
AcDbEntity
  8
レイヤー_1
  6
CONTINUOUS
 62
       3
100
AcDbLine
 10
63.84509806
 20
-16.51926508
 30
0.0
 11
63.92909483
 21
-16.51926508
 31
0.0
  0
LINE
  5
4F
100
AcDbEntity
  8
レイヤー_1
  6
CONTINUOUS
 62
       3
100
AcDbLine
 10
62.91052253
 20
-12.67087433
 30
0.0
 11
62.91040021
 21
-12.68048477
 31
0.0
  0
LINE
  5
50
100
AcDbEntity
  8
レイヤー_1
  6
CONTINUOUS
 62
       3
100
AcDbLine
 10
62.91040021
 20
-12.68048477
 30
0.0
 11
62.91040021
 21
-12.75062545
 31
0.0
  0
LINE
  5
51
100
AcDbEntity
  8
レイヤー_1
  6
CONTINUOUS
 62
       3
100
AcDbLine
 10
62.91040021
 20
-12.75062545
 30
0.0
 11
62.91040021
 21
-12.90363503
 31
0.0
  0
LINE
  5
52
100
AcDbEntity
  8
レイヤー_1
  6
CONTINUOUS
 62
       3
100
AcDbLine
 10
62.91040021
 20
-12.90363503
 30
0.0
 11
62.91040021
 21
-13.12651448
 31
0.0
  0
LINE
  5
53
100
AcDbEntity
  8
レイヤー_1
  6
CONTINUOUS
 62
       3
100
AcDbLine
 10
62.91040021
 20
-13.12651448
 30
0.0
 11
62.91040021
 21
-13.40626475
 31
0.0
  0
LINE
  5
54
100
AcDbEntity
  8
レイヤー_1
  6
CONTINUOUS
 62
       3
100
AcDbLine
 10
62.91040021
 20
-13.40626475
 30
0.0
 11
62.91040021
 21
-13.72988679
 31
0.0
  0
LINE
  5
55
100
AcDbEntity
  8
レイヤー_1
  6
CONTINUOUS
 62
       3
100
AcDbLine
 10
62.91040021
 20
-13.72988679
 30
0.0
 11
62.91040021
 21
-14.08438157
 31
0.0
  0
LINE
  5
56
100
AcDbEntity
  8
レイヤー_1
  6
CONTINUOUS
 62
       3
100
AcDbLine
 10
62.91040021
 20
-14.08438157
 30
0.0
 11
62.91040021
 21
-14.45675003
 31
0.0
  0
LINE
  5
57
100
AcDbEntity
  8
レイヤー_1
  6
CONTINUOUS
 62
       3
100
AcDbLine
 10
62.91040021
 20
-14.45675003
 30
0.0
 11
62.91040021
 21
-14.83399313
 31
0.0
  0
LINE
  5
58
100
AcDbEntity
  8
レイヤー_1
  6
CONTINUOUS
 62
       3
100
AcDbLine
 10
62.91040021
 20
-14.83399313
 30
0.0
 11
62.91040021
 21
-15.20311183
 31
0.0
  0
LINE
  5
59
100
AcDbEntity
  8
レイヤー_1
  6
CONTINUOUS
 62
       3
100
AcDbLine
 10
62.91040021
 20
-15.20311183
 30
0.0
 11
62.91040021
 21
-15.55110708
 31
0.0
  0
LINE
  5
5A
100
AcDbEntity
  8
レイヤー_1
  6
CONTINUOUS
 62
       3
100
AcDbLine
 10
62.91040021
 20
-15.55110708
 30
0.0
 11
62.91040021
 21
-15.86497984
 31
0.0
  0
LINE
  5
5B
100
AcDbEntity
  8
レイヤー_1
  6
CONTINUOUS
 62
       3
100
AcDbLine
 10
62.91040021
 20
-15.86497984
 30
0.0
 11
62.91040021
 21
-16.13173107
 31
0.0
  0
LINE
  5
5C
100
AcDbEntity
  8
レイヤー_1
  6
CONTINUOUS
 62
       3
100
AcDbLine
 10
62.91040021
 20
-16.13173107
 30
0.0
 11
62.91040021
 21
-16.33836171
 31
0.0
  0
LINE
  5
5D
100
AcDbEntity
  8
レイヤー_1
  6
CONTINUOUS
 62
       3
100
AcDbLine
 10
62.91040021
 20
-16.33836171
 30
0.0
 11
62.91040021
 21
-16.47187273
 31
0.0
  0
LINE
  5
5E
100
AcDbEntity
  8
レイヤー_1
  6
CONTINUOUS
 62
       3
100
AcDbLine
 10
62.91040021
 20
-16.47187273
 30
0.0
 11
62.91040021
 21
-16.51926508
 31
0.0
  0
LINE
  5
5F
100
AcDbEntity
  8
レイヤー_1
  6
CONTINUOUS
 62
       3
100
AcDbLine
 10
58.37993425
 20
-39.58290848
 30
0.0
 11
66.12925717
 21
-39.58290848
 31
0.0
  0
LINE
  5
60
100
AcDbEntity
  8
レイヤー_1
  6
CONTINUOUS
 62
       3
100
AcDbLine
 10
58.37993425
 20
-39.58290848
 30
0.0
 11
58.28202849
 21
-39.59220679
 31
0.0
  0
LINE
  5
61
100
AcDbEntity
  8
レイヤー_1
  6
CONTINUOUS
 62
       3
100
AcDbLine
 10
58.28202849
 20
-39.59220679
 30
0.0
 11
58.18849841
 21
-39.61900781
 31
0.0
  0
LINE
  5
62
100
AcDbEntity
  8
レイヤー_1
  6
CONTINUOUS
 62
       3
100
AcDbLine
 10
58.18849841
 20
-39.61900781
 30
0.0
 11
58.099344
 21
-39.66221761
 31
0.0
  0
LINE
  5
63
100
AcDbEntity
  8
レイヤー_1
  6
CONTINUOUS
 62
       3
100
AcDbLine
 10
58.099344
 20
-39.66221761
 30
0.0
 11
58.02441054
 21
-39.72074228
 31
0.0
  0
LINE
  5
64
100
AcDbEntity
  8
レイヤー_1
  6
CONTINUOUS
 62
       3
100
AcDbLine
 10
58.02441054
 20
-39.72074228
 30
0.0
 11
57.96096323
 21
-39.79184702
 31
0.0
  0
LINE
  5
65
100
AcDbEntity
  8
レイヤー_1
  6
CONTINUOUS
 62
       3
100
AcDbLine
 10
57.96096323
 20
-39.79184702
 30
0.0
 11
57.91501863
 21
-39.873344
 31
0.0
  0
LINE
  5
66
100
AcDbEntity
  8
レイヤー_1
  6
CONTINUOUS
 62
       3
100
AcDbLine
 10
57.91501863
 20
-39.873344
 30
0.0
 11
57.88602977
 21
-39.96413928
 31
0.0
  0
LINE
  5
67
100
AcDbEntity
  8
レイヤー_1
  6
CONTINUOUS
 62
       3
100
AcDbLine
 10
57.88602977
 20
-39.96413928
 30
0.0
 11
57.87837234
 21
-40.05438761
 31
0.0
  0
LINE
  5
68
100
AcDbEntity
  8
レイヤー_1
  6
CONTINUOUS
 62
       3
100
AcDbLine
 10
57.87837234
 20
-43.8420825
 30
0.0
 11
57.87837234
 21
-40.05438761
 31
0.0
  0
LINE
  5
69
100
AcDbEntity
  8
レイヤー_1
  6
CONTINUOUS
 62
       3
100
AcDbLine
 10
57.87837234
 20
-43.8420825
 30
0.0
 11
57.84938348
 21
-44.11884403
 31
0.0
  0
LINE
  5
6A
100
AcDbEntity
  8
レイヤー_1
  6
CONTINUOUS
 62
       3
100
AcDbLine
 10
57.84938348
 20
-44.11884403
 30
0.0
 11
57.76186996
 21
-44.38630725
 31
0.0
  0
LINE
  5
6B
100
AcDbEntity
  8
レイヤー_1
  6
CONTINUOUS
 62
       3
100
AcDbLine
 10
57.76186996
 20
-44.38630725
 30
0.0
 11
57.62239527
 21
-44.63079817
 31
0.0
  0
LINE
  5
6C
100
AcDbEntity
  8
レイヤー_1
  6
CONTINUOUS
 62
       3
100
AcDbLine
 10
57.62239527
 20
-44.63079817
 30
0.0
 11
57.43642902
 21
-44.84575328
 31
0.0
  0
LINE
  5
6D
100
AcDbEntity
  8
レイヤー_1
  6
CONTINUOUS
 62
       3
100
AcDbLine
 10
57.43642902
 20
-44.84575328
 30
0.0
 11
57.20615905
 21
-45.02187425
 31
0.0
  0
LINE
  5
6E
100
AcDbEntity
  8
レイヤー_1
  6
CONTINUOUS
 62
       3
100
AcDbLine
 10
57.20615905
 20
-45.02187425
 30
0.0
 11
56.94635326
 21
-45.15423846
 31
0.0
  0
LINE
  5
6F
100
AcDbEntity
  8
レイヤー_1
  6
CONTINUOUS
 62
       3
100
AcDbLine
 10
56.94635326
 20
-45.15423846
 30
0.0
 11
56.66138734
 21
-45.23464152
 31
0.0
  0
LINE
  5
70
100
AcDbEntity
  8
レイヤー_1
  6
CONTINUOUS
 62
       3
100
AcDbLine
 10
56.66138734
 20
-45.23464152
 30
0.0
 11
56.36767006
 21
-45.2619895
 31
0.0
  0
LINE
  5
71
100
AcDbEntity
  8
レイヤー_1
  6
CONTINUOUS
 62
       3
100
AcDbLine
 10
55.86501423
 20
-45.2619895
 30
0.0
 11
56.36767006
 21
-45.2619895
 31
0.0
  0
LINE
  5
72
100
AcDbEntity
  8
レイヤー_1
  6
CONTINUOUS
 62
       3
100
AcDbLine
 10
65.61402127
 20
-15.00473408
 30
0.0
 11
64.34069944
 21
-15.00473408
 31
0.0
  0
LINE
  5
73
100
AcDbEntity
  8
レイヤー_1
  6
CONTINUOUS
 62
       3
100
AcDbLine
 10
64.34069944
 20
-15.00473408
 30
0.0
 11
63.91735274
 21
-16.51926508
 31
0.0
  0
LINE
  5
74
100
AcDbEntity
  8
レイヤー_1
  6
CONTINUOUS
 62
       3
100
AcDbLine
 10
63.91735274
 20
-16.51926508
 30
0.0
 11
62.91040021
 21
-16.51926508
 31
0.0
  0
LINE
  5
75
100
AcDbEntity
  8
レイヤー_1
  6
CONTINUOUS
 62
       3
100
AcDbLine
 10
62.91040021
 20
-16.51926508
 30
0.0
 11
62.91040021
 21
-16.14049559
 31
0.0
  0
LINE
  5
76
100
AcDbEntity
  8
レイヤー_1
  6
CONTINUOUS
 62
       3
100
AcDbLine
 10
62.91040021
 20
-16.14049559
 30
0.0
 11
58.6320826
 21
-16.14049559
 31
0.0
  0
LINE
  5
77
100
AcDbEntity
  8
レイヤー_1
  6
CONTINUOUS
 62
       3
100
AcDbLine
 10
58.6320826
 20
-16.14049559
 30
0.0
 11
58.34438188
 21
-16.0863466
 31
0.0
  0
LINE
  5
78
100
AcDbEntity
  8
レイヤー_1
  6
CONTINUOUS
 62
       3
100
AcDbLine
 10
58.34438188
 20
-16.0863466
 30
0.0
 11
58.09879704
 21
-15.93155704
 31
0.0
  0
LINE
  5
79
100
AcDbEntity
  8
レイヤー_1
  6
CONTINUOUS
 62
       3
100
AcDbLine
 10
58.09879704
 20
-15.93155704
 30
0.0
 11
57.93361525
 21
-15.70210751
 31
0.0
  0
LINE
  5
7A
100
AcDbEntity
  8
レイヤー_1
  6
CONTINUOUS
 62
       3
100
AcDbLine
 10
57.93361525
 20
-15.70210751
 30
0.0
 11
57.87837234
 21
-15.43081557
 31
0.0
  0
LINE
  5
7B
100
AcDbEntity
  8
レイヤー_1
  6
CONTINUOUS
 62
       3
100
AcDbLine
 10
57.87837234
 20
-15.43081557
 30
0.0
 11
57.93361525
 21
-15.1587032
 31
0.0
  0
LINE
  5
7C
100
AcDbEntity
  8
レイヤー_1
  6
CONTINUOUS
 62
       3
100
AcDbLine
 10
57.93361525
 20
-15.1587032
 30
0.0
 11
58.09879704
 21
-14.92788627
 31
0.0
  0
LINE
  5
7D
100
AcDbEntity
  8
レイヤー_1
  6
CONTINUOUS
 62
       3
100
AcDbLine
 10
58.09879704
 20
-14.92788627
 30
0.0
 11
58.34438188
 21
-14.77501107
 31
0.0
  0
LINE
  5
7E
100
AcDbEntity
  8
レイヤー_1
  6
CONTINUOUS
 62
       3
100
AcDbLine
 10
58.34438188
 20
-14.77501107
 30
0.0
 11
58.6320826
 21
-14.72086208
 31
0.0
  0
LINE
  5
7F
100
AcDbEntity
  8
レイヤー_1
  6
CONTINUOUS
 62
       3
100
AcDbLine
 10
65.61402127
 20
-15.00473408
 30
0.0
 11
65.81256759
 21
-15.01075064
 31
0.0
  0
LINE
  5
80
100
AcDbEntity
  8
レイヤー_1
  6
CONTINUOUS
 62
       3
100
AcDbLine
 10
65.81256759
 20
-15.01075064
 30
0.0
 11
66.01001999
 21
-15.02934726
 31
0.0
  0
LINE
  5
81
100
AcDbEntity
  8
レイヤー_1
  6
CONTINUOUS
 62
       3
100
AcDbLine
 10
66.01001999
 20
-15.02934726
 30
0.0
 11
66.20528455
 21
-15.05915656
 31
0.0
  0
LINE
  5
82
100
AcDbEntity
  8
レイヤー_1
  6
CONTINUOUS
 62
       3
100
AcDbLine
 10
66.20528455
 20
-15.05915656
 30
0.0
 11
66.39672039
 21
-15.10154592
 31
0.0
  0
LINE
  5
83
100
AcDbEntity
  8
レイヤー_1
  6
CONTINUOUS
 62
       3
100
AcDbLine
 10
66.39672039
 20
-15.10154592
 30
0.0
 11
66.58651535
 21
-15.15432752
 31
0.0
  0
LINE
  5
84
100
AcDbEntity
  8
レイヤー_1
  6
CONTINUOUS
 62
       3
100
AcDbLine
 10
66.58651535
 20
-15.15432752
 30
0.0
 11
66.77029376
 21
-15.21968919
 31
0.0
  0
LINE
  5
85
100
AcDbEntity
  8
レイヤー_1
  6
CONTINUOUS
 62
       3
100
AcDbLine
 10
66.77029376
 20
-15.21968919
 30
0.0
 11
66.95024346
 21
-15.29872484
 31
0.0
  0
LINE
  5
86
100
AcDbEntity
  8
レイヤー_1
  6
CONTINUOUS
 62
       3
100
AcDbLine
 10
66.95024346
 20
-15.29872484
 30
0.0
 11
67.12472355
 21
-15.38514445
 31
0.0
  0
LINE
  5
87
100
AcDbEntity
  8
レイヤー_1
  6
CONTINUOUS
 62
       3
100
AcDbLine
 10
68.44617783
 20
-16.1024819
 30
0.0
 11
68.77435356
 21
-16.30759173
 31
0.0
  0
LINE
  5
88
100
AcDbEntity
  8
レイヤー_1
  6
CONTINUOUS
 62
       3
100
AcDbLine
 10
68.77435356
 20
-16.30759173
 30
0.0
 11
69.07025868
 21
-16.55345005
 31
0.0
  0
LINE
  5
89
100
AcDbEntity
  8
レイヤー_1
  6
CONTINUOUS
 62
       3
100
AcDbLine
 10
69.07025868
 20
-16.55345005
 30
0.0
 11
69.3322523
 21
-16.83239942
 31
0.0
  0
LINE
  5
8A
100
AcDbEntity
  8
レイヤー_1
  6
CONTINUOUS
 62
       3
100
AcDbLine
 10
69.3322523
 20
-16.83239942
 30
0.0
 11
69.5499422
 21
-17.14088461
 31
0.0
  0
LINE
  5
8B
100
AcDbEntity
  8
レイヤー_1
  6
CONTINUOUS
 62
       3
100
AcDbLine
 10
69.5499422
 20
-17.14088461
 30
0.0
 11
69.72496926
 21
-17.47316254
 31
0.0
  0
LINE
  5
8C
100
AcDbEntity
  8
レイヤー_1
  6
CONTINUOUS
 62
       3
100
AcDbLine
 10
69.72496926
 20
-17.47316254
 30
0.0
 11
69.85131692
 21
-17.82649841
 31
0.0
  0
LINE
  5
8D
100
AcDbEntity
  8
レイヤー_1
  6
CONTINUOUS
 62
       3
100
AcDbLine
 10
69.85131692
 20
-17.82649841
 30
0.0
 11
69.95466689
 21
-18.31013264
 31
0.0
  0
LINE
  5
8E
100
AcDbEntity
  8
レイヤー_1
  6
CONTINUOUS
 62
       3
100
AcDbLine
 10
69.95466689
 20
-18.56042549
 30
0.0
 11
69.95469227
 21
-18.56079161
 31
0.0
  0
LINE
  5
8F
100
AcDbEntity
  8
レイヤー_1
  6
CONTINUOUS
 62
       3
100
AcDbLine
 10
68.9482867
 20
-24.18681755
 30
0.0
 11
68.9482867
 21
-32.95594655
 31
0.0
  0
LINE
  5
90
100
AcDbEntity
  8
レイヤー_1
  6
CONTINUOUS
 62
       3
100
AcDbLine
 10
68.9482867
 20
-24.18681755
 30
0.0
 11
68.75520997
 21
-24.14935082
 31
0.0
  0
LINE
  5
91
100
AcDbEntity
  8
レイヤー_1
  6
CONTINUOUS
 62
       3
100
AcDbLine
 10
68.75520997
 20
-24.14935082
 30
0.0
 11
68.59330995
 21
-24.0467959
 31
0.0
  0
LINE
  5
92
100
AcDbEntity
  8
レイヤー_1
  6
CONTINUOUS
 62
       3
100
AcDbLine
 10
68.59330995
 20
-24.0467959
 30
0.0
 11
68.48282412
 21
-23.89337375
 31
0.0
  0
LINE
  5
93
100
AcDbEntity
  8
レイヤー_1
  6
CONTINUOUS
 62
       3
100
AcDbLine
 10
68.48282412
 20
-23.89337375
 30
0.0
 11
68.44617783
 21
-23.7128771
 31
0.0
  0
LINE
  5
94
100
AcDbEntity
  8
レイヤー_1
  6
CONTINUOUS
 62
       3
100
AcDbLine
 10
68.44617783
 20
-23.7128771
 30
0.0
 11
68.48282412
 21
-23.53265393
 31
0.0
  0
LINE
  5
95
100
AcDbEntity
  8
レイヤー_1
  6
CONTINUOUS
 62
       3
100
AcDbLine
 10
68.48282412
 20
-23.53265393
 30
0.0
 11
68.59330995
 21
-23.37813785
 31
0.0
  0
LINE
  5
96
100
AcDbEntity
  8
レイヤー_1
  6
CONTINUOUS
 62
       3
100
AcDbLine
 10
68.59330995
 20
-23.37813785
 30
0.0
 11
68.75520997
 21
-23.27503598
 31
0.0
  0
LINE
  5
97
100
AcDbEntity
  8
レイヤー_1
  6
CONTINUOUS
 62
       3
100
AcDbLine
 10
68.75520997
 20
-23.27503598
 30
0.0
 11
68.9482867
 21
-23.23921013
 31
0.0
  0
LINE
  5
98
100
AcDbEntity
  8
レイヤー_1
  6
CONTINUOUS
 62
       3
100
AcDbLine
 10
68.9482867
 20
-18.56079161
 30
0.0
 11
68.9482867
 21
-23.23921013
 31
0.0
  0
LINE
  5
99
100
AcDbEntity
  8
レイヤー_1
  6
CONTINUOUS
 62
       3
100
AcDbLine
 10
68.9482867
 20
-18.56079161
 30
0.0
 11
68.9400823
 21
-18.43581135
 31
0.0
  0
LINE
  5
9A
100
AcDbEntity
  8
レイヤー_1
  6
CONTINUOUS
 62
       3
100
AcDbLine
 10
68.9400823
 20
-18.43581135
 30
0.0
 11
68.91492216
 21
-18.31548025
 31
0.0
  0
LINE
  5
9B
100
AcDbEntity
  8
レイヤー_1
  6
CONTINUOUS
 62
       3
100
AcDbLine
 10
68.91492216
 20
-18.31548025
 30
0.0
 11
68.87280628
 21
-18.19952482
 31
0.0
  0
LINE
  5
9C
100
AcDbEntity
  8
レイヤー_1
  6
CONTINUOUS
 62
       3
100
AcDbLine
 10
68.87280628
 20
-18.19952482
 30
0.0
 11
68.81373465
 21
-18.08630419
 31
0.0
  0
LINE
  5
9D
100
AcDbEntity
  8
レイヤー_1
  6
CONTINUOUS
 62
       3
100
AcDbLine
 10
68.81373465
 20
-18.08630419
 30
0.0
 11
68.74044207
 21
-17.9848432
 31
0.0
  0
LINE
  5
9E
100
AcDbEntity
  8
レイヤー_1
  6
CONTINUOUS
 62
       3
100
AcDbLine
 10
68.74044207
 20
-17.9848432
 30
0.0
 11
68.65402246
 21
-17.89076615
 31
0.0
  0
LINE
  5
9F
100
AcDbEntity
  8
レイヤー_1
  6
CONTINUOUS
 62
       3
100
AcDbLine
 10
68.65402246
 20
-17.89076615
 30
0.0
 11
68.5533819
 21
-17.81118354
 31
0.0
  0
LINE
  5
A0
100
AcDbEntity
  8
レイヤー_1
  6
CONTINUOUS
 62
       3
100
AcDbLine
 10
68.5533819
 20
-17.81118354
 30
0.0
 11
68.44617783
 21
-17.74117272
 31
0.0
  0
LINE
  5
A1
100
AcDbEntity
  8
レイヤー_1
  6
CONTINUOUS
 62
       3
100
AcDbLine
 10
68.27443253
 20
-17.64818959
 30
0.0
 11
68.44617783
 21
-17.74117272
 31
0.0
  0
LINE
  5
A2
100
AcDbEntity
  8
レイヤー_1
  6
CONTINUOUS
 62
       3
100
AcDbLine
 10
68.27443253
 20
-17.64818959
 30
0.0
 11
68.15683623
 21
-17.59021188
 31
0.0
  0
LINE
  5
A3
100
AcDbEntity
  8
レイヤー_1
  6
CONTINUOUS
 62
       3
100
AcDbLine
 10
68.15683623
 20
-17.59021188
 30
0.0
 11
68.03595816
 21
-17.54317336
 31
0.0
  0
LINE
  5
A4
100
AcDbEntity
  8
レイヤー_1
  6
CONTINUOUS
 62
       3
100
AcDbLine
 10
68.03595816
 20
-17.54317336
 30
0.0
 11
67.90961051
 21
-17.50598011
 31
0.0
  0
LINE
  5
A5
100
AcDbEntity
  8
レイヤー_1
  6
CONTINUOUS
 62
       3
100
AcDbLine
 10
67.90961051
 20
-17.50598011
 30
0.0
 11
67.78107501
 21
-17.47917909
 31
0.0
  0
LINE
  5
A6
100
AcDbEntity
  8
レイヤー_1
  6
CONTINUOUS
 62
       3
100
AcDbLine
 10
67.78107501
 20
-17.47917909
 30
0.0
 11
67.65035168
 21
-17.46468466
 31
0.0
  0
LINE
  5
A7
100
AcDbEntity
  8
レイヤー_1
  6
CONTINUOUS
 62
       3
100
AcDbLine
 10
67.65035168
 20
-17.46468466
 30
0.0
 11
67.51853443
 21
-17.45620679
 31
0.0
  0
LINE
  5
A8
100
AcDbEntity
  8
レイヤー_1
  6
CONTINUOUS
 62
       3
100
AcDbLine
 10
67.51853443
 20
-17.45620679
 30
0.0
 11
67.38617022
 21
-17.46468466
 31
0.0
  0
LINE
  5
A9
100
AcDbEntity
  8
レイヤー_1
  6
CONTINUOUS
 62
       3
100
AcDbLine
 10
67.38617022
 20
-17.46468466
 30
0.0
 11
67.2565408
 21
-17.47917909
 31
0.0
  0
LINE
  5
AA
100
AcDbEntity
  8
レイヤー_1
  6
CONTINUOUS
 62
       3
100
AcDbLine
 10
64.34999775
 20
-17.96132394
 30
0.0
 11
67.2565408
 21
-17.47917909
 31
0.0
  0
LINE
  5
AB
100
AcDbEntity
  8
レイヤー_1
  6
CONTINUOUS
 62
       3
100
AcDbLine
 10
64.34999775
 20
-17.96132394
 30
0.0
 11
64.24224672
 21
-17.97827968
 31
0.0
  0
LINE
  5
AC
100
AcDbEntity
  8
レイヤー_1
  6
CONTINUOUS
 62
       3
100
AcDbLine
 10
64.24224672
 20
-17.97827968
 30
0.0
 11
64.13340177
 21
-17.99386803
 31
0.0
  0
LINE
  5
AD
100
AcDbEntity
  8
レイヤー_1
  6
CONTINUOUS
 62
       3
100
AcDbLine
 10
64.13340177
 20
-17.99386803
 30
0.0
 11
64.0234629
 21
-18.00453374
 31
0.0
  0
LINE
  5
AE
100
AcDbEntity
  8
レイヤー_1
  6
CONTINUOUS
 62
       3
100
AcDbLine
 10
64.0234629
 20
-18.00453374
 30
0.0
 11
63.91461795
 21
-18.01410553
 31
0.0
  0
LINE
  5
AF
100
AcDbEntity
  8
レイヤー_1
  6
CONTINUOUS
 62
       3
100
AcDbLine
 10
63.91461795
 20
-18.01410553
 30
0.0
 11
63.80631996
 21
-18.02422429
 31
0.0
  0
LINE
  5
B0
100
AcDbEntity
  8
レイヤー_1
  6
CONTINUOUS
 62
       3
100
AcDbLine
 10
63.80631996
 20
-18.02422429
 30
0.0
 11
63.69474021
 21
-18.02914692
 31
0.0
  0
LINE
  5
B1
100
AcDbEntity
  8
レイヤー_1
  6
CONTINUOUS
 62
       3
100
AcDbLine
 10
63.69474021
 20
-18.02914692
 30
0.0
 11
63.58480134
 21
-18.0307878
 31
0.0
  0
LINE
  5
B2
100
AcDbEntity
  8
レイヤー_1
  6
CONTINUOUS
 62
       3
100
AcDbLine
 10
63.58480134
 20
-18.0307878
 30
0.0
 11
63.47540943
 21
-18.03324912
 31
0.0
  0
LINE
  5
B3
100
AcDbEntity
  8
レイヤー_1
  6
CONTINUOUS
 62
       3
100
AcDbLine
 10
66.93602251
 20
-19.92572917
 30
0.0
 11
58.88423095
 21
-19.92572917
 31
0.0
  0
LINE
  5
B4
100
AcDbEntity
  8
レイヤー_1
  6
CONTINUOUS
 62
       3
100
AcDbLine
 10
58.88423095
 20
-19.92572917
 30
0.0
 11
58.49807751
 21
-19.8535305
 31
0.0
  0
LINE
  5
B5
100
AcDbEntity
  8
レイヤー_1
  6
CONTINUOUS
 62
       3
100
AcDbLine
 10
58.49807751
 20
-19.8535305
 30
0.0
 11
58.17208962
 21
-19.64896763
 31
0.0
  0
LINE
  5
B6
100
AcDbEntity
  8
レイヤー_1
  6
CONTINUOUS
 62
       3
100
AcDbLine
 10
58.17208962
 20
-19.64896763
 30
0.0
 11
57.95494668
 21
-19.34267028
 31
0.0
  0
LINE
  5
B7
100
AcDbEntity
  8
レイヤー_1
  6
CONTINUOUS
 62
       3
100
AcDbLine
 10
57.95494668
 20
-19.34267028
 30
0.0
 11
57.87837234
 21
-18.97976262
 31
0.0
  0
LINE
  5
B8
100
AcDbEntity
  8
レイヤー_1
  6
CONTINUOUS
 62
       3
100
AcDbLine
 10
57.87837234
 20
-18.97976262
 30
0.0
 11
57.95494668
 21
-18.61794888
 31
0.0
  0
LINE
  5
B9
100
AcDbEntity
  8
レイヤー_1
  6
CONTINUOUS
 62
       3
100
AcDbLine
 10
57.95494668
 20
-18.61794888
 30
0.0
 11
58.17208962
 21
-18.31083109
 31
0.0
  0
LINE
  5
BA
100
AcDbEntity
  8
レイヤー_1
  6
CONTINUOUS
 62
       3
100
AcDbLine
 10
58.17208962
 20
-18.31083109
 30
0.0
 11
58.49807751
 21
-18.10599474
 31
0.0
  0
LINE
  5
BB
100
AcDbEntity
  8
レイヤー_1
  6
CONTINUOUS
 62
       3
100
AcDbLine
 10
58.49807751
 20
-18.10599474
 30
0.0
 11
58.88423095
 21
-18.03324912
 31
0.0
  0
LINE
  5
BC
100
AcDbEntity
  8
レイヤー_1
  6
CONTINUOUS
 62
       3
100
AcDbLine
 10
58.88423095
 20
-18.03324912
 30
0.0
 11
63.47540943
 21
-18.03324912
 31
0.0
  0
LINE
  5
BD
100
AcDbEntity
  8
レイヤー_1
  6
CONTINUOUS
 62
       3
100
AcDbLine
 10
66.93602251
 20
-19.92572917
 30
0.0
 11
67.13128707
 21
-19.94514623
 31
0.0
  0
LINE
  5
BE
100
AcDbEntity
  8
レイヤー_1
  6
CONTINUOUS
 62
       3
100
AcDbLine
 10
67.13128707
 20
-19.94514623
 30
0.0
 11
67.32053507
 21
-19.99902174
 31
0.0
  0
LINE
  5
BF
100
AcDbEntity
  8
レイヤー_1
  6
CONTINUOUS
 62
       3
100
AcDbLine
 10
67.32053507
 20
-19.99902174
 30
0.0
 11
67.49501517
 21
-20.08626179
 31
0.0
  0
LINE
  5
C0
100
AcDbEntity
  8
レイヤー_1
  6
CONTINUOUS
 62
       3
100
AcDbLine
 10
67.49501517
 20
-20.08626179
 30
0.0
 11
67.64652296
 21
-20.20358462
 31
0.0
  0
LINE
  5
C1
100
AcDbEntity
  8
レイヤー_1
  6
CONTINUOUS
 62
       3
100
AcDbLine
 10
67.64652296
 20
-20.20358462
 30
0.0
 11
67.7717767
 21
-20.34688802
 31
0.0
  0
LINE
  5
C2
100
AcDbEntity
  8
レイヤー_1
  6
CONTINUOUS
 62
       3
100
AcDbLine
 10
67.7717767
 20
-20.34688802
 30
0.0
 11
67.86585374
 21
-20.50988197
 31
0.0
  0
LINE
  5
C3
100
AcDbEntity
  8
レイヤー_1
  6
CONTINUOUS
 62
       3
100
AcDbLine
 10
67.86585374
 20
-20.50988197
 30
0.0
 11
67.92164362
 21
-20.68901122
 31
0.0
  0
LINE
  5
C4
100
AcDbEntity
  8
レイヤー_1
  6
CONTINUOUS
 62
       3
100
AcDbLine
 10
67.92164362
 20
-20.68901122
 30
0.0
 11
67.943522
 21
-20.87333659
 31
0.0
  0
LINE
  5
C5
100
AcDbEntity
  8
レイヤー_1
  6
CONTINUOUS
 62
       3
100
AcDbLine
 10
67.943522
 20
-36.27052143
 30
0.0
 11
67.943522
 21
-20.87333659
 31
0.0
  0
LINE
  5
C6
100
AcDbEntity
  8
レイヤー_1
  6
CONTINUOUS
 62
       3
100
AcDbLine
 10
67.943522
 20
-36.27052143
 30
0.0
 11
67.92164362
 21
-36.45320592
 31
0.0
  0
LINE
  5
C7
100
AcDbEntity
  8
レイヤー_1
  6
CONTINUOUS
 62
       3
100
AcDbLine
 10
67.92164362
 20
-36.45320592
 30
0.0
 11
67.86585374
 21
-36.63124126
 31
0.0
  0
LINE
  5
C8
100
AcDbEntity
  8
レイヤー_1
  6
CONTINUOUS
 62
       3
100
AcDbLine
 10
67.86585374
 20
-36.63124126
 30
0.0
 11
67.7717767
 21
-36.7942352
 31
0.0
  0
LINE
  5
C9
100
AcDbEntity
  8
レイヤー_1
  6
CONTINUOUS
 62
       3
100
AcDbLine
 10
67.7717767
 20
-36.7942352
 30
0.0
 11
67.64652296
 21
-36.93835905
 31
0.0
  0
LINE
  5
CA
100
AcDbEntity
  8
レイヤー_1
  6
CONTINUOUS
 62
       3
100
AcDbLine
 10
67.64652296
 20
-36.93835905
 30
0.0
 11
67.49501517
 21
-37.05595535
 31
0.0
  0
LINE
  5
CB
100
AcDbEntity
  8
レイヤー_1
  6
CONTINUOUS
 62
       3
100
AcDbLine
 10
67.49501517
 20
-37.05595535
 30
0.0
 11
67.32053507
 21
-37.14374236
 31
0.0
  0
LINE
  5
CC
100
AcDbEntity
  8
レイヤー_1
  6
CONTINUOUS
 62
       3
100
AcDbLine
 10
67.32053507
 20
-37.14374236
 30
0.0
 11
67.13128707
 21
-37.19761787
 31
0.0
  0
LINE
  5
CD
100
AcDbEntity
  8
レイヤー_1
  6
CONTINUOUS
 62
       3
100
AcDbLine
 10
67.13128707
 20
-37.19761787
 30
0.0
 11
66.93602251
 21
-37.21539406
 31
0.0
  0
LINE
  5
CE
100
AcDbEntity
  8
レイヤー_1
  6
CONTINUOUS
 62
       3
100
AcDbLine
 10
68.44617783
 20
-38.63612149
 30
0.0
 11
58.6320826
 21
-38.63612149
 31
0.0
  0
LINE
  5
CF
100
AcDbEntity
  8
レイヤー_1
  6
CONTINUOUS
 62
       3
100
AcDbLine
 10
58.6320826
 20
-38.63612149
 30
0.0
 11
58.34438188
 21
-38.58087858
 31
0.0
  0
LINE
  5
D0
100
AcDbEntity
  8
レイヤー_1
  6
CONTINUOUS
 62
       3
100
AcDbLine
 10
58.34438188
 20
-38.58087858
 30
0.0
 11
58.09879704
 21
-38.42827686
 31
0.0
  0
LINE
  5
D1
100
AcDbEntity
  8
レイヤー_1
  6
CONTINUOUS
 62
       3
100
AcDbLine
 10
58.09879704
 20
-38.42827686
 30
0.0
 11
57.93361525
 21
-38.19581905
 31
0.0
  0
LINE
  5
D2
100
AcDbEntity
  8
レイヤー_1
  6
CONTINUOUS
 62
       3
100
AcDbLine
 10
57.93361525
 20
-38.19581905
 30
0.0
 11
57.87837234
 21
-37.92452712
 31
0.0
  0
LINE
  5
D3
100
AcDbEntity
  8
レイヤー_1
  6
CONTINUOUS
 62
       3
100
AcDbLine
 10
57.87837234
 20
-37.92452712
 30
0.0
 11
57.93361525
 21
-37.65378214
 31
0.0
  0
LINE
  5
D4
100
AcDbEntity
  8
レイヤー_1
  6
CONTINUOUS
 62
       3
100
AcDbLine
 10
57.93361525
 20
-37.65378214
 30
0.0
 11
58.09879704
 21
-37.42405913
 31
0.0
  0
LINE
  5
D5
100
AcDbEntity
  8
レイヤー_1
  6
CONTINUOUS
 62
       3
100
AcDbLine
 10
58.09879704
 20
-37.42405913
 30
0.0
 11
58.34438188
 21
-37.26817565
 31
0.0
  0
LINE
  5
D6
100
AcDbEntity
  8
レイヤー_1
  6
CONTINUOUS
 62
       3
100
AcDbLine
 10
58.34438188
 20
-37.26817565
 30
0.0
 11
58.6320826
 21
-37.21539406
 31
0.0
  0
LINE
  5
D7
100
AcDbEntity
  8
レイヤー_1
  6
CONTINUOUS
 62
       3
100
AcDbLine
 10
58.6320826
 20
-37.21539406
 30
0.0
 11
66.93602251
 21
-37.21539406
 31
0.0
  0
LINE
  5
D8
100
AcDbEntity
  8
レイヤー_1
  6
CONTINUOUS
 62
       3
100
AcDbLine
 10
68.44617783
 20
-38.63612149
 30
0.0
 11
68.54463055
 21
-38.62682318
 31
0.0
  0
LINE
  5
D9
100
AcDbEntity
  8
レイヤー_1
  6
CONTINUOUS
 62
       3
100
AcDbLine
 10
68.54463055
 20
-38.62682318
 30
0.0
 11
68.63925455
 21
-38.60056912
 31
0.0
  0
LINE
  5
DA
100
AcDbEntity
  8
レイヤー_1
  6
CONTINUOUS
 62
       3
100
AcDbLine
 10
68.63925455
 20
-38.60056912
 30
0.0
 11
68.7251272
 21
-38.5562654
 31
0.0
  0
LINE
  5
DB
100
AcDbEntity
  8
レイヤー_1
  6
CONTINUOUS
 62
       3
100
AcDbLine
 10
68.7251272
 20
-38.5562654
 30
0.0
 11
68.80115458
 21
-38.49719377
 31
0.0
  0
LINE
  5
DC
100
AcDbEntity
  8
レイヤー_1
  6
CONTINUOUS
 62
       3
100
AcDbLine
 10
68.80115458
 20
-38.49719377
 30
0.0
 11
68.86405493
 21
-38.42554206
 31
0.0
  0
LINE
  5
DD
100
AcDbEntity
  8
レイヤー_1
  6
CONTINUOUS
 62
       3
100
AcDbLine
 10
68.86405493
 20
-38.42554206
 30
0.0
 11
68.91054649
 21
-38.34349813
 31
0.0
  0
LINE
  5
DE
100
AcDbEntity
  8
レイヤー_1
  6
CONTINUOUS
 62
       3
100
AcDbLine
 10
68.91054649
 20
-38.34349813
 30
0.0
 11
68.93898838
 21
-38.25434373
 31
0.0
  0
LINE
  5
DF
100
AcDbEntity
  8
レイヤー_1
  6
CONTINUOUS
 62
       3
100
AcDbLine
 10
68.93898838
 20
-38.25434373
 30
0.0
 11
68.9482867
 21
-38.16190756
 31
0.0
  0
LINE
  5
E0
100
AcDbEntity
  8
レイヤー_1
  6
CONTINUOUS
 62
       3
100
AcDbLine
 10
68.9482867
 20
-33.90273354
 30
0.0
 11
68.9482867
 21
-38.16190756
 31
0.0
  0
LINE
  5
E1
100
AcDbEntity
  8
レイヤー_1
  6
CONTINUOUS
 62
       3
100
AcDbLine
 10
68.9482867
 20
-33.90273354
 30
0.0
 11
68.75520997
 21
-33.86854856
 31
0.0
  0
LINE
  5
E2
100
AcDbEntity
  8
レイヤー_1
  6
CONTINUOUS
 62
       3
100
AcDbLine
 10
68.75520997
 20
-33.86854856
 30
0.0
 11
68.59330995
 21
-33.76435277
 31
0.0
  0
LINE
  5
E3
100
AcDbEntity
  8
レイヤー_1
  6
CONTINUOUS
 62
       3
100
AcDbLine
 10
68.59330995
 20
-33.76435277
 30
0.0
 11
68.48282412
 21
-33.60901626
 31
0.0
  0
LINE
  5
E4
100
AcDbEntity
  8
レイヤー_1
  6
CONTINUOUS
 62
       3
100
AcDbLine
 10
68.48282412
 20
-33.60901626
 30
0.0
 11
68.44617783
 21
-33.42879308
 31
0.0
  0
LINE
  5
E5
100
AcDbEntity
  8
レイヤー_1
  6
CONTINUOUS
 62
       3
100
AcDbLine
 10
68.44617783
 20
-33.42879308
 30
0.0
 11
68.48282412
 21
-33.24774947
 31
0.0
  0
LINE
  5
E6
100
AcDbEntity
  8
レイヤー_1
  6
CONTINUOUS
 62
       3
100
AcDbLine
 10
68.48282412
 20
-33.24774947
 30
0.0
 11
68.59330995
 21
-33.0959682
 31
0.0
  0
LINE
  5
E7
100
AcDbEntity
  8
レイヤー_1
  6
CONTINUOUS
 62
       3
100
AcDbLine
 10
68.59330995
 20
-33.0959682
 30
0.0
 11
68.75520997
 21
-32.99204588
 31
0.0
  0
LINE
  5
E8
100
AcDbEntity
  8
レイヤー_1
  6
CONTINUOUS
 62
       3
100
AcDbLine
 10
68.75520997
 20
-32.99204588
 30
0.0
 11
68.9482867
 21
-32.95594655
 31
0.0
  0
LINE
  5
E9
100
AcDbEntity
  8
レイヤー_1
  6
CONTINUOUS
 62
       3
100
AcDbLine
 10
53.60443041
 20
45.53794516
 30
0.0
 11
53.69249089
 21
45.4900862
 31
0.0
  0
LINE
  5
EA
100
AcDbEntity
  8
レイヤー_1
  6
CONTINUOUS
 62
       3
100
AcDbLine
 10
68.44617783
 20
-16.1024819
 30
0.0
 11
67.12472355
 21
-15.38514445
 31
0.0
  0
LINE
  5
EB
100
AcDbEntity
  8
レイヤー_1
  6
CONTINUOUS
 62
       3
100
AcDbLine
 10
63.91735274
 20
18.52552728
 30
0.0
 11
64.01580546
 21
18.52552728
 31
0.0
  0
LINE
  5
EC
100
AcDbEntity
  8
レイヤー_1
  6
CONTINUOUS
 62
       3
100
AcDbLine
 10
66.90648669
 20
27.36630799
 30
0.0
 11
63.11898392
 21
47.56173474
 31
0.0
  0
LINE
  5
ED
100
AcDbEntity
  8
レイヤー_1
  6
CONTINUOUS
 62
       3
100
AcDbLine
 10
66.93602251
 20
17.57764638
 30
0.0
 11
66.93602251
 21
27.03594442
 31
0.0
  0
LINE
  5
EE
100
AcDbEntity
  8
レイヤー_1
  6
CONTINUOUS
 62
       3
100
AcDbLine
 10
65.76005947
 20
16.6322268
 30
0.0
 11
65.92906997
 21
16.6322268
 31
0.0
  0
LINE
  5
EF
100
AcDbEntity
  8
レイヤー_1
  6
CONTINUOUS
 62
       3
100
AcDbLine
 10
64.01580546
 20
18.52552728
 30
0.0
 11
64.88929987
 21
17.10507333
 31
0.0
  0
LINE
  5
F0
100
AcDbEntity
  8
レイヤー_1
  6
CONTINUOUS
 62
       3
100
AcDbLine
 10
66.90648669
 20
27.36630799
 30
0.0
 11
66.91305021
 21
27.3255595
 31
0.0
  0
LINE
  5
F1
100
AcDbEntity
  8
レイヤー_1
  6
CONTINUOUS
 62
       3
100
AcDbLine
 10
66.91305021
 20
27.3255595
 30
0.0
 11
66.91906676
 21
27.28399058
 31
0.0
  0
LINE
  5
F2
100
AcDbEntity
  8
レイヤー_1
  6
CONTINUOUS
 62
       3
100
AcDbLine
 10
66.91906676
 20
27.28399058
 30
0.0
 11
66.92234852
 21
27.24378905
 31
0.0
  0
LINE
  5
F3
100
AcDbEntity
  8
レイヤー_1
  6
CONTINUOUS
 62
       3
100
AcDbLine
 10
66.92234852
 20
27.24378905
 30
0.0
 11
66.92727115
 21
27.20222012
 31
0.0
  0
LINE
  5
F4
100
AcDbEntity
  8
レイヤー_1
  6
CONTINUOUS
 62
       3
100
AcDbLine
 10
66.92727115
 20
27.20222012
 30
0.0
 11
66.93055291
 21
27.16092468
 31
0.0
  0
LINE
  5
F5
100
AcDbEntity
  8
レイヤー_1
  6
CONTINUOUS
 62
       3
100
AcDbLine
 10
66.93055291
 20
27.16092468
 30
0.0
 11
66.93438163
 21
27.11880879
 31
0.0
  0
LINE
  5
F6
100
AcDbEntity
  8
レイヤー_1
  6
CONTINUOUS
 62
       3
100
AcDbLine
 10
66.93438163
 20
27.11880879
 30
0.0
 11
66.93602251
 21
27.07860727
 31
0.0
  0
LINE
  5
F7
100
AcDbEntity
  8
レイヤー_1
  6
CONTINUOUS
 62
       3
100
AcDbLine
 10
66.93602251
 20
27.07860727
 30
0.0
 11
66.93602251
 21
27.03594442
 31
0.0
  0
LINE
  5
F8
100
AcDbEntity
  8
レイヤー_1
  6
CONTINUOUS
 62
       3
100
AcDbLine
 10
-31.48907525
 20
39.93571196
 30
0.0
 11
-32.04533311
 21
39.02967346
 31
0.0
  0
LINE
  5
F9
100
AcDbEntity
  8
レイヤー_1
  6
CONTINUOUS
 62
       3
100
AcDbLine
 10
-32.04533311
 20
39.02967346
 30
0.0
 11
-32.04533311
 21
28.90654609
 31
0.0
  0
LINE
  5
FA
100
AcDbEntity
  8
レイヤー_1
  6
CONTINUOUS
 62
       3
100
AcDbLine
 10
54.84812805
 20
47.56173474
 30
0.0
 11
53.60443041
 21
45.53794516
 31
0.0
  0
LINE
  5
FB
100
AcDbEntity
  8
レイヤー_1
  6
CONTINUOUS
 62
       3
100
AcDbLine
 10
65.76005947
 20
16.6322268
 30
0.0
 11
65.62878918
 21
16.64015771
 31
0.0
  0
LINE
  5
FC
100
AcDbEntity
  8
レイヤー_1
  6
CONTINUOUS
 62
       3
100
AcDbLine
 10
65.62878918
 20
16.64015771
 30
0.0
 11
65.49861281
 21
16.66367697
 31
0.0
  0
LINE
  5
FD
100
AcDbEntity
  8
レイヤー_1
  6
CONTINUOUS
 62
       3
100
AcDbLine
 10
65.49861281
 20
16.66367697
 30
0.0
 11
65.37554691
 21
16.70415198
 31
0.0
  0
LINE
  5
FE
100
AcDbEntity
  8
レイヤー_1
  6
CONTINUOUS
 62
       3
100
AcDbLine
 10
65.37554691
 20
16.70415198
 30
0.0
 11
65.25740364
 21
16.75884793
 31
0.0
  0
LINE
  5
FF
100
AcDbEntity
  8
レイヤー_1
  6
CONTINUOUS
 62
       3
100
AcDbLine
 10
65.25740364
 20
16.75884793
 30
0.0
 11
65.14746478
 21
16.82776484
 31
0.0
  0
LINE
  5
100
100
AcDbEntity
  8
レイヤー_1
  6
CONTINUOUS
 62
       3
100
AcDbLine
 10
65.14746478
 20
16.82776484
 30
0.0
 11
65.04901206
 21
16.90898833
 31
0.0
  0
LINE
  5
101
100
AcDbEntity
  8
レイヤー_1
  6
CONTINUOUS
 62
       3
100
AcDbLine
 10
65.04901206
 20
16.90898833
 30
0.0
 11
64.96149853
 21
17.00142449
 31
0.0
  0
LINE
  5
102
100
AcDbEntity
  8
レイヤー_1
  6
CONTINUOUS
 62
       3
100
AcDbLine
 10
64.96149853
 20
17.00142449
 30
0.0
 11
64.88929987
 21
17.10507333
 31
0.0
  0
LINE
  5
103
100
AcDbEntity
  8
レイヤー_1
  6
CONTINUOUS
 62
       3
100
AcDbLine
 10
66.93602251
 20
17.57764638
 30
0.0
 11
66.91523804
 21
17.39277405
 31
0.0
  0
LINE
  5
104
100
AcDbEntity
  8
レイヤー_1
  6
CONTINUOUS
 62
       3
100
AcDbLine
 10
66.91523804
 20
17.39277405
 30
0.0
 11
66.85835425
 21
17.21665308
 31
0.0
  0
LINE
  5
105
100
AcDbEntity
  8
レイヤー_1
  6
CONTINUOUS
 62
       3
100
AcDbLine
 10
66.85835425
 20
17.21665308
 30
0.0
 11
66.76701201
 21
17.05229173
 31
0.0
  0
LINE
  5
106
100
AcDbEntity
  8
レイヤー_1
  6
CONTINUOUS
 62
       3
100
AcDbLine
 10
66.76701201
 20
17.05229173
 30
0.0
 11
66.64175827
 21
16.90898833
 31
0.0
  0
LINE
  5
107
100
AcDbEntity
  8
レイヤー_1
  6
CONTINUOUS
 62
       3
100
AcDbLine
 10
66.64175827
 20
16.90898833
 30
0.0
 11
66.48970351
 21
16.79193899
 31
0.0
  0
LINE
  5
108
100
AcDbEntity
  8
レイヤー_1
  6
CONTINUOUS
 62
       3
100
AcDbLine
 10
66.48970351
 20
16.79193899
 30
0.0
 11
66.31522342
 21
16.70415198
 31
0.0
  0
LINE
  5
109
100
AcDbEntity
  8
レイヤー_1
  6
CONTINUOUS
 62
       3
100
AcDbLine
 10
66.31522342
 20
16.70415198
 30
0.0
 11
66.12597541
 21
16.6497295
 31
0.0
  0
LINE
  5
10A
100
AcDbEntity
  8
レイヤー_1
  6
CONTINUOUS
 62
       3
100
AcDbLine
 10
66.12597541
 20
16.6497295
 30
0.0
 11
65.92906997
 21
16.6322268
 31
0.0
  0
LINE
  5
10B
100
AcDbEntity
  8
レイヤー_1
  6
CONTINUOUS
 62
       3
100
AcDbLine
 10
66.05432371
 20
-44.82692242
 30
0.0
 11
69.95466689
 21
-44.82692242
 31
0.0
  0
LINE
  5
10C
100
AcDbEntity
  8
レイヤー_1
  6
CONTINUOUS
 62
       3
100
AcDbLine
 10
66.05432371
 20
-44.82692242
 30
0.0
 11
66.05432371
 21
-44.35489633
 31
0.0
  0
LINE
  5
10D
100
AcDbEntity
  8
レイヤー_1
  6
CONTINUOUS
 62
       3
100
AcDbLine
 10
66.93602251
 20
-44.82692242
 30
0.0
 11
66.93602251
 21
-46.24792334
 31
0.0
  0
LINE
  5
10E
100
AcDbEntity
  8
レイヤー_1
  6
CONTINUOUS
 62
       3
100
AcDbLine
 10
68.0895602
 20
-46.29824362
 30
0.0
 11
68.05291391
 21
-46.32996727
 31
0.0
  0
LINE
  5
10F
100
AcDbEntity
  8
レイヤー_1
  6
CONTINUOUS
 62
       3
100
AcDbLine
 10
68.05291391
 20
-46.32996727
 30
0.0
 11
68.01353282
 21
-46.35786221
 31
0.0
  0
LINE
  5
110
100
AcDbEntity
  8
レイヤー_1
  6
CONTINUOUS
 62
       3
100
AcDbLine
 10
68.01353282
 20
-46.35786221
 30
0.0
 11
67.96977606
 21
-46.38028755
 31
0.0
  0
LINE
  5
111
100
AcDbEntity
  8
レイヤー_1
  6
CONTINUOUS
 62
       3
100
AcDbLine
 10
67.96977606
 20
-46.38028755
 30
0.0
 11
67.92656625
 21
-46.40216593
 31
0.0
  0
LINE
  5
112
100
AcDbEntity
  8
レイヤー_1
  6
CONTINUOUS
 62
       3
100
AcDbLine
 10
67.92656625
 20
-46.40216593
 30
0.0
 11
67.87952773
 21
-46.41638688
 31
0.0
  0
LINE
  5
113
100
AcDbEntity
  8
レイヤー_1
  6
CONTINUOUS
 62
       3
100
AcDbLine
 10
67.87952773
 20
-46.41638688
 30
0.0
 11
67.83030137
 21
-46.42787303
 31
0.0
  0
LINE
  5
114
100
AcDbEntity
  8
レイヤー_1
  6
CONTINUOUS
 62
       3
100
AcDbLine
 10
67.83030137
 20
-46.42787303
 30
0.0
 11
67.78216893
 21
-46.4349835
 31
0.0
  0
LINE
  5
115
100
AcDbEntity
  8
レイヤー_1
  6
CONTINUOUS
 62
       3
100
AcDbLine
 10
67.78216893
 20
-46.4349835
 30
0.0
 11
67.73348953
 21
-46.43826526
 31
0.0
  0
LINE
  5
116
100
AcDbEntity
  8
レイヤー_1
  6
CONTINUOUS
 62
       3
100
AcDbLine
 10
63.44477969
 20
45.82455196
 30
0.0
 11
63.11933876
 21
47.5534911
 31
0.0
  0
LINE
  5
117
100
AcDbEntity
  8
レイヤー_1
  6
CONTINUOUS
 62
       3
100
AcDbLine
 10
67.13730362
 20
-46.43826526
 30
0.0
 11
67.09737558
 21
-46.43170175
 31
0.0
  0
LINE
  5
118
100
AcDbEntity
  8
レイヤー_1
  6
CONTINUOUS
 62
       3
100
AcDbLine
 10
67.09737558
 20
-46.43170175
 30
0.0
 11
67.06018233
 21
-46.42185647
 31
0.0
  0
LINE
  5
119
100
AcDbEntity
  8
レイヤー_1
  6
CONTINUOUS
 62
       3
100
AcDbLine
 10
67.06018233
 20
-46.42185647
 30
0.0
 11
67.02517691
 21
-46.40599465
 31
0.0
  0
LINE
  5
11A
100
AcDbEntity
  8
レイヤー_1
  6
CONTINUOUS
 62
       3
100
AcDbLine
 10
67.02517691
 20
-46.40599465
 30
0.0
 11
66.99454718
 21
-46.38192843
 31
0.0
  0
LINE
  5
11B
100
AcDbEntity
  8
レイヤー_1
  6
CONTINUOUS
 62
       3
100
AcDbLine
 10
66.99454718
 20
-46.38192843
 30
0.0
 11
66.969934
 21
-46.35293957
 31
0.0
  0
LINE
  5
11C
100
AcDbEntity
  8
レイヤー_1
  6
CONTINUOUS
 62
       3
100
AcDbLine
 10
66.969934
 20
-46.35293957
 30
0.0
 11
66.95024346
 21
-46.320122
 31
0.0
  0
LINE
  5
11D
100
AcDbEntity
  8
レイヤー_1
  6
CONTINUOUS
 62
       3
100
AcDbLine
 10
66.95024346
 20
-46.320122
 30
0.0
 11
66.93985122
 21
-46.28402267
 31
0.0
  0
LINE
  5
11E
100
AcDbEntity
  8
レイヤー_1
  6
CONTINUOUS
 62
       3
100
AcDbLine
 10
66.93985122
 20
-46.28402267
 30
0.0
 11
66.93602251
 21
-46.24792334
 31
0.0
  0
LINE
  5
11F
100
AcDbEntity
  8
レイヤー_1
  6
CONTINUOUS
 62
       3
100
AcDbLine
 10
69.65331756
 20
-44.82692242
 30
0.0
 11
68.0895602
 21
-46.29824362
 31
0.0
  0
LINE
  5
120
100
AcDbEntity
  8
レイヤー_1
  6
CONTINUOUS
 62
       3
100
AcDbLine
 10
67.13730362
 20
-46.43826526
 30
0.0
 11
67.73348953
 21
-46.43826526
 31
0.0
  0
LINE
  5
121
100
AcDbEntity
  8
レイヤー_1
  6
CONTINUOUS
 62
       3
100
AcDbLine
 10
-32.04533311
 20
28.90654609
 30
0.0
 11
-32.04533311
 21
28.81246904
 31
0.0
  0
LINE
  5
122
100
AcDbEntity
  8
レイヤー_1
  6
CONTINUOUS
 62
       3
100
AcDbLine
 10
-31.48907525
 20
39.93571196
 30
0.0
 11
-31.43875497
 21
40.01939677
 31
0.0
  0
LINE
  5
123
100
AcDbEntity
  8
レイヤー_1
  6
CONTINUOUS
 62
       3
100
AcDbLine
 10
66.12925717
 20
-40.05438761
 30
0.0
 11
66.12925717
 21
-40.23324338
 31
0.0
  0
LINE
  5
124
100
AcDbEntity
  8
レイヤー_1
  6
CONTINUOUS
 62
       3
100
AcDbLine
 10
66.12925717
 20
-40.05438761
 30
0.0
 11
66.12050582
 21
-39.96413928
 31
0.0
  0
LINE
  5
125
100
AcDbEntity
  8
レイヤー_1
  6
CONTINUOUS
 62
       3
100
AcDbLine
 10
66.12050582
 20
-39.96413928
 30
0.0
 11
66.09315784
 21
-39.873344
 31
0.0
  0
LINE
  5
126
100
AcDbEntity
  8
レイヤー_1
  6
CONTINUOUS
 62
       3
100
AcDbLine
 10
66.09315784
 20
-39.873344
 30
0.0
 11
66.04666628
 21
-39.79184702
 31
0.0
  0
LINE
  5
127
100
AcDbEntity
  8
レイヤー_1
  6
CONTINUOUS
 62
       3
100
AcDbLine
 10
66.04666628
 20
-39.79184702
 30
0.0
 11
65.98321897
 21
-39.72074228
 31
0.0
  0
LINE
  5
128
100
AcDbEntity
  8
レイヤー_1
  6
CONTINUOUS
 62
       3
100
AcDbLine
 10
65.98321897
 20
-39.72074228
 30
0.0
 11
65.90609767
 21
-39.66221761
 31
0.0
  0
LINE
  5
129
100
AcDbEntity
  8
レイヤー_1
  6
CONTINUOUS
 62
       3
100
AcDbLine
 10
65.90609767
 20
-39.66221761
 30
0.0
 11
65.81858414
 21
-39.61900781
 31
0.0
  0
LINE
  5
12A
100
AcDbEntity
  8
レイヤー_1
  6
CONTINUOUS
 62
       3
100
AcDbLine
 10
65.81858414
 20
-39.61900781
 30
0.0
 11
65.72669494
 21
-39.59220679
 31
0.0
  0
LINE
  5
12B
100
AcDbEntity
  8
レイヤー_1
  6
CONTINUOUS
 62
       3
100
AcDbLine
 10
65.72669494
 20
-39.59220679
 30
0.0
 11
65.62660134
 21
-39.58290848
 31
0.0
  0
LINE
  5
12C
100
AcDbEntity
  8
レイヤー_1
  6
CONTINUOUS
 62
       3
100
AcDbLine
 10
65.46306044
 20
-41.12424049
 30
0.0
 11
61.60097905
 21
-42.42162855
 31
0.0
  0
LINE
  5
12D
100
AcDbEntity
  8
レイヤー_1
  6
CONTINUOUS
 62
       3
100
AcDbLine
 10
61.60097905
 20
-42.42162855
 30
0.0
 11
61.60097905
 21
-44.35489633
 31
0.0
  0
LINE
  5
12E
100
AcDbEntity
  8
レイヤー_1
  6
CONTINUOUS
 62
       3
100
AcDbLine
 10
61.60097905
 20
-44.35489633
 30
0.0
 11
66.05432371
 21
-44.35489633
 31
0.0
  0
LINE
  5
12F
100
AcDbEntity
  8
レイヤー_1
  6
CONTINUOUS
 62
       3
100
AcDbLine
 10
65.46306044
 20
-41.12424049
 30
0.0
 11
65.60362904
 21
-41.06516886
 31
0.0
  0
LINE
  5
130
100
AcDbEntity
  8
レイヤー_1
  6
CONTINUOUS
 62
       3
100
AcDbLine
 10
65.60362904
 20
-41.06516886
 30
0.0
 11
65.73325845
 21
-40.9875006
 31
0.0
  0
LINE
  5
131
100
AcDbEntity
  8
レイヤー_1
  6
CONTINUOUS
 62
       3
100
AcDbLine
 10
65.73325845
 20
-40.9875006
 30
0.0
 11
65.84811996
 21
-40.89123572
 31
0.0
  0
LINE
  5
132
100
AcDbEntity
  8
レイヤー_1
  6
CONTINUOUS
 62
       3
100
AcDbLine
 10
65.84811996
 20
-40.89123572
 30
0.0
 11
65.94711964
 21
-40.77801509
 31
0.0
  0
LINE
  5
133
100
AcDbEntity
  8
レイヤー_1
  6
CONTINUOUS
 62
       3
100
AcDbLine
 10
65.94711964
 20
-40.77801509
 30
0.0
 11
66.02588181
 21
-40.65330832
 31
0.0
  0
LINE
  5
134
100
AcDbEntity
  8
レイヤー_1
  6
CONTINUOUS
 62
       3
100
AcDbLine
 10
66.02588181
 20
-40.65330832
 30
0.0
 11
66.08221865
 21
-40.51930323
 31
0.0
  0
LINE
  5
135
100
AcDbEntity
  8
レイヤー_1
  6
CONTINUOUS
 62
       3
100
AcDbLine
 10
66.08221865
 20
-40.51930323
 30
0.0
 11
66.11777102
 21
-40.37818766
 31
0.0
  0
LINE
  5
136
100
AcDbEntity
  8
レイヤー_1
  6
CONTINUOUS
 62
       3
100
AcDbLine
 10
66.11777102
 20
-40.37818766
 30
0.0
 11
66.12925717
 21
-40.23324338
 31
0.0
  0
LINE
  5
137
100
AcDbEntity
  8
レイヤー_1
  6
CONTINUOUS
 62
       3
100
AcDbLine
 10
55.76327976
 20
-45.2619895
 30
0.0
 11
55.86501423
 21
-45.2619895
 31
0.0
  0
LINE
  5
138
100
AcDbEntity
  8
レイヤー_1
  6
CONTINUOUS
 62
       3
100
AcDbLine
 10
53.60443041
 20
45.53794516
 30
0.0
 11
53.55301621
 21
45.45617471
 31
0.0
  0
LINE
  5
139
100
AcDbEntity
  8
レイヤー_1
  6
CONTINUOUS
 62
       3
100
AcDbLine
 10
-31.04056842
 20
-25.85641158
 30
0.0
 11
-31.04056842
 21
-19.23054358
 31
0.0
  0
LINE
  5
13A
100
AcDbEntity
  8
レイヤー_1
  6
CONTINUOUS
 62
       3
100
AcDbLine
 10
-31.04056842
 20
-19.23054358
 30
0.0
 11
-29.52986614
 21
-18.41010425
 31
0.0
  0
LINE
  5
13B
100
AcDbEntity
  8
レイヤー_1
  6
CONTINUOUS
 62
       3
100
AcDbLine
 10
-29.52986614
 20
22.56427661
 30
0.0
 11
-30.16680053
 21
22.56427661
 31
0.0
  0
LINE
  5
13C
100
AcDbEntity
  8
レイヤー_1
  6
CONTINUOUS
 62
       3
100
AcDbLine
 10
-30.16680053
 20
22.56427661
 30
0.0
 11
-32.04533311
 21
21.54419705
 31
0.0
  0
LINE
  5
13D
100
AcDbEntity
  8
レイヤー_1
  6
CONTINUOUS
 62
       3
100
AcDbLine
 10
-31.04056842
 20
-25.85641158
 30
0.0
 11
-31.04056842
 21
-26.33035203
 31
0.0
  0
LINE
  5
13E
100
AcDbEntity
  8
レイヤー_1
  6
CONTINUOUS
 62
       3
100
AcDbLine
 10
-31.04056842
 20
-26.33035203
 30
0.0
 11
-32.04533311
 21
-26.33035203
 31
0.0
  0
LINE
  5
13F
100
AcDbEntity
  8
レイヤー_1
  6
CONTINUOUS
 62
       3
100
AcDbLine
 10
-32.04533311
 20
-26.33035203
 30
0.0
 11
-32.04533311
 21
21.54419705
 31
0.0
  0
LINE
  5
140
100
AcDbEntity
  8
レイヤー_1
  6
CONTINUOUS
 62
       3
100
AcDbLine
 10
-29.38328098
 20
24.17726033
 30
0.0
 11
-29.66769994
 21
24.00578851
 31
0.0
  0
LINE
  5
141
100
AcDbEntity
  8
レイヤー_1
  6
CONTINUOUS
 62
       3
100
AcDbLine
 10
-29.66769994
 20
24.00578851
 30
0.0
 11
-30.03361588
 21
23.938239
 31
0.0
  0
LINE
  5
142
100
AcDbEntity
  8
レイヤー_1
  6
CONTINUOUS
 62
       3
100
AcDbLine
 10
-30.03361588
 20
23.938239
 30
0.0
 11
-30.39925834
 21
24.00578851
 31
0.0
  0
LINE
  5
143
100
AcDbEntity
  8
レイヤー_1
  6
CONTINUOUS
 62
       3
100
AcDbLine
 10
-30.39925834
 20
24.00578851
 30
0.0
 11
-30.70883745
 21
24.20023263
 31
0.0
  0
LINE
  5
144
100
AcDbEntity
  8
レイヤー_1
  6
CONTINUOUS
 62
       3
100
AcDbLine
 10
-30.70883745
 20
24.20023263
 30
0.0
 11
-30.91613512
 21
24.49258251
 31
0.0
  0
LINE
  5
145
100
AcDbEntity
  8
レイヤー_1
  6
CONTINUOUS
 62
       3
100
AcDbLine
 10
-30.91613512
 20
24.49258251
 30
0.0
 11
-30.98997466
 21
24.83579963
 31
0.0
  0
LINE
  5
146
100
AcDbEntity
  8
レイヤー_1
  6
CONTINUOUS
 62
       3
100
AcDbLine
 10
-30.98997466
 20
24.83579963
 30
0.0
 11
-30.91613512
 21
25.18038414
 31
0.0
  0
LINE
  5
147
100
AcDbEntity
  8
レイヤー_1
  6
CONTINUOUS
 62
       3
100
AcDbLine
 10
-30.91613512
 20
25.18038414
 30
0.0
 11
-30.9150412
 21
25.18585374
 31
0.0
  0
LINE
  5
148
100
AcDbEntity
  8
レイヤー_1
  6
CONTINUOUS
 62
       3
100
AcDbLine
 10
-31.49208353
 20
21.84611872
 30
0.0
 11
-31.38433249
 21
21.91448866
 31
0.0
  0
LINE
  5
149
100
AcDbEntity
  8
レイヤー_1
  6
CONTINUOUS
 62
       3
100
AcDbLine
 10
-31.38433249
 20
21.91448866
 30
0.0
 11
-31.2842389
 21
21.9951652
 31
0.0
  0
LINE
  5
14A
100
AcDbEntity
  8
レイヤー_1
  6
CONTINUOUS
 62
       3
100
AcDbLine
 10
-31.2842389
 20
21.9951652
 30
0.0
 11
-31.19727233
 21
22.08924224
 31
0.0
  0
LINE
  5
14B
100
AcDbEntity
  8
レイヤー_1
  6
CONTINUOUS
 62
       3
100
AcDbLine
 10
-31.19727233
 20
22.08924224
 30
0.0
 11
-31.12343279
 21
22.19070324
 31
0.0
  0
LINE
  5
14C
100
AcDbEntity
  8
レイヤー_1
  6
CONTINUOUS
 62
       3
100
AcDbLine
 10
-31.12343279
 20
22.19070324
 30
0.0
 11
-31.06682248
 21
22.30365038
 31
0.0
  0
LINE
  5
14D
100
AcDbEntity
  8
レイヤー_1
  6
CONTINUOUS
 62
       3
100
AcDbLine
 10
-31.06682248
 20
22.30365038
 30
0.0
 11
-31.02251875
 21
22.42097321
 31
0.0
  0
LINE
  5
14E
100
AcDbEntity
  8
レイヤー_1
  6
CONTINUOUS
 62
       3
100
AcDbLine
 10
-31.02251875
 20
22.42097321
 30
0.0
 11
-30.99790557
 21
22.54185127
 31
0.0
  0
LINE
  5
14F
100
AcDbEntity
  8
レイヤー_1
  6
CONTINUOUS
 62
       3
100
AcDbLine
 10
-30.99790557
 20
22.54185127
 30
0.0
 11
-30.98997466
 21
22.66491717
 31
0.0
  0
LINE
  5
150
100
AcDbEntity
  8
レイヤー_1
  6
CONTINUOUS
 62
       3
100
AcDbLine
 10
-30.98997466
 20
24.54180887
 30
0.0
 11
-30.98997466
 21
22.66491717
 31
0.0
  0
LINE
  5
151
100
AcDbEntity
  8
レイヤー_1
  6
CONTINUOUS
 62
       3
100
AcDbLine
 10
-27.66500755
 20
44.27692991
 30
0.0
 11
-23.30519296
 21
41.91023593
 31
0.0
  0
LINE
  5
152
100
AcDbEntity
  8
レイヤー_1
  6
CONTINUOUS
 62
       3
100
AcDbLine
 10
-30.98997466
 20
24.54180887
 30
0.0
 11
-31.03646622
 21
24.91374136
 31
0.0
  0
LINE
  5
153
100
AcDbEntity
  8
レイヤー_1
  6
CONTINUOUS
 62
       3
100
AcDbLine
 10
-31.08705998
 20
24.79778594
 30
0.0
 11
-31.13300458
 21
24.71109285
 31
0.0
  0
LINE
  5
154
100
AcDbEntity
  8
レイヤー_1
  6
CONTINUOUS
 62
       3
100
AcDbLine
 10
-31.13300458
 20
24.71109285
 30
0.0
 11
-31.18660662
 21
24.62768152
 31
0.0
  0
LINE
  5
155
100
AcDbEntity
  8
レイヤー_1
  6
CONTINUOUS
 62
       3
100
AcDbLine
 10
-31.18660662
 20
24.62768152
 30
0.0
 11
-31.25005392
 21
24.54919282
 31
0.0
  0
LINE
  5
156
100
AcDbEntity
  8
レイヤー_1
  6
CONTINUOUS
 62
       3
100
AcDbLine
 10
-31.25005392
 20
24.54919282
 30
0.0
 11
-31.32170563
 21
24.479182
 31
0.0
  0
LINE
  5
157
100
AcDbEntity
  8
レイヤー_1
  6
CONTINUOUS
 62
       3
100
AcDbLine
 10
-31.32170563
 20
24.479182
 30
0.0
 11
-31.40019432
 21
24.41682861
 31
0.0
  0
LINE
  5
158
100
AcDbEntity
  8
レイヤー_1
  6
CONTINUOUS
 62
       3
100
AcDbLine
 10
-31.40019432
 20
24.41682861
 30
0.0
 11
-31.48469957
 21
24.36103874
 31
0.0
  0
LINE
  5
159
100
AcDbEntity
  8
レイヤー_1
  6
CONTINUOUS
 62
       3
100
AcDbLine
 10
-31.48469957
 20
24.36103874
 30
0.0
 11
-31.57658878
 21
24.31400021
 31
0.0
  0
LINE
  5
15A
100
AcDbEntity
  8
レイヤー_1
  6
CONTINUOUS
 62
       3
100
AcDbLine
 10
-31.57658878
 20
24.31400021
 30
0.0
 11
-31.67121278
 21
24.27571305
 31
0.0
  0
LINE
  5
15B
100
AcDbEntity
  8
レイヤー_1
  6
CONTINUOUS
 62
       3
100
AcDbLine
 10
43.92871595
 20
-42.70714143
 30
0.0
 11
53.27242596
 21
-42.70714143
 31
0.0
  0
LINE
  5
15C
100
AcDbEntity
  8
レイヤー_1
  6
CONTINUOUS
 62
       3
100
AcDbLine
 10
-17.9687821
 20
44.99836956
 30
0.0
 11
-22.68985171
 21
47.56173474
 31
0.0
  0
LINE
  5
15D
100
AcDbEntity
  8
レイヤー_1
  6
CONTINUOUS
 62
       3
100
AcDbLine
 10
-31.87604913
 20
25.59990212
 30
0.0
 11
-31.80740571
 21
25.77739049
 31
0.0
  0
LINE
  5
15E
100
AcDbEntity
  8
レイヤー_1
  6
CONTINUOUS
 62
       3
100
AcDbLine
 10
-31.80740571
 20
25.77739049
 30
0.0
 11
-31.76364894
 21
25.96007498
 31
0.0
  0
LINE
  5
15F
100
AcDbEntity
  8
レイヤー_1
  6
CONTINUOUS
 62
       3
100
AcDbLine
 10
-31.76364894
 20
25.96007498
 30
0.0
 11
-31.74724016
 21
26.14549427
 31
0.0
  0
LINE
  5
160
100
AcDbEntity
  8
レイヤー_1
  6
CONTINUOUS
 62
       3
100
AcDbLine
 10
-31.74724016
 20
26.14549427
 30
0.0
 11
-31.75517107
 21
26.33364836
 31
0.0
  0
LINE
  5
161
100
AcDbEntity
  8
レイヤー_1
  6
CONTINUOUS
 62
       3
100
AcDbLine
 10
-31.75517107
 20
26.33364836
 30
0.0
 11
-31.79099692
 21
26.51797373
 31
0.0
  0
LINE
  5
162
100
AcDbEntity
  8
レイヤー_1
  6
CONTINUOUS
 62
       3
100
AcDbLine
 10
-31.79099692
 20
26.51797373
 30
0.0
 11
-31.85143595
 21
26.6954621
 31
0.0
  0
LINE
  5
163
100
AcDbEntity
  8
レイヤー_1
  6
CONTINUOUS
 62
       3
100
AcDbLine
 10
-31.85143595
 20
26.6954621
 30
0.0
 11
-31.93785556
 21
26.86501956
 31
0.0
  0
LINE
  5
164
100
AcDbEntity
  8
レイヤー_1
  6
CONTINUOUS
 62
       3
100
AcDbLine
 10
-31.93785556
 20
26.86501956
 30
0.0
 11
-32.04533311
 21
27.02144999
 31
0.0
  0
LINE
  5
165
100
AcDbEntity
  8
レイヤー_1
  6
CONTINUOUS
 62
       3
100
AcDbLine
 10
-27.36527371
 20
46.65456308
 30
0.0
 11
-27.22689295
 21
46.85010112
 31
0.0
  0
LINE
  5
166
100
AcDbEntity
  8
レイヤー_1
  6
CONTINUOUS
 62
       3
100
AcDbLine
 10
-17.9687821
 20
44.99836956
 30
0.0
 11
-7.75321857
 21
44.99836956
 31
0.0
  0
LINE
  5
167
100
AcDbEntity
  8
レイヤー_1
  6
CONTINUOUS
 62
       3
100
AcDbLine
 10
-6.73560032
 20
46.65456308
 30
0.0
 11
-6.59667259
 21
46.85010112
 31
0.0
  0
LINE
  5
168
100
AcDbEntity
  8
レイヤー_1
  6
CONTINUOUS
 62
       3
100
AcDbLine
 10
2.66280565
 20
44.99836956
 30
0.0
 11
-2.05860629
 21
47.56173474
 31
0.0
  0
LINE
  5
169
100
AcDbEntity
  8
レイヤー_1
  6
CONTINUOUS
 62
       3
100
AcDbLine
 10
2.66280565
 20
44.99836956
 30
0.0
 11
12.88165094
 21
44.99836956
 31
0.0
  0
LINE
  5
16A
100
AcDbEntity
  8
レイヤー_1
  6
CONTINUOUS
 62
       3
100
AcDbLine
 10
23.29740168
 20
44.99836956
 30
0.0
 11
18.57462042
 21
47.56173474
 31
0.0
  0
LINE
  5
16B
100
AcDbEntity
  8
レイヤー_1
  6
CONTINUOUS
 62
       3
100
AcDbLine
 10
23.29740168
 20
44.99836956
 30
0.0
 11
33.51241825
 21
44.99836956
 31
0.0
  0
LINE
  5
16C
100
AcDbEntity
  8
レイヤー_1
  6
CONTINUOUS
 62
       3
100
AcDbLine
 10
35.08616194
 20
47.56173474
 30
0.0
 11
33.51241825
 21
44.99836956
 31
0.0
  0
LINE
  5
16D
100
AcDbEntity
  8
レイヤー_1
  6
CONTINUOUS
 62
       3
100
AcDbLine
 10
34.52921606
 20
46.65456308
 30
0.0
 11
34.66869074
 21
46.85010112
 31
0.0
  0
LINE
  5
16E
100
AcDbEntity
  8
レイヤー_1
  6
CONTINUOUS
 62
       3
100
AcDbLine
 10
43.92871595
 20
44.99836956
 30
0.0
 11
39.20525003
 21
47.56173474
 31
0.0
  0
LINE
  5
16F
100
AcDbEntity
  8
レイヤー_1
  6
CONTINUOUS
 62
       3
100
AcDbLine
 10
43.92871595
 20
44.99836956
 30
0.0
 11
53.27242596
 21
44.99836956
 31
0.0
  0
LINE
  5
170
100
AcDbEntity
  8
レイヤー_1
  6
CONTINUOUS
 62
       3
100
AcDbLine
 10
53.55301621
 20
45.45617471
 30
0.0
 11
53.27242596
 21
44.99836956
 31
0.0
  0
LINE
  5
171
100
AcDbEntity
  8
レイヤー_1
  6
CONTINUOUS
 62
       3
100
AcDbLine
 10
55.42361787
 20
-45.2619895
 30
0.0
 11
55.76327976
 21
-45.2619895
 31
0.0
  0
LINE
  5
172
100
AcDbEntity
  8
レイヤー_1
  6
CONTINUOUS
 62
       3
100
AcDbLine
 10
53.27242596
 20
-42.70714143
 30
0.0
 11
54.55231131
 21
-44.78832252
 31
0.0
  0
LINE
  5
173
100
AcDbEntity
  8
レイヤー_1
  6
CONTINUOUS
 62
       3
100
AcDbLine
 10
40.155242
 20
-44.75386407
 30
0.0
 11
43.92871595
 21
-42.70714143
 31
0.0
  0
LINE
  5
174
100
AcDbEntity
  8
レイヤー_1
  6
CONTINUOUS
 62
       3
100
AcDbLine
 10
36.18431566
 20
-45.2619895
 30
0.0
 11
38.14243085
 21
-45.2619895
 31
0.0
  0
LINE
  5
175
100
AcDbEntity
  8
レイヤー_1
  6
CONTINUOUS
 62
       3
100
AcDbLine
 10
36.18431566
 20
-45.2619895
 30
0.0
 11
35.93544907
 21
-45.24612767
 31
0.0
  0
LINE
  5
176
100
AcDbEntity
  8
レイヤー_1
  6
CONTINUOUS
 62
       3
100
AcDbLine
 10
35.93544907
 20
-45.24612767
 30
0.0
 11
35.69095815
 21
-45.19908915
 31
0.0
  0
LINE
  5
177
100
AcDbEntity
  8
レイヤー_1
  6
CONTINUOUS
 62
       3
100
AcDbLine
 10
35.69095815
 20
-45.19908915
 30
0.0
 11
35.45412466
 21
-45.12524961
 31
0.0
  0
LINE
  5
178
100
AcDbEntity
  8
レイヤー_1
  6
CONTINUOUS
 62
       3
100
AcDbLine
 10
35.45412466
 20
-45.12524961
 30
0.0
 11
35.22823037
 21
-45.01968641
 31
0.0
  0
LINE
  5
179
100
AcDbEntity
  8
レイヤー_1
  6
CONTINUOUS
 62
       3
100
AcDbLine
 10
35.22823037
 20
-45.01968641
 30
0.0
 11
35.0209327
 21
-44.89060396
 31
0.0
  0
LINE
  5
17A
100
AcDbEntity
  8
レイヤー_1
  6
CONTINUOUS
 62
       3
100
AcDbLine
 10
35.0209327
 20
-44.89060396
 30
0.0
 11
34.83277861
 21
-44.73526745
 31
0.0
  0
LINE
  5
17B
100
AcDbEntity
  8
レイヤー_1
  6
CONTINUOUS
 62
       3
100
AcDbLine
 10
34.83277861
 20
-44.73526745
 30
0.0
 11
34.66869074
 21
-44.55859951
 31
0.0
  0
LINE
  5
17C
100
AcDbEntity
  8
レイヤー_1
  6
CONTINUOUS
 62
       3
100
AcDbLine
 10
34.66869074
 20
-44.55859951
 30
0.0
 11
34.52921606
 21
-44.36224103
 31
0.0
  0
LINE
  5
17D
100
AcDbEntity
  8
レイヤー_1
  6
CONTINUOUS
 62
       3
100
AcDbLine
 10
19.52447469
 20
-44.75386407
 30
0.0
 11
23.29740168
 21
-42.70714143
 31
0.0
  0
LINE
  5
17E
100
AcDbEntity
  8
レイヤー_1
  6
CONTINUOUS
 62
       3
100
AcDbLine
 10
23.29740168
 20
-42.70714143
 30
0.0
 11
33.51241825
 21
-42.70714143
 31
0.0
  0
LINE
  5
17F
100
AcDbEntity
  8
レイヤー_1
  6
CONTINUOUS
 62
       3
100
AcDbLine
 10
33.51241825
 20
-42.70714143
 30
0.0
 11
34.52921606
 21
-44.36224103
 31
0.0
  0
LINE
  5
180
100
AcDbEntity
  8
レイヤー_1
  6
CONTINUOUS
 62
       3
100
AcDbLine
 10
19.52447469
 20
-44.75386407
 30
0.0
 11
19.290376
 21
-44.87200734
 31
0.0
  0
LINE
  5
181
100
AcDbEntity
  8
レイヤー_1
  6
CONTINUOUS
 62
       3
100
AcDbLine
 10
19.290376
 20
-44.87200734
 30
0.0
 11
19.05135468
 21
-44.97374181
 31
0.0
  0
LINE
  5
182
100
AcDbEntity
  8
レイヤー_1
  6
CONTINUOUS
 62
       3
100
AcDbLine
 10
19.05135468
 20
-44.97374181
 30
0.0
 11
18.8063168
 21
-45.06125534
 31
0.0
  0
LINE
  5
183
100
AcDbEntity
  8
レイヤー_1
  6
CONTINUOUS
 62
       3
100
AcDbLine
 10
18.8063168
 20
-45.06125534
 30
0.0
 11
18.55416845
 21
-45.13290704
 31
0.0
  0
LINE
  5
184
100
AcDbEntity
  8
レイヤー_1
  6
CONTINUOUS
 62
       3
100
AcDbLine
 10
18.55416845
 20
-45.13290704
 30
0.0
 11
18.2965505
 21
-45.18705604
 31
0.0
  0
LINE
  5
185
100
AcDbEntity
  8
レイヤー_1
  6
CONTINUOUS
 62
       3
100
AcDbLine
 10
18.2965505
 20
-45.18705604
 30
0.0
 11
18.03729167
 21
-45.228078
 31
0.0
  0
LINE
  5
186
100
AcDbEntity
  8
レイヤー_1
  6
CONTINUOUS
 62
       3
100
AcDbLine
 10
18.03729167
 20
-45.228078
 30
0.0
 11
17.77420413
 21
-45.25269118
 31
0.0
  0
LINE
  5
187
100
AcDbEntity
  8
レイヤー_1
  6
CONTINUOUS
 62
       3
100
AcDbLine
 10
17.77420413
 20
-45.25269118
 30
0.0
 11
17.51056962
 21
-45.2619895
 31
0.0
  0
LINE
  5
188
100
AcDbEntity
  8
レイヤー_1
  6
CONTINUOUS
 62
       3
100
AcDbLine
 10
15.55245443
 20
-45.2619895
 30
0.0
 11
17.51056962
 21
-45.2619895
 31
0.0
  0
LINE
  5
189
100
AcDbEntity
  8
レイヤー_1
  6
CONTINUOUS
 62
       3
100
AcDbLine
 10
-1.10902742
 20
-44.75386407
 30
0.0
 11
2.66280565
 21
-42.70714143
 31
0.0
  0
LINE
  5
18A
100
AcDbEntity
  8
レイヤー_1
  6
CONTINUOUS
 62
       3
100
AcDbLine
 10
2.66280565
 20
-42.70714143
 30
0.0
 11
12.88165094
 21
-42.70714143
 31
0.0
  0
LINE
  5
18B
100
AcDbEntity
  8
レイヤー_1
  6
CONTINUOUS
 62
       3
100
AcDbLine
 10
12.88165094
 20
-42.70714143
 30
0.0
 11
13.89571395
 21
-44.36224103
 31
0.0
  0
LINE
  5
18C
100
AcDbEntity
  8
レイヤー_1
  6
CONTINUOUS
 62
       3
100
AcDbLine
 10
-21.74034169
 20
-44.75386407
 30
0.0
 11
-17.9687821
 21
-42.70714143
 31
0.0
  0
LINE
  5
18D
100
AcDbEntity
  8
レイヤー_1
  6
CONTINUOUS
 62
       3
100
AcDbLine
 10
-17.9687821
 20
-42.70714143
 30
0.0
 11
-7.75321857
 21
-42.70714143
 31
0.0
  0
LINE
  5
18E
100
AcDbEntity
  8
レイヤー_1
  6
CONTINUOUS
 62
       3
100
AcDbLine
 10
-7.75321857
 20
-42.70714143
 30
0.0
 11
-6.73560032
 21
-44.36224103
 31
0.0
  0
LINE
  5
18F
100
AcDbEntity
  8
レイヤー_1
  6
CONTINUOUS
 62
       3
100
AcDbLine
 10
-21.74034169
 20
-44.75386407
 30
0.0
 11
-21.97334646
 21
-44.87200734
 31
0.0
  0
LINE
  5
190
100
AcDbEntity
  8
レイヤー_1
  6
CONTINUOUS
 62
       3
100
AcDbLine
 10
-21.97334646
 20
-44.87200734
 30
0.0
 11
-22.21017994
 21
-44.97374181
 31
0.0
  0
LINE
  5
191
100
AcDbEntity
  8
レイヤー_1
  6
CONTINUOUS
 62
       3
100
AcDbLine
 10
-22.21017994
 20
-44.97374181
 30
0.0
 11
-22.45932002
 21
-45.06125534
 31
0.0
  0
LINE
  5
192
100
AcDbEntity
  8
レイヤー_1
  6
CONTINUOUS
 62
       3
100
AcDbLine
 10
-22.45932002
 20
-45.06125534
 30
0.0
 11
-22.70982749
 21
-45.13290704
 31
0.0
  0
LINE
  5
193
100
AcDbEntity
  8
レイヤー_1
  6
CONTINUOUS
 62
       3
100
AcDbLine
 10
-22.70982749
 20
-45.13290704
 30
0.0
 11
-22.96635152
 21
-45.18705604
 31
0.0
  0
LINE
  5
194
100
AcDbEntity
  8
レイヤー_1
  6
CONTINUOUS
 62
       3
100
AcDbLine
 10
-22.96635152
 20
-45.18705604
 30
0.0
 11
-23.22725123
 21
-45.228078
 31
0.0
  0
LINE
  5
195
100
AcDbEntity
  8
レイヤー_1
  6
CONTINUOUS
 62
       3
100
AcDbLine
 10
-23.22725123
 20
-45.228078
 30
0.0
 11
-23.49006529
 21
-45.25269118
 31
0.0
  0
LINE
  5
196
100
AcDbEntity
  8
レイヤー_1
  6
CONTINUOUS
 62
       3
100
AcDbLine
 10
-23.49006529
 20
-45.25269118
 30
0.0
 11
-23.7536998
 21
-45.2619895
 31
0.0
  0
LINE
  5
197
100
AcDbEntity
  8
レイヤー_1
  6
CONTINUOUS
 62
       3
100
AcDbLine
 10
-25.71017411
 20
-45.2619895
 30
0.0
 11
-25.95931419
 21
-45.24612767
 31
0.0
  0
LINE
  5
198
100
AcDbEntity
  8
レイヤー_1
  6
CONTINUOUS
 62
       3
100
AcDbLine
 10
-25.95931419
 20
-45.24612767
 30
0.0
 11
-26.20407859
 21
-45.19908915
 31
0.0
  0
LINE
  5
199
100
AcDbEntity
  8
レイヤー_1
  6
CONTINUOUS
 62
       3
100
AcDbLine
 10
-26.20407859
 20
-45.19908915
 30
0.0
 11
-26.44282643
 21
-45.12524961
 31
0.0
  0
LINE
  5
19A
100
AcDbEntity
  8
レイヤー_1
  6
CONTINUOUS
 62
       3
100
AcDbLine
 10
-26.44282643
 20
-45.12524961
 30
0.0
 11
-26.66680637
 21
-45.01968641
 31
0.0
  0
LINE
  5
19B
100
AcDbEntity
  8
レイヤー_1
  6
CONTINUOUS
 62
       3
100
AcDbLine
 10
-26.66680637
 20
-45.01968641
 30
0.0
 11
-26.87410404
 21
-44.89060396
 31
0.0
  0
LINE
  5
19C
100
AcDbEntity
  8
レイヤー_1
  6
CONTINUOUS
 62
       3
100
AcDbLine
 10
-26.87410404
 20
-44.89060396
 30
0.0
 11
-27.06171116
 21
-44.73526745
 31
0.0
  0
LINE
  5
19D
100
AcDbEntity
  8
レイヤー_1
  6
CONTINUOUS
 62
       3
100
AcDbLine
 10
-27.06171116
 20
-44.73526745
 30
0.0
 11
-27.22689295
 21
-44.55859951
 31
0.0
  0
LINE
  5
19E
100
AcDbEntity
  8
レイヤー_1
  6
CONTINUOUS
 62
       3
100
AcDbLine
 10
-27.22689295
 20
-44.55859951
 30
0.0
 11
-27.36527371
 21
-44.36224103
 31
0.0
  0
LINE
  5
19F
100
AcDbEntity
  8
レイヤー_1
  6
CONTINUOUS
 62
       3
100
AcDbLine
 10
-29.71145671
 20
23.89120048
 30
0.0
 11
-29.38328098
 21
24.17726033
 31
0.0
  0
LINE
  5
1A0
100
AcDbEntity
  8
レイヤー_1
  6
CONTINUOUS
 62
       3
100
AcDbLine
 10
-29.38328098
 20
24.17726033
 30
0.0
 11
-29.1625828
 21
24.46386713
 31
0.0
  0
LINE
  5
1A1
100
AcDbEntity
  8
レイヤー_1
  6
CONTINUOUS
 62
       3
100
AcDbLine
 10
-29.1625828
 20
24.46386713
 30
0.0
 11
-29.07753059
 21
24.80954557
 31
0.0
  0
LINE
  5
1A2
100
AcDbEntity
  8
レイヤー_1
  6
CONTINUOUS
 62
       3
100
AcDbLine
 10
-29.07753059
 20
24.80954557
 30
0.0
 11
-29.14015746
 21
25.15741184
 31
0.0
  0
LINE
  5
1A3
100
AcDbEntity
  8
レイヤー_1
  6
CONTINUOUS
 62
       3
100
AcDbLine
 10
-29.14015746
 20
25.15741184
 30
0.0
 11
-29.34225901
 21
25.45714568
 31
0.0
  0
LINE
  5
1A4
100
AcDbEntity
  8
レイヤー_1
  6
CONTINUOUS
 62
       3
100
AcDbLine
 10
-29.34225901
 20
25.45714568
 30
0.0
 11
-29.6493768
 21
25.65979419
 31
0.0
  0
LINE
  5
1A5
100
AcDbEntity
  8
レイヤー_1
  6
CONTINUOUS
 62
       3
100
AcDbLine
 10
-29.6493768
 20
25.65979419
 30
0.0
 11
-30.01666014
 21
25.73554809
 31
0.0
  0
LINE
  5
1A6
100
AcDbEntity
  8
レイヤー_1
  6
CONTINUOUS
 62
       3
100
AcDbLine
 10
-30.01666014
 20
25.73554809
 30
0.0
 11
-30.38804567
 21
25.67155382
 31
0.0
  0
LINE
  5
1A7
100
AcDbEntity
  8
レイヤー_1
  6
CONTINUOUS
 62
       3
100
AcDbLine
 10
-30.38804567
 20
25.67155382
 30
0.0
 11
-30.70282089
 21
25.47793014
 31
0.0
  0
LINE
  5
1A8
100
AcDbEntity
  8
レイヤー_1
  6
CONTINUOUS
 62
       3
100
AcDbLine
 10
-30.70282089
 20
25.47793014
 30
0.0
 11
-30.9150412
 21
25.18585374
 31
0.0
  0
LINE
  5
1A9
100
AcDbEntity
  8
レイヤー_1
  6
CONTINUOUS
 62
       3
100
AcDbLine
 10
-30.9150412
 20
25.18585374
 30
0.0
 11
-31.08705998
 21
24.79778594
 31
0.0
  0
LINE
  5
1AA
100
AcDbEntity
  8
レイヤー_1
  6
CONTINUOUS
 62
       3
100
AcDbLine
 10
-25.71017411
 20
-45.2619895
 30
0.0
 11
-23.7536998
 21
-45.2619895
 31
0.0
  0
LINE
  5
1AB
100
AcDbEntity
  8
レイヤー_1
  6
CONTINUOUS
 62
       3
100
AcDbLine
 10
-5.07885984
 20
-45.2619895
 30
0.0
 11
-3.12183857
 21
-45.2619895
 31
0.0
  0
LINE
  5
1AC
100
AcDbEntity
  8
レイヤー_1
  6
CONTINUOUS
 62
       3
100
AcDbLine
 10
-32.04533311
 20
28.81246904
 30
0.0
 11
-32.04533311
 21
27.02144999
 31
0.0
  0
LINE
  5
1AD
100
AcDbEntity
  8
レイヤー_1
  6
CONTINUOUS
 62
       3
100
AcDbLine
 10
-26.80834015
 20
47.56173474
 30
0.0
 11
-31.43875497
 21
40.01939677
 31
0.0
  0
LINE
  5
1AE
100
AcDbEntity
  8
レイヤー_1
  6
CONTINUOUS
 62
       3
100
AcDbLine
 10
14.45116186
 20
47.56173474
 30
0.0
 11
12.88165094
 21
44.99836956
 31
0.0
  0
LINE
  5
1AF
100
AcDbEntity
  8
レイヤー_1
  6
CONTINUOUS
 62
       3
100
AcDbLine
 10
13.89571395
 20
46.65456308
 30
0.0
 11
14.03518864
 21
46.85010112
 31
0.0
  0
LINE
  5
1B0
100
AcDbEntity
  8
レイヤー_1
  6
CONTINUOUS
 62
       3
100
AcDbLine
 10
-5.07885984
 20
-45.2619895
 30
0.0
 11
-5.32799992
 21
-45.24612767
 31
0.0
  0
LINE
  5
1B1
100
AcDbEntity
  8
レイヤー_1
  6
CONTINUOUS
 62
       3
100
AcDbLine
 10
-5.32799992
 20
-45.24612767
 30
0.0
 11
-5.57440519
 21
-45.19908915
 31
0.0
  0
LINE
  5
1B2
100
AcDbEntity
  8
レイヤー_1
  6
CONTINUOUS
 62
       3
100
AcDbLine
 10
-5.57440519
 20
-45.19908915
 30
0.0
 11
-5.81151216
 21
-45.12524961
 31
0.0
  0
LINE
  5
1B3
100
AcDbEntity
  8
レイヤー_1
  6
CONTINUOUS
 62
       3
100
AcDbLine
 10
-5.81151216
 20
-45.12524961
 30
0.0
 11
-6.03549209
 21
-45.01968641
 31
0.0
  0
LINE
  5
1B4
100
AcDbEntity
  8
レイヤー_1
  6
CONTINUOUS
 62
       3
100
AcDbLine
 10
-6.03549209
 20
-45.01968641
 30
0.0
 11
-6.24443064
 21
-44.89060396
 31
0.0
  0
LINE
  5
1B5
100
AcDbEntity
  8
レイヤー_1
  6
CONTINUOUS
 62
       3
100
AcDbLine
 10
-6.24443064
 20
-44.89060396
 30
0.0
 11
-6.43149081
 21
-44.73526745
 31
0.0
  0
LINE
  5
1B6
100
AcDbEntity
  8
レイヤー_1
  6
CONTINUOUS
 62
       3
100
AcDbLine
 10
-6.43149081
 20
-44.73526745
 30
0.0
 11
-6.59667259
 21
-44.55859951
 31
0.0
  0
LINE
  5
1B7
100
AcDbEntity
  8
レイヤー_1
  6
CONTINUOUS
 62
       3
100
AcDbLine
 10
-6.59667259
 20
-44.55859951
 30
0.0
 11
-6.73560032
 21
-44.36224103
 31
0.0
  0
LINE
  5
1B8
100
AcDbEntity
  8
レイヤー_1
  6
CONTINUOUS
 62
       3
100
AcDbLine
 10
40.155242
 20
-44.75386407
 30
0.0
 11
39.92442507
 21
-44.87200734
 31
0.0
  0
LINE
  5
1B9
100
AcDbEntity
  8
レイヤー_1
  6
CONTINUOUS
 62
       3
100
AcDbLine
 10
39.92442507
 20
-44.87200734
 30
0.0
 11
39.68430983
 21
-44.97374181
 31
0.0
  0
LINE
  5
1BA
100
AcDbEntity
  8
レイヤー_1
  6
CONTINUOUS
 62
       3
100
AcDbLine
 10
39.68430983
 20
-44.97374181
 30
0.0
 11
39.43708411
 21
-45.06125534
 31
0.0
  0
LINE
  5
1BB
100
AcDbEntity
  8
レイヤー_1
  6
CONTINUOUS
 62
       3
100
AcDbLine
 10
39.43708411
 20
-45.06125534
 30
0.0
 11
39.18602968
 21
-45.13290704
 31
0.0
  0
LINE
  5
1BC
100
AcDbEntity
  8
レイヤー_1
  6
CONTINUOUS
 62
       3
100
AcDbLine
 10
39.18602968
 20
-45.13290704
 30
0.0
 11
38.92950565
 21
-45.18705604
 31
0.0
  0
LINE
  5
1BD
100
AcDbEntity
  8
レイヤー_1
  6
CONTINUOUS
 62
       3
100
AcDbLine
 10
38.92950565
 20
-45.18705604
 30
0.0
 11
38.66751202
 21
-45.228078
 31
0.0
  0
LINE
  5
1BE
100
AcDbEntity
  8
レイヤー_1
  6
CONTINUOUS
 62
       3
100
AcDbLine
 10
38.66751202
 20
-45.228078
 30
0.0
 11
38.40606536
 21
-45.25269118
 31
0.0
  0
LINE
  5
1BF
100
AcDbEntity
  8
レイヤー_1
  6
CONTINUOUS
 62
       3
100
AcDbLine
 10
38.40606536
 20
-45.25269118
 30
0.0
 11
38.14243085
 21
-45.2619895
 31
0.0
  0
LINE
  5
1C0
100
AcDbEntity
  8
レイヤー_1
  6
CONTINUOUS
 62
       3
100
AcDbLine
 10
-1.10902742
 20
-44.75386407
 30
0.0
 11
-1.34093827
 21
-44.87200734
 31
0.0
  0
LINE
  5
1C1
100
AcDbEntity
  8
レイヤー_1
  6
CONTINUOUS
 62
       3
100
AcDbLine
 10
-1.34093827
 20
-44.87200734
 30
0.0
 11
-1.58050655
 21
-44.97374181
 31
0.0
  0
LINE
  5
1C2
100
AcDbEntity
  8
レイヤー_1
  6
CONTINUOUS
 62
       3
100
AcDbLine
 10
-1.58050655
 20
-44.97374181
 30
0.0
 11
-1.82855271
 21
-45.06125534
 31
0.0
  0
LINE
  5
1C3
100
AcDbEntity
  8
レイヤー_1
  6
CONTINUOUS
 62
       3
100
AcDbLine
 10
-1.82855271
 20
-45.06125534
 30
0.0
 11
-2.08070106
 21
-45.13290704
 31
0.0
  0
LINE
  5
1C4
100
AcDbEntity
  8
レイヤー_1
  6
CONTINUOUS
 62
       3
100
AcDbLine
 10
-2.08070106
 20
-45.13290704
 30
0.0
 11
-2.33613117
 21
-45.18705604
 31
0.0
  0
LINE
  5
1C5
100
AcDbEntity
  8
レイヤー_1
  6
CONTINUOUS
 62
       3
100
AcDbLine
 10
-2.33613117
 20
-45.18705604
 30
0.0
 11
-2.59648392
 21
-45.228078
 31
0.0
  0
LINE
  5
1C6
100
AcDbEntity
  8
レイヤー_1
  6
CONTINUOUS
 62
       3
100
AcDbLine
 10
-2.59648392
 20
-45.228078
 30
0.0
 11
-2.85820406
 21
-45.25269118
 31
0.0
  0
LINE
  5
1C7
100
AcDbEntity
  8
レイヤー_1
  6
CONTINUOUS
 62
       3
100
AcDbLine
 10
-2.85820406
 20
-45.25269118
 30
0.0
 11
-3.12183857
 21
-45.2619895
 31
0.0
  0
LINE
  5
1C8
100
AcDbEntity
  8
レイヤー_1
  6
CONTINUOUS
 62
       3
100
AcDbLine
 10
-1.95407992
 20
34.61324856
 30
0.0
 11
-0.2317043
 21
33.67575989
 31
0.0
  0
LINE
  5
1C9
100
AcDbEntity
  8
レイヤー_1
  6
CONTINUOUS
 62
       3
100
AcDbLine
 10
-0.2317043
 20
33.67575989
 30
0.0
 11
-1.23893031
 21
32.03515472
 31
0.0
  0
LINE
  5
1CA
100
AcDbEntity
  8
レイヤー_1
  6
CONTINUOUS
 62
       3
100
AcDbLine
 10
-1.23893031
 20
32.03515472
 30
0.0
 11
-2.96103246
 21
32.97346383
 31
0.0
  0
LINE
  5
1CB
100
AcDbEntity
  8
レイヤー_1
  6
CONTINUOUS
 62
       3
100
AcDbLine
 10
-2.96103246
 20
32.97346383
 30
0.0
 11
-1.95407992
 21
34.61324856
 31
0.0
  0
LINE
  5
1CC
100
AcDbEntity
  8
レイヤー_1
  6
CONTINUOUS
 62
       3
100
AcDbLine
 10
-4.09652049
 20
35.74764267
 30
0.0
 11
-2.37414486
 21
34.85199641
 31
0.0
  0
LINE
  5
1CD
100
AcDbEntity
  8
レイヤー_1
  6
CONTINUOUS
 62
       3
100
AcDbLine
 10
-2.37414486
 20
34.85199641
 30
0.0
 11
-3.38109739
 21
33.21139123
 31
0.0
  0
LINE
  5
1CE
100
AcDbEntity
  8
レイヤー_1
  6
CONTINUOUS
 62
       3
100
AcDbLine
 10
-3.38109739
 20
33.21139123
 30
0.0
 11
-5.10347302
 21
34.10758446
 31
0.0
  0
LINE
  5
1CF
100
AcDbEntity
  8
レイヤー_1
  6
CONTINUOUS
 62
       3
100
AcDbLine
 10
-5.10347302
 20
34.10758446
 30
0.0
 11
-4.09652049
 21
35.74764267
 31
0.0
  0
LINE
  5
1D0
100
AcDbEntity
  8
レイヤー_1
  6
CONTINUOUS
 62
       3
100
AcDbLine
 10
-8.71039778
 20
38.57925227
 30
0.0
 11
-6.98829563
 21
37.6417636
 31
0.0
  0
LINE
  5
1D1
100
AcDbEntity
  8
レイヤー_1
  6
CONTINUOUS
 62
       3
100
AcDbLine
 10
-6.98829563
 20
37.6417636
 30
0.0
 11
-7.99470121
 21
36.00115842
 31
0.0
  0
LINE
  5
1D2
100
AcDbEntity
  8
レイヤー_1
  6
CONTINUOUS
 62
       3
100
AcDbLine
 10
-7.99470121
 20
36.00115842
 30
0.0
 11
-9.71735031
 21
36.93946753
 31
0.0
  0
LINE
  5
1D3
100
AcDbEntity
  8
レイヤー_1
  6
CONTINUOUS
 62
       3
100
AcDbLine
 10
-9.71735031
 20
36.93946753
 30
0.0
 11
-8.71039778
 21
38.57925227
 31
0.0
  0
LINE
  5
1D4
100
AcDbEntity
  8
レイヤー_1
  6
CONTINUOUS
 62
       3
100
AcDbLine
 10
-10.85283834
 20
39.71364638
 30
0.0
 11
-9.13046272
 21
38.81800011
 31
0.0
  0
LINE
  5
1D5
100
AcDbEntity
  8
レイヤー_1
  6
CONTINUOUS
 62
       3
100
AcDbLine
 10
-9.13046272
 20
38.81800011
 30
0.0
 11
-10.13741525
 21
37.17739494
 31
0.0
  0
LINE
  5
1D6
100
AcDbEntity
  8
レイヤー_1
  6
CONTINUOUS
 62
       3
100
AcDbLine
 10
-10.13741525
 20
37.17739494
 30
0.0
 11
-11.85924392
 21
38.07358816
 31
0.0
  0
LINE
  5
1D7
100
AcDbEntity
  8
レイヤー_1
  6
CONTINUOUS
 62
       3
100
AcDbLine
 10
-11.85924392
 20
38.07358816
 30
0.0
 11
-10.85283834
 21
39.71364638
 31
0.0
  0
LINE
  5
1D8
100
AcDbEntity
  8
レイヤー_1
  6
CONTINUOUS
 62
       3
100
AcDbLine
 10
-22.58648811
 20
34.61324856
 30
0.0
 11
-20.86438597
 21
33.67575989
 31
0.0
  0
LINE
  5
1D9
100
AcDbEntity
  8
レイヤー_1
  6
CONTINUOUS
 62
       3
100
AcDbLine
 10
-20.86438597
 20
33.67575989
 30
0.0
 11
-21.8713385
 21
32.03515472
 31
0.0
  0
LINE
  5
1DA
100
AcDbEntity
  8
レイヤー_1
  6
CONTINUOUS
 62
       3
100
AcDbLine
 10
-21.8713385
 20
32.03515472
 30
0.0
 11
-23.59371413
 21
32.97346383
 31
0.0
  0
LINE
  5
1DB
100
AcDbEntity
  8
レイヤー_1
  6
CONTINUOUS
 62
       3
100
AcDbLine
 10
-23.59371413
 20
32.97346383
 30
0.0
 11
-22.58648811
 21
34.61324856
 31
0.0
  0
LINE
  5
1DC
100
AcDbEntity
  8
レイヤー_1
  6
CONTINUOUS
 62
       3
100
AcDbLine
 10
-24.72892868
 20
35.74764267
 30
0.0
 11
-23.00655305
 21
34.85199641
 31
0.0
  0
LINE
  5
1DD
100
AcDbEntity
  8
レイヤー_1
  6
CONTINUOUS
 62
       3
100
AcDbLine
 10
-23.00655305
 20
34.85199641
 30
0.0
 11
-24.01377906
 21
33.21139123
 31
0.0
  0
LINE
  5
1DE
100
AcDbEntity
  8
レイヤー_1
  6
CONTINUOUS
 62
       3
100
AcDbLine
 10
-24.01377906
 20
33.21139123
 30
0.0
 11
-25.73588121
 21
34.10758446
 31
0.0
  0
LINE
  5
1DF
100
AcDbEntity
  8
レイヤー_1
  6
CONTINUOUS
 62
       3
100
AcDbLine
 10
-25.73588121
 20
34.10758446
 30
0.0
 11
-24.72892868
 21
35.74764267
 31
0.0
  0
LINE
  5
1E0
100
AcDbEntity
  8
レイヤー_1
  6
CONTINUOUS
 62
       3
100
AcDbLine
 10
-22.80007582
 20
43.81611649
 30
0.0
 11
-21.79284981
 21
45.45617471
 31
0.0
  0
LINE
  5
1E1
100
AcDbEntity
  8
レイヤー_1
  6
CONTINUOUS
 62
       3
100
AcDbLine
 10
-24.3121455
 20
44.60018301
 30
0.0
 11
-23.30519296
 21
46.24024122
 31
0.0
  0
LINE
  5
1E2
100
AcDbEntity
  8
レイヤー_1
  6
CONTINUOUS
 62
       3
100
AcDbLine
 10
-24.42536612
 20
46.85639116
 30
0.0
 11
-20.56137038
 21
44.78450838
 31
0.0
  0
LINE
  5
1E3
100
AcDbEntity
  8
レイヤー_1
  6
CONTINUOUS
 62
       3
100
AcDbLine
 10
-20.56137038
 20
44.78450838
 30
0.0
 11
-21.56777595
 21
43.14472364
 31
0.0
  0
LINE
  5
1E4
100
AcDbEntity
  8
レイヤー_1
  6
CONTINUOUS
 62
       3
100
AcDbLine
 10
-21.56777595
 20
43.14472364
 30
0.0
 11
-25.43231866
 21
45.21633294
 31
0.0
  0
LINE
  5
1E5
100
AcDbEntity
  8
レイヤー_1
  6
CONTINUOUS
 62
       3
100
AcDbLine
 10
-25.43231866
 20
45.21633294
 30
0.0
 11
-24.42536612
 21
46.85639116
 31
0.0
  0
LINE
  5
1E6
100
AcDbEntity
  8
レイヤー_1
  6
CONTINUOUS
 62
       3
100
AcDbLine
 10
-30.53709215
 20
-27.74943859
 30
0.0
 11
-32.04533311
 21
-27.74943859
 31
0.0
  0
LINE
  5
1E7
100
AcDbEntity
  8
レイヤー_1
  6
CONTINUOUS
 62
       3
100
AcDbLine
 10
-32.04533311
 20
-27.74943859
 30
0.0
 11
-32.04533311
 21
-36.73653097
 31
0.0
  0
LINE
  5
1E8
100
AcDbEntity
  8
レイヤー_1
  6
CONTINUOUS
 62
       3
100
AcDbLine
 10
-32.04533311
 20
-36.73653097
 30
0.0
 11
-27.36527371
 21
-44.36224103
 31
0.0
  0
LINE
  5
1E9
100
AcDbEntity
  8
レイヤー_1
  6
CONTINUOUS
 62
       3
100
AcDbLine
 10
-30.53709215
 20
-27.74943859
 30
0.0
 11
-30.33991323
 21
-27.7316624
 31
0.0
  0
LINE
  5
1EA
100
AcDbEntity
  8
レイヤー_1
  6
CONTINUOUS
 62
       3
100
AcDbLine
 10
-30.33991323
 20
-27.7316624
 30
0.0
 11
-30.15121219
 21
-27.67723992
 31
0.0
  0
LINE
  5
1EB
100
AcDbEntity
  8
レイヤー_1
  6
CONTINUOUS
 62
       3
100
AcDbLine
 10
-30.15121219
 20
-27.67723992
 30
0.0
 11
-29.97591165
 21
-27.59054684
 31
0.0
  0
LINE
  5
1EC
100
AcDbEntity
  8
レイヤー_1
  6
CONTINUOUS
 62
       3
100
AcDbLine
 10
-29.97591165
 20
-27.59054684
 30
0.0
 11
-29.82577125
 21
-27.47322401
 31
0.0
  0
LINE
  5
1ED
100
AcDbEntity
  8
レイヤー_1
  6
CONTINUOUS
 62
       3
100
AcDbLine
 10
-29.82577125
 20
-27.47322401
 30
0.0
 11
-29.70024404
 21
-27.32882669
 31
0.0
  0
LINE
  5
1EE
100
AcDbEntity
  8
レイヤー_1
  6
CONTINUOUS
 62
       3
100
AcDbLine
 10
-29.70024404
 20
-27.32882669
 30
0.0
 11
-29.60616699
 21
-27.16692666
 31
0.0
  0
LINE
  5
1EF
100
AcDbEntity
  8
レイヤー_1
  6
CONTINUOUS
 62
       3
100
AcDbLine
 10
-29.60616699
 20
-27.16692666
 30
0.0
 11
-29.5506506
 21
-26.98889133
 31
0.0
  0
LINE
  5
1F0
100
AcDbEntity
  8
レイヤー_1
  6
CONTINUOUS
 62
       3
100
AcDbLine
 10
-29.5506506
 20
-26.98889133
 30
0.0
 11
-29.52986614
 21
-26.804019
 31
0.0
  0
LINE
  5
1F1
100
AcDbEntity
  8
レイヤー_1
  6
CONTINUOUS
 62
       3
100
AcDbLine
 10
-29.52986614
 20
-26.804019
 30
0.0
 11
-29.5506506
 21
-26.61805275
 31
0.0
  0
LINE
  5
1F2
100
AcDbEntity
  8
レイヤー_1
  6
CONTINUOUS
 62
       3
100
AcDbLine
 10
-29.5506506
 20
-26.61805275
 30
0.0
 11
-29.60616699
 21
-26.4416583
 31
0.0
  0
LINE
  5
1F3
100
AcDbEntity
  8
レイヤー_1
  6
CONTINUOUS
 62
       3
100
AcDbLine
 10
-29.60616699
 20
-26.4416583
 30
0.0
 11
-29.70024404
 21
-26.27757043
 31
0.0
  0
LINE
  5
1F4
100
AcDbEntity
  8
レイヤー_1
  6
CONTINUOUS
 62
       3
100
AcDbLine
 10
-29.70024404
 20
-26.27757043
 30
0.0
 11
-29.82577125
 21
-26.13426703
 31
0.0
  0
LINE
  5
1F5
100
AcDbEntity
  8
レイヤー_1
  6
CONTINUOUS
 62
       3
100
AcDbLine
 10
-29.82577125
 20
-26.13426703
 30
0.0
 11
-29.97591165
 21
-26.01502985
 31
0.0
  0
LINE
  5
1F6
100
AcDbEntity
  8
レイヤー_1
  6
CONTINUOUS
 62
       3
100
AcDbLine
 10
-29.97591165
 20
-26.01502985
 30
0.0
 11
-30.15121219
 21
-25.92806328
 31
0.0
  0
LINE
  5
1F7
100
AcDbEntity
  8
レイヤー_1
  6
CONTINUOUS
 62
       3
100
AcDbLine
 10
-30.15121219
 20
-25.92806328
 30
0.0
 11
-30.33991323
 21
-25.8750082
 31
0.0
  0
LINE
  5
1F8
100
AcDbEntity
  8
レイヤー_1
  6
CONTINUOUS
 62
       3
100
AcDbLine
 10
-30.33991323
 20
-25.8750082
 30
0.0
 11
-30.53709215
 21
-25.85641158
 31
0.0
  0
LINE
  5
1F9
100
AcDbEntity
  8
レイヤー_1
  6
CONTINUOUS
 62
       3
100
AcDbLine
 10
15.55245443
 20
-45.2619895
 30
0.0
 11
15.30304088
 21
-45.24612767
 31
0.0
  0
LINE
  5
1FA
100
AcDbEntity
  8
レイヤー_1
  6
CONTINUOUS
 62
       3
100
AcDbLine
 10
15.30304088
 20
-45.24612767
 30
0.0
 11
15.05909692
 21
-45.19908915
 31
0.0
  0
LINE
  5
1FB
100
AcDbEntity
  8
レイヤー_1
  6
CONTINUOUS
 62
       3
100
AcDbLine
 10
15.05909692
 20
-45.19908915
 30
0.0
 11
14.82171647
 21
-45.12524961
 31
0.0
  0
LINE
  5
1FC
100
AcDbEntity
  8
レイヤー_1
  6
CONTINUOUS
 62
       3
100
AcDbLine
 10
14.82171647
 20
-45.12524961
 30
0.0
 11
14.59691609
 21
-45.01968641
 31
0.0
  0
LINE
  5
1FD
100
AcDbEntity
  8
レイヤー_1
  6
CONTINUOUS
 62
       3
100
AcDbLine
 10
14.59691609
 20
-45.01968641
 30
0.0
 11
14.38852451
 21
-44.89060396
 31
0.0
  0
LINE
  5
1FE
100
AcDbEntity
  8
レイヤー_1
  6
CONTINUOUS
 62
       3
100
AcDbLine
 10
14.38852451
 20
-44.89060396
 30
0.0
 11
14.20091738
 21
-44.73526745
 31
0.0
  0
LINE
  5
1FF
100
AcDbEntity
  8
レイヤー_1
  6
CONTINUOUS
 62
       3
100
AcDbLine
 10
14.20091738
 20
-44.73526745
 30
0.0
 11
14.03518864
 21
-44.55859951
 31
0.0
  0
LINE
  5
200
100
AcDbEntity
  8
レイヤー_1
  6
CONTINUOUS
 62
       3
100
AcDbLine
 10
14.03518864
 20
-44.55859951
 30
0.0
 11
13.89571395
 21
-44.36224103
 31
0.0
  0
LINE
  5
201
100
AcDbEntity
  8
レイヤー_1
  6
CONTINUOUS
 62
       3
100
AcDbLine
 10
-29.52986614
 20
-18.63025547
 30
0.0
 11
-30.98505202
 21
-19.41979158
 31
0.0
  0
LINE
  5
202
100
AcDbEntity
  8
レイヤー_1
  6
CONTINUOUS
 62
       3
100
AcDbLine
 10
-30.98505202
 20
-19.41979158
 30
0.0
 11
-31.04056842
 21
-19.41979158
 31
0.0
  0
LINE
  5
203
100
AcDbEntity
  8
レイヤー_1
  6
CONTINUOUS
 62
       3
100
AcDbLine
 10
-31.87604913
 20
25.59990212
 30
0.0
 11
-31.93512076
 21
25.45714568
 31
0.0
  0
LINE
  5
204
100
AcDbEntity
  8
レイヤー_1
  6
CONTINUOUS
 62
       3
100
AcDbLine
 10
-31.93512076
 20
25.45714568
 30
0.0
 11
-31.98270624
 21
25.30864616
 31
0.0
  0
LINE
  5
205
100
AcDbEntity
  8
レイヤー_1
  6
CONTINUOUS
 62
       3
100
AcDbLine
 10
-31.98270624
 20
25.30864616
 30
0.0
 11
-32.01607078
 21
25.15741184
 31
0.0
  0
LINE
  5
206
100
AcDbEntity
  8
レイヤー_1
  6
CONTINUOUS
 62
       3
100
AcDbLine
 10
-32.01607078
 20
25.15741184
 30
0.0
 11
-32.03849612
 21
25.00508361
 31
0.0
  0
LINE
  5
207
100
AcDbEntity
  8
レイヤー_1
  6
CONTINUOUS
 62
       3
100
AcDbLine
 10
-32.03849612
 20
25.00508361
 30
0.0
 11
-32.04533311
 21
24.84947361
 31
0.0
  0
LINE
  5
208
100
AcDbEntity
  8
レイヤー_1
  6
CONTINUOUS
 62
       3
100
AcDbLine
 10
-32.04533311
 20
24.84947361
 30
0.0
 11
-32.04095744
 21
24.69468406
 31
0.0
  0
LINE
  5
209
100
AcDbEntity
  8
レイヤー_1
  6
CONTINUOUS
 62
       3
100
AcDbLine
 10
-32.04095744
 20
24.69468406
 30
0.0
 11
-32.02017297
 21
24.54180887
 31
0.0
  0
LINE
  5
20A
100
AcDbEntity
  8
レイヤー_1
  6
CONTINUOUS
 62
       3
100
AcDbLine
 10
-32.02017297
 20
24.54180887
 30
0.0
 11
-31.9887228
 21
24.39057455
 31
0.0
  0
LINE
  5
20B
100
AcDbEntity
  8
レイヤー_1
  6
CONTINUOUS
 62
       3
100
AcDbLine
 10
-31.04056842
 20
-25.85641158
 30
0.0
 11
-30.53709215
 21
-25.85641158
 31
0.0
  0
LINE
  5
20C
100
AcDbEntity
  8
レイヤー_1
  6
CONTINUOUS
 62
       3
100
AcDbLine
 10
-29.73224117
 20
22.75407157
 30
0.0
 11
-29.79213324
 21
22.75954117
 31
0.0
  0
LINE
  5
20D
100
AcDbEntity
  8
レイヤー_1
  6
CONTINUOUS
 62
       3
100
AcDbLine
 10
-29.79213324
 20
22.75954117
 30
0.0
 11
-29.8481966
 21
22.77594996
 31
0.0
  0
LINE
  5
20E
100
AcDbEntity
  8
レイヤー_1
  6
CONTINUOUS
 62
       3
100
AcDbLine
 10
-29.8481966
 20
22.77594996
 30
0.0
 11
-29.89906383
 21
22.8011101
 31
0.0
  0
LINE
  5
20F
100
AcDbEntity
  8
レイヤー_1
  6
CONTINUOUS
 62
       3
100
AcDbLine
 10
-29.89906383
 20
22.8011101
 30
0.0
 11
-29.94446148
 21
22.83748291
 31
0.0
  0
LINE
  5
210
100
AcDbEntity
  8
レイヤー_1
  6
CONTINUOUS
 62
       3
100
AcDbLine
 10
-29.94446148
 20
22.83748291
 30
0.0
 11
-29.98138125
 21
22.88014575
 31
0.0
  0
LINE
  5
211
100
AcDbEntity
  8
レイヤー_1
  6
CONTINUOUS
 62
       3
100
AcDbLine
 10
-29.98138125
 20
22.88014575
 30
0.0
 11
-30.01064358
 21
22.92937211
 31
0.0
  0
LINE
  5
212
100
AcDbEntity
  8
レイヤー_1
  6
CONTINUOUS
 62
       3
100
AcDbLine
 10
-30.01064358
 20
22.92937211
 30
0.0
 11
-30.02677889
 21
22.98215371
 31
0.0
  0
LINE
  5
213
100
AcDbEntity
  8
レイヤー_1
  6
CONTINUOUS
 62
       3
100
AcDbLine
 10
-30.02677889
 20
22.98215371
 30
0.0
 11
-30.03361588
 21
23.03739662
 31
0.0
  0
LINE
  5
214
100
AcDbEntity
  8
レイヤー_1
  6
CONTINUOUS
 62
       3
100
AcDbLine
 10
-29.73224117
 20
22.75407157
 30
0.0
 11
-29.52986614
 21
22.75407157
 31
0.0
  0
LINE
  5
215
100
AcDbEntity
  8
レイヤー_1
  6
CONTINUOUS
 62
       3
100
AcDbLine
 10
-29.52986614
 20
22.75407157
 30
0.0
 11
-29.52986614
 21
-18.63025547
 31
0.0
  0
LINE
  5
216
100
AcDbEntity
  8
レイヤー_1
  6
CONTINUOUS
 62
       3
100
AcDbLine
 10
-30.03361588
 20
23.19656185
 30
0.0
 11
-30.03361588
 21
23.03739662
 31
0.0
  0
LINE
  5
217
100
AcDbEntity
  8
レイヤー_1
  6
CONTINUOUS
 62
       3
100
AcDbLine
 10
-31.72426786
 20
24.25684294
 30
0.0
 11
-31.67121278
 21
24.27571305
 31
0.0
  0
LINE
  5
218
100
AcDbEntity
  8
レイヤー_1
  6
CONTINUOUS
 62
       3
100
AcDbLine
 10
-31.72426786
 20
24.25684294
 30
0.0
 11
-31.76583678
 21
24.24836507
 31
0.0
  0
LINE
  5
219
100
AcDbEntity
  8
レイヤー_1
  6
CONTINUOUS
 62
       3
100
AcDbLine
 10
-31.76583678
 20
24.24836507
 30
0.0
 11
-31.80904659
 21
24.24727115
 31
0.0
  0
LINE
  5
21A
100
AcDbEntity
  8
レイヤー_1
  6
CONTINUOUS
 62
       3
100
AcDbLine
 10
-31.80904659
 20
24.24727115
 30
0.0
 11
-31.84979507
 21
24.25274074
 31
0.0
  0
LINE
  5
21B
100
AcDbEntity
  8
レイヤー_1
  6
CONTINUOUS
 62
       3
100
AcDbLine
 10
-31.84979507
 20
24.25274074
 30
0.0
 11
-31.8886292
 21
24.26805561
 31
0.0
  0
LINE
  5
21C
100
AcDbEntity
  8
レイヤー_1
  6
CONTINUOUS
 62
       3
100
AcDbLine
 10
-31.8886292
 20
24.26805561
 30
0.0
 11
-31.92445505
 21
24.29048095
 31
0.0
  0
LINE
  5
21D
100
AcDbEntity
  8
レイヤー_1
  6
CONTINUOUS
 62
       3
100
AcDbLine
 10
-31.92445505
 20
24.29048095
 30
0.0
 11
-31.95289695
 21
24.31946981
 31
0.0
  0
LINE
  5
21E
100
AcDbEntity
  8
レイヤー_1
  6
CONTINUOUS
 62
       3
100
AcDbLine
 10
-31.95289695
 20
24.31946981
 30
0.0
 11
-31.97586925
 21
24.35365478
 31
0.0
  0
LINE
  5
21F
100
AcDbEntity
  8
レイヤー_1
  6
CONTINUOUS
 62
       3
100
AcDbLine
 10
-31.97586925
 20
24.35365478
 30
0.0
 11
-31.9887228
 21
24.39057455
 31
0.0
  0
LINE
  5
220
100
AcDbEntity
  8
レイヤー_1
  6
CONTINUOUS
 62
       3
100
AcDbLine
 10
-30.03361588
 20
23.19656185
 30
0.0
 11
-30.02841977
 21
23.29446761
 31
0.0
  0
LINE
  5
221
100
AcDbEntity
  8
レイヤー_1
  6
CONTINUOUS
 62
       3
100
AcDbLine
 10
-30.02841977
 20
23.29446761
 30
0.0
 11
-30.01228446
 21
23.38963857
 31
0.0
  0
LINE
  5
222
100
AcDbEntity
  8
レイヤー_1
  6
CONTINUOUS
 62
       3
100
AcDbLine
 10
-30.01228446
 20
23.38963857
 30
0.0
 11
-29.98575692
 21
23.48508301
 31
0.0
  0
LINE
  5
223
100
AcDbEntity
  8
レイヤー_1
  6
CONTINUOUS
 62
       3
100
AcDbLine
 10
-29.98575692
 20
23.48508301
 30
0.0
 11
-29.94883715
 21
23.57669874
 31
0.0
  0
LINE
  5
224
100
AcDbEntity
  8
レイヤー_1
  6
CONTINUOUS
 62
       3
100
AcDbLine
 10
-29.94883715
 20
23.57669874
 30
0.0
 11
-29.90343951
 21
23.66202443
 31
0.0
  0
LINE
  5
225
100
AcDbEntity
  8
レイヤー_1
  6
CONTINUOUS
 62
       3
100
AcDbLine
 10
-29.90343951
 20
23.66202443
 30
0.0
 11
-29.8481966
 21
23.74543576
 31
0.0
  0
LINE
  5
226
100
AcDbEntity
  8
レイヤー_1
  6
CONTINUOUS
 62
       3
100
AcDbLine
 10
-29.8481966
 20
23.74543576
 30
0.0
 11
-29.78365537
 21
23.82228358
 31
0.0
  0
LINE
  5
227
100
AcDbEntity
  8
レイヤー_1
  6
CONTINUOUS
 62
       3
100
AcDbLine
 10
-29.78365537
 20
23.82228358
 30
0.0
 11
-29.71145671
 21
23.89120048
 31
0.0
  0
LINE
  5
228
100
AcDbEntity
  8
レイヤー_1
  6
CONTINUOUS
 62
       3
100
AcDbLine
 10
55.42361787
 20
-45.2619895
 30
0.0
 11
55.29234758
 21
-45.25269118
 31
0.0
  0
LINE
  5
229
100
AcDbEntity
  8
レイヤー_1
  6
CONTINUOUS
 62
       3
100
AcDbLine
 10
55.29234758
 20
-45.25269118
 30
0.0
 11
55.16271817
 21
-45.228078
 31
0.0
  0
LINE
  5
22A
100
AcDbEntity
  8
レイヤー_1
  6
CONTINUOUS
 62
       3
100
AcDbLine
 10
55.16271817
 20
-45.228078
 30
0.0
 11
55.03691747
 21
-45.18924387
 31
0.0
  0
LINE
  5
22B
100
AcDbEntity
  8
レイヤー_1
  6
CONTINUOUS
 62
       3
100
AcDbLine
 10
55.03691747
 20
-45.18924387
 30
0.0
 11
54.92041509
 21
-45.13454792
 31
0.0
  0
LINE
  5
22C
100
AcDbEntity
  8
レイヤー_1
  6
CONTINUOUS
 62
       3
100
AcDbLine
 10
54.92041509
 20
-45.13454792
 30
0.0
 11
54.80992926
 21
-45.06563102
 31
0.0
  0
LINE
  5
22D
100
AcDbEntity
  8
レイヤー_1
  6
CONTINUOUS
 62
       3
100
AcDbLine
 10
54.80992926
 20
-45.06563102
 30
0.0
 11
54.71038262
 21
-44.98522796
 31
0.0
  0
LINE
  5
22E
100
AcDbEntity
  8
レイヤー_1
  6
CONTINUOUS
 62
       3
100
AcDbLine
 10
54.71038262
 20
-44.98522796
 30
0.0
 11
54.62450997
 21
-44.89224484
 31
0.0
  0
LINE
  5
22F
100
AcDbEntity
  8
レイヤー_1
  6
CONTINUOUS
 62
       3
100
AcDbLine
 10
54.62450997
 20
-44.89224484
 30
0.0
 11
54.55231131
 21
-44.78832252
 31
0.0
  0
LINE
  5
230
100
AcDbEntity
  8
レイヤー_1
  6
CONTINUOUS
 62
       3
100
AcDbLine
 10
-25.60707224
 20
38.16192213
 30
0.0
 11
-29.96415202
 21
40.52834263
 31
0.0
  0
LINE
  5
231
100
AcDbEntity
  8
レイヤー_1
  6
CONTINUOUS
 62
       3
100
AcDbLine
 10
-29.96415202
 20
40.52834263
 30
0.0
 11
-27.42407186
 21
44.66800599
 31
0.0
  0
LINE
  5
232
100
AcDbEntity
  8
レイヤー_1
  6
CONTINUOUS
 62
       3
100
AcDbLine
 10
-27.42407186
 20
44.66800599
 30
0.0
 11
-23.06589816
 21
42.30158549
 31
0.0
  0
LINE
  5
233
100
AcDbEntity
  8
レイヤー_1
  6
CONTINUOUS
 62
       3
100
AcDbLine
 10
-23.06589816
 20
42.30158549
 30
0.0
 11
-25.60707224
 21
38.16192213
 31
0.0
  0
LINE
  5
234
100
AcDbEntity
  8
レイヤー_1
  6
CONTINUOUS
 62
       3
100
AcDbLine
 10
-6.17820505
 20
47.56173474
 30
0.0
 11
-7.75321857
 21
44.99836956
 31
0.0
  0
LINE
  5
235
100
AcDbEntity
  8
レイヤー_1
  6
CONTINUOUS
 62
       3
100
AcDbLine
 10
36.28823798
 20
-35.8679592
 30
0.0
 11
31.93170515
 21
-38.23520014
 31
0.0
  0
LINE
  5
236
100
AcDbEntity
  8
レイヤー_1
  6
CONTINUOUS
 62
       3
100
AcDbLine
 10
31.93170515
 20
-38.23520014
 30
0.0
 11
34.47178531
 21
-42.37568394
 31
0.0
  0
LINE
  5
237
100
AcDbEntity
  8
レイヤー_1
  6
CONTINUOUS
 62
       3
100
AcDbLine
 10
34.47178531
 20
-42.37568394
 30
0.0
 11
38.82995901
 21
-40.00844301
 31
0.0
  0
LINE
  5
238
100
AcDbEntity
  8
レイヤー_1
  6
CONTINUOUS
 62
       3
100
AcDbLine
 10
38.82995901
 20
-40.00844301
 30
0.0
 11
36.28823798
 21
-35.8679592
 31
0.0
  0
LINE
  5
239
100
AcDbEntity
  8
レイヤー_1
  6
CONTINUOUS
 62
       3
100
AcDbLine
 10
39.09578135
 20
-41.52352096
 30
0.0
 11
40.10218693
 21
-43.16385266
 31
0.0
  0
LINE
  5
23A
100
AcDbEntity
  8
レイヤー_1
  6
CONTINUOUS
 62
       3
100
AcDbLine
 10
37.58289123
 20
-42.30786096
 30
0.0
 11
38.58984377
 21
-43.94764569
 31
0.0
  0
LINE
  5
23B
100
AcDbEntity
  8
レイヤー_1
  6
CONTINUOUS
 62
       3
100
AcDbLine
 10
37.46912365
 20
-44.56406911
 30
0.0
 11
41.3344868
 21
-42.49163937
 31
0.0
  0
LINE
  5
23C
100
AcDbEntity
  8
レイヤー_1
  6
CONTINUOUS
 62
       3
100
AcDbLine
 10
41.3344868
 20
-42.49163937
 30
0.0
 11
40.32753426
 21
-40.85240159
 31
0.0
  0
LINE
  5
23D
100
AcDbEntity
  8
レイヤー_1
  6
CONTINUOUS
 62
       3
100
AcDbLine
 10
40.32753426
 20
-40.85240159
 30
0.0
 11
36.46217111
 21
-42.92373741
 31
0.0
  0
LINE
  5
23E
100
AcDbEntity
  8
レイヤー_1
  6
CONTINUOUS
 62
       3
100
AcDbLine
 10
36.46217111
 20
-42.92373741
 30
0.0
 11
37.46912365
 21
-44.56406911
 31
0.0
  0
LINE
  5
23F
100
AcDbEntity
  8
レイヤー_1
  6
CONTINUOUS
 62
       3
100
AcDbLine
 10
34.23002918
 20
-41.9840609
 30
0.0
 11
38.58984377
 21
-39.61736693
 31
0.0
  0
LINE
  5
240
100
AcDbEntity
  8
レイヤー_1
  6
CONTINUOUS
 62
       3
100
AcDbLine
 10
52.04395481
 20
-36.88120177
 30
0.0
 11
53.76633043
 21
-35.94289266
 31
0.0
  0
LINE
  5
241
100
AcDbEntity
  8
レイヤー_1
  6
CONTINUOUS
 62
       3
100
AcDbLine
 10
53.76633043
 20
-35.94289266
 30
0.0
 11
52.75883094
 21
-34.30256097
 31
0.0
  0
LINE
  5
242
100
AcDbEntity
  8
レイヤー_1
  6
CONTINUOUS
 62
       3
100
AcDbLine
 10
52.75883094
 20
-34.30256097
 30
0.0
 11
51.03700227
 21
-35.2405966
 31
0.0
  0
LINE
  5
243
100
AcDbEntity
  8
レイヤー_1
  6
CONTINUOUS
 62
       3
100
AcDbLine
 10
51.03700227
 20
-35.2405966
 30
0.0
 11
52.04395481
 21
-36.88120177
 31
0.0
  0
LINE
  5
244
100
AcDbEntity
  8
レイヤー_1
  6
CONTINUOUS
 62
       3
100
AcDbLine
 10
49.90151425
 20
-38.0153224
 30
0.0
 11
51.62388987
 21
-37.11967614
 31
0.0
  0
LINE
  5
245
100
AcDbEntity
  8
レイヤー_1
  6
CONTINUOUS
 62
       3
100
AcDbLine
 10
51.62388987
 20
-37.11967614
 30
0.0
 11
50.61693734
 21
-35.47879748
 31
0.0
  0
LINE
  5
246
100
AcDbEntity
  8
レイヤー_1
  6
CONTINUOUS
 62
       3
100
AcDbLine
 10
50.61693734
 20
-35.47879748
 30
0.0
 11
48.89510867
 21
-36.37526419
 31
0.0
  0
LINE
  5
247
100
AcDbEntity
  8
レイヤー_1
  6
CONTINUOUS
 62
       3
100
AcDbLine
 10
48.89510867
 20
-36.37526419
 30
0.0
 11
49.90151425
 21
-38.0153224
 31
0.0
  0
LINE
  5
248
100
AcDbEntity
  8
レイヤー_1
  6
CONTINUOUS
 62
       3
100
AcDbLine
 10
39.30909558
 20
-32.31928564
 30
0.0
 11
41.03092424
 21
-31.38042957
 31
0.0
  0
LINE
  5
249
100
AcDbEntity
  8
レイヤー_1
  6
CONTINUOUS
 62
       3
100
AcDbLine
 10
41.03092424
 20
-31.38042957
 30
0.0
 11
40.02451867
 21
-29.74064483
 31
0.0
  0
LINE
  5
24A
100
AcDbEntity
  8
レイヤー_1
  6
CONTINUOUS
 62
       3
100
AcDbLine
 10
40.02451867
 20
-29.74064483
 30
0.0
 11
38.30214304
 21
-30.67868046
 31
0.0
  0
LINE
  5
24B
100
AcDbEntity
  8
レイヤー_1
  6
CONTINUOUS
 62
       3
100
AcDbLine
 10
38.30214304
 20
-30.67868046
 30
0.0
 11
39.30909558
 21
-32.31928564
 31
0.0
  0
LINE
  5
24C
100
AcDbEntity
  8
レイヤー_1
  6
CONTINUOUS
 62
       3
100
AcDbLine
 10
37.16610806
 20
-33.45340626
 30
0.0
 11
38.88903064
 21
-32.55776
 31
0.0
  0
LINE
  5
24D
100
AcDbEntity
  8
レイヤー_1
  6
CONTINUOUS
 62
       3
100
AcDbLine
 10
38.88903064
 20
-32.55776
 30
0.0
 11
37.88207811
 21
-30.91688135
 31
0.0
  0
LINE
  5
24E
100
AcDbEntity
  8
レイヤー_1
  6
CONTINUOUS
 62
       3
100
AcDbLine
 10
37.88207811
 20
-30.91688135
 30
0.0
 11
36.15915552
 21
-31.81280109
 31
0.0
  0
LINE
  5
24F
100
AcDbEntity
  8
レイヤー_1
  6
CONTINUOUS
 62
       3
100
AcDbLine
 10
36.15915552
 20
-31.81280109
 30
0.0
 11
37.16610806
 21
-33.45340626
 31
0.0
  0
LINE
  5
250
100
AcDbEntity
  8
レイヤー_1
  6
CONTINUOUS
 62
       3
100
AcDbLine
 10
32.5530512
 20
-36.2858363
 30
0.0
 11
34.27433291
 21
-35.34752719
 31
0.0
  0
LINE
  5
251
100
AcDbEntity
  8
レイヤー_1
  6
CONTINUOUS
 62
       3
100
AcDbLine
 10
34.27433291
 20
-35.34752719
 30
0.0
 11
33.26792733
 21
-33.70774246
 31
0.0
  0
LINE
  5
252
100
AcDbEntity
  8
レイヤー_1
  6
CONTINUOUS
 62
       3
100
AcDbLine
 10
33.26792733
 20
-33.70774246
 30
0.0
 11
31.54500475
 21
-34.64632505
 31
0.0
  0
LINE
  5
253
100
AcDbEntity
  8
レイヤー_1
  6
CONTINUOUS
 62
       3
100
AcDbLine
 10
31.54500475
 20
-34.64632505
 30
0.0
 11
32.5530512
 21
-36.2858363
 31
0.0
  0
LINE
  5
254
100
AcDbEntity
  8
レイヤー_1
  6
CONTINUOUS
 62
       3
100
AcDbLine
 10
30.41006368
 20
-37.42077737
 30
0.0
 11
32.13298627
 21
-36.52431066
 31
0.0
  0
LINE
  5
255
100
AcDbEntity
  8
レイヤー_1
  6
CONTINUOUS
 62
       3
100
AcDbLine
 10
32.13298627
 20
-36.52431066
 30
0.0
 11
31.12493981
 21
-34.88343201
 31
0.0
  0
LINE
  5
256
100
AcDbEntity
  8
レイヤー_1
  6
CONTINUOUS
 62
       3
100
AcDbLine
 10
31.12493981
 20
-34.88343201
 30
0.0
 11
29.40365811
 21
-35.77989872
 31
0.0
  0
LINE
  5
257
100
AcDbEntity
  8
レイヤー_1
  6
CONTINUOUS
 62
       3
100
AcDbLine
 10
29.40365811
 20
-35.77989872
 30
0.0
 11
30.41006368
 21
-37.42077737
 31
0.0
  0
LINE
  5
258
100
AcDbEntity
  8
レイヤー_1
  6
CONTINUOUS
 62
       3
100
AcDbLine
 10
15.65582979
 20
-35.8679592
 30
0.0
 11
11.29929696
 21
-38.23520014
 31
0.0
  0
LINE
  5
259
100
AcDbEntity
  8
レイヤー_1
  6
CONTINUOUS
 62
       3
100
AcDbLine
 10
11.29929696
 20
-38.23520014
 30
0.0
 11
13.83937712
 21
-42.37568394
 31
0.0
  0
LINE
  5
25A
100
AcDbEntity
  8
レイヤー_1
  6
CONTINUOUS
 62
       3
100
AcDbLine
 10
13.83937712
 20
-42.37568394
 30
0.0
 11
18.19700386
 21
-40.00844301
 31
0.0
  0
LINE
  5
25B
100
AcDbEntity
  8
レイヤー_1
  6
CONTINUOUS
 62
       3
100
AcDbLine
 10
18.19700386
 20
-40.00844301
 30
0.0
 11
15.65582979
 21
-35.8679592
 31
0.0
  0
LINE
  5
25C
100
AcDbEntity
  8
レイヤー_1
  6
CONTINUOUS
 62
       3
100
AcDbLine
 10
18.46337316
 20
-41.52352096
 30
0.0
 11
19.46977874
 21
-43.16385266
 31
0.0
  0
LINE
  5
25D
100
AcDbEntity
  8
レイヤー_1
  6
CONTINUOUS
 62
       3
100
AcDbLine
 10
16.95103
 20
-42.30786096
 30
0.0
 11
17.95743558
 21
-43.94764569
 31
0.0
  0
LINE
  5
25E
100
AcDbEntity
  8
レイヤー_1
  6
CONTINUOUS
 62
       3
100
AcDbLine
 10
16.83671546
 20
-44.56406911
 30
0.0
 11
20.70207861
 21
-42.49163937
 31
0.0
  0
LINE
  5
25F
100
AcDbEntity
  8
レイヤー_1
  6
CONTINUOUS
 62
       3
100
AcDbLine
 10
20.70207861
 20
-42.49163937
 30
0.0
 11
19.69512607
 21
-40.85240159
 31
0.0
  0
LINE
  5
260
100
AcDbEntity
  8
レイヤー_1
  6
CONTINUOUS
 62
       3
100
AcDbLine
 10
19.69512607
 20
-40.85240159
 30
0.0
 11
15.83030988
 21
-42.92373741
 31
0.0
  0
LINE
  5
261
100
AcDbEntity
  8
レイヤー_1
  6
CONTINUOUS
 62
       3
100
AcDbLine
 10
15.83030988
 20
-42.92373741
 30
0.0
 11
16.83671546
 21
-44.56406911
 31
0.0
  0
LINE
  5
262
100
AcDbEntity
  8
レイヤー_1
  6
CONTINUOUS
 62
       3
100
AcDbLine
 10
13.59762099
 20
-41.9840609
 30
0.0
 11
17.95743558
 21
-39.61736693
 31
0.0
  0
LINE
  5
263
100
AcDbEntity
  8
レイヤー_1
  6
CONTINUOUS
 62
       3
100
AcDbLine
 10
18.67668739
 20
-32.31928564
 30
0.0
 11
20.39851605
 21
-31.38042957
 31
0.0
  0
LINE
  5
264
100
AcDbEntity
  8
レイヤー_1
  6
CONTINUOUS
 62
       3
100
AcDbLine
 10
20.39851605
 20
-31.38042957
 30
0.0
 11
19.39211048
 21
-29.74064483
 31
0.0
  0
LINE
  5
265
100
AcDbEntity
  8
レイヤー_1
  6
CONTINUOUS
 62
       3
100
AcDbLine
 10
19.39211048
 20
-29.74064483
 30
0.0
 11
17.66973485
 21
-30.67868046
 31
0.0
  0
LINE
  5
266
100
AcDbEntity
  8
レイヤー_1
  6
CONTINUOUS
 62
       3
100
AcDbLine
 10
17.66973485
 20
-30.67868046
 30
0.0
 11
18.67668739
 21
-32.31928564
 31
0.0
  0
LINE
  5
267
100
AcDbEntity
  8
レイヤー_1
  6
CONTINUOUS
 62
       3
100
AcDbLine
 10
16.53369987
 20
-33.45340626
 30
0.0
 11
18.25662245
 21
-32.55776
 31
0.0
  0
LINE
  5
268
100
AcDbEntity
  8
レイヤー_1
  6
CONTINUOUS
 62
       3
100
AcDbLine
 10
18.25662245
 20
-32.55776
 30
0.0
 11
17.24966992
 21
-30.91688135
 31
0.0
  0
LINE
  5
269
100
AcDbEntity
  8
レイヤー_1
  6
CONTINUOUS
 62
       3
100
AcDbLine
 10
17.24966992
 20
-30.91688135
 30
0.0
 11
15.52729429
 21
-31.81280109
 31
0.0
  0
LINE
  5
26A
100
AcDbEntity
  8
レイヤー_1
  6
CONTINUOUS
 62
       3
100
AcDbLine
 10
15.52729429
 20
-31.81280109
 30
0.0
 11
16.53369987
 21
-33.45340626
 31
0.0
  0
LINE
  5
26B
100
AcDbEntity
  8
レイヤー_1
  6
CONTINUOUS
 62
       3
100
AcDbLine
 10
11.92009605
 20
-36.2858363
 30
0.0
 11
13.64192472
 21
-35.34752719
 31
0.0
  0
LINE
  5
26C
100
AcDbEntity
  8
レイヤー_1
  6
CONTINUOUS
 62
       3
100
AcDbLine
 10
13.64192472
 20
-35.34752719
 30
0.0
 11
12.63551914
 21
-33.70774246
 31
0.0
  0
LINE
  5
26D
100
AcDbEntity
  8
レイヤー_1
  6
CONTINUOUS
 62
       3
100
AcDbLine
 10
12.63551914
 20
-33.70774246
 30
0.0
 11
10.91259656
 21
-34.64632505
 31
0.0
  0
LINE
  5
26E
100
AcDbEntity
  8
レイヤー_1
  6
CONTINUOUS
 62
       3
100
AcDbLine
 10
10.91259656
 20
-34.64632505
 30
0.0
 11
11.92009605
 21
-36.2858363
 31
0.0
  0
LINE
  5
26F
100
AcDbEntity
  8
レイヤー_1
  6
CONTINUOUS
 62
       3
100
AcDbLine
 10
9.77738201
 20
-37.42077737
 30
0.0
 11
11.50003112
 21
-36.52431066
 31
0.0
  0
LINE
  5
270
100
AcDbEntity
  8
レイヤー_1
  6
CONTINUOUS
 62
       3
100
AcDbLine
 10
11.50003112
 20
-36.52431066
 30
0.0
 11
10.4928051
 21
-34.88343201
 31
0.0
  0
LINE
  5
271
100
AcDbEntity
  8
レイヤー_1
  6
CONTINUOUS
 62
       3
100
AcDbLine
 10
10.4928051
 20
-34.88343201
 30
0.0
 11
8.77097644
 21
-35.77989872
 31
0.0
  0
LINE
  5
272
100
AcDbEntity
  8
レイヤー_1
  6
CONTINUOUS
 62
       3
100
AcDbLine
 10
8.77097644
 20
-35.77989872
 30
0.0
 11
9.77738201
 21
-37.42077737
 31
0.0
  0
LINE
  5
273
100
AcDbEntity
  8
レイヤー_1
  6
CONTINUOUS
 62
       3
100
AcDbLine
 10
-4.97466405
 20
-35.8679592
 30
0.0
 11
-9.33147035
 21
-38.23520014
 31
0.0
  0
LINE
  5
274
100
AcDbEntity
  8
レイヤー_1
  6
CONTINUOUS
 62
       3
100
AcDbLine
 10
-9.33147035
 20
-38.23520014
 30
0.0
 11
-6.79166367
 21
-42.37568394
 31
0.0
  0
LINE
  5
275
100
AcDbEntity
  8
レイヤー_1
  6
CONTINUOUS
 62
       3
100
AcDbLine
 10
-6.79166367
 20
-42.37568394
 30
0.0
 11
-2.43348997
 21
-40.00844301
 31
0.0
  0
LINE
  5
276
100
AcDbEntity
  8
レイヤー_1
  6
CONTINUOUS
 62
       3
100
AcDbLine
 10
-2.43348997
 20
-40.00844301
 30
0.0
 11
-4.97466405
 21
-35.8679592
 31
0.0
  0
LINE
  5
277
100
AcDbEntity
  8
レイヤー_1
  6
CONTINUOUS
 62
       3
100
AcDbLine
 10
-2.16739415
 20
-41.52352096
 30
0.0
 11
-1.16044162
 21
-43.16385266
 31
0.0
  0
LINE
  5
278
100
AcDbEntity
  8
レイヤー_1
  6
CONTINUOUS
 62
       3
100
AcDbLine
 10
-3.67973731
 20
-42.30786096
 30
0.0
 11
-2.67333173
 21
-43.94764569
 31
0.0
  0
LINE
  5
279
100
AcDbEntity
  8
レイヤー_1
  6
CONTINUOUS
 62
       3
100
AcDbLine
 10
-3.79350489
 20
-44.56406911
 30
0.0
 11
0.07131129
 21
-42.49163937
 31
0.0
  0
LINE
  5
27A
100
AcDbEntity
  8
レイヤー_1
  6
CONTINUOUS
 62
       3
100
AcDbLine
 10
0.07131129
 20
-42.49163937
 30
0.0
 11
-0.93536776
 21
-40.85240159
 31
0.0
  0
LINE
  5
27B
100
AcDbEntity
  8
レイヤー_1
  6
CONTINUOUS
 62
       3
100
AcDbLine
 10
-0.93536776
 20
-40.85240159
 30
0.0
 11
-4.79991047
 21
-42.92373741
 31
0.0
  0
LINE
  5
27C
100
AcDbEntity
  8
レイヤー_1
  6
CONTINUOUS
 62
       3
100
AcDbLine
 10
-4.79991047
 20
-42.92373741
 30
0.0
 11
-3.79350489
 21
-44.56406911
 31
0.0
  0
LINE
  5
27D
100
AcDbEntity
  8
レイヤー_1
  6
CONTINUOUS
 62
       3
100
AcDbLine
 10
-7.03232588
 20
-41.9840609
 30
0.0
 11
-2.67333173
 21
-39.61736693
 31
0.0
  0
LINE
  5
27E
100
AcDbEntity
  8
レイヤー_1
  6
CONTINUOUS
 62
       3
100
AcDbLine
 10
-25.60707224
 20
-35.8679592
 30
0.0
 11
-29.96415202
 21
-38.23520014
 31
0.0
  0
LINE
  5
27F
100
AcDbEntity
  8
レイヤー_1
  6
CONTINUOUS
 62
       3
100
AcDbLine
 10
-29.96415202
 20
-38.23520014
 30
0.0
 11
-27.42407186
 21
-42.37568394
 31
0.0
  0
LINE
  5
280
100
AcDbEntity
  8
レイヤー_1
  6
CONTINUOUS
 62
       3
100
AcDbLine
 10
-27.42407186
 20
-42.37568394
 30
0.0
 11
-23.06589816
 21
-40.00844301
 31
0.0
  0
LINE
  5
281
100
AcDbEntity
  8
レイヤー_1
  6
CONTINUOUS
 62
       3
100
AcDbLine
 10
-23.06589816
 20
-40.00844301
 30
0.0
 11
-25.60707224
 21
-35.8679592
 31
0.0
  0
LINE
  5
282
100
AcDbEntity
  8
レイヤー_1
  6
CONTINUOUS
 62
       3
100
AcDbLine
 10
-1.95407992
 20
-32.31928564
 30
0.0
 11
-0.2317043
 21
-31.38042957
 31
0.0
  0
LINE
  5
283
100
AcDbEntity
  8
レイヤー_1
  6
CONTINUOUS
 62
       3
100
AcDbLine
 10
-0.2317043
 20
-31.38042957
 30
0.0
 11
-1.23893031
 21
-29.74064483
 31
0.0
  0
LINE
  5
284
100
AcDbEntity
  8
レイヤー_1
  6
CONTINUOUS
 62
       3
100
AcDbLine
 10
-1.23893031
 20
-29.74064483
 30
0.0
 11
-2.96103246
 21
-30.67868046
 31
0.0
  0
LINE
  5
285
100
AcDbEntity
  8
レイヤー_1
  6
CONTINUOUS
 62
       3
100
AcDbLine
 10
-2.96103246
 20
-30.67868046
 30
0.0
 11
-1.95407992
 21
-32.31928564
 31
0.0
  0
LINE
  5
286
100
AcDbEntity
  8
レイヤー_1
  6
CONTINUOUS
 62
       3
100
AcDbLine
 10
-4.09652049
 20
-33.45340626
 30
0.0
 11
-2.37414486
 21
-32.55776
 31
0.0
  0
LINE
  5
287
100
AcDbEntity
  8
レイヤー_1
  6
CONTINUOUS
 62
       3
100
AcDbLine
 10
-2.37414486
 20
-32.55776
 30
0.0
 11
-3.38109739
 21
-30.91688135
 31
0.0
  0
LINE
  5
288
100
AcDbEntity
  8
レイヤー_1
  6
CONTINUOUS
 62
       3
100
AcDbLine
 10
-3.38109739
 20
-30.91688135
 30
0.0
 11
-5.10347302
 21
-31.81280109
 31
0.0
  0
LINE
  5
289
100
AcDbEntity
  8
レイヤー_1
  6
CONTINUOUS
 62
       3
100
AcDbLine
 10
-5.10347302
 20
-31.81280109
 30
0.0
 11
-4.09652049
 21
-33.45340626
 31
0.0
  0
LINE
  5
28A
100
AcDbEntity
  8
レイヤー_1
  6
CONTINUOUS
 62
       3
100
AcDbLine
 10
-8.71039778
 20
-36.2858363
 30
0.0
 11
-6.98829563
 21
-35.34752719
 31
0.0
  0
LINE
  5
28B
100
AcDbEntity
  8
レイヤー_1
  6
CONTINUOUS
 62
       3
100
AcDbLine
 10
-6.98829563
 20
-35.34752719
 30
0.0
 11
-7.99470121
 21
-33.70774246
 31
0.0
  0
LINE
  5
28C
100
AcDbEntity
  8
レイヤー_1
  6
CONTINUOUS
 62
       3
100
AcDbLine
 10
-7.99470121
 20
-33.70774246
 30
0.0
 11
-9.71735031
 21
-34.64632505
 31
0.0
  0
LINE
  5
28D
100
AcDbEntity
  8
レイヤー_1
  6
CONTINUOUS
 62
       3
100
AcDbLine
 10
-9.71735031
 20
-34.64632505
 30
0.0
 11
-8.71039778
 21
-36.2858363
 31
0.0
  0
LINE
  5
28E
100
AcDbEntity
  8
レイヤー_1
  6
CONTINUOUS
 62
       3
100
AcDbLine
 10
-10.85283834
 20
-37.42077737
 30
0.0
 11
-9.13046272
 21
-36.52431066
 31
0.0
  0
LINE
  5
28F
100
AcDbEntity
  8
レイヤー_1
  6
CONTINUOUS
 62
       3
100
AcDbLine
 10
-9.13046272
 20
-36.52431066
 30
0.0
 11
-10.13741525
 21
-34.88343201
 31
0.0
  0
LINE
  5
290
100
AcDbEntity
  8
レイヤー_1
  6
CONTINUOUS
 62
       3
100
AcDbLine
 10
-10.13741525
 20
-34.88343201
 30
0.0
 11
-11.85924392
 21
-35.77989872
 31
0.0
  0
LINE
  5
291
100
AcDbEntity
  8
レイヤー_1
  6
CONTINUOUS
 62
       3
100
AcDbLine
 10
-11.85924392
 20
-35.77989872
 30
0.0
 11
-10.85283834
 21
-37.42077737
 31
0.0
  0
LINE
  5
292
100
AcDbEntity
  8
レイヤー_1
  6
CONTINUOUS
 62
       3
100
AcDbLine
 10
-22.58648811
 20
-32.31928564
 30
0.0
 11
-20.86438597
 21
-31.38042957
 31
0.0
  0
LINE
  5
293
100
AcDbEntity
  8
レイヤー_1
  6
CONTINUOUS
 62
       3
100
AcDbLine
 10
-20.86438597
 20
-31.38042957
 30
0.0
 11
-21.8713385
 21
-29.74064483
 31
0.0
  0
LINE
  5
294
100
AcDbEntity
  8
レイヤー_1
  6
CONTINUOUS
 62
       3
100
AcDbLine
 10
-21.8713385
 20
-29.74064483
 30
0.0
 11
-23.59371413
 21
-30.67868046
 31
0.0
  0
LINE
  5
295
100
AcDbEntity
  8
レイヤー_1
  6
CONTINUOUS
 62
       3
100
AcDbLine
 10
-23.59371413
 20
-30.67868046
 30
0.0
 11
-22.58648811
 21
-32.31928564
 31
0.0
  0
LINE
  5
296
100
AcDbEntity
  8
レイヤー_1
  6
CONTINUOUS
 62
       3
100
AcDbLine
 10
-24.72892868
 20
-33.45340626
 30
0.0
 11
-23.00655305
 21
-32.55776
 31
0.0
  0
LINE
  5
297
100
AcDbEntity
  8
レイヤー_1
  6
CONTINUOUS
 62
       3
100
AcDbLine
 10
-23.00655305
 20
-32.55776
 30
0.0
 11
-24.01377906
 21
-30.91688135
 31
0.0
  0
LINE
  5
298
100
AcDbEntity
  8
レイヤー_1
  6
CONTINUOUS
 62
       3
100
AcDbLine
 10
-24.01377906
 20
-30.91688135
 30
0.0
 11
-25.73588121
 21
-31.81280109
 31
0.0
  0
LINE
  5
299
100
AcDbEntity
  8
レイヤー_1
  6
CONTINUOUS
 62
       3
100
AcDbLine
 10
-25.73588121
 20
-31.81280109
 30
0.0
 11
-24.72892868
 21
-33.45340626
 31
0.0
  0
LINE
  5
29A
100
AcDbEntity
  8
レイヤー_1
  6
CONTINUOUS
 62
       3
100
AcDbLine
 10
-22.80007582
 20
-41.52352096
 30
0.0
 11
-21.79284981
 21
-43.16385266
 31
0.0
  0
LINE
  5
29B
100
AcDbEntity
  8
レイヤー_1
  6
CONTINUOUS
 62
       3
100
AcDbLine
 10
-24.3121455
 20
-42.30786096
 30
0.0
 11
-23.30519296
 21
-43.94764569
 31
0.0
  0
LINE
  5
29C
100
AcDbEntity
  8
レイヤー_1
  6
CONTINUOUS
 62
       3
100
AcDbLine
 10
-24.42536612
 20
-44.56406911
 30
0.0
 11
-20.56137038
 21
-42.49163937
 31
0.0
  0
LINE
  5
29D
100
AcDbEntity
  8
レイヤー_1
  6
CONTINUOUS
 62
       3
100
AcDbLine
 10
-20.56137038
 20
-42.49163937
 30
0.0
 11
-21.56777595
 21
-40.85240159
 31
0.0
  0
LINE
  5
29E
100
AcDbEntity
  8
レイヤー_1
  6
CONTINUOUS
 62
       3
100
AcDbLine
 10
-21.56777595
 20
-40.85240159
 30
0.0
 11
-25.43231866
 21
-42.92373741
 31
0.0
  0
LINE
  5
29F
100
AcDbEntity
  8
レイヤー_1
  6
CONTINUOUS
 62
       3
100
AcDbLine
 10
-25.43231866
 20
-42.92373741
 30
0.0
 11
-24.42536612
 21
-44.56406911
 31
0.0
  0
LINE
  5
2A0
100
AcDbEntity
  8
レイヤー_1
  6
CONTINUOUS
 62
       3
100
AcDbLine
 10
-27.66500755
 20
-41.9840609
 30
0.0
 11
-23.30519296
 21
-39.61736693
 31
0.0
  0
LINE
  5
2A1
100
AcDbEntity
  8
レイヤー_1
  6
CONTINUOUS
 62
       3
100
AcDbLine
 10
36.28823798
 20
38.16192213
 30
0.0
 11
31.93170515
 21
40.52834263
 31
0.0
  0
LINE
  5
2A2
100
AcDbEntity
  8
レイヤー_1
  6
CONTINUOUS
 62
       3
100
AcDbLine
 10
31.93170515
 20
40.52834263
 30
0.0
 11
34.47178531
 21
44.66800599
 31
0.0
  0
LINE
  5
2A3
100
AcDbEntity
  8
レイヤー_1
  6
CONTINUOUS
 62
       3
100
AcDbLine
 10
34.47178531
 20
44.66800599
 30
0.0
 11
38.82995901
 21
42.30158549
 31
0.0
  0
LINE
  5
2A4
100
AcDbEntity
  8
レイヤー_1
  6
CONTINUOUS
 62
       3
100
AcDbLine
 10
38.82995901
 20
42.30158549
 30
0.0
 11
36.28823798
 21
38.16192213
 31
0.0
  0
LINE
  5
2A5
100
AcDbEntity
  8
レイヤー_1
  6
CONTINUOUS
 62
       3
100
AcDbLine
 10
39.09578135
 20
43.81611649
 30
0.0
 11
40.10218693
 21
45.45617471
 31
0.0
  0
LINE
  5
2A6
100
AcDbEntity
  8
レイヤー_1
  6
CONTINUOUS
 62
       3
100
AcDbLine
 10
37.58289123
 20
44.60018301
 30
0.0
 11
38.58984377
 21
46.24024122
 31
0.0
  0
LINE
  5
2A7
100
AcDbEntity
  8
レイヤー_1
  6
CONTINUOUS
 62
       3
100
AcDbLine
 10
37.46912365
 20
46.85639116
 30
0.0
 11
41.3344868
 21
44.78450838
 31
0.0
  0
LINE
  5
2A8
100
AcDbEntity
  8
レイヤー_1
  6
CONTINUOUS
 62
       3
100
AcDbLine
 10
41.3344868
 20
44.78450838
 30
0.0
 11
40.32753426
 21
43.14472364
 31
0.0
  0
LINE
  5
2A9
100
AcDbEntity
  8
レイヤー_1
  6
CONTINUOUS
 62
       3
100
AcDbLine
 10
40.32753426
 20
43.14472364
 30
0.0
 11
36.46217111
 21
45.21633294
 31
0.0
  0
LINE
  5
2AA
100
AcDbEntity
  8
レイヤー_1
  6
CONTINUOUS
 62
       3
100
AcDbLine
 10
36.46217111
 20
45.21633294
 30
0.0
 11
37.46912365
 21
46.85639116
 31
0.0
  0
LINE
  5
2AB
100
AcDbEntity
  8
レイヤー_1
  6
CONTINUOUS
 62
       3
100
AcDbLine
 10
34.23002918
 20
44.27692991
 30
0.0
 11
38.58984377
 21
41.91023593
 31
0.0
  0
LINE
  5
2AC
100
AcDbEntity
  8
レイヤー_1
  6
CONTINUOUS
 62
       3
100
AcDbLine
 10
52.04395481
 20
39.17407078
 30
0.0
 11
53.76633043
 21
38.23658211
 31
0.0
  0
LINE
  5
2AD
100
AcDbEntity
  8
レイヤー_1
  6
CONTINUOUS
 62
       3
100
AcDbLine
 10
53.76633043
 20
38.23658211
 30
0.0
 11
52.75883094
 21
36.5965239
 31
0.0
  0
LINE
  5
2AE
100
AcDbEntity
  8
レイヤー_1
  6
CONTINUOUS
 62
       3
100
AcDbLine
 10
52.75883094
 20
36.5965239
 30
0.0
 11
51.03700227
 21
37.53483301
 31
0.0
  0
LINE
  5
2AF
100
AcDbEntity
  8
レイヤー_1
  6
CONTINUOUS
 62
       3
100
AcDbLine
 10
51.03700227
 20
37.53483301
 30
0.0
 11
52.04395481
 21
39.17407078
 31
0.0
  0
LINE
  5
2B0
100
AcDbEntity
  8
レイヤー_1
  6
CONTINUOUS
 62
       3
100
AcDbLine
 10
49.90151425
 20
40.30873837
 30
0.0
 11
51.62388987
 21
39.41281862
 31
0.0
  0
LINE
  5
2B1
100
AcDbEntity
  8
レイヤー_1
  6
CONTINUOUS
 62
       3
100
AcDbLine
 10
51.62388987
 20
39.41281862
 30
0.0
 11
50.61693734
 21
37.77276041
 31
0.0
  0
LINE
  5
2B2
100
AcDbEntity
  8
レイヤー_1
  6
CONTINUOUS
 62
       3
100
AcDbLine
 10
50.61693734
 20
37.77276041
 30
0.0
 11
48.89510867
 21
38.66895363
 31
0.0
  0
LINE
  5
2B3
100
AcDbEntity
  8
レイヤー_1
  6
CONTINUOUS
 62
       3
100
AcDbLine
 10
48.89510867
 20
38.66895363
 30
0.0
 11
49.90151425
 21
40.30873837
 31
0.0
  0
LINE
  5
2B4
100
AcDbEntity
  8
レイヤー_1
  6
CONTINUOUS
 62
       3
100
AcDbLine
 10
39.30909558
 20
34.61324856
 30
0.0
 11
41.03092424
 21
33.67575989
 31
0.0
  0
LINE
  5
2B5
100
AcDbEntity
  8
レイヤー_1
  6
CONTINUOUS
 62
       3
100
AcDbLine
 10
41.03092424
 20
33.67575989
 30
0.0
 11
40.02451867
 21
32.03515472
 31
0.0
  0
LINE
  5
2B6
100
AcDbEntity
  8
レイヤー_1
  6
CONTINUOUS
 62
       3
100
AcDbLine
 10
40.02451867
 20
32.03515472
 30
0.0
 11
38.30214304
 21
32.97346383
 31
0.0
  0
LINE
  5
2B7
100
AcDbEntity
  8
レイヤー_1
  6
CONTINUOUS
 62
       3
100
AcDbLine
 10
38.30214304
 20
32.97346383
 30
0.0
 11
39.30909558
 21
34.61324856
 31
0.0
  0
LINE
  5
2B8
100
AcDbEntity
  8
レイヤー_1
  6
CONTINUOUS
 62
       3
100
AcDbLine
 10
37.16610806
 20
35.74764267
 30
0.0
 11
38.88903064
 21
34.85199641
 31
0.0
  0
LINE
  5
2B9
100
AcDbEntity
  8
レイヤー_1
  6
CONTINUOUS
 62
       3
100
AcDbLine
 10
38.88903064
 20
34.85199641
 30
0.0
 11
37.88207811
 21
33.21139123
 31
0.0
  0
LINE
  5
2BA
100
AcDbEntity
  8
レイヤー_1
  6
CONTINUOUS
 62
       3
100
AcDbLine
 10
37.88207811
 20
33.21139123
 30
0.0
 11
36.15915552
 21
34.10758446
 31
0.0
  0
LINE
  5
2BB
100
AcDbEntity
  8
レイヤー_1
  6
CONTINUOUS
 62
       3
100
AcDbLine
 10
36.15915552
 20
34.10758446
 30
0.0
 11
37.16610806
 21
35.74764267
 31
0.0
  0
LINE
  5
2BC
100
AcDbEntity
  8
レイヤー_1
  6
CONTINUOUS
 62
       3
100
AcDbLine
 10
32.5530512
 20
38.57925227
 30
0.0
 11
34.27433291
 21
37.6417636
 31
0.0
  0
LINE
  5
2BD
100
AcDbEntity
  8
レイヤー_1
  6
CONTINUOUS
 62
       3
100
AcDbLine
 10
34.27433291
 20
37.6417636
 30
0.0
 11
33.26792733
 21
36.00115842
 31
0.0
  0
LINE
  5
2BE
100
AcDbEntity
  8
レイヤー_1
  6
CONTINUOUS
 62
       3
100
AcDbLine
 10
33.26792733
 20
36.00115842
 30
0.0
 11
31.54500475
 21
36.93946753
 31
0.0
  0
LINE
  5
2BF
100
AcDbEntity
  8
レイヤー_1
  6
CONTINUOUS
 62
       3
100
AcDbLine
 10
31.54500475
 20
36.93946753
 30
0.0
 11
32.5530512
 21
38.57925227
 31
0.0
  0
LINE
  5
2C0
100
AcDbEntity
  8
レイヤー_1
  6
CONTINUOUS
 62
       3
100
AcDbLine
 10
30.41006368
 20
39.71364638
 30
0.0
 11
32.13298627
 21
38.81800011
 31
0.0
  0
LINE
  5
2C1
100
AcDbEntity
  8
レイヤー_1
  6
CONTINUOUS
 62
       3
100
AcDbLine
 10
32.13298627
 20
38.81800011
 30
0.0
 11
31.12493981
 21
37.17739494
 31
0.0
  0
LINE
  5
2C2
100
AcDbEntity
  8
レイヤー_1
  6
CONTINUOUS
 62
       3
100
AcDbLine
 10
31.12493981
 20
37.17739494
 30
0.0
 11
29.40365811
 21
38.07358816
 31
0.0
  0
LINE
  5
2C3
100
AcDbEntity
  8
レイヤー_1
  6
CONTINUOUS
 62
       3
100
AcDbLine
 10
29.40365811
 20
38.07358816
 30
0.0
 11
30.41006368
 21
39.71364638
 31
0.0
  0
LINE
  5
2C4
100
AcDbEntity
  8
レイヤー_1
  6
CONTINUOUS
 62
       3
100
AcDbLine
 10
15.65582979
 20
38.16192213
 30
0.0
 11
11.29929696
 21
40.52834263
 31
0.0
  0
LINE
  5
2C5
100
AcDbEntity
  8
レイヤー_1
  6
CONTINUOUS
 62
       3
100
AcDbLine
 10
11.29929696
 20
40.52834263
 30
0.0
 11
13.83937712
 21
44.66800599
 31
0.0
  0
LINE
  5
2C6
100
AcDbEntity
  8
レイヤー_1
  6
CONTINUOUS
 62
       3
100
AcDbLine
 10
13.83937712
 20
44.66800599
 30
0.0
 11
18.19700386
 21
42.30158549
 31
0.0
  0
LINE
  5
2C7
100
AcDbEntity
  8
レイヤー_1
  6
CONTINUOUS
 62
       3
100
AcDbLine
 10
18.19700386
 20
42.30158549
 30
0.0
 11
15.65582979
 21
38.16192213
 31
0.0
  0
LINE
  5
2C8
100
AcDbEntity
  8
レイヤー_1
  6
CONTINUOUS
 62
       3
100
AcDbLine
 10
18.46337316
 20
43.81611649
 30
0.0
 11
19.46977874
 21
45.45617471
 31
0.0
  0
LINE
  5
2C9
100
AcDbEntity
  8
レイヤー_1
  6
CONTINUOUS
 62
       3
100
AcDbLine
 10
16.95103
 20
44.60018301
 30
0.0
 11
17.95743558
 21
46.24024122
 31
0.0
  0
LINE
  5
2CA
100
AcDbEntity
  8
レイヤー_1
  6
CONTINUOUS
 62
       3
100
AcDbLine
 10
16.83671546
 20
46.85639116
 30
0.0
 11
20.70207861
 21
44.78450838
 31
0.0
  0
LINE
  5
2CB
100
AcDbEntity
  8
レイヤー_1
  6
CONTINUOUS
 62
       3
100
AcDbLine
 10
20.70207861
 20
44.78450838
 30
0.0
 11
19.69512607
 21
43.14472364
 31
0.0
  0
LINE
  5
2CC
100
AcDbEntity
  8
レイヤー_1
  6
CONTINUOUS
 62
       3
100
AcDbLine
 10
19.69512607
 20
43.14472364
 30
0.0
 11
15.83030988
 21
45.21633294
 31
0.0
  0
LINE
  5
2CD
100
AcDbEntity
  8
レイヤー_1
  6
CONTINUOUS
 62
       3
100
AcDbLine
 10
15.83030988
 20
45.21633294
 30
0.0
 11
16.83671546
 21
46.85639116
 31
0.0
  0
LINE
  5
2CE
100
AcDbEntity
  8
レイヤー_1
  6
CONTINUOUS
 62
       3
100
AcDbLine
 10
13.59762099
 20
44.27692991
 30
0.0
 11
17.95743558
 21
41.91023593
 31
0.0
  0
LINE
  5
2CF
100
AcDbEntity
  8
レイヤー_1
  6
CONTINUOUS
 62
       3
100
AcDbLine
 10
18.67668739
 20
34.61324856
 30
0.0
 11
20.39851605
 21
33.67575989
 31
0.0
  0
LINE
  5
2D0
100
AcDbEntity
  8
レイヤー_1
  6
CONTINUOUS
 62
       3
100
AcDbLine
 10
20.39851605
 20
33.67575989
 30
0.0
 11
19.39211048
 21
32.03515472
 31
0.0
  0
LINE
  5
2D1
100
AcDbEntity
  8
レイヤー_1
  6
CONTINUOUS
 62
       3
100
AcDbLine
 10
19.39211048
 20
32.03515472
 30
0.0
 11
17.66973485
 21
32.97346383
 31
0.0
  0
LINE
  5
2D2
100
AcDbEntity
  8
レイヤー_1
  6
CONTINUOUS
 62
       3
100
AcDbLine
 10
17.66973485
 20
32.97346383
 30
0.0
 11
18.67668739
 21
34.61324856
 31
0.0
  0
LINE
  5
2D3
100
AcDbEntity
  8
レイヤー_1
  6
CONTINUOUS
 62
       3
100
AcDbLine
 10
16.53369987
 20
35.74764267
 30
0.0
 11
18.25662245
 21
34.85199641
 31
0.0
  0
LINE
  5
2D4
100
AcDbEntity
  8
レイヤー_1
  6
CONTINUOUS
 62
       3
100
AcDbLine
 10
18.25662245
 20
34.85199641
 30
0.0
 11
17.24966992
 21
33.21139123
 31
0.0
  0
LINE
  5
2D5
100
AcDbEntity
  8
レイヤー_1
  6
CONTINUOUS
 62
       3
100
AcDbLine
 10
17.24966992
 20
33.21139123
 30
0.0
 11
15.52729429
 21
34.10758446
 31
0.0
  0
LINE
  5
2D6
100
AcDbEntity
  8
レイヤー_1
  6
CONTINUOUS
 62
       3
100
AcDbLine
 10
15.52729429
 20
34.10758446
 30
0.0
 11
16.53369987
 21
35.74764267
 31
0.0
  0
LINE
  5
2D7
100
AcDbEntity
  8
レイヤー_1
  6
CONTINUOUS
 62
       3
100
AcDbLine
 10
11.92009605
 20
38.57925227
 30
0.0
 11
13.64192472
 21
37.6417636
 31
0.0
  0
LINE
  5
2D8
100
AcDbEntity
  8
レイヤー_1
  6
CONTINUOUS
 62
       3
100
AcDbLine
 10
13.64192472
 20
37.6417636
 30
0.0
 11
12.63551914
 21
36.00115842
 31
0.0
  0
LINE
  5
2D9
100
AcDbEntity
  8
レイヤー_1
  6
CONTINUOUS
 62
       3
100
AcDbLine
 10
12.63551914
 20
36.00115842
 30
0.0
 11
10.91259656
 21
36.93946753
 31
0.0
  0
LINE
  5
2DA
100
AcDbEntity
  8
レイヤー_1
  6
CONTINUOUS
 62
       3
100
AcDbLine
 10
10.91259656
 20
36.93946753
 30
0.0
 11
11.92009605
 21
38.57925227
 31
0.0
  0
LINE
  5
2DB
100
AcDbEntity
  8
レイヤー_1
  6
CONTINUOUS
 62
       3
100
AcDbLine
 10
9.77738201
 20
39.71364638
 30
0.0
 11
11.50003112
 21
38.81800011
 31
0.0
  0
LINE
  5
2DC
100
AcDbEntity
  8
レイヤー_1
  6
CONTINUOUS
 62
       3
100
AcDbLine
 10
11.50003112
 20
38.81800011
 30
0.0
 11
10.4928051
 21
37.17739494
 31
0.0
  0
LINE
  5
2DD
100
AcDbEntity
  8
レイヤー_1
  6
CONTINUOUS
 62
       3
100
AcDbLine
 10
10.4928051
 20
37.17739494
 30
0.0
 11
8.77097644
 21
38.07358816
 31
0.0
  0
LINE
  5
2DE
100
AcDbEntity
  8
レイヤー_1
  6
CONTINUOUS
 62
       3
100
AcDbLine
 10
8.77097644
 20
38.07358816
 30
0.0
 11
9.77738201
 21
39.71364638
 31
0.0
  0
LINE
  5
2DF
100
AcDbEntity
  8
レイヤー_1
  6
CONTINUOUS
 62
       3
100
AcDbLine
 10
-4.97466405
 20
38.16192213
 30
0.0
 11
-9.33147035
 21
40.52834263
 31
0.0
  0
LINE
  5
2E0
100
AcDbEntity
  8
レイヤー_1
  6
CONTINUOUS
 62
       3
100
AcDbLine
 10
-9.33147035
 20
40.52834263
 30
0.0
 11
-6.79166367
 21
44.66800599
 31
0.0
  0
LINE
  5
2E1
100
AcDbEntity
  8
レイヤー_1
  6
CONTINUOUS
 62
       3
100
AcDbLine
 10
-6.79166367
 20
44.66800599
 30
0.0
 11
-2.43348997
 21
42.30158549
 31
0.0
  0
LINE
  5
2E2
100
AcDbEntity
  8
レイヤー_1
  6
CONTINUOUS
 62
       3
100
AcDbLine
 10
-2.43348997
 20
42.30158549
 30
0.0
 11
-4.97466405
 21
38.16192213
 31
0.0
  0
LINE
  5
2E3
100
AcDbEntity
  8
レイヤー_1
  6
CONTINUOUS
 62
       3
100
AcDbLine
 10
-2.16739415
 20
43.81611649
 30
0.0
 11
-1.16044162
 21
45.45617471
 31
0.0
  0
LINE
  5
2E4
100
AcDbEntity
  8
レイヤー_1
  6
CONTINUOUS
 62
       3
100
AcDbLine
 10
-3.67973731
 20
44.60018301
 30
0.0
 11
-2.67333173
 21
46.24024122
 31
0.0
  0
LINE
  5
2E5
100
AcDbEntity
  8
レイヤー_1
  6
CONTINUOUS
 62
       3
100
AcDbLine
 10
-3.79350489
 20
46.85639116
 30
0.0
 11
0.07131129
 21
44.78450838
 31
0.0
  0
LINE
  5
2E6
100
AcDbEntity
  8
レイヤー_1
  6
CONTINUOUS
 62
       3
100
AcDbLine
 10
0.07131129
 20
44.78450838
 30
0.0
 11
-0.93536776
 21
43.14472364
 31
0.0
  0
LINE
  5
2E7
100
AcDbEntity
  8
レイヤー_1
  6
CONTINUOUS
 62
       3
100
AcDbLine
 10
-0.93536776
 20
43.14472364
 30
0.0
 11
-4.79991047
 21
45.21633294
 31
0.0
  0
LINE
  5
2E8
100
AcDbEntity
  8
レイヤー_1
  6
CONTINUOUS
 62
       3
100
AcDbLine
 10
-4.79991047
 20
45.21633294
 30
0.0
 11
-3.79350489
 21
46.85639116
 31
0.0
  0
LINE
  5
2E9
100
AcDbEntity
  8
レイヤー_1
  6
CONTINUOUS
 62
       3
100
AcDbLine
 10
-7.03232588
 20
44.27692991
 30
0.0
 11
-2.67333173
 21
41.91023593
 31
0.0
  0
LINE
  5
2EA
100
AcDbEntity
  8
レイヤー_1
  6
CONTINUOUS
 62
       3
100
AcDbLine
 10
58.6320826
 20
-14.72086208
 30
0.0
 11
62.91040021
 21
-14.72086208
 31
0.0
  0
LINE
  5
2EB
100
AcDbEntity
  8
レイヤー_1
  6
CONTINUOUS
 62
       3
100
AcDbLine
 10
62.91040021
 20
-14.72086208
 30
0.0
 11
62.91040021
 21
18.52552728
 31
0.0
  0
LINE
  5
2EC
100
AcDbEntity
  8
レイヤー_1
  6
CONTINUOUS
 62
       3
100
AcDbLine
 10
62.91040021
 20
18.52552728
 30
0.0
 11
63.91735274
 21
18.52552728
 31
0.0
  0
LINE
  5
2ED
100
AcDbEntity
  8
レイヤー_1
  6
CONTINUOUS
 62
       3
100
AcDbLine
 10
-62.68436629
 20
-26.33035203
 30
0.0
 11
-62.68436629
 21
-26.4416583
 31
0.0
  0
LINE
  5
2EE
100
AcDbEntity
  8
レイヤー_1
  6
CONTINUOUS
 62
       3
100
AcDbLine
 10
-62.68436629
 20
-26.4416583
 30
0.0
 11
-62.68436629
 21
-26.61805275
 31
0.0
  0
LINE
  5
2EF
100
AcDbEntity
  8
レイヤー_1
  6
CONTINUOUS
 62
       3
100
AcDbLine
 10
-62.68436629
 20
-26.61805275
 30
0.0
 11
-62.68436629
 21
-26.804019
 31
0.0
  0
LINE
  5
2F0
100
AcDbEntity
  8
レイヤー_1
  6
CONTINUOUS
 62
       3
100
AcDbLine
 10
-61.87951531
 20
-26.804019
 30
0.0
 11
-62.68436629
 21
-26.804019
 31
0.0
  0
LINE
  5
2F1
100
AcDbEntity
  8
レイヤー_1
  6
CONTINUOUS
 62
       3
100
AcDbLine
 10
-62.68436629
 20
-26.804019
 30
0.0
 11
-62.68436629
 21
-26.98889133
 31
0.0
  0
LINE
  5
2F2
100
AcDbEntity
  8
レイヤー_1
  6
CONTINUOUS
 62
       3
100
AcDbLine
 10
-62.68436629
 20
-26.98889133
 30
0.0
 11
-62.68436629
 21
-27.16692666
 31
0.0
  0
LINE
  5
2F3
100
AcDbEntity
  8
レイヤー_1
  6
CONTINUOUS
 62
       3
100
AcDbLine
 10
-62.68436629
 20
-27.16692666
 30
0.0
 11
-62.68436629
 21
-27.32882669
 31
0.0
  0
LINE
  5
2F4
100
AcDbEntity
  8
レイヤー_1
  6
CONTINUOUS
 62
       3
100
AcDbLine
 10
-62.68436629
 20
-27.32882669
 30
0.0
 11
-62.68436629
 21
-27.47322401
 31
0.0
  0
LINE
  5
2F5
100
AcDbEntity
  8
レイヤー_1
  6
CONTINUOUS
 62
       3
100
AcDbLine
 10
-62.68436629
 20
-27.47322401
 30
0.0
 11
-62.68436629
 21
-27.59054684
 31
0.0
  0
LINE
  5
2F6
100
AcDbEntity
  8
レイヤー_1
  6
CONTINUOUS
 62
       3
100
AcDbLine
 10
-62.68436629
 20
-27.59054684
 30
0.0
 11
-62.68436629
 21
-27.67723992
 31
0.0
  0
LINE
  5
2F7
100
AcDbEntity
  8
レイヤー_1
  6
CONTINUOUS
 62
       3
100
AcDbLine
 10
-62.68436629
 20
-27.67723992
 30
0.0
 11
-62.68436629
 21
-27.7316624
 31
0.0
  0
LINE
  5
2F8
100
AcDbEntity
  8
レイヤー_1
  6
CONTINUOUS
 62
       3
100
AcDbLine
 10
-62.68436629
 20
-27.7316624
 30
0.0
 11
-62.68436629
 21
-27.74943859
 31
0.0
  0
LINE
  5
2F9
100
AcDbEntity
  8
レイヤー_1
  6
CONTINUOUS
 62
       3
100
AcDbLine
 10
-64.79754452
 20
44.07537532
 30
0.0
 11
-64.42506506
 21
44.0458395
 31
0.0
  0
LINE
  5
2FA
100
AcDbEntity
  8
レイヤー_1
  6
CONTINUOUS
 62
       3
100
AcDbLine
 10
-64.42506506
 20
44.0458395
 30
0.0
 11
-64.06598612
 21
43.9566851
 31
0.0
  0
LINE
  5
2FB
100
AcDbEntity
  8
レイヤー_1
  6
CONTINUOUS
 62
       3
100
AcDbLine
 10
-64.06598612
 20
43.9566851
 30
0.0
 11
-63.73507559
 21
43.81338169
 31
0.0
  0
LINE
  5
2FC
100
AcDbEntity
  8
レイヤー_1
  6
CONTINUOUS
 62
       3
100
AcDbLine
 10
-63.73507559
 20
43.81338169
 30
0.0
 11
-63.44546051
 21
43.62003149
 31
0.0
  0
LINE
  5
2FD
100
AcDbEntity
  8
レイヤー_1
  6
CONTINUOUS
 62
       3
100
AcDbLine
 10
-63.44546051
 20
43.62003149
 30
0.0
 11
-63.20808006
 21
43.38374497
 31
0.0
  0
LINE
  5
2FE
100
AcDbEntity
  8
レイヤー_1
  6
CONTINUOUS
 62
       3
100
AcDbLine
 10
-63.20808006
 20
43.38374497
 30
0.0
 11
-63.03086517
 21
43.11491435
 31
0.0
  0
LINE
  5
2FF
100
AcDbEntity
  8
レイヤー_1
  6
CONTINUOUS
 62
       3
100
AcDbLine
 10
-63.03086517
 20
43.11491435
 30
0.0
 11
-62.9222937
 21
42.82201751
 31
0.0
  0
LINE
  5
300
100
AcDbEntity
  8
レイヤー_1
  6
CONTINUOUS
 62
       3
100
AcDbLine
 10
-62.9222937
 20
42.82201751
 30
0.0
 11
-62.88592089
 21
42.517908
 31
0.0
  0
LINE
  5
301
100
AcDbEntity
  8
レイヤー_1
  6
CONTINUOUS
 62
       3
100
AcDbLine
 10
-62.88592089
 20
42.517908
 30
0.0
 11
-62.9222937
 21
42.2148924
 31
0.0
  0
LINE
  5
302
100
AcDbEntity
  8
レイヤー_1
  6
CONTINUOUS
 62
       3
100
AcDbLine
 10
-62.9222937
 20
42.2148924
 30
0.0
 11
-63.03086517
 21
41.92199557
 31
0.0
  0
LINE
  5
303
100
AcDbEntity
  8
レイヤー_1
  6
CONTINUOUS
 62
       3
100
AcDbLine
 10
-63.03086517
 20
41.92199557
 30
0.0
 11
-63.20808006
 21
41.65261799
 31
0.0
  0
LINE
  5
304
100
AcDbEntity
  8
レイヤー_1
  6
CONTINUOUS
 62
       3
100
AcDbLine
 10
-63.20808006
 20
41.65261799
 30
0.0
 11
-63.44546051
 21
41.41742538
 31
0.0
  0
LINE
  5
305
100
AcDbEntity
  8
レイヤー_1
  6
CONTINUOUS
 62
       3
100
AcDbLine
 10
-63.44546051
 20
41.41742538
 30
0.0
 11
-63.73507559
 21
41.22352822
 31
0.0
  0
LINE
  5
306
100
AcDbEntity
  8
レイヤー_1
  6
CONTINUOUS
 62
       3
100
AcDbLine
 10
-63.73507559
 20
41.22352822
 30
0.0
 11
-64.06598612
 21
41.08022482
 31
0.0
  0
LINE
  5
307
100
AcDbEntity
  8
レイヤー_1
  6
CONTINUOUS
 62
       3
100
AcDbLine
 10
-64.06598612
 20
41.08022482
 30
0.0
 11
-64.42506506
 21
40.99107041
 31
0.0
  0
LINE
  5
308
100
AcDbEntity
  8
レイヤー_1
  6
CONTINUOUS
 62
       3
100
AcDbLine
 10
-64.42506506
 20
40.99107041
 30
0.0
 11
-64.79754452
 21
40.96126111
 31
0.0
  0
LINE
  5
309
100
AcDbEntity
  8
レイヤー_1
  6
CONTINUOUS
 62
       3
100
AcDbLine
 10
-61.87951531
 20
-44.88161837
 30
0.0
 11
-64.79754452
 21
-44.88161837
 31
0.0
  0
LINE
  5
30A
100
AcDbEntity
  8
レイヤー_1
  6
CONTINUOUS
 62
       3
100
AcDbLine
 10
-64.79754452
 20
-41.78442067
 30
0.0
 11
-64.42506506
 21
-41.75324397
 31
0.0
  0
LINE
  5
30B
100
AcDbEntity
  8
レイヤー_1
  6
CONTINUOUS
 62
       3
100
AcDbLine
 10
-64.42506506
 20
-41.75324397
 30
0.0
 11
-64.06598612
 21
-41.66573045
 31
0.0
  0
LINE
  5
30C
100
AcDbEntity
  8
レイヤー_1
  6
CONTINUOUS
 62
       3
100
AcDbLine
 10
-64.06598612
 20
-41.66573045
 30
0.0
 11
-63.73507559
 21
-41.52023921
 31
0.0
  0
LINE
  5
30D
100
AcDbEntity
  8
レイヤー_1
  6
CONTINUOUS
 62
       3
100
AcDbLine
 10
-63.73507559
 20
-41.52023921
 30
0.0
 11
-63.44546051
 21
-41.32770944
 31
0.0
  0
LINE
  5
30E
100
AcDbEntity
  8
レイヤー_1
  6
CONTINUOUS
 62
       3
100
AcDbLine
 10
-63.44546051
 20
-41.32770944
 30
0.0
 11
-63.20808006
 21
-41.090329
 31
0.0
  0
LINE
  5
30F
100
AcDbEntity
  8
レイヤー_1
  6
CONTINUOUS
 62
       3
100
AcDbLine
 10
-63.20808006
 20
-41.090329
 30
0.0
 11
-63.03086517
 21
-40.82231882
 31
0.0
  0
LINE
  5
310
100
AcDbEntity
  8
レイヤー_1
  6
CONTINUOUS
 62
       3
100
AcDbLine
 10
-63.03086517
 20
-40.82231882
 30
0.0
 11
-62.9222937
 21
-40.5291485
 31
0.0
  0
LINE
  5
311
100
AcDbEntity
  8
レイヤー_1
  6
CONTINUOUS
 62
       3
100
AcDbLine
 10
-62.9222937
 20
-40.5291485
 30
0.0
 11
-62.88592089
 21
-40.22503899
 31
0.0
  0
LINE
  5
312
100
AcDbEntity
  8
レイヤー_1
  6
CONTINUOUS
 62
       3
100
AcDbLine
 10
-62.88592089
 20
-40.22503899
 30
0.0
 11
-62.9222937
 21
-39.92147644
 31
0.0
  0
LINE
  5
313
100
AcDbEntity
  8
レイヤー_1
  6
CONTINUOUS
 62
       3
100
AcDbLine
 10
-62.9222937
 20
-39.92147644
 30
0.0
 11
-63.03086517
 21
-39.62940004
 31
0.0
  0
LINE
  5
314
100
AcDbEntity
  8
レイヤー_1
  6
CONTINUOUS
 62
       3
100
AcDbLine
 10
-63.03086517
 20
-39.62940004
 30
0.0
 11
-63.20808006
 21
-39.36138986
 31
0.0
  0
LINE
  5
315
100
AcDbEntity
  8
レイヤー_1
  6
CONTINUOUS
 62
       3
100
AcDbLine
 10
-63.20808006
 20
-39.36138986
 30
0.0
 11
-63.44546051
 21
-39.12400941
 31
0.0
  0
LINE
  5
316
100
AcDbEntity
  8
レイヤー_1
  6
CONTINUOUS
 62
       3
100
AcDbLine
 10
-63.44546051
 20
-39.12400941
 30
0.0
 11
-63.73507559
 21
-38.93038573
 31
0.0
  0
LINE
  5
317
100
AcDbEntity
  8
レイヤー_1
  6
CONTINUOUS
 62
       3
100
AcDbLine
 10
-63.73507559
 20
-38.93038573
 30
0.0
 11
-64.06598612
 21
-38.78762929
 31
0.0
  0
LINE
  5
318
100
AcDbEntity
  8
レイヤー_1
  6
CONTINUOUS
 62
       3
100
AcDbLine
 10
-64.06598612
 20
-38.78762929
 30
0.0
 11
-64.42506506
 21
-38.69792792
 31
0.0
  0
LINE
  5
319
100
AcDbEntity
  8
レイヤー_1
  6
CONTINUOUS
 62
       3
100
AcDbLine
 10
-64.42506506
 20
-38.69792792
 30
0.0
 11
-64.79754452
 21
-38.66784515
 31
0.0
  0
LINE
  5
31A
100
AcDbEntity
  8
レイヤー_1
  6
CONTINUOUS
 62
       3
100
AcDbLine
 10
-63.1872956
 20
25.11693683
 30
0.0
 11
-66.4083404
 21
25.11693683
 31
0.0
  0
LINE
  5
31B
100
AcDbEntity
  8
レイヤー_1
  6
CONTINUOUS
 62
       3
100
AcDbLine
 10
-61.87951531
 20
24.39057455
 30
0.0
 11
-63.1872956
 21
24.39057455
 31
0.0
  0
LINE
  5
31C
100
AcDbEntity
  8
レイヤー_1
  6
CONTINUOUS
 62
       3
100
AcDbLine
 10
-63.1872956
 20
24.39057455
 30
0.0
 11
-63.1872956
 21
27.02144999
 31
0.0
  0
LINE
  5
31D
100
AcDbEntity
  8
レイヤー_1
  6
CONTINUOUS
 62
       3
100
AcDbLine
 10
-63.1872956
 20
27.02144999
 30
0.0
 11
-66.4083404
 21
27.02144999
 31
0.0
  0
LINE
  5
31E
100
AcDbEntity
  8
レイヤー_1
  6
CONTINUOUS
 62
       3
100
AcDbLine
 10
-66.4083404
 20
27.02144999
 30
0.0
 11
-66.4083404
 21
24.39057455
 31
0.0
  0
LINE
  5
31F
100
AcDbEntity
  8
レイヤー_1
  6
CONTINUOUS
 62
       3
100
AcDbLine
 10
-66.4083404
 20
24.39057455
 30
0.0
 11
-67.71666764
 21
24.39057455
 31
0.0
  0
LINE
  5
320
100
AcDbEntity
  8
レイヤー_1
  6
CONTINUOUS
 62
       3
100
AcDbLine
 10
-61.87951531
 20
-27.74943859
 30
0.0
 11
-64.79754452
 21
-27.74943859
 31
0.0
  0
LINE
  5
321
100
AcDbEntity
  8
レイヤー_1
  6
CONTINUOUS
 62
       3
100
AcDbLine
 10
-63.16815201
 20
22.56427661
 30
0.0
 11
-61.87951531
 21
22.56427661
 31
0.0
  0
LINE
  5
322
100
AcDbEntity
  8
レイヤー_1
  6
CONTINUOUS
 62
       3
100
AcDbLine
 10
-67.71666764
 20
22.56427661
 30
0.0
 11
-66.40259732
 21
22.56427661
 31
0.0
  0
LINE
  5
323
100
AcDbEntity
  8
レイヤー_1
  6
CONTINUOUS
 62
       3
100
AcDbLine
 10
-67.71666764
 20
21.54419705
 30
0.0
 11
-61.87951531
 21
21.54419705
 31
0.0
  0
LINE
  5
324
100
AcDbEntity
  8
レイヤー_1
  6
CONTINUOUS
 62
       3
100
AcDbLine
 10
-61.87951531
 20
-25.85641158
 30
0.0
 11
-62.68436629
 21
-26.33035203
 31
0.0
  0
LINE
  5
325
100
AcDbEntity
  8
レイヤー_1
  6
CONTINUOUS
 62
       3
100
AcDbLine
 10
-66.91181666
 20
-26.33035203
 30
0.0
 11
-62.68436629
 21
-26.33035203
 31
0.0
  0
LINE
  5
326
100
AcDbEntity
  8
レイヤー_1
  6
CONTINUOUS
 62
       3
100
AcDbLine
 10
-66.91181666
 20
-26.33035203
 30
0.0
 11
-67.71666764
 21
-25.85641158
 31
0.0
  0
LINE
  5
327
100
AcDbEntity
  8
レイヤー_1
  6
CONTINUOUS
 62
       3
100
AcDbLine
 10
-64.19424813
 20
-46.44482877
 30
0.0
 11
-64.19424813
 21
-46.43826526
 31
0.0
  0
LINE
  5
328
100
AcDbEntity
  8
レイヤー_1
  6
CONTINUOUS
 62
       3
100
AcDbLine
 10
-64.19424813
 20
-46.43826526
 30
0.0
 11
-64.19424813
 21
-46.42841998
 31
0.0
  0
LINE
  5
329
100
AcDbEntity
  8
レイヤー_1
  6
CONTINUOUS
 62
       3
100
AcDbLine
 10
-64.19424813
 20
-46.42841998
 30
0.0
 11
-64.19424813
 21
-46.41255816
 31
0.0
  0
LINE
  5
32A
100
AcDbEntity
  8
レイヤー_1
  6
CONTINUOUS
 62
       3
100
AcDbLine
 10
-64.19424813
 20
-46.41255816
 30
0.0
 11
-64.19424813
 21
-46.38849194
 31
0.0
  0
LINE
  5
32B
100
AcDbEntity
  8
レイヤー_1
  6
CONTINUOUS
 62
       3
100
AcDbLine
 10
-64.19424813
 20
-46.38849194
 30
0.0
 11
-64.19424813
 21
-46.35950308
 31
0.0
  0
LINE
  5
32C
100
AcDbEntity
  8
レイヤー_1
  6
CONTINUOUS
 62
       3
100
AcDbLine
 10
-64.19424813
 20
-46.35950308
 30
0.0
 11
-64.19424813
 21
-46.32668551
 31
0.0
  0
LINE
  5
32D
100
AcDbEntity
  8
レイヤー_1
  6
CONTINUOUS
 62
       3
100
AcDbLine
 10
-64.19424813
 20
-46.32668551
 30
0.0
 11
-64.19424813
 21
-46.29058618
 31
0.0
  0
LINE
  5
32E
100
AcDbEntity
  8
レイヤー_1
  6
CONTINUOUS
 62
       3
100
AcDbLine
 10
-64.19424813
 20
-46.29058618
 30
0.0
 11
-64.19424813
 21
-46.25448685
 31
0.0
  0
LINE
  5
32F
100
AcDbEntity
  8
レイヤー_1
  6
CONTINUOUS
 62
       3
100
AcDbLine
 10
-64.19424813
 20
-46.44482877
 30
0.0
 11
-63.1872956
 21
-46.44482877
 31
0.0
  0
LINE
  5
330
100
AcDbEntity
  8
レイヤー_1
  6
CONTINUOUS
 62
       3
100
AcDbLine
 10
-63.1872956
 20
-46.44482877
 30
0.0
 11
-63.1872956
 21
-46.43826526
 31
0.0
  0
LINE
  5
331
100
AcDbEntity
  8
レイヤー_1
  6
CONTINUOUS
 62
       3
100
AcDbLine
 10
-63.1872956
 20
-46.43826526
 30
0.0
 11
-63.1872956
 21
-46.42841998
 31
0.0
  0
LINE
  5
332
100
AcDbEntity
  8
レイヤー_1
  6
CONTINUOUS
 62
       3
100
AcDbLine
 10
-63.1872956
 20
-46.42841998
 30
0.0
 11
-63.1872956
 21
-46.41255816
 31
0.0
  0
LINE
  5
333
100
AcDbEntity
  8
レイヤー_1
  6
CONTINUOUS
 62
       3
100
AcDbLine
 10
-63.1872956
 20
-46.41255816
 30
0.0
 11
-63.1872956
 21
-46.38849194
 31
0.0
  0
LINE
  5
334
100
AcDbEntity
  8
レイヤー_1
  6
CONTINUOUS
 62
       3
100
AcDbLine
 10
-63.1872956
 20
-46.38849194
 30
0.0
 11
-63.1872956
 21
-46.35950308
 31
0.0
  0
LINE
  5
335
100
AcDbEntity
  8
レイヤー_1
  6
CONTINUOUS
 62
       3
100
AcDbLine
 10
-63.1872956
 20
-46.35950308
 30
0.0
 11
-63.1872956
 21
-46.32668551
 31
0.0
  0
LINE
  5
336
100
AcDbEntity
  8
レイヤー_1
  6
CONTINUOUS
 62
       3
100
AcDbLine
 10
-63.1872956
 20
-46.32668551
 30
0.0
 11
-63.1872956
 21
-46.29058618
 31
0.0
  0
LINE
  5
337
100
AcDbEntity
  8
レイヤー_1
  6
CONTINUOUS
 62
       3
100
AcDbLine
 10
-63.1872956
 20
-46.29058618
 30
0.0
 11
-63.1872956
 21
-46.25448685
 31
0.0
  0
LINE
  5
338
100
AcDbEntity
  8
レイヤー_1
  6
CONTINUOUS
 62
       3
100
AcDbLine
 10
-66.4083404
 20
-45.78136684
 30
0.0
 11
-66.4083404
 21
-46.25448685
 31
0.0
  0
LINE
  5
339
100
AcDbEntity
  8
レイヤー_1
  6
CONTINUOUS
 62
       3
100
AcDbLine
 10
-64.19424813
 20
-45.78136684
 30
0.0
 11
-64.19424813
 21
-46.25448685
 31
0.0
  0
LINE
  5
33A
100
AcDbEntity
  8
レイヤー_1
  6
CONTINUOUS
 62
       3
100
AcDbLine
 10
-65.40248178
 20
-45.78136684
 30
0.0
 11
-65.40248178
 21
-46.25448685
 31
0.0
  0
LINE
  5
33B
100
AcDbEntity
  8
レイヤー_1
  6
CONTINUOUS
 62
       3
100
AcDbLine
 10
-63.1872956
 20
-45.78136684
 30
0.0
 11
-63.1872956
 21
-46.25448685
 31
0.0
  0
LINE
  5
33C
100
AcDbEntity
  8
レイヤー_1
  6
CONTINUOUS
 62
       3
100
AcDbLine
 10
-63.1872956
 20
-46.25448685
 30
0.0
 11
-64.19424813
 21
-46.25448685
 31
0.0
  0
LINE
  5
33D
100
AcDbEntity
  8
レイヤー_1
  6
CONTINUOUS
 62
       3
100
AcDbLine
 10
-65.40248178
 20
-46.25448685
 30
0.0
 11
-66.4083404
 21
-46.25448685
 31
0.0
  0
LINE
  5
33E
100
AcDbEntity
  8
レイヤー_1
  6
CONTINUOUS
 62
       3
100
AcDbLine
 10
-66.4083404
 20
-46.25448685
 30
0.0
 11
-66.4083404
 21
-46.29058618
 31
0.0
  0
LINE
  5
33F
100
AcDbEntity
  8
レイヤー_1
  6
CONTINUOUS
 62
       3
100
AcDbLine
 10
-66.4083404
 20
-46.29058618
 30
0.0
 11
-66.4083404
 21
-46.32668551
 31
0.0
  0
LINE
  5
340
100
AcDbEntity
  8
レイヤー_1
  6
CONTINUOUS
 62
       3
100
AcDbLine
 10
-66.4083404
 20
-46.32668551
 30
0.0
 11
-66.4083404
 21
-46.35950308
 31
0.0
  0
LINE
  5
341
100
AcDbEntity
  8
レイヤー_1
  6
CONTINUOUS
 62
       3
100
AcDbLine
 10
-66.4083404
 20
-46.35950308
 30
0.0
 11
-66.4083404
 21
-46.38849194
 31
0.0
  0
LINE
  5
342
100
AcDbEntity
  8
レイヤー_1
  6
CONTINUOUS
 62
       3
100
AcDbLine
 10
-66.4083404
 20
-46.38849194
 30
0.0
 11
-66.4083404
 21
-46.41255816
 31
0.0
  0
LINE
  5
343
100
AcDbEntity
  8
レイヤー_1
  6
CONTINUOUS
 62
       3
100
AcDbLine
 10
-66.4083404
 20
-46.41255816
 30
0.0
 11
-66.4083404
 21
-46.42841998
 31
0.0
  0
LINE
  5
344
100
AcDbEntity
  8
レイヤー_1
  6
CONTINUOUS
 62
       3
100
AcDbLine
 10
-66.4083404
 20
-46.42841998
 30
0.0
 11
-66.4083404
 21
-46.43826526
 31
0.0
  0
LINE
  5
345
100
AcDbEntity
  8
レイヤー_1
  6
CONTINUOUS
 62
       3
100
AcDbLine
 10
-66.4083404
 20
-46.43826526
 30
0.0
 11
-66.4083404
 21
-46.44482877
 31
0.0
  0
LINE
  5
346
100
AcDbEntity
  8
レイヤー_1
  6
CONTINUOUS
 62
       3
100
AcDbLine
 10
-66.4083404
 20
-46.44482877
 30
0.0
 11
-65.40248178
 21
-46.44482877
 31
0.0
  0
LINE
  5
347
100
AcDbEntity
  8
レイヤー_1
  6
CONTINUOUS
 62
       3
100
AcDbLine
 10
-65.40248178
 20
-46.44482877
 30
0.0
 11
-65.40248178
 21
-46.43826526
 31
0.0
  0
LINE
  5
348
100
AcDbEntity
  8
レイヤー_1
  6
CONTINUOUS
 62
       3
100
AcDbLine
 10
-65.40248178
 20
-46.43826526
 30
0.0
 11
-65.40248178
 21
-46.42841998
 31
0.0
  0
LINE
  5
349
100
AcDbEntity
  8
レイヤー_1
  6
CONTINUOUS
 62
       3
100
AcDbLine
 10
-65.40248178
 20
-46.42841998
 30
0.0
 11
-65.40248178
 21
-46.41255816
 31
0.0
  0
LINE
  5
34A
100
AcDbEntity
  8
レイヤー_1
  6
CONTINUOUS
 62
       3
100
AcDbLine
 10
-65.40248178
 20
-46.41255816
 30
0.0
 11
-65.40248178
 21
-46.38849194
 31
0.0
  0
LINE
  5
34B
100
AcDbEntity
  8
レイヤー_1
  6
CONTINUOUS
 62
       3
100
AcDbLine
 10
-65.40248178
 20
-46.38849194
 30
0.0
 11
-65.40248178
 21
-46.35950308
 31
0.0
  0
LINE
  5
34C
100
AcDbEntity
  8
レイヤー_1
  6
CONTINUOUS
 62
       3
100
AcDbLine
 10
-65.40248178
 20
-46.35950308
 30
0.0
 11
-65.40248178
 21
-46.32668551
 31
0.0
  0
LINE
  5
34D
100
AcDbEntity
  8
レイヤー_1
  6
CONTINUOUS
 62
       3
100
AcDbLine
 10
-65.40248178
 20
-46.32668551
 30
0.0
 11
-65.40248178
 21
-46.29058618
 31
0.0
  0
LINE
  5
34E
100
AcDbEntity
  8
レイヤー_1
  6
CONTINUOUS
 62
       3
100
AcDbLine
 10
-65.40248178
 20
-46.29058618
 30
0.0
 11
-65.40248178
 21
-46.25448685
 31
0.0
  0
LINE
  5
34F
100
AcDbEntity
  8
レイヤー_1
  6
CONTINUOUS
 62
       3
100
AcDbLine
 10
-66.91181666
 20
-27.74943859
 30
0.0
 11
-66.91181666
 21
-27.7316624
 31
0.0
  0
LINE
  5
350
100
AcDbEntity
  8
レイヤー_1
  6
CONTINUOUS
 62
       3
100
AcDbLine
 10
-66.91181666
 20
-27.7316624
 30
0.0
 11
-66.91181666
 21
-27.67723992
 31
0.0
  0
LINE
  5
351
100
AcDbEntity
  8
レイヤー_1
  6
CONTINUOUS
 62
       3
100
AcDbLine
 10
-66.91181666
 20
-27.67723992
 30
0.0
 11
-66.91181666
 21
-27.59054684
 31
0.0
  0
LINE
  5
352
100
AcDbEntity
  8
レイヤー_1
  6
CONTINUOUS
 62
       3
100
AcDbLine
 10
-66.91181666
 20
-27.59054684
 30
0.0
 11
-66.91181666
 21
-27.47322401
 31
0.0
  0
LINE
  5
353
100
AcDbEntity
  8
レイヤー_1
  6
CONTINUOUS
 62
       3
100
AcDbLine
 10
-66.91181666
 20
-27.47322401
 30
0.0
 11
-66.91181666
 21
-27.32882669
 31
0.0
  0
LINE
  5
354
100
AcDbEntity
  8
レイヤー_1
  6
CONTINUOUS
 62
       3
100
AcDbLine
 10
-66.91181666
 20
-27.32882669
 30
0.0
 11
-66.91181666
 21
-27.16692666
 31
0.0
  0
LINE
  5
355
100
AcDbEntity
  8
レイヤー_1
  6
CONTINUOUS
 62
       3
100
AcDbLine
 10
-66.91181666
 20
-27.16692666
 30
0.0
 11
-66.91181666
 21
-26.98889133
 31
0.0
  0
LINE
  5
356
100
AcDbEntity
  8
レイヤー_1
  6
CONTINUOUS
 62
       3
100
AcDbLine
 10
-66.91181666
 20
-26.98889133
 30
0.0
 11
-66.91181666
 21
-26.804019
 31
0.0
  0
LINE
  5
357
100
AcDbEntity
  8
レイヤー_1
  6
CONTINUOUS
 62
       3
100
AcDbLine
 10
-66.91181666
 20
-26.804019
 30
0.0
 11
-66.91181666
 21
-26.61805275
 31
0.0
  0
LINE
  5
358
100
AcDbEntity
  8
レイヤー_1
  6
CONTINUOUS
 62
       3
100
AcDbLine
 10
-66.91181666
 20
-26.61805275
 30
0.0
 11
-66.91181666
 21
-26.4416583
 31
0.0
  0
LINE
  5
359
100
AcDbEntity
  8
レイヤー_1
  6
CONTINUOUS
 62
       3
100
AcDbLine
 10
-66.91181666
 20
-26.4416583
 30
0.0
 11
-66.91181666
 21
-26.33035203
 31
0.0
  0
LINE
  5
35A
100
AcDbEntity
  8
レイヤー_1
  6
CONTINUOUS
 62
       3
100
AcDbLine
 10
-67.71666764
 20
-26.804019
 30
0.0
 11
-66.91181666
 21
-26.804019
 31
0.0
  0
LINE
  5
35B
100
AcDbEntity
  8
レイヤー_1
  6
CONTINUOUS
 62
       3
100
AcDbLine
 10
-64.79754452
 20
44.07537532
 30
0.0
 11
-65.17111789
 21
44.0458395
 31
0.0
  0
LINE
  5
35C
100
AcDbEntity
  8
レイヤー_1
  6
CONTINUOUS
 62
       3
100
AcDbLine
 10
-65.17111789
 20
44.0458395
 30
0.0
 11
-65.52964988
 21
43.9566851
 31
0.0
  0
LINE
  5
35D
100
AcDbEntity
  8
レイヤー_1
  6
CONTINUOUS
 62
       3
100
AcDbLine
 10
-65.52964988
 20
43.9566851
 30
0.0
 11
-65.8605604
 21
43.81338169
 31
0.0
  0
LINE
  5
35E
100
AcDbEntity
  8
レイヤー_1
  6
CONTINUOUS
 62
       3
100
AcDbLine
 10
-65.8605604
 20
43.81338169
 30
0.0
 11
-66.15072245
 21
43.62003149
 31
0.0
  0
LINE
  5
35F
100
AcDbEntity
  8
レイヤー_1
  6
CONTINUOUS
 62
       3
100
AcDbLine
 10
-66.15072245
 20
43.62003149
 30
0.0
 11
-66.38810289
 21
43.38374497
 31
0.0
  0
LINE
  5
360
100
AcDbEntity
  8
レイヤー_1
  6
CONTINUOUS
 62
       3
100
AcDbLine
 10
-66.38810289
 20
43.38374497
 30
0.0
 11
-66.56395039
 21
43.11491435
 31
0.0
  0
LINE
  5
361
100
AcDbEntity
  8
レイヤー_1
  6
CONTINUOUS
 62
       3
100
AcDbLine
 10
-66.56395039
 20
43.11491435
 30
0.0
 11
-66.67388926
 21
42.82201751
 31
0.0
  0
LINE
  5
362
100
AcDbEntity
  8
レイヤー_1
  6
CONTINUOUS
 62
       3
100
AcDbLine
 10
-66.67388926
 20
42.82201751
 30
0.0
 11
-66.71026207
 21
42.517908
 31
0.0
  0
LINE
  5
363
100
AcDbEntity
  8
レイヤー_1
  6
CONTINUOUS
 62
       3
100
AcDbLine
 10
-66.71026207
 20
42.517908
 30
0.0
 11
-66.67388926
 21
42.2148924
 31
0.0
  0
LINE
  5
364
100
AcDbEntity
  8
レイヤー_1
  6
CONTINUOUS
 62
       3
100
AcDbLine
 10
-66.67388926
 20
42.2148924
 30
0.0
 11
-66.56395039
 21
41.92199557
 31
0.0
  0
LINE
  5
365
100
AcDbEntity
  8
レイヤー_1
  6
CONTINUOUS
 62
       3
100
AcDbLine
 10
-66.56395039
 20
41.92199557
 30
0.0
 11
-66.38810289
 21
41.65261799
 31
0.0
  0
LINE
  5
366
100
AcDbEntity
  8
レイヤー_1
  6
CONTINUOUS
 62
       3
100
AcDbLine
 10
-66.38810289
 20
41.65261799
 30
0.0
 11
-66.15072245
 21
41.41742538
 31
0.0
  0
LINE
  5
367
100
AcDbEntity
  8
レイヤー_1
  6
CONTINUOUS
 62
       3
100
AcDbLine
 10
-66.15072245
 20
41.41742538
 30
0.0
 11
-65.8605604
 21
41.22352822
 31
0.0
  0
LINE
  5
368
100
AcDbEntity
  8
レイヤー_1
  6
CONTINUOUS
 62
       3
100
AcDbLine
 10
-65.8605604
 20
41.22352822
 30
0.0
 11
-65.52964988
 21
41.08022482
 31
0.0
  0
LINE
  5
369
100
AcDbEntity
  8
レイヤー_1
  6
CONTINUOUS
 62
       3
100
AcDbLine
 10
-65.52964988
 20
41.08022482
 30
0.0
 11
-65.17111789
 21
40.99107041
 31
0.0
  0
LINE
  5
36A
100
AcDbEntity
  8
レイヤー_1
  6
CONTINUOUS
 62
       3
100
AcDbLine
 10
-65.17111789
 20
40.99107041
 30
0.0
 11
-64.79754452
 21
40.96126111
 31
0.0
  0
LINE
  5
36B
100
AcDbEntity
  8
レイヤー_1
  6
CONTINUOUS
 62
       3
100
AcDbLine
 10
-64.79754452
 20
-44.88161837
 30
0.0
 11
-67.71666764
 21
-44.88161837
 31
0.0
  0
LINE
  5
36C
100
AcDbEntity
  8
レイヤー_1
  6
CONTINUOUS
 62
       3
100
AcDbLine
 10
-64.79754452
 20
-41.78442067
 30
0.0
 11
-65.17111789
 21
-41.75324397
 31
0.0
  0
LINE
  5
36D
100
AcDbEntity
  8
レイヤー_1
  6
CONTINUOUS
 62
       3
100
AcDbLine
 10
-65.17111789
 20
-41.75324397
 30
0.0
 11
-65.52964988
 21
-41.66573045
 31
0.0
  0
LINE
  5
36E
100
AcDbEntity
  8
レイヤー_1
  6
CONTINUOUS
 62
       3
100
AcDbLine
 10
-65.52964988
 20
-41.66573045
 30
0.0
 11
-65.8605604
 21
-41.52023921
 31
0.0
  0
LINE
  5
36F
100
AcDbEntity
  8
レイヤー_1
  6
CONTINUOUS
 62
       3
100
AcDbLine
 10
-65.8605604
 20
-41.52023921
 30
0.0
 11
-66.15072245
 21
-41.32770944
 31
0.0
  0
LINE
  5
370
100
AcDbEntity
  8
レイヤー_1
  6
CONTINUOUS
 62
       3
100
AcDbLine
 10
-66.15072245
 20
-41.32770944
 30
0.0
 11
-66.38810289
 21
-41.090329
 31
0.0
  0
LINE
  5
371
100
AcDbEntity
  8
レイヤー_1
  6
CONTINUOUS
 62
       3
100
AcDbLine
 10
-66.38810289
 20
-41.090329
 30
0.0
 11
-66.56395039
 21
-40.82231882
 31
0.0
  0
LINE
  5
372
100
AcDbEntity
  8
レイヤー_1
  6
CONTINUOUS
 62
       3
100
AcDbLine
 10
-66.56395039
 20
-40.82231882
 30
0.0
 11
-66.67388926
 21
-40.5291485
 31
0.0
  0
LINE
  5
373
100
AcDbEntity
  8
レイヤー_1
  6
CONTINUOUS
 62
       3
100
AcDbLine
 10
-66.67388926
 20
-40.5291485
 30
0.0
 11
-66.71026207
 21
-40.22503899
 31
0.0
  0
LINE
  5
374
100
AcDbEntity
  8
レイヤー_1
  6
CONTINUOUS
 62
       3
100
AcDbLine
 10
-66.71026207
 20
-40.22503899
 30
0.0
 11
-66.67388926
 21
-39.92147644
 31
0.0
  0
LINE
  5
375
100
AcDbEntity
  8
レイヤー_1
  6
CONTINUOUS
 62
       3
100
AcDbLine
 10
-66.67388926
 20
-39.92147644
 30
0.0
 11
-66.56395039
 21
-39.62940004
 31
0.0
  0
LINE
  5
376
100
AcDbEntity
  8
レイヤー_1
  6
CONTINUOUS
 62
       3
100
AcDbLine
 10
-66.56395039
 20
-39.62940004
 30
0.0
 11
-66.38810289
 21
-39.36138986
 31
0.0
  0
LINE
  5
377
100
AcDbEntity
  8
レイヤー_1
  6
CONTINUOUS
 62
       3
100
AcDbLine
 10
-66.38810289
 20
-39.36138986
 30
0.0
 11
-66.15072245
 21
-39.12400941
 31
0.0
  0
LINE
  5
378
100
AcDbEntity
  8
レイヤー_1
  6
CONTINUOUS
 62
       3
100
AcDbLine
 10
-66.15072245
 20
-39.12400941
 30
0.0
 11
-65.8605604
 21
-38.93038573
 31
0.0
  0
LINE
  5
379
100
AcDbEntity
  8
レイヤー_1
  6
CONTINUOUS
 62
       3
100
AcDbLine
 10
-65.8605604
 20
-38.93038573
 30
0.0
 11
-65.52964988
 21
-38.78762929
 31
0.0
  0
LINE
  5
37A
100
AcDbEntity
  8
レイヤー_1
  6
CONTINUOUS
 62
       3
100
AcDbLine
 10
-65.52964988
 20
-38.78762929
 30
0.0
 11
-65.17111789
 21
-38.69792792
 31
0.0
  0
LINE
  5
37B
100
AcDbEntity
  8
レイヤー_1
  6
CONTINUOUS
 62
       3
100
AcDbLine
 10
-65.17111789
 20
-38.69792792
 30
0.0
 11
-64.79754452
 21
-38.66784515
 31
0.0
  0
LINE
  5
37C
100
AcDbEntity
  8
レイヤー_1
  6
CONTINUOUS
 62
       3
100
AcDbLine
 10
-67.71666764
 20
39.02967346
 30
0.0
 11
-61.87951531
 21
39.02967346
 31
0.0
  0
LINE
  5
37D
100
AcDbEntity
  8
レイヤー_1
  6
CONTINUOUS
 62
       3
100
AcDbLine
 10
-64.79754452
 20
-27.74943859
 30
0.0
 11
-67.71666764
 21
-27.74943859
 31
0.0
  0
LINE
  5
37E
100
AcDbEntity
  8
レイヤー_1
  6
CONTINUOUS
 62
       3
100
AcDbLine
 10
-67.71666764
 20
-36.73653097
 30
0.0
 11
-61.87951531
 21
-36.73653097
 31
0.0
  0
LINE
  5
37F
100
AcDbEntity
  8
レイヤー_1
  6
CONTINUOUS
 62
       3
100
AcDbLine
 10
-65.94780045
 20
41.30529867
 30
0.0
 11
-65.61087337
 21
41.5131433
 31
0.0
  0
LINE
  5
380
100
AcDbEntity
  8
レイヤー_1
  6
CONTINUOUS
 62
       3
100
AcDbLine
 10
-65.61087337
 20
41.5131433
 30
0.0
 11
-65.10056011
 21
41.65808758
 31
0.0
  0
LINE
  5
381
100
AcDbEntity
  8
レイヤー_1
  6
CONTINUOUS
 62
       3
100
AcDbLine
 10
-64.36571995
 20
41.61843301
 30
0.0
 11
-63.99652225
 21
41.5186129
 31
0.0
  0
LINE
  5
382
100
AcDbEntity
  8
レイヤー_1
  6
CONTINUOUS
 62
       3
100
AcDbLine
 10
-63.99652225
 20
41.5186129
 30
0.0
 11
-63.65330514
 21
41.30311083
 31
0.0
  0
LINE
  5
383
100
AcDbEntity
  8
レイヤー_1
  6
CONTINUOUS
 62
       3
100
AcDbLine
 10
-63.64810902
 20
-39.01407054
 30
0.0
 11
-63.99597529
 21
-39.22574389
 31
0.0
  0
LINE
  5
384
100
AcDbEntity
  8
レイヤー_1
  6
CONTINUOUS
 62
       3
100
AcDbLine
 10
-63.99597529
 20
-39.22574389
 30
0.0
 11
-64.38978617
 21
-39.33622972
 31
0.0
  0
LINE
  5
385
100
AcDbEntity
  8
レイヤー_1
  6
CONTINUOUS
 62
       3
100
AcDbLine
 10
-65.12681417
 20
-39.35646722
 30
0.0
 11
-65.61142033
 21
-39.22027429
 31
0.0
  0
LINE
  5
386
100
AcDbEntity
  8
レイヤー_1
  6
CONTINUOUS
 62
       3
100
AcDbLine
 10
-65.61142033
 20
-39.22027429
 30
0.0
 11
-65.94233086
 21
-39.01024183
 31
0.0
  0
LINE
  5
387
100
AcDbEntity
  8
レイヤー_1
  6
CONTINUOUS
 62
       3
100
AcDbLine
 10
-67.74809147
 20
-45.78136684
 30
0.0
 11
-61.84809147
 21
-45.78136684
 31
0.0
  0
LINE
  5
388
100
AcDbEntity
  8
レイヤー_1
  6
CONTINUOUS
 62
       3
100
AcDbLine
 10
-63.2102679
 20
21.74875992
 30
0.0
 11
-66.4083404
 21
21.74875992
 31
0.0
  0
LINE
  5
389
100
AcDbEntity
  8
レイヤー_1
  6
CONTINUOUS
 62
       3
100
AcDbLine
 10
-66.4083404
 20
21.74875992
 30
0.0
 11
-66.4083404
 21
24.39057455
 31
0.0
  0
LINE
  5
38A
100
AcDbEntity
  8
レイヤー_1
  6
CONTINUOUS
 62
       3
100
AcDbLine
 10
-66.4083404
 20
24.39057455
 30
0.0
 11
-63.2102679
 21
24.39057455
 31
0.0
  0
LINE
  5
38B
100
AcDbEntity
  8
レイヤー_1
  6
CONTINUOUS
 62
       3
100
AcDbLine
 10
-63.2102679
 20
24.39057455
 30
0.0
 11
-63.2102679
 21
21.74875992
 31
0.0
  0
LINE
  5
38C
100
AcDbEntity
  8
レイヤー_1
  6
CONTINUOUS
 62
       3
100
AcDbLine
 10
-65.39181607
 20
41.03756197
 30
0.0
 11
-65.29773903
 21
41.10128276
 31
0.0
  0
LINE
  5
38D
100
AcDbEntity
  8
レイヤー_1
  6
CONTINUOUS
 62
       3
100
AcDbLine
 10
-65.29773903
 20
41.10128276
 30
0.0
 11
-65.06746906
 21
41.19782112
 31
0.0
  0
LINE
  5
38E
100
AcDbEntity
  8
レイヤー_1
  6
CONTINUOUS
 62
       3
100
AcDbLine
 10
-64.46471963
 20
41.17703666
 30
0.0
 11
-64.24511537
 21
41.06737127
 31
0.0
  0
LINE
  5
38F
100
AcDbEntity
  8
レイヤー_1
  6
CONTINUOUS
 62
       3
100
AcDbLine
 10
-64.24511537
 20
41.06737127
 30
0.0
 11
-64.20491384
 21
41.03756197
 31
0.0
  0
LINE
  5
390
100
AcDbEntity
  8
レイヤー_1
  6
CONTINUOUS
 62
       3
100
AcDbLine
 10
-65.07977565
 20
-38.90139687
 30
0.0
 11
-65.30840474
 21
-38.8023972
 31
0.0
  0
LINE
  5
391
100
AcDbEntity
  8
レイヤー_1
  6
CONTINUOUS
 62
       3
100
AcDbLine
 10
-65.30840474
 20
-38.8023972
 30
0.0
 11
-65.39181607
 21
-38.74496644
 31
0.0
  0
LINE
  5
392
100
AcDbEntity
  8
レイヤー_1
  6
CONTINUOUS
 62
       3
100
AcDbLine
 10
-64.20491384
 20
-38.74496644
 30
0.0
 11
-64.25468716
 21
-38.78106577
 31
0.0
  0
LINE
  5
393
100
AcDbEntity
  8
レイヤー_1
  6
CONTINUOUS
 62
       3
100
AcDbLine
 10
-64.25468716
 20
-38.78106577
 30
0.0
 11
-64.47647926
 21
-38.88936376
 31
0.0
  0
LINE
  5
394
100
AcDbEntity
  8
レイヤー_1
  6
CONTINUOUS
 62
       3
100
AcDbLine
 10
-65.00538915
 20
40.96973899
 30
0.0
 11
-64.97175113
 21
41.67394941
 31
0.0
  0
LINE
  5
395
100
AcDbEntity
  8
レイヤー_1
  6
CONTINUOUS
 62
       3
100
AcDbLine
 10
-64.5246117
 20
40.97657598
 30
0.0
 11
-64.49179413
 21
41.65808758
 31
0.0
  0
LINE
  5
396
100
AcDbEntity
  8
レイヤー_1
  6
CONTINUOUS
 62
       3
100
AcDbLine
 10
-65.07868173
 20
40.97821686
 30
0.0
 11
-65.06746906
 21
41.19782112
 31
0.0
  0
LINE
  5
397
100
AcDbEntity
  8
レイヤー_1
  6
CONTINUOUS
 62
       3
100
AcDbLine
 10
-64.46471963
 20
41.17703666
 30
0.0
 11
-64.47374446
 21
40.98259254
 31
0.0
  0
LINE
  5
398
100
AcDbEntity
  8
レイヤー_1
  6
CONTINUOUS
 62
       3
100
AcDbLine
 10
-65.06746906
 20
41.19782112
 30
0.0
 11
-65.05570943
 21
41.37202774
 31
0.0
  0
LINE
  5
399
100
AcDbEntity
  8
レイヤー_1
  6
CONTINUOUS
 62
       3
100
AcDbLine
 10
-65.05570943
 20
41.37202774
 30
0.0
 11
-65.02644709
 21
41.57467625
 31
0.0
  0
LINE
  5
39A
100
AcDbEntity
  8
レイヤー_1
  6
CONTINUOUS
 62
       3
100
AcDbLine
 10
-65.02644709
 20
41.57467625
 30
0.0
 11
-64.98898036
 21
41.66820633
 31
0.0
  0
LINE
  5
39B
100
AcDbEntity
  8
レイヤー_1
  6
CONTINUOUS
 62
       3
100
AcDbLine
 10
-64.98898036
 20
41.66820633
 30
0.0
 11
-64.97175113
 21
41.67394941
 31
0.0
  0
LINE
  5
39C
100
AcDbEntity
  8
レイヤー_1
  6
CONTINUOUS
 62
       3
100
AcDbLine
 10
-64.97175113
 20
41.67394941
 30
0.0
 11
-64.91295298
 21
41.67777813
 31
0.0
  0
LINE
  5
39D
100
AcDbEntity
  8
レイヤー_1
  6
CONTINUOUS
 62
       3
100
AcDbLine
 10
-64.91295298
 20
41.67777813
 30
0.0
 11
-64.85114655
 21
41.68105988
 31
0.0
  0
LINE
  5
39E
100
AcDbEntity
  8
レイヤー_1
  6
CONTINUOUS
 62
       3
100
AcDbLine
 10
-64.85114655
 20
41.68105988
 30
0.0
 11
-64.79125448
 21
41.68105988
 31
0.0
  0
LINE
  5
39F
100
AcDbEntity
  8
レイヤー_1
  6
CONTINUOUS
 62
       3
100
AcDbLine
 10
-64.79125448
 20
41.68105988
 30
0.0
 11
-64.73081545
 21
41.68105988
 31
0.0
  0
LINE
  5
3A0
100
AcDbEntity
  8
レイヤー_1
  6
CONTINUOUS
 62
       3
100
AcDbLine
 10
-64.73081545
 20
41.68105988
 30
0.0
 11
-64.67092338
 21
41.67777813
 31
0.0
  0
LINE
  5
3A1
100
AcDbEntity
  8
レイヤー_1
  6
CONTINUOUS
 62
       3
100
AcDbLine
 10
-64.67092338
 20
41.67777813
 30
0.0
 11
-64.61103131
 21
41.67394941
 31
0.0
  0
LINE
  5
3A2
100
AcDbEntity
  8
レイヤー_1
  6
CONTINUOUS
 62
       3
100
AcDbLine
 10
-64.61103131
 20
41.67394941
 30
0.0
 11
-64.55113924
 21
41.66711241
 31
0.0
  0
LINE
  5
3A3
100
AcDbEntity
  8
レイヤー_1
  6
CONTINUOUS
 62
       3
100
AcDbLine
 10
-64.55113924
 20
41.66711241
 30
0.0
 11
-64.49179413
 21
41.65808758
 31
0.0
  0
LINE
  5
3A4
100
AcDbEntity
  8
レイヤー_1
  6
CONTINUOUS
 62
       3
100
AcDbLine
 10
-64.49179413
 20
41.65808758
 30
0.0
 11
-64.46882183
 21
41.60995514
 31
0.0
  0
LINE
  5
3A5
100
AcDbEntity
  8
レイヤー_1
  6
CONTINUOUS
 62
       3
100
AcDbLine
 10
-64.46882183
 20
41.60995514
 30
0.0
 11
-64.45870308
 21
41.46254954
 31
0.0
  0
LINE
  5
3A6
100
AcDbEntity
  8
レイヤー_1
  6
CONTINUOUS
 62
       3
100
AcDbLine
 10
-64.45870308
 20
41.46254954
 30
0.0
 11
-64.46198483
 21
41.23419393
 31
0.0
  0
LINE
  5
3A7
100
AcDbEntity
  8
レイヤー_1
  6
CONTINUOUS
 62
       3
100
AcDbLine
 10
-64.46198483
 20
41.23419393
 30
0.0
 11
-64.46471963
 21
41.17703666
 31
0.0
  0
LINE
  5
3A8
100
AcDbEntity
  8
レイヤー_1
  6
CONTINUOUS
 62
       3
100
AcDbLine
 10
-64.99691127
 20
-39.3810804
 30
0.0
 11
-65.0182427
 21
-38.67769042
 31
0.0
  0
LINE
  5
3A9
100
AcDbEntity
  8
レイヤー_1
  6
CONTINUOUS
 62
       3
100
AcDbLine
 10
-64.51695427
 20
-39.36959425
 30
0.0
 11
-64.53773873
 21
-38.68316001
 31
0.0
  0
LINE
  5
3AA
100
AcDbEntity
  8
レイヤー_1
  6
CONTINUOUS
 62
       3
100
AcDbLine
 10
-65.07977565
 20
-38.90139687
 30
0.0
 11
-65.08661264
 21
-38.68589481
 31
0.0
  0
LINE
  5
3AB
100
AcDbEntity
  8
レイヤー_1
  6
CONTINUOUS
 62
       3
100
AcDbLine
 10
-64.48222234
 20
-38.68917657
 30
0.0
 11
-64.47647926
 21
-38.88936376
 31
0.0
  0
LINE
  5
3AC
100
AcDbEntity
  8
レイヤー_1
  6
CONTINUOUS
 62
       3
100
AcDbLine
 10
-64.47647926
 20
-38.88936376
 30
0.0
 11
-64.47483838
 21
-39.06493778
 31
0.0
  0
LINE
  5
3AD
100
AcDbEntity
  8
レイヤー_1
  6
CONTINUOUS
 62
       3
100
AcDbLine
 10
-64.47483838
 20
-39.06493778
 30
0.0
 11
-64.4827693
 21
-39.26840673
 31
0.0
  0
LINE
  5
3AE
100
AcDbEntity
  8
レイヤー_1
  6
CONTINUOUS
 62
       3
100
AcDbLine
 10
-64.4827693
 20
-39.26840673
 30
0.0
 11
-64.50519464
 21
-39.36193682
 31
0.0
  0
LINE
  5
3AF
100
AcDbEntity
  8
レイヤー_1
  6
CONTINUOUS
 62
       3
100
AcDbLine
 10
-64.50519464
 20
-39.36193682
 30
0.0
 11
-64.51695427
 21
-39.36959425
 31
0.0
  0
LINE
  5
3B0
100
AcDbEntity
  8
レイヤー_1
  6
CONTINUOUS
 62
       3
100
AcDbLine
 10
-64.51695427
 20
-39.36959425
 30
0.0
 11
-64.57684634
 21
-39.37725168
 31
0.0
  0
LINE
  5
3B1
100
AcDbEntity
  8
レイヤー_1
  6
CONTINUOUS
 62
       3
100
AcDbLine
 10
-64.57684634
 20
-39.37725168
 30
0.0
 11
-64.63619145
 21
-39.38217432
 31
0.0
  0
LINE
  5
3B2
100
AcDbEntity
  8
レイヤー_1
  6
CONTINUOUS
 62
       3
100
AcDbLine
 10
-64.63619145
 20
-39.38217432
 30
0.0
 11
-64.69663048
 21
-39.38655
 31
0.0
  0
LINE
  5
3B3
100
AcDbEntity
  8
レイヤー_1
  6
CONTINUOUS
 62
       3
100
AcDbLine
 10
-64.69663048
 20
-39.38655
 30
0.0
 11
-64.75706951
 21
-39.38819087
 31
0.0
  0
LINE
  5
3B4
100
AcDbEntity
  8
レイヤー_1
  6
CONTINUOUS
 62
       3
100
AcDbLine
 10
-64.75706951
 20
-39.38819087
 30
0.0
 11
-64.81641462
 21
-39.38928479
 31
0.0
  0
LINE
  5
3B5
100
AcDbEntity
  8
レイヤー_1
  6
CONTINUOUS
 62
       3
100
AcDbLine
 10
-64.81641462
 20
-39.38928479
 30
0.0
 11
-64.87712713
 21
-39.38819087
 31
0.0
  0
LINE
  5
3B6
100
AcDbEntity
  8
レイヤー_1
  6
CONTINUOUS
 62
       3
100
AcDbLine
 10
-64.87712713
 20
-39.38819087
 30
0.0
 11
-64.93756616
 21
-39.38490912
 31
0.0
  0
LINE
  5
3B7
100
AcDbEntity
  8
レイヤー_1
  6
CONTINUOUS
 62
       3
100
AcDbLine
 10
-64.93756616
 20
-39.38490912
 30
0.0
 11
-64.99691127
 21
-39.3810804
 31
0.0
  0
LINE
  5
3B8
100
AcDbEntity
  8
レイヤー_1
  6
CONTINUOUS
 62
       3
100
AcDbLine
 10
-64.99691127
 20
-39.3810804
 30
0.0
 11
-65.03328408
 21
-39.332401
 31
0.0
  0
LINE
  5
3B9
100
AcDbEntity
  8
レイヤー_1
  6
CONTINUOUS
 62
       3
100
AcDbLine
 10
-65.03328408
 20
-39.332401
 30
0.0
 11
-65.06172598
 21
-39.18690976
 31
0.0
  0
LINE
  5
3BA
100
AcDbEntity
  8
レイヤー_1
  6
CONTINUOUS
 62
       3
100
AcDbLine
 10
-65.06172598
 20
-39.18690976
 30
0.0
 11
-65.07813477
 21
-38.95828067
 31
0.0
  0
LINE
  5
3BB
100
AcDbEntity
  8
レイヤー_1
  6
CONTINUOUS
 62
       3
100
AcDbLine
 10
-65.07813477
 20
-38.95828067
 30
0.0
 11
-65.07977565
 21
-38.90139687
 31
0.0
  0
LINE
  5
3BC
100
AcDbEntity
  8
レイヤー_1
  6
CONTINUOUS
 62
       3
100
AcDbLine
 10
63.61488411
 20
10.34820851
 30
0.0
 11
62.91040021
 21
10.34820851
 31
0.0
  0
LINE
  5
3BD
100
AcDbEntity
  8
レイヤー_1
  6
CONTINUOUS
 62
       3
100
AcDbLine
 10
62.91040021
 20
-8.34194631
 30
0.0
 11
63.61488411
 21
-8.34194631
 31
0.0
  0
LINE
  5
3BE
100
AcDbEntity
  8
レイヤー_1
  6
CONTINUOUS
 62
       3
100
AcDbLine
 10
62.91040021
 20
-9.13558462
 30
0.0
 11
63.61488411
 21
-9.13558462
 31
0.0
  0
LINE
  5
3BF
100
AcDbEntity
  8
レイヤー_1
  6
CONTINUOUS
 62
       3
100
AcDbLine
 10
63.61488411
 20
-9.13558462
 30
0.0
 11
63.61488411
 21
11.14184682
 31
0.0
  0
LINE
  5
3C0
100
AcDbEntity
  8
レイヤー_1
  6
CONTINUOUS
 62
       3
100
AcDbLine
 10
63.61488411
 20
11.14184682
 30
0.0
 11
62.91040021
 21
11.14184682
 31
0.0
  0
LINE
  5
3C1
100
AcDbEntity
  8
レイヤー_1
  6
CENTERX2
 62
       3
100
AcDbLine
 10
-64.79809147
 20
51.04546232
 30
0.0
 11
-64.79809147
 21
-51.04546232
 31
0.0
  0
LINE
  5
3C2
100
AcDbEntity
  8
レイヤー_1
  6
CENTERX2
 62
       3
100
AcDbLine
 10
-57.9177445
 20
0.56173474
 30
0.0
 11
-71.81873042
 21
0.56173474
 31
0.0
  0
LINE
  5
3C3
100
AcDbEntity
  8
レイヤー_1
  6
CENTERX2
 62
       3
100
AcDbLine
 10
-34.23754699
 20
0.56173474
 30
0.0
 11
71.81873042
 21
0.56173474
 31
0.0
  0
TEXT
  5
3C4
100
AcDbEntity
  8
0
 62
       7
100
AcDbText
 10
111.67737557
 20
-100.81945701
 30
0.0
 40
5.0
  1
000
 41
0.8
 72
       5
 11
123.67737557
 21
-100.81945701
 31
0.0
100
AcDbText
  0
ENDSEC
  0
SECTION
  2
OBJECTS
  0
DICTIONARY
  5
19
100
AcDbDictionary
  3
ACAD_GROUP
350
1A
  3
ACAD_MLINESTYLE
350
1B
  0
DICTIONARY
  5
1A
102
{ACAD_REACTORS
330
19
102
}
100
AcDbDictionary
  0
DICTIONARY
  5
1B
102
{ACAD_REACTORS
330
19
102
}
100
AcDbDictionary
  3
STANDARD
350
1C
  0
MLINESTYLE
  5
1C
102
{ACAD_REACTORS
330
1B
102
}
100
AcDbMlineStyle
  2
STANDARD
 70
       0
  3

 62
       0
 51
90.0
 52
90.0
 71
       2
 49
0.5
 62
     256
  6
BYLAYER
 49
-0.5
 62
     256
  6
BYLAYER
  0
ENDSEC
  0
EOF
