  0
SECTION
  2
HEADER
  9
$ACADVER
  1
AC1014
  9
$ACADMAINTVER
 70
       0
  9
$DWGCODEPAGE
  3
ANSI_932
  9
$INSBASE
 10
0.0
 20
0.0
 30
0.0
  9
$EXTMIN
 10
-82.27676557
 20
-102.58622661
 30
0.0
  9
$EXTMAX
 10
112.17243946
 20
59.16814517
 30
0.0
  9
$LIMMIN
 10
-88.35330323
 20
-107.64105072
  9
$LIMMAX
 10
118.24897712
 20
64.22296928
  9
$ORTHOMODE
 70
       0
  9
$REGENMODE
 70
       1
  9
$FILLMODE
 70
       1
  9
$QTEXTMODE
 70
       0
  9
$MIRRTEXT
 70
       1
  9
$DRAGMODE
 70
       2
  9
$LTSCALE
 40
1.0
  9
$OSMODE
 70
       0
  9
$ATTMODE
 70
       1
  9
$TEXTSIZE
 40
0.2
  9
$TRACEWID
 40
0.05
  9
$TEXTSTYLE
  7
STANDARD
  9
$CLAYER
  8
0
  9
$CELTYPE
  6
CONTINUOUS
  9
$CECOLOR
 62
     256
  9
$CELTSCALE
 40
1.0
  9
$DELOBJ
 70
       1
  9
$DISPSILH
 70
       0
  9
$DIMSCALE
 40
1.0
  9
$DIMASZ
 40
0.18
  9
$DIMEXO
 40
0.0625
  9
$DIMDLI
 40
0.38
  9
$DIMRND
 40
0.0
  9
$DIMDLE
 40
0.0
  9
$DIMEXE
 40
0.18
  9
$DIMTP
 40
0.0
  9
$DIMTM
 40
0.0
  9
$DIMTXT
 40
0.18
  9
$DIMCEN
 40
0.09
  9
$DIMTSZ
 40
0.0
  9
$DIMTOL
 70
       0
  9
$DIMLIM
 70
       0
  9
$DIMTIH
 70
       1
  9
$DIMTOH
 70
       1
  9
$DIMSE1
 70
       0
  9
$DIMSE2
 70
       0
  9
$DIMTAD
 70
       0
  9
$DIMZIN
 70
       0
  9
$DIMBLK
  1

  9
$DIMASO
 70
       1
  9
$DIMSHO
 70
       1
  9
$DIMPOST
  1

  9
$DIMAPOST
  1

  9
$DIMALT
 70
       0
  9
$DIMALTD
 70
       2
  9
$DIMALTF
 40
25.4
  9
$DIMLFAC
 40
1.0
  9
$DIMTOFL
 70
       0
  9
$DIMTVP
 40
0.0
  9
$DIMTIX
 70
       0
  9
$DIMSOXD
 70
       0
  9
$DIMSAH
 70
       0
  9
$DIMBLK1
  1

  9
$DIMBLK2
  1

  9
$DIMSTYLE
  2
STANDARD
  9
$DIMCLRD
 70
       0
  9
$DIMCLRE
 70
       0
  9
$DIMCLRT
 70
       0
  9
$DIMTFAC
 40
1.0
  9
$DIMGAP
 40
0.09
  9
$DIMJUST
 70
       0
  9
$DIMSD1
 70
       0
  9
$DIMSD2
 70
       0
  9
$DIMTOLJ
 70
       1
  9
$DIMTZIN
 70
       0
  9
$DIMALTZ
 70
       0
  9
$DIMALTTZ
 70
       0
  9
$DIMFIT
 70
       3
  9
$DIMUPT
 70
       0
  9
$DIMUNIT
 70
       2
  9
$DIMDEC
 70
       4
  9
$DIMTDEC
 70
       4
  9
$DIMALTU
 70
       2
  9
$DIMALTTD
 70
       2
  9
$DIMTXSTY
  7
STANDARD
  9
$DIMAUNIT
 70
       0
  9
$LUNITS
 70
       2
  9
$LUPREC
 70
       4
  9
$SKETCHINC
 40
0.1
  9
$FILLETRAD
 40
0.0
  9
$AUNITS
 70
       0
  9
$AUPREC
 70
       0
  9
$MENU
  1
acad
  9
$ELEVATION
 40
0.0
  9
$PELEVATION
 40
0.0
  9
$THICKNESS
 40
0.0
  9
$LIMCHECK
 70
       0
  9
$BLIPMODE
 70
       1
  9
$CHAMFERA
 40
0.0
  9
$CHAMFERB
 40
0.0
  9
$CHAMFERC
 40
0.0
  9
$CHAMFERD
 40
0.0
  9
$SKPOLY
 70
       0
  9
$TDCREATE
 40
0.000000000
  9
$TDUPDATE
 40
0.000000000
  9
$TDINDWG
 40
0.0000000000
  9
$TDUSRTIMER
 40
0.0000000000
  9
$USRTIMER
 70
       1
  9
$ANGBASE
 50
0.0
  9
$ANGDIR
 70
       0
  9
$PDMODE
 70
       0
  9
$PDSIZE
 40
1.0
  9
$PLINEWID
 40
0.0
  9
$COORDS
 70
       1
  9
$SPLFRAME
 70
       0
  9
$SPLINETYPE
 70
       6
  9
$SPLINESEGS
 70
       8
  9
$ATTDIA
 70
       0
  9
$ATTREQ
 70
       1
  9
$HANDLING
 70
       1
  9
$HANDSEED
  5
4A3
  9
$SURFTAB1
 70
       6
  9
$SURFTAB2
 70
       6
  9
$SURFTYPE
 70
       6
  9
$SURFU
 70
       6
  9
$SURFV
 70
       6
  9
$UCSNAME
  2

  9
$UCSORG
 10
0.0
 20
0.0
 30
0.0
  9
$UCSXDIR
 10
1.0
 20
0.0
 30
0.0
  9
$UCSYDIR
 10
0.0
 20
1.0
 30
0.0
  9
$PUCSNAME
  2

  9
$PUCSORG
 10
0.0
 20
0.0
 30
0.0
  9
$PUCSXDIR
 10
1.0
 20
0.0
 30
0.0
  9
$PUCSYDIR
 10
0.0
 20
1.0
 30
0.0
  9
$USERI1
 70
       0
  9
$USERI2
 70
       0
  9
$USERI3
 70
       0
  9
$USERI4
 70
       0
  9
$USERI5
 70
       0
  9
$USERR1
 40
0.0
  9
$USERR2
 40
0.0
  9
$USERR3
 40
0.0
  9
$USERR4
 40
0.0
  9
$USERR5
 40
0.0
  9
$WORLDVIEW
 70
       1
  9
$SHADEDGE
 70
       3
  9
$SHADEDIF
 70
      70
  9
$TILEMODE
 70
       1
  9
$MAXACTVP
 70
      16
  9
$PINSBASE
 10
0.0
 20
0.0
 30
0.0
  9
$PLIMCHECK
 70
       0
  9
$PEXTMIN
 10
1.00000000E+20
 20
1.00000000E+20
 30
1.00000000E+20
  9
$PEXTMAX
 10
-1.00000000E+20
 20
-1.00000000E+20
 30
-1.00000000E+20
  9
$PLIMMIN
 10
0.0
 20
0.0
  9
$PLIMMAX
 10
12.0
 20
9.0
  9
$UNITMODE
 70
       0
  9
$VISRETAIN
 70
       0
  9
$PLINEGEN
 70
       1
  9
$PSLTSCALE
 70
       0
  9
$TREEDEPTH
 70
    3020
  9
$PICKSTYLE
 70
       1
  9
$CMLSTYLE
  2
STANDARD
  9
$CMLJUST
 70
       0
  9
$CMLSCALE
 40
1.0
  9
$PROXYGRAPHICS
 70
       0
  9
$MEASUREMENT
 70
       0
  0
ENDSEC
  0
SECTION
  2
CLASSES
  0
CLASS
  1
LWPOLYLINE
  2
AcDbPolyline
  3
"AutoCAD"
 90
        0
280
       0
281
       1
  0
CLASS
  1
IMAGE
  2
AcDbRasterImage
  3
ISM
 90
      127
280
       0
281
       1
  0
CLASS
  1
OLE2FRAME
  2
AcDbOle2Frame
  3
""
 90
        0
280
       0
281
       1
  0
CLASS
  1
HATCH
  2
AcDbHatch
  3
"ACAD_SEDONA"
 90
        0
280
       0
281
       1
  0
CLASS
  1
DICTIONARYVAR
  2
AcDbDictionaryVar
  3
"AutoCAD"
 90
        0
280
       0
281
       0
  0
CLASS
  1
RASTERVARIABLES
  2
AcDbRasterVariables
  3
ISM
 90
        0
280
       0
281
       0
  0
CLASS
  1
IMAGEDEF
  2
AcDbRasterImageDef
  3
ISM
 90
        0
280
       0
281
       0
  0
CLASS
  1
IMAGEDEF_REACTOR
  2
AcDbRasterImageDefReactor
  3
ISM
 90
        1
280
       0
281
       0
  0
CLASS
  1
IDBUFFER
  2
AcDbIdBuffer
  3
"Acad"
 90
        0
280
       0
281
       0
  0
CLASS
  1
SPATIAL_FILTER
  2
AcDbSpatialFilter
  3
"Acad"
 90
        0
280
       0
281
       0
  0
CLASS
  1
XRECORD
  2
AcDbXrecord
  3
"<Built In>"
 90
        0
280
       0
281
       0
  0
CLASS
  1
SORTENTSTABLE
  2
AcDbSortentsTable
  3
"AutoCAD"
 90
        0
280
       0
281
       0
  0
CLASS
  1
LAYER_INDEX
  2
AcDbLayerIndex
  3
"Acad"
 90
        0
280
       0
281
       0
  0
CLASS
  1
SPATIAL_INDEX
  2
AcDbSpatialIndex
  3
"Acad"
 90
        0
280
       0
281
       0
  0
CLASS
  1
OBJECT_PTR
  2
CAseDLPNTableRecord
  3
"ASE-LPNTableRecord"
 90
        1
280
       0
281
       0
  0
CLASS
  1
LAYOUT
  2
AcDbLayout
  3
"AutoCAD 2000"
 90
        1
280
       0
281
       0
  0
CLASS
  1
PLOTSETTINGS
  2
AcDbPlotSettings
  3
"AutoCAD 2000"
 90
        1
280
       0
281
       0
  0
CLASS
  1
ACDBDICTIONARYWDFLT
  2
AcDbDictionaryWithDefault
  3
"AutoCAD 2000"
 90
        1
280
       0
281
       0
  0
CLASS
  1
ACDBPLACEHOLDER
  2
AcDbPlaceHolder
  3
"AutoCAD 2000"
 90
        1
280
       0
281
       0
  0
CLASS
  1
VBA_PROJECT
  2
AcDbVbaProject
  3
"acadvba"
 90
        1
280
       0
281
       0
  0
CLASS
  1
WIPEOUT
  2
AcDbWipeout
  3
WipeOut|AutoCAD Express Tool|expresstools@autodesk.com
 90
      127
280
       0
281
       1
  0
CLASS
  1
WIPEOUTVARIABLES
  2
AcDbWipeoutVariables
  3
WipeOut|AutoCAD Express Tool|expresstools@autodesk.com
 90
        0
280
       0
281
       0
  0
CLASS
  1
RTEXT
  2
RText
  3
RText|AutoCAD Express Tool|expresstools@autodesk.com
 90
        0
280
       0
281
       1
  0
CLASS
  1
ARCALIGNEDTEXT
  2
AcDbArcAlignedText
  3
ATEXT|AutoCAD Express Tool|expresstools@autodesk.com
 90
        0
280
       0
281
       1
  0
ENDSEC
  0
SECTION
  2
TABLES
  0
TABLE
  2
VPORT
  5
7
100
AcDbSymbolTable
 70
       1
  0
VPORT
  5
15
100
AcDbSymbolTableRecord
100
AcDbViewportTableRecord
  2
*ACTIVE
 70
       0
 10
0.0
 20
0.0
 11
1.0
 21
1.0
 12
14.94783695
 22
-21.70904072
 13
0.0
 23
0.0
 14
1.0
 24
1.0
 15
0.0
 25
0.0
 16
0.0
 26
0.0
 36
1.0
 17
0.0
 27
0.0
 37
0.0
 40
171.86402001
 41
1.20212643
 42
50.0
 43
0.0
 44
0.0
 50
0.0
 51
0.0
 71
       0
 72
     100
 73
       1
 74
       1
 75
       0
 76
       0
 77
       0
 78
       0
  0
ENDTAB
  0
TABLE
  2
LTYPE
  5
4
100
AcDbSymbolTable
 70
      30
  0
LTYPE
  5
11
100
AcDbSymbolTableRecord
100
AcDbLinetypeTableRecord
  2
BYBLOCK
 70
      64
  3

 72
      65
 73
       0
 40
0.0
  0
LTYPE
  5
12
100
AcDbSymbolTableRecord
100
AcDbLinetypeTableRecord
  2
BYLAYER
 70
      64
  3

 72
      65
 73
       0
 40
0.0
  0
LTYPE
  5
13
100
AcDbSymbolTableRecord
100
AcDbLinetypeTableRecord
  2
CONTINUOUS
 70
      64
  3
Solid line
 72
      65
 73
       0
 40
0.0
  0
LTYPE
  5
1D
100
AcDbSymbolTableRecord
100
AcDbLinetypeTableRecord
  2
HIDDENX2
 70
      64
  3
CADPAC LINETYPE
 72
      65
 73
       2
 40
11.88
 49
8.91
 74
       0
 49
-2.97
 74
       0
  0
LTYPE
  5
1E
100
AcDbSymbolTableRecord
100
AcDbLinetypeTableRecord
  2
HIDDEN
 70
      64
  3
CADPAC LINETYPE
 72
      65
 73
       2
 40
8.91
 49
5.94
 74
       0
 49
-2.97
 74
       0
  0
LTYPE
  5
1F
100
AcDbSymbolTableRecord
100
AcDbLinetypeTableRecord
  2
HIDDEN2
 70
      64
  3
CADPAC LINETYPE
 72
      65
 73
       2
 40
7.425
 49
4.455
 74
       0
 49
-2.97
 74
       0
  0
LTYPE
  5
20
100
AcDbSymbolTableRecord
100
AcDbLinetypeTableRecord
  2
DASHED
 70
      64
  3
CADPAC LINETYPE
 72
      65
 73
       2
 40
8.91
 49
5.94
 74
       0
 49
-2.97
 74
       0
  0
LTYPE
  5
21
100
AcDbSymbolTableRecord
100
AcDbLinetypeTableRecord
  2
DASHED2
 70
      64
  3
CADPAC LINETYPE
 72
      65
 73
       2
 40
6.6825
 49
4.455
 74
       0
 49
-2.2275
 74
       0
  0
LTYPE
  5
22
100
AcDbSymbolTableRecord
100
AcDbLinetypeTableRecord
  2
DASHEDX2
 70
      64
  3
CADPAC LINETYPE
 72
      65
 73
       2
 40
13.365
 49
8.91
 74
       0
 49
-4.455
 74
       0
  0
LTYPE
  5
23
100
AcDbSymbolTableRecord
100
AcDbLinetypeTableRecord
  2
DOTX2
 70
      64
  3
CADPAC LINETYPE
 72
      65
 73
       2
 40
3.7125
 49
0.0
 74
       0
 49
-3.7125
 74
       0
  0
LTYPE
  5
24
100
AcDbSymbolTableRecord
100
AcDbLinetypeTableRecord
  2
DOT
 70
      64
  3
CADPAC LINETYPE
 72
      65
 73
       2
 40
2.97
 49
0.0
 74
       0
 49
-2.97
 74
       0
  0
LTYPE
  5
25
100
AcDbSymbolTableRecord
100
AcDbLinetypeTableRecord
  2
DOT2
 70
      64
  3
CADPAC LINETYPE
 72
      65
 73
       2
 40
2.2275
 49
0.0
 74
       0
 49
-2.2275
 74
       0
  0
LTYPE
  5
26
100
AcDbSymbolTableRecord
100
AcDbLinetypeTableRecord
  2
CENTERX2
 70
      64
  3
CADPAC LINETYPE
 72
      65
 73
       4
 40
17.82
 49
7.425
 74
       0
 49
-3.7125
 74
       0
 49
2.97
 74
       0
 49
-3.7125
 74
       0
  0
LTYPE
  5
27
100
AcDbSymbolTableRecord
100
AcDbLinetypeTableRecord
  2
CENTER
 70
      64
  3
CADPAC LINETYPE
 72
      65
 73
       4
 40
13.662
 49
5.94
 74
       0
 49
-2.97
 74
       0
 49
1.782
 74
       0
 49
-2.97
 74
       0
  0
LTYPE
  5
28
100
AcDbSymbolTableRecord
100
AcDbLinetypeTableRecord
  2
CENTER2
 70
      64
  3
CADPAC LINETYPE
 72
      65
 73
       4
 40
9.504
 49
4.455
 74
       0
 49
-2.2275
 74
       0
 49
0.594
 74
       0
 49
-2.2275
 74
       0
  0
LTYPE
  5
29
100
AcDbSymbolTableRecord
100
AcDbLinetypeTableRecord
  2
DASHDOTX2
 70
      64
  3
CADPAC LINETYPE
 72
      65
 73
       4
 40
14.85
 49
7.425
 74
       0
 49
-3.7125
 74
       0
 49
0.0
 74
       0
 49
-3.7125
 74
       0
  0
LTYPE
  5
2A
100
AcDbSymbolTableRecord
100
AcDbLinetypeTableRecord
  2
DASHDOT
 70
      64
  3
CADPAC LINETYPE
 72
      65
 73
       4
 40
11.88
 49
5.94
 74
       0
 49
-2.97
 74
       0
 49
0.0
 74
       0
 49
-2.97
 74
       0
  0
LTYPE
  5
2B
100
AcDbSymbolTableRecord
100
AcDbLinetypeTableRecord
  2
DASHDOT2
 70
      64
  3
CADPAC LINETYPE
 72
      65
 73
       4
 40
8.91
 49
4.455
 74
       0
 49
-2.2275
 74
       0
 49
0.0
 74
       0
 49
-2.2275
 74
       0
  0
LTYPE
  5
2C
100
AcDbSymbolTableRecord
100
AcDbLinetypeTableRecord
  2
DIVIDEX2
 70
      64
  3
CADPAC LINETYPE
 72
      65
 73
       6
 40
18.5625
 49
7.425
 74
       0
 49
-3.7125
 74
       0
 49
0.0
 74
       0
 49
-3.7125
 74
       0
 49
0.0
 74
       0
 49
-3.7125
 74
       0
  0
LTYPE
  5
2D
100
AcDbSymbolTableRecord
100
AcDbLinetypeTableRecord
  2
DIVIDE
 70
      64
  3
CADPAC LINETYPE
 72
      65
 73
       6
 40
14.85
 49
5.94
 74
       0
 49
-2.97
 74
       0
 49
0.0
 74
       0
 49
-2.97
 74
       0
 49
0.0
 74
       0
 49
-2.97
 74
       0
  0
LTYPE
  5
2E
100
AcDbSymbolTableRecord
100
AcDbLinetypeTableRecord
  2
DIVIDE2
 70
      64
  3
CADPAC LINETYPE
 72
      65
 73
       6
 40
11.1375
 49
4.455
 74
       0
 49
-2.2275
 74
       0
 49
0.0
 74
       0
 49
-2.2275
 74
       0
 49
0.0
 74
       0
 49
-2.2275
 74
       0
  0
LTYPE
  5
2F
100
AcDbSymbolTableRecord
100
AcDbLinetypeTableRecord
  2
BORDERX2
 70
      64
  3
CADPAC LINETYPE
 72
      65
 73
       6
 40
25.9875
 49
7.425
 74
       0
 49
-3.7125
 74
       0
 49
7.425
 74
       0
 49
-3.7125
 74
       0
 49
0.0
 74
       0
 49
-3.7125
 74
       0
  0
LTYPE
  5
30
100
AcDbSymbolTableRecord
100
AcDbLinetypeTableRecord
  2
BORDER
 70
      64
  3
CADPAC LINETYPE
 72
      65
 73
       6
 40
20.79
 49
5.94
 74
       0
 49
-2.97
 74
       0
 49
5.94
 74
       0
 49
-2.97
 74
       0
 49
0.0
 74
       0
 49
-2.97
 74
       0
  0
LTYPE
  5
31
100
AcDbSymbolTableRecord
100
AcDbLinetypeTableRecord
  2
BORDER2
 70
      64
  3
CADPAC LINETYPE
 72
      65
 73
       6
 40
15.5925
 49
4.455
 74
       0
 49
-2.2275
 74
       0
 49
4.455
 74
       0
 49
-2.2275
 74
       0
 49
0.0
 74
       0
 49
-2.2275
 74
       0
  0
LTYPE
  5
32
100
AcDbSymbolTableRecord
100
AcDbLinetypeTableRecord
  2
PHANTOMX2
 70
      64
  3
CADPAC LINETYPE
 72
      65
 73
       6
 40
22.275
 49
7.425
 74
       0
 49
-2.97
 74
       0
 49
2.97
 74
       0
 49
-2.97
 74
       0
 49
2.97
 74
       0
 49
-2.97
 74
       0
  0
LTYPE
  5
33
100
AcDbSymbolTableRecord
100
AcDbLinetypeTableRecord
  2
PHANTOM
 70
      64
  3
CADPAC LINETYPE
 72
      65
 73
       6
 40
18.414
 49
5.94
 74
       0
 49
-2.97
 74
       0
 49
1.782
 74
       0
 49
-2.97
 74
       0
 49
1.782
 74
       0
 49
-2.97
 74
       0
  0
LTYPE
  5
34
100
AcDbSymbolTableRecord
100
AcDbLinetypeTableRecord
  2
PHANTOM2
 70
      64
  3
CADPAC LINETYPE
 72
      65
 73
       6
 40
15.741
 49
4.455
 74
       0
 49
-2.97
 74
       0
 49
1.188
 74
       0
 49
-2.97
 74
       0
 49
1.188
 74
       0
 49
-2.97
 74
       0
  0
LTYPE
  5
35
100
AcDbSymbolTableRecord
100
AcDbLinetypeTableRecord
  2
ACAD_ISO06W100
 70
      64
  3
CADPAC LINETYPE
 72
      65
 73
       8
 40
20.0475
 49
7.425
 74
       0
 49
-3.7125
 74
       0
 49
0.0
 74
       0
 49
-2.97
 74
       0
 49
0.0
 74
       0
 49
-2.97
 74
       0
 49
0.0
 74
       0
 49
-2.97
 74
       0
  0
LTYPE
  5
36
100
AcDbSymbolTableRecord
100
AcDbLinetypeTableRecord
  2
ACAD_ISO13W100
 70
      64
  3
CADPAC LINETYPE
 72
      65
 73
       8
 40
23.76
 49
5.94
 74
       0
 49
-2.97
 74
       0
 49
5.94
 74
       0
 49
-2.97
 74
       0
 49
0.0
 74
       0
 49
-2.97
 74
       0
 49
0.0
 74
       0
 49
-2.97
 74
       0
  0
LTYPE
  5
37
100
AcDbSymbolTableRecord
100
AcDbLinetypeTableRecord
  2
ACAD_ISO14W100
 70
      64
  3
CADPAC LINETYPE
 72
      65
 73
       8
 40
17.82
 49
5.94
 74
       0
 49
-2.97
 74
       0
 49
0.0
 74
       0
 49
-2.97
 74
       0
 49
0.0
 74
       0
 49
-2.97
 74
       0
 49
0.0
 74
       0
 49
-2.97
 74
       0
  0
ENDTAB
  0
TABLE
  2
LAYER
  5
2
100
AcDbSymbolTable
 70
       2
  0
LAYER
  5
14
100
AcDbSymbolTableRecord
100
AcDbLayerTableRecord
  2
0
 70
       0
 62
       7
  6
CONTINUOUS
  0
LAYER
  5
38
100
AcDbSymbolTableRecord
100
AcDbLayerTableRecord
  2
レイヤー_1
 70
       0
 62
       7
  6
CONTINUOUS
  0
ENDTAB
  0
TABLE
  2
STYLE
  5
3
100
AcDbSymbolTable
 70
       1
  0
STYLE
  5
17
100
AcDbSymbolTableRecord
100
AcDbTextStyleTableRecord
  2
STANDARD
 70
       0
 40
0.0
 41
0.8
 50
0.0
 71
       0
 42
5.0
  3
txt.shx
  4
bigfont.shx
  0
ENDTAB
  0
TABLE
  2
VIEW
  5
5
100
AcDbSymbolTable
 70
       1
  0
VIEW
  5
39
100
AcDbSymbolTableRecord
100
AcDbViewTableRecord
  2
QQQQ
 70
       0
 40
171.86402001
 10
14.94783695
 20
-21.70904072
 41
206.60228035
 11
0.0
 21
0.0
 31
1.0
 12
100.0
 22
100.0
 32
0.0
 42
50.0
 43
0.0
 44
0.0
 50
0.0
 71
       0
  0
ENDTAB
  0
TABLE
  2
UCS
  5
6
100
AcDbSymbolTable
 70
       0
  0
ENDTAB
  0
TABLE
  2
APPID
  5
8
100
AcDbSymbolTable
 70
       1
  0
APPID
  5
16
100
AcDbSymbolTableRecord
100
AcDbRegAppTableRecord
  2
ACAD
 70
       0
  0
ENDTAB
  0
TABLE
  2
DIMSTYLE
  5
9
100
AcDbSymbolTable
 70
       1
  0
DIMSTYLE
105
18
100
AcDbSymbolTableRecord
100
AcDbDimStyleTableRecord
  2
STANDARD
 70
       0
  3

  4

  5

  6

  7

 40
1.0
 41
0.18
 42
0.0625
 43
0.38
 44
0.18
 45
0.0
 46
0.0
 47
0.0
 48
0.0
 71
       0
 72
       0
 73
       1
 74
       1
 75
       0
 76
       0
 77
       0
 78
       0
140
0.18
141
0.09
142
0.0
143
25.4
144
1.0
145
0.0
146
1.0
147
0.09
170
       0
171
       2
172
       0
173
       0
174
       0
175
       0
176
       0
177
       0
178
       0
270
       2
271
       4
272
       4
273
       2
274
       2
275
       0
280
       0
281
       0
282
       0
283
       1
284
       0
285
       0
286
       0
287
       0
288
       0
340
17
  0
ENDTAB
  0
TABLE
  2
BLOCK_RECORD
  5
1
100
AcDbSymbolTable
 70
       0
  0
BLOCK_RECORD
  5
A
100
AcDbSymbolTableRecord
100
AcDbBlockTableRecord
  2
*MODEL_SPACE
  0
BLOCK_RECORD
  5
B
100
AcDbSymbolTableRecord
100
AcDbBlockTableRecord
  2
*PAPER_SPACE
  0
ENDTAB
  0
ENDSEC
  0
SECTION
  2
BLOCKS
  0
BLOCK
  5
D
100
AcDbEntity
  8
0
100
AcDbBlockBegin
  2
*MODEL_SPACE
 70
       0
 10
0.0
 20
0.0
 30
0.0
  3
*MODEL_SPACE
  1

  0
ENDBLK
  5
E
100
AcDbEntity
  8
0
100
AcDbBlockEnd
  0
BLOCK
  5
F
100
AcDbEntity
 67
       1
  8
0
100
AcDbBlockBegin
  2
*PAPER_SPACE
 70
       0
 10
0.0
 20
0.0
 30
0.0
  3
*PAPER_SPACE
  1

  0
ENDBLK
  5
10
100
AcDbEntity
 67
       1
  8
0
100
AcDbBlockEnd
  0
ENDSEC
  0
SECTION
  2
ENTITIES
  0
LINE
  5
3A
100
AcDbEntity
  8
レイヤー_1
  6
CONTINUOUS
 62
       3
100
AcDbLine
 10
69.88540607
 20
16.96888334
 30
0.0
 11
70.75444961
 21
15.47990289
 31
0.0
  0
LINE
  5
3B
100
AcDbEntity
  8
レイヤー_1
  6
CONTINUOUS
 62
       3
100
AcDbLine
 10
-66.16781881
 20
48.35134409
 30
0.0
 11
-66.15437193
 21
48.36627977
 31
0.0
  0
LINE
  5
3C
100
AcDbEntity
  8
レイヤー_1
  6
CONTINUOUS
 62
       3
100
AcDbLine
 10
69.88540607
 20
16.96888334
 30
0.0
 11
69.88194903
 21
16.97933327
 31
0.0
  0
LINE
  5
3D
100
AcDbEntity
  8
レイヤー_1
  6
CONTINUOUS
 62
       3
100
AcDbLine
 10
69.88194903
 20
16.97933327
 30
0.0
 11
69.85568324
 21
16.97933327
 31
0.0
  0
LINE
  5
3E
100
AcDbEntity
  8
レイヤー_1
  6
CONTINUOUS
 62
       3
100
AcDbLine
 10
69.85568324
 20
16.97933327
 30
0.0
 11
69.80670528
 21
16.97933327
 31
0.0
  0
LINE
  5
3F
100
AcDbEntity
  8
レイヤー_1
  6
CONTINUOUS
 62
       3
100
AcDbLine
 10
69.80670528
 20
16.97933327
 30
0.0
 11
69.73872325
 21
16.97933327
 31
0.0
  0
LINE
  5
40
100
AcDbEntity
  8
レイヤー_1
  6
CONTINUOUS
 62
       3
100
AcDbLine
 10
69.73872325
 20
16.97933327
 30
0.0
 11
69.65544526
 21
16.97933327
 31
0.0
  0
LINE
  5
41
100
AcDbEntity
  8
レイヤー_1
  6
CONTINUOUS
 62
       3
100
AcDbLine
 10
69.65544526
 20
16.97933327
 30
0.0
 11
69.56057943
 21
16.97933327
 31
0.0
  0
LINE
  5
42
100
AcDbEntity
  8
レイヤー_1
  6
CONTINUOUS
 62
       3
100
AcDbLine
 10
69.56057943
 20
16.97933327
 30
0.0
 11
69.45783386
 21
16.97933327
 31
0.0
  0
LINE
  5
43
100
AcDbEntity
  8
レイヤー_1
  6
CONTINUOUS
 62
       3
100
AcDbLine
 10
69.45783386
 20
16.97933327
 30
0.0
 11
69.35091667
 21
16.97933327
 31
0.0
  0
LINE
  5
44
100
AcDbEntity
  8
レイヤー_1
  6
CONTINUOUS
 62
       3
100
AcDbLine
 10
69.35091667
 20
16.97933327
 30
0.0
 11
69.24353596
 21
16.97933327
 31
0.0
  0
LINE
  5
45
100
AcDbEntity
  8
レイヤー_1
  6
CONTINUOUS
 62
       3
100
AcDbLine
 10
69.24353596
 20
16.97933327
 30
0.0
 11
69.13939985
 21
16.97933327
 31
0.0
  0
LINE
  5
46
100
AcDbEntity
  8
レイヤー_1
  6
CONTINUOUS
 62
       3
100
AcDbLine
 10
69.13939985
 20
16.97933327
 30
0.0
 11
69.04221645
 21
16.97933327
 31
0.0
  0
LINE
  5
47
100
AcDbEntity
  8
レイヤー_1
  6
CONTINUOUS
 62
       3
100
AcDbLine
 10
69.04221645
 20
16.97933327
 30
0.0
 11
68.95569386
 21
16.97933327
 31
0.0
  0
LINE
  5
48
100
AcDbEntity
  8
レイヤー_1
  6
CONTINUOUS
 62
       3
100
AcDbLine
 10
68.95569386
 20
16.97933327
 30
0.0
 11
68.88354021
 21
16.97933327
 31
0.0
  0
LINE
  5
49
100
AcDbEntity
  8
レイヤー_1
  6
CONTINUOUS
 62
       3
100
AcDbLine
 10
68.88354021
 20
16.97933327
 30
0.0
 11
68.82946359
 21
16.97933327
 31
0.0
  0
LINE
  5
4A
100
AcDbEntity
  8
レイヤー_1
  6
CONTINUOUS
 62
       3
100
AcDbLine
 10
68.82946359
 20
16.97933327
 30
0.0
 11
68.79717213
 21
16.97933327
 31
0.0
  0
LINE
  5
4B
100
AcDbEntity
  8
レイヤー_1
  6
CONTINUOUS
 62
       3
100
AcDbLine
 10
68.79717213
 20
16.97933327
 30
0.0
 11
68.7894807
 21
16.97618846
 31
0.0
  0
LINE
  5
4C
100
AcDbEntity
  8
レイヤー_1
  6
CONTINUOUS
 62
       3
100
AcDbLine
 10
68.7894807
 20
16.97618846
 30
0.0
 11
68.7894807
 21
16.90418777
 31
0.0
  0
LINE
  5
4D
100
AcDbEntity
  8
レイヤー_1
  6
CONTINUOUS
 62
       3
100
AcDbLine
 10
68.7894807
 20
16.90418777
 30
0.0
 11
68.7894807
 21
16.74712063
 31
0.0
  0
LINE
  5
4E
100
AcDbEntity
  8
レイヤー_1
  6
CONTINUOUS
 62
       3
100
AcDbLine
 10
68.7894807
 20
16.74712063
 30
0.0
 11
68.7894807
 21
16.51833079
 31
0.0
  0
LINE
  5
4F
100
AcDbEntity
  8
レイヤー_1
  6
CONTINUOUS
 62
       3
100
AcDbLine
 10
68.7894807
 20
16.51833079
 30
0.0
 11
68.7894807
 21
16.23116203
 31
0.0
  0
LINE
  5
50
100
AcDbEntity
  8
レイヤー_1
  6
CONTINUOUS
 62
       3
100
AcDbLine
 10
68.7894807
 20
16.23116203
 30
0.0
 11
68.7894807
 21
15.89895807
 31
0.0
  0
LINE
  5
51
100
AcDbEntity
  8
レイヤー_1
  6
CONTINUOUS
 62
       3
100
AcDbLine
 10
68.7894807
 20
15.89895807
 30
0.0
 11
68.7894807
 21
15.5350627
 31
0.0
  0
LINE
  5
52
100
AcDbEntity
  8
レイヤー_1
  6
CONTINUOUS
 62
       3
100
AcDbLine
 10
68.7894807
 20
15.5350627
 30
0.0
 11
68.7894807
 21
15.15281966
 31
0.0
  0
LINE
  5
53
100
AcDbEntity
  8
レイヤー_1
  6
CONTINUOUS
 62
       3
100
AcDbLine
 10
68.7894807
 20
15.15281966
 30
0.0
 11
68.7894807
 21
14.76557271
 31
0.0
  0
LINE
  5
54
100
AcDbEntity
  8
レイヤー_1
  6
CONTINUOUS
 62
       3
100
AcDbLine
 10
68.7894807
 20
14.76557271
 30
0.0
 11
68.7894807
 21
14.38666562
 31
0.0
  0
LINE
  5
55
100
AcDbEntity
  8
レイヤー_1
  6
CONTINUOUS
 62
       3
100
AcDbLine
 10
68.7894807
 20
14.38666562
 30
0.0
 11
68.7894807
 21
14.02944212
 31
0.0
  0
LINE
  5
56
100
AcDbEntity
  8
レイヤー_1
  6
CONTINUOUS
 62
       3
100
AcDbLine
 10
68.7894807
 20
14.02944212
 30
0.0
 11
68.7894807
 21
13.70724599
 31
0.0
  0
LINE
  5
57
100
AcDbEntity
  8
レイヤー_1
  6
CONTINUOUS
 62
       3
100
AcDbLine
 10
68.7894807
 20
13.70724599
 30
0.0
 11
68.7894807
 21
13.43342098
 31
0.0
  0
LINE
  5
58
100
AcDbEntity
  8
レイヤー_1
  6
CONTINUOUS
 62
       3
100
AcDbLine
 10
68.7894807
 20
13.43342098
 30
0.0
 11
68.7894807
 21
13.22131084
 31
0.0
  0
LINE
  5
59
100
AcDbEntity
  8
レイヤー_1
  6
CONTINUOUS
 62
       3
100
AcDbLine
 10
68.7894807
 20
13.22131084
 30
0.0
 11
68.7894807
 21
13.08425933
 31
0.0
  0
LINE
  5
5A
100
AcDbEntity
  8
レイヤー_1
  6
CONTINUOUS
 62
       3
100
AcDbLine
 10
68.7894807
 20
13.08425933
 30
0.0
 11
68.7894807
 21
13.03561022
 31
0.0
  0
LINE
  5
5B
100
AcDbEntity
  8
レイヤー_1
  6
CONTINUOUS
 62
       3
100
AcDbLine
 10
68.7894807
 20
13.03561022
 30
0.0
 11
68.79036173
 21
12.92156351
 31
0.0
  0
LINE
  5
5C
100
AcDbEntity
  8
レイヤー_1
  6
CONTINUOUS
 62
       3
100
AcDbLine
 10
68.80348211
 20
-13.80947895
 30
0.0
 11
68.79503232
 21
-13.8707793
 31
0.0
  0
LINE
  5
5D
100
AcDbEntity
  8
レイヤー_1
  6
CONTINUOUS
 62
       3
100
AcDbLine
 10
68.79503232
 20
-13.8707793
 30
0.0
 11
68.79092786
 21
-13.91672176
 31
0.0
  0
LINE
  5
5E
100
AcDbEntity
  8
レイヤー_1
  6
CONTINUOUS
 62
       3
100
AcDbLine
 10
68.79092786
 20
-13.91672176
 30
0.0
 11
68.78959938
 21
-13.94415596
 31
0.0
  0
LINE
  5
5F
100
AcDbEntity
  8
レイヤー_1
  6
CONTINUOUS
 62
       3
100
AcDbLine
 10
68.78959938
 20
-13.94415596
 30
0.0
 11
68.7894807
 21
-13.95374687
 31
0.0
  0
LINE
  5
60
100
AcDbEntity
  8
レイヤー_1
  6
CONTINUOUS
 62
       3
100
AcDbLine
 10
68.7894807
 20
-13.95374687
 30
0.0
 11
68.7894807
 21
-14.02372366
 31
0.0
  0
LINE
  5
61
100
AcDbEntity
  8
レイヤー_1
  6
CONTINUOUS
 62
       3
100
AcDbLine
 10
68.7894807
 20
-14.02372366
 30
0.0
 11
68.7894807
 21
-14.17637571
 31
0.0
  0
LINE
  5
62
100
AcDbEntity
  8
レイヤー_1
  6
CONTINUOUS
 62
       3
100
AcDbLine
 10
68.7894807
 20
-14.17637571
 30
0.0
 11
68.7894807
 21
-14.39873438
 31
0.0
  0
LINE
  5
63
100
AcDbEntity
  8
レイヤー_1
  6
CONTINUOUS
 62
       3
100
AcDbLine
 10
68.7894807
 20
-14.39873438
 30
0.0
 11
68.7894807
 21
-14.67783097
 31
0.0
  0
LINE
  5
64
100
AcDbEntity
  8
レイヤー_1
  6
CONTINUOUS
 62
       3
100
AcDbLine
 10
68.7894807
 20
-14.67783097
 30
0.0
 11
68.7894807
 21
-15.00069682
 31
0.0
  0
LINE
  5
65
100
AcDbEntity
  8
レイヤー_1
  6
CONTINUOUS
 62
       3
100
AcDbLine
 10
68.7894807
 20
-15.00069682
 30
0.0
 11
68.7894807
 21
-15.35436327
 31
0.0
  0
LINE
  5
66
100
AcDbEntity
  8
レイヤー_1
  6
CONTINUOUS
 62
       3
100
AcDbLine
 10
68.7894807
 20
-15.35436327
 30
0.0
 11
68.7894807
 21
-15.72586164
 31
0.0
  0
LINE
  5
67
100
AcDbEntity
  8
レイヤー_1
  6
CONTINUOUS
 62
       3
100
AcDbLine
 10
68.7894807
 20
-15.72586164
 30
0.0
 11
68.7894807
 21
-16.10222326
 31
0.0
  0
LINE
  5
68
100
AcDbEntity
  8
レイヤー_1
  6
CONTINUOUS
 62
       3
100
AcDbLine
 10
68.7894807
 20
-16.10222326
 30
0.0
 11
68.7894807
 21
-16.47047946
 31
0.0
  0
LINE
  5
69
100
AcDbEntity
  8
レイヤー_1
  6
CONTINUOUS
 62
       3
100
AcDbLine
 10
68.7894807
 20
-16.47047946
 30
0.0
 11
68.7894807
 21
-16.81766157
 31
0.0
  0
LINE
  5
6A
100
AcDbEntity
  8
レイヤー_1
  6
CONTINUOUS
 62
       3
100
AcDbLine
 10
68.7894807
 20
-16.81766157
 30
0.0
 11
68.7894807
 21
-17.13080092
 31
0.0
  0
LINE
  5
6B
100
AcDbEntity
  8
レイヤー_1
  6
CONTINUOUS
 62
       3
100
AcDbLine
 10
68.7894807
 20
-17.13080092
 30
0.0
 11
68.7894807
 21
-17.39692885
 31
0.0
  0
LINE
  5
6C
100
AcDbEntity
  8
レイヤー_1
  6
CONTINUOUS
 62
       3
100
AcDbLine
 10
68.7894807
 20
-17.39692885
 30
0.0
 11
68.7894807
 21
-17.60307667
 31
0.0
  0
LINE
  5
6D
100
AcDbEntity
  8
レイヤー_1
  6
CONTINUOUS
 62
       3
100
AcDbLine
 10
-66.2913626
 20
-24.62045444
 30
0.0
 11
-66.39130548
 21
-24.62045444
 31
0.0
  0
LINE
  5
6E
100
AcDbEntity
  8
レイヤー_1
  6
CONTINUOUS
 62
       3
100
AcDbLine
 10
-72.09207031
 20
-24.62045444
 30
0.0
 11
-71.99184023
 21
-24.62045444
 31
0.0
  0
LINE
  5
6F
100
AcDbEntity
  8
レイヤー_1
  6
CONTINUOUS
 62
       3
100
AcDbLine
 10
-69.19171646
 20
-46.7796289
 30
0.0
 11
-68.74599419
 21
-46.75493037
 31
0.0
  0
LINE
  5
70
100
AcDbEntity
  8
レイヤー_1
  6
CONTINUOUS
 62
       3
100
AcDbLine
 10
-68.74599419
 20
-46.75493037
 30
0.0
 11
-68.30773892
 21
-46.67911163
 31
0.0
  0
LINE
  5
71
100
AcDbEntity
  8
レイヤー_1
  6
CONTINUOUS
 62
       3
100
AcDbLine
 10
-68.30773892
 20
-46.67911163
 30
0.0
 11
-67.88527921
 21
-46.55619338
 31
0.0
  0
LINE
  5
72
100
AcDbEntity
  8
レイヤー_1
  6
CONTINUOUS
 62
       3
100
AcDbLine
 10
-67.88527921
 20
-46.55619338
 30
0.0
 11
-67.488954
 21
-46.38560123
 31
0.0
  0
LINE
  5
73
100
AcDbEntity
  8
レイヤー_1
  6
CONTINUOUS
 62
       3
100
AcDbLine
 10
-67.488954
 20
-46.38560123
 30
0.0
 11
-67.12536869
 21
-46.17193024
 31
0.0
  0
LINE
  5
74
100
AcDbEntity
  8
レイヤー_1
  6
CONTINUOUS
 62
       3
100
AcDbLine
 10
-67.12536869
 20
-46.17193024
 30
0.0
 11
-66.80141591
 21
-45.92034989
 31
0.0
  0
LINE
  5
75
100
AcDbEntity
  8
レイヤー_1
  6
CONTINUOUS
 62
       3
100
AcDbLine
 10
-66.80141591
 20
-45.92034989
 30
0.0
 11
-66.52082915
 21
-45.63430647
 31
0.0
  0
LINE
  5
76
100
AcDbEntity
  8
レイヤー_1
  6
CONTINUOUS
 62
       3
100
AcDbLine
 10
-66.52082915
 20
-45.63430647
 30
0.0
 11
-66.2913626
 21
-45.31954384
 31
0.0
  0
LINE
  5
77
100
AcDbEntity
  8
レイヤー_1
  6
CONTINUOUS
 62
       3
100
AcDbLine
 10
-66.2913626
 20
-45.31954384
 30
0.0
 11
-66.2913626
 21
-44.63200575
 31
0.0
  0
LINE
  5
78
100
AcDbEntity
  8
レイヤー_1
  6
CONTINUOUS
 62
       3
100
AcDbLine
 10
-69.19171646
 20
-47.92380256
 30
0.0
 11
-68.74599419
 21
-47.89795526
 31
0.0
  0
LINE
  5
79
100
AcDbEntity
  8
レイヤー_1
  6
CONTINUOUS
 62
       3
100
AcDbLine
 10
-68.74599419
 20
-47.89795526
 30
0.0
 11
-68.30773892
 21
-47.82328529
 31
0.0
  0
LINE
  5
7A
100
AcDbEntity
  8
レイヤー_1
  6
CONTINUOUS
 62
       3
100
AcDbLine
 10
-68.30773892
 20
-47.82328529
 30
0.0
 11
-67.88527921
 21
-47.69864388
 31
0.0
  0
LINE
  5
7B
100
AcDbEntity
  8
レイヤー_1
  6
CONTINUOUS
 62
       3
100
AcDbLine
 10
-67.88527921
 20
-47.69864388
 30
0.0
 11
-67.488954
 21
-47.52805173
 31
0.0
  0
LINE
  5
7C
100
AcDbEntity
  8
レイヤー_1
  6
CONTINUOUS
 62
       3
100
AcDbLine
 10
-67.488954
 20
-47.52805173
 30
0.0
 11
-67.12536869
 21
-47.31552951
 31
0.0
  0
LINE
  5
7D
100
AcDbEntity
  8
レイヤー_1
  6
CONTINUOUS
 62
       3
100
AcDbLine
 10
-67.12536869
 20
-47.31552951
 30
0.0
 11
-66.80141591
 21
-47.06452355
 31
0.0
  0
LINE
  5
7E
100
AcDbEntity
  8
レイヤー_1
  6
CONTINUOUS
 62
       3
100
AcDbLine
 10
-66.80141591
 20
-47.06452355
 30
0.0
 11
-66.52082915
 21
-46.77733136
 31
0.0
  0
LINE
  5
7F
100
AcDbEntity
  8
レイヤー_1
  6
CONTINUOUS
 62
       3
100
AcDbLine
 10
-66.52082915
 20
-46.77733136
 30
0.0
 11
-66.2913626
 21
-46.46256872
 31
0.0
  0
LINE
  5
80
100
AcDbEntity
  8
レイヤー_1
  6
CONTINUOUS
 62
       3
100
AcDbLine
 10
-66.2913626
 20
-46.46256872
 30
0.0
 11
-66.2913626
 21
-45.89335382
 31
0.0
  0
LINE
  5
81
100
AcDbEntity
  8
レイヤー_1
  6
CONTINUOUS
 62
       3
100
AcDbLine
 10
-66.2913626
 20
-45.89335382
 30
0.0
 11
-66.52082915
 21
-46.20754207
 31
0.0
  0
LINE
  5
82
100
AcDbEntity
  8
レイヤー_1
  6
CONTINUOUS
 62
       3
100
AcDbLine
 10
-66.52082915
 20
-46.20754207
 30
0.0
 11
-66.80141591
 21
-46.49358549
 31
0.0
  0
LINE
  5
83
100
AcDbEntity
  8
レイヤー_1
  6
CONTINUOUS
 62
       3
100
AcDbLine
 10
-66.80141591
 20
-46.49358549
 30
0.0
 11
-67.12536869
 21
-46.74631461
 31
0.0
  0
LINE
  5
84
100
AcDbEntity
  8
レイヤー_1
  6
CONTINUOUS
 62
       3
100
AcDbLine
 10
-67.12536869
 20
-46.74631461
 30
0.0
 11
-67.488954
 21
-46.95826243
 31
0.0
  0
LINE
  5
85
100
AcDbEntity
  8
レイヤー_1
  6
CONTINUOUS
 62
       3
100
AcDbLine
 10
-67.488954
 20
-46.95826243
 30
0.0
 11
-67.88527921
 21
-47.12942898
 31
0.0
  0
LINE
  5
86
100
AcDbEntity
  8
レイヤー_1
  6
CONTINUOUS
 62
       3
100
AcDbLine
 10
-67.88527921
 20
-47.12942898
 30
0.0
 11
-68.30773892
 21
-47.25407038
 31
0.0
  0
LINE
  5
87
100
AcDbEntity
  8
レイヤー_1
  6
CONTINUOUS
 62
       3
100
AcDbLine
 10
-68.30773892
 20
-47.25407038
 30
0.0
 11
-68.74599419
 21
-47.32759158
 31
0.0
  0
LINE
  5
88
100
AcDbEntity
  8
レイヤー_1
  6
CONTINUOUS
 62
       3
100
AcDbLine
 10
-68.74599419
 20
-47.32759158
 30
0.0
 11
-69.19171646
 21
-47.35286449
 31
0.0
  0
LINE
  5
89
100
AcDbEntity
  8
レイヤー_1
  6
CONTINUOUS
 62
       3
100
AcDbLine
 10
-66.2913626
 20
43.59142253
 30
0.0
 11
-66.2913626
 21
44.27896062
 31
0.0
  0
LINE
  5
8A
100
AcDbEntity
  8
レイヤー_1
  6
CONTINUOUS
 62
       3
100
AcDbLine
 10
-66.2913626
 20
44.85248341
 30
0.0
 11
-66.2913626
 21
45.42198551
 31
0.0
  0
LINE
  5
8B
100
AcDbEntity
  8
レイヤー_1
  6
CONTINUOUS
 62
       3
100
AcDbLine
 10
-66.2913626
 20
45.42198551
 30
0.0
 11
-66.52082915
 21
45.73703534
 31
0.0
  0
LINE
  5
8C
100
AcDbEntity
  8
レイヤー_1
  6
CONTINUOUS
 62
       3
100
AcDbLine
 10
-66.52082915
 20
45.73703534
 30
0.0
 11
-66.80141591
 21
46.02365313
 31
0.0
  0
LINE
  5
8D
100
AcDbEntity
  8
レイヤー_1
  6
CONTINUOUS
 62
       3
100
AcDbLine
 10
-66.80141591
 20
46.02365313
 30
0.0
 11
-67.12536869
 21
46.2746591
 31
0.0
  0
LINE
  5
8E
100
AcDbEntity
  8
レイヤー_1
  6
CONTINUOUS
 62
       3
100
AcDbLine
 10
-67.12536869
 20
46.2746591
 30
0.0
 11
-67.488954
 21
46.48833008
 31
0.0
  0
LINE
  5
8F
100
AcDbEntity
  8
レイヤー_1
  6
CONTINUOUS
 62
       3
100
AcDbLine
 10
-67.488954
 20
46.48833008
 30
0.0
 11
-67.88527921
 21
46.65834786
 31
0.0
  0
LINE
  5
90
100
AcDbEntity
  8
レイヤー_1
  6
CONTINUOUS
 62
       3
100
AcDbLine
 10
-67.88527921
 20
46.65834786
 30
0.0
 11
-68.30773892
 21
46.78184049
 31
0.0
  0
LINE
  5
91
100
AcDbEntity
  8
レイヤー_1
  6
CONTINUOUS
 62
       3
100
AcDbLine
 10
-68.30773892
 20
46.78184049
 30
0.0
 11
-68.74599419
 21
46.85765923
 31
0.0
  0
LINE
  5
92
100
AcDbEntity
  8
レイヤー_1
  6
CONTINUOUS
 62
       3
100
AcDbLine
 10
-68.74599419
 20
46.85765923
 30
0.0
 11
-69.19171646
 21
46.88178338
 31
0.0
  0
LINE
  5
93
100
AcDbEntity
  8
レイヤー_1
  6
CONTINUOUS
 62
       3
100
AcDbLine
 10
-66.2913626
 20
44.85248341
 30
0.0
 11
-66.52082915
 21
45.16724604
 31
0.0
  0
LINE
  5
94
100
AcDbEntity
  8
レイヤー_1
  6
CONTINUOUS
 62
       3
100
AcDbLine
 10
-66.52082915
 20
45.16724604
 30
0.0
 11
-66.80141591
 21
45.45415103
 31
0.0
  0
LINE
  5
95
100
AcDbEntity
  8
レイヤー_1
  6
CONTINUOUS
 62
       3
100
AcDbLine
 10
-66.80141591
 20
45.45415103
 30
0.0
 11
-67.12536869
 21
45.70601857
 31
0.0
  0
LINE
  5
96
100
AcDbEntity
  8
レイヤー_1
  6
CONTINUOUS
 62
       3
100
AcDbLine
 10
-67.12536869
 20
45.70601857
 30
0.0
 11
-67.488954
 21
45.91882799
 31
0.0
  0
LINE
  5
97
100
AcDbEntity
  8
レイヤー_1
  6
CONTINUOUS
 62
       3
100
AcDbLine
 10
-67.488954
 20
45.91882799
 30
0.0
 11
-67.88527921
 21
46.08827137
 31
0.0
  0
LINE
  5
98
100
AcDbEntity
  8
レイヤー_1
  6
CONTINUOUS
 62
       3
100
AcDbLine
 10
-67.88527921
 20
46.08827137
 30
0.0
 11
-68.30773892
 21
46.2123384
 31
0.0
  0
LINE
  5
99
100
AcDbEntity
  8
レイヤー_1
  6
CONTINUOUS
 62
       3
100
AcDbLine
 10
-68.30773892
 20
46.2123384
 30
0.0
 11
-68.74599419
 21
46.28815713
 31
0.0
  0
LINE
  5
9A
100
AcDbEntity
  8
レイヤー_1
  6
CONTINUOUS
 62
       3
100
AcDbLine
 10
-68.74599419
 20
46.28815713
 30
0.0
 11
-69.19171646
 21
46.31285566
 31
0.0
  0
LINE
  5
9B
100
AcDbEntity
  8
レイヤー_1
  6
CONTINUOUS
 62
       3
100
AcDbLine
 10
-69.19171646
 20
45.74019445
 30
0.0
 11
-68.74599419
 21
45.71405996
 31
0.0
  0
LINE
  5
9C
100
AcDbEntity
  8
レイヤー_1
  6
CONTINUOUS
 62
       3
100
AcDbLine
 10
-68.74599419
 20
45.71405996
 30
0.0
 11
-68.30773892
 21
45.63938999
 31
0.0
  0
LINE
  5
9D
100
AcDbEntity
  8
レイヤー_1
  6
CONTINUOUS
 62
       3
100
AcDbLine
 10
-68.30773892
 20
45.63938999
 30
0.0
 11
-67.88527921
 21
45.51532296
 31
0.0
  0
LINE
  5
9E
100
AcDbEntity
  8
レイヤー_1
  6
CONTINUOUS
 62
       3
100
AcDbLine
 10
-67.88527921
 20
45.51532296
 30
0.0
 11
-67.488954
 21
45.34530519
 31
0.0
  0
LINE
  5
9F
100
AcDbEntity
  8
レイヤー_1
  6
CONTINUOUS
 62
       3
100
AcDbLine
 10
-67.488954
 20
45.34530519
 30
0.0
 11
-67.12536869
 21
45.13192141
 31
0.0
  0
LINE
  5
A0
100
AcDbEntity
  8
レイヤー_1
  6
CONTINUOUS
 62
       3
100
AcDbLine
 10
-67.12536869
 20
45.13192141
 30
0.0
 11
-66.80141591
 21
44.88062824
 31
0.0
  0
LINE
  5
A1
100
AcDbEntity
  8
レイヤー_1
  6
CONTINUOUS
 62
       3
100
AcDbLine
 10
-66.80141591
 20
44.88062824
 30
0.0
 11
-66.52082915
 21
44.59372325
 31
0.0
  0
LINE
  5
A2
100
AcDbEntity
  8
レイヤー_1
  6
CONTINUOUS
 62
       3
100
AcDbLine
 10
-66.52082915
 20
44.59372325
 30
0.0
 11
-66.2913626
 21
44.27896062
 31
0.0
  0
LINE
  5
A3
100
AcDbEntity
  8
レイヤー_1
  6
CONTINUOUS
 62
       3
100
AcDbLine
 10
-69.19171646
 20
-28.0202355
 30
0.0
 11
-69.19171646
 21
-27.52109549
 31
0.0
  0
LINE
  5
A4
100
AcDbEntity
  8
レイヤー_1
  6
CONTINUOUS
 62
       3
100
AcDbLine
 10
-66.2913626
 20
-21.37748031
 30
0.0
 11
-66.39130548
 21
-21.37748031
 31
0.0
  0
LINE
  5
A5
100
AcDbEntity
  8
レイヤー_1
  6
CONTINUOUS
 62
       3
100
AcDbLine
 10
-69.19171646
 20
-29.02023868
 30
0.0
 11
-69.19171646
 21
-29.00070961
 31
0.0
  0
LINE
  5
A6
100
AcDbEntity
  8
レイヤー_1
  6
CONTINUOUS
 62
       3
100
AcDbLine
 10
-69.19171646
 20
-29.00070961
 30
0.0
 11
-69.19171646
 21
-28.94384556
 31
0.0
  0
LINE
  5
A7
100
AcDbEntity
  8
レイヤー_1
  6
CONTINUOUS
 62
       3
100
AcDbLine
 10
-69.19171646
 20
-28.94384556
 30
0.0
 11
-69.19171646
 21
-28.85251845
 31
0.0
  0
LINE
  5
A8
100
AcDbEntity
  8
レイヤー_1
  6
CONTINUOUS
 62
       3
100
AcDbLine
 10
-69.19171646
 20
-28.85251845
 30
0.0
 11
-69.19171646
 21
-28.72787704
 31
0.0
  0
LINE
  5
A9
100
AcDbEntity
  8
レイヤー_1
  6
CONTINUOUS
 62
       3
100
AcDbLine
 10
-69.19171646
 20
-28.72787704
 30
0.0
 11
-69.19171646
 21
-28.57566518
 31
0.0
  0
LINE
  5
AA
100
AcDbEntity
  8
レイヤー_1
  6
CONTINUOUS
 62
       3
100
AcDbLine
 10
-69.19171646
 20
-28.57566518
 30
0.0
 11
-69.19171646
 21
-28.40334987
 31
0.0
  0
LINE
  5
AB
100
AcDbEntity
  8
レイヤー_1
  6
CONTINUOUS
 62
       3
100
AcDbLine
 10
-69.19171646
 20
-28.40334987
 30
0.0
 11
-69.19171646
 21
-28.2149518
 31
0.0
  0
LINE
  5
AC
100
AcDbEntity
  8
レイヤー_1
  6
CONTINUOUS
 62
       3
100
AcDbLine
 10
-69.19171646
 20
-28.2149518
 30
0.0
 11
-69.19171646
 21
-28.0202355
 31
0.0
  0
LINE
  5
AD
100
AcDbEntity
  8
レイヤー_1
  6
CONTINUOUS
 62
       3
100
AcDbLine
 10
-69.19171646
 20
-28.0202355
 30
0.0
 11
-66.2913626
 21
-28.0202355
 31
0.0
  0
LINE
  5
AE
100
AcDbEntity
  8
レイヤー_1
  6
CONTINUOUS
 62
       3
100
AcDbLine
 10
-65.49325552
 20
-28.0202355
 30
0.0
 11
-66.2913626
 21
-28.0202355
 31
0.0
  0
LINE
  5
AF
100
AcDbEntity
  8
レイヤー_1
  6
CONTINUOUS
 62
       3
100
AcDbLine
 10
-66.2913626
 20
-28.0202355
 30
0.0
 11
-66.2913626
 21
-27.8255192
 31
0.0
  0
LINE
  5
B0
100
AcDbEntity
  8
レイヤー_1
  6
CONTINUOUS
 62
       3
100
AcDbLine
 10
-66.2913626
 20
-27.8255192
 30
0.0
 11
-66.2913626
 21
-27.63769552
 31
0.0
  0
LINE
  5
B1
100
AcDbEntity
  8
レイヤー_1
  6
CONTINUOUS
 62
       3
100
AcDbLine
 10
-66.2913626
 20
-27.63769552
 30
0.0
 11
-66.2913626
 21
-27.4653802
 31
0.0
  0
LINE
  5
B2
100
AcDbEntity
  8
レイヤー_1
  6
CONTINUOUS
 62
       3
100
AcDbLine
 10
-66.2913626
 20
-27.4653802
 30
0.0
 11
-66.2913626
 21
-27.31316835
 31
0.0
  0
LINE
  5
B3
100
AcDbEntity
  8
レイヤー_1
  6
CONTINUOUS
 62
       3
100
AcDbLine
 10
-66.2913626
 20
-27.31316835
 30
0.0
 11
-66.2913626
 21
-27.18795255
 31
0.0
  0
LINE
  5
B4
100
AcDbEntity
  8
レイヤー_1
  6
CONTINUOUS
 62
       3
100
AcDbLine
 10
-66.2913626
 20
-27.18795255
 30
0.0
 11
-66.2913626
 21
-27.09662544
 31
0.0
  0
LINE
  5
B5
100
AcDbEntity
  8
レイヤー_1
  6
CONTINUOUS
 62
       3
100
AcDbLine
 10
-66.2913626
 20
-27.09662544
 30
0.0
 11
-66.2913626
 21
-27.03918701
 31
0.0
  0
LINE
  5
B6
100
AcDbEntity
  8
レイヤー_1
  6
CONTINUOUS
 62
       3
100
AcDbLine
 10
-66.2913626
 20
-27.03918701
 30
0.0
 11
-66.2913626
 21
-27.02023232
 31
0.0
  0
LINE
  5
B7
100
AcDbEntity
  8
レイヤー_1
  6
CONTINUOUS
 62
       3
100
AcDbLine
 10
-66.2913626
 20
-27.02023232
 30
0.0
 11
-66.39130548
 21
-27.02023232
 31
0.0
  0
LINE
  5
B8
100
AcDbEntity
  8
レイヤー_1
  6
CONTINUOUS
 62
       3
100
AcDbLine
 10
-66.2913626
 20
-26.01965475
 30
0.0
 11
-66.39130548
 21
-26.01965475
 31
0.0
  0
LINE
  5
B9
100
AcDbEntity
  8
レイヤー_1
  6
CONTINUOUS
 62
       3
100
AcDbLine
 10
-69.19171646
 20
-48.49588939
 30
0.0
 11
-68.46885373
 21
-48.42983518
 31
0.0
  0
LINE
  5
BA
100
AcDbEntity
  8
レイヤー_1
  6
CONTINUOUS
 62
       3
100
AcDbLine
 10
-68.46885373
 20
-48.42983518
 30
0.0
 11
-67.78246441
 21
-48.23167257
 31
0.0
  0
LINE
  5
BB
100
AcDbEntity
  8
レイヤー_1
  6
CONTINUOUS
 62
       3
100
AcDbLine
 10
-67.78246441
 20
-48.23167257
 30
0.0
 11
-67.1655756
 21
-47.91633556
 31
0.0
  0
LINE
  5
BC
100
AcDbEntity
  8
レイヤー_1
  6
CONTINUOUS
 62
       3
100
AcDbLine
 10
-67.1655756
 20
-47.91633556
 30
0.0
 11
-66.65092721
 21
-47.49358866
 31
0.0
  0
LINE
  5
BD
100
AcDbEntity
  8
レイヤー_1
  6
CONTINUOUS
 62
       3
100
AcDbLine
 10
-66.65092721
 20
-47.49358866
 30
0.0
 11
-66.26379215
 21
-46.98927919
 31
0.0
  0
LINE
  5
BE
100
AcDbEntity
  8
レイヤー_1
  6
CONTINUOUS
 62
       3
100
AcDbLine
 10
-66.26379215
 20
-46.98927919
 30
0.0
 11
-66.0231251
 21
-46.42753128
 31
0.0
  0
LINE
  5
BF
100
AcDbEntity
  8
レイヤー_1
  6
CONTINUOUS
 62
       3
100
AcDbLine
 10
-66.0231251
 20
-46.42753128
 30
0.0
 11
-65.9421369
 21
-45.83419223
 31
0.0
  0
LINE
  5
C0
100
AcDbEntity
  8
レイヤー_1
  6
CONTINUOUS
 62
       3
100
AcDbLine
 10
-65.9421369
 20
-45.83419223
 30
0.0
 11
-66.0231251
 21
-45.24142756
 31
0.0
  0
LINE
  5
C1
100
AcDbEntity
  8
レイヤー_1
  6
CONTINUOUS
 62
       3
100
AcDbLine
 10
-66.0231251
 20
-45.24142756
 30
0.0
 11
-66.26379215
 21
-44.67910527
 31
0.0
  0
LINE
  5
C2
100
AcDbEntity
  8
レイヤー_1
  6
CONTINUOUS
 62
       3
100
AcDbLine
 10
-66.26379215
 20
-44.67910527
 30
0.0
 11
-66.65092721
 21
-44.17537018
 31
0.0
  0
LINE
  5
C3
100
AcDbEntity
  8
レイヤー_1
  6
CONTINUOUS
 62
       3
100
AcDbLine
 10
-66.65092721
 20
-44.17537018
 30
0.0
 11
-67.1655756
 21
-43.75319767
 31
0.0
  0
LINE
  5
C4
100
AcDbEntity
  8
レイヤー_1
  6
CONTINUOUS
 62
       3
100
AcDbLine
 10
-67.1655756
 20
-43.75319767
 30
0.0
 11
-67.78246441
 21
-43.43556312
 31
0.0
  0
LINE
  5
C5
100
AcDbEntity
  8
レイヤー_1
  6
CONTINUOUS
 62
       3
100
AcDbLine
 10
-67.78246441
 20
-43.43556312
 30
0.0
 11
-68.46885373
 21
-43.23797489
 31
0.0
  0
LINE
  5
C6
100
AcDbEntity
  8
レイヤー_1
  6
CONTINUOUS
 62
       3
100
AcDbLine
 10
-68.46885373
 20
-43.23797489
 30
0.0
 11
-69.19171646
 21
-43.17249508
 31
0.0
  0
LINE
  5
C7
100
AcDbEntity
  8
レイヤー_1
  6
CONTINUOUS
 62
       3
100
AcDbLine
 10
-65.49325552
 20
-39.52055928
 30
0.0
 11
-69.19171646
 21
-39.52055928
 31
0.0
  0
LINE
  5
C8
100
AcDbEntity
  8
レイヤー_1
  6
CONTINUOUS
 62
       3
100
AcDbLine
 10
-69.19171646
 20
-29.02023868
 30
0.0
 11
-65.49325552
 21
-29.02023868
 31
0.0
  0
LINE
  5
C9
100
AcDbEntity
  8
レイヤー_1
  6
CONTINUOUS
 62
       3
100
AcDbLine
 10
-65.49325552
 20
-27.02023232
 30
0.0
 11
-66.2913626
 21
-27.02023232
 31
0.0
  0
LINE
  5
CA
100
AcDbEntity
  8
レイヤー_1
  6
CONTINUOUS
 62
       3
100
AcDbLine
 10
-66.2913626
 20
-27.02023232
 30
0.0
 11
-66.2913626
 21
-20.22009581
 31
0.0
  0
LINE
  5
CB
100
AcDbEntity
  8
レイヤー_1
  6
CONTINUOUS
 62
       3
100
AcDbLine
 10
-69.19171646
 20
42.13105028
 30
0.0
 11
-68.46885373
 21
42.19825325
 31
0.0
  0
LINE
  5
CC
100
AcDbEntity
  8
レイヤー_1
  6
CONTINUOUS
 62
       3
100
AcDbLine
 10
-68.46885373
 20
42.19825325
 30
0.0
 11
-67.78246441
 21
42.39469271
 31
0.0
  0
LINE
  5
CD
100
AcDbEntity
  8
レイヤー_1
  6
CONTINUOUS
 62
       3
100
AcDbLine
 10
-67.78246441
 20
42.39469271
 30
0.0
 11
-67.1655756
 21
42.71290165
 31
0.0
  0
LINE
  5
CE
100
AcDbEntity
  8
レイヤー_1
  6
CONTINUOUS
 62
       3
100
AcDbLine
 10
-67.1655756
 20
42.71290165
 30
0.0
 11
-66.65092721
 21
43.13392539
 31
0.0
  0
LINE
  5
CF
100
AcDbEntity
  8
レイヤー_1
  6
CONTINUOUS
 62
       3
100
AcDbLine
 10
-66.65092721
 20
43.13392539
 30
0.0
 11
-66.26379215
 21
43.63909643
 31
0.0
  0
LINE
  5
D0
100
AcDbEntity
  8
レイヤー_1
  6
CONTINUOUS
 62
       3
100
AcDbLine
 10
-66.26379215
 20
43.63909643
 30
0.0
 11
-66.0231251
 21
44.20199312
 31
0.0
  0
LINE
  5
D1
100
AcDbEntity
  8
レイヤー_1
  6
CONTINUOUS
 62
       3
100
AcDbLine
 10
-66.0231251
 20
44.20199312
 30
0.0
 11
-65.9421369
 21
44.79303463
 31
0.0
  0
LINE
  5
D2
100
AcDbEntity
  8
レイヤー_1
  6
CONTINUOUS
 62
       3
100
AcDbLine
 10
-65.9421369
 20
44.79303463
 30
0.0
 11
-66.0231251
 21
45.3855121
 31
0.0
  0
LINE
  5
D3
100
AcDbEntity
  8
レイヤー_1
  6
CONTINUOUS
 62
       3
100
AcDbLine
 10
-66.0231251
 20
45.3855121
 30
0.0
 11
-66.26379215
 21
45.94840878
 31
0.0
  0
LINE
  5
D4
100
AcDbEntity
  8
レイヤー_1
  6
CONTINUOUS
 62
       3
100
AcDbLine
 10
-66.26379215
 20
45.94840878
 30
0.0
 11
-66.65092721
 21
46.4547286
 31
0.0
  0
LINE
  5
D5
100
AcDbEntity
  8
レイヤー_1
  6
CONTINUOUS
 62
       3
100
AcDbLine
 10
-66.65092721
 20
46.4547286
 30
0.0
 11
-67.1655756
 21
46.87460357
 31
0.0
  0
LINE
  5
D6
100
AcDbEntity
  8
レイヤー_1
  6
CONTINUOUS
 62
       3
100
AcDbLine
 10
-67.1655756
 20
46.87460357
 30
0.0
 11
-67.78246441
 21
47.19223813
 31
0.0
  0
LINE
  5
D7
100
AcDbEntity
  8
レイヤー_1
  6
CONTINUOUS
 62
       3
100
AcDbLine
 10
-67.78246441
 20
47.19223813
 30
0.0
 11
-68.46885373
 21
47.38810319
 31
0.0
  0
LINE
  5
D8
100
AcDbEntity
  8
レイヤー_1
  6
CONTINUOUS
 62
       3
100
AcDbLine
 10
-68.46885373
 20
47.38810319
 30
0.0
 11
-69.19171646
 21
47.45588055
 31
0.0
  0
LINE
  5
D9
100
AcDbEntity
  8
レイヤー_1
  6
CONTINUOUS
 62
       3
100
AcDbLine
 10
-65.54380134
 20
23.25620563
 30
0.0
 11
-72.82469757
 21
23.25620563
 31
0.0
  0
LINE
  5
DA
100
AcDbEntity
  8
レイヤー_1
  6
CONTINUOUS
 62
       3
100
AcDbLine
 10
-65.54380134
 20
19.99772312
 30
0.0
 11
-66.7873435
 21
19.99772312
 31
0.0
  0
LINE
  5
DB
100
AcDbEntity
  8
レイヤー_1
  6
CONTINUOUS
 62
       3
100
AcDbLine
 10
-71.61906478
 20
19.99772312
 30
0.0
 11
-72.86318132
 21
19.99772312
 31
0.0
  0
LINE
  5
DC
100
AcDbEntity
  8
レイヤー_1
  6
CONTINUOUS
 62
       3
100
AcDbLine
 10
-65.49325552
 20
18.97244703
 30
0.0
 11
-72.86318132
 21
18.97244703
 31
0.0
  0
LINE
  5
DD
100
AcDbEntity
  8
レイヤー_1
  6
CONTINUOUS
 62
       3
100
AcDbLine
 10
-65.49325552
 20
38.47911448
 30
0.0
 11
-72.86318132
 21
38.47911448
 31
0.0
  0
LINE
  5
DE
100
AcDbEntity
  8
レイヤー_1
  6
CONTINUOUS
 62
       3
100
AcDbLine
 10
-72.09207031
 20
-44.63200575
 30
0.0
 11
-72.09207031
 21
-45.31954384
 31
0.0
  0
LINE
  5
DF
100
AcDbEntity
  8
レイヤー_1
  6
CONTINUOUS
 62
       3
100
AcDbLine
 10
-72.09207031
 20
-45.89335382
 30
0.0
 11
-72.09207031
 21
-46.46256872
 31
0.0
  0
LINE
  5
E0
100
AcDbEntity
  8
レイヤー_1
  6
CONTINUOUS
 62
       3
100
AcDbLine
 10
-72.09207031
 20
-46.46256872
 30
0.0
 11
-71.86375253
 21
-46.77733136
 31
0.0
  0
LINE
  5
E1
100
AcDbEntity
  8
レイヤー_1
  6
CONTINUOUS
 62
       3
100
AcDbLine
 10
-71.86375253
 20
-46.77733136
 30
0.0
 11
-71.58374015
 21
-47.06452355
 31
0.0
  0
LINE
  5
E2
100
AcDbEntity
  8
レイヤー_1
  6
CONTINUOUS
 62
       3
100
AcDbLine
 10
-71.58374015
 20
-47.06452355
 30
0.0
 11
-71.25921298
 21
-47.31552951
 31
0.0
  0
LINE
  5
E3
100
AcDbEntity
  8
レイヤー_1
  6
CONTINUOUS
 62
       3
100
AcDbLine
 10
-71.25921298
 20
-47.31552951
 30
0.0
 11
-70.89390452
 21
-47.52805173
 31
0.0
  0
LINE
  5
E4
100
AcDbEntity
  8
レイヤー_1
  6
CONTINUOUS
 62
       3
100
AcDbLine
 10
-70.89390452
 20
-47.52805173
 30
0.0
 11
-70.49815369
 21
-47.69864388
 31
0.0
  0
LINE
  5
E5
100
AcDbEntity
  8
レイヤー_1
  6
CONTINUOUS
 62
       3
100
AcDbLine
 10
-70.49815369
 20
-47.69864388
 30
0.0
 11
-70.07626838
 21
-47.82328529
 31
0.0
  0
LINE
  5
E6
100
AcDbEntity
  8
レイヤー_1
  6
CONTINUOUS
 62
       3
100
AcDbLine
 10
-70.07626838
 20
-47.82328529
 30
0.0
 11
-69.6380131
 21
-47.89795526
 31
0.0
  0
LINE
  5
E7
100
AcDbEntity
  8
レイヤー_1
  6
CONTINUOUS
 62
       3
100
AcDbLine
 10
-69.6380131
 20
-47.89795526
 30
0.0
 11
-69.19171646
 21
-47.92380256
 31
0.0
  0
LINE
  5
E8
100
AcDbEntity
  8
レイヤー_1
  6
CONTINUOUS
 62
       3
100
AcDbLine
 10
-72.09207031
 20
-45.89335382
 30
0.0
 11
-71.86375253
 21
-46.20754207
 31
0.0
  0
LINE
  5
E9
100
AcDbEntity
  8
レイヤー_1
  6
CONTINUOUS
 62
       3
100
AcDbLine
 10
-71.86375253
 20
-46.20754207
 30
0.0
 11
-71.58374015
 21
-46.49358549
 31
0.0
  0
LINE
  5
EA
100
AcDbEntity
  8
レイヤー_1
  6
CONTINUOUS
 62
       3
100
AcDbLine
 10
-71.58374015
 20
-46.49358549
 30
0.0
 11
-71.25921298
 21
-46.74631461
 31
0.0
  0
LINE
  5
EB
100
AcDbEntity
  8
レイヤー_1
  6
CONTINUOUS
 62
       3
100
AcDbLine
 10
-71.25921298
 20
-46.74631461
 30
0.0
 11
-70.89390452
 21
-46.95826243
 31
0.0
  0
LINE
  5
EC
100
AcDbEntity
  8
レイヤー_1
  6
CONTINUOUS
 62
       3
100
AcDbLine
 10
-70.89390452
 20
-46.95826243
 30
0.0
 11
-70.49815369
 21
-47.12942898
 31
0.0
  0
LINE
  5
ED
100
AcDbEntity
  8
レイヤー_1
  6
CONTINUOUS
 62
       3
100
AcDbLine
 10
-70.49815369
 20
-47.12942898
 30
0.0
 11
-70.07626838
 21
-47.25407038
 31
0.0
  0
LINE
  5
EE
100
AcDbEntity
  8
レイヤー_1
  6
CONTINUOUS
 62
       3
100
AcDbLine
 10
-70.07626838
 20
-47.25407038
 30
0.0
 11
-69.6380131
 21
-47.32759158
 31
0.0
  0
LINE
  5
EF
100
AcDbEntity
  8
レイヤー_1
  6
CONTINUOUS
 62
       3
100
AcDbLine
 10
-69.6380131
 20
-47.32759158
 30
0.0
 11
-69.19171646
 21
-47.35286449
 31
0.0
  0
LINE
  5
F0
100
AcDbEntity
  8
レイヤー_1
  6
CONTINUOUS
 62
       3
100
AcDbLine
 10
-69.19171646
 20
-46.7796289
 30
0.0
 11
-69.6380131
 21
-46.75493037
 31
0.0
  0
LINE
  5
F1
100
AcDbEntity
  8
レイヤー_1
  6
CONTINUOUS
 62
       3
100
AcDbLine
 10
-69.6380131
 20
-46.75493037
 30
0.0
 11
-70.07626838
 21
-46.67911163
 31
0.0
  0
LINE
  5
F2
100
AcDbEntity
  8
レイヤー_1
  6
CONTINUOUS
 62
       3
100
AcDbLine
 10
-70.07626838
 20
-46.67911163
 30
0.0
 11
-70.49815369
 21
-46.55619338
 31
0.0
  0
LINE
  5
F3
100
AcDbEntity
  8
レイヤー_1
  6
CONTINUOUS
 62
       3
100
AcDbLine
 10
-70.49815369
 20
-46.55619338
 30
0.0
 11
-70.89390452
 21
-46.38560123
 31
0.0
  0
LINE
  5
F4
100
AcDbEntity
  8
レイヤー_1
  6
CONTINUOUS
 62
       3
100
AcDbLine
 10
-70.89390452
 20
-46.38560123
 30
0.0
 11
-71.25921298
 21
-46.17193024
 31
0.0
  0
LINE
  5
F5
100
AcDbEntity
  8
レイヤー_1
  6
CONTINUOUS
 62
       3
100
AcDbLine
 10
-71.25921298
 20
-46.17193024
 30
0.0
 11
-71.58374015
 21
-45.92034989
 31
0.0
  0
LINE
  5
F6
100
AcDbEntity
  8
レイヤー_1
  6
CONTINUOUS
 62
       3
100
AcDbLine
 10
-71.58374015
 20
-45.92034989
 30
0.0
 11
-71.86375253
 21
-45.63430647
 31
0.0
  0
LINE
  5
F7
100
AcDbEntity
  8
レイヤー_1
  6
CONTINUOUS
 62
       3
100
AcDbLine
 10
-71.86375253
 20
-45.63430647
 30
0.0
 11
-72.09207031
 21
-45.31954384
 31
0.0
  0
LINE
  5
F8
100
AcDbEntity
  8
レイヤー_1
  6
CONTINUOUS
 62
       3
100
AcDbLine
 10
-69.19171646
 20
45.74019445
 30
0.0
 11
-69.6380131
 21
45.71405996
 31
0.0
  0
LINE
  5
F9
100
AcDbEntity
  8
レイヤー_1
  6
CONTINUOUS
 62
       3
100
AcDbLine
 10
-69.6380131
 20
45.71405996
 30
0.0
 11
-70.07626838
 21
45.63938999
 31
0.0
  0
LINE
  5
FA
100
AcDbEntity
  8
レイヤー_1
  6
CONTINUOUS
 62
       3
100
AcDbLine
 10
-70.07626838
 20
45.63938999
 30
0.0
 11
-70.49815369
 21
45.51532296
 31
0.0
  0
LINE
  5
FB
100
AcDbEntity
  8
レイヤー_1
  6
CONTINUOUS
 62
       3
100
AcDbLine
 10
-70.49815369
 20
45.51532296
 30
0.0
 11
-70.89390452
 21
45.34530519
 31
0.0
  0
LINE
  5
FC
100
AcDbEntity
  8
レイヤー_1
  6
CONTINUOUS
 62
       3
100
AcDbLine
 10
-70.89390452
 20
45.34530519
 30
0.0
 11
-71.25921298
 21
45.13192141
 31
0.0
  0
LINE
  5
FD
100
AcDbEntity
  8
レイヤー_1
  6
CONTINUOUS
 62
       3
100
AcDbLine
 10
-71.25921298
 20
45.13192141
 30
0.0
 11
-71.58374015
 21
44.88062824
 31
0.0
  0
LINE
  5
FE
100
AcDbEntity
  8
レイヤー_1
  6
CONTINUOUS
 62
       3
100
AcDbLine
 10
-71.58374015
 20
44.88062824
 30
0.0
 11
-71.86375253
 21
44.59372325
 31
0.0
  0
LINE
  5
FF
100
AcDbEntity
  8
レイヤー_1
  6
CONTINUOUS
 62
       3
100
AcDbLine
 10
-71.86375253
 20
44.59372325
 30
0.0
 11
-72.09207031
 21
44.27896062
 31
0.0
  0
LINE
  5
100
100
AcDbEntity
  8
レイヤー_1
  6
CONTINUOUS
 62
       3
100
AcDbLine
 10
-72.09207031
 20
44.27896062
 30
0.0
 11
-72.09207031
 21
43.59142253
 31
0.0
  0
LINE
  5
101
100
AcDbEntity
  8
レイヤー_1
  6
CONTINUOUS
 62
       3
100
AcDbLine
 10
-69.19171646
 20
46.88178338
 30
0.0
 11
-69.6380131
 21
46.85765923
 31
0.0
  0
LINE
  5
102
100
AcDbEntity
  8
レイヤー_1
  6
CONTINUOUS
 62
       3
100
AcDbLine
 10
-69.6380131
 20
46.85765923
 30
0.0
 11
-70.07626838
 21
46.78184049
 31
0.0
  0
LINE
  5
103
100
AcDbEntity
  8
レイヤー_1
  6
CONTINUOUS
 62
       3
100
AcDbLine
 10
-70.07626838
 20
46.78184049
 30
0.0
 11
-70.49815369
 21
46.65834786
 31
0.0
  0
LINE
  5
104
100
AcDbEntity
  8
レイヤー_1
  6
CONTINUOUS
 62
       3
100
AcDbLine
 10
-70.49815369
 20
46.65834786
 30
0.0
 11
-70.89390452
 21
46.48833008
 31
0.0
  0
LINE
  5
105
100
AcDbEntity
  8
レイヤー_1
  6
CONTINUOUS
 62
       3
100
AcDbLine
 10
-70.89390452
 20
46.48833008
 30
0.0
 11
-71.25921298
 21
46.2746591
 31
0.0
  0
LINE
  5
106
100
AcDbEntity
  8
レイヤー_1
  6
CONTINUOUS
 62
       3
100
AcDbLine
 10
-71.25921298
 20
46.2746591
 30
0.0
 11
-71.58374015
 21
46.02365313
 31
0.0
  0
LINE
  5
107
100
AcDbEntity
  8
レイヤー_1
  6
CONTINUOUS
 62
       3
100
AcDbLine
 10
-71.58374015
 20
46.02365313
 30
0.0
 11
-71.86375253
 21
45.73703534
 31
0.0
  0
LINE
  5
108
100
AcDbEntity
  8
レイヤー_1
  6
CONTINUOUS
 62
       3
100
AcDbLine
 10
-71.86375253
 20
45.73703534
 30
0.0
 11
-72.09207031
 21
45.42198551
 31
0.0
  0
LINE
  5
109
100
AcDbEntity
  8
レイヤー_1
  6
CONTINUOUS
 62
       3
100
AcDbLine
 10
-72.09207031
 20
45.42198551
 30
0.0
 11
-72.09207031
 21
44.85248341
 31
0.0
  0
LINE
  5
10A
100
AcDbEntity
  8
レイヤー_1
  6
CONTINUOUS
 62
       3
100
AcDbLine
 10
-72.09207031
 20
44.85248341
 30
0.0
 11
-71.86375253
 21
45.16724604
 31
0.0
  0
LINE
  5
10B
100
AcDbEntity
  8
レイヤー_1
  6
CONTINUOUS
 62
       3
100
AcDbLine
 10
-71.86375253
 20
45.16724604
 30
0.0
 11
-71.58374015
 21
45.45415103
 31
0.0
  0
LINE
  5
10C
100
AcDbEntity
  8
レイヤー_1
  6
CONTINUOUS
 62
       3
100
AcDbLine
 10
-71.58374015
 20
45.45415103
 30
0.0
 11
-71.25921298
 21
45.70601857
 31
0.0
  0
LINE
  5
10D
100
AcDbEntity
  8
レイヤー_1
  6
CONTINUOUS
 62
       3
100
AcDbLine
 10
-71.25921298
 20
45.70601857
 30
0.0
 11
-70.89390452
 21
45.91882799
 31
0.0
  0
LINE
  5
10E
100
AcDbEntity
  8
レイヤー_1
  6
CONTINUOUS
 62
       3
100
AcDbLine
 10
-70.89390452
 20
45.91882799
 30
0.0
 11
-70.49815369
 21
46.08827137
 31
0.0
  0
LINE
  5
10F
100
AcDbEntity
  8
レイヤー_1
  6
CONTINUOUS
 62
       3
100
AcDbLine
 10
-70.49815369
 20
46.08827137
 30
0.0
 11
-70.07626838
 21
46.2123384
 31
0.0
  0
LINE
  5
110
100
AcDbEntity
  8
レイヤー_1
  6
CONTINUOUS
 62
       3
100
AcDbLine
 10
-70.07626838
 20
46.2123384
 30
0.0
 11
-69.6380131
 21
46.28815713
 31
0.0
  0
LINE
  5
111
100
AcDbEntity
  8
レイヤー_1
  6
CONTINUOUS
 62
       3
100
AcDbLine
 10
-69.6380131
 20
46.28815713
 30
0.0
 11
-69.19171646
 21
46.31285566
 31
0.0
  0
LINE
  5
112
100
AcDbEntity
  8
レイヤー_1
  6
CONTINUOUS
 62
       3
100
AcDbLine
 10
-72.09207031
 20
-21.37748031
 30
0.0
 11
-71.99184023
 21
-21.37748031
 31
0.0
  0
LINE
  5
113
100
AcDbEntity
  8
レイヤー_1
  6
CONTINUOUS
 62
       3
100
AcDbLine
 10
-69.19171646
 20
-28.0202355
 30
0.0
 11
-72.09207031
 21
-28.0202355
 31
0.0
  0
LINE
  5
114
100
AcDbEntity
  8
レイヤー_1
  6
CONTINUOUS
 62
       3
100
AcDbLine
 10
-72.09207031
 20
-27.02023232
 30
0.0
 11
-72.09207031
 21
-27.03918701
 31
0.0
  0
LINE
  5
115
100
AcDbEntity
  8
レイヤー_1
  6
CONTINUOUS
 62
       3
100
AcDbLine
 10
-72.09207031
 20
-27.03918701
 30
0.0
 11
-72.09207031
 21
-27.09662544
 31
0.0
  0
LINE
  5
116
100
AcDbEntity
  8
レイヤー_1
  6
CONTINUOUS
 62
       3
100
AcDbLine
 10
-72.09207031
 20
-27.09662544
 30
0.0
 11
-72.09207031
 21
-27.18795255
 31
0.0
  0
LINE
  5
117
100
AcDbEntity
  8
レイヤー_1
  6
CONTINUOUS
 62
       3
100
AcDbLine
 10
-72.09207031
 20
-27.18795255
 30
0.0
 11
-72.09207031
 21
-27.31316835
 31
0.0
  0
LINE
  5
118
100
AcDbEntity
  8
レイヤー_1
  6
CONTINUOUS
 62
       3
100
AcDbLine
 10
-72.09207031
 20
-27.31316835
 30
0.0
 11
-72.09207031
 21
-27.4653802
 31
0.0
  0
LINE
  5
119
100
AcDbEntity
  8
レイヤー_1
  6
CONTINUOUS
 62
       3
100
AcDbLine
 10
-72.09207031
 20
-27.4653802
 30
0.0
 11
-72.09207031
 21
-27.63769552
 31
0.0
  0
LINE
  5
11A
100
AcDbEntity
  8
レイヤー_1
  6
CONTINUOUS
 62
       3
100
AcDbLine
 10
-72.09207031
 20
-27.63769552
 30
0.0
 11
-72.09207031
 21
-27.8255192
 31
0.0
  0
LINE
  5
11B
100
AcDbEntity
  8
レイヤー_1
  6
CONTINUOUS
 62
       3
100
AcDbLine
 10
-72.09207031
 20
-27.8255192
 30
0.0
 11
-72.09207031
 21
-28.0202355
 31
0.0
  0
LINE
  5
11C
100
AcDbEntity
  8
レイヤー_1
  6
CONTINUOUS
 62
       3
100
AcDbLine
 10
-72.89247493
 20
-28.0202355
 30
0.0
 11
-72.09207031
 21
-28.0202355
 31
0.0
  0
LINE
  5
11D
100
AcDbEntity
  8
レイヤー_1
  6
CONTINUOUS
 62
       3
100
AcDbLine
 10
-71.99184023
 20
-27.02023232
 30
0.0
 11
-72.09207031
 21
-27.02023232
 31
0.0
  0
LINE
  5
11E
100
AcDbEntity
  8
レイヤー_1
  6
CONTINUOUS
 62
       3
100
AcDbLine
 10
-72.09207031
 20
-26.01965475
 30
0.0
 11
-71.99184023
 21
-26.01965475
 31
0.0
  0
LINE
  5
11F
100
AcDbEntity
  8
レイヤー_1
  6
CONTINUOUS
 62
       3
100
AcDbLine
 10
-69.19171646
 20
-43.17249508
 30
0.0
 11
-69.91572795
 21
-43.23797489
 31
0.0
  0
LINE
  5
120
100
AcDbEntity
  8
レイヤー_1
  6
CONTINUOUS
 62
       3
100
AcDbLine
 10
-69.91572795
 20
-43.23797489
 30
0.0
 11
-70.60269165
 21
-43.43556312
 31
0.0
  0
LINE
  5
121
100
AcDbEntity
  8
レイヤー_1
  6
CONTINUOUS
 62
       3
100
AcDbLine
 10
-70.60269165
 20
-43.43556312
 30
0.0
 11
-71.21843169
 21
-43.75319767
 31
0.0
  0
LINE
  5
122
100
AcDbEntity
  8
レイヤー_1
  6
CONTINUOUS
 62
       3
100
AcDbLine
 10
-71.21843169
 20
-43.75319767
 30
0.0
 11
-71.73308008
 21
-44.17537018
 31
0.0
  0
LINE
  5
123
100
AcDbEntity
  8
レイヤー_1
  6
CONTINUOUS
 62
       3
100
AcDbLine
 10
-71.73308008
 20
-44.17537018
 30
0.0
 11
-72.12078953
 21
-44.67910527
 31
0.0
  0
LINE
  5
124
100
AcDbEntity
  8
レイヤー_1
  6
CONTINUOUS
 62
       3
100
AcDbLine
 10
-72.12078953
 20
-44.67910527
 30
0.0
 11
-72.36088219
 21
-45.24142756
 31
0.0
  0
LINE
  5
125
100
AcDbEntity
  8
レイヤー_1
  6
CONTINUOUS
 62
       3
100
AcDbLine
 10
-72.36088219
 20
-45.24142756
 30
0.0
 11
-72.44244478
 21
-45.83419223
 31
0.0
  0
LINE
  5
126
100
AcDbEntity
  8
レイヤー_1
  6
CONTINUOUS
 62
       3
100
AcDbLine
 10
-72.44244478
 20
-45.83419223
 30
0.0
 11
-72.36088219
 21
-46.42753128
 31
0.0
  0
LINE
  5
127
100
AcDbEntity
  8
レイヤー_1
  6
CONTINUOUS
 62
       3
100
AcDbLine
 10
-72.36088219
 20
-46.42753128
 30
0.0
 11
-72.12078953
 21
-46.98927919
 31
0.0
  0
LINE
  5
128
100
AcDbEntity
  8
レイヤー_1
  6
CONTINUOUS
 62
       3
100
AcDbLine
 10
-72.12078953
 20
-46.98927919
 30
0.0
 11
-71.73308008
 21
-47.49358866
 31
0.0
  0
LINE
  5
129
100
AcDbEntity
  8
レイヤー_1
  6
CONTINUOUS
 62
       3
100
AcDbLine
 10
-71.73308008
 20
-47.49358866
 30
0.0
 11
-71.21843169
 21
-47.91633556
 31
0.0
  0
LINE
  5
12A
100
AcDbEntity
  8
レイヤー_1
  6
CONTINUOUS
 62
       3
100
AcDbLine
 10
-71.21843169
 20
-47.91633556
 30
0.0
 11
-70.60269165
 21
-48.23167257
 31
0.0
  0
LINE
  5
12B
100
AcDbEntity
  8
レイヤー_1
  6
CONTINUOUS
 62
       3
100
AcDbLine
 10
-70.60269165
 20
-48.23167257
 30
0.0
 11
-69.91572795
 21
-48.42983518
 31
0.0
  0
LINE
  5
12C
100
AcDbEntity
  8
レイヤー_1
  6
CONTINUOUS
 62
       3
100
AcDbLine
 10
-69.91572795
 20
-48.42983518
 30
0.0
 11
-69.19171646
 21
-48.49588939
 31
0.0
  0
LINE
  5
12D
100
AcDbEntity
  8
レイヤー_1
  6
CONTINUOUS
 62
       3
100
AcDbLine
 10
-72.89247493
 20
-29.02023868
 30
0.0
 11
-69.19171646
 21
-29.02023868
 31
0.0
  0
LINE
  5
12E
100
AcDbEntity
  8
レイヤー_1
  6
CONTINUOUS
 62
       3
100
AcDbLine
 10
-72.89247493
 20
-39.52055928
 30
0.0
 11
-69.19171646
 21
-39.52055928
 31
0.0
  0
LINE
  5
12F
100
AcDbEntity
  8
レイヤー_1
  6
CONTINUOUS
 62
       3
100
AcDbLine
 10
-72.09207031
 20
-20.22009581
 30
0.0
 11
-72.09207031
 21
-27.02023232
 31
0.0
  0
LINE
  5
130
100
AcDbEntity
  8
レイヤー_1
  6
CONTINUOUS
 62
       3
100
AcDbLine
 10
-72.89247493
 20
-27.02023232
 30
0.0
 11
-72.09207031
 21
-27.02023232
 31
0.0
  0
LINE
  5
131
100
AcDbEntity
  8
レイヤー_1
  6
CONTINUOUS
 62
       3
100
AcDbLine
 10
-69.19171646
 20
47.45588055
 30
0.0
 11
-69.91572795
 21
47.38810319
 31
0.0
  0
LINE
  5
132
100
AcDbEntity
  8
レイヤー_1
  6
CONTINUOUS
 62
       3
100
AcDbLine
 10
-69.91572795
 20
47.38810319
 30
0.0
 11
-70.60269165
 21
47.19223813
 31
0.0
  0
LINE
  5
133
100
AcDbEntity
  8
レイヤー_1
  6
CONTINUOUS
 62
       3
100
AcDbLine
 10
-70.60269165
 20
47.19223813
 30
0.0
 11
-71.21843169
 21
46.87460357
 31
0.0
  0
LINE
  5
134
100
AcDbEntity
  8
レイヤー_1
  6
CONTINUOUS
 62
       3
100
AcDbLine
 10
-71.21843169
 20
46.87460357
 30
0.0
 11
-71.73308008
 21
46.4547286
 31
0.0
  0
LINE
  5
135
100
AcDbEntity
  8
レイヤー_1
  6
CONTINUOUS
 62
       3
100
AcDbLine
 10
-71.73308008
 20
46.4547286
 30
0.0
 11
-72.12078953
 21
45.94840878
 31
0.0
  0
LINE
  5
136
100
AcDbEntity
  8
レイヤー_1
  6
CONTINUOUS
 62
       3
100
AcDbLine
 10
-72.12078953
 20
45.94840878
 30
0.0
 11
-72.36088219
 21
45.3855121
 31
0.0
  0
LINE
  5
137
100
AcDbEntity
  8
レイヤー_1
  6
CONTINUOUS
 62
       3
100
AcDbLine
 10
-72.36088219
 20
45.3855121
 30
0.0
 11
-72.44244478
 21
44.79303463
 31
0.0
  0
LINE
  5
138
100
AcDbEntity
  8
レイヤー_1
  6
CONTINUOUS
 62
       3
100
AcDbLine
 10
-72.44244478
 20
44.79303463
 30
0.0
 11
-72.36088219
 21
44.20199312
 31
0.0
  0
LINE
  5
139
100
AcDbEntity
  8
レイヤー_1
  6
CONTINUOUS
 62
       3
100
AcDbLine
 10
-72.36088219
 20
44.20199312
 30
0.0
 11
-72.12078953
 21
43.63909643
 31
0.0
  0
LINE
  5
13A
100
AcDbEntity
  8
レイヤー_1
  6
CONTINUOUS
 62
       3
100
AcDbLine
 10
-72.12078953
 20
43.63909643
 30
0.0
 11
-71.73308008
 21
43.13392539
 31
0.0
  0
LINE
  5
13B
100
AcDbEntity
  8
レイヤー_1
  6
CONTINUOUS
 62
       3
100
AcDbLine
 10
-71.73308008
 20
43.13392539
 30
0.0
 11
-71.21843169
 21
42.71290165
 31
0.0
  0
LINE
  5
13C
100
AcDbEntity
  8
レイヤー_1
  6
CONTINUOUS
 62
       3
100
AcDbLine
 10
-71.21843169
 20
42.71290165
 30
0.0
 11
-70.60269165
 21
42.39469271
 31
0.0
  0
LINE
  5
13D
100
AcDbEntity
  8
レイヤー_1
  6
CONTINUOUS
 62
       3
100
AcDbLine
 10
-70.60269165
 20
42.39469271
 30
0.0
 11
-69.91572795
 21
42.19825325
 31
0.0
  0
LINE
  5
13E
100
AcDbEntity
  8
レイヤー_1
  6
CONTINUOUS
 62
       3
100
AcDbLine
 10
-69.91572795
 20
42.19825325
 30
0.0
 11
-69.19171646
 21
42.13105028
 31
0.0
  0
LINE
  5
13F
100
AcDbEntity
  8
レイヤー_1
  6
CONTINUOUS
 62
       3
100
AcDbLine
 10
-67.71468706
 20
-43.4619848
 30
0.0
 11
-68.05242507
 21
-43.6090272
 31
0.0
  0
LINE
  5
140
100
AcDbEntity
  8
レイヤー_1
  6
CONTINUOUS
 62
       3
100
AcDbLine
 10
-68.05242507
 20
-43.6090272
 30
0.0
 11
-68.69832028
 21
-43.77157797
 31
0.0
  0
LINE
  5
141
100
AcDbEntity
  8
レイヤー_1
  6
CONTINUOUS
 62
       3
100
AcDbLine
 10
-68.69832028
 20
-43.77157797
 30
0.0
 11
-69.37178595
 21
-43.80259473
 31
0.0
  0
LINE
  5
142
100
AcDbEntity
  8
レイヤー_1
  6
CONTINUOUS
 62
       3
100
AcDbLine
 10
-69.37178595
 20
-43.80259473
 30
0.0
 11
-70.0351999
 21
-43.70150308
 31
0.0
  0
LINE
  5
143
100
AcDbEntity
  8
レイヤー_1
  6
CONTINUOUS
 62
       3
100
AcDbLine
 10
-70.0351999
 20
-43.70150308
 30
0.0
 11
-70.64979116
 21
-43.4728981
 31
0.0
  0
LINE
  5
144
100
AcDbEntity
  8
レイヤー_1
  6
CONTINUOUS
 62
       3
100
AcDbLine
 10
-70.64979116
 20
-43.4728981
 30
0.0
 11
-70.66845866
 21
-43.4619848
 31
0.0
  0
LINE
  5
145
100
AcDbEntity
  8
レイヤー_1
  6
CONTINUOUS
 62
       3
100
AcDbLine
 10
-71.99184023
 20
-20.02021005
 30
0.0
 11
-71.99184023
 21
-27.02023232
 31
0.0
  0
LINE
  5
146
100
AcDbEntity
  8
レイヤー_1
  6
CONTINUOUS
 62
       3
100
AcDbLine
 10
-66.39130548
 20
-27.02023232
 30
0.0
 11
-67.19257167
 21
-27.52109549
 31
0.0
  0
LINE
  5
147
100
AcDbEntity
  8
レイヤー_1
  6
CONTINUOUS
 62
       3
100
AcDbLine
 10
-67.19257167
 20
-27.52109549
 30
0.0
 11
-71.19258439
 21
-27.52109549
 31
0.0
  0
LINE
  5
148
100
AcDbEntity
  8
レイヤー_1
  6
CONTINUOUS
 62
       3
100
AcDbLine
 10
-71.19258439
 20
-27.52109549
 30
0.0
 11
-71.99184023
 21
-27.02023232
 31
0.0
  0
LINE
  5
149
100
AcDbEntity
  8
レイヤー_1
  6
CONTINUOUS
 62
       3
100
AcDbLine
 10
-66.39130548
 20
-27.02023232
 30
0.0
 11
-66.39130548
 21
-20.02021005
 31
0.0
  0
LINE
  5
14A
100
AcDbEntity
  8
レイヤー_1
  6
CONTINUOUS
 62
       3
100
AcDbLine
 10
-66.39130548
 20
-20.02021005
 30
0.0
 11
-65.49325552
 21
-20.02021005
 31
0.0
  0
LINE
  5
14B
100
AcDbEntity
  8
レイヤー_1
  6
CONTINUOUS
 62
       3
100
AcDbLine
 10
-72.89247493
 20
-20.02021005
 30
0.0
 11
-71.99184023
 21
-20.02021005
 31
0.0
  0
LINE
  5
14C
100
AcDbEntity
  8
レイヤー_1
  6
CONTINUOUS
 62
       3
100
AcDbLine
 10
-71.99184023
 20
-22.57105102
 30
0.0
 11
-72.09207031
 21
-22.57105102
 31
0.0
  0
LINE
  5
14D
100
AcDbEntity
  8
レイヤー_1
  6
CONTINUOUS
 62
       3
100
AcDbLine
 10
-66.2913626
 20
-22.57105102
 30
0.0
 11
-66.39130548
 21
-22.57105102
 31
0.0
  0
LINE
  5
14E
100
AcDbEntity
  8
レイヤー_1
  6
CONTINUOUS
 62
       3
100
AcDbLine
 10
-66.39130548
 20
-24.47111451
 30
0.0
 11
-66.2913626
 21
-24.47111451
 31
0.0
  0
LINE
  5
14F
100
AcDbEntity
  8
レイヤー_1
  6
CONTINUOUS
 62
       3
100
AcDbLine
 10
-72.09207031
 20
-24.47111451
 30
0.0
 11
-71.99184023
 21
-24.47111451
 31
0.0
  0
LINE
  5
150
100
AcDbEntity
  8
レイヤー_1
  6
CONTINUOUS
 62
       3
100
AcDbLine
 10
69.3184887
 20
44.65489519
 30
0.0
 11
69.27540987
 21
44.82261542
 31
0.0
  0
LINE
  5
151
100
AcDbEntity
  8
レイヤー_1
  6
CONTINUOUS
 62
       3
100
AcDbLine
 10
69.27540987
 20
44.82261542
 30
0.0
 11
69.20073991
 21
44.98028393
 31
0.0
  0
LINE
  5
152
100
AcDbEntity
  8
レイヤー_1
  6
CONTINUOUS
 62
       3
100
AcDbLine
 10
69.20073991
 20
44.98028393
 30
0.0
 11
69.09964826
 21
45.12244406
 31
0.0
  0
LINE
  5
153
100
AcDbEntity
  8
レイヤー_1
  6
CONTINUOUS
 62
       3
100
AcDbLine
 10
69.09964826
 20
45.12244406
 30
0.0
 11
68.97730439
 21
45.24536232
 31
0.0
  0
LINE
  5
154
100
AcDbEntity
  8
レイヤー_1
  6
CONTINUOUS
 62
       3
100
AcDbLine
 10
68.97730439
 20
45.24536232
 30
0.0
 11
68.83543145
 21
45.34587958
 31
0.0
  0
LINE
  5
155
100
AcDbEntity
  8
レイヤー_1
  6
CONTINUOUS
 62
       3
100
AcDbLine
 10
68.83543145
 20
45.34587958
 30
0.0
 11
68.67517821
 21
45.41940077
 31
0.0
  0
LINE
  5
156
100
AcDbEntity
  8
レイヤー_1
  6
CONTINUOUS
 62
       3
100
AcDbLine
 10
68.67517821
 20
45.41940077
 30
0.0
 11
68.50860674
 21
45.46362837
 31
0.0
  0
LINE
  5
157
100
AcDbEntity
  8
レイヤー_1
  6
CONTINUOUS
 62
       3
100
AcDbLine
 10
68.50860674
 20
45.46362837
 30
0.0
 11
68.3339939
 21
45.47942394
 31
0.0
  0
LINE
  5
158
100
AcDbEntity
  8
レイヤー_1
  6
CONTINUOUS
 62
       3
100
AcDbLine
 10
61.78716089
 20
45.47942394
 30
0.0
 11
68.3339939
 21
45.47942394
 31
0.0
  0
LINE
  5
159
100
AcDbEntity
  8
レイヤー_1
  6
CONTINUOUS
 62
       3
100
AcDbLine
 10
61.78716089
 20
45.47942394
 30
0.0
 11
61.76935498
 21
45.67471463
 31
0.0
  0
LINE
  5
15A
100
AcDbEntity
  8
レイヤー_1
  6
CONTINUOUS
 62
       3
100
AcDbLine
 10
61.76935498
 20
45.67471463
 30
0.0
 11
61.71191654
 21
45.86167674
 31
0.0
  0
LINE
  5
15B
100
AcDbEntity
  8
レイヤー_1
  6
CONTINUOUS
 62
       3
100
AcDbLine
 10
61.71191654
 20
45.86167674
 30
0.0
 11
61.61944065
 21
46.03542801
 31
0.0
  0
LINE
  5
15C
100
AcDbEntity
  8
レイヤー_1
  6
CONTINUOUS
 62
       3
100
AcDbLine
 10
61.61944065
 20
46.03542801
 30
0.0
 11
61.49594802
 21
46.18706549
 31
0.0
  0
LINE
  5
15D
100
AcDbEntity
  8
レイヤー_1
  6
CONTINUOUS
 62
       3
100
AcDbLine
 10
61.49594802
 20
46.18706549
 30
0.0
 11
61.34373616
 21
46.31170689
 31
0.0
  0
LINE
  5
15E
100
AcDbEntity
  8
レイヤー_1
  6
CONTINUOUS
 62
       3
100
AcDbLine
 10
61.34373616
 20
46.31170689
 30
0.0
 11
61.17084647
 21
46.40360839
 31
0.0
  0
LINE
  5
15F
100
AcDbEntity
  8
レイヤー_1
  6
CONTINUOUS
 62
       3
100
AcDbLine
 10
61.17084647
 20
46.40360839
 30
0.0
 11
60.98417154
 21
46.46047244
 31
0.0
  0
LINE
  5
160
100
AcDbEntity
  8
レイヤー_1
  6
CONTINUOUS
 62
       3
100
AcDbLine
 10
60.98417154
 20
46.46047244
 30
0.0
 11
60.78830648
 21
46.48000151
 31
0.0
  0
LINE
  5
161
100
AcDbEntity
  8
レイヤー_1
  6
CONTINUOUS
 62
       3
100
AcDbLine
 10
-25.83890766
 20
21.88744769
 30
0.0
 11
-25.89289978
 21
21.86791862
 31
0.0
  0
LINE
  5
162
100
AcDbEntity
  8
レイヤー_1
  6
CONTINUOUS
 62
       3
100
AcDbLine
 10
-23.71196235
 20
21.61404073
 30
0.0
 11
-23.41328248
 21
21.87739595
 31
0.0
  0
LINE
  5
163
100
AcDbEntity
  8
レイヤー_1
  6
CONTINUOUS
 62
       3
100
AcDbLine
 10
-23.41328248
 20
21.87739595
 30
0.0
 11
-23.24154155
 21
22.23753496
 31
0.0
  0
LINE
  5
164
100
AcDbEntity
  8
レイヤー_1
  6
CONTINUOUS
 62
       3
100
AcDbLine
 10
-23.24154155
 20
22.23753496
 30
0.0
 11
-23.22402283
 21
22.63673209
 31
0.0
  0
LINE
  5
165
100
AcDbEntity
  8
レイヤー_1
  6
CONTINUOUS
 62
       3
100
AcDbLine
 10
-23.22402283
 20
22.63673209
 30
0.0
 11
-23.36388542
 21
23.00979473
 31
0.0
  0
LINE
  5
166
100
AcDbEntity
  8
レイヤー_1
  6
CONTINUOUS
 62
       3
100
AcDbLine
 10
-23.36388542
 20
23.00979473
 30
0.0
 11
-23.63844115
 21
23.29899726
 31
0.0
  0
LINE
  5
167
100
AcDbEntity
  8
レイヤー_1
  6
CONTINUOUS
 62
       3
100
AcDbLine
 10
-23.63844115
 20
23.29899726
 30
0.0
 11
-24.00317522
 21
23.45781454
 31
0.0
  0
LINE
  5
168
100
AcDbEntity
  8
レイヤー_1
  6
CONTINUOUS
 62
       3
100
AcDbLine
 10
-24.00317522
 20
23.45781454
 30
0.0
 11
-24.40265955
 21
23.46183523
 31
0.0
  0
LINE
  5
169
100
AcDbEntity
  8
レイヤー_1
  6
CONTINUOUS
 62
       3
100
AcDbLine
 10
-24.40265955
 20
23.46183523
 30
0.0
 11
-24.77141431
 21
23.30904899
 31
0.0
  0
LINE
  5
16A
100
AcDbEntity
  8
レイヤー_1
  6
CONTINUOUS
 62
       3
100
AcDbLine
 10
-24.77141431
 20
23.30904899
 30
0.0
 11
-25.05027792
 21
23.02501592
 31
0.0
  0
LINE
  5
16B
100
AcDbEntity
  8
レイヤー_1
  6
CONTINUOUS
 62
       3
100
AcDbLine
 10
-25.05027792
 20
23.02501592
 30
0.0
 11
-25.19732032
 21
22.65396362
 31
0.0
  0
LINE
  5
16C
100
AcDbEntity
  8
レイヤー_1
  6
CONTINUOUS
 62
       3
100
AcDbLine
 10
-23.71196235
 20
21.61404073
 30
0.0
 11
-23.82138257
 21
21.54166829
 31
0.0
  0
LINE
  5
16D
100
AcDbEntity
  8
レイヤー_1
  6
CONTINUOUS
 62
       3
100
AcDbLine
 10
-23.82138257
 20
21.54166829
 30
0.0
 11
-23.91902791
 21
21.45522345
 31
0.0
  0
LINE
  5
16E
100
AcDbEntity
  8
レイヤー_1
  6
CONTINUOUS
 62
       3
100
AcDbLine
 10
-23.91902791
 20
21.45522345
 30
0.0
 11
-24.00432399
 21
21.35642934
 31
0.0
  0
LINE
  5
16F
100
AcDbEntity
  8
レイヤー_1
  6
CONTINUOUS
 62
       3
100
AcDbLine
 10
-24.00432399
 20
21.35642934
 30
0.0
 11
-24.07784519
 21
21.2475835
 31
0.0
  0
LINE
  5
170
100
AcDbEntity
  8
レイヤー_1
  6
CONTINUOUS
 62
       3
100
AcDbLine
 10
-24.07784519
 20
21.2475835
 30
0.0
 11
-24.1361452
 21
21.13040909
 31
0.0
  0
LINE
  5
171
100
AcDbEntity
  8
レイヤー_1
  6
CONTINUOUS
 62
       3
100
AcDbLine
 10
-24.1361452
 20
21.13040909
 30
0.0
 11
-24.1766393
 21
21.00749083
 31
0.0
  0
LINE
  5
172
100
AcDbEntity
  8
レイヤー_1
  6
CONTINUOUS
 62
       3
100
AcDbLine
 10
-24.1766393
 20
21.00749083
 30
0.0
 11
-24.20306098
 21
20.87767996
 31
0.0
  0
LINE
  5
173
100
AcDbEntity
  8
レイヤー_1
  6
CONTINUOUS
 62
       3
100
AcDbLine
 10
-24.20306098
 20
20.87767996
 30
0.0
 11
-24.21196394
 21
20.74700752
 31
0.0
  0
LINE
  5
174
100
AcDbEntity
  8
レイヤー_1
  6
CONTINUOUS
 62
       3
100
AcDbLine
 10
-24.21196394
 20
20.57986167
 30
0.0
 11
-24.21196394
 21
20.74700752
 31
0.0
  0
LINE
  5
175
100
AcDbEntity
  8
レイヤー_1
  6
CONTINUOUS
 62
       3
100
AcDbLine
 10
-24.21196394
 20
20.57986167
 30
0.0
 11
-24.20564571
 21
20.5204129
 31
0.0
  0
LINE
  5
176
100
AcDbEntity
  8
レイヤー_1
  6
CONTINUOUS
 62
       3
100
AcDbLine
 10
-24.20564571
 20
20.5204129
 30
0.0
 11
-24.18898856
 21
20.46469761
 31
0.0
  0
LINE
  5
177
100
AcDbEntity
  8
レイヤー_1
  6
CONTINUOUS
 62
       3
100
AcDbLine
 10
-24.18898856
 20
20.46469761
 30
0.0
 11
-24.16084373
 21
20.4135774
 31
0.0
  0
LINE
  5
178
100
AcDbEntity
  8
レイヤー_1
  6
CONTINUOUS
 62
       3
100
AcDbLine
 10
-24.16084373
 20
20.4135774
 30
0.0
 11
-24.12379593
 21
20.36705227
 31
0.0
  0
LINE
  5
179
100
AcDbEntity
  8
レイヤー_1
  6
CONTINUOUS
 62
       3
100
AcDbLine
 10
-24.12379593
 20
20.36705227
 30
0.0
 11
-24.07899395
 21
20.33057886
 31
0.0
  0
LINE
  5
17A
100
AcDbEntity
  8
レイヤー_1
  6
CONTINUOUS
 62
       3
100
AcDbLine
 10
-24.07899395
 20
20.33057886
 30
0.0
 11
-24.02672498
 21
20.30300841
 31
0.0
  0
LINE
  5
17B
100
AcDbEntity
  8
レイヤー_1
  6
CONTINUOUS
 62
       3
100
AcDbLine
 10
-24.02672498
 20
20.30300841
 30
0.0
 11
-23.96899935
 21
20.28577688
 31
0.0
  0
LINE
  5
17C
100
AcDbEntity
  8
レイヤー_1
  6
CONTINUOUS
 62
       3
100
AcDbLine
 10
-23.96899935
 20
20.28577688
 30
0.0
 11
-23.9121353
 21
20.28003303
 31
0.0
  0
LINE
  5
17D
100
AcDbEntity
  8
レイヤー_1
  6
CONTINUOUS
 62
       3
100
AcDbLine
 10
-23.71196235
 20
20.28003303
 30
0.0
 11
-23.9121353
 21
20.28003303
 31
0.0
  0
LINE
  5
17E
100
AcDbEntity
  8
レイヤー_1
  6
CONTINUOUS
 62
       3
100
AcDbLine
 10
-23.71196235
 20
20.0792857
 30
0.0
 11
-23.71196235
 21
-19.38494094
 31
0.0
  0
LINE
  5
17F
100
AcDbEntity
  8
レイヤー_1
  6
CONTINUOUS
 62
       3
100
AcDbLine
 10
-23.71196235
 20
-19.38494094
 30
0.0
 11
-25.1576878
 21
-20.22009581
 31
0.0
  0
LINE
  5
180
100
AcDbEntity
  8
レイヤー_1
  6
CONTINUOUS
 62
       3
100
AcDbLine
 10
-25.1576878
 20
-20.22009581
 30
0.0
 11
-26.21110872
 21
-20.22009581
 31
0.0
  0
LINE
  5
181
100
AcDbEntity
  8
レイヤー_1
  6
CONTINUOUS
 62
       3
100
AcDbLine
 10
74.487948
 20
-37.42003565
 30
0.0
 11
74.487948
 21
-41.28851436
 31
0.0
  0
LINE
  5
182
100
AcDbEntity
  8
レイヤー_1
  6
CONTINUOUS
 62
       3
100
AcDbLine
 10
74.487948
 20
-41.28851436
 30
0.0
 11
74.47473716
 21
-41.43613114
 31
0.0
  0
LINE
  5
183
100
AcDbEntity
  8
レイヤー_1
  6
CONTINUOUS
 62
       3
100
AcDbLine
 10
74.47473716
 20
-41.43613114
 30
0.0
 11
74.43338148
 21
-41.57857846
 31
0.0
  0
LINE
  5
184
100
AcDbEntity
  8
レイヤー_1
  6
CONTINUOUS
 62
       3
100
AcDbLine
 10
74.43338148
 20
-41.57857846
 30
0.0
 11
74.36790166
 21
-41.71183563
 31
0.0
  0
LINE
  5
185
100
AcDbEntity
  8
レイヤー_1
  6
CONTINUOUS
 62
       3
100
AcDbLine
 10
74.36790166
 20
-41.71183563
 30
0.0
 11
74.27772332
 21
-41.82958443
 31
0.0
  0
LINE
  5
186
100
AcDbEntity
  8
レイヤー_1
  6
CONTINUOUS
 62
       3
100
AcDbLine
 10
74.27772332
 20
-41.82958443
 30
0.0
 11
74.16859029
 21
-41.92895293
 31
0.0
  0
LINE
  5
187
100
AcDbEntity
  8
レイヤー_1
  6
CONTINUOUS
 62
       3
100
AcDbLine
 10
74.16859029
 20
-41.92895293
 30
0.0
 11
74.04165134
 21
-42.00534605
 31
0.0
  0
LINE
  5
188
100
AcDbEntity
  8
レイヤー_1
  6
CONTINUOUS
 62
       3
100
AcDbLine
 10
74.04165134
 20
-42.00534605
 30
0.0
 11
73.90379909
 21
-42.0587638
 31
0.0
  0
LINE
  5
189
100
AcDbEntity
  8
レイヤー_1
  6
CONTINUOUS
 62
       3
100
AcDbLine
 10
73.90379909
 20
-42.0587638
 30
0.0
 11
73.75847985
 21
-42.08518548
 31
0.0
  0
LINE
  5
18A
100
AcDbEntity
  8
レイヤー_1
  6
CONTINUOUS
 62
       3
100
AcDbLine
 10
73.75847985
 20
-42.08518548
 30
0.0
 11
68.7894807
 21
-42.51999444
 31
0.0
  0
LINE
  5
18B
100
AcDbEntity
  8
レイヤー_1
  6
CONTINUOUS
 62
       3
100
AcDbLine
 10
68.7894807
 20
-42.51999444
 30
0.0
 11
64.53846201
 21
-42.51999444
 31
0.0
  0
LINE
  5
18C
100
AcDbEntity
  8
レイヤー_1
  6
CONTINUOUS
 62
       3
100
AcDbLine
 10
64.53846201
 20
-41.02027686
 30
0.0
 11
64.25069544
 21
-41.0777153
 31
0.0
  0
LINE
  5
18D
100
AcDbEntity
  8
レイヤー_1
  6
CONTINUOUS
 62
       3
100
AcDbLine
 10
64.25069544
 20
-41.0777153
 30
0.0
 11
64.00830524
 21
-41.24084045
 31
0.0
  0
LINE
  5
18E
100
AcDbEntity
  8
レイヤー_1
  6
CONTINUOUS
 62
       3
100
AcDbLine
 10
64.00830524
 20
-41.24084045
 30
0.0
 11
63.84690323
 21
-41.48265627
 31
0.0
  0
LINE
  5
18F
100
AcDbEntity
  8
レイヤー_1
  6
CONTINUOUS
 62
       3
100
AcDbLine
 10
63.84690323
 20
-41.48265627
 30
0.0
 11
63.78774164
 21
-41.77157161
 31
0.0
  0
LINE
  5
190
100
AcDbEntity
  8
レイヤー_1
  6
CONTINUOUS
 62
       3
100
AcDbLine
 10
63.78774164
 20
-41.77157161
 30
0.0
 11
63.84690323
 21
-42.05704064
 31
0.0
  0
LINE
  5
191
100
AcDbEntity
  8
レイヤー_1
  6
CONTINUOUS
 62
       3
100
AcDbLine
 10
63.84690323
 20
-42.05704064
 30
0.0
 11
64.00830524
 21
-42.301154
 31
0.0
  0
LINE
  5
192
100
AcDbEntity
  8
レイヤー_1
  6
CONTINUOUS
 62
       3
100
AcDbLine
 10
64.00830524
 20
-42.301154
 30
0.0
 11
64.25069544
 21
-42.46313039
 31
0.0
  0
LINE
  5
193
100
AcDbEntity
  8
レイヤー_1
  6
CONTINUOUS
 62
       3
100
AcDbLine
 10
64.25069544
 20
-42.46313039
 30
0.0
 11
64.53846201
 21
-42.51999444
 31
0.0
  0
LINE
  5
194
100
AcDbEntity
  8
レイヤー_1
  6
CONTINUOUS
 62
       3
100
AcDbLine
 10
64.53846201
 20
-41.02027686
 30
0.0
 11
72.78777027
 21
-41.02027686
 31
0.0
  0
LINE
  5
195
100
AcDbEntity
  8
レイヤー_1
  6
CONTINUOUS
 62
       3
100
AcDbLine
 10
72.78777027
 20
-41.02027686
 30
0.0
 11
72.98420972
 21
-41.00074779
 31
0.0
  0
LINE
  5
196
100
AcDbEntity
  8
レイヤー_1
  6
CONTINUOUS
 62
       3
100
AcDbLine
 10
72.98420972
 20
-41.00074779
 30
0.0
 11
73.17088465
 21
-40.94388374
 31
0.0
  0
LINE
  5
197
100
AcDbEntity
  8
レイヤー_1
  6
CONTINUOUS
 62
       3
100
AcDbLine
 10
73.17088465
 20
-40.94388374
 30
0.0
 11
73.3449231
 21
-40.85140786
 31
0.0
  0
LINE
  5
198
100
AcDbEntity
  8
レイヤー_1
  6
CONTINUOUS
 62
       3
100
AcDbLine
 10
73.3449231
 20
-40.85140786
 30
0.0
 11
73.49598619
 21
-40.72791522
 31
0.0
  0
LINE
  5
199
100
AcDbEntity
  8
レイヤー_1
  6
CONTINUOUS
 62
       3
100
AcDbLine
 10
73.49598619
 20
-40.72791522
 30
0.0
 11
73.61947883
 21
-40.57570336
 31
0.0
  0
LINE
  5
19A
100
AcDbEntity
  8
レイヤー_1
  6
CONTINUOUS
 62
       3
100
AcDbLine
 10
73.61947883
 20
-40.57570336
 30
0.0
 11
73.7125291
 21
-40.40396244
 31
0.0
  0
LINE
  5
19B
100
AcDbEntity
  8
レイヤー_1
  6
CONTINUOUS
 62
       3
100
AcDbLine
 10
73.7125291
 20
-40.40396244
 30
0.0
 11
73.76996753
 21
-40.21613874
 31
0.0
  0
LINE
  5
19C
100
AcDbEntity
  8
レイヤー_1
  6
CONTINUOUS
 62
       3
100
AcDbLine
 10
73.76996753
 20
-40.21613874
 30
0.0
 11
73.78892222
 21
-40.01969929
 31
0.0
  0
LINE
  5
19D
100
AcDbEntity
  8
レイヤー_1
  6
CONTINUOUS
 62
       3
100
AcDbLine
 10
73.78892222
 20
-40.01969929
 30
0.0
 11
73.78892222
 21
-22.62102246
 31
0.0
  0
LINE
  5
19E
100
AcDbEntity
  8
レイヤー_1
  6
CONTINUOUS
 62
       3
100
AcDbLine
 10
73.78892222
 20
-22.62102246
 30
0.0
 11
73.76996753
 21
-22.424583
 31
0.0
  0
LINE
  5
19F
100
AcDbEntity
  8
レイヤー_1
  6
CONTINUOUS
 62
       3
100
AcDbLine
 10
73.76996753
 20
-22.424583
 30
0.0
 11
73.7125291
 21
-22.23790809
 31
0.0
  0
LINE
  5
1A0
100
AcDbEntity
  8
レイヤー_1
  6
CONTINUOUS
 62
       3
100
AcDbLine
 10
73.7125291
 20
-22.23790809
 30
0.0
 11
73.61947883
 21
-22.06386963
 31
0.0
  0
LINE
  5
1A1
100
AcDbEntity
  8
レイヤー_1
  6
CONTINUOUS
 62
       3
100
AcDbLine
 10
73.61947883
 20
-22.06386963
 30
0.0
 11
73.49598619
 21
-21.91280654
 31
0.0
  0
LINE
  5
1A2
100
AcDbEntity
  8
レイヤー_1
  6
CONTINUOUS
 62
       3
100
AcDbLine
 10
73.49598619
 20
-21.91280654
 30
0.0
 11
73.3449231
 21
-21.78873951
 31
0.0
  0
LINE
  5
1A3
100
AcDbEntity
  8
レイヤー_1
  6
CONTINUOUS
 62
       3
100
AcDbLine
 10
73.3449231
 20
-21.78873951
 30
0.0
 11
73.17088465
 21
-21.69568925
 31
0.0
  0
LINE
  5
1A4
100
AcDbEntity
  8
レイヤー_1
  6
CONTINUOUS
 62
       3
100
AcDbLine
 10
73.17088465
 20
-21.69568925
 30
0.0
 11
72.98420972
 21
-21.6388252
 31
0.0
  0
LINE
  5
1A5
100
AcDbEntity
  8
レイヤー_1
  6
CONTINUOUS
 62
       3
100
AcDbLine
 10
72.98420972
 20
-21.6388252
 30
0.0
 11
72.78777027
 21
-21.62101928
 31
0.0
  0
LINE
  5
1A6
100
AcDbEntity
  8
レイヤー_1
  6
CONTINUOUS
 62
       3
100
AcDbLine
 10
72.78777027
 20
-21.62101928
 30
0.0
 11
64.78659605
 21
-21.62101928
 31
0.0
  0
LINE
  5
1A7
100
AcDbEntity
  8
レイヤー_1
  6
CONTINUOUS
 62
       3
100
AcDbLine
 10
63.78774164
 20
-20.12015293
 30
0.0
 11
63.78774164
 21
-20.61929294
 31
0.0
  0
LINE
  5
1A8
100
AcDbEntity
  8
レイヤー_1
  6
CONTINUOUS
 62
       3
100
AcDbLine
 10
63.78774164
 20
-20.61929294
 30
0.0
 11
63.80727071
 21
-20.81515801
 31
0.0
  0
LINE
  5
1A9
100
AcDbEntity
  8
レイヤー_1
  6
CONTINUOUS
 62
       3
100
AcDbLine
 10
63.80727071
 20
-20.81515801
 30
0.0
 11
63.86643229
 21
-21.00240732
 31
0.0
  0
LINE
  5
1AA
100
AcDbEntity
  8
レイヤー_1
  6
CONTINUOUS
 62
       3
100
AcDbLine
 10
63.86643229
 20
-21.00240732
 30
0.0
 11
63.95718503
 21
-21.17529701
 31
0.0
  0
LINE
  5
1AB
100
AcDbEntity
  8
レイヤー_1
  6
CONTINUOUS
 62
       3
100
AcDbLine
 10
63.95718503
 20
-21.17529701
 30
0.0
 11
64.08125205
 21
-21.32693448
 31
0.0
  0
LINE
  5
1AC
100
AcDbEntity
  8
レイヤー_1
  6
CONTINUOUS
 62
       3
100
AcDbLine
 10
64.08125205
 20
-21.32693448
 30
0.0
 11
64.23288952
 21
-21.45157589
 31
0.0
  0
LINE
  5
1AD
100
AcDbEntity
  8
レイヤー_1
  6
CONTINUOUS
 62
       3
100
AcDbLine
 10
64.23288952
 20
-21.45157589
 30
0.0
 11
64.4063536
 21
-21.54405178
 31
0.0
  0
LINE
  5
1AE
100
AcDbEntity
  8
レイヤー_1
  6
CONTINUOUS
 62
       3
100
AcDbLine
 10
64.4063536
 20
-21.54405178
 30
0.0
 11
64.59475167
 21
-21.60034144
 31
0.0
  0
LINE
  5
1AF
100
AcDbEntity
  8
レイヤー_1
  6
CONTINUOUS
 62
       3
100
AcDbLine
 10
64.59475167
 20
-21.60034144
 30
0.0
 11
64.78659605
 21
-21.62101928
 31
0.0
  0
LINE
  5
1B0
100
AcDbEntity
  8
レイヤー_1
  6
CONTINUOUS
 62
       3
100
AcDbLine
 10
63.78774164
 20
-20.12015293
 30
0.0
 11
63.82909731
 21
-19.81170853
 31
0.0
  0
LINE
  5
1B1
100
AcDbEntity
  8
レイヤー_1
  6
CONTINUOUS
 62
       3
100
AcDbLine
 10
63.82909731
 20
-19.81170853
 30
0.0
 11
63.94684611
 21
-19.52451634
 31
0.0
  0
LINE
  5
1B2
100
AcDbEntity
  8
レイヤー_1
  6
CONTINUOUS
 62
       3
100
AcDbLine
 10
63.94684611
 20
-19.52451634
 30
0.0
 11
64.13466979
 21
-19.27753107
 31
0.0
  0
LINE
  5
1B3
100
AcDbEntity
  8
レイヤー_1
  6
CONTINUOUS
 62
       3
100
AcDbLine
 10
64.13466979
 20
-19.27753107
 30
0.0
 11
64.37935754
 21
-19.08626107
 31
0.0
  0
LINE
  5
1B4
100
AcDbEntity
  8
レイヤー_1
  6
CONTINUOUS
 62
       3
100
AcDbLine
 10
64.37935754
 20
-19.08626107
 30
0.0
 11
64.66540095
 21
-18.96506597
 31
0.0
  0
LINE
  5
1B5
100
AcDbEntity
  8
レイヤー_1
  6
CONTINUOUS
 62
       3
100
AcDbLine
 10
64.66540095
 20
-18.96506597
 30
0.0
 11
64.97269658
 21
-18.92026399
 31
0.0
  0
LINE
  5
1B6
100
AcDbEntity
  8
レイヤー_1
  6
CONTINUOUS
 62
       3
100
AcDbLine
 10
64.97269658
 20
-18.92026399
 30
0.0
 11
65.28056661
 21
-18.9564502
 31
0.0
  0
LINE
  5
1B7
100
AcDbEntity
  8
レイヤー_1
  6
CONTINUOUS
 62
       3
100
AcDbLine
 10
65.28056661
 20
-18.9564502
 30
0.0
 11
65.56948195
 21
-19.07017831
 31
0.0
  0
LINE
  5
1B8
100
AcDbEntity
  8
レイヤー_1
  6
CONTINUOUS
 62
       3
100
AcDbLine
 10
65.56948195
 20
-19.07017831
 30
0.0
 11
65.68206128
 21
-19.12876551
 31
0.0
  0
LINE
  5
1B9
100
AcDbEntity
  8
レイヤー_1
  6
CONTINUOUS
 62
       3
100
AcDbLine
 10
65.68206128
 20
-19.12876551
 30
0.0
 11
65.79808692
 21
-19.17758819
 31
0.0
  0
LINE
  5
1BA
100
AcDbEntity
  8
レイヤー_1
  6
CONTINUOUS
 62
       3
100
AcDbLine
 10
65.79808692
 20
-19.17758819
 30
0.0
 11
65.91698448
 21
-19.22181578
 31
0.0
  0
LINE
  5
1BB
100
AcDbEntity
  8
レイヤー_1
  6
CONTINUOUS
 62
       3
100
AcDbLine
 10
65.91698448
 20
-19.22181578
 30
0.0
 11
66.03817959
 21
-19.25742761
 31
0.0
  0
LINE
  5
1BC
100
AcDbEntity
  8
レイヤー_1
  6
CONTINUOUS
 62
       3
100
AcDbLine
 10
66.03817959
 20
-19.25742761
 30
0.0
 11
66.16109784
 21
-19.28499806
 31
0.0
  0
LINE
  5
1BD
100
AcDbEntity
  8
レイヤー_1
  6
CONTINUOUS
 62
       3
100
AcDbLine
 10
66.16109784
 20
-19.28499806
 30
0.0
 11
66.28573925
 21
-19.30510152
 31
0.0
  0
LINE
  5
1BE
100
AcDbEntity
  8
レイヤー_1
  6
CONTINUOUS
 62
       3
100
AcDbLine
 10
66.28573925
 20
-19.30510152
 30
0.0
 11
66.41152942
 21
-19.3165892
 31
0.0
  0
LINE
  5
1BF
100
AcDbEntity
  8
レイヤー_1
  6
CONTINUOUS
 62
       3
100
AcDbLine
 10
66.41152942
 20
-19.3165892
 30
0.0
 11
66.53789398
 21
-19.32003551
 31
0.0
  0
LINE
  5
1C0
100
AcDbEntity
  8
レイヤー_1
  6
CONTINUOUS
 62
       3
100
AcDbLine
 10
73.246129
 20
-19.01733495
 30
0.0
 11
69.73434298
 21
-19.30510152
 31
0.0
  0
LINE
  5
1C1
100
AcDbEntity
  8
レイヤー_1
  6
CONTINUOUS
 62
       3
100
AcDbLine
 10
69.73434298
 20
-19.30510152
 30
0.0
 11
69.68724346
 21
-19.3091222
 31
0.0
  0
LINE
  5
1C2
100
AcDbEntity
  8
レイヤー_1
  6
CONTINUOUS
 62
       3
100
AcDbLine
 10
69.68724346
 20
-19.3091222
 30
0.0
 11
69.63784641
 21
-19.31199413
 31
0.0
  0
LINE
  5
1C3
100
AcDbEntity
  8
レイヤー_1
  6
CONTINUOUS
 62
       3
100
AcDbLine
 10
69.63784641
 20
-19.31199413
 30
0.0
 11
69.59132127
 21
-19.31429166
 31
0.0
  0
LINE
  5
1C4
100
AcDbEntity
  8
レイヤー_1
  6
CONTINUOUS
 62
       3
100
AcDbLine
 10
69.59132127
 20
-19.31429166
 30
0.0
 11
69.54364737
 21
-19.3165892
 31
0.0
  0
LINE
  5
1C5
100
AcDbEntity
  8
レイヤー_1
  6
CONTINUOUS
 62
       3
100
AcDbLine
 10
69.54364737
 20
-19.3165892
 30
0.0
 11
69.49539908
 21
-19.31773797
 31
0.0
  0
LINE
  5
1C6
100
AcDbEntity
  8
レイヤー_1
  6
CONTINUOUS
 62
       3
100
AcDbLine
 10
69.49539908
 20
-19.31773797
 30
0.0
 11
69.44600203
 21
-19.31888674
 31
0.0
  0
LINE
  5
1C7
100
AcDbEntity
  8
レイヤー_1
  6
CONTINUOUS
 62
       3
100
AcDbLine
 10
69.44600203
 20
-19.31888674
 30
0.0
 11
69.39832813
 21
-19.32003551
 31
0.0
  0
LINE
  5
1C8
100
AcDbEntity
  8
レイヤー_1
  6
CONTINUOUS
 62
       3
100
AcDbLine
 10
69.39832813
 20
-19.32003551
 30
0.0
 11
69.35122861
 21
-19.32003551
 31
0.0
  0
LINE
  5
1C9
100
AcDbEntity
  8
レイヤー_1
  6
CONTINUOUS
 62
       3
100
AcDbLine
 10
69.35122861
 20
-19.32003551
 30
0.0
 11
66.53789398
 21
-19.32003551
 31
0.0
  0
LINE
  5
1CA
100
AcDbEntity
  8
レイヤー_1
  6
CONTINUOUS
 62
       3
100
AcDbLine
 10
73.246129
 20
-19.01733495
 30
0.0
 11
73.35813394
 21
-19.01216549
 31
0.0
  0
LINE
  5
1CB
100
AcDbEntity
  8
レイヤー_1
  6
CONTINUOUS
 62
       3
100
AcDbLine
 10
73.35813394
 20
-19.01216549
 30
0.0
 11
73.47186205
 21
-19.01561179
 31
0.0
  0
LINE
  5
1CC
100
AcDbEntity
  8
レイヤー_1
  6
CONTINUOUS
 62
       3
100
AcDbLine
 10
73.47186205
 20
-19.01561179
 30
0.0
 11
73.58444139
 21
-19.02824825
 31
0.0
  0
LINE
  5
1CD
100
AcDbEntity
  8
レイヤー_1
  6
CONTINUOUS
 62
       3
100
AcDbLine
 10
73.58444139
 20
-19.02824825
 30
0.0
 11
73.69587195
 21
-19.04892609
 31
0.0
  0
LINE
  5
1CE
100
AcDbEntity
  8
レイヤー_1
  6
CONTINUOUS
 62
       3
100
AcDbLine
 10
73.69587195
 20
-19.04892609
 30
0.0
 11
73.80615375
 21
-19.07821969
 31
0.0
  0
LINE
  5
1CF
100
AcDbEntity
  8
レイヤー_1
  6
CONTINUOUS
 62
       3
100
AcDbLine
 10
73.80615375
 20
-19.07821969
 30
0.0
 11
73.91413801
 21
-19.11555467
 31
0.0
  0
LINE
  5
1D0
100
AcDbEntity
  8
レイヤー_1
  6
CONTINUOUS
 62
       3
100
AcDbLine
 10
73.91413801
 20
-19.11555467
 30
0.0
 11
74.01752719
 21
-19.16093104
 31
0.0
  0
LINE
  5
1D1
100
AcDbEntity
  8
レイヤー_1
  6
CONTINUOUS
 62
       3
100
AcDbLine
 10
74.01752719
 20
-19.16093104
 30
0.0
 11
74.11804447
 21
-19.2137744
 31
0.0
  0
LINE
  5
1D2
100
AcDbEntity
  8
レイヤー_1
  6
CONTINUOUS
 62
       3
100
AcDbLine
 10
74.11804447
 20
-19.2137744
 30
0.0
 11
74.28806224
 21
-19.31199413
 31
0.0
  0
LINE
  5
1D3
100
AcDbEntity
  8
レイヤー_1
  6
CONTINUOUS
 62
       3
100
AcDbLine
 10
74.28806224
 20
-19.31199413
 30
0.0
 11
74.39662088
 21
-19.38436656
 31
0.0
  0
LINE
  5
1D4
100
AcDbEntity
  8
レイヤー_1
  6
CONTINUOUS
 62
       3
100
AcDbLine
 10
74.39662088
 20
-19.38436656
 30
0.0
 11
74.49598937
 21
-19.47052421
 31
0.0
  0
LINE
  5
1D5
100
AcDbEntity
  8
レイヤー_1
  6
CONTINUOUS
 62
       3
100
AcDbLine
 10
74.49598937
 20
-19.47052421
 30
0.0
 11
74.58214703
 21
-19.56874394
 31
0.0
  0
LINE
  5
1D6
100
AcDbEntity
  8
レイヤー_1
  6
CONTINUOUS
 62
       3
100
AcDbLine
 10
74.58214703
 20
-19.56874394
 30
0.0
 11
74.65509384
 21
-19.67787697
 31
0.0
  0
LINE
  5
1D7
100
AcDbEntity
  8
レイヤー_1
  6
CONTINUOUS
 62
       3
100
AcDbLine
 10
74.65509384
 20
-19.67787697
 30
0.0
 11
74.71138351
 21
-19.79562577
 31
0.0
  0
LINE
  5
1D8
100
AcDbEntity
  8
レイヤー_1
  6
CONTINUOUS
 62
       3
100
AcDbLine
 10
74.71138351
 20
-19.79562577
 30
0.0
 11
74.75388796
 21
-19.91969279
 31
0.0
  0
LINE
  5
1D9
100
AcDbEntity
  8
レイヤー_1
  6
CONTINUOUS
 62
       3
100
AcDbLine
 10
74.75388796
 20
-19.91969279
 30
0.0
 11
74.77916087
 21
-20.04720612
 31
0.0
  0
LINE
  5
1DA
100
AcDbEntity
  8
レイヤー_1
  6
CONTINUOUS
 62
       3
100
AcDbLine
 10
74.77916087
 20
-20.04720612
 30
0.0
 11
74.78835102
 21
-20.17759137
 31
0.0
  0
LINE
  5
1DB
100
AcDbEntity
  8
レイヤー_1
  6
CONTINUOUS
 62
       3
100
AcDbLine
 10
74.78835102
 20
-20.17759137
 30
0.0
 11
74.78835102
 21
-25.11959446
 31
0.0
  0
LINE
  5
1DC
100
AcDbEntity
  8
レイヤー_1
  6
CONTINUOUS
 62
       3
100
AcDbLine
 10
74.78835102
 20
-26.12017202
 30
0.0
 11
74.59708102
 21
-26.08111388
 31
0.0
  0
LINE
  5
1DD
100
AcDbEntity
  8
レイヤー_1
  6
CONTINUOUS
 62
       3
100
AcDbLine
 10
74.59708102
 20
-26.08111388
 30
0.0
 11
74.43453025
 21
-25.973704
 31
0.0
  0
LINE
  5
1DE
100
AcDbEntity
  8
レイヤー_1
  6
CONTINUOUS
 62
       3
100
AcDbLine
 10
74.43453025
 20
-25.973704
 30
0.0
 11
74.32712037
 21
-25.812302
 31
0.0
  0
LINE
  5
1DF
100
AcDbEntity
  8
レイヤー_1
  6
CONTINUOUS
 62
       3
100
AcDbLine
 10
74.32712037
 20
-25.812302
 30
0.0
 11
74.28806224
 21
-25.61988324
 31
0.0
  0
LINE
  5
1E0
100
AcDbEntity
  8
レイヤー_1
  6
CONTINUOUS
 62
       3
100
AcDbLine
 10
74.28806224
 20
-25.61988324
 30
0.0
 11
74.32712037
 21
-25.42918763
 31
0.0
  0
LINE
  5
1E1
100
AcDbEntity
  8
レイヤー_1
  6
CONTINUOUS
 62
       3
100
AcDbLine
 10
74.32712037
 20
-25.42918763
 30
0.0
 11
74.43453025
 21
-25.26778562
 31
0.0
  0
LINE
  5
1E2
100
AcDbEntity
  8
レイヤー_1
  6
CONTINUOUS
 62
       3
100
AcDbLine
 10
74.43453025
 20
-25.26778562
 30
0.0
 11
74.59708102
 21
-25.15922697
 31
0.0
  0
LINE
  5
1E3
100
AcDbEntity
  8
レイヤー_1
  6
CONTINUOUS
 62
       3
100
AcDbLine
 10
74.59708102
 20
-25.15922697
 30
0.0
 11
74.78835102
 21
-25.11959446
 31
0.0
  0
LINE
  5
1E4
100
AcDbEntity
  8
レイヤー_1
  6
CONTINUOUS
 62
       3
100
AcDbLine
 10
74.78835102
 20
-26.12017202
 30
0.0
 11
74.78835102
 21
-36.51997535
 31
0.0
  0
LINE
  5
1E5
100
AcDbEntity
  8
レイヤー_1
  6
CONTINUOUS
 62
       3
100
AcDbLine
 10
74.487948
 20
-37.42003565
 30
0.0
 11
74.37996373
 21
-37.30975385
 31
0.0
  0
LINE
  5
1E6
100
AcDbEntity
  8
レイヤー_1
  6
CONTINUOUS
 62
       3
100
AcDbLine
 10
74.37996373
 20
-37.30975385
 30
0.0
 11
74.31103761
 21
-37.17017845
 31
0.0
  0
LINE
  5
1E7
100
AcDbEntity
  8
レイヤー_1
  6
CONTINUOUS
 62
       3
100
AcDbLine
 10
74.31103761
 20
-37.17017845
 30
0.0
 11
74.28806224
 21
-37.01566906
 31
0.0
  0
LINE
  5
1E8
100
AcDbEntity
  8
レイヤー_1
  6
CONTINUOUS
 62
       3
100
AcDbLine
 10
74.28806224
 20
-37.01566906
 30
0.0
 11
74.31448392
 21
-36.86173405
 31
0.0
  0
LINE
  5
1E9
100
AcDbEntity
  8
レイヤー_1
  6
CONTINUOUS
 62
       3
100
AcDbLine
 10
74.31448392
 20
-36.86173405
 30
0.0
 11
74.3851332
 21
-36.72503057
 31
0.0
  0
LINE
  5
1EA
100
AcDbEntity
  8
レイヤー_1
  6
CONTINUOUS
 62
       3
100
AcDbLine
 10
74.3851332
 20
-36.72503057
 30
0.0
 11
74.49713814
 21
-36.61474877
 31
0.0
  0
LINE
  5
1EB
100
AcDbEntity
  8
レイヤー_1
  6
CONTINUOUS
 62
       3
100
AcDbLine
 10
74.49713814
 20
-36.61474877
 30
0.0
 11
74.63499039
 21
-36.54467388
 31
0.0
  0
LINE
  5
1EC
100
AcDbEntity
  8
レイヤー_1
  6
CONTINUOUS
 62
       3
100
AcDbLine
 10
74.63499039
 20
-36.54467388
 30
0.0
 11
74.78835102
 21
-36.51997535
 31
0.0
  0
LINE
  5
1ED
100
AcDbEntity
  8
レイヤー_1
  6
CONTINUOUS
 62
       3
100
AcDbLine
 10
65.8871165
 20
44.27896062
 30
0.0
 11
61.98819542
 21
44.27896062
 31
0.0
  0
LINE
  5
1EE
100
AcDbEntity
  8
レイヤー_1
  6
CONTINUOUS
 62
       3
100
AcDbLine
 10
61.98819542
 20
44.27896062
 30
0.0
 11
61.98819542
 21
42.17929857
 31
0.0
  0
LINE
  5
1EF
100
AcDbEntity
  8
レイヤー_1
  6
CONTINUOUS
 62
       3
100
AcDbLine
 10
61.98819542
 20
42.17929857
 30
0.0
 11
65.8871165
 21
42.17929857
 31
0.0
  0
LINE
  5
1F0
100
AcDbEntity
  8
レイヤー_1
  6
CONTINUOUS
 62
       3
100
AcDbLine
 10
65.8871165
 20
42.17929857
 30
0.0
 11
65.8871165
 21
44.27896062
 31
0.0
  0
LINE
  5
1F1
100
AcDbEntity
  8
レイヤー_1
  6
CONTINUOUS
 62
       3
100
AcDbLine
 10
62.25298661
 20
38.21145137
 30
0.0
 11
59.04217801
 21
33.62499221
 31
0.0
  0
LINE
  5
1F2
100
AcDbEntity
  8
レイヤー_1
  6
CONTINUOUS
 62
       3
100
AcDbLine
 10
59.04217801
 20
33.62499221
 30
0.0
 11
57.07606032
 21
35.00064276
 31
0.0
  0
LINE
  5
1F3
100
AcDbEntity
  8
レイヤー_1
  6
CONTINUOUS
 62
       3
100
AcDbLine
 10
57.07606032
 20
35.00064276
 30
0.0
 11
60.2880177
 21
39.58853789
 31
0.0
  0
LINE
  5
1F4
100
AcDbEntity
  8
レイヤー_1
  6
CONTINUOUS
 62
       3
100
AcDbLine
 10
60.2880177
 20
39.58853789
 30
0.0
 11
62.25298661
 21
38.21145137
 31
0.0
  0
LINE
  5
1F5
100
AcDbEntity
  8
レイヤー_1
  6
CONTINUOUS
 62
       3
100
AcDbLine
 10
-21.29581451
 20
-1.03939148
 30
0.0
 11
-21.42160469
 21
-1.16345851
 31
0.0
  0
LINE
  5
1F6
100
AcDbEntity
  8
レイヤー_1
  6
CONTINUOUS
 62
       3
100
AcDbLine
 10
-21.42160469
 20
-1.16345851
 30
0.0
 11
-21.57123182
 21
-1.25823193
 31
0.0
  0
LINE
  5
1F7
100
AcDbEntity
  8
レイヤー_1
  6
CONTINUOUS
 62
       3
100
AcDbLine
 10
-21.57123182
 20
-1.25823193
 30
0.0
 11
-21.73636732
 21
-1.31997824
 31
0.0
  0
LINE
  5
1F8
100
AcDbEntity
  8
レイヤー_1
  6
CONTINUOUS
 62
       3
100
AcDbLine
 10
-21.73636732
 20
-1.31997824
 30
0.0
 11
-21.91212893
 21
-1.34582554
 31
0.0
  0
LINE
  5
1F9
100
AcDbEntity
  8
レイヤー_1
  6
CONTINUOUS
 62
       3
100
AcDbLine
 10
-21.91212893
 20
-1.34582554
 30
0.0
 11
-22.08817774
 21
-1.33462505
 31
0.0
  0
LINE
  5
1FA
100
AcDbEntity
  8
レイヤー_1
  6
CONTINUOUS
 62
       3
100
AcDbLine
 10
-22.08817774
 20
-1.33462505
 30
0.0
 11
-22.2587699
 21
-1.28809991
 31
0.0
  0
LINE
  5
1FB
100
AcDbEntity
  8
レイヤー_1
  6
CONTINUOUS
 62
       3
100
AcDbLine
 10
-22.2587699
 20
-1.28809991
 30
0.0
 11
-22.41528964
 21
-1.2076861
 31
0.0
  0
LINE
  5
1FC
100
AcDbEntity
  8
レイヤー_1
  6
CONTINUOUS
 62
       3
100
AcDbLine
 10
-22.41528964
 20
-1.2076861
 30
0.0
 11
-22.55285469
 21
-1.09596834
 31
0.0
  0
LINE
  5
1FD
100
AcDbEntity
  8
レイヤー_1
  6
CONTINUOUS
 62
       3
100
AcDbLine
 10
-22.55285469
 20
-1.09596834
 30
0.0
 11
-22.84866265
 21
-2.61263026
 31
0.0
  0
LINE
  5
1FE
100
AcDbEntity
  8
レイヤー_1
  6
CONTINUOUS
 62
       3
100
AcDbLine
 10
-22.84866265
 20
-2.61263026
 30
0.0
 11
-22.60627244
 21
-2.70108545
 31
0.0
  0
LINE
  5
1FF
100
AcDbEntity
  8
レイヤー_1
  6
CONTINUOUS
 62
       3
100
AcDbLine
 10
-22.60627244
 20
-2.70108545
 30
0.0
 11
-22.35584086
 21
-2.76024705
 31
0.0
  0
LINE
  5
200
100
AcDbEntity
  8
レイヤー_1
  6
CONTINUOUS
 62
       3
100
AcDbLine
 10
-22.35584086
 20
-2.76024705
 30
0.0
 11
-22.09937824
 21
-2.79155099
 31
0.0
  0
LINE
  5
201
100
AcDbEntity
  8
レイヤー_1
  6
CONTINUOUS
 62
       3
100
AcDbLine
 10
-22.09937824
 20
-2.79155099
 30
0.0
 11
-21.84234123
 21
-2.79327414
 31
0.0
  0
LINE
  5
202
100
AcDbEntity
  8
レイヤー_1
  6
CONTINUOUS
 62
       3
100
AcDbLine
 10
-21.84234123
 20
-2.79327414
 30
0.0
 11
-21.58530423
 21
-2.7657037
 31
0.0
  0
LINE
  5
203
100
AcDbEntity
  8
レイヤー_1
  6
CONTINUOUS
 62
       3
100
AcDbLine
 10
-21.58530423
 20
-2.7657037
 30
0.0
 11
-21.33228792
 21
-2.71286033
 31
0.0
  0
LINE
  5
204
100
AcDbEntity
  8
レイヤー_1
  6
CONTINUOUS
 62
       3
100
AcDbLine
 10
-21.33228792
 20
-2.71286033
 30
0.0
 11
-21.08760018
 21
-2.6292874
 31
0.0
  0
LINE
  5
205
100
AcDbEntity
  8
レイヤー_1
  6
CONTINUOUS
 62
       3
100
AcDbLine
 10
-21.08760018
 20
-2.6292874
 30
0.0
 11
-20.85468731
 21
-2.5192928
 31
0.0
  0
LINE
  5
206
100
AcDbEntity
  8
レイヤー_1
  6
CONTINUOUS
 62
       3
100
AcDbLine
 10
-20.85468731
 20
-2.5192928
 30
0.0
 11
-21.29581451
 21
-1.03939148
 31
0.0
  0
LINE
  5
207
100
AcDbEntity
  8
レイヤー_1
  6
CONTINUOUS
 62
       3
100
AcDbLine
 10
-22.55113155
 20
0.10277183
 30
0.0
 11
-22.41385368
 21
0.21448959
 31
0.0
  0
LINE
  5
208
100
AcDbEntity
  8
レイヤー_1
  6
CONTINUOUS
 62
       3
100
AcDbLine
 10
-22.41385368
 20
0.21448959
 30
0.0
 11
-22.25704675
 21
0.29289305
 31
0.0
  0
LINE
  5
209
100
AcDbEntity
  8
レイヤー_1
  6
CONTINUOUS
 62
       3
100
AcDbLine
 10
-22.25704675
 20
0.29289305
 30
0.0
 11
-22.08530582
 21
0.33941819
 31
0.0
  0
LINE
  5
20A
100
AcDbEntity
  8
レイヤー_1
  6
CONTINUOUS
 62
       3
100
AcDbLine
 10
-22.08530582
 20
0.33941819
 30
0.0
 11
-21.90983139
 21
0.34918273
 31
0.0
  0
LINE
  5
20B
100
AcDbEntity
  8
レイヤー_1
  6
CONTINUOUS
 62
       3
100
AcDbLine
 10
-21.90983139
 20
0.34918273
 30
0.0
 11
-21.73406978
 21
0.32276105
 31
0.0
  0
LINE
  5
20C
100
AcDbEntity
  8
レイヤー_1
  6
CONTINUOUS
 62
       3
100
AcDbLine
 10
-21.73406978
 20
0.32276105
 30
0.0
 11
-21.56922147
 21
0.25986596
 31
0.0
  0
LINE
  5
20D
100
AcDbEntity
  8
レイヤー_1
  6
CONTINUOUS
 62
       3
100
AcDbLine
 10
-21.56922147
 20
0.25986596
 30
0.0
 11
-21.4210303
 21
0.16509254
 31
0.0
  0
LINE
  5
20E
100
AcDbEntity
  8
レイヤー_1
  6
CONTINUOUS
 62
       3
100
AcDbLine
 10
-21.4210303
 20
0.16509254
 30
0.0
 11
-21.29524013
 21
0.04102551
 31
0.0
  0
LINE
  5
20F
100
AcDbEntity
  8
レイヤー_1
  6
CONTINUOUS
 62
       3
100
AcDbLine
 10
-21.29524013
 20
0.04102551
 30
0.0
 11
-20.85641047
 21
1.52264998
 31
0.0
  0
LINE
  5
210
100
AcDbEntity
  8
レイヤー_1
  6
CONTINUOUS
 62
       3
100
AcDbLine
 10
-20.85641047
 20
1.52264998
 30
0.0
 11
-21.08989771
 21
1.63321898
 31
0.0
  0
LINE
  5
211
100
AcDbEntity
  8
レイヤー_1
  6
CONTINUOUS
 62
       3
100
AcDbLine
 10
-21.08989771
 20
1.63321898
 30
0.0
 11
-21.33343669
 21
1.71621752
 31
0.0
  0
LINE
  5
212
100
AcDbEntity
  8
レイヤー_1
  6
CONTINUOUS
 62
       3
100
AcDbLine
 10
-21.33343669
 20
1.71621752
 30
0.0
 11
-21.58760177
 21
1.77078403
 31
0.0
  0
LINE
  5
213
100
AcDbEntity
  8
レイヤー_1
  6
CONTINUOUS
 62
       3
100
AcDbLine
 10
-21.58760177
 20
1.77078403
 30
0.0
 11
-21.84291562
 21
1.79864167
 31
0.0
  0
LINE
  5
214
100
AcDbEntity
  8
レイヤー_1
  6
CONTINUOUS
 62
       3
100
AcDbLine
 10
-21.84291562
 20
1.79864167
 30
0.0
 11
-22.10167577
 21
1.79548256
 31
0.0
  0
LINE
  5
215
100
AcDbEntity
  8
レイヤー_1
  6
CONTINUOUS
 62
       3
100
AcDbLine
 10
-22.10167577
 20
1.79548256
 30
0.0
 11
-22.35756401
 21
1.7644658
 31
0.0
  0
LINE
  5
216
100
AcDbEntity
  8
レイヤー_1
  6
CONTINUOUS
 62
       3
100
AcDbLine
 10
-22.35756401
 20
1.7644658
 30
0.0
 11
-22.6079956
 21
1.70616579
 31
0.0
  0
LINE
  5
217
100
AcDbEntity
  8
レイヤー_1
  6
CONTINUOUS
 62
       3
100
AcDbLine
 10
-22.6079956
 20
1.70616579
 30
0.0
 11
-22.8503858
 21
1.61684902
 31
0.0
  0
LINE
  5
218
100
AcDbEntity
  8
レイヤー_1
  6
CONTINUOUS
 62
       3
100
AcDbLine
 10
-22.8503858
 20
1.61684902
 30
0.0
 11
-22.55113155
 21
0.10277183
 31
0.0
  0
LINE
  5
219
100
AcDbEntity
  8
レイヤー_1
  6
CONTINUOUS
 62
       3
100
AcDbLine
 10
-22.14331864
 20
29.95783522
 30
0.0
 11
-22.11402504
 21
29.78350956
 31
0.0
  0
LINE
  5
21A
100
AcDbEntity
  8
レイヤー_1
  6
CONTINUOUS
 62
       3
100
AcDbLine
 10
-22.11402504
 20
29.78350956
 30
0.0
 11
-22.122928
 21
29.60602479
 31
0.0
  0
LINE
  5
21B
100
AcDbEntity
  8
レイヤー_1
  6
CONTINUOUS
 62
       3
100
AcDbLine
 10
-22.122928
 20
29.60602479
 30
0.0
 11
-22.1668684
 21
29.43543264
 31
0.0
  0
LINE
  5
21C
100
AcDbEntity
  8
レイヤー_1
  6
CONTINUOUS
 62
       3
100
AcDbLine
 10
-22.1668684
 20
29.43543264
 30
0.0
 11
-22.24527187
 21
29.27776413
 31
0.0
  0
LINE
  5
21D
100
AcDbEntity
  8
レイヤー_1
  6
CONTINUOUS
 62
       3
100
AcDbLine
 10
-22.24527187
 20
29.27776413
 30
0.0
 11
-22.35584086
 21
29.13905031
 31
0.0
  0
LINE
  5
21E
100
AcDbEntity
  8
レイヤー_1
  6
CONTINUOUS
 62
       3
100
AcDbLine
 10
-22.35584086
 20
29.13905031
 30
0.0
 11
-22.49168276
 21
29.0256094
 31
0.0
  0
LINE
  5
21F
100
AcDbEntity
  8
レイヤー_1
  6
CONTINUOUS
 62
       3
100
AcDbLine
 10
-22.49168276
 20
29.0256094
 30
0.0
 11
-22.64877688
 21
28.944334
 31
0.0
  0
LINE
  5
220
100
AcDbEntity
  8
レイヤー_1
  6
CONTINUOUS
 62
       3
100
AcDbLine
 10
-22.64877688
 20
28.944334
 30
0.0
 11
-22.81793308
 21
28.89608572
 31
0.0
  0
LINE
  5
221
100
AcDbEntity
  8
レイヤー_1
  6
CONTINUOUS
 62
       3
100
AcDbLine
 10
-22.81793308
 20
28.89608572
 30
0.0
 11
-21.74469589
 21
27.78264163
 31
0.0
  0
LINE
  5
222
100
AcDbEntity
  8
レイヤー_1
  6
CONTINUOUS
 62
       3
100
AcDbLine
 10
-21.74469589
 20
27.78264163
 30
0.0
 11
-21.53360964
 21
27.93140718
 31
0.0
  0
LINE
  5
223
100
AcDbEntity
  8
レイヤー_1
  6
CONTINUOUS
 62
       3
100
AcDbLine
 10
-21.53360964
 20
27.93140718
 30
0.0
 11
-21.34061649
 21
28.1031481
 31
0.0
  0
LINE
  5
224
100
AcDbEntity
  8
レイヤー_1
  6
CONTINUOUS
 62
       3
100
AcDbLine
 10
-21.34061649
 20
28.1031481
 30
0.0
 11
-21.16830118
 21
28.2944181
 31
0.0
  0
LINE
  5
225
100
AcDbEntity
  8
レイヤー_1
  6
CONTINUOUS
 62
       3
100
AcDbLine
 10
-21.16830118
 20
28.2944181
 30
0.0
 11
-21.01838687
 21
28.50435558
 31
0.0
  0
LINE
  5
226
100
AcDbEntity
  8
レイヤー_1
  6
CONTINUOUS
 62
       3
100
AcDbLine
 10
-21.01838687
 20
28.50435558
 30
0.0
 11
-20.89345826
 21
28.73066302
 31
0.0
  0
LINE
  5
227
100
AcDbEntity
  8
レイヤー_1
  6
CONTINUOUS
 62
       3
100
AcDbLine
 10
-20.89345826
 20
28.73066302
 30
0.0
 11
-20.79466415
 21
28.96903253
 31
0.0
  0
LINE
  5
228
100
AcDbEntity
  8
レイヤー_1
  6
CONTINUOUS
 62
       3
100
AcDbLine
 10
-20.79466415
 20
28.96903253
 30
0.0
 11
-20.72171733
 21
29.2165922
 31
0.0
  0
LINE
  5
229
100
AcDbEntity
  8
レイヤー_1
  6
CONTINUOUS
 62
       3
100
AcDbLine
 10
-20.72171733
 20
29.2165922
 30
0.0
 11
-20.67777693
 21
29.47075728
 31
0.0
  0
LINE
  5
22A
100
AcDbEntity
  8
レイヤー_1
  6
CONTINUOUS
 62
       3
100
AcDbLine
 10
-20.67777693
 20
29.47075728
 30
0.0
 11
-22.14331864
 21
29.95783522
 31
0.0
  0
LINE
  5
22B
100
AcDbEntity
  8
レイヤー_1
  6
CONTINUOUS
 62
       3
100
AcDbLine
 10
-23.79984315
 20
29.58419819
 30
0.0
 11
-23.81161803
 21
29.7599598
 31
0.0
  0
LINE
  5
22C
100
AcDbEntity
  8
レイヤー_1
  6
CONTINUOUS
 62
       3
100
AcDbLine
 10
-23.81161803
 20
29.7599598
 30
0.0
 11
-23.78663231
 21
29.93543423
 31
0.0
  0
LINE
  5
22D
100
AcDbEntity
  8
レイヤー_1
  6
CONTINUOUS
 62
       3
100
AcDbLine
 10
-23.78663231
 20
29.93543423
 30
0.0
 11
-23.72632196
 21
30.10114412
 31
0.0
  0
LINE
  5
22E
100
AcDbEntity
  8
レイヤー_1
  6
CONTINUOUS
 62
       3
100
AcDbLine
 10
-23.72632196
 20
30.10114412
 30
0.0
 11
-23.63327169
 21
30.25192002
 31
0.0
  0
LINE
  5
22F
100
AcDbEntity
  8
レイヤー_1
  6
CONTINUOUS
 62
       3
100
AcDbLine
 10
-23.63327169
 20
30.25192002
 30
0.0
 11
-23.51035344
 21
30.37885896
 31
0.0
  0
LINE
  5
230
100
AcDbEntity
  8
レイヤー_1
  6
CONTINUOUS
 62
       3
100
AcDbLine
 10
-23.51035344
 20
30.37885896
 30
0.0
 11
-23.36445981
 21
30.47822745
 31
0.0
  0
LINE
  5
231
100
AcDbEntity
  8
レイヤー_1
  6
CONTINUOUS
 62
       3
100
AcDbLine
 10
-23.36445981
 20
30.47822745
 30
0.0
 11
-23.20162183
 21
30.54543043
 31
0.0
  0
LINE
  5
232
100
AcDbEntity
  8
レイヤー_1
  6
CONTINUOUS
 62
       3
100
AcDbLine
 10
-23.20162183
 20
30.54543043
 30
0.0
 11
-23.02873215
 21
30.57702157
 31
0.0
  0
LINE
  5
233
100
AcDbEntity
  8
レイヤー_1
  6
CONTINUOUS
 62
       3
100
AcDbLine
 10
-23.02873215
 20
30.57702157
 30
0.0
 11
-23.99082595
 21
31.78696224
 31
0.0
  0
LINE
  5
234
100
AcDbEntity
  8
レイヤー_1
  6
CONTINUOUS
 62
       3
100
AcDbLine
 10
-23.99082595
 20
31.78696224
 30
0.0
 11
-24.21483586
 21
31.65858733
 31
0.0
  0
LINE
  5
235
100
AcDbEntity
  8
レイヤー_1
  6
CONTINUOUS
 62
       3
100
AcDbLine
 10
-24.21483586
 20
31.65858733
 30
0.0
 11
-24.42305019
 21
31.50637547
 31
0.0
  0
LINE
  5
236
100
AcDbEntity
  8
レイヤー_1
  6
CONTINUOUS
 62
       3
100
AcDbLine
 10
-24.42305019
 20
31.50637547
 30
0.0
 11
-24.61317141
 21
31.33003947
 31
0.0
  0
LINE
  5
237
100
AcDbEntity
  8
レイヤー_1
  6
CONTINUOUS
 62
       3
100
AcDbLine
 10
-24.61317141
 20
31.33003947
 30
0.0
 11
-24.78146604
 21
31.13647194
 31
0.0
  0
LINE
  5
238
100
AcDbEntity
  8
レイヤー_1
  6
CONTINUOUS
 62
       3
100
AcDbLine
 10
-24.78146604
 20
31.13647194
 30
0.0
 11
-24.92793405
 21
30.92337534
 31
0.0
  0
LINE
  5
239
100
AcDbEntity
  8
レイヤー_1
  6
CONTINUOUS
 62
       3
100
AcDbLine
 10
-24.92793405
 20
30.92337534
 30
0.0
 11
-25.04884196
 21
30.69534474
 31
0.0
  0
LINE
  5
23A
100
AcDbEntity
  8
レイヤー_1
  6
CONTINUOUS
 62
       3
100
AcDbLine
 10
-25.04884196
 20
30.69534474
 30
0.0
 11
-25.14476415
 21
30.45525208
 31
0.0
  0
LINE
  5
23B
100
AcDbEntity
  8
レイヤー_1
  6
CONTINUOUS
 62
       3
100
AcDbLine
 10
-25.14476415
 20
30.45525208
 30
0.0
 11
-25.21196712
 21
30.20654365
 31
0.0
  0
LINE
  5
23C
100
AcDbEntity
  8
レイヤー_1
  6
CONTINUOUS
 62
       3
100
AcDbLine
 10
-25.21196712
 20
30.20654365
 30
0.0
 11
-23.79984315
 21
29.58419819
 31
0.0
  0
LINE
  5
23D
100
AcDbEntity
  8
レイヤー_1
  6
CONTINUOUS
 62
       3
100
AcDbLine
 10
60.107661
 20
38.98141361
 30
0.0
 11
61.7463796
 21
37.83522961
 31
0.0
  0
LINE
  5
23E
100
AcDbEntity
  8
レイヤー_1
  6
CONTINUOUS
 62
       3
100
AcDbLine
 10
61.7463796
 20
37.83522961
 30
0.0
 11
60.85953014
 21
36.56641454
 31
0.0
  0
LINE
  5
23F
100
AcDbEntity
  8
レイヤー_1
  6
CONTINUOUS
 62
       3
100
AcDbLine
 10
60.85953014
 20
36.56641454
 30
0.0
 11
59.22023716
 21
37.71518328
 31
0.0
  0
LINE
  5
240
100
AcDbEntity
  8
レイヤー_1
  6
CONTINUOUS
 62
       3
100
AcDbLine
 10
59.22023716
 20
37.71518328
 30
0.0
 11
60.107661
 21
38.98141361
 31
0.0
  0
LINE
  5
241
100
AcDbEntity
  8
レイヤー_1
  6
CONTINUOUS
 62
       3
100
AcDbLine
 10
58.50110794
 20
36.68818403
 30
0.0
 11
60.14040091
 21
35.54113845
 31
0.0
  0
LINE
  5
242
100
AcDbEntity
  8
レイヤー_1
  6
CONTINUOUS
 62
       3
100
AcDbLine
 10
60.14040091
 20
35.54113845
 30
0.0
 11
59.25355145
 21
34.27433373
 31
0.0
  0
LINE
  5
243
100
AcDbEntity
  8
レイヤー_1
  6
CONTINUOUS
 62
       3
100
AcDbLine
 10
59.25355145
 20
34.27433373
 30
0.0
 11
57.61425847
 21
35.42195369
 31
0.0
  0
LINE
  5
244
100
AcDbEntity
  8
レイヤー_1
  6
CONTINUOUS
 62
       3
100
AcDbLine
 10
57.61425847
 20
35.42195369
 30
0.0
 11
58.50110794
 21
36.68818403
 31
0.0
  0
LINE
  5
245
100
AcDbEntity
  8
レイヤー_1
  6
CONTINUOUS
 62
       3
100
AcDbLine
 10
-24.21196394
 20
23.4296697
 30
0.0
 11
-24.57497485
 21
23.35787166
 31
0.0
  0
LINE
  5
246
100
AcDbEntity
  8
レイヤー_1
  6
CONTINUOUS
 62
       3
100
AcDbLine
 10
-24.57497485
 20
23.35787166
 30
0.0
 11
-24.88313207
 21
23.15138048
 31
0.0
  0
LINE
  5
247
100
AcDbEntity
  8
レイヤー_1
  6
CONTINUOUS
 62
       3
100
AcDbLine
 10
-24.88313207
 20
23.15138048
 30
0.0
 11
-25.08904887
 21
22.84379765
 31
0.0
  0
LINE
  5
248
100
AcDbEntity
  8
レイヤー_1
  6
CONTINUOUS
 62
       3
100
AcDbLine
 10
-25.08904887
 20
22.84379765
 30
0.0
 11
-25.16084691
 21
22.48021235
 31
0.0
  0
LINE
  5
249
100
AcDbEntity
  8
レイヤー_1
  6
CONTINUOUS
 62
       3
100
AcDbLine
 10
-25.16084691
 20
22.48021235
 30
0.0
 11
-25.08904887
 21
22.11691424
 31
0.0
  0
LINE
  5
24A
100
AcDbEntity
  8
レイヤー_1
  6
CONTINUOUS
 62
       3
100
AcDbLine
 10
-25.08904887
 20
22.11691424
 30
0.0
 11
-24.88313207
 21
21.80760825
 31
0.0
  0
LINE
  5
24B
100
AcDbEntity
  8
レイヤー_1
  6
CONTINUOUS
 62
       3
100
AcDbLine
 10
-24.88313207
 20
21.80760825
 30
0.0
 11
-24.57497485
 21
21.60226585
 31
0.0
  0
LINE
  5
24C
100
AcDbEntity
  8
レイヤー_1
  6
CONTINUOUS
 62
       3
100
AcDbLine
 10
-24.57497485
 20
21.60226585
 30
0.0
 11
-24.21196394
 21
21.52989342
 31
0.0
  0
LINE
  5
24D
100
AcDbEntity
  8
レイヤー_1
  6
CONTINUOUS
 62
       3
100
AcDbLine
 10
-24.21196394
 20
21.52989342
 30
0.0
 11
-23.84665548
 21
21.60226585
 31
0.0
  0
LINE
  5
24E
100
AcDbEntity
  8
レイヤー_1
  6
CONTINUOUS
 62
       3
100
AcDbLine
 10
-23.84665548
 20
21.60226585
 30
0.0
 11
-23.53964703
 21
21.80760825
 31
0.0
  0
LINE
  5
24F
100
AcDbEntity
  8
レイヤー_1
  6
CONTINUOUS
 62
       3
100
AcDbLine
 10
-23.53964703
 20
21.80760825
 30
0.0
 11
-23.33373024
 21
22.11691424
 31
0.0
  0
LINE
  5
250
100
AcDbEntity
  8
レイヤー_1
  6
CONTINUOUS
 62
       3
100
AcDbLine
 10
-23.33373024
 20
22.11691424
 30
0.0
 11
-23.26221939
 21
22.48021235
 31
0.0
  0
LINE
  5
251
100
AcDbEntity
  8
レイヤー_1
  6
CONTINUOUS
 62
       3
100
AcDbLine
 10
-23.26221939
 20
22.48021235
 30
0.0
 11
-23.33373024
 21
22.84379765
 31
0.0
  0
LINE
  5
252
100
AcDbEntity
  8
レイヤー_1
  6
CONTINUOUS
 62
       3
100
AcDbLine
 10
-23.33373024
 20
22.84379765
 30
0.0
 11
-23.53964703
 21
23.15138048
 31
0.0
  0
LINE
  5
253
100
AcDbEntity
  8
レイヤー_1
  6
CONTINUOUS
 62
       3
100
AcDbLine
 10
-23.53964703
 20
23.15138048
 30
0.0
 11
-23.84665548
 21
23.35787166
 31
0.0
  0
LINE
  5
254
100
AcDbEntity
  8
レイヤー_1
  6
CONTINUOUS
 62
       3
100
AcDbLine
 10
-23.84665548
 20
23.35787166
 30
0.0
 11
-24.21196394
 21
23.4296697
 31
0.0
  0
LINE
  5
255
100
AcDbEntity
  8
レイヤー_1
  6
CONTINUOUS
 62
       3
100
AcDbLine
 10
-23.71196235
 20
20.0792857
 30
0.0
 11
-24.34550831
 21
20.0792857
 31
0.0
  0
LINE
  5
256
100
AcDbEntity
  8
レイヤー_1
  6
CONTINUOUS
 62
       3
100
AcDbLine
 10
-71.6038436
 20
23.89090035
 30
0.0
 11
-66.79854399
 21
23.89090035
 31
0.0
  0
LINE
  5
257
100
AcDbEntity
  8
レイヤー_1
  6
CONTINUOUS
 62
       3
100
AcDbLine
 10
-71.59206872
 20
19.40179934
 30
0.0
 11
-71.6038436
 21
25.39234109
 31
0.0
  0
LINE
  5
258
100
AcDbEntity
  8
レイヤー_1
  6
CONTINUOUS
 62
       3
100
AcDbLine
 10
-71.6038436
 20
25.39234109
 30
0.0
 11
-66.79854399
 21
25.39234109
 31
0.0
  0
LINE
  5
259
100
AcDbEntity
  8
レイヤー_1
  6
CONTINUOUS
 62
       3
100
AcDbLine
 10
-66.79854399
 20
25.39234109
 30
0.0
 11
-66.7873435
 21
19.40179934
 31
0.0
  0
LINE
  5
25A
100
AcDbEntity
  8
レイヤー_1
  6
CONTINUOUS
 62
       3
100
AcDbLine
 10
-66.7873435
 20
19.40179934
 30
0.0
 11
-71.59206872
 21
19.40179934
 31
0.0
  0
LINE
  5
25B
100
AcDbEntity
  8
レイヤー_1
  6
CONTINUOUS
 62
       3
100
AcDbLine
 10
-24.34550831
 20
20.0792857
 30
0.0
 11
-25.45435732
 21
19.47905403
 31
0.0
  0
LINE
  5
25C
100
AcDbEntity
  8
レイヤー_1
  6
CONTINUOUS
 62
       3
100
AcDbLine
 10
51.38391126
 20
-30.09089114
 30
0.0
 11
52.76013619
 21
-32.05643444
 31
0.0
  0
LINE
  5
25D
100
AcDbEntity
  8
レイヤー_1
  6
CONTINUOUS
 62
       3
100
AcDbLine
 10
52.76013619
 20
-32.05643444
 30
0.0
 11
54.64354253
 21
-30.73822232
 31
0.0
  0
LINE
  5
25E
100
AcDbEntity
  8
レイヤー_1
  6
CONTINUOUS
 62
       3
100
AcDbLine
 10
54.64354253
 20
-30.73822232
 30
0.0
 11
53.26674321
 21
-28.77210463
 31
0.0
  0
LINE
  5
25F
100
AcDbEntity
  8
レイヤー_1
  6
CONTINUOUS
 62
       3
100
AcDbLine
 10
53.26674321
 20
-28.77210463
 30
0.0
 11
51.38391126
 21
-30.09089114
 31
0.0
  0
LINE
  5
260
100
AcDbEntity
  8
レイヤー_1
  6
CONTINUOUS
 62
       3
100
AcDbLine
 10
48.67913527
 20
-31.98406201
 30
0.0
 11
50.05536021
 21
-33.94960531
 31
0.0
  0
LINE
  5
261
100
AcDbEntity
  8
レイヤー_1
  6
CONTINUOUS
 62
       3
100
AcDbLine
 10
50.05536021
 20
-33.94960531
 30
0.0
 11
51.93991532
 21
-32.63139319
 31
0.0
  0
LINE
  5
262
100
AcDbEntity
  8
レイヤー_1
  6
CONTINUOUS
 62
       3
100
AcDbLine
 10
51.93991532
 20
-32.63139319
 30
0.0
 11
50.56254161
 21
-30.66470112
 31
0.0
  0
LINE
  5
263
100
AcDbEntity
  8
レイヤー_1
  6
CONTINUOUS
 62
       3
100
AcDbLine
 10
50.56254161
 20
-30.66470112
 30
0.0
 11
48.67913527
 21
-31.98406201
 31
0.0
  0
LINE
  5
264
100
AcDbEntity
  8
レイヤー_1
  6
CONTINUOUS
 62
       3
100
AcDbLine
 10
52.05479219
 20
-25.46939453
 30
0.0
 11
46.19894358
 21
-29.57164768
 31
0.0
  0
LINE
  5
265
100
AcDbEntity
  8
レイヤー_1
  6
CONTINUOUS
 62
       3
100
AcDbLine
 10
46.19894358
 20
-29.57164768
 30
0.0
 11
47.45799411
 21
-31.37349143
 31
0.0
  0
LINE
  5
266
100
AcDbEntity
  8
レイヤー_1
  6
CONTINUOUS
 62
       3
100
AcDbLine
 10
47.45799411
 20
-31.37349143
 30
0.0
 11
53.31614026
 21
-27.27353583
 31
0.0
  0
LINE
  5
267
100
AcDbEntity
  8
レイヤー_1
  6
CONTINUOUS
 62
       3
100
AcDbLine
 10
53.31614026
 20
-27.27353583
 30
0.0
 11
52.05479219
 21
-25.46939453
 31
0.0
  0
LINE
  5
268
100
AcDbEntity
  8
レイヤー_1
  6
CONTINUOUS
 62
       3
100
AcDbLine
 10
30.88298446
 20
-30.09089114
 30
0.0
 11
32.2592094
 21
-32.05643444
 31
0.0
  0
LINE
  5
269
100
AcDbEntity
  8
レイヤー_1
  6
CONTINUOUS
 62
       3
100
AcDbLine
 10
32.2592094
 20
-32.05643444
 30
0.0
 11
34.14376451
 21
-30.73822232
 31
0.0
  0
LINE
  5
26A
100
AcDbEntity
  8
レイヤー_1
  6
CONTINUOUS
 62
       3
100
AcDbLine
 10
34.14376451
 20
-30.73822232
 30
0.0
 11
32.76696518
 21
-28.77210463
 31
0.0
  0
LINE
  5
26B
100
AcDbEntity
  8
レイヤー_1
  6
CONTINUOUS
 62
       3
100
AcDbLine
 10
32.76696518
 20
-28.77210463
 30
0.0
 11
30.88298446
 21
-30.09089114
 31
0.0
  0
LINE
  5
26C
100
AcDbEntity
  8
レイヤー_1
  6
CONTINUOUS
 62
       3
100
AcDbLine
 10
28.17993163
 20
-31.98406201
 30
0.0
 11
29.55615657
 21
-33.94960531
 31
0.0
  0
LINE
  5
26D
100
AcDbEntity
  8
レイヤー_1
  6
CONTINUOUS
 62
       3
100
AcDbLine
 10
29.55615657
 20
-33.94960531
 30
0.0
 11
31.44071168
 21
-32.63139319
 31
0.0
  0
LINE
  5
26E
100
AcDbEntity
  8
レイヤー_1
  6
CONTINUOUS
 62
       3
100
AcDbLine
 10
31.44071168
 20
-32.63139319
 30
0.0
 11
30.06391235
 21
-30.66470112
 31
0.0
  0
LINE
  5
26F
100
AcDbEntity
  8
レイヤー_1
  6
CONTINUOUS
 62
       3
100
AcDbLine
 10
30.06391235
 20
-30.66470112
 30
0.0
 11
28.17993163
 21
-31.98406201
 31
0.0
  0
LINE
  5
270
100
AcDbEntity
  8
レイヤー_1
  6
CONTINUOUS
 62
       3
100
AcDbLine
 10
31.5538654
 20
-25.46939453
 30
0.0
 11
25.69629363
 21
-29.57164768
 31
0.0
  0
LINE
  5
271
100
AcDbEntity
  8
レイヤー_1
  6
CONTINUOUS
 62
       3
100
AcDbLine
 10
25.69629363
 20
-29.57164768
 30
0.0
 11
26.95936485
 21
-31.37349143
 31
0.0
  0
LINE
  5
272
100
AcDbEntity
  8
レイヤー_1
  6
CONTINUOUS
 62
       3
100
AcDbLine
 10
26.95936485
 20
-31.37349143
 30
0.0
 11
32.81578785
 21
-27.27353583
 31
0.0
  0
LINE
  5
273
100
AcDbEntity
  8
レイヤー_1
  6
CONTINUOUS
 62
       3
100
AcDbLine
 10
32.81578785
 20
-27.27353583
 30
0.0
 11
31.5538654
 21
-25.46939453
 31
0.0
  0
LINE
  5
274
100
AcDbEntity
  8
レイヤー_1
  6
CONTINUOUS
 62
       3
100
AcDbLine
 10
10.38320643
 20
-30.09089114
 30
0.0
 11
11.76000576
 21
-32.05643444
 31
0.0
  0
LINE
  5
275
100
AcDbEntity
  8
レイヤー_1
  6
CONTINUOUS
 62
       3
100
AcDbLine
 10
11.76000576
 20
-32.05643444
 30
0.0
 11
13.64398648
 21
-30.73822232
 31
0.0
  0
LINE
  5
276
100
AcDbEntity
  8
レイヤー_1
  6
CONTINUOUS
 62
       3
100
AcDbLine
 10
13.64398648
 20
-30.73822232
 30
0.0
 11
12.26603838
 21
-28.77210463
 31
0.0
  0
LINE
  5
277
100
AcDbEntity
  8
レイヤー_1
  6
CONTINUOUS
 62
       3
100
AcDbLine
 10
12.26603838
 20
-28.77210463
 30
0.0
 11
10.38320643
 21
-30.09089114
 31
0.0
  0
LINE
  5
278
100
AcDbEntity
  8
レイヤー_1
  6
CONTINUOUS
 62
       3
100
AcDbLine
 10
7.67843045
 20
-31.98406201
 30
0.0
 11
9.05522978
 21
-33.94960531
 31
0.0
  0
LINE
  5
279
100
AcDbEntity
  8
レイヤー_1
  6
CONTINUOUS
 62
       3
100
AcDbLine
 10
9.05522978
 20
-33.94960531
 30
0.0
 11
10.94035926
 21
-32.63139319
 31
0.0
  0
LINE
  5
27A
100
AcDbEntity
  8
レイヤー_1
  6
CONTINUOUS
 62
       3
100
AcDbLine
 10
10.94035926
 20
-32.63139319
 30
0.0
 11
9.56298556
 21
-30.66470112
 31
0.0
  0
LINE
  5
27B
100
AcDbEntity
  8
レイヤー_1
  6
CONTINUOUS
 62
       3
100
AcDbLine
 10
9.56298556
 20
-30.66470112
 30
0.0
 11
7.67843045
 21
-31.98406201
 31
0.0
  0
LINE
  5
27C
100
AcDbEntity
  8
レイヤー_1
  6
CONTINUOUS
 62
       3
100
AcDbLine
 10
11.05408738
 20
-25.46939453
 30
0.0
 11
5.19708999
 21
-29.57164768
 31
0.0
  0
LINE
  5
27D
100
AcDbEntity
  8
レイヤー_1
  6
CONTINUOUS
 62
       3
100
AcDbLine
 10
5.19708999
 20
-29.57164768
 30
0.0
 11
6.45872525
 21
-31.37349143
 31
0.0
  0
LINE
  5
27E
100
AcDbEntity
  8
レイヤー_1
  6
CONTINUOUS
 62
       3
100
AcDbLine
 10
6.45872525
 20
-31.37349143
 30
0.0
 11
12.31543544
 21
-27.27353583
 31
0.0
  0
LINE
  5
27F
100
AcDbEntity
  8
レイヤー_1
  6
CONTINUOUS
 62
       3
100
AcDbLine
 10
12.31543544
 20
-27.27353583
 30
0.0
 11
11.05408738
 21
-25.46939453
 31
0.0
  0
LINE
  5
280
100
AcDbEntity
  8
レイヤー_1
  6
CONTINUOUS
 62
       3
100
AcDbLine
 10
-10.11599721
 20
-30.09089114
 30
0.0
 11
-8.74034665
 21
-32.05643444
 31
0.0
  0
LINE
  5
281
100
AcDbEntity
  8
レイヤー_1
  6
CONTINUOUS
 62
       3
100
AcDbLine
 10
-8.74034665
 20
-32.05643444
 30
0.0
 11
-6.85579155
 21
-30.73822232
 31
0.0
  0
LINE
  5
282
100
AcDbEntity
  8
レイヤー_1
  6
CONTINUOUS
 62
       3
100
AcDbLine
 10
-6.85579155
 20
-30.73822232
 30
0.0
 11
-8.23316525
 21
-28.77210463
 31
0.0
  0
LINE
  5
283
100
AcDbEntity
  8
レイヤー_1
  6
CONTINUOUS
 62
       3
100
AcDbLine
 10
-8.23316525
 20
-28.77210463
 30
0.0
 11
-10.11599721
 21
-30.09089114
 31
0.0
  0
LINE
  5
284
100
AcDbEntity
  8
レイヤー_1
  6
CONTINUOUS
 62
       3
100
AcDbLine
 10
-12.81962442
 20
-31.98406201
 30
0.0
 11
-11.44339948
 21
-33.94960531
 31
0.0
  0
LINE
  5
285
100
AcDbEntity
  8
レイヤー_1
  6
CONTINUOUS
 62
       3
100
AcDbLine
 10
-11.44339948
 20
-33.94960531
 30
0.0
 11
-9.55941876
 21
-32.63139319
 31
0.0
  0
LINE
  5
286
100
AcDbEntity
  8
レイヤー_1
  6
CONTINUOUS
 62
       3
100
AcDbLine
 10
-9.55941876
 20
-32.63139319
 30
0.0
 11
-10.93707966
 21
-30.66470112
 31
0.0
  0
LINE
  5
287
100
AcDbEntity
  8
レイヤー_1
  6
CONTINUOUS
 62
       3
100
AcDbLine
 10
-10.93707966
 20
-30.66470112
 30
0.0
 11
-12.81962442
 21
-31.98406201
 31
0.0
  0
LINE
  5
288
100
AcDbEntity
  8
レイヤー_1
  6
CONTINUOUS
 62
       3
100
AcDbLine
 10
-9.44482908
 20
-25.46939453
 30
0.0
 11
-15.30182646
 21
-29.57164768
 31
0.0
  0
LINE
  5
289
100
AcDbEntity
  8
レイヤー_1
  6
CONTINUOUS
 62
       3
100
AcDbLine
 10
-15.30182646
 20
-29.57164768
 30
0.0
 11
-14.04133996
 21
-31.37349143
 31
0.0
  0
LINE
  5
28A
100
AcDbEntity
  8
レイヤー_1
  6
CONTINUOUS
 62
       3
100
AcDbLine
 10
-14.04133996
 20
-31.37349143
 30
0.0
 11
-8.18261943
 21
-27.27353583
 31
0.0
  0
LINE
  5
28B
100
AcDbEntity
  8
レイヤー_1
  6
CONTINUOUS
 62
       3
100
AcDbLine
 10
-8.18261943
 20
-27.27353583
 30
0.0
 11
-9.44482908
 21
-25.46939453
 31
0.0
  0
LINE
  5
28C
100
AcDbEntity
  8
レイヤー_1
  6
CONTINUOUS
 62
       3
100
AcDbLine
 10
45.87728833
 20
-46.77503382
 30
0.0
 11
47.25179012
 21
-48.74172589
 31
0.0
  0
LINE
  5
28D
100
AcDbEntity
  8
レイヤー_1
  6
CONTINUOUS
 62
       3
100
AcDbLine
 10
47.25179012
 20
-48.74172589
 30
0.0
 11
49.13691961
 21
-47.42121624
 31
0.0
  0
LINE
  5
28E
100
AcDbEntity
  8
レイヤー_1
  6
CONTINUOUS
 62
       3
100
AcDbLine
 10
49.13691961
 20
-47.42121624
 30
0.0
 11
47.76069467
 21
-45.45682171
 31
0.0
  0
LINE
  5
28F
100
AcDbEntity
  8
レイヤー_1
  6
CONTINUOUS
 62
       3
100
AcDbLine
 10
47.76069467
 20
-45.45682171
 30
0.0
 11
45.87728833
 21
-46.77503382
 31
0.0
  0
LINE
  5
290
100
AcDbEntity
  8
レイヤー_1
  6
CONTINUOUS
 62
       3
100
AcDbLine
 10
43.17193797
 20
-48.66705593
 30
0.0
 11
44.5487373
 21
-50.63317361
 31
0.0
  0
LINE
  5
291
100
AcDbEntity
  8
レイヤー_1
  6
CONTINUOUS
 62
       3
100
AcDbLine
 10
44.5487373
 20
-50.63317361
 30
0.0
 11
46.43386679
 21
-49.3143871
 31
0.0
  0
LINE
  5
292
100
AcDbEntity
  8
レイヤー_1
  6
CONTINUOUS
 62
       3
100
AcDbLine
 10
46.43386679
 20
-49.3143871
 30
0.0
 11
45.05476992
 21
-47.34826942
 31
0.0
  0
LINE
  5
293
100
AcDbEntity
  8
レイヤー_1
  6
CONTINUOUS
 62
       3
100
AcDbLine
 10
45.05476992
 20
-47.34826942
 30
0.0
 11
43.17193797
 21
-48.66705593
 31
0.0
  0
LINE
  5
294
100
AcDbEntity
  8
レイヤー_1
  6
CONTINUOUS
 62
       3
100
AcDbLine
 10
25.36200193
 20
-46.77503382
 30
0.0
 11
26.73822687
 21
-48.74172589
 31
0.0
  0
LINE
  5
295
100
AcDbEntity
  8
レイヤー_1
  6
CONTINUOUS
 62
       3
100
AcDbLine
 10
26.73822687
 20
-48.74172589
 30
0.0
 11
28.62278198
 21
-47.42121624
 31
0.0
  0
LINE
  5
296
100
AcDbEntity
  8
レイヤー_1
  6
CONTINUOUS
 62
       3
100
AcDbLine
 10
28.62278198
 20
-47.42121624
 30
0.0
 11
27.24713142
 21
-45.45682171
 31
0.0
  0
LINE
  5
297
100
AcDbEntity
  8
レイヤー_1
  6
CONTINUOUS
 62
       3
100
AcDbLine
 10
27.24713142
 20
-45.45682171
 30
0.0
 11
25.36200193
 21
-46.77503382
 31
0.0
  0
LINE
  5
298
100
AcDbEntity
  8
レイヤー_1
  6
CONTINUOUS
 62
       3
100
AcDbLine
 10
22.65837472
 20
-48.66705593
 30
0.0
 11
24.03402528
 21
-50.63317361
 31
0.0
  0
LINE
  5
299
100
AcDbEntity
  8
レイヤー_1
  6
CONTINUOUS
 62
       3
100
AcDbLine
 10
24.03402528
 20
-50.63317361
 30
0.0
 11
25.91972915
 21
-49.3143871
 31
0.0
  0
LINE
  5
29A
100
AcDbEntity
  8
レイヤー_1
  6
CONTINUOUS
 62
       3
100
AcDbLine
 10
25.91972915
 20
-49.3143871
 30
0.0
 11
24.54235544
 21
-47.34826942
 31
0.0
  0
LINE
  5
29B
100
AcDbEntity
  8
レイヤー_1
  6
CONTINUOUS
 62
       3
100
AcDbLine
 10
24.54235544
 20
-47.34826942
 30
0.0
 11
22.65837472
 21
-48.66705593
 31
0.0
  0
LINE
  5
29C
100
AcDbEntity
  8
レイヤー_1
  6
CONTINUOUS
 62
       3
100
AcDbLine
 10
4.86164952
 20
-46.77503382
 30
0.0
 11
6.23816166
 21
-48.74172589
 31
0.0
  0
LINE
  5
29D
100
AcDbEntity
  8
レイヤー_1
  6
CONTINUOUS
 62
       3
100
AcDbLine
 10
6.23816166
 20
-48.74172589
 30
0.0
 11
8.12242956
 21
-47.42121624
 31
0.0
  0
LINE
  5
29E
100
AcDbEntity
  8
レイヤー_1
  6
CONTINUOUS
 62
       3
100
AcDbLine
 10
8.12242956
 20
-47.42121624
 30
0.0
 11
6.74505586
 21
-45.45682171
 31
0.0
  0
LINE
  5
29F
100
AcDbEntity
  8
レイヤー_1
  6
CONTINUOUS
 62
       3
100
AcDbLine
 10
6.74505586
 20
-45.45682171
 30
0.0
 11
4.86164952
 21
-46.77503382
 31
0.0
  0
LINE
  5
2A0
100
AcDbEntity
  8
レイヤー_1
  6
CONTINUOUS
 62
       3
100
AcDbLine
 10
2.15802231
 20
-48.66705593
 30
0.0
 11
3.53424725
 21
-50.63317361
 31
0.0
  0
LINE
  5
2A1
100
AcDbEntity
  8
レイヤー_1
  6
CONTINUOUS
 62
       3
100
AcDbLine
 10
3.53424725
 20
-50.63317361
 30
0.0
 11
5.41937674
 21
-49.3143871
 31
0.0
  0
LINE
  5
2A2
100
AcDbEntity
  8
レイヤー_1
  6
CONTINUOUS
 62
       3
100
AcDbLine
 10
5.41937674
 20
-49.3143871
 30
0.0
 11
4.04257742
 21
-47.34826942
 31
0.0
  0
LINE
  5
2A3
100
AcDbEntity
  8
レイヤー_1
  6
CONTINUOUS
 62
       3
100
AcDbLine
 10
4.04257742
 20
-47.34826942
 30
0.0
 11
2.15802231
 21
-48.66705593
 31
0.0
  0
LINE
  5
2A4
100
AcDbEntity
  8
レイヤー_1
  6
CONTINUOUS
 62
       3
100
AcDbLine
 10
-15.63697974
 20
-46.77503382
 30
0.0
 11
-14.2607548
 21
-48.74172589
 31
0.0
  0
LINE
  5
2A5
100
AcDbEntity
  8
レイヤー_1
  6
CONTINUOUS
 62
       3
100
AcDbLine
 10
-14.2607548
 20
-48.74172589
 30
0.0
 11
-12.37677407
 21
-47.42121624
 31
0.0
  0
LINE
  5
2A6
100
AcDbEntity
  8
レイヤー_1
  6
CONTINUOUS
 62
       3
100
AcDbLine
 10
-12.37677407
 20
-47.42121624
 30
0.0
 11
-13.7538606
 21
-45.45682171
 31
0.0
  0
LINE
  5
2A7
100
AcDbEntity
  8
レイヤー_1
  6
CONTINUOUS
 62
       3
100
AcDbLine
 10
-13.7538606
 20
-45.45682171
 30
0.0
 11
-15.63697974
 21
-46.77503382
 31
0.0
  0
LINE
  5
2A8
100
AcDbEntity
  8
レイヤー_1
  6
CONTINUOUS
 62
       3
100
AcDbLine
 10
-18.34089414
 20
-48.66705593
 30
0.0
 11
-16.96524358
 21
-50.63317361
 31
0.0
  0
LINE
  5
2A9
100
AcDbEntity
  8
レイヤー_1
  6
CONTINUOUS
 62
       3
100
AcDbLine
 10
-16.96524358
 20
-50.63317361
 30
0.0
 11
-15.08068848
 21
-49.3143871
 31
0.0
  0
LINE
  5
2AA
100
AcDbEntity
  8
レイヤー_1
  6
CONTINUOUS
 62
       3
100
AcDbLine
 10
-15.08068848
 20
-49.3143871
 30
0.0
 11
-16.45748781
 21
-47.34826942
 31
0.0
  0
LINE
  5
2AB
100
AcDbEntity
  8
レイヤー_1
  6
CONTINUOUS
 62
       3
100
AcDbLine
 10
-16.45748781
 20
-47.34826942
 30
0.0
 11
-18.34089414
 21
-48.66705593
 31
0.0
  0
LINE
  5
2AC
100
AcDbEntity
  8
レイヤー_1
  6
CONTINUOUS
 62
       3
100
AcDbLine
 10
62.25298661
 20
-39.25232178
 30
0.0
 11
59.04217801
 21
-34.66471385
 31
0.0
  0
LINE
  5
2AD
100
AcDbEntity
  8
レイヤー_1
  6
CONTINUOUS
 62
       3
100
AcDbLine
 10
59.04217801
 20
-34.66471385
 30
0.0
 11
57.07606032
 21
-36.04151318
 31
0.0
  0
LINE
  5
2AE
100
AcDbEntity
  8
レイヤー_1
  6
CONTINUOUS
 62
       3
100
AcDbLine
 10
57.07606032
 20
-36.04151318
 30
0.0
 11
60.2880177
 21
-40.62854673
 31
0.0
  0
LINE
  5
2AF
100
AcDbEntity
  8
レイヤー_1
  6
CONTINUOUS
 62
       3
100
AcDbLine
 10
60.2880177
 20
-40.62854673
 30
0.0
 11
62.25298661
 21
-39.25232178
 31
0.0
  0
LINE
  5
2B0
100
AcDbEntity
  8
レイヤー_1
  6
CONTINUOUS
 62
       3
100
AcDbLine
 10
-22.14331864
 20
-30.99841844
 30
0.0
 11
-22.11402504
 21
-30.82323121
 31
0.0
  0
LINE
  5
2B1
100
AcDbEntity
  8
レイヤー_1
  6
CONTINUOUS
 62
       3
100
AcDbLine
 10
-22.11402504
 20
-30.82323121
 30
0.0
 11
-22.122928
 21
-30.6474696
 31
0.0
  0
LINE
  5
2B2
100
AcDbEntity
  8
レイヤー_1
  6
CONTINUOUS
 62
       3
100
AcDbLine
 10
-22.122928
 20
-30.6474696
 30
0.0
 11
-22.1668684
 21
-30.47630305
 31
0.0
  0
LINE
  5
2B3
100
AcDbEntity
  8
レイヤー_1
  6
CONTINUOUS
 62
       3
100
AcDbLine
 10
-22.1668684
 20
-30.47630305
 30
0.0
 11
-22.24527187
 21
-30.31834735
 31
0.0
  0
LINE
  5
2B4
100
AcDbEntity
  8
レイヤー_1
  6
CONTINUOUS
 62
       3
100
AcDbLine
 10
-22.24527187
 20
-30.31834735
 30
0.0
 11
-22.35584086
 21
-30.17992072
 31
0.0
  0
LINE
  5
2B5
100
AcDbEntity
  8
レイヤー_1
  6
CONTINUOUS
 62
       3
100
AcDbLine
 10
-22.35584086
 20
-30.17992072
 30
0.0
 11
-22.49168276
 21
-30.066767
 31
0.0
  0
LINE
  5
2B6
100
AcDbEntity
  8
レイヤー_1
  6
CONTINUOUS
 62
       3
100
AcDbLine
 10
-22.49168276
 20
-30.066767
 30
0.0
 11
-22.64877688
 21
-29.98463003
 31
0.0
  0
LINE
  5
2B7
100
AcDbEntity
  8
レイヤー_1
  6
CONTINUOUS
 62
       3
100
AcDbLine
 10
-22.64877688
 20
-29.98463003
 30
0.0
 11
-22.81793308
 21
-29.93580736
 31
0.0
  0
LINE
  5
2B8
100
AcDbEntity
  8
レイヤー_1
  6
CONTINUOUS
 62
       3
100
AcDbLine
 10
-22.81793308
 20
-29.93580736
 30
0.0
 11
-21.74469589
 21
-28.82322484
 31
0.0
  0
LINE
  5
2B9
100
AcDbEntity
  8
レイヤー_1
  6
CONTINUOUS
 62
       3
100
AcDbLine
 10
-21.74469589
 20
-28.82322484
 30
0.0
 11
-21.53360964
 21
-28.97256478
 31
0.0
  0
LINE
  5
2BA
100
AcDbEntity
  8
レイヤー_1
  6
CONTINUOUS
 62
       3
100
AcDbLine
 10
-21.53360964
 20
-28.97256478
 30
0.0
 11
-21.34061649
 21
-29.14258255
 31
0.0
  0
LINE
  5
2BB
100
AcDbEntity
  8
レイヤー_1
  6
CONTINUOUS
 62
       3
100
AcDbLine
 10
-21.34061649
 20
-29.14258255
 30
0.0
 11
-21.16830118
 21
-29.33615009
 31
0.0
  0
LINE
  5
2BC
100
AcDbEntity
  8
レイヤー_1
  6
CONTINUOUS
 62
       3
100
AcDbLine
 10
-21.16830118
 20
-29.33615009
 30
0.0
 11
-21.01838687
 21
-29.54580038
 31
0.0
  0
LINE
  5
2BD
100
AcDbEntity
  8
レイヤー_1
  6
CONTINUOUS
 62
       3
100
AcDbLine
 10
-21.01838687
 20
-29.54580038
 30
0.0
 11
-20.89345826
 21
-29.77095905
 31
0.0
  0
LINE
  5
2BE
100
AcDbEntity
  8
レイヤー_1
  6
CONTINUOUS
 62
       3
100
AcDbLine
 10
-20.89345826
 20
-29.77095905
 30
0.0
 11
-20.79466415
 21
-30.00990295
 31
0.0
  0
LINE
  5
2BF
100
AcDbEntity
  8
レイヤー_1
  6
CONTINUOUS
 62
       3
100
AcDbLine
 10
-20.79466415
 20
-30.00990295
 30
0.0
 11
-20.72171733
 21
-30.25688822
 31
0.0
  0
LINE
  5
2C0
100
AcDbEntity
  8
レイヤー_1
  6
CONTINUOUS
 62
       3
100
AcDbLine
 10
-20.72171733
 20
-30.25688822
 30
0.0
 11
-20.67777693
 21
-30.51191488
 31
0.0
  0
LINE
  5
2C1
100
AcDbEntity
  8
レイヤー_1
  6
CONTINUOUS
 62
       3
100
AcDbLine
 10
-20.67777693
 20
-30.51191488
 30
0.0
 11
-22.14331864
 21
-30.99841844
 31
0.0
  0
LINE
  5
2C2
100
AcDbEntity
  8
レイヤー_1
  6
CONTINUOUS
 62
       3
100
AcDbLine
 10
-23.79984315
 20
-30.6250686
 30
0.0
 11
-23.81161803
 21
-30.80025584
 31
0.0
  0
LINE
  5
2C3
100
AcDbEntity
  8
レイヤー_1
  6
CONTINUOUS
 62
       3
100
AcDbLine
 10
-23.81161803
 20
-30.80025584
 30
0.0
 11
-23.78663231
 21
-30.97601745
 31
0.0
  0
LINE
  5
2C4
100
AcDbEntity
  8
レイヤー_1
  6
CONTINUOUS
 62
       3
100
AcDbLine
 10
-23.78663231
 20
-30.97601745
 30
0.0
 11
-23.72632196
 21
-31.14201453
 31
0.0
  0
LINE
  5
2C5
100
AcDbEntity
  8
レイヤー_1
  6
CONTINUOUS
 62
       3
100
AcDbLine
 10
-23.72632196
 20
-31.14201453
 30
0.0
 11
-23.63327169
 21
-31.29192885
 31
0.0
  0
LINE
  5
2C6
100
AcDbEntity
  8
レイヤー_1
  6
CONTINUOUS
 62
       3
100
AcDbLine
 10
-23.63327169
 20
-31.29192885
 30
0.0
 11
-23.51035344
 21
-31.42001656
 31
0.0
  0
LINE
  5
2C7
100
AcDbEntity
  8
レイヤー_1
  6
CONTINUOUS
 62
       3
100
AcDbLine
 10
-23.51035344
 20
-31.42001656
 30
0.0
 11
-23.36445981
 21
-31.51823629
 31
0.0
  0
LINE
  5
2C8
100
AcDbEntity
  8
レイヤー_1
  6
CONTINUOUS
 62
       3
100
AcDbLine
 10
-23.36445981
 20
-31.51823629
 30
0.0
 11
-23.20162183
 21
-31.58658803
 31
0.0
  0
LINE
  5
2C9
100
AcDbEntity
  8
レイヤー_1
  6
CONTINUOUS
 62
       3
100
AcDbLine
 10
-23.20162183
 20
-31.58658803
 30
0.0
 11
-23.02873215
 21
-31.61817917
 31
0.0
  0
LINE
  5
2CA
100
AcDbEntity
  8
レイヤー_1
  6
CONTINUOUS
 62
       3
100
AcDbLine
 10
-23.02873215
 20
-31.61817917
 30
0.0
 11
-23.99082595
 21
-32.82725826
 31
0.0
  0
LINE
  5
2CB
100
AcDbEntity
  8
レイヤー_1
  6
CONTINUOUS
 62
       3
100
AcDbLine
 10
-23.99082595
 20
-32.82725826
 30
0.0
 11
-24.21483586
 21
-32.69859616
 31
0.0
  0
LINE
  5
2CC
100
AcDbEntity
  8
レイヤー_1
  6
CONTINUOUS
 62
       3
100
AcDbLine
 10
-24.21483586
 20
-32.69859616
 30
0.0
 11
-24.42305019
 21
-32.54638431
 31
0.0
  0
LINE
  5
2CD
100
AcDbEntity
  8
レイヤー_1
  6
CONTINUOUS
 62
       3
100
AcDbLine
 10
-24.42305019
 20
-32.54638431
 30
0.0
 11
-24.61317141
 21
-32.37177146
 31
0.0
  0
LINE
  5
2CE
100
AcDbEntity
  8
レイヤー_1
  6
CONTINUOUS
 62
       3
100
AcDbLine
 10
-24.61317141
 20
-32.37177146
 30
0.0
 11
-24.78146604
 21
-32.17590639
 31
0.0
  0
LINE
  5
2CF
100
AcDbEntity
  8
レイヤー_1
  6
CONTINUOUS
 62
       3
100
AcDbLine
 10
-24.78146604
 20
-32.17590639
 30
0.0
 11
-24.92793405
 21
-31.96395856
 31
0.0
  0
LINE
  5
2D0
100
AcDbEntity
  8
レイヤー_1
  6
CONTINUOUS
 62
       3
100
AcDbLine
 10
-24.92793405
 20
-31.96395856
 30
0.0
 11
-25.04884196
 21
-31.73535358
 31
0.0
  0
LINE
  5
2D1
100
AcDbEntity
  8
レイヤー_1
  6
CONTINUOUS
 62
       3
100
AcDbLine
 10
-25.04884196
 20
-31.73535358
 30
0.0
 11
-25.14476415
 21
-31.49640968
 31
0.0
  0
LINE
  5
2D2
100
AcDbEntity
  8
レイヤー_1
  6
CONTINUOUS
 62
       3
100
AcDbLine
 10
-25.14476415
 20
-31.49640968
 30
0.0
 11
-25.21196712
 21
-31.24655248
 31
0.0
  0
LINE
  5
2D3
100
AcDbEntity
  8
レイヤー_1
  6
CONTINUOUS
 62
       3
100
AcDbLine
 10
-25.21196712
 20
-31.24655248
 30
0.0
 11
-23.79984315
 21
-30.6250686
 31
0.0
  0
LINE
  5
2D4
100
AcDbEntity
  8
レイヤー_1
  6
CONTINUOUS
 62
       3
100
AcDbLine
 10
60.107661
 20
-40.02199683
 30
0.0
 11
61.7463796
 21
-38.87495125
 31
0.0
  0
LINE
  5
2D5
100
AcDbEntity
  8
レイヤー_1
  6
CONTINUOUS
 62
       3
100
AcDbLine
 10
61.7463796
 20
-38.87495125
 30
0.0
 11
60.85953014
 21
-37.60843372
 31
0.0
  0
LINE
  5
2D6
100
AcDbEntity
  8
レイヤー_1
  6
CONTINUOUS
 62
       3
100
AcDbLine
 10
60.85953014
 20
-37.60843372
 30
0.0
 11
59.22023716
 21
-38.75433053
 31
0.0
  0
LINE
  5
2D7
100
AcDbEntity
  8
レイヤー_1
  6
CONTINUOUS
 62
       3
100
AcDbLine
 10
59.22023716
 20
-38.75433053
 30
0.0
 11
60.107661
 21
-40.02199683
 31
0.0
  0
LINE
  5
2D8
100
AcDbEntity
  8
レイヤー_1
  6
CONTINUOUS
 62
       3
100
AcDbLine
 10
58.50110794
 20
-37.72962882
 30
0.0
 11
60.14040091
 21
-36.58258325
 31
0.0
  0
LINE
  5
2D9
100
AcDbEntity
  8
レイヤー_1
  6
CONTINUOUS
 62
       3
100
AcDbLine
 10
60.14040091
 20
-36.58258325
 30
0.0
 11
59.25355145
 21
-35.31434257
 31
0.0
  0
LINE
  5
2DA
100
AcDbEntity
  8
レイヤー_1
  6
CONTINUOUS
 62
       3
100
AcDbLine
 10
59.25355145
 20
-35.31434257
 30
0.0
 11
57.61425847
 21
-36.46253691
 31
0.0
  0
LINE
  5
2DB
100
AcDbEntity
  8
レイヤー_1
  6
CONTINUOUS
 62
       3
100
AcDbLine
 10
57.61425847
 20
-36.46253691
 30
0.0
 11
58.50110794
 21
-37.72962882
 31
0.0
  0
LINE
  5
2DC
100
AcDbEntity
  8
レイヤー_1
  6
CONTINUOUS
 62
       3
100
AcDbLine
 10
51.38391126
 20
29.05030792
 30
0.0
 11
52.76013619
 21
31.01699999
 31
0.0
  0
LINE
  5
2DD
100
AcDbEntity
  8
レイヤー_1
  6
CONTINUOUS
 62
       3
100
AcDbLine
 10
52.76013619
 20
31.01699999
 30
0.0
 11
54.64354253
 21
29.69649033
 31
0.0
  0
LINE
  5
2DE
100
AcDbEntity
  8
レイヤー_1
  6
CONTINUOUS
 62
       3
100
AcDbLine
 10
54.64354253
 20
29.69649033
 30
0.0
 11
53.26674321
 21
27.73152142
 31
0.0
  0
LINE
  5
2DF
100
AcDbEntity
  8
レイヤー_1
  6
CONTINUOUS
 62
       3
100
AcDbLine
 10
53.26674321
 20
27.73152142
 30
0.0
 11
51.38391126
 21
29.05030792
 31
0.0
  0
LINE
  5
2E0
100
AcDbEntity
  8
レイヤー_1
  6
CONTINUOUS
 62
       3
100
AcDbLine
 10
48.67913527
 20
30.94347879
 30
0.0
 11
50.05536021
 21
32.90930928
 31
0.0
  0
LINE
  5
2E1
100
AcDbEntity
  8
レイヤー_1
  6
CONTINUOUS
 62
       3
100
AcDbLine
 10
50.05536021
 20
32.90930928
 30
0.0
 11
51.93991532
 21
31.59052278
 31
0.0
  0
LINE
  5
2E2
100
AcDbEntity
  8
レイヤー_1
  6
CONTINUOUS
 62
       3
100
AcDbLine
 10
51.93991532
 20
31.59052278
 30
0.0
 11
50.56254161
 21
29.62354352
 31
0.0
  0
LINE
  5
2E3
100
AcDbEntity
  8
レイヤー_1
  6
CONTINUOUS
 62
       3
100
AcDbLine
 10
50.56254161
 20
29.62354352
 30
0.0
 11
48.67913527
 21
30.94347879
 31
0.0
  0
LINE
  5
2E4
100
AcDbEntity
  8
レイヤー_1
  6
CONTINUOUS
 62
       3
100
AcDbLine
 10
52.05479219
 20
24.43024727
 30
0.0
 11
46.19894358
 21
28.53077726
 31
0.0
  0
LINE
  5
2E5
100
AcDbEntity
  8
レイヤー_1
  6
CONTINUOUS
 62
       3
100
AcDbLine
 10
46.19894358
 20
28.53077726
 30
0.0
 11
47.45799411
 21
30.33233382
 31
0.0
  0
LINE
  5
2E6
100
AcDbEntity
  8
レイヤー_1
  6
CONTINUOUS
 62
       3
100
AcDbLine
 10
47.45799411
 20
30.33233382
 30
0.0
 11
53.31614026
 21
26.23237822
 31
0.0
  0
LINE
  5
2E7
100
AcDbEntity
  8
レイヤー_1
  6
CONTINUOUS
 62
       3
100
AcDbLine
 10
53.31614026
 20
26.23237822
 30
0.0
 11
52.05479219
 21
24.43024727
 31
0.0
  0
LINE
  5
2E8
100
AcDbEntity
  8
レイヤー_1
  6
CONTINUOUS
 62
       3
100
AcDbLine
 10
30.88298446
 20
29.05030792
 30
0.0
 11
32.2592094
 21
31.01699999
 31
0.0
  0
LINE
  5
2E9
100
AcDbEntity
  8
レイヤー_1
  6
CONTINUOUS
 62
       3
100
AcDbLine
 10
32.2592094
 20
31.01699999
 30
0.0
 11
34.14376451
 21
29.69649033
 31
0.0
  0
LINE
  5
2EA
100
AcDbEntity
  8
レイヤー_1
  6
CONTINUOUS
 62
       3
100
AcDbLine
 10
34.14376451
 20
29.69649033
 30
0.0
 11
32.76696518
 21
27.73152142
 31
0.0
  0
LINE
  5
2EB
100
AcDbEntity
  8
レイヤー_1
  6
CONTINUOUS
 62
       3
100
AcDbLine
 10
32.76696518
 20
27.73152142
 30
0.0
 11
30.88298446
 21
29.05030792
 31
0.0
  0
LINE
  5
2EC
100
AcDbEntity
  8
レイヤー_1
  6
CONTINUOUS
 62
       3
100
AcDbLine
 10
28.17993163
 20
30.94347879
 30
0.0
 11
29.55615657
 21
32.90930928
 31
0.0
  0
LINE
  5
2ED
100
AcDbEntity
  8
レイヤー_1
  6
CONTINUOUS
 62
       3
100
AcDbLine
 10
29.55615657
 20
32.90930928
 30
0.0
 11
31.44071168
 21
31.59052278
 31
0.0
  0
LINE
  5
2EE
100
AcDbEntity
  8
レイヤー_1
  6
CONTINUOUS
 62
       3
100
AcDbLine
 10
31.44071168
 20
31.59052278
 30
0.0
 11
30.06391235
 21
29.62354352
 31
0.0
  0
LINE
  5
2EF
100
AcDbEntity
  8
レイヤー_1
  6
CONTINUOUS
 62
       3
100
AcDbLine
 10
30.06391235
 20
29.62354352
 30
0.0
 11
28.17993163
 21
30.94347879
 31
0.0
  0
LINE
  5
2F0
100
AcDbEntity
  8
レイヤー_1
  6
CONTINUOUS
 62
       3
100
AcDbLine
 10
31.5538654
 20
24.43024727
 30
0.0
 11
25.69629363
 21
28.53077726
 31
0.0
  0
LINE
  5
2F1
100
AcDbEntity
  8
レイヤー_1
  6
CONTINUOUS
 62
       3
100
AcDbLine
 10
25.69629363
 20
28.53077726
 30
0.0
 11
26.95936485
 21
30.33233382
 31
0.0
  0
LINE
  5
2F2
100
AcDbEntity
  8
レイヤー_1
  6
CONTINUOUS
 62
       3
100
AcDbLine
 10
26.95936485
 20
30.33233382
 30
0.0
 11
32.81578785
 21
26.23237822
 31
0.0
  0
LINE
  5
2F3
100
AcDbEntity
  8
レイヤー_1
  6
CONTINUOUS
 62
       3
100
AcDbLine
 10
32.81578785
 20
26.23237822
 30
0.0
 11
31.5538654
 21
24.43024727
 31
0.0
  0
LINE
  5
2F4
100
AcDbEntity
  8
レイヤー_1
  6
CONTINUOUS
 62
       3
100
AcDbLine
 10
10.38320643
 20
29.05030792
 30
0.0
 11
11.76000576
 21
31.01699999
 31
0.0
  0
LINE
  5
2F5
100
AcDbEntity
  8
レイヤー_1
  6
CONTINUOUS
 62
       3
100
AcDbLine
 10
11.76000576
 20
31.01699999
 30
0.0
 11
13.64398648
 21
29.69649033
 31
0.0
  0
LINE
  5
2F6
100
AcDbEntity
  8
レイヤー_1
  6
CONTINUOUS
 62
       3
100
AcDbLine
 10
13.64398648
 20
29.69649033
 30
0.0
 11
12.26603838
 21
27.73152142
 31
0.0
  0
LINE
  5
2F7
100
AcDbEntity
  8
レイヤー_1
  6
CONTINUOUS
 62
       3
100
AcDbLine
 10
12.26603838
 20
27.73152142
 30
0.0
 11
10.38320643
 21
29.05030792
 31
0.0
  0
LINE
  5
2F8
100
AcDbEntity
  8
レイヤー_1
  6
CONTINUOUS
 62
       3
100
AcDbLine
 10
7.67843045
 20
30.94347879
 30
0.0
 11
9.05522978
 21
32.90930928
 31
0.0
  0
LINE
  5
2F9
100
AcDbEntity
  8
レイヤー_1
  6
CONTINUOUS
 62
       3
100
AcDbLine
 10
9.05522978
 20
32.90930928
 30
0.0
 11
10.94035926
 21
31.59052278
 31
0.0
  0
LINE
  5
2FA
100
AcDbEntity
  8
レイヤー_1
  6
CONTINUOUS
 62
       3
100
AcDbLine
 10
10.94035926
 20
31.59052278
 30
0.0
 11
9.56298556
 21
29.62354352
 31
0.0
  0
LINE
  5
2FB
100
AcDbEntity
  8
レイヤー_1
  6
CONTINUOUS
 62
       3
100
AcDbLine
 10
9.56298556
 20
29.62354352
 30
0.0
 11
7.67843045
 21
30.94347879
 31
0.0
  0
LINE
  5
2FC
100
AcDbEntity
  8
レイヤー_1
  6
CONTINUOUS
 62
       3
100
AcDbLine
 10
11.05408738
 20
24.43024727
 30
0.0
 11
5.19708999
 21
28.53077726
 31
0.0
  0
LINE
  5
2FD
100
AcDbEntity
  8
レイヤー_1
  6
CONTINUOUS
 62
       3
100
AcDbLine
 10
5.19708999
 20
28.53077726
 30
0.0
 11
6.45872525
 21
30.33233382
 31
0.0
  0
LINE
  5
2FE
100
AcDbEntity
  8
レイヤー_1
  6
CONTINUOUS
 62
       3
100
AcDbLine
 10
6.45872525
 20
30.33233382
 30
0.0
 11
12.31543544
 21
26.23237822
 31
0.0
  0
LINE
  5
2FF
100
AcDbEntity
  8
レイヤー_1
  6
CONTINUOUS
 62
       3
100
AcDbLine
 10
12.31543544
 20
26.23237822
 30
0.0
 11
11.05408738
 21
24.43024727
 31
0.0
  0
LINE
  5
300
100
AcDbEntity
  8
レイヤー_1
  6
CONTINUOUS
 62
       3
100
AcDbLine
 10
-10.11599721
 20
29.05030792
 30
0.0
 11
-8.74034665
 21
31.01699999
 31
0.0
  0
LINE
  5
301
100
AcDbEntity
  8
レイヤー_1
  6
CONTINUOUS
 62
       3
100
AcDbLine
 10
-8.74034665
 20
31.01699999
 30
0.0
 11
-6.85579155
 21
29.69649033
 31
0.0
  0
LINE
  5
302
100
AcDbEntity
  8
レイヤー_1
  6
CONTINUOUS
 62
       3
100
AcDbLine
 10
-6.85579155
 20
29.69649033
 30
0.0
 11
-8.23316525
 21
27.73152142
 31
0.0
  0
LINE
  5
303
100
AcDbEntity
  8
レイヤー_1
  6
CONTINUOUS
 62
       3
100
AcDbLine
 10
-8.23316525
 20
27.73152142
 30
0.0
 11
-10.11599721
 21
29.05030792
 31
0.0
  0
LINE
  5
304
100
AcDbEntity
  8
レイヤー_1
  6
CONTINUOUS
 62
       3
100
AcDbLine
 10
-12.81962442
 20
30.94347879
 30
0.0
 11
-11.44339948
 21
32.90930928
 31
0.0
  0
LINE
  5
305
100
AcDbEntity
  8
レイヤー_1
  6
CONTINUOUS
 62
       3
100
AcDbLine
 10
-11.44339948
 20
32.90930928
 30
0.0
 11
-9.55941876
 21
31.59052278
 31
0.0
  0
LINE
  5
306
100
AcDbEntity
  8
レイヤー_1
  6
CONTINUOUS
 62
       3
100
AcDbLine
 10
-9.55941876
 20
31.59052278
 30
0.0
 11
-10.93707966
 21
29.62354352
 31
0.0
  0
LINE
  5
307
100
AcDbEntity
  8
レイヤー_1
  6
CONTINUOUS
 62
       3
100
AcDbLine
 10
-10.93707966
 20
29.62354352
 30
0.0
 11
-12.81962442
 21
30.94347879
 31
0.0
  0
LINE
  5
308
100
AcDbEntity
  8
レイヤー_1
  6
CONTINUOUS
 62
       3
100
AcDbLine
 10
-9.44482908
 20
24.43024727
 30
0.0
 11
-15.30182646
 21
28.53077726
 31
0.0
  0
LINE
  5
309
100
AcDbEntity
  8
レイヤー_1
  6
CONTINUOUS
 62
       3
100
AcDbLine
 10
-15.30182646
 20
28.53077726
 30
0.0
 11
-14.04133996
 21
30.33233382
 31
0.0
  0
LINE
  5
30A
100
AcDbEntity
  8
レイヤー_1
  6
CONTINUOUS
 62
       3
100
AcDbLine
 10
-14.04133996
 20
30.33233382
 30
0.0
 11
-8.18261943
 21
26.23237822
 31
0.0
  0
LINE
  5
30B
100
AcDbEntity
  8
レイヤー_1
  6
CONTINUOUS
 62
       3
100
AcDbLine
 10
-8.18261943
 20
26.23237822
 30
0.0
 11
-9.44482908
 21
24.43024727
 31
0.0
  0
LINE
  5
30C
100
AcDbEntity
  8
レイヤー_1
  6
CONTINUOUS
 62
       3
100
AcDbLine
 10
45.87728833
 20
45.7347378
 30
0.0
 11
47.25179012
 21
47.70114267
 31
0.0
  0
LINE
  5
30D
100
AcDbEntity
  8
レイヤー_1
  6
CONTINUOUS
 62
       3
100
AcDbLine
 10
47.25179012
 20
47.70114267
 30
0.0
 11
49.13691961
 21
46.3812074
 31
0.0
  0
LINE
  5
30E
100
AcDbEntity
  8
レイヤー_1
  6
CONTINUOUS
 62
       3
100
AcDbLine
 10
49.13691961
 20
46.3812074
 30
0.0
 11
47.76069467
 21
44.41623848
 31
0.0
  0
LINE
  5
30F
100
AcDbEntity
  8
レイヤー_1
  6
CONTINUOUS
 62
       3
100
AcDbLine
 10
47.76069467
 20
44.41623848
 30
0.0
 11
45.87728833
 21
45.7347378
 31
0.0
  0
LINE
  5
310
100
AcDbEntity
  8
レイヤー_1
  6
CONTINUOUS
 62
       3
100
AcDbLine
 10
43.17193797
 20
47.62762147
 30
0.0
 11
44.5487373
 21
49.59373916
 31
0.0
  0
LINE
  5
311
100
AcDbEntity
  8
レイヤー_1
  6
CONTINUOUS
 62
       3
100
AcDbLine
 10
44.5487373
 20
49.59373916
 30
0.0
 11
46.43386679
 21
48.27466547
 31
0.0
  0
LINE
  5
312
100
AcDbEntity
  8
レイヤー_1
  6
CONTINUOUS
 62
       3
100
AcDbLine
 10
46.43386679
 20
48.27466547
 30
0.0
 11
45.05476992
 21
46.30826059
 31
0.0
  0
LINE
  5
313
100
AcDbEntity
  8
レイヤー_1
  6
CONTINUOUS
 62
       3
100
AcDbLine
 10
45.05476992
 20
46.30826059
 30
0.0
 11
43.17193797
 21
47.62762147
 31
0.0
  0
LINE
  5
314
100
AcDbEntity
  8
レイヤー_1
  6
CONTINUOUS
 62
       3
100
AcDbLine
 10
25.36200193
 20
45.7347378
 30
0.0
 11
26.73822687
 21
47.70114267
 31
0.0
  0
LINE
  5
315
100
AcDbEntity
  8
レイヤー_1
  6
CONTINUOUS
 62
       3
100
AcDbLine
 10
26.73822687
 20
47.70114267
 30
0.0
 11
28.62278198
 21
46.3812074
 31
0.0
  0
LINE
  5
316
100
AcDbEntity
  8
レイヤー_1
  6
CONTINUOUS
 62
       3
100
AcDbLine
 10
28.62278198
 20
46.3812074
 30
0.0
 11
27.24713142
 21
44.41623848
 31
0.0
  0
LINE
  5
317
100
AcDbEntity
  8
レイヤー_1
  6
CONTINUOUS
 62
       3
100
AcDbLine
 10
27.24713142
 20
44.41623848
 30
0.0
 11
25.36200193
 21
45.7347378
 31
0.0
  0
LINE
  5
318
100
AcDbEntity
  8
レイヤー_1
  6
CONTINUOUS
 62
       3
100
AcDbLine
 10
22.65837472
 20
47.62762147
 30
0.0
 11
24.03402528
 21
49.59373916
 31
0.0
  0
LINE
  5
319
100
AcDbEntity
  8
レイヤー_1
  6
CONTINUOUS
 62
       3
100
AcDbLine
 10
24.03402528
 20
49.59373916
 30
0.0
 11
25.91972915
 21
48.27466547
 31
0.0
  0
LINE
  5
31A
100
AcDbEntity
  8
レイヤー_1
  6
CONTINUOUS
 62
       3
100
AcDbLine
 10
25.91972915
 20
48.27466547
 30
0.0
 11
24.54235544
 21
46.30826059
 31
0.0
  0
LINE
  5
31B
100
AcDbEntity
  8
レイヤー_1
  6
CONTINUOUS
 62
       3
100
AcDbLine
 10
24.54235544
 20
46.30826059
 30
0.0
 11
22.65837472
 21
47.62762147
 31
0.0
  0
LINE
  5
31C
100
AcDbEntity
  8
レイヤー_1
  6
CONTINUOUS
 62
       3
100
AcDbLine
 10
4.86164952
 20
45.7347378
 30
0.0
 11
6.23816166
 21
47.70114267
 31
0.0
  0
LINE
  5
31D
100
AcDbEntity
  8
レイヤー_1
  6
CONTINUOUS
 62
       3
100
AcDbLine
 10
6.23816166
 20
47.70114267
 30
0.0
 11
8.12242956
 21
46.3812074
 31
0.0
  0
LINE
  5
31E
100
AcDbEntity
  8
レイヤー_1
  6
CONTINUOUS
 62
       3
100
AcDbLine
 10
8.12242956
 20
46.3812074
 30
0.0
 11
6.74505586
 21
44.41623848
 31
0.0
  0
LINE
  5
31F
100
AcDbEntity
  8
レイヤー_1
  6
CONTINUOUS
 62
       3
100
AcDbLine
 10
6.74505586
 20
44.41623848
 30
0.0
 11
4.86164952
 21
45.7347378
 31
0.0
  0
LINE
  5
320
100
AcDbEntity
  8
レイヤー_1
  6
CONTINUOUS
 62
       3
100
AcDbLine
 10
2.15802231
 20
47.62762147
 30
0.0
 11
3.53424725
 21
49.59373916
 31
0.0
  0
LINE
  5
321
100
AcDbEntity
  8
レイヤー_1
  6
CONTINUOUS
 62
       3
100
AcDbLine
 10
3.53424725
 20
49.59373916
 30
0.0
 11
5.41937674
 21
48.27466547
 31
0.0
  0
LINE
  5
322
100
AcDbEntity
  8
レイヤー_1
  6
CONTINUOUS
 62
       3
100
AcDbLine
 10
5.41937674
 20
48.27466547
 30
0.0
 11
4.04257742
 21
46.30826059
 31
0.0
  0
LINE
  5
323
100
AcDbEntity
  8
レイヤー_1
  6
CONTINUOUS
 62
       3
100
AcDbLine
 10
4.04257742
 20
46.30826059
 30
0.0
 11
2.15802231
 21
47.62762147
 31
0.0
  0
LINE
  5
324
100
AcDbEntity
  8
レイヤー_1
  6
CONTINUOUS
 62
       3
100
AcDbLine
 10
-15.63697974
 20
45.7347378
 30
0.0
 11
-14.2607548
 21
47.70114267
 31
0.0
  0
LINE
  5
325
100
AcDbEntity
  8
レイヤー_1
  6
CONTINUOUS
 62
       3
100
AcDbLine
 10
-14.2607548
 20
47.70114267
 30
0.0
 11
-12.37677407
 21
46.3812074
 31
0.0
  0
LINE
  5
326
100
AcDbEntity
  8
レイヤー_1
  6
CONTINUOUS
 62
       3
100
AcDbLine
 10
-12.37677407
 20
46.3812074
 30
0.0
 11
-13.7538606
 21
44.41623848
 31
0.0
  0
LINE
  5
327
100
AcDbEntity
  8
レイヤー_1
  6
CONTINUOUS
 62
       3
100
AcDbLine
 10
-13.7538606
 20
44.41623848
 30
0.0
 11
-15.63697974
 21
45.7347378
 31
0.0
  0
LINE
  5
328
100
AcDbEntity
  8
レイヤー_1
  6
CONTINUOUS
 62
       3
100
AcDbLine
 10
-18.34089414
 20
47.62762147
 30
0.0
 11
-16.96524358
 21
49.59373916
 31
0.0
  0
LINE
  5
329
100
AcDbEntity
  8
レイヤー_1
  6
CONTINUOUS
 62
       3
100
AcDbLine
 10
-16.96524358
 20
49.59373916
 30
0.0
 11
-15.08068848
 21
48.27466547
 31
0.0
  0
LINE
  5
32A
100
AcDbEntity
  8
レイヤー_1
  6
CONTINUOUS
 62
       3
100
AcDbLine
 10
-15.08068848
 20
48.27466547
 30
0.0
 11
-16.45748781
 21
46.30826059
 31
0.0
  0
LINE
  5
32B
100
AcDbEntity
  8
レイヤー_1
  6
CONTINUOUS
 62
       3
100
AcDbLine
 10
-16.45748781
 20
46.30826059
 30
0.0
 11
-18.34089414
 21
47.62762147
 31
0.0
  0
LINE
  5
32C
100
AcDbEntity
  8
レイヤー_1
  6
CONTINUOUS
 62
       3
100
AcDbLine
 10
75.78889128
 20
-48.52058791
 30
0.0
 11
72.78777027
 21
-48.52058791
 31
0.0
  0
LINE
  5
32D
100
AcDbEntity
  8
レイヤー_1
  6
CONTINUOUS
 62
       3
100
AcDbLine
 10
75.78892858
 20
-20.17759137
 30
0.0
 11
75.7625069
 21
-19.78528684
 31
0.0
  0
LINE
  5
32E
100
AcDbEntity
  8
レイヤー_1
  6
CONTINUOUS
 62
       3
100
AcDbLine
 10
75.7625069
 20
-19.78528684
 30
0.0
 11
75.68611378
 21
-19.40159808
 31
0.0
  0
LINE
  5
32F
100
AcDbEntity
  8
レイヤー_1
  6
CONTINUOUS
 62
       3
100
AcDbLine
 10
75.68611378
 20
-19.40159808
 30
0.0
 11
75.55974922
 21
-19.02939702
 31
0.0
  0
LINE
  5
330
100
AcDbEntity
  8
レイヤー_1
  6
CONTINUOUS
 62
       3
100
AcDbLine
 10
75.55974922
 20
-19.02939702
 30
0.0
 11
75.38628514
 21
-18.6772994
 31
0.0
  0
LINE
  5
331
100
AcDbEntity
  8
レイヤー_1
  6
CONTINUOUS
 62
       3
100
AcDbLine
 10
75.38628514
 20
-18.6772994
 30
0.0
 11
75.16801909
 21
-18.35104909
 31
0.0
  0
LINE
  5
332
100
AcDbEntity
  8
レイヤー_1
  6
CONTINUOUS
 62
       3
100
AcDbLine
 10
75.16801909
 20
-18.35104909
 30
0.0
 11
74.9101205
 21
-18.05696429
 31
0.0
  0
LINE
  5
333
100
AcDbEntity
  8
レイヤー_1
  6
CONTINUOUS
 62
       3
100
AcDbLine
 10
74.9101205
 20
-18.05696429
 30
0.0
 11
74.61316379
 21
-17.79791694
 31
0.0
  0
LINE
  5
334
100
AcDbEntity
  8
レイヤー_1
  6
CONTINUOUS
 62
       3
100
AcDbLine
 10
74.61316379
 20
-17.79791694
 30
0.0
 11
74.28806224
 21
-17.57850211
 31
0.0
  0
LINE
  5
335
100
AcDbEntity
  8
レイヤー_1
  6
CONTINUOUS
 62
       3
100
AcDbLine
 10
74.28806224
 20
-17.57850211
 30
0.0
 11
72.97674273
 21
-16.82261229
 31
0.0
  0
LINE
  5
336
100
AcDbEntity
  8
レイヤー_1
  6
CONTINUOUS
 62
       3
100
AcDbLine
 10
72.97674273
 20
-16.82261229
 30
0.0
 11
72.80442742
 21
-16.7301364
 31
0.0
  0
LINE
  5
337
100
AcDbEntity
  8
レイヤー_1
  6
CONTINUOUS
 62
       3
100
AcDbLine
 10
72.80442742
 20
-16.7301364
 30
0.0
 11
72.62407073
 21
-16.64857382
 31
0.0
  0
LINE
  5
338
100
AcDbEntity
  8
レイヤー_1
  6
CONTINUOUS
 62
       3
100
AcDbLine
 10
72.62407073
 20
-16.64857382
 30
0.0
 11
72.44199088
 21
-16.58022208
 31
0.0
  0
LINE
  5
339
100
AcDbEntity
  8
レイヤー_1
  6
CONTINUOUS
 62
       3
100
AcDbLine
 10
72.44199088
 20
-16.58022208
 30
0.0
 11
72.25301843
 21
-16.52220926
 31
0.0
  0
LINE
  5
33A
100
AcDbEntity
  8
レイヤー_1
  6
CONTINUOUS
 62
       3
100
AcDbLine
 10
72.25301843
 20
-16.52220926
 30
0.0
 11
72.06174843
 21
-16.47683289
 31
0.0
  0
LINE
  5
33B
100
AcDbEntity
  8
レイヤー_1
  6
CONTINUOUS
 62
       3
100
AcDbLine
 10
72.06174843
 20
-16.47683289
 30
0.0
 11
71.86875528
 21
-16.44581614
 31
0.0
  0
LINE
  5
33C
100
AcDbEntity
  8
レイヤー_1
  6
CONTINUOUS
 62
       3
100
AcDbLine
 10
71.86875528
 20
-16.44581614
 30
0.0
 11
71.67403899
 21
-16.42571268
 31
0.0
  0
LINE
  5
33D
100
AcDbEntity
  8
レイヤー_1
  6
CONTINUOUS
 62
       3
100
AcDbLine
 10
71.67403899
 20
-16.42571268
 30
0.0
 11
71.47702515
 21
-16.42054323
 31
0.0
  0
LINE
  5
33E
100
AcDbEntity
  8
レイヤー_1
  6
CONTINUOUS
 62
       3
100
AcDbLine
 10
71.47702515
 20
-16.42054323
 30
0.0
 11
70.20935885
 21
-16.42054323
 31
0.0
  0
LINE
  5
33F
100
AcDbEntity
  8
レイヤー_1
  6
CONTINUOUS
 62
       3
100
AcDbLine
 10
70.20935885
 20
-16.42054323
 30
0.0
 11
69.88827799
 21
-17.61985779
 31
0.0
  0
LINE
  5
340
100
AcDbEntity
  8
レイヤー_1
  6
CONTINUOUS
 62
       3
100
AcDbLine
 10
69.88827799
 20
-17.61985779
 30
0.0
 11
68.7894807
 21
-17.61985779
 31
0.0
  0
LINE
  5
341
100
AcDbEntity
  8
レイヤー_1
  6
CONTINUOUS
 62
       3
100
AcDbLine
 10
68.7894807
 20
-17.61985779
 30
0.0
 11
64.53846201
 21
-17.61985779
 31
0.0
  0
LINE
  5
342
100
AcDbEntity
  8
レイヤー_1
  6
CONTINUOUS
 62
       3
100
AcDbLine
 10
64.53846201
 20
-16.1201402
 30
0.0
 11
64.25069544
 21
-16.17700425
 31
0.0
  0
LINE
  5
343
100
AcDbEntity
  8
レイヤー_1
  6
CONTINUOUS
 62
       3
100
AcDbLine
 10
64.25069544
 20
-16.17700425
 30
0.0
 11
64.00830524
 21
-16.34012942
 31
0.0
  0
LINE
  5
344
100
AcDbEntity
  8
レイヤー_1
  6
CONTINUOUS
 62
       3
100
AcDbLine
 10
64.00830524
 20
-16.34012942
 30
0.0
 11
63.84690323
 21
-16.58309401
 31
0.0
  0
LINE
  5
345
100
AcDbEntity
  8
レイヤー_1
  6
CONTINUOUS
 62
       3
100
AcDbLine
 10
63.84690323
 20
-16.58309401
 30
0.0
 11
63.78774164
 21
-16.86971181
 31
0.0
  0
LINE
  5
346
100
AcDbEntity
  8
レイヤー_1
  6
CONTINUOUS
 62
       3
100
AcDbLine
 10
63.78774164
 20
-16.86971181
 30
0.0
 11
63.84690323
 21
-17.15690398
 31
0.0
  0
LINE
  5
347
100
AcDbEntity
  8
レイヤー_1
  6
CONTINUOUS
 62
       3
100
AcDbLine
 10
63.84690323
 20
-17.15690398
 30
0.0
 11
64.00830524
 21
-17.40044296
 31
0.0
  0
LINE
  5
348
100
AcDbEntity
  8
レイヤー_1
  6
CONTINUOUS
 62
       3
100
AcDbLine
 10
64.00830524
 20
-17.40044296
 30
0.0
 11
64.25069544
 21
-17.56356811
 31
0.0
  0
LINE
  5
349
100
AcDbEntity
  8
レイヤー_1
  6
CONTINUOUS
 62
       3
100
AcDbLine
 10
64.25069544
 20
-17.56356811
 30
0.0
 11
64.53846201
 21
-17.61985779
 31
0.0
  0
LINE
  5
34A
100
AcDbEntity
  8
レイヤー_1
  6
CONTINUOUS
 62
       3
100
AcDbLine
 10
64.53846201
 20
-16.1201402
 30
0.0
 11
68.7894807
 21
-16.1201402
 31
0.0
  0
LINE
  5
34B
100
AcDbEntity
  8
レイヤー_1
  6
CONTINUOUS
 62
       3
100
AcDbLine
 10
68.7894807
 20
-16.1201402
 30
0.0
 11
68.7894807
 21
16.97933327
 31
0.0
  0
LINE
  5
34C
100
AcDbEntity
  8
レイヤー_1
  6
CONTINUOUS
 62
       3
100
AcDbLine
 10
68.7894807
 20
16.97933327
 30
0.0
 11
69.88827799
 21
16.97933327
 31
0.0
  0
LINE
  5
34D
100
AcDbEntity
  8
レイヤー_1
  6
CONTINUOUS
 62
       3
100
AcDbLine
 10
70.75444961
 20
15.47990289
 30
0.0
 11
70.82682204
 21
15.37105705
 31
0.0
  0
LINE
  5
34E
100
AcDbEntity
  8
レイヤー_1
  6
CONTINUOUS
 62
       3
100
AcDbLine
 10
70.82682204
 20
15.37105705
 30
0.0
 11
70.91355408
 21
15.27283733
 31
0.0
  0
LINE
  5
34F
100
AcDbEntity
  8
レイヤー_1
  6
CONTINUOUS
 62
       3
100
AcDbLine
 10
70.91355408
 20
15.27283733
 30
0.0
 11
71.0123482
 21
15.18639248
 31
0.0
  0
LINE
  5
350
100
AcDbEntity
  8
レイヤー_1
  6
CONTINUOUS
 62
       3
100
AcDbLine
 10
71.0123482
 20
15.18639248
 30
0.0
 11
71.12148123
 21
15.11402005
 31
0.0
  0
LINE
  5
351
100
AcDbEntity
  8
レイヤー_1
  6
CONTINUOUS
 62
       3
100
AcDbLine
 10
71.12148123
 20
15.11402005
 30
0.0
 11
71.23808125
 21
15.05572004
 31
0.0
  0
LINE
  5
352
100
AcDbEntity
  8
レイヤー_1
  6
CONTINUOUS
 62
       3
100
AcDbLine
 10
71.23808125
 20
15.05572004
 30
0.0
 11
71.36272266
 21
15.01292839
 31
0.0
  0
LINE
  5
353
100
AcDbEntity
  8
レイヤー_1
  6
CONTINUOUS
 62
       3
100
AcDbLine
 10
71.36272266
 20
15.01292839
 30
0.0
 11
71.4896616
 21
14.98880425
 31
0.0
  0
LINE
  5
354
100
AcDbEntity
  8
レイヤー_1
  6
CONTINUOUS
 62
       3
100
AcDbLine
 10
71.4896616
 20
14.98880425
 30
0.0
 11
71.61889809
 21
14.97875253
 31
0.0
  0
LINE
  5
355
100
AcDbEntity
  8
レイヤー_1
  6
CONTINUOUS
 62
       3
100
AcDbLine
 10
5.5345408
 20
-50.82042291
 30
0.0
 11
8.90876177
 21
-48.45912879
 31
0.0
  0
LINE
  5
356
100
AcDbEntity
  8
レイヤー_1
  6
CONTINUOUS
 62
       3
100
AcDbLine
 10
8.90876177
 20
-48.45912879
 30
0.0
 11
10.25626749
 21
-46.52058155
 31
0.0
  0
LINE
  5
357
100
AcDbEntity
  8
レイヤー_1
  6
CONTINUOUS
 62
       3
100
AcDbLine
 10
10.25626749
 20
-46.52058155
 30
0.0
 11
19.68995632
 21
-46.52058155
 31
0.0
  0
LINE
  5
358
100
AcDbEntity
  8
レイヤー_1
  6
CONTINUOUS
 62
       3
100
AcDbLine
 10
19.68995632
 20
-46.52058155
 30
0.0
 11
22.62333728
 21
-50.71014112
 31
0.0
  0
LINE
  5
359
100
AcDbEntity
  8
レイヤー_1
  6
CONTINUOUS
 62
       3
100
AcDbLine
 10
22.62333728
 20
-50.71014112
 30
0.0
 11
22.76578459
 21
-50.88934904
 31
0.0
  0
LINE
  5
35A
100
AcDbEntity
  8
レイヤー_1
  6
CONTINUOUS
 62
       3
100
AcDbLine
 10
22.76578459
 20
-50.88934904
 30
0.0
 11
22.92661222
 21
-51.04845351
 31
0.0
  0
LINE
  5
35B
100
AcDbEntity
  8
レイヤー_1
  6
CONTINUOUS
 62
       3
100
AcDbLine
 10
22.92661222
 20
-51.04845351
 30
0.0
 11
23.1075433
 21
-51.18860329
 31
0.0
  0
LINE
  5
35C
100
AcDbEntity
  8
レイヤー_1
  6
CONTINUOUS
 62
       3
100
AcDbLine
 10
23.1075433
 20
-51.18860329
 30
0.0
 11
23.30283398
 21
-51.3057777
 31
0.0
  0
LINE
  5
35D
100
AcDbEntity
  8
レイヤー_1
  6
CONTINUOUS
 62
       3
100
AcDbLine
 10
23.30283398
 20
-51.3057777
 30
0.0
 11
23.51076112
 21
-51.39825359
 31
0.0
  0
LINE
  5
35E
100
AcDbEntity
  8
レイヤー_1
  6
CONTINUOUS
 62
       3
100
AcDbLine
 10
23.51076112
 20
-51.39825359
 30
0.0
 11
23.72787841
 21
-51.46603094
 31
0.0
  0
LINE
  5
35F
100
AcDbEntity
  8
レイヤー_1
  6
CONTINUOUS
 62
       3
100
AcDbLine
 10
23.72787841
 20
-51.46603094
 30
0.0
 11
23.9524627
 21
-51.50681223
 31
0.0
  0
LINE
  5
360
100
AcDbEntity
  8
レイヤー_1
  6
CONTINUOUS
 62
       3
100
AcDbLine
 10
23.9524627
 20
-51.50681223
 30
0.0
 11
24.18049329
 21
-51.51944868
 31
0.0
  0
LINE
  5
361
100
AcDbEntity
  8
レイヤー_1
  6
CONTINUOUS
 62
       3
100
AcDbLine
 10
24.18049329
 20
-51.51944868
 30
0.0
 11
24.42690418
 21
-51.48441124
 31
0.0
  0
LINE
  5
362
100
AcDbEntity
  8
レイヤー_1
  6
CONTINUOUS
 62
       3
100
AcDbLine
 10
24.42690418
 20
-51.48441124
 30
0.0
 11
24.67274069
 21
-51.43386542
 31
0.0
  0
LINE
  5
363
100
AcDbEntity
  8
レイヤー_1
  6
CONTINUOUS
 62
       3
100
AcDbLine
 10
24.67274069
 20
-51.43386542
 30
0.0
 11
24.91283336
 21
-51.36781121
 31
0.0
  0
LINE
  5
364
100
AcDbEntity
  8
レイヤー_1
  6
CONTINUOUS
 62
       3
100
AcDbLine
 10
24.91283336
 20
-51.36781121
 30
0.0
 11
25.15235164
 21
-51.28854617
 31
0.0
  0
LINE
  5
365
100
AcDbEntity
  8
レイヤー_1
  6
CONTINUOUS
 62
       3
100
AcDbLine
 10
25.15235164
 20
-51.28854617
 30
0.0
 11
25.38382854
 21
-51.1920496
 31
0.0
  0
LINE
  5
366
100
AcDbEntity
  8
レイヤー_1
  6
CONTINUOUS
 62
       3
100
AcDbLine
 10
25.38382854
 20
-51.1920496
 30
0.0
 11
25.60726406
 21
-51.0817678
 31
0.0
  0
LINE
  5
367
100
AcDbEntity
  8
レイヤー_1
  6
CONTINUOUS
 62
       3
100
AcDbLine
 10
25.60726406
 20
-51.0817678
 30
0.0
 11
25.82495573
 21
-50.95770078
 31
0.0
  0
LINE
  5
368
100
AcDbEntity
  8
レイヤー_1
  6
CONTINUOUS
 62
       3
100
AcDbLine
 10
25.82495573
 20
-50.95770078
 30
0.0
 11
26.0351804
 21
-50.82042291
 31
0.0
  0
LINE
  5
369
100
AcDbEntity
  8
レイヤー_1
  6
CONTINUOUS
 62
       3
100
AcDbLine
 10
73.93539023
 20
-50.07429762
 30
0.0
 11
75.48909994
 21
-48.52058791
 31
0.0
  0
LINE
  5
36A
100
AcDbEntity
  8
レイヤー_1
  6
CONTINUOUS
 62
       3
100
AcDbLine
 10
70.84979742
 20
-43.70035431
 30
0.0
 11
70.97616198
 21
-43.72390407
 31
0.0
  0
LINE
  5
36B
100
AcDbEntity
  8
レイヤー_1
  6
CONTINUOUS
 62
       3
100
AcDbLine
 10
70.97616198
 20
-43.72390407
 30
0.0
 11
71.09850585
 21
-43.76928044
 31
0.0
  0
LINE
  5
36C
100
AcDbEntity
  8
レイヤー_1
  6
CONTINUOUS
 62
       3
100
AcDbLine
 10
71.09850585
 20
-43.76928044
 30
0.0
 11
71.20936203
 21
-43.83820656
 31
0.0
  0
LINE
  5
36D
100
AcDbEntity
  8
レイヤー_1
  6
CONTINUOUS
 62
       3
100
AcDbLine
 10
71.20936203
 20
-43.83820656
 30
0.0
 11
71.30470984
 21
-43.92551298
 31
0.0
  0
LINE
  5
36E
100
AcDbEntity
  8
レイヤー_1
  6
CONTINUOUS
 62
       3
100
AcDbLine
 10
71.30470984
 20
-43.92551298
 30
0.0
 11
71.38225173
 21
-44.02890217
 31
0.0
  0
LINE
  5
36F
100
AcDbEntity
  8
レイヤー_1
  6
CONTINUOUS
 62
       3
100
AcDbLine
 10
71.38225173
 20
-44.02890217
 30
0.0
 11
71.44141331
 21
-44.14377904
 31
0.0
  0
LINE
  5
370
100
AcDbEntity
  8
レイヤー_1
  6
CONTINUOUS
 62
       3
100
AcDbLine
 10
71.44141331
 20
-44.14377904
 30
0.0
 11
71.47587638
 21
-44.26842045
 31
0.0
  0
LINE
  5
371
100
AcDbEntity
  8
レイヤー_1
  6
CONTINUOUS
 62
       3
100
AcDbLine
 10
71.47587638
 20
-44.26842045
 30
0.0
 11
71.48851283
 21
-44.39765693
 31
0.0
  0
LINE
  5
372
100
AcDbEntity
  8
レイヤー_1
  6
CONTINUOUS
 62
       3
100
AcDbLine
 10
71.48851283
 20
-44.39765693
 30
0.0
 11
71.48851283
 21
-44.5751417
 31
0.0
  0
LINE
  5
373
100
AcDbEntity
  8
レイヤー_1
  6
CONTINUOUS
 62
       3
100
AcDbLine
 10
71.48851283
 20
-44.5751417
 30
0.0
 11
71.48047145
 21
-44.68025404
 31
0.0
  0
LINE
  5
374
100
AcDbEntity
  8
レイヤー_1
  6
CONTINUOUS
 62
       3
100
AcDbLine
 10
71.48047145
 20
-44.68025404
 30
0.0
 11
71.45749608
 21
-44.78536638
 31
0.0
  0
LINE
  5
375
100
AcDbEntity
  8
レイヤー_1
  6
CONTINUOUS
 62
       3
100
AcDbLine
 10
71.45749608
 20
-44.78536638
 30
0.0
 11
71.4161404
 21
-44.88358611
 31
0.0
  0
LINE
  5
376
100
AcDbEntity
  8
レイヤー_1
  6
CONTINUOUS
 62
       3
100
AcDbLine
 10
71.4161404
 20
-44.88358611
 30
0.0
 11
71.36272266
 21
-44.9754876
 31
0.0
  0
LINE
  5
377
100
AcDbEntity
  8
レイヤー_1
  6
CONTINUOUS
 62
       3
100
AcDbLine
 10
71.36272266
 20
-44.9754876
 30
0.0
 11
71.29379654
 21
-45.05877334
 31
0.0
  0
LINE
  5
378
100
AcDbEntity
  8
レイヤー_1
  6
CONTINUOUS
 62
       3
100
AcDbLine
 10
71.29379654
 20
-45.05877334
 30
0.0
 11
71.21395711
 21
-45.129997
 31
0.0
  0
LINE
  5
379
100
AcDbEntity
  8
レイヤー_1
  6
CONTINUOUS
 62
       3
100
AcDbLine
 10
71.21395711
 20
-45.129997
 30
0.0
 11
71.12550191
 21
-45.18743544
 31
0.0
  0
LINE
  5
37A
100
AcDbEntity
  8
レイヤー_1
  6
CONTINUOUS
 62
       3
100
AcDbLine
 10
71.12550191
 20
-45.18743544
 30
0.0
 11
71.02728219
 21
-45.2328118
 31
0.0
  0
LINE
  5
37B
100
AcDbEntity
  8
レイヤー_1
  6
CONTINUOUS
 62
       3
100
AcDbLine
 10
71.02728219
 20
-45.2328118
 30
0.0
 11
67.48964888
 21
-46.52058155
 31
0.0
  0
LINE
  5
37C
100
AcDbEntity
  8
レイヤー_1
  6
CONTINUOUS
 62
       3
100
AcDbLine
 10
67.48964888
 20
-46.52058155
 30
0.0
 11
67.48964888
 21
-48.02144789
 31
0.0
  0
LINE
  5
37D
100
AcDbEntity
  8
レイヤー_1
  6
CONTINUOUS
 62
       3
100
AcDbLine
 10
67.48964888
 20
-48.02144789
 30
0.0
 11
71.91470603
 21
-48.02144789
 31
0.0
  0
LINE
  5
37E
100
AcDbEntity
  8
レイヤー_1
  6
CONTINUOUS
 62
       3
100
AcDbLine
 10
71.91470603
 20
-48.02144789
 30
0.0
 11
71.91470603
 21
-48.52058791
 31
0.0
  0
LINE
  5
37F
100
AcDbEntity
  8
レイヤー_1
  6
CONTINUOUS
 62
       3
100
AcDbLine
 10
71.91470603
 20
-48.52058791
 30
0.0
 11
72.78777027
 21
-48.52058791
 31
0.0
  0
LINE
  5
380
100
AcDbEntity
  8
レイヤー_1
  6
CONTINUOUS
 62
       3
100
AcDbLine
 10
72.78777027
 20
-48.52058791
 30
0.0
 11
72.78777027
 21
-50.0197311
 31
0.0
  0
LINE
  5
381
100
AcDbEntity
  8
レイヤー_1
  6
CONTINUOUS
 62
       3
100
AcDbLine
 10
72.78777027
 20
-50.0197311
 30
0.0
 11
72.79236534
 21
-50.0605124
 31
0.0
  0
LINE
  5
382
100
AcDbEntity
  8
レイヤー_1
  6
CONTINUOUS
 62
       3
100
AcDbLine
 10
72.79236534
 20
-50.0605124
 30
0.0
 11
72.80442742
 21
-50.09612423
 31
0.0
  0
LINE
  5
383
100
AcDbEntity
  8
レイヤー_1
  6
CONTINUOUS
 62
       3
100
AcDbLine
 10
72.80442742
 20
-50.09612423
 30
0.0
 11
72.82108457
 21
-50.13231045
 31
0.0
  0
LINE
  5
384
100
AcDbEntity
  8
レイヤー_1
  6
CONTINUOUS
 62
       3
100
AcDbLine
 10
72.82108457
 20
-50.13231045
 30
0.0
 11
72.84520871
 21
-50.16217843
 31
0.0
  0
LINE
  5
385
100
AcDbEntity
  8
レイヤー_1
  6
CONTINUOUS
 62
       3
100
AcDbLine
 10
72.84520871
 20
-50.16217843
 30
0.0
 11
72.878523
 21
-50.18687696
 31
0.0
  0
LINE
  5
386
100
AcDbEntity
  8
レイヤー_1
  6
CONTINUOUS
 62
       3
100
AcDbLine
 10
72.878523
 20
-50.18687696
 30
0.0
 11
72.91183729
 21
-50.20525726
 31
0.0
  0
LINE
  5
387
100
AcDbEntity
  8
レイヤー_1
  6
CONTINUOUS
 62
       3
100
AcDbLine
 10
72.91183729
 20
-50.20525726
 30
0.0
 11
72.95089543
 21
-50.21617056
 31
0.0
  0
LINE
  5
388
100
AcDbEntity
  8
レイヤー_1
  6
CONTINUOUS
 62
       3
100
AcDbLine
 10
72.95089543
 20
-50.21617056
 30
0.0
 11
72.98937918
 21
-50.21961687
 31
0.0
  0
LINE
  5
389
100
AcDbEntity
  8
レイヤー_1
  6
CONTINUOUS
 62
       3
100
AcDbLine
 10
72.98937918
 20
-50.21961687
 30
0.0
 11
73.58099508
 21
-50.21961687
 31
0.0
  0
LINE
  5
38A
100
AcDbEntity
  8
レイヤー_1
  6
CONTINUOUS
 62
       3
100
AcDbLine
 10
73.58099508
 20
-50.21961687
 30
0.0
 11
73.63039213
 21
-50.21731933
 31
0.0
  0
LINE
  5
38B
100
AcDbEntity
  8
レイヤー_1
  6
CONTINUOUS
 62
       3
100
AcDbLine
 10
73.63039213
 20
-50.21731933
 30
0.0
 11
73.67978919
 21
-50.21042671
 31
0.0
  0
LINE
  5
38C
100
AcDbEntity
  8
レイヤー_1
  6
CONTINUOUS
 62
       3
100
AcDbLine
 10
73.67978919
 20
-50.21042671
 30
0.0
 11
73.72573994
 21
-50.19836464
 31
0.0
  0
LINE
  5
38D
100
AcDbEntity
  8
レイヤー_1
  6
CONTINUOUS
 62
       3
100
AcDbLine
 10
73.72573994
 20
-50.19836464
 30
0.0
 11
73.77283946
 21
-50.18228189
 31
0.0
  0
LINE
  5
38E
100
AcDbEntity
  8
レイヤー_1
  6
CONTINUOUS
 62
       3
100
AcDbLine
 10
73.77283946
 20
-50.18228189
 30
0.0
 11
73.81706705
 21
-50.16160405
 31
0.0
  0
LINE
  5
38F
100
AcDbEntity
  8
レイヤー_1
  6
CONTINUOUS
 62
       3
100
AcDbLine
 10
73.81706705
 20
-50.16160405
 30
0.0
 11
73.85957149
 21
-50.13690552
 31
0.0
  0
LINE
  5
390
100
AcDbEntity
  8
レイヤー_1
  6
CONTINUOUS
 62
       3
100
AcDbLine
 10
73.85957149
 20
-50.13690552
 30
0.0
 11
73.89862963
 21
-50.10761191
 31
0.0
  0
LINE
  5
391
100
AcDbEntity
  8
レイヤー_1
  6
CONTINUOUS
 62
       3
100
AcDbLine
 10
73.89862963
 20
-50.10761191
 30
0.0
 11
73.93539023
 21
-50.07429762
 31
0.0
  0
LINE
  5
392
100
AcDbEntity
  8
レイヤー_1
  6
CONTINUOUS
 62
       3
100
AcDbLine
 10
26.0351804
 20
-50.82042291
 30
0.0
 11
29.40853979
 21
-48.45912879
 31
0.0
  0
LINE
  5
393
100
AcDbEntity
  8
レイヤー_1
  6
CONTINUOUS
 62
       3
100
AcDbLine
 10
29.40853979
 20
-48.45912879
 30
0.0
 11
30.7566199
 21
-46.52058155
 31
0.0
  0
LINE
  5
394
100
AcDbEntity
  8
レイヤー_1
  6
CONTINUOUS
 62
       3
100
AcDbLine
 10
30.7566199
 20
-46.52058155
 30
0.0
 11
40.18973434
 21
-46.52058155
 31
0.0
  0
LINE
  5
395
100
AcDbEntity
  8
レイヤー_1
  6
CONTINUOUS
 62
       3
100
AcDbLine
 10
40.18973434
 20
-46.52058155
 30
0.0
 11
43.12368968
 21
-50.71014112
 31
0.0
  0
LINE
  5
396
100
AcDbEntity
  8
レイヤー_1
  6
CONTINUOUS
 62
       3
100
AcDbLine
 10
43.12368968
 20
-50.71014112
 30
0.0
 11
43.26498824
 21
-50.88934904
 31
0.0
  0
LINE
  5
397
100
AcDbEntity
  8
レイヤー_1
  6
CONTINUOUS
 62
       3
100
AcDbLine
 10
43.26498824
 20
-50.88934904
 30
0.0
 11
43.42696463
 21
-51.04845351
 31
0.0
  0
LINE
  5
398
100
AcDbEntity
  8
レイヤー_1
  6
CONTINUOUS
 62
       3
100
AcDbLine
 10
43.42696463
 20
-51.04845351
 30
0.0
 11
43.60674693
 21
-51.18860329
 31
0.0
  0
LINE
  5
399
100
AcDbEntity
  8
レイヤー_1
  6
CONTINUOUS
 62
       3
100
AcDbLine
 10
43.60674693
 20
-51.18860329
 30
0.0
 11
43.80318639
 21
-51.3057777
 31
0.0
  0
LINE
  5
39A
100
AcDbEntity
  8
レイヤー_1
  6
CONTINUOUS
 62
       3
100
AcDbLine
 10
43.80318639
 20
-51.3057777
 30
0.0
 11
44.01168791
 21
-51.39825359
 31
0.0
  0
LINE
  5
39B
100
AcDbEntity
  8
レイヤー_1
  6
CONTINUOUS
 62
       3
100
AcDbLine
 10
44.01168791
 20
-51.39825359
 30
0.0
 11
44.22995397
 21
-51.46603094
 31
0.0
  0
LINE
  5
39C
100
AcDbEntity
  8
レイヤー_1
  6
CONTINUOUS
 62
       3
100
AcDbLine
 10
44.22995397
 20
-51.46603094
 30
0.0
 11
44.45281511
 21
-51.50681223
 31
0.0
  0
LINE
  5
39D
100
AcDbEntity
  8
レイヤー_1
  6
CONTINUOUS
 62
       3
100
AcDbLine
 10
44.45281511
 20
-51.50681223
 30
0.0
 11
44.6808457
 21
-51.51944868
 31
0.0
  0
LINE
  5
39E
100
AcDbEntity
  8
レイヤー_1
  6
CONTINUOUS
 62
       3
100
AcDbLine
 10
44.6808457
 20
-51.51944868
 30
0.0
 11
44.92783097
 21
-51.48441124
 31
0.0
  0
LINE
  5
39F
100
AcDbEntity
  8
レイヤー_1
  6
CONTINUOUS
 62
       3
100
AcDbLine
 10
44.92783097
 20
-51.48441124
 30
0.0
 11
45.17366749
 21
-51.43386542
 31
0.0
  0
LINE
  5
3A0
100
AcDbEntity
  8
レイヤー_1
  6
CONTINUOUS
 62
       3
100
AcDbLine
 10
45.17366749
 20
-51.43386542
 30
0.0
 11
45.41433454
 21
-51.36781121
 31
0.0
  0
LINE
  5
3A1
100
AcDbEntity
  8
レイヤー_1
  6
CONTINUOUS
 62
       3
100
AcDbLine
 10
45.41433454
 20
-51.36781121
 30
0.0
 11
45.65212967
 21
-51.28854617
 31
0.0
  0
LINE
  5
3A2
100
AcDbEntity
  8
レイヤー_1
  6
CONTINUOUS
 62
       3
100
AcDbLine
 10
45.65212967
 20
-51.28854617
 30
0.0
 11
45.88188341
 21
-51.1920496
 31
0.0
  0
LINE
  5
3A3
100
AcDbEntity
  8
レイヤー_1
  6
CONTINUOUS
 62
       3
100
AcDbLine
 10
45.88188341
 20
-51.1920496
 30
0.0
 11
46.10819085
 21
-51.0817678
 31
0.0
  0
LINE
  5
3A4
100
AcDbEntity
  8
レイヤー_1
  6
CONTINUOUS
 62
       3
100
AcDbLine
 10
46.10819085
 20
-51.0817678
 30
0.0
 11
46.32588253
 21
-50.95770078
 31
0.0
  0
LINE
  5
3A5
100
AcDbEntity
  8
レイヤー_1
  6
CONTINUOUS
 62
       3
100
AcDbLine
 10
46.32588253
 20
-50.95770078
 30
0.0
 11
46.53610721
 21
-50.82042291
 31
0.0
  0
LINE
  5
3A6
100
AcDbEntity
  8
レイヤー_1
  6
CONTINUOUS
 62
       3
100
AcDbLine
 10
46.53610721
 20
-50.82042291
 30
0.0
 11
49.90946658
 21
-48.45912879
 31
0.0
  0
LINE
  5
3A7
100
AcDbEntity
  8
レイヤー_1
  6
CONTINUOUS
 62
       3
100
AcDbLine
 10
49.90946658
 20
-48.45912879
 30
0.0
 11
51.25582354
 21
-46.52058155
 31
0.0
  0
LINE
  5
3A8
100
AcDbEntity
  8
レイヤー_1
  6
CONTINUOUS
 62
       3
100
AcDbLine
 10
51.25582354
 20
-46.52058155
 30
0.0
 11
60.68893799
 21
-46.52058155
 31
0.0
  0
LINE
  5
3A9
100
AcDbEntity
  8
レイヤー_1
  6
CONTINUOUS
 62
       3
100
AcDbLine
 10
60.68893799
 20
-46.52058155
 30
0.0
 11
61.72053231
 21
-47.99387745
 31
0.0
  0
LINE
  5
3AA
100
AcDbEntity
  8
レイヤー_1
  6
CONTINUOUS
 62
       3
100
AcDbLine
 10
61.72053231
 20
-47.99387745
 30
0.0
 11
61.84057864
 21
-48.135176
 31
0.0
  0
LINE
  5
3AB
100
AcDbEntity
  8
レイヤー_1
  6
CONTINUOUS
 62
       3
100
AcDbLine
 10
61.84057864
 20
-48.135176
 30
0.0
 11
61.98474911
 21
-48.25235041
 31
0.0
  0
LINE
  5
3AC
100
AcDbEntity
  8
レイヤー_1
  6
CONTINUOUS
 62
       3
100
AcDbLine
 10
61.98474911
 20
-48.25235041
 30
0.0
 11
62.14844865
 21
-48.3408056
 31
0.0
  0
LINE
  5
3AD
100
AcDbEntity
  8
レイヤー_1
  6
CONTINUOUS
 62
       3
100
AcDbLine
 10
62.14844865
 20
-48.3408056
 30
0.0
 11
62.32535905
 21
-48.39652088
 31
0.0
  0
LINE
  5
3AE
100
AcDbEntity
  8
レイヤー_1
  6
CONTINUOUS
 62
       3
100
AcDbLine
 10
62.32535905
 20
-48.39652088
 30
0.0
 11
62.5068645
 21
-48.41949626
 31
0.0
  0
LINE
  5
3AF
100
AcDbEntity
  8
レイヤー_1
  6
CONTINUOUS
 62
       3
100
AcDbLine
 10
62.5068645
 20
-48.41949626
 30
0.0
 11
62.69296504
 21
-48.40915734
 31
0.0
  0
LINE
  5
3B0
100
AcDbEntity
  8
レイヤー_1
  6
CONTINUOUS
 62
       3
100
AcDbLine
 10
62.69296504
 20
-48.40915734
 30
0.0
 11
62.87332172
 21
-48.36378098
 31
0.0
  0
LINE
  5
3B1
100
AcDbEntity
  8
レイヤー_1
  6
CONTINUOUS
 62
       3
100
AcDbLine
 10
62.87332172
 20
-48.36378098
 30
0.0
 11
63.04104196
 21
-48.28623909
 31
0.0
  0
LINE
  5
3B2
100
AcDbEntity
  8
レイヤー_1
  6
CONTINUOUS
 62
       3
100
AcDbLine
 10
63.04104196
 20
-48.28623909
 30
0.0
 11
63.58957903
 21
-47.97032769
 31
0.0
  0
LINE
  5
3B3
100
AcDbEntity
  8
レイヤー_1
  6
CONTINUOUS
 62
       3
100
AcDbLine
 10
63.58957903
 20
-47.97032769
 30
0.0
 11
63.63265786
 21
-47.94103409
 31
0.0
  0
LINE
  5
3B4
100
AcDbEntity
  8
レイヤー_1
  6
CONTINUOUS
 62
       3
100
AcDbLine
 10
63.63265786
 20
-47.94103409
 30
0.0
 11
63.67056723
 21
-47.90599664
 31
0.0
  0
LINE
  5
3B5
100
AcDbEntity
  8
レイヤー_1
  6
CONTINUOUS
 62
       3
100
AcDbLine
 10
63.67056723
 20
-47.90599664
 30
0.0
 11
63.70560468
 21
-47.86751289
 31
0.0
  0
LINE
  5
3B6
100
AcDbEntity
  8
レイヤー_1
  6
CONTINUOUS
 62
       3
100
AcDbLine
 10
63.70560468
 20
-47.86751289
 30
0.0
 11
63.73547266
 21
-47.82443406
 31
0.0
  0
LINE
  5
3B7
100
AcDbEntity
  8
レイヤー_1
  6
CONTINUOUS
 62
       3
100
AcDbLine
 10
63.73547266
 20
-47.82443406
 30
0.0
 11
63.75787365
 21
-47.77733454
 31
0.0
  0
LINE
  5
3B8
100
AcDbEntity
  8
レイヤー_1
  6
CONTINUOUS
 62
       3
100
AcDbLine
 10
63.75787365
 20
-47.77733454
 30
0.0
 11
63.7745308
 21
-47.72793749
 31
0.0
  0
LINE
  5
3B9
100
AcDbEntity
  8
レイヤー_1
  6
CONTINUOUS
 62
       3
100
AcDbLine
 10
63.7745308
 20
-47.72793749
 30
0.0
 11
63.78486972
 21
-47.67509413
 31
0.0
  0
LINE
  5
3BA
100
AcDbEntity
  8
レイヤー_1
  6
CONTINUOUS
 62
       3
100
AcDbLine
 10
63.78486972
 20
-47.67509413
 30
0.0
 11
63.78774164
 21
-47.62339953
 31
0.0
  0
LINE
  5
3BB
100
AcDbEntity
  8
レイヤー_1
  6
CONTINUOUS
 62
       3
100
AcDbLine
 10
63.78774164
 20
-47.62339953
 30
0.0
 11
63.78774164
 21
-44.0202864
 31
0.0
  0
LINE
  5
3BC
100
AcDbEntity
  8
レイヤー_1
  6
CONTINUOUS
 62
       3
100
AcDbLine
 10
63.78774164
 20
-44.0202864
 30
0.0
 11
63.79750617
 21
-43.92264106
 31
0.0
  0
LINE
  5
3BD
100
AcDbEntity
  8
レイヤー_1
  6
CONTINUOUS
 62
       3
100
AcDbLine
 10
63.79750617
 20
-43.92264106
 30
0.0
 11
63.82679977
 21
-43.82959079
 31
0.0
  0
LINE
  5
3BE
100
AcDbEntity
  8
レイヤー_1
  6
CONTINUOUS
 62
       3
100
AcDbLine
 10
63.82679977
 20
-43.82959079
 30
0.0
 11
63.87275052
 21
-43.74285875
 31
0.0
  0
LINE
  5
3BF
100
AcDbEntity
  8
レイヤー_1
  6
CONTINUOUS
 62
       3
100
AcDbLine
 10
63.87275052
 20
-43.74285875
 30
0.0
 11
63.93535842
 21
-43.6676144
 31
0.0
  0
LINE
  5
3C0
100
AcDbEntity
  8
レイヤー_1
  6
CONTINUOUS
 62
       3
100
AcDbLine
 10
63.93535842
 20
-43.6676144
 30
0.0
 11
64.01060278
 21
-43.60385774
 31
0.0
  0
LINE
  5
3C1
100
AcDbEntity
  8
レイヤー_1
  6
CONTINUOUS
 62
       3
100
AcDbLine
 10
64.01060278
 20
-43.60385774
 30
0.0
 11
64.09618604
 21
-43.55790699
 31
0.0
  0
LINE
  5
3C2
100
AcDbEntity
  8
レイヤー_1
  6
CONTINUOUS
 62
       3
100
AcDbLine
 10
64.09618604
 20
-43.55790699
 30
0.0
 11
64.19038508
 21
-43.52976215
 31
0.0
  0
LINE
  5
3C3
100
AcDbEntity
  8
レイヤー_1
  6
CONTINUOUS
 62
       3
100
AcDbLine
 10
64.19038508
 20
-43.52976215
 30
0.0
 11
64.28975358
 21
-43.52057201
 31
0.0
  0
LINE
  5
3C4
100
AcDbEntity
  8
レイヤー_1
  6
CONTINUOUS
 62
       3
100
AcDbLine
 10
64.28975358
 20
-43.52057201
 30
0.0
 11
68.7894807
 21
-43.52057201
 31
0.0
  0
LINE
  5
3C5
100
AcDbEntity
  8
レイヤー_1
  6
CONTINUOUS
 62
       3
100
AcDbLine
 10
68.7894807
 20
-43.52057201
 30
0.0
 11
70.84979742
 21
-43.70035431
 31
0.0
  0
LINE
  5
3C6
100
AcDbEntity
  8
レイヤー_1
  6
CONTINUOUS
 62
       3
100
AcDbLine
 10
-25.16084691
 20
20.18640838
 30
0.0
 11
-25.17003706
 21
20.05458717
 31
0.0
  0
LINE
  5
3C7
100
AcDbEntity
  8
レイヤー_1
  6
CONTINUOUS
 62
       3
100
AcDbLine
 10
-25.17003706
 20
20.05458717
 30
0.0
 11
-25.19588436
 21
19.92707384
 31
0.0
  0
LINE
  5
3C8
100
AcDbEntity
  8
レイヤー_1
  6
CONTINUOUS
 62
       3
100
AcDbLine
 10
-25.19588436
 20
19.92707384
 30
0.0
 11
-25.23781441
 21
19.80300682
 31
0.0
  0
LINE
  5
3C9
100
AcDbEntity
  8
レイヤー_1
  6
CONTINUOUS
 62
       3
100
AcDbLine
 10
-25.23781441
 20
19.80300682
 30
0.0
 11
-25.29611443
 21
19.68583241
 31
0.0
  0
LINE
  5
3CA
100
AcDbEntity
  8
レイヤー_1
  6
CONTINUOUS
 62
       3
100
AcDbLine
 10
-25.29611443
 20
19.68583241
 30
0.0
 11
-25.36762528
 21
19.57727376
 31
0.0
  0
LINE
  5
3CB
100
AcDbEntity
  8
レイヤー_1
  6
CONTINUOUS
 62
       3
100
AcDbLine
 10
-25.36762528
 20
19.57727376
 30
0.0
 11
-25.45435732
 21
19.47905403
 31
0.0
  0
LINE
  5
3CC
100
AcDbEntity
  8
レイヤー_1
  6
CONTINUOUS
 62
       3
100
AcDbLine
 10
-25.45435732
 20
19.47905403
 30
0.0
 11
-25.55257705
 21
19.39347077
 31
0.0
  0
LINE
  5
3CD
100
AcDbEntity
  8
レイヤー_1
  6
CONTINUOUS
 62
       3
100
AcDbLine
 10
-25.55257705
 20
19.39347077
 30
0.0
 11
-25.66171008
 21
19.31937518
 31
0.0
  0
LINE
  5
3CE
100
AcDbEntity
  8
レイヤー_1
  6
CONTINUOUS
 62
       3
100
AcDbLine
 10
-25.66171008
 20
19.31937518
 30
0.0
 11
-26.21110872
 21
19.00317659
 31
0.0
  0
LINE
  5
3CF
100
AcDbEntity
  8
レイヤー_1
  6
CONTINUOUS
 62
       3
100
AcDbLine
 10
-26.21110872
 20
-27.52109549
 30
0.0
 11
-25.21196712
 21
-27.52109549
 31
0.0
  0
LINE
  5
3D0
100
AcDbEntity
  8
レイヤー_1
  6
CONTINUOUS
 62
       3
100
AcDbLine
 10
-25.21196712
 20
-27.52109549
 30
0.0
 11
-25.21196712
 21
-27.02023232
 31
0.0
  0
LINE
  5
3D1
100
AcDbEntity
  8
レイヤー_1
  6
CONTINUOUS
 62
       3
100
AcDbLine
 10
-25.21196712
 20
-27.02023232
 30
0.0
 11
-24.71196553
 21
-27.02023232
 31
0.0
  0
LINE
  5
3D2
100
AcDbEntity
  8
レイヤー_1
  6
CONTINUOUS
 62
       3
100
AcDbLine
 10
-24.71196553
 20
-27.02023232
 30
0.0
 11
-24.51667485
 21
-27.03918701
 31
0.0
  0
LINE
  5
3D3
100
AcDbEntity
  8
レイヤー_1
  6
CONTINUOUS
 62
       3
100
AcDbLine
 10
-24.51667485
 20
-27.03918701
 30
0.0
 11
-24.32913835
 21
-27.09662544
 31
0.0
  0
LINE
  5
3D4
100
AcDbEntity
  8
レイヤー_1
  6
CONTINUOUS
 62
       3
100
AcDbLine
 10
-24.32913835
 20
-27.09662544
 30
0.0
 11
-24.15567427
 21
-27.18795255
 31
0.0
  0
LINE
  5
3D5
100
AcDbEntity
  8
レイヤー_1
  6
CONTINUOUS
 62
       3
100
AcDbLine
 10
-24.15567427
 20
-27.18795255
 30
0.0
 11
-24.0037496
 21
-27.31316835
 31
0.0
  0
LINE
  5
3D6
100
AcDbEntity
  8
レイヤー_1
  6
CONTINUOUS
 62
       3
100
AcDbLine
 10
-24.0037496
 20
-27.31316835
 30
0.0
 11
-23.87968258
 21
-27.4653802
 31
0.0
  0
LINE
  5
3D7
100
AcDbEntity
  8
レイヤー_1
  6
CONTINUOUS
 62
       3
100
AcDbLine
 10
-23.87968258
 20
-27.4653802
 30
0.0
 11
-23.78749389
 21
-27.63769552
 31
0.0
  0
LINE
  5
3D8
100
AcDbEntity
  8
レイヤー_1
  6
CONTINUOUS
 62
       3
100
AcDbLine
 10
-23.78749389
 20
-27.63769552
 30
0.0
 11
-23.73091703
 21
-27.8255192
 31
0.0
  0
LINE
  5
3D9
100
AcDbEntity
  8
レイヤー_1
  6
CONTINUOUS
 62
       3
100
AcDbLine
 10
-23.73091703
 20
-27.8255192
 30
0.0
 11
-23.71196235
 21
-28.0202355
 31
0.0
  0
LINE
  5
3DA
100
AcDbEntity
  8
レイヤー_1
  6
CONTINUOUS
 62
       3
100
AcDbLine
 10
-23.71196235
 20
-28.0202355
 30
0.0
 11
-23.73091703
 21
-28.2149518
 31
0.0
  0
LINE
  5
3DB
100
AcDbEntity
  8
レイヤー_1
  6
CONTINUOUS
 62
       3
100
AcDbLine
 10
-23.73091703
 20
-28.2149518
 30
0.0
 11
-23.78749389
 21
-28.40334987
 31
0.0
  0
LINE
  5
3DC
100
AcDbEntity
  8
レイヤー_1
  6
CONTINUOUS
 62
       3
100
AcDbLine
 10
-23.78749389
 20
-28.40334987
 30
0.0
 11
-23.87968258
 21
-28.57566518
 31
0.0
  0
LINE
  5
3DD
100
AcDbEntity
  8
レイヤー_1
  6
CONTINUOUS
 62
       3
100
AcDbLine
 10
-23.87968258
 20
-28.57566518
 30
0.0
 11
-24.0037496
 21
-28.72787704
 31
0.0
  0
LINE
  5
3DE
100
AcDbEntity
  8
レイヤー_1
  6
CONTINUOUS
 62
       3
100
AcDbLine
 10
-24.0037496
 20
-28.72787704
 30
0.0
 11
-24.15567427
 21
-28.85251845
 31
0.0
  0
LINE
  5
3DF
100
AcDbEntity
  8
レイヤー_1
  6
CONTINUOUS
 62
       3
100
AcDbLine
 10
-24.15567427
 20
-28.85251845
 30
0.0
 11
-24.32913835
 21
-28.94384556
 31
0.0
  0
LINE
  5
3E0
100
AcDbEntity
  8
レイヤー_1
  6
CONTINUOUS
 62
       3
100
AcDbLine
 10
-24.32913835
 20
-28.94384556
 30
0.0
 11
-24.51667485
 21
-29.00070961
 31
0.0
  0
LINE
  5
3E1
100
AcDbEntity
  8
レイヤー_1
  6
CONTINUOUS
 62
       3
100
AcDbLine
 10
-24.51667485
 20
-29.00070961
 30
0.0
 11
-24.71196553
 21
-29.02023868
 31
0.0
  0
LINE
  5
3E2
100
AcDbEntity
  8
レイヤー_1
  6
CONTINUOUS
 62
       3
100
AcDbLine
 10
-24.71196553
 20
-29.02023868
 30
0.0
 11
-26.21110872
 21
-29.02023868
 31
0.0
  0
LINE
  5
3E3
100
AcDbEntity
  8
レイヤー_1
  6
CONTINUOUS
 62
       3
100
AcDbLine
 10
-26.21110872
 20
38.47911448
 30
0.0
 11
-26.21110872
 21
-39.52055928
 31
0.0
  0
LINE
  5
3E4
100
AcDbEntity
  8
レイヤー_1
  6
CONTINUOUS
 62
       3
100
AcDbLine
 10
-26.21110872
 20
-39.52055928
 30
0.0
 11
-18.37564439
 21
-50.71014112
 31
0.0
  0
LINE
  5
3E5
100
AcDbEntity
  8
レイヤー_1
  6
CONTINUOUS
 62
       3
100
AcDbLine
 10
-18.37564439
 20
-50.71014112
 30
0.0
 11
-18.23549461
 21
-50.88934904
 31
0.0
  0
LINE
  5
3E6
100
AcDbEntity
  8
レイヤー_1
  6
CONTINUOUS
 62
       3
100
AcDbLine
 10
-18.23549461
 20
-50.88934904
 30
0.0
 11
-18.07323103
 21
-51.04845351
 31
0.0
  0
LINE
  5
3E7
100
AcDbEntity
  8
レイヤー_1
  6
CONTINUOUS
 62
       3
100
AcDbLine
 10
-18.07323103
 20
-51.04845351
 30
0.0
 11
-17.89201276
 21
-51.18860329
 31
0.0
  0
LINE
  5
3E8
100
AcDbEntity
  8
レイヤー_1
  6
CONTINUOUS
 62
       3
100
AcDbLine
 10
-17.89201276
 20
-51.18860329
 30
0.0
 11
-17.69758365
 21
-51.3057777
 31
0.0
  0
LINE
  5
3E9
100
AcDbEntity
  8
レイヤー_1
  6
CONTINUOUS
 62
       3
100
AcDbLine
 10
-17.69758365
 20
-51.3057777
 30
0.0
 11
-17.4899437
 21
-51.39825359
 31
0.0
  0
LINE
  5
3EA
100
AcDbEntity
  8
レイヤー_1
  6
CONTINUOUS
 62
       3
100
AcDbLine
 10
-17.4899437
 20
-51.39825359
 30
0.0
 11
-17.27225203
 21
-51.46603094
 31
0.0
  0
LINE
  5
3EB
100
AcDbEntity
  8
レイヤー_1
  6
CONTINUOUS
 62
       3
100
AcDbLine
 10
-17.27225203
 20
-51.46603094
 30
0.0
 11
-17.04824213
 21
-51.50681223
 31
0.0
  0
LINE
  5
3EC
100
AcDbEntity
  8
レイヤー_1
  6
CONTINUOUS
 62
       3
100
AcDbLine
 10
-17.04824213
 20
-51.50681223
 30
0.0
 11
-16.82049873
 21
-51.51944868
 31
0.0
  0
LINE
  5
3ED
100
AcDbEntity
  8
レイヤー_1
  6
CONTINUOUS
 62
       3
100
AcDbLine
 10
-16.82049873
 20
-51.51944868
 30
0.0
 11
-16.5717903
 21
-51.48441124
 31
0.0
  0
LINE
  5
3EE
100
AcDbEntity
  8
レイヤー_1
  6
CONTINUOUS
 62
       3
100
AcDbLine
 10
-16.5717903
 20
-51.48441124
 30
0.0
 11
-16.32710255
 21
-51.43386542
 31
0.0
  0
LINE
  5
3EF
100
AcDbEntity
  8
レイヤー_1
  6
CONTINUOUS
 62
       3
100
AcDbLine
 10
-16.32710255
 20
-51.43386542
 30
0.0
 11
-16.08586112
 21
-51.36781121
 31
0.0
  0
LINE
  5
3F0
100
AcDbEntity
  8
レイヤー_1
  6
CONTINUOUS
 62
       3
100
AcDbLine
 10
-16.08586112
 20
-51.36781121
 30
0.0
 11
-15.84835318
 21
-51.28854617
 31
0.0
  0
LINE
  5
3F1
100
AcDbEntity
  8
レイヤー_1
  6
CONTINUOUS
 62
       3
100
AcDbLine
 10
-15.84835318
 20
-51.28854617
 30
0.0
 11
-15.61773786
 21
-51.1920496
 31
0.0
  0
LINE
  5
3F2
100
AcDbEntity
  8
レイヤー_1
  6
CONTINUOUS
 62
       3
100
AcDbLine
 10
-15.61773786
 20
-51.1920496
 30
0.0
 11
-15.392292
 21
-51.0817678
 31
0.0
  0
LINE
  5
3F3
100
AcDbEntity
  8
レイヤー_1
  6
CONTINUOUS
 62
       3
100
AcDbLine
 10
-15.392292
 20
-51.0817678
 30
0.0
 11
-15.17488751
 21
-50.95770078
 31
0.0
  0
LINE
  5
3F4
100
AcDbEntity
  8
レイヤー_1
  6
CONTINUOUS
 62
       3
100
AcDbLine
 10
-15.17488751
 20
-50.95770078
 30
0.0
 11
-14.96552441
 21
-50.82042291
 31
0.0
  0
LINE
  5
3F5
100
AcDbEntity
  8
レイヤー_1
  6
CONTINUOUS
 62
       3
100
AcDbLine
 10
-14.96552441
 20
-50.82042291
 30
0.0
 11
-11.59159065
 21
-48.45912879
 31
0.0
  0
LINE
  5
3F6
100
AcDbEntity
  8
レイヤー_1
  6
CONTINUOUS
 62
       3
100
AcDbLine
 10
-11.59159065
 20
-48.45912879
 30
0.0
 11
-10.2446593
 21
-46.52058155
 31
0.0
  0
LINE
  5
3F7
100
AcDbEntity
  8
レイヤー_1
  6
CONTINUOUS
 62
       3
100
AcDbLine
 10
-10.2446593
 20
-46.52058155
 30
0.0
 11
-0.80982171
 21
-46.52058155
 31
0.0
  0
LINE
  5
3F8
100
AcDbEntity
  8
レイヤー_1
  6
CONTINUOUS
 62
       3
100
AcDbLine
 10
-0.80982171
 20
-46.52058155
 30
0.0
 11
2.12384644
 21
-50.71014112
 31
0.0
  0
LINE
  5
3F9
100
AcDbEntity
  8
レイヤー_1
  6
CONTINUOUS
 62
       3
100
AcDbLine
 10
2.12384644
 20
-50.71014112
 30
0.0
 11
2.26457061
 21
-50.88934904
 31
0.0
  0
LINE
  5
3FA
100
AcDbEntity
  8
レイヤー_1
  6
CONTINUOUS
 62
       3
100
AcDbLine
 10
2.26457061
 20
-50.88934904
 30
0.0
 11
2.42740858
 21
-51.04845351
 31
0.0
  0
LINE
  5
3FB
100
AcDbEntity
  8
レイヤー_1
  6
CONTINUOUS
 62
       3
100
AcDbLine
 10
2.42740858
 20
-51.04845351
 30
0.0
 11
2.6066165
 21
-51.18860329
 31
0.0
  0
LINE
  5
3FC
100
AcDbEntity
  8
レイヤー_1
  6
CONTINUOUS
 62
       3
100
AcDbLine
 10
2.6066165
 20
-51.18860329
 30
0.0
 11
2.8013328
 21
-51.3057777
 31
0.0
  0
LINE
  5
3FD
100
AcDbEntity
  8
レイヤー_1
  6
CONTINUOUS
 62
       3
100
AcDbLine
 10
2.8013328
 20
-51.3057777
 30
0.0
 11
3.0106959
 21
-51.39825359
 31
0.0
  0
LINE
  5
3FE
100
AcDbEntity
  8
レイヤー_1
  6
CONTINUOUS
 62
       3
100
AcDbLine
 10
3.0106959
 20
-51.39825359
 30
0.0
 11
3.22838758
 21
-51.46603094
 31
0.0
  0
LINE
  5
3FF
100
AcDbEntity
  8
レイヤー_1
  6
CONTINUOUS
 62
       3
100
AcDbLine
 10
3.22838758
 20
-51.46603094
 30
0.0
 11
3.45325905
 21
-51.50681223
 31
0.0
  0
LINE
  5
400
100
AcDbEntity
  8
レイヤー_1
  6
CONTINUOUS
 62
       3
100
AcDbLine
 10
3.45325905
 20
-51.50681223
 30
0.0
 11
3.6795665
 21
-51.51944868
 31
0.0
  0
LINE
  5
401
100
AcDbEntity
  8
レイヤー_1
  6
CONTINUOUS
 62
       3
100
AcDbLine
 10
3.6795665
 20
-51.51944868
 30
0.0
 11
3.92770054
 21
-51.48441124
 31
0.0
  0
LINE
  5
402
100
AcDbEntity
  8
レイヤー_1
  6
CONTINUOUS
 62
       3
100
AcDbLine
 10
3.92770054
 20
-51.48441124
 30
0.0
 11
4.17296266
 21
-51.43386542
 31
0.0
  0
LINE
  5
403
100
AcDbEntity
  8
レイヤー_1
  6
CONTINUOUS
 62
       3
100
AcDbLine
 10
4.17296266
 20
-51.43386542
 30
0.0
 11
4.41477848
 21
-51.36781121
 31
0.0
  0
LINE
  5
404
100
AcDbEntity
  8
レイヤー_1
  6
CONTINUOUS
 62
       3
100
AcDbLine
 10
4.41477848
 20
-51.36781121
 30
0.0
 11
4.65113765
 21
-51.28854617
 31
0.0
  0
LINE
  5
405
100
AcDbEntity
  8
レイヤー_1
  6
CONTINUOUS
 62
       3
100
AcDbLine
 10
4.65113765
 20
-51.28854617
 30
0.0
 11
4.88232736
 21
-51.1920496
 31
0.0
  0
LINE
  5
406
100
AcDbEntity
  8
レイヤー_1
  6
CONTINUOUS
 62
       3
100
AcDbLine
 10
4.88232736
 20
-51.1920496
 30
0.0
 11
5.10777322
 21
-51.0817678
 31
0.0
  0
LINE
  5
407
100
AcDbEntity
  8
レイヤー_1
  6
CONTINUOUS
 62
       3
100
AcDbLine
 10
5.10777322
 20
-51.0817678
 30
0.0
 11
5.32460332
 21
-50.95770078
 31
0.0
  0
LINE
  5
408
100
AcDbEntity
  8
レイヤー_1
  6
CONTINUOUS
 62
       3
100
AcDbLine
 10
5.32460332
 20
-50.95770078
 30
0.0
 11
5.5345408
 21
-50.82042291
 31
0.0
  0
LINE
  5
409
100
AcDbEntity
  8
レイヤー_1
  6
CONTINUOUS
 62
       3
100
AcDbLine
 10
69.3184887
 20
44.65489519
 30
0.0
 11
68.99683346
 21
46.48000151
 31
0.0
  0
LINE
  5
40A
100
AcDbEntity
  8
レイヤー_1
  6
CONTINUOUS
 62
       3
100
AcDbLine
 10
68.99683346
 20
46.48000151
 30
0.0
 11
61.38968691
 21
46.48000151
 31
0.0
  0
LINE
  5
40B
100
AcDbEntity
  8
レイヤー_1
  6
CONTINUOUS
 62
       3
100
AcDbLine
 10
61.38968691
 20
46.48000151
 30
0.0
 11
60.6992769
 21
46.48000151
 31
0.0
  0
LINE
  5
40C
100
AcDbEntity
  8
レイヤー_1
  6
CONTINUOUS
 62
       3
100
AcDbLine
 10
60.6992769
 20
46.48000151
 30
0.0
 11
60.56831727
 21
46.47167294
 31
0.0
  0
LINE
  5
40D
100
AcDbEntity
  8
レイヤー_1
  6
CONTINUOUS
 62
       3
100
AcDbLine
 10
60.56831727
 20
46.47167294
 30
0.0
 11
60.44022955
 21
46.44525125
 31
0.0
  0
LINE
  5
40E
100
AcDbEntity
  8
レイヤー_1
  6
CONTINUOUS
 62
       3
100
AcDbLine
 10
60.44022955
 20
46.44525125
 30
0.0
 11
60.31673691
 21
46.40360839
 31
0.0
  0
LINE
  5
40F
100
AcDbEntity
  8
レイヤー_1
  6
CONTINUOUS
 62
       3
100
AcDbLine
 10
60.31673691
 20
46.40360839
 30
0.0
 11
60.19956251
 21
46.34588276
 31
0.0
  0
LINE
  5
410
100
AcDbEntity
  8
レイヤー_1
  6
CONTINUOUS
 62
       3
100
AcDbLine
 10
60.19956251
 20
46.34588276
 30
0.0
 11
60.09157825
 21
46.27293594
 31
0.0
  0
LINE
  5
411
100
AcDbEntity
  8
レイヤー_1
  6
CONTINUOUS
 62
       3
100
AcDbLine
 10
60.09157825
 20
46.27293594
 30
0.0
 11
59.99163536
 21
46.18706549
 31
0.0
  0
LINE
  5
412
100
AcDbEntity
  8
レイヤー_1
  6
CONTINUOUS
 62
       3
100
AcDbLine
 10
59.99163536
 20
46.18706549
 30
0.0
 11
59.90547771
 21
46.08827137
 31
0.0
  0
LINE
  5
413
100
AcDbEntity
  8
レイヤー_1
  6
CONTINUOUS
 62
       3
100
AcDbLine
 10
59.90547771
 20
46.08827137
 30
0.0
 11
59.83253089
 21
45.97942553
 31
0.0
  0
LINE
  5
414
100
AcDbEntity
  8
レイヤー_1
  6
CONTINUOUS
 62
       3
100
AcDbLine
 10
59.83253089
 20
45.97942553
 30
0.0
 11
59.54476433
 21
45.47942394
 31
0.0
  0
LINE
  5
415
100
AcDbEntity
  8
レイヤー_1
  6
CONTINUOUS
 62
       3
100
AcDbLine
 10
59.54476433
 20
45.47942394
 30
0.0
 11
51.25582354
 21
45.47942394
 31
0.0
  0
LINE
  5
416
100
AcDbEntity
  8
レイヤー_1
  6
CONTINUOUS
 62
       3
100
AcDbLine
 10
51.25582354
 20
45.47942394
 30
0.0
 11
49.90946658
 21
47.41883276
 31
0.0
  0
LINE
  5
417
100
AcDbEntity
  8
レイヤー_1
  6
CONTINUOUS
 62
       3
100
AcDbLine
 10
49.90946658
 20
47.41883276
 30
0.0
 11
46.53610721
 21
49.78127566
 31
0.0
  0
LINE
  5
418
100
AcDbEntity
  8
レイヤー_1
  6
CONTINUOUS
 62
       3
100
AcDbLine
 10
71.61889809
 20
14.97875253
 30
0.0
 11
71.78834147
 21
14.97875253
 31
0.0
  0
LINE
  5
419
100
AcDbEntity
  8
レイヤー_1
  6
CONTINUOUS
 62
       3
100
AcDbLine
 10
71.78834147
 20
14.97875253
 30
0.0
 11
71.98305777
 21
14.99885598
 31
0.0
  0
LINE
  5
41A
100
AcDbEntity
  8
レイヤー_1
  6
CONTINUOUS
 62
       3
100
AcDbLine
 10
71.98305777
 20
14.99885598
 30
0.0
 11
72.17145585
 21
15.05572004
 31
0.0
  0
LINE
  5
41B
100
AcDbEntity
  8
レイヤー_1
  6
CONTINUOUS
 62
       3
100
AcDbLine
 10
72.17145585
 20
15.05572004
 30
0.0
 11
72.34491992
 21
15.1487703
 31
0.0
  0
LINE
  5
41C
100
AcDbEntity
  8
レイヤー_1
  6
CONTINUOUS
 62
       3
100
AcDbLine
 10
72.34491992
 20
15.1487703
 30
0.0
 11
72.49540863
 21
15.27283733
 31
0.0
  0
LINE
  5
41D
100
AcDbEntity
  8
レイヤー_1
  6
CONTINUOUS
 62
       3
100
AcDbLine
 10
72.49540863
 20
15.27283733
 30
0.0
 11
72.61947565
 21
15.42418761
 31
0.0
  0
LINE
  5
41E
100
AcDbEntity
  8
レイヤー_1
  6
CONTINUOUS
 62
       3
100
AcDbLine
 10
72.61947565
 20
15.42418761
 30
0.0
 11
72.71252592
 21
15.59765169
 31
0.0
  0
LINE
  5
41F
100
AcDbEntity
  8
レイヤー_1
  6
CONTINUOUS
 62
       3
100
AcDbLine
 10
72.71252592
 20
15.59765169
 30
0.0
 11
72.76938997
 21
15.78461379
 31
0.0
  0
LINE
  5
420
100
AcDbEntity
  8
レイヤー_1
  6
CONTINUOUS
 62
       3
100
AcDbLine
 10
72.76938997
 20
15.78461379
 30
0.0
 11
72.78777027
 21
15.9793301
 31
0.0
  0
LINE
  5
421
100
AcDbEntity
  8
レイヤー_1
  6
CONTINUOUS
 62
       3
100
AcDbLine
 10
72.78777027
 20
15.9793301
 30
0.0
 11
72.78777027
 21
24.80474588
 31
0.0
  0
LINE
  5
422
100
AcDbEntity
  8
レイヤー_1
  6
CONTINUOUS
 62
       3
100
AcDbLine
 10
72.78777027
 20
24.80474588
 30
0.0
 11
69.3184887
 21
44.65489519
 31
0.0
  0
LINE
  5
423
100
AcDbEntity
  8
レイヤー_1
  6
CONTINUOUS
 62
       3
100
AcDbLine
 10
46.53610721
 20
49.78127566
 30
0.0
 11
46.32588253
 21
49.91855352
 31
0.0
  0
LINE
  5
424
100
AcDbEntity
  8
レイヤー_1
  6
CONTINUOUS
 62
       3
100
AcDbLine
 10
46.32588253
 20
49.91855352
 30
0.0
 11
46.10819085
 21
50.04262054
 31
0.0
  0
LINE
  5
425
100
AcDbEntity
  8
レイヤー_1
  6
CONTINUOUS
 62
       3
100
AcDbLine
 10
46.10819085
 20
50.04262054
 30
0.0
 11
45.88188341
 21
50.15146638
 31
0.0
  0
LINE
  5
426
100
AcDbEntity
  8
レイヤー_1
  6
CONTINUOUS
 62
       3
100
AcDbLine
 10
45.88188341
 20
50.15146638
 30
0.0
 11
45.65212967
 21
50.24767576
 31
0.0
  0
LINE
  5
427
100
AcDbEntity
  8
レイヤー_1
  6
CONTINUOUS
 62
       3
100
AcDbLine
 10
45.65212967
 20
50.24767576
 30
0.0
 11
45.41433454
 21
50.32780238
 31
0.0
  0
LINE
  5
428
100
AcDbEntity
  8
レイヤー_1
  6
CONTINUOUS
 62
       3
100
AcDbLine
 10
45.41433454
 20
50.32780238
 30
0.0
 11
45.17366749
 21
50.39299501
 31
0.0
  0
LINE
  5
429
100
AcDbEntity
  8
レイヤー_1
  6
CONTINUOUS
 62
       3
100
AcDbLine
 10
45.17366749
 20
50.39299501
 30
0.0
 11
44.92783097
 21
50.44411522
 31
0.0
  0
LINE
  5
42A
100
AcDbEntity
  8
レイヤー_1
  6
CONTINUOUS
 62
       3
100
AcDbLine
 10
44.92783097
 20
50.44411522
 30
0.0
 11
44.6808457
 21
50.47943985
 31
0.0
  0
LINE
  5
42B
100
AcDbEntity
  8
レイヤー_1
  6
CONTINUOUS
 62
       3
100
AcDbLine
 10
44.6808457
 20
50.47943985
 30
0.0
 11
44.45281511
 21
50.46594182
 31
0.0
  0
LINE
  5
42C
100
AcDbEntity
  8
レイヤー_1
  6
CONTINUOUS
 62
       3
100
AcDbLine
 10
44.45281511
 20
50.46594182
 30
0.0
 11
44.22995397
 21
50.42544772
 31
0.0
  0
LINE
  5
42D
100
AcDbEntity
  8
レイヤー_1
  6
CONTINUOUS
 62
       3
100
AcDbLine
 10
44.22995397
 20
50.42544772
 30
0.0
 11
44.01168791
 21
50.35853194
 31
0.0
  0
LINE
  5
42E
100
AcDbEntity
  8
レイヤー_1
  6
CONTINUOUS
 62
       3
100
AcDbLine
 10
44.01168791
 20
50.35853194
 30
0.0
 11
43.80318639
 21
50.26490729
 31
0.0
  0
LINE
  5
42F
100
AcDbEntity
  8
レイヤー_1
  6
CONTINUOUS
 62
       3
100
AcDbLine
 10
43.80318639
 20
50.26490729
 30
0.0
 11
43.60674693
 21
50.14830726
 31
0.0
  0
LINE
  5
430
100
AcDbEntity
  8
レイヤー_1
  6
CONTINUOUS
 62
       3
100
AcDbLine
 10
43.60674693
 20
50.14830726
 30
0.0
 11
43.42696463
 21
50.00901906
 31
0.0
  0
LINE
  5
431
100
AcDbEntity
  8
レイヤー_1
  6
CONTINUOUS
 62
       3
100
AcDbLine
 10
43.42696463
 20
50.00901906
 30
0.0
 11
43.26498824
 21
49.84790424
 31
0.0
  0
LINE
  5
432
100
AcDbEntity
  8
レイヤー_1
  6
CONTINUOUS
 62
       3
100
AcDbLine
 10
43.26498824
 20
49.84790424
 30
0.0
 11
43.12368968
 21
49.67013228
 31
0.0
  0
LINE
  5
433
100
AcDbEntity
  8
レイヤー_1
  6
CONTINUOUS
 62
       3
100
AcDbLine
 10
43.12368968
 20
49.67013228
 30
0.0
 11
40.18973434
 21
45.47942394
 31
0.0
  0
LINE
  5
434
100
AcDbEntity
  8
レイヤー_1
  6
CONTINUOUS
 62
       3
100
AcDbLine
 10
40.18973434
 20
45.47942394
 30
0.0
 11
30.7566199
 21
45.47942394
 31
0.0
  0
LINE
  5
435
100
AcDbEntity
  8
レイヤー_1
  6
CONTINUOUS
 62
       3
100
AcDbLine
 10
30.7566199
 20
45.47942394
 30
0.0
 11
29.40853979
 21
47.41883276
 31
0.0
  0
LINE
  5
436
100
AcDbEntity
  8
レイヤー_1
  6
CONTINUOUS
 62
       3
100
AcDbLine
 10
29.40853979
 20
47.41883276
 30
0.0
 11
26.0351804
 21
49.78127566
 31
0.0
  0
LINE
  5
437
100
AcDbEntity
  8
レイヤー_1
  6
CONTINUOUS
 62
       3
100
AcDbLine
 10
26.0351804
 20
49.78127566
 30
0.0
 11
25.82495573
 21
49.91855352
 31
0.0
  0
LINE
  5
438
100
AcDbEntity
  8
レイヤー_1
  6
CONTINUOUS
 62
       3
100
AcDbLine
 10
25.82495573
 20
49.91855352
 30
0.0
 11
25.60726406
 21
50.04262054
 31
0.0
  0
LINE
  5
439
100
AcDbEntity
  8
レイヤー_1
  6
CONTINUOUS
 62
       3
100
AcDbLine
 10
25.60726406
 20
50.04262054
 30
0.0
 11
25.38382854
 21
50.15146638
 31
0.0
  0
LINE
  5
43A
100
AcDbEntity
  8
レイヤー_1
  6
CONTINUOUS
 62
       3
100
AcDbLine
 10
25.38382854
 20
50.15146638
 30
0.0
 11
25.15235164
 21
50.24767576
 31
0.0
  0
LINE
  5
43B
100
AcDbEntity
  8
レイヤー_1
  6
CONTINUOUS
 62
       3
100
AcDbLine
 10
25.15235164
 20
50.24767576
 30
0.0
 11
24.91283336
 21
50.32780238
 31
0.0
  0
LINE
  5
43C
100
AcDbEntity
  8
レイヤー_1
  6
CONTINUOUS
 62
       3
100
AcDbLine
 10
24.91283336
 20
50.32780238
 30
0.0
 11
24.67274069
 21
50.39299501
 31
0.0
  0
LINE
  5
43D
100
AcDbEntity
  8
レイヤー_1
  6
CONTINUOUS
 62
       3
100
AcDbLine
 10
24.67274069
 20
50.39299501
 30
0.0
 11
24.42690418
 21
50.44411522
 31
0.0
  0
LINE
  5
43E
100
AcDbEntity
  8
レイヤー_1
  6
CONTINUOUS
 62
       3
100
AcDbLine
 10
24.42690418
 20
50.44411522
 30
0.0
 11
24.18049329
 21
50.47943985
 31
0.0
  0
LINE
  5
43F
100
AcDbEntity
  8
レイヤー_1
  6
CONTINUOUS
 62
       3
100
AcDbLine
 10
24.18049329
 20
50.47943985
 30
0.0
 11
23.9524627
 21
50.46594182
 31
0.0
  0
LINE
  5
440
100
AcDbEntity
  8
レイヤー_1
  6
CONTINUOUS
 62
       3
100
AcDbLine
 10
23.9524627
 20
50.46594182
 30
0.0
 11
23.72787841
 21
50.42544772
 31
0.0
  0
LINE
  5
441
100
AcDbEntity
  8
レイヤー_1
  6
CONTINUOUS
 62
       3
100
AcDbLine
 10
23.72787841
 20
50.42544772
 30
0.0
 11
23.51076112
 21
50.35853194
 31
0.0
  0
LINE
  5
442
100
AcDbEntity
  8
レイヤー_1
  6
CONTINUOUS
 62
       3
100
AcDbLine
 10
23.51076112
 20
50.35853194
 30
0.0
 11
23.30283398
 21
50.26490729
 31
0.0
  0
LINE
  5
443
100
AcDbEntity
  8
レイヤー_1
  6
CONTINUOUS
 62
       3
100
AcDbLine
 10
23.30283398
 20
50.26490729
 30
0.0
 11
23.1075433
 21
50.14830726
 31
0.0
  0
LINE
  5
444
100
AcDbEntity
  8
レイヤー_1
  6
CONTINUOUS
 62
       3
100
AcDbLine
 10
23.1075433
 20
50.14830726
 30
0.0
 11
22.92661222
 21
50.00901906
 31
0.0
  0
LINE
  5
445
100
AcDbEntity
  8
レイヤー_1
  6
CONTINUOUS
 62
       3
100
AcDbLine
 10
22.92661222
 20
50.00901906
 30
0.0
 11
22.76578459
 21
49.84790424
 31
0.0
  0
LINE
  5
446
100
AcDbEntity
  8
レイヤー_1
  6
CONTINUOUS
 62
       3
100
AcDbLine
 10
22.76578459
 20
49.84790424
 30
0.0
 11
22.62333728
 21
49.67013228
 31
0.0
  0
LINE
  5
447
100
AcDbEntity
  8
レイヤー_1
  6
CONTINUOUS
 62
       3
100
AcDbLine
 10
22.62333728
 20
49.67013228
 30
0.0
 11
19.68995632
 21
45.47942394
 31
0.0
  0
LINE
  5
448
100
AcDbEntity
  8
レイヤー_1
  6
CONTINUOUS
 62
       3
100
AcDbLine
 10
19.68995632
 20
45.47942394
 30
0.0
 11
10.25626749
 21
45.47942394
 31
0.0
  0
LINE
  5
449
100
AcDbEntity
  8
レイヤー_1
  6
CONTINUOUS
 62
       3
100
AcDbLine
 10
10.25626749
 20
45.47942394
 30
0.0
 11
8.90876177
 21
47.41883276
 31
0.0
  0
LINE
  5
44A
100
AcDbEntity
  8
レイヤー_1
  6
CONTINUOUS
 62
       3
100
AcDbLine
 10
8.90876177
 20
47.41883276
 30
0.0
 11
5.5345408
 21
49.78127566
 31
0.0
  0
LINE
  5
44B
100
AcDbEntity
  8
レイヤー_1
  6
CONTINUOUS
 62
       3
100
AcDbLine
 10
5.5345408
 20
49.78127566
 30
0.0
 11
5.32460332
 21
49.91855352
 31
0.0
  0
LINE
  5
44C
100
AcDbEntity
  8
レイヤー_1
  6
CONTINUOUS
 62
       3
100
AcDbLine
 10
5.32460332
 20
49.91855352
 30
0.0
 11
5.10777322
 21
50.04262054
 31
0.0
  0
LINE
  5
44D
100
AcDbEntity
  8
レイヤー_1
  6
CONTINUOUS
 62
       3
100
AcDbLine
 10
5.10777322
 20
50.04262054
 30
0.0
 11
4.88232736
 21
50.15146638
 31
0.0
  0
LINE
  5
44E
100
AcDbEntity
  8
レイヤー_1
  6
CONTINUOUS
 62
       3
100
AcDbLine
 10
4.88232736
 20
50.15146638
 30
0.0
 11
4.65113765
 21
50.24767576
 31
0.0
  0
LINE
  5
44F
100
AcDbEntity
  8
レイヤー_1
  6
CONTINUOUS
 62
       3
100
AcDbLine
 10
4.65113765
 20
50.24767576
 30
0.0
 11
4.41477848
 21
50.32780238
 31
0.0
  0
LINE
  5
450
100
AcDbEntity
  8
レイヤー_1
  6
CONTINUOUS
 62
       3
100
AcDbLine
 10
4.41477848
 20
50.32780238
 30
0.0
 11
4.17296266
 21
50.39299501
 31
0.0
  0
LINE
  5
451
100
AcDbEntity
  8
レイヤー_1
  6
CONTINUOUS
 62
       3
100
AcDbLine
 10
4.17296266
 20
50.39299501
 30
0.0
 11
3.92770054
 21
50.44411522
 31
0.0
  0
LINE
  5
452
100
AcDbEntity
  8
レイヤー_1
  6
CONTINUOUS
 62
       3
100
AcDbLine
 10
3.92770054
 20
50.44411522
 30
0.0
 11
3.6795665
 21
50.47943985
 31
0.0
  0
LINE
  5
453
100
AcDbEntity
  8
レイヤー_1
  6
CONTINUOUS
 62
       3
100
AcDbLine
 10
3.6795665
 20
50.47943985
 30
0.0
 11
3.45325905
 21
50.46594182
 31
0.0
  0
LINE
  5
454
100
AcDbEntity
  8
レイヤー_1
  6
CONTINUOUS
 62
       3
100
AcDbLine
 10
3.45325905
 20
50.46594182
 30
0.0
 11
3.22838758
 21
50.42544772
 31
0.0
  0
LINE
  5
455
100
AcDbEntity
  8
レイヤー_1
  6
CONTINUOUS
 62
       3
100
AcDbLine
 10
3.22838758
 20
50.42544772
 30
0.0
 11
3.0106959
 21
50.35853194
 31
0.0
  0
LINE
  5
456
100
AcDbEntity
  8
レイヤー_1
  6
CONTINUOUS
 62
       3
100
AcDbLine
 10
3.0106959
 20
50.35853194
 30
0.0
 11
2.8013328
 21
50.26490729
 31
0.0
  0
LINE
  5
457
100
AcDbEntity
  8
レイヤー_1
  6
CONTINUOUS
 62
       3
100
AcDbLine
 10
2.8013328
 20
50.26490729
 30
0.0
 11
2.6066165
 21
50.14830726
 31
0.0
  0
LINE
  5
458
100
AcDbEntity
  8
レイヤー_1
  6
CONTINUOUS
 62
       3
100
AcDbLine
 10
2.6066165
 20
50.14830726
 30
0.0
 11
2.42740858
 21
50.00901906
 31
0.0
  0
LINE
  5
459
100
AcDbEntity
  8
レイヤー_1
  6
CONTINUOUS
 62
       3
100
AcDbLine
 10
2.42740858
 20
50.00901906
 30
0.0
 11
2.26457061
 21
49.84790424
 31
0.0
  0
LINE
  5
45A
100
AcDbEntity
  8
レイヤー_1
  6
CONTINUOUS
 62
       3
100
AcDbLine
 10
2.26457061
 20
49.84790424
 30
0.0
 11
2.12384644
 21
49.67013228
 31
0.0
  0
LINE
  5
45B
100
AcDbEntity
  8
レイヤー_1
  6
CONTINUOUS
 62
       3
100
AcDbLine
 10
2.12384644
 20
49.67013228
 30
0.0
 11
-0.80982171
 21
45.47942394
 31
0.0
  0
LINE
  5
45C
100
AcDbEntity
  8
レイヤー_1
  6
CONTINUOUS
 62
       3
100
AcDbLine
 10
-0.80982171
 20
45.47942394
 30
0.0
 11
-10.2446593
 21
45.47942394
 31
0.0
  0
LINE
  5
45D
100
AcDbEntity
  8
レイヤー_1
  6
CONTINUOUS
 62
       3
100
AcDbLine
 10
-10.2446593
 20
45.47942394
 30
0.0
 11
-11.59159065
 21
47.41883276
 31
0.0
  0
LINE
  5
45E
100
AcDbEntity
  8
レイヤー_1
  6
CONTINUOUS
 62
       3
100
AcDbLine
 10
-11.59159065
 20
47.41883276
 30
0.0
 11
-14.96552441
 21
49.78127566
 31
0.0
  0
LINE
  5
45F
100
AcDbEntity
  8
レイヤー_1
  6
CONTINUOUS
 62
       3
100
AcDbLine
 10
-14.96552441
 20
49.78127566
 30
0.0
 11
-15.17488751
 21
49.91855352
 31
0.0
  0
LINE
  5
460
100
AcDbEntity
  8
レイヤー_1
  6
CONTINUOUS
 62
       3
100
AcDbLine
 10
-15.17488751
 20
49.91855352
 30
0.0
 11
-15.392292
 21
50.04262054
 31
0.0
  0
LINE
  5
461
100
AcDbEntity
  8
レイヤー_1
  6
CONTINUOUS
 62
       3
100
AcDbLine
 10
-15.392292
 20
50.04262054
 30
0.0
 11
-15.61773786
 21
50.15146638
 31
0.0
  0
LINE
  5
462
100
AcDbEntity
  8
レイヤー_1
  6
CONTINUOUS
 62
       3
100
AcDbLine
 10
-15.61773786
 20
50.15146638
 30
0.0
 11
-15.84835318
 21
50.24767576
 31
0.0
  0
LINE
  5
463
100
AcDbEntity
  8
レイヤー_1
  6
CONTINUOUS
 62
       3
100
AcDbLine
 10
-15.84835318
 20
50.24767576
 30
0.0
 11
-16.08586112
 21
50.32780238
 31
0.0
  0
LINE
  5
464
100
AcDbEntity
  8
レイヤー_1
  6
CONTINUOUS
 62
       3
100
AcDbLine
 10
-16.08586112
 20
50.32780238
 30
0.0
 11
-16.32710255
 21
50.39299501
 31
0.0
  0
LINE
  5
465
100
AcDbEntity
  8
レイヤー_1
  6
CONTINUOUS
 62
       3
100
AcDbLine
 10
-16.32710255
 20
50.39299501
 30
0.0
 11
-16.5717903
 21
50.44411522
 31
0.0
  0
LINE
  5
466
100
AcDbEntity
  8
レイヤー_1
  6
CONTINUOUS
 62
       3
100
AcDbLine
 10
-16.5717903
 20
50.44411522
 30
0.0
 11
-16.82049873
 21
50.47943985
 31
0.0
  0
LINE
  5
467
100
AcDbEntity
  8
レイヤー_1
  6
CONTINUOUS
 62
       3
100
AcDbLine
 10
-16.82049873
 20
50.47943985
 30
0.0
 11
-17.04824213
 21
50.46594182
 31
0.0
  0
LINE
  5
468
100
AcDbEntity
  8
レイヤー_1
  6
CONTINUOUS
 62
       3
100
AcDbLine
 10
-17.04824213
 20
50.46594182
 30
0.0
 11
-17.27225203
 21
50.42544772
 31
0.0
  0
LINE
  5
469
100
AcDbEntity
  8
レイヤー_1
  6
CONTINUOUS
 62
       3
100
AcDbLine
 10
-17.27225203
 20
50.42544772
 30
0.0
 11
-17.4899437
 21
50.35853194
 31
0.0
  0
LINE
  5
46A
100
AcDbEntity
  8
レイヤー_1
  6
CONTINUOUS
 62
       3
100
AcDbLine
 10
-17.4899437
 20
50.35853194
 30
0.0
 11
-17.69758365
 21
50.26490729
 31
0.0
  0
LINE
  5
46B
100
AcDbEntity
  8
レイヤー_1
  6
CONTINUOUS
 62
       3
100
AcDbLine
 10
-17.69758365
 20
50.26490729
 30
0.0
 11
-17.89201276
 21
50.14830726
 31
0.0
  0
LINE
  5
46C
100
AcDbEntity
  8
レイヤー_1
  6
CONTINUOUS
 62
       3
100
AcDbLine
 10
-17.89201276
 20
50.14830726
 30
0.0
 11
-18.07323103
 21
50.00901906
 31
0.0
  0
LINE
  5
46D
100
AcDbEntity
  8
レイヤー_1
  6
CONTINUOUS
 62
       3
100
AcDbLine
 10
-18.07323103
 20
50.00901906
 30
0.0
 11
-18.23549461
 21
49.84790424
 31
0.0
  0
LINE
  5
46E
100
AcDbEntity
  8
レイヤー_1
  6
CONTINUOUS
 62
       3
100
AcDbLine
 10
-18.23549461
 20
49.84790424
 30
0.0
 11
-18.37564439
 21
49.67013228
 31
0.0
  0
LINE
  5
46F
100
AcDbEntity
  8
レイヤー_1
  6
CONTINUOUS
 62
       3
100
AcDbLine
 10
-18.37564439
 20
49.67013228
 30
0.0
 11
-26.21110872
 21
38.47911448
 31
0.0
  0
LINE
  5
470
100
AcDbEntity
  8
レイヤー_1
  6
CONTINUOUS
 62
       3
100
AcDbLine
 10
-26.21110872
 20
24.7895247
 30
0.0
 11
-26.10369885
 21
24.62295323
 31
0.0
  0
LINE
  5
471
100
AcDbEntity
  8
レイヤー_1
  6
CONTINUOUS
 62
       3
100
AcDbLine
 10
-26.10369885
 20
24.62295323
 30
0.0
 11
-26.01897715
 21
24.44431969
 31
0.0
  0
LINE
  5
472
100
AcDbEntity
  8
レイヤー_1
  6
CONTINUOUS
 62
       3
100
AcDbLine
 10
-26.01897715
 20
24.44431969
 30
0.0
 11
-25.95952837
 21
24.25592161
 31
0.0
  0
LINE
  5
473
100
AcDbEntity
  8
レイヤー_1
  6
CONTINUOUS
 62
       3
100
AcDbLine
 10
-25.95952837
 20
24.25592161
 30
0.0
 11
-25.92305497
 21
24.06063093
 31
0.0
  0
LINE
  5
474
100
AcDbEntity
  8
レイヤー_1
  6
CONTINUOUS
 62
       3
100
AcDbLine
 10
-25.92305497
 20
24.06063093
 30
0.0
 11
-25.91472639
 21
23.86361709
 31
0.0
  0
LINE
  5
475
100
AcDbEntity
  8
レイヤー_1
  6
CONTINUOUS
 62
       3
100
AcDbLine
 10
-25.91472639
 20
23.86361709
 30
0.0
 11
-25.93109634
 21
23.66545449
 31
0.0
  0
LINE
  5
476
100
AcDbEntity
  8
レイヤー_1
  6
CONTINUOUS
 62
       3
100
AcDbLine
 10
-25.93109634
 20
23.66545449
 30
0.0
 11
-25.97417518
 21
23.47303572
 31
0.0
  0
LINE
  5
477
100
AcDbEntity
  8
レイヤー_1
  6
CONTINUOUS
 62
       3
100
AcDbLine
 10
-25.97417518
 20
23.47303572
 30
0.0
 11
-26.04109095
 21
23.286648
 31
0.0
  0
LINE
  5
478
100
AcDbEntity
  8
レイヤー_1
  6
CONTINUOUS
 62
       3
100
AcDbLine
 10
-26.15539344
 20
22.00864279
 30
0.0
 11
-26.18755896
 21
22.16860883
 31
0.0
  0
LINE
  5
479
100
AcDbEntity
  8
レイヤー_1
  6
CONTINUOUS
 62
       3
100
AcDbLine
 10
-26.18755896
 20
22.16860883
 30
0.0
 11
-26.20593926
 21
22.33087241
 31
0.0
  0
LINE
  5
47A
100
AcDbEntity
  8
レイヤー_1
  6
CONTINUOUS
 62
       3
100
AcDbLine
 10
-26.20593926
 20
22.33087241
 30
0.0
 11
-26.21110872
 21
22.49514634
 31
0.0
  0
LINE
  5
47B
100
AcDbEntity
  8
レイヤー_1
  6
CONTINUOUS
 62
       3
100
AcDbLine
 10
-26.21110872
 20
22.49514634
 30
0.0
 11
-26.20364172
 21
22.65683554
 31
0.0
  0
LINE
  5
47C
100
AcDbEntity
  8
レイヤー_1
  6
CONTINUOUS
 62
       3
100
AcDbLine
 10
-26.20364172
 20
22.65683554
 30
0.0
 11
-26.18181512
 21
22.81967351
 31
0.0
  0
LINE
  5
47D
100
AcDbEntity
  8
レイヤー_1
  6
CONTINUOUS
 62
       3
100
AcDbLine
 10
-26.18181512
 20
22.81967351
 30
0.0
 11
-26.14821363
 21
22.9779164
 31
0.0
  0
LINE
  5
47E
100
AcDbEntity
  8
レイヤー_1
  6
CONTINUOUS
 62
       3
100
AcDbLine
 10
-26.14821363
 20
22.9779164
 30
0.0
 11
-26.10111412
 21
23.13501053
 31
0.0
  0
LINE
  5
47F
100
AcDbEntity
  8
レイヤー_1
  6
CONTINUOUS
 62
       3
100
AcDbLine
 10
-26.10111412
 20
23.13501053
 30
0.0
 11
-26.04109095
 21
23.286648
 31
0.0
  0
LINE
  5
480
100
AcDbEntity
  8
レイヤー_1
  6
CONTINUOUS
 62
       3
100
AcDbLine
 10
-26.15539344
 20
22.00864279
 30
0.0
 11
-26.14132102
 21
21.96929746
 31
0.0
  0
LINE
  5
481
100
AcDbEntity
  8
レイヤー_1
  6
CONTINUOUS
 62
       3
100
AcDbLine
 10
-26.14132102
 20
21.96929746
 30
0.0
 11
-26.11949442
 21
21.93397281
 31
0.0
  0
LINE
  5
482
100
AcDbEntity
  8
レイヤー_1
  6
CONTINUOUS
 62
       3
100
AcDbLine
 10
-26.11949442
 20
21.93397281
 30
0.0
 11
-26.08933923
 21
21.90266887
 31
0.0
  0
LINE
  5
483
100
AcDbEntity
  8
レイヤー_1
  6
CONTINUOUS
 62
       3
100
AcDbLine
 10
-26.08933923
 20
21.90266887
 30
0.0
 11
-26.05545056
 21
21.87911911
 31
0.0
  0
LINE
  5
484
100
AcDbEntity
  8
レイヤー_1
  6
CONTINUOUS
 62
       3
100
AcDbLine
 10
-26.05545056
 20
21.87911911
 30
0.0
 11
-26.01639242
 21
21.86389792
 31
0.0
  0
LINE
  5
485
100
AcDbEntity
  8
レイヤー_1
  6
CONTINUOUS
 62
       3
100
AcDbLine
 10
-26.01639242
 20
21.86389792
 30
0.0
 11
-25.97474955
 21
21.85700532
 31
0.0
  0
LINE
  5
486
100
AcDbEntity
  8
レイヤー_1
  6
CONTINUOUS
 62
       3
100
AcDbLine
 10
-25.97474955
 20
21.85700532
 30
0.0
 11
-25.93310669
 21
21.85815408
 31
0.0
  0
LINE
  5
487
100
AcDbEntity
  8
レイヤー_1
  6
CONTINUOUS
 62
       3
100
AcDbLine
 10
-25.93310669
 20
21.85815408
 30
0.0
 11
-25.89289978
 21
21.86791862
 31
0.0
  0
LINE
  5
488
100
AcDbEntity
  8
レイヤー_1
  6
CONTINUOUS
 62
       3
100
AcDbLine
 10
-25.83890766
 20
21.88744769
 30
0.0
 11
-25.71886132
 21
21.93914228
 31
0.0
  0
LINE
  5
489
100
AcDbEntity
  8
レイヤー_1
  6
CONTINUOUS
 62
       3
100
AcDbLine
 10
-25.71886132
 20
21.93914228
 30
0.0
 11
-25.60771795
 21
22.0080684
 31
0.0
  0
LINE
  5
48A
100
AcDbEntity
  8
レイヤー_1
  6
CONTINUOUS
 62
       3
100
AcDbLine
 10
-25.60771795
 20
22.0080684
 30
0.0
 11
-25.50547753
 21
22.09049256
 31
0.0
  0
LINE
  5
48B
100
AcDbEntity
  8
レイヤー_1
  6
CONTINUOUS
 62
       3
100
AcDbLine
 10
-25.50547753
 20
22.09049256
 30
0.0
 11
-25.41529918
 21
22.18383002
 31
0.0
  0
LINE
  5
48C
100
AcDbEntity
  8
レイヤー_1
  6
CONTINUOUS
 62
       3
100
AcDbLine
 10
-25.41529918
 20
22.18383002
 30
0.0
 11
-25.33718291
 21
22.28980393
 31
0.0
  0
LINE
  5
48D
100
AcDbEntity
  8
レイヤー_1
  6
CONTINUOUS
 62
       3
100
AcDbLine
 10
-25.33718291
 20
22.28980393
 30
0.0
 11
-25.2748622
 21
22.40439361
 31
0.0
  0
LINE
  5
48E
100
AcDbEntity
  8
レイヤー_1
  6
CONTINUOUS
 62
       3
100
AcDbLine
 10
-25.2748622
 20
22.40439361
 30
0.0
 11
-25.2271883
 21
22.52731187
 31
0.0
  0
LINE
  5
48F
100
AcDbEntity
  8
レイヤー_1
  6
CONTINUOUS
 62
       3
100
AcDbLine
 10
-25.2271883
 20
22.52731187
 30
0.0
 11
-25.19732032
 21
22.65396362
 31
0.0
  0
LINE
  5
490
100
AcDbEntity
  8
レイヤー_1
  6
CONTINUOUS
 62
       3
100
AcDbLine
 10
-25.16084691
 20
22.16688568
 30
0.0
 11
-25.20765924
 21
22.57153946
 31
0.0
  0
LINE
  5
491
100
AcDbEntity
  8
レイヤー_1
  6
CONTINUOUS
 62
       3
100
AcDbLine
 10
-25.20765924
 20
22.57153946
 30
0.0
 11
-25.19732032
 21
22.65396362
 31
0.0
  0
LINE
  5
492
100
AcDbEntity
  8
レイヤー_1
  6
CONTINUOUS
 62
       3
100
AcDbLine
 10
-25.16084691
 20
22.16688568
 30
0.0
 11
-25.16084691
 21
20.18640838
 31
0.0
  0
LINE
  5
493
100
AcDbEntity
  8
レイヤー_1
  6
CONTINUOUS
 62
       3
100
AcDbLine
 10
69.7923558
 20
7.95948838
 30
0.0
 11
69.7923558
 21
8.96293787
 31
0.0
  0
LINE
  5
494
100
AcDbEntity
  8
レイヤー_1
  6
CONTINUOUS
 62
       3
100
AcDbLine
 10
69.7923558
 20
-10.57847984
 30
0.0
 11
69.7923558
 21
-9.57617912
 31
0.0
  0
LINE
  5
495
100
AcDbEntity
  8
レイヤー_1
  6
CONTINUOUS
 62
       3
100
AcDbLine
 10
69.7923558
 20
8.96293787
 30
0.0
 11
68.79062947
 21
8.96293787
 31
0.0
  0
LINE
  5
496
100
AcDbEntity
  8
レイヤー_1
  6
CONTINUOUS
 62
       3
100
AcDbLine
 10
68.79062947
 20
-10.57847984
 30
0.0
 11
69.7923558
 21
-10.57847984
 31
0.0
  0
LINE
  5
497
100
AcDbEntity
  8
レイヤー_1
  6
CONTINUOUS
 62
       3
100
AcDbLine
 10
69.7923558
 20
7.95948838
 30
0.0
 11
68.79062947
 21
7.95948838
 31
0.0
  0
LINE
  5
498
100
AcDbEntity
  8
レイヤー_1
  6
CONTINUOUS
 62
       3
100
AcDbLine
 10
68.79062947
 20
-9.57617912
 30
0.0
 11
69.7923558
 21
-9.57617912
 31
0.0
  0
LINE
  5
499
100
AcDbEntity
  8
レイヤー_1
  6
CONTINUOUS
 62
       3
100
AcDbLine
 10
69.7923558
 20
-9.57617912
 30
0.0
 11
69.7923558
 21
7.95948838
 31
0.0
  0
LINE
  5
49A
100
AcDbEntity
  8
レイヤー_1
  6
CONTINUOUS
 62
       3
100
AcDbLine
 10
75.78889128
 20
-20.17703748
 30
0.0
 11
75.78889128
 21
-48.52058791
 31
0.0
  0
LINE
  5
49B
100
AcDbEntity
  8
レイヤー_1
  6
CONTINUOUS
 62
       3
100
AcDbLine
 10
-65.44286522
 20
-51.74013722
 30
0.0
 11
-65.44286522
 21
50.25986278
 31
0.0
  0
LINE
  5
49C
100
AcDbEntity
  8
レイヤー_1
  6
CONTINUOUS
 62
       3
100
AcDbLine
 10
-72.94286522
 20
-51.74013722
 30
0.0
 11
-72.94286522
 21
50.25986278
 31
0.0
  0
LINE
  5
49D
100
AcDbEntity
  8
レイヤー_1
  6
CONTINUOUS
 62
       3
100
AcDbLine
 10
-65.44286522
 20
50.25986278
 30
0.0
 11
-72.94286522
 21
50.25986278
 31
0.0
  0
LINE
  5
49E
100
AcDbEntity
  8
レイヤー_1
  6
CONTINUOUS
 62
       3
100
AcDbLine
 10
-65.44286522
 20
-51.74013722
 30
0.0
 11
-72.94286522
 21
-51.74013722
 31
0.0
  0
LINE
  5
49F
100
AcDbEntity
  8
レイヤー_1
  6
CENTERX2
 62
       3
100
AcDbLine
 10
-69.19286522
 20
-56.05748417
 30
0.0
 11
-69.19286522
 21
56.05748417
 31
0.0
  0
LINE
  5
4A0
100
AcDbEntity
  8
レイヤー_1
  6
CENTERX2
 62
       3
100
AcDbLine
 10
-29.68326221
 20
-0.74013722
 30
0.0
 11
78.53735778
 21
-0.74013722
 31
0.0
  0
LINE
  5
4A1
100
AcDbEntity
  8
レイヤー_1
  6
CENTERX2
 62
       3
100
AcDbLine
 10
-58.79109355
 20
-0.74013722
 30
0.0
 11
-78.53735778
 21
-0.74013722
 31
0.0
  0
TEXT
  5
4A2
100
AcDbEntity
  8
0
 62
       7
100
AcDbText
 10
106.03303167
 20
-99.47556561
 30
0.0
 40
5.0
  1
000
 41
0.8
 72
       5
 11
118.03303167
 21
-99.47556561
 31
0.0
100
AcDbText
  0
ENDSEC
  0
SECTION
  2
OBJECTS
  0
DICTIONARY
  5
19
100
AcDbDictionary
  3
ACAD_GROUP
350
1A
  3
ACAD_MLINESTYLE
350
1B
  0
DICTIONARY
  5
1A
102
{ACAD_REACTORS
330
19
102
}
100
AcDbDictionary
  0
DICTIONARY
  5
1B
102
{ACAD_REACTORS
330
19
102
}
100
AcDbDictionary
  3
STANDARD
350
1C
  0
MLINESTYLE
  5
1C
102
{ACAD_REACTORS
330
1B
102
}
100
AcDbMlineStyle
  2
STANDARD
 70
       0
  3

 62
       0
 51
90.0
 52
90.0
 71
       2
 49
0.5
 62
     256
  6
BYLAYER
 49
-0.5
 62
     256
  6
BYLAYER
  0
ENDSEC
  0
EOF
