  0
SECTION
  2
HEADER
  9
$ACADVER
  1
AC1009
  9
$DWGCODEPAGE
  3
ansi_932
  9
$INSBASE
 10
0.0
 20
0.0
 30
0.0
  9
$EXTMIN
 10
-331.2283549392163
 20
-248.3152061575219
 30
0.0
  9
$EXTMAX
 10
327.8421049392164
 20
248.3152061575219
 30
0.0
  9
$LIMMIN
 10
-148.625
 20
-105.125
  9
$LIMMAX
 10
148.625
 20
105.125
  9
$ORTHOMODE
 70
     0
  9
$REGENMODE
 70
     1
  9
$FILLMODE
 70
     1
  9
$QTEXTMODE
 70
     0
  9
$MIRRTEXT
 70
     1
  9
$DRAGMODE
 70
     2
  9
$LTSCALE
 40
0.0625
  9
$OSMODE
 70
    37
  9
$ATTMODE
 70
     1
  9
$TEXTSIZE
 40
0.2
  9
$TRACEWID
 40
0.05
  9
$TEXTSTYLE
  7
STANDARD
  9
$CLAYER
  8
0
  9
$CELTYPE
  6
BYLAYER
  9
$CECOLOR
 62
   256
  9
$DIMSCALE
 40
1.0
  9
$DIMASZ
 40
0.7500004768371582
  9
$DIMEXO
 40
1.0
  9
$DIMDLI
 40
10.0
  9
$DIMRND
 40
0.0
  9
$DIMDLE
 40
0.0
  9
$DIMEXE
 40
1.0
  9
$DIMTP
 40
0.0
  9
$DIMTM
 40
0.0
  9
$DIMTXT
 40
0.875
  9
$DIMCEN
 40
0.0
  9
$DIMTSZ
 40
0.0
  9
$DIMTOL
 70
     0
  9
$DIMLIM
 70
     0
  9
$DIMTIH
 70
     0
  9
$DIMTOH
 70
     0
  9
$DIMSE1
 70
     0
  9
$DIMSE2
 70
     0
  9
$DIMTAD
 70
     1
  9
$DIMZIN
 70
     8
  9
$DIMBLK
  1

  9
$DIMASO
 70
     1
  9
$DIMSHO
 70
     1
  9
$DIMPOST
  1

  9
$DIMAPOST
  1

  9
$DIMALT
 70
     0
  9
$DIMALTD
 70
     2
  9
$DIMALTF
 40
0.0393700787401575
  9
$DIMLFAC
 40
1.0
  9
$DIMTOFL
 70
     0
  9
$DIMTVP
 40
0.0
  9
$DIMTIX
 70
     0
  9
$DIMSOXD
 70
     0
  9
$DIMSAH
 70
     0
  9
$DIMBLK1
  1

  9
$DIMBLK2
  1

  9
$DIMSTYLE
  2
STANDARD
  9
$DIMCLRD
 70
     0
  9
$DIMCLRE
 70
     0
  9
$DIMCLRT
 70
     0
  9
$DIMTFAC
 40
0.65
  9
$DIMGAP
 40
0.09
  9
$LUNITS
 70
     2
  9
$LUPREC
 70
     4
  9
$SKETCHINC
 40
0.1
  9
$FILLETRAD
 40
0.5
  9
$AUNITS
 70
     0
  9
$AUPREC
 70
     0
  9
$MENU
  1
.
  9
$ELEVATION
 40
0.0
  9
$PELEVATION
 40
0.0
  9
$THICKNESS
 40
0.0
  9
$LIMCHECK
 70
     0
  9
$CHAMFERA
 40
0.0
  9
$CHAMFERB
 40
0.0
  9
$SKPOLY
 70
     0
  9
$TDCREATE
 40
2459921.463055776
  9
$TDUPDATE
 40
2459921.463055776
  9
$TDINDWG
 40
0.0000000116
  9
$TDUSRTIMER
 40
0.0000000116
  9
$USRTIMER
 70
     1
  9
$ANGBASE
 50
0.0
  9
$ANGDIR
 70
     0
  9
$PDMODE
 70
     0
  9
$PDSIZE
 40
1.0
  9
$PLINEWID
 40
0.0
  9
$COORDS
 70
     1
  9
$SPLFRAME
 70
     0
  9
$SPLINETYPE
 70
     6
  9
$SPLINESEGS
 70
     8
  9
$ATTDIA
 70
     0
  9
$ATTREQ
 70
     1
  9
$HANDLING
 70
     1
  9
$HANDSEED
  5
6DF
  9
$SURFTAB1
 70
     6
  9
$SURFTAB2
 70
     6
  9
$SURFTYPE
 70
     6
  9
$SURFU
 70
     6
  9
$SURFV
 70
     6
  9
$UCSNAME
  2

  9
$UCSORG
 10
0.0
 20
0.0
 30
0.0
  9
$UCSXDIR
 10
1.0
 20
0.0
 30
0.0
  9
$UCSYDIR
 10
0.0
 20
1.0
 30
0.0
  9
$PUCSNAME
  2

  9
$PUCSORG
 10
0.0
 20
0.0
 30
0.0
  9
$PUCSXDIR
 10
1.0
 20
0.0
 30
0.0
  9
$PUCSYDIR
 10
0.0
 20
1.0
 30
0.0
  9
$USERI1
 70
     0
  9
$USERI2
 70
     0
  9
$USERI3
 70
     0
  9
$USERI4
 70
     0
  9
$USERI5
 70
     0
  9
$USERR1
 40
0.0
  9
$USERR2
 40
0.0
  9
$USERR3
 40
0.0
  9
$USERR4
 40
0.0
  9
$USERR5
 40
0.0
  9
$WORLDVIEW
 70
     1
  9
$SHADEDGE
 70
     3
  9
$SHADEDIF
 70
    70
  9
$TILEMODE
 70
     1
  9
$MAXACTVP
 70
    64
  9
$PLIMCHECK
 70
     0
  9
$PEXTMIN
 10
1.000000000000000E+20
 20
1.000000000000000E+20
 30
1.000000000000000E+20
  9
$PEXTMAX
 10
-1.000000000000000E+20
 20
-1.000000000000000E+20
 30
-1.000000000000000E+20
  9
$PLIMMIN
 10
0.0
 20
0.0
  9
$PLIMMAX
 10
12.0
 20
9.0
  9
$UNITMODE
 70
     0
  9
$VISRETAIN
 70
     0
  9
$PLINEGEN
 70
     1
  9
$PSLTSCALE
 70
     0
  0
ENDSEC
  0
SECTION
  2
TABLES
  0
TABLE
  2
VPORT
 70
     1
  0
VPORT
  2
*ACTIVE
 70
     0
 10
0.0
 20
0.0
 11
1.0
 21
1.0
 12
0.0
 22
0.0
 13
0.0
 23
0.0
 14
0.5
 24
0.5
 15
0.5
 25
0.5
 16
0.0
 26
0.0
 36
1.0
 17
-0.0000000000000036
 27
0.0
 37
0.0
 40
168.8543401871149
 41
1.347539726290259
 42
50.0
 43
0.0
 44
0.0
 50
0.0
 51
0.0
 71
     0
 72
  1000
 73
     1
 74
     1
 75
     0
 76
     0
 77
     0
 78
     0
  0
ENDTAB
  0
TABLE
  2
LTYPE
 70
    67
  0
LTYPE
  2
CONTINUOUS
 70
     0
  3
Solid line
 72
    65
 73
     0
 40
0.0
  0
LTYPE
  2
HIDDENX2
 70
     0
  3
Hidden (2x) ____ ____ ____ ____ ____ ____ ____ 
 72
    65
 73
     2
 40
19.05
 49
12.7
 49
-6.35
  0
LTYPE
  2
HIDDEN
 70
     0
  3
Hidden __ __ __ __ __ __ __ __ __ __ __ __ __ __
 72
    65
 73
     2
 40
9.524999999999999
 49
6.35
 49
-3.175
  0
LTYPE
  2
HIDDEN2
 70
     0
  3
Hidden (.5x) _ _ _ _ _ _ _ _ _ _ _ _ _ _ _ _ _ 
 72
    65
 73
     2
 40
4.762499999999999
 49
3.175
 49
-1.5875
  0
LTYPE
  2
DASHED
 70
     0
  3
Dashed __ __ __ __ __ __ __ __ __ __ __ __ __ _
 72
    65
 73
     2
 40
19.05
 49
12.7
 49
-6.35
  0
LTYPE
  2
DASHED2
 70
     0
  3
Dashed (.5x) _ _ _ _ _ _ _ _ _ _ _ _ _ _ _ _ _ 
 72
    65
 73
     2
 40
9.524999999999999
 49
6.35
 49
-3.175
  0
LTYPE
  2
DASHEDX2
 70
     0
  3
Dashed (2x) ____  ____  ____  ____  ____  ___
 72
    65
 73
     2
 40
38.09999999999999
 49
25.4
 49
-12.7
  0
LTYPE
  2
DOTX2
 70
     0
  3
Dot (2x) .  .  .  .  .  .  .  .  .  .  .  .  .  .
 72
    65
 73
     2
 40
12.7
 49
0.0
 49
-12.7
  0
LTYPE
  2
DOT
 70
     0
  3
Dot . . . . . . . . . . . . . . . . . . . . . . . .
 72
    65
 73
     2
 40
6.35
 49
0.0
 49
-6.35
  0
LTYPE
  2
DOT2
 70
     0
  3
Dot (.5x) ........................................
 72
    65
 73
     2
 40
3.175
 49
0.0
 49
-3.175
  0
LTYPE
  2
CENTERX2
 70
     0
  3
Center (2x) ________  __  ________  __  _____
 72
    65
 73
     4
 40
101.6
 49
63.5
 49
-12.7
 49
12.7
 49
-12.7
  0
LTYPE
  2
CENTER
 70
     0
  3
Center ____ _ ____ _ ____ _ ____ _ ____ _ ____
 72
    65
 73
     4
 40
50.8
 49
31.75
 49
-6.35
 49
6.35
 49
-6.35
  0
LTYPE
  2
CENTER2
 70
     0
  3
Center (.5x) ___ _ ___ _ ___ _ ___ _ ___ _ ___
 72
    65
 73
     4
 40
28.575
 49
19.05
 49
-3.175
 49
3.175
 49
-3.175
  0
LTYPE
  2
DASHDOTX2
 70
     0
  3
Dash dot (2x) ____  .  ____  .  ____  .  ___
 72
    65
 73
     4
 40
50.8
 49
25.4
 49
-12.7
 49
0.0
 49
-12.7
  0
LTYPE
  2
DASHDOT
 70
     0
  3
Dash dot __ . __ . __ . __ . __ . __ . __ . __
 72
    65
 73
     4
 40
25.4
 49
12.7
 49
-6.35
 49
0.0
 49
-6.35
  0
LTYPE
  2
DASHDOT2
 70
     0
  3
Dash dot (.5x) _._._._._._._._._._._._._._._.
 72
    65
 73
     4
 40
12.7
 49
6.35
 49
-3.175
 49
0.0
 49
-3.175
  0
LTYPE
  2
DIVIDEX2
 70
     0
  3
Divide (2x) ________  .  .  ________  .  .  _
 72
    65
 73
     6
 40
63.5
 49
25.4
 49
-12.7
 49
0.0
 49
-12.7
 49
0.0
 49
-12.7
  0
LTYPE
  2
DIVIDE
 70
     0
  3
Divide ____ . . ____ . . ____ . . ____ . . ____
 72
    65
 73
     6
 40
31.75
 49
12.7
 49
-6.35
 49
0.0
 49
-6.35
 49
0.0
 49
-6.35
  0
LTYPE
  2
DIVIDE2
 70
     0
  3
Divide (.5x) __..__..__..__..__..__..__..__.._
 72
    65
 73
     6
 40
15.875
 49
6.35
 49
-3.175
 49
0.0
 49
-3.175
 49
0.0
 49
-3.175
  0
LTYPE
  2
BORDERX2
 70
     0
  3
Border (2x) ____  ____  .  ____  ____  .  ___
 72
    65
 73
     6
 40
88.89999999999999
 49
25.4
 49
-12.7
 49
25.4
 49
-12.7
 49
0.0
 49
-12.7
  0
LTYPE
  2
BORDER
 70
     0
  3
Border __ __ . __ __ . __ __ . __ __ . __ __ .
 72
    65
 73
     6
 40
44.45
 49
12.7
 49
-6.35
 49
12.7
 49
-6.35
 49
0.0
 49
-6.35
  0
LTYPE
  2
BORDER2
 70
     0
  3
Border (.5x) __.__.__.__.__.__.__.__.__.__.__.
 72
    65
 73
     6
 40
22.225
 49
6.35
 49
-3.175
 49
6.35
 49
-3.175
 49
0.0
 49
-3.175
  0
LTYPE
  2
PHANTOMX2
 70
     0
  3
Phantom (2x) ____________    ____    ____   _
 72
    65
 73
     6
 40
127.0
 49
63.5
 49
-12.7
 49
12.7
 49
-12.7
 49
12.7
 49
-12.7
  0
LTYPE
  2
PHANTOM
 70
     0
  3
Phantom ______  __  __  ______  __  __  ______ 
 72
    65
 73
     6
 40
63.5
 49
31.75
 49
-6.35
 49
6.35
 49
-6.35
 49
6.35
 49
-6.35
  0
LTYPE
  2
PHANTOM2
 70
     0
  3
Phantom (.5x) ___ _ _ ___ _ _ ___ _ _ ___ _ _
 72
    65
 73
     6
 40
31.75
 49
15.875
 49
-3.175
 49
3.175
 49
-3.175
 49
3.175
 49
-3.175
  0
LTYPE
  2
ACAD_ISO06W100
 70
     0
  3
ISO long-dash triple-dot ____ ... ____ ... ____
 72
    65
 73
     8
 40
36.0
 49
24.0
 49
-3.0
 49
0.0
 49
-3.0
 49
0.0
 49
-3.0
 49
0.0
 49
-3.0
  0
LTYPE
  2
ACAD_ISO13W100
 70
     0
  3
ISO double-dash double-dot __ __ . . __ __ . . _
 72
    65
 73
     8
 40
36.0
 49
12.0
 49
-3.0
 49
12.0
 49
-3.0
 49
0.0
 49
-3.0
 49
0.0
 49
-3.0
  0
LTYPE
  2
ACAD_ISO14W100
 70
     0
  3
ISO dash triple-dot __ . . . __ . . . __ . . . _
 72
    65
 73
     8
 40
24.0
 49
12.0
 49
-3.0
 49
0.0
 49
-3.0
 49
0.0
 49
-3.0
 49
0.0
 49
-3.0
  0
LTYPE
  2
ACAD_ISO02W100
 70
     0
  3
ISO dash __ __ __ __ __ __ __ __ __ __ __ __ __
 72
    65
 73
     2
 40
15.0
 49
12.0
 49
-3.0
  0
LTYPE
  2
ACAD_ISO03W100
 70
     0
  3
ISO dash space __    __    __    __    __    __
 72
    65
 73
     2
 40
30.0
 49
12.0
 49
-18.0
  0
LTYPE
  2
ACAD_ISO04W100
 70
     0
  3
ISO long-dash dot ____ . ____ . ____ . ____ . _
 72
    65
 73
     4
 40
30.0
 49
24.0
 49
-3.0
 49
0.0
 49
-3.0
  0
LTYPE
  2
ACAD_ISO05W100
 70
     0
  3
ISO long-dash double-dot ____ .. ____ .. ____ . 
 72
    65
 73
     6
 40
33.0
 49
24.0
 49
-3.0
 49
0.0
 49
-3.0
 49
0.0
 49
-3.0
  0
LTYPE
  2
ACAD_ISO07W100
 70
     0
  3
ISO dot . . . . . . . . . . . . . . . . . . . . 
 72
    65
 73
     2
 40
3.0
 49
0.0
 49
-3.0
  0
LTYPE
  2
ACAD_ISO08W100
 70
     0
  3
ISO long-dash short-dash ____ __ ____ __ ____ _
 72
    65
 73
     4
 40
36.0
 49
24.0
 49
-3.0
 49
6.0
 49
-3.0
  0
LTYPE
  2
ACAD_ISO09W100
 70
     0
  3
ISO long-dash double-short-dash ____ __ __ ____
 72
    65
 73
     6
 40
45.0
 49
24.0
 49
-3.0
 49
6.0
 49
-3.0
 49
6.0
 49
-3.0
  0
LTYPE
  2
ACAD_ISO10W100
 70
     0
  3
ISO dash dot __ . __ . __ . __ . __ . __ . __ . 
 72
    65
 73
     4
 40
18.0
 49
12.0
 49
-3.0
 49
0.0
 49
-3.0
  0
LTYPE
  2
ACAD_ISO11W100
 70
     0
  3
ISO double-dash dot __ __ . __ __ . __ __ . __ _
 72
    65
 73
     6
 40
33.0
 49
12.0
 49
-3.0
 49
12.0
 49
-3.0
 49
0.0
 49
-3.0
  0
LTYPE
  2
ACAD_ISO12W100
 70
     0
  3
ISO dash double-dot __ . . __ . . __ . . __ . . 
 72
    65
 73
     6
 40
21.0
 49
12.0
 49
-3.0
 49
0.0
 49
-3.0
 49
0.0
 49
-3.0
  0
LTYPE
  2
ACAD_ISO15W100
 70
     0
  3
ISO double-dash triple-dot __ __ . . . __ __ . .
 72
    65
 73
    10
 40
39.0
 49
12.0
 49
-3.0
 49
12.0
 49
-3.0
 49
0.0
 49
-3.0
 49
0.0
 49
-3.0
 49
0.0
 49
-3.0
  0
LTYPE
  2
JIS_02_0_7
 70
     0
  3
HIDDEN0.75 _ _ _ _ _ _ _ _ _ _ _ _ _ _ _ _ _ 
 72
    65
 73
     2
 40
1.35
 49
0.75
 49
-0.6
  0
LTYPE
  2
JIS_02_1_0
 70
     0
  3
HIDDEN01 _ _ _ _ _ _ _ _ _ _ _ _ _ _ _ _ _ 
 72
    65
 73
     2
 40
2.0
 49
1.0
 49
-1.0
  0
LTYPE
  2
JIS_02_1_2
 70
     0
  3
HIDDEN01.25  _ _ _ _ _ _ _ _ _ _ _ _ _ _ _ _ _ 
 72
    65
 73
     2
 40
2.5
 49
1.25
 49
-1.25
  0
LTYPE
  2
JIS_02_2_0
 70
     0
  3
HIDDEN02 __ __ __ __ __ __ __ __ __ __ __ 
 72
    65
 73
     2
 40
3.0
 49
2.0
 49
-1.0
  0
LTYPE
  2
JIS_02_4_0
 70
     0
  3
HIDDEN04 ____ ____ ____ ____ ____ ____ ____ 
 72
    65
 73
     2
 40
5.5
 49
4.0
 49
-1.5
  0
LTYPE
  2
JIS_08_11
 70
     0
  3
1SASEN11 ___ _ ___ _ ___ _ ___ _ ___ _ ___
 72
    65
 73
     4
 40
12.8
 49
11.0
 49
-0.6
 49
0.6
 49
-0.6
  0
LTYPE
  2
JIS_08_15
 70
     0
  3
1SASEN15 ____ _ ____ _ ____ _ ____ _ ____ 
 72
    65
 73
     4
 40
17.25
 49
15.0
 49
-0.75
 49
0.75
 49
-0.75
  0
LTYPE
  2
JIS_08_25
 70
     0
  3
1SASEN25 ________  __  ________  __  _____
 72
    65
 73
     4
 40
28.0
 49
25.0
 49
-1.125
 49
0.75
 49
-1.125
  0
LTYPE
  2
JIS_08_37
 70
     0
  3
1SASEN37 ________  __  ________  __  _____
 72
    65
 73
     4
 40
40.5
 49
37.5
 49
-1.125
 49
0.75
 49
-1.125
  0
LTYPE
  2
JIS_08_50
 70
     0
  3
1SASEN50 _______________  __  ____________
 72
    65
 73
     4
 40
53.0
 49
50.0
 49
-1.125
 49
0.75
 49
-1.125
  0
LTYPE
  2
JIS_09_08
 70
     0
  3
2SASEN8 __ _ _ __ _ _ __ _ _ __ _ _ __ _ _ 
 72
    65
 73
     6
 40
10.75
 49
8.0
 49
-0.55
 49
0.55
 49
-0.55
 49
0.55
 49
-0.55
  0
LTYPE
  2
JIS_09_15
 70
     0
  3
2SASEN15 ___ _ _ ___ _ _ ___ _ _ ___ _ _ ___ 
 72
    65
 73
     6
 40
18.9
 49
15.0
 49
-0.9
 49
0.6
 49
-0.9
 49
0.6
 49
-0.9
  0
LTYPE
  2
JIS_09_29
 70
     0
  3
2SASEN29 ______　__  __  ______　__  __  ___
 72
    65
 73
     6
 40
34.0
 49
29.0
 49
-1.2
 49
0.7
 49
-1.2
 49
0.7
 49
-1.2
  0
LTYPE
  2
JIS_09_50
 70
     0
  3
2SASEN50 ____________　__  __  _____________
 72
    65
 73
     6
 40
55.0
 49
50.0
 49
-1.2
 49
0.7
 49
-1.2
 49
0.7
 49
-1.2
  0
LTYPE
  2
SXF_破線
 70
     0
  3
02 dashed -- -- -- -- -- --
 72
    65
 73
     2
 40
7.5
 49
6.0
 49
-1.5
  0
LTYPE
  2
SXF_跳び破線
 70
     0
  3
03 dashed_spaced --  --  --  --
 72
    65
 73
     2
 40
12.0
 49
6.0
 49
-6.0
  0
LTYPE
  2
SXF_一点長鎖線
 70
     0
  3
04 long_dashed_dotted ---- . ---- . ----
 72
    65
 73
     4
 40
15.25
 49
12.0
 49
-1.5
 49
0.25
 49
-1.5
  0
LTYPE
  2
SXF_二点長鎖線
 70
     0
  3
05 long_dashed_double-dotted ---- . . ---- 
 72
    65
 73
     6
 40
17.0
 49
12.0
 49
-1.5
 49
0.25
 49
-1.5
 49
0.25
 49
-1.5
  0
LTYPE
  2
SXF_三点長鎖線
 70
     0
  3
06 long_dashed_triplicate-dotted ---- ... ---- 
 72
    65
 73
     8
 40
18.75
 49
12.0
 49
-1.5
 49
0.25
 49
-1.5
 49
0.25
 49
-1.5
 49
0.25
 49
-1.5
  0
LTYPE
  2
SXF_点線
 70
     0
  3
07 dotted . . . . . . . . . . . . 
 72
    65
 73
     2
 40
1.75
 49
0.25
 49
-1.5
  0
LTYPE
  2
SXF_一点鎖線
 70
     0
  3
08 chain ---- - --- - --- - ---
 72
    65
 73
     4
 40
18.5
 49
12.0
 49
-1.5
 49
3.5
 49
-1.5
  0
LTYPE
  2
SXF_二点鎖線
 70
     0
  3
09 chain_double_dash ---- - - ---- - - ----
 72
    65
 73
     6
 40
23.5
 49
12.0
 49
-1.5
 49
3.5
 49
-1.5
 49
3.5
 49
-1.5
  0
LTYPE
  2
SXF_一点短鎖線
 70
     0
  3
10 dashed_dotted -- . -- . -- . --
 72
    65
 73
     4
 40
9.25
 49
6.0
 49
-1.5
 49
0.25
 49
-1.5
  0
LTYPE
  2
SXF_一点二短鎖線
 70
     0
  3
11 double-dashed_dotted -- -- . -- --
 72
    65
 73
     6
 40
16.75
 49
6.0
 49
-1.5
 49
6.0
 49
-1.5
 49
0.25
 49
-1.5
  0
LTYPE
  2
SXF_二点短鎖線
 70
     0
  3
12 dashed_double_dotted -- . . -- . . --
 72
    65
 73
     6
 40
11.0
 49
6.0
 49
-1.5
 49
0.25
 49
-1.5
 49
0.25
 49
-1.5
  0
LTYPE
  2
SXF_二点二短鎖線
 70
     0
  3
13 double-dashed_double-dotted -- -- . . -- --
 72
    65
 73
     8
 40
18.5
 49
6.0
 49
-1.5
 49
6.0
 49
-1.5
 49
0.25
 49
-1.5
 49
0.25
 49
-1.5
  0
LTYPE
  2
SXF_三点短鎖線
 70
     0
  3
14 dashed triplicate-dotted -- . . . -- . . . --
 72
    65
 73
     8
 40
12.75
 49
6.0
 49
-1.5
 49
0.25
 49
-1.5
 49
0.25
 49
-1.5
 49
0.25
 49
-1.5
  0
LTYPE
  2
SXF_三点二短鎖線
 70
     0
  3
15 double-dashed triplicate-dotted -- -- . . . -- -- 
 72
    65
 73
    10
 40
20.25
 49
6.0
 49
-1.5
 49
6.0
 49
-1.5
 49
0.25
 49
-1.5
 49
0.25
 49
-1.5
 49
0.25
 49
-1.5
  0
ENDTAB
  0
TABLE
  2
LAYER
 70
     1
  0
LAYER
  2
0
 70
     0
 62
     7
  6
CONTINUOUS
  0
ENDTAB
  0
TABLE
  2
STYLE
 70
     2
  0
STYLE
  2
STANDARD
 70
     0
 40
0.0
 41
1.0
 50
0.0
 71
     0
 42
0.2
  3
txt.shx
  4
bigfont.shx
  0
STYLE
  2
DCSTYLE0
 70
     0
 40
0.0
 41
0.6
 50
0.0
 71
     0
 42
0.2
  3
txt.shx
  4
bigfont
  0
ENDTAB
  0
TABLE
  2
VIEW
 70
     0
  0
ENDTAB
  0
TABLE
  2
UCS
 70
     0
  0
ENDTAB
  0
TABLE
  2
APPID
 70
     3
  0
APPID
  2
ACAD
 70
     0
  0
APPID
  2
DAFUSIONOUT
 70
     0
  0
APPID
  2
PLOTTRANSPARENCY
 70
     0
  0
ENDTAB
  0
TABLE
  2
DIMSTYLE
 70
     1
  0
DIMSTYLE
  2
STANDARD
 70
     0
  3

  4

  5

  6

  7

 40
1.0
 41
0.18
 42
0.0625
 43
0.38
 44
0.18
 45
0.0
 46
0.0
 47
0.0
 48
0.0
140
0.18
141
0.09
142
0.0
143
25.4
144
1.0
145
0.0
146
1.0
147
0.09
 71
     0
 72
     0
 73
     1
 74
     1
 75
     0
 76
     0
 77
     0
 78
     0
170
     0
171
     2
172
     0
173
     0
174
     0
175
     0
176
     0
177
     0
178
     0
  0
ENDTAB
  0
ENDSEC
  0
SECTION
  2
BLOCKS
  0
BLOCK
  8
0
  2
$MODEL_SPACE
 70
     0
 10
0.0
 20
0.0
 30
0.0
  3
$MODEL_SPACE
  1

  0
ENDBLK
  5
21
  8
0
  0
BLOCK
 67
     1
  8
0
  2
$PAPER_SPACE
 70
     0
 10
0.0
 20
0.0
 30
0.0
  3
$PAPER_SPACE
  1

  0
ENDBLK
  5
1D
 67
     1
  8
0
  0
ENDSEC
  0
SECTION
  2
ENTITIES
  0
LINE
  5
B2
  8
0
  6
CONTINUOUS
 62
     7
 10
76.70038850820544
 20
1.735722332359359
 30
0.0
 11
76.70038850820544
 21
0.7857220834593623
 31
0.0
  0
LINE
  5
B3
  8
0
  6
CONTINUOUS
 62
     7
 10
81.30038814460542
 20
0.7857220834593623
 30
0.0
 11
81.30038814460542
 21
3.285722493259357
 31
0.0
  0
LINE
  5
B4
  8
0
  6
CONTINUOUS
 62
     7
 10
81.30038814460542
 20
3.285722493259357
 30
0.0
 11
76.70038850820544
 21
3.285722493259357
 31
0.0
  0
LINE
  5
B5
  8
0
  6
CONTINUOUS
 62
     7
 10
76.70038850820544
 20
0.7857220834593623
 30
0.0
 11
81.30038814460542
 21
0.7857220834593623
 31
0.0
  0
LINE
  5
B6
  8
0
  6
CONTINUOUS
 62
     7
 10
76.70038850820544
 20
1.735722332359359
 30
0.0
 11
69.47302171800541
 21
1.735722332359359
 31
0.0
  0
LINE
  5
B7
  8
0
  6
CONTINUOUS
 62
     7
 10
76.70038850820544
 20
3.285722493259357
 30
0.0
 11
76.70038850820544
 21
2.33572224435936
 31
0.0
  0
LINE
  5
B8
  8
0
  6
CONTINUOUS
 62
     7
 10
69.47302171800541
 20
2.33572224435936
 30
0.0
 11
76.70038850820544
 21
2.33572224435936
 31
0.0
  0
LINE
  5
B9
  8
0
  6
CONTINUOUS
 62
     7
 10
75.40038885390541
 20
1.135722420259355
 30
0.0
 11
76.00038783470544
 21
1.735722332359359
 31
0.0
  0
LINE
  5
BA
  8
0
  6
CONTINUOUS
 62
     7
 10
76.00038783470544
 20
2.33572224435936
 30
0.0
 11
75.40038885390541
 21
2.935722156459363
 31
0.0
  0
LINE
  5
BB
  8
0
  6
CONTINUOUS
 62
     7
 10
69.20038821020543
 20
-0.5642774858406336
 30
0.0
 11
69.20038821020543
 21
-2.364278153440637
 31
0.0
  0
LINE
  5
BC
  8
0
  6
CONTINUOUS
 62
     7
 10
76.70038850820544
 20
-2.714277558940637
 30
0.0
 11
81.30038814460542
 21
-2.714277558940637
 31
0.0
  0
LINE
  5
BD
  8
0
  6
CONTINUOUS
 62
     7
 10
76.70038850820544
 20
-1.764277310040639
 30
0.0
 11
76.70038850820544
 21
-2.714277558940637
 31
0.0
  0
LINE
  5
BE
  8
0
  6
CONTINUOUS
 62
     7
 10
69.47302171800541
 20
-1.164277397940637
 30
0.0
 11
76.70038850820544
 21
-1.164277397940637
 31
0.0
  0
LINE
  5
BF
  8
0
  6
CONTINUOUS
 62
     7
 10
69.20038821020543
 20
-2.364278153440637
 30
0.0
 11
75.40038885390541
 21
-2.364278153440637
 31
0.0
  0
LINE
  5
C0
  8
0
  6
CONTINUOUS
 62
     7
 10
76.70038850820544
 20
-1.764277310040639
 30
0.0
 11
69.47302171800541
 21
-1.764277310040639
 31
0.0
  0
LINE
  5
C1
  8
0
  6
CONTINUOUS
 62
     7
 10
81.30038814460542
 20
-2.714277558940637
 30
0.0
 11
81.30038814460542
 21
-0.2142771491406417
 31
0.0
  0
LINE
  5
C2
  8
0
  6
CONTINUOUS
 62
     7
 10
76.70038850820544
 20
-0.2142771491406417
 30
0.0
 11
76.70038850820544
 21
-1.164277397940637
 31
0.0
  0
LINE
  5
C3
  8
0
  6
CONTINUOUS
 62
     7
 10
69.47302171800541
 20
-1.164277397940637
 30
0.0
 11
69.20038821020543
 21
-0.5642774858406336
 31
0.0
  0
LINE
  5
C4
  8
0
  6
CONTINUOUS
 62
     7
 10
75.40038885390541
 20
-2.364278153440637
 30
0.0
 11
76.00038783470544
 21
-1.764277310040639
 31
0.0
  0
LINE
  5
C5
  8
0
  6
CONTINUOUS
 62
     7
 10
69.20038821020543
 20
-2.364278153440637
 30
0.0
 11
69.47302171800541
 21
-1.764277310040639
 31
0.0
  0
LINE
  5
C6
  8
0
  6
CONTINUOUS
 62
     7
 10
76.00038783470544
 20
-1.164277397940637
 30
0.0
 11
75.40038885390541
 21
-0.5642774858406336
 31
0.0
  0
LINE
  5
C7
  8
0
  6
CONTINUOUS
 62
     7
 10
81.30038814460542
 20
-0.2142771491406417
 30
0.0
 11
76.70038850820544
 21
-0.2142771491406417
 31
0.0
  0
LINE
  5
C8
  8
0
  6
CONTINUOUS
 62
     7
 10
75.40038885390541
 20
-0.5642774858406336
 30
0.0
 11
69.20038821020543
 21
-0.5642774858406336
 31
0.0
  0
LINE
  5
C9
  8
0
  6
CONTINUOUS
 62
     7
 10
75.40038885390541
 20
-5.864276864540642
 30
0.0
 11
76.00038783470544
 21
-5.264276952440639
 31
0.0
  0
LINE
  5
CA
  8
0
  6
CONTINUOUS
 62
     7
 10
76.70038850820544
 20
-5.264276952440639
 30
0.0
 11
69.47302171800541
 21
-5.264276952440639
 31
0.0
  0
LINE
  5
CB
  8
0
  6
CONTINUOUS
 62
     7
 10
69.47302171800541
 20
-4.664277040340636
 30
0.0
 11
76.70038850820544
 21
-4.664277040340636
 31
0.0
  0
LINE
  5
CC
  8
0
  6
CONTINUOUS
 62
     7
 10
81.30038814460542
 20
-6.214277201240634
 30
0.0
 11
81.30038814460542
 21
-3.714276791440638
 31
0.0
  0
LINE
  5
CD
  8
0
  6
CONTINUOUS
 62
     7
 10
69.20038821020543
 20
-5.864277795840636
 30
0.0
 11
75.40038885390541
 21
-5.864276864540642
 31
0.0
  0
LINE
  5
CE
  8
0
  6
CONTINUOUS
 62
     7
 10
69.20038821020543
 20
-5.864277795840636
 30
0.0
 11
69.47302171800541
 21
-5.264276952440639
 31
0.0
  0
LINE
  5
CF
  8
0
  6
CONTINUOUS
 62
     7
 10
69.20038821020543
 20
-4.064277128240633
 30
0.0
 11
69.20038821020543
 21
-5.864277795840636
 31
0.0
  0
LINE
  5
D0
  8
0
  6
CONTINUOUS
 62
     7
 10
76.70038850820544
 20
-3.714276791440638
 30
0.0
 11
76.70038850820544
 21
-4.664277040340636
 31
0.0
  0
LINE
  5
D1
  8
0
  6
CONTINUOUS
 62
     7
 10
76.00038783470544
 20
-4.664277040340636
 30
0.0
 11
75.40038885390541
 21
-4.064277128240633
 31
0.0
  0
LINE
  5
D2
  8
0
  6
CONTINUOUS
 62
     7
 10
3.300389148905424
 20
32.78572339755935
 30
0.0
 11
15.85038914900542
 21
32.78572339755935
 31
0.0
  0
LINE
  5
D3
  8
0
  6
CONTINUOUS
 62
     7
 10
81.30038814460542
 20
-3.714276791440638
 30
0.0
 11
76.70038850820544
 21
-3.714276791440638
 31
0.0
  0
LINE
  5
D4
  8
0
  6
CONTINUOUS
 62
     7
 10
69.47302171800541
 20
-4.664277040340636
 30
0.0
 11
69.20038821020543
 21
-4.064277128240633
 31
0.0
  0
LINE
  5
D5
  8
0
  6
CONTINUOUS
 62
     7
 10
75.40038885390541
 20
-4.064277128240633
 30
0.0
 11
69.20038821020543
 21
-4.064277128240633
 31
0.0
  0
LINE
  5
D6
  8
0
  6
CONTINUOUS
 62
     7
 10
76.70038850820544
 20
-6.214277201240634
 30
0.0
 11
81.30038814460542
 21
-6.214277201240634
 31
0.0
  0
LINE
  5
D7
  8
0
  6
CONTINUOUS
 62
     7
 10
76.70038850820544
 20
-5.264276952440639
 30
0.0
 11
76.70038850820544
 21
-6.214277201240634
 31
0.0
  0
LINE
  5
D8
  8
0
  6
CONTINUOUS
 62
     7
 10
81.30038814460542
 20
-9.714276843640636
 30
0.0
 11
81.30038814460542
 21
-7.214276433840638
 31
0.0
  0
LINE
  5
D9
  8
0
  6
CONTINUOUS
 62
     7
 10
76.70038850820544
 20
-8.764276594840636
 30
0.0
 11
76.70038850820544
 21
-9.714276843640636
 31
0.0
  0
LINE
  5
DA
  8
0
  6
CONTINUOUS
 62
     7
 10
76.00038783470544
 20
-8.164276682740637
 30
0.0
 11
75.40038885390541
 21
-7.564276770640632
 31
0.0
  0
LINE
  5
DB
  8
0
  6
CONTINUOUS
 62
     7
 10
69.20038821020543
 20
-9.364277438240636
 30
0.0
 11
69.47302171800541
 21
-8.764277526140646
 31
0.0
  0
LINE
  5
DC
  8
0
  6
CONTINUOUS
 62
     7
 10
69.20038821020543
 20
-7.564276770640632
 30
0.0
 11
69.20038821020543
 21
-9.364277438240636
 31
0.0
  0
LINE
  5
DD
  8
0
  6
CONTINUOUS
 62
     7
 10
75.40038885390541
 20
-7.564276770640632
 30
0.0
 11
69.20038821020543
 21
-7.564276770640632
 31
0.0
  0
LINE
  5
DE
  8
0
  6
CONTINUOUS
 62
     7
 10
76.70038850820544
 20
-9.714276843640636
 30
0.0
 11
81.30038814460542
 21
-9.714276843640636
 31
0.0
  0
LINE
  5
DF
  8
0
  6
CONTINUOUS
 62
     7
 10
15.85038914900542
 20
32.78572339755935
 30
0.0
 11
15.85038914900542
 21
39.88572339475935
 31
0.0
  0
LINE
  5
E0
  8
0
  6
CONTINUOUS
 62
     7
 10
16.25038914900543
 20
40.28572339475935
 30
0.0
 11
15.85038914900542
 21
39.88572339475935
 31
0.0
  0
LINE
  5
E1
  8
0
  6
CONTINUOUS
 62
     7
 10
16.25038914900543
 20
40.28572339475935
 30
0.0
 11
25.65038914900543
 21
40.28572339475935
 31
0.0
  0
LINE
  5
E2
  8
0
  6
CONTINUOUS
 62
     7
 10
25.65038914900543
 20
40.28572339475935
 30
0.0
 11
26.0503891490054
 21
39.88572339475935
 31
0.0
  0
LINE
  5
E3
  8
0
  6
CONTINUOUS
 62
     7
 10
26.0503891490054
 20
39.88572339475935
 30
0.0
 11
26.0503891490054
 21
32.78572339755935
 31
0.0
  0
LINE
  5
E4
  8
0
  6
CONTINUOUS
 62
     7
 10
26.0503891490054
 20
32.78572339755935
 30
0.0
 11
38.60038914900542
 21
32.78572339755935
 31
0.0
  0
LINE
  5
E5
  8
0
  6
CONTINUOUS
 62
     7
 10
38.60038914900542
 20
32.78572339755935
 30
0.0
 11
38.60038914900542
 21
39.88572339475935
 31
0.0
  0
LINE
  5
E6
  8
0
  6
CONTINUOUS
 62
     7
 10
38.60038914900542
 20
39.88572339475935
 30
0.0
 11
39.00038914890541
 21
40.28572339475935
 31
0.0
  0
LINE
  5
E7
  8
0
  6
CONTINUOUS
 62
     7
 10
39.00038914890541
 20
40.28572339475935
 30
0.0
 11
41.45038971520543
 21
40.28572339475935
 31
0.0
  0
LINE
  5
E8
  8
0
  6
CONTINUOUS
 62
     7
 10
0.4503885827054152
 20
40.28572339475935
 30
0.0
 11
2.900389149005434
 21
40.28572339475935
 31
0.0
  0
LINE
  5
E9
  8
0
  6
CONTINUOUS
 62
     7
 10
3.300389148905424
 20
39.88572339475935
 30
0.0
 11
2.900389149005434
 21
40.28572339475935
 31
0.0
  0
LINE
  5
EA
  8
0
  6
CONTINUOUS
 62
     7
 10
3.300389148905424
 20
39.88572339475935
 30
0.0
 11
3.300389148905424
 21
32.78572339755935
 31
0.0
  0
LINE
  5
EB
  8
0
  6
CONTINUOUS
 62
     7
 10
14.45038914910544
 20
33.98572339475938
 30
0.0
 11
14.45038914910544
 21
32.78572339475936
 31
0.0
  0
LINE
  5
EC
  8
0
  6
CONTINUOUS
 62
     7
 10
5.550389148805407
 20
32.78572339755935
 30
0.0
 11
5.550389148805407
 21
33.98572339465936
 31
0.0
  0
LINE
  5
ED
  8
0
  6
CONTINUOUS
 62
     7
 10
36.35038914900542
 20
32.78572339755935
 30
0.0
 11
36.35038914900542
 21
33.98572339475938
 31
0.0
  0
LINE
  5
EE
  8
0
  6
CONTINUOUS
 62
     7
 10
27.45038914760542
 20
33.98572339475938
 30
0.0
 11
27.45038914760542
 21
32.78572339755935
 31
0.0
  0
LINE
  5
EF
  8
0
  6
CONTINUOUS
 62
     7
 10
27.85038914760543
 20
34.38572339475935
 30
0.0
 11
35.95038914900542
 21
34.38572339475935
 31
0.0
  0
LINE
  5
F0
  8
0
  6
CONTINUOUS
 62
     7
 10
35.95038914900542
 20
34.38572339475935
 30
0.0
 11
36.35038914900542
 21
33.98572339475938
 31
0.0
  0
LINE
  5
F1
  8
0
  6
CONTINUOUS
 62
     7
 10
27.85038914760543
 20
34.38572339475935
 30
0.0
 11
27.45038914760542
 21
33.98572339475938
 31
0.0
  0
LINE
  5
F2
  8
0
  6
CONTINUOUS
 62
     7
 10
5.950389149005417
 20
34.38572339475935
 30
0.0
 11
5.550389148805407
 21
33.98572339465936
 31
0.0
  0
LINE
  5
F3
  8
0
  6
CONTINUOUS
 62
     7
 10
5.950389149005417
 20
34.38572339475935
 30
0.0
 11
14.05038914910543
 21
34.38572339475935
 31
0.0
  0
LINE
  5
F4
  8
0
  6
CONTINUOUS
 62
     7
 10
14.45038914910544
 20
33.98572339475938
 30
0.0
 11
14.05038914910543
 21
34.38572339475935
 31
0.0
  0
LINE
  5
F5
  8
0
  6
CONTINUOUS
 62
     7
 10
69.47302171800541
 20
-8.164276682740637
 30
0.0
 11
69.20038821020543
 21
-7.564276770640632
 31
0.0
  0
LINE
  5
F6
  8
0
  6
CONTINUOUS
 62
     7
 10
76.70038850820544
 20
-8.764276594840636
 30
0.0
 11
69.47302171800541
 21
-8.764277526140646
 31
0.0
  0
LINE
  5
F7
  8
0
  6
CONTINUOUS
 62
     7
 10
69.47302171800541
 20
-8.164276682740637
 30
0.0
 11
76.70038850820544
 21
-8.164276682740637
 31
0.0
  0
LINE
  5
F8
  8
0
  6
CONTINUOUS
 62
     7
 10
75.40038885390541
 20
-9.364276506840636
 30
0.0
 11
76.00038783470544
 21
-8.764276594840636
 31
0.0
  0
LINE
  5
F9
  8
0
  6
CONTINUOUS
 62
     7
 10
76.70038850820544
 20
-7.214276433840638
 30
0.0
 11
76.70038850820544
 21
-8.164276682740637
 31
0.0
  0
LINE
  5
FA
  8
0
  6
CONTINUOUS
 62
     7
 10
69.20038821020543
 20
-9.364277438240636
 30
0.0
 11
75.40038885390541
 21
-9.364276506840636
 31
0.0
  0
LINE
  5
FB
  8
0
  6
CONTINUOUS
 62
     7
 10
81.30038814460542
 20
-7.214276433840638
 30
0.0
 11
76.70038850820544
 21
-7.214276433840638
 31
0.0
  0
LINE
  5
FC
  8
0
  6
CONTINUOUS
 62
     7
 10
76.70038850820544
 20
-12.26427623714063
 30
0.0
 11
76.70038850820544
 21
-13.21427648604064
 31
0.0
  0
LINE
  5
FD
  8
0
  6
CONTINUOUS
 62
     7
 10
69.20038821020543
 20
-12.86427708054065
 30
0.0
 11
75.40038885390541
 21
-12.86427708054065
 31
0.0
  0
LINE
  5
FE
  8
0
  6
CONTINUOUS
 62
     7
 10
81.30038814460542
 20
-13.21427648604064
 30
0.0
 11
81.30038814460542
 21
-10.71427607624064
 31
0.0
  0
LINE
  5
FF
  8
0
  6
CONTINUOUS
 62
     7
 10
69.20038821020543
 20
-12.86427708054065
 30
0.0
 11
69.47302171800541
 21
-12.26427716844065
 31
0.0
  0
LINE
  5
100
  8
0
  6
CONTINUOUS
 62
     7
 10
76.70038850820544
 20
-13.21427648604064
 30
0.0
 11
81.30038814460542
 21
-13.21427648604064
 31
0.0
  0
LINE
  5
101
  8
0
  6
CONTINUOUS
 62
     7
 10
81.30038814460542
 20
-10.71427607624064
 30
0.0
 11
76.70038850820544
 21
-10.71427607624064
 31
0.0
  0
LINE
  5
102
  8
0
  6
CONTINUOUS
 62
     7
 10
69.47302171800541
 20
-11.66427632504064
 30
0.0
 11
69.20038821020543
 21
-11.06427641304064
 31
0.0
  0
LINE
  5
103
  8
0
  6
CONTINUOUS
 62
     7
 10
76.00038783470544
 20
-11.66427632504064
 30
0.0
 11
75.40038885390541
 21
-11.06427641304064
 31
0.0
  0
LINE
  5
104
  8
0
  6
CONTINUOUS
 62
     7
 10
76.70038850820544
 20
-12.26427623714063
 30
0.0
 11
69.47302171800541
 21
-12.26427716844065
 31
0.0
  0
LINE
  5
105
  8
0
  6
CONTINUOUS
 62
     7
 10
75.40038885390541
 20
-11.06427641304064
 30
0.0
 11
69.20038821020543
 21
-11.06427641304064
 31
0.0
  0
LINE
  5
106
  8
0
  6
CONTINUOUS
 62
     7
 10
69.20038821020543
 20
-11.06427641304064
 30
0.0
 11
69.20038821020543
 21
-12.86427708054065
 31
0.0
  0
LINE
  5
107
  8
0
  6
CONTINUOUS
 62
     7
 10
75.40038885390541
 20
-12.86427708054065
 30
0.0
 11
76.00038783470544
 21
-12.26427623714063
 31
0.0
  0
LINE
  5
108
  8
0
  6
CONTINUOUS
 62
     7
 10
76.70038850820544
 20
-10.71427607624064
 30
0.0
 11
76.70038850820544
 21
-11.66427632504064
 31
0.0
  0
LINE
  5
109
  8
0
  6
CONTINUOUS
 62
     7
 10
69.47302171800541
 20
-11.66427632504064
 30
0.0
 11
76.70038850820544
 21
-11.66427632504064
 31
0.0
  0
LINE
  5
10A
  8
0
  6
CONTINUOUS
 62
     7
 10
41.45038971520543
 20
-53.71427982384065
 30
0.0
 11
79.76737226700541
 21
-53.71427982384065
 31
0.0
  0
LINE
  5
10B
  8
0
  6
CONTINUOUS
 62
     7
 10
79.76737226700541
 20
-53.71427982384065
 30
0.0
 11
83.66448996430543
 21
-51.46427949604064
 31
0.0
  0
LINE
  5
10C
  8
0
  6
CONTINUOUS
 62
     7
 10
83.30038847250543
 20
-54.71427863064065
 30
0.0
 11
83.30038847250543
 21
-55.71427693304064
 31
0.0
  0
LINE
  5
10D
  8
0
  6
CONTINUOUS
 62
     7
 10
90.80038812220542
 20
-24.81620170094063
 30
0.0
 11
90.70038805930542
 21
-24.78940755044065
 31
0.0
  0
LINE
  5
10E
  8
0
  6
CONTINUOUS
 62
     7
 10
86.80038816510543
 20
-24.31427843784065
 30
0.0
 11
86.80038816510543
 21
-24.41427826804064
 31
0.0
  0
LINE
  5
10F
  8
0
  6
CONTINUOUS
 62
     7
 10
86.80038817720543
 20
10.88572137135937
 30
0.0
 11
86.80038817720543
 21
-5.062007395640634
 31
0.0
  0
LINE
  5
110
  8
0
  6
CONTINUOUS
 62
     7
 10
86.80038816510543
 20
-8.366549697440636
 30
0.0
 11
86.80038816510543
 21
-24.31427843784065
 31
0.0
  0
LINE
  5
111
  8
0
  6
CONTINUOUS
 62
     7
 10
83.66448996430543
 20
-51.46427949604064
 30
0.0
 11
92.70038858270541
 21
-51.46427821454065
 31
0.0
  0
LINE
  5
112
  8
0
  6
CONTINUOUS
 62
     7
 10
93.70038858270541
 20
-50.46427821454065
 30
0.0
 11
93.70038858270541
 21
-26.36058164924065
 31
0.0
  0
LINE
  5
113
  8
0
  6
CONTINUOUS
 62
     7
 10
92.95920723800543
 20
-25.39465546524064
 30
0.0
 11
90.80038812220542
 21
-24.81620170094063
 31
0.0
  0
LINE
  5
114
  8
0
  6
CONTINUOUS
 62
     7
 10
88.74938711850541
 20
-21.43116861784064
 30
0.0
 11
88.71602481560541
 21
-21.52283124824064
 31
0.0
  0
LINE
  5
115
  8
0
  6
CONTINUOUS
 62
     7
 10
88.78146745590541
 20
-21.34302918064065
 30
0.0
 11
88.74938711850541
 21
-21.43116861784064
 31
0.0
  0
LINE
  5
116
  8
0
  6
CONTINUOUS
 62
     7
 10
88.81103275670543
 20
-21.26179829434064
 30
0.0
 11
88.78146745590541
 21
-21.34302918064065
 31
0.0
  0
LINE
  5
117
  8
0
  6
CONTINUOUS
 62
     7
 10
88.83694680740541
 20
-21.19059961484064
 30
0.0
 11
88.81103275670543
 21
-21.26179829434064
 31
0.0
  0
LINE
  5
118
  8
0
  6
CONTINUOUS
 62
     7
 10
88.85821448970543
 20
-21.13216843654063
 30
0.0
 11
88.83694680740541
 21
-21.19059961484064
 31
0.0
  0
LINE
  5
119
  8
0
  6
CONTINUOUS
 62
     7
 10
88.87401717110544
 20
-21.08875017814065
 30
0.0
 11
88.85821448970543
 21
-21.13216843654063
 31
0.0
  0
LINE
  5
11A
  8
0
  6
CONTINUOUS
 62
     7
 10
88.88374856070541
 20
-21.06201283834064
 30
0.0
 11
88.87401717110544
 21
-21.08875017814065
 31
0.0
  0
LINE
  5
11B
  8
0
  6
CONTINUOUS
 62
     7
 10
88.88703473240543
 20
-21.05298459724063
 30
0.0
 11
88.88374856070541
 21
-21.06201283834064
 31
0.0
  0
LINE
  5
11C
  8
0
  6
CONTINUOUS
 62
     7
 10
89.82344186300543
 20
-21.40403284154064
 30
0.0
 11
89.82672756900541
 21
-21.39500553184063
 31
0.0
  0
LINE
  5
11D
  8
0
  6
CONTINUOUS
 62
     7
 10
89.81371047340542
 20
-21.43077018134063
 30
0.0
 11
89.82344186300543
 21
-21.40403284154064
 31
0.0
  0
LINE
  5
11E
  8
0
  6
CONTINUOUS
 62
     7
 10
89.79790732630542
 20
-21.47418843974065
 30
0.0
 11
89.81371047340542
 21
-21.43077018134063
 31
0.0
  0
LINE
  5
11F
  8
0
  6
CONTINUOUS
 62
     7
 10
89.77664010960541
 20
-21.53261961814065
 30
0.0
 11
89.79790732630542
 21
-21.47418843974065
 31
0.0
  0
LINE
  5
120
  8
0
  6
CONTINUOUS
 62
     7
 10
89.75072559330542
 20
-21.60381922894064
 30
0.0
 11
89.77664010960541
 21
-21.53261961814065
 31
0.0
  0
LINE
  5
121
  8
0
  6
CONTINUOUS
 62
     7
 10
89.72116029250543
 20
-21.68504918394063
 30
0.0
 11
89.75072559330542
 21
-21.60381922894064
 31
0.0
  0
LINE
  5
122
  8
0
  6
CONTINUOUS
 62
     7
 10
89.68907995510543
 20
-21.77318955234064
 30
0.0
 11
89.72116029250543
 21
-21.68504918394063
 31
0.0
  0
LINE
  5
123
  8
0
  6
CONTINUOUS
 62
     7
 10
89.65571765220542
 20
-21.86485125144064
 30
0.0
 11
89.68907995510543
 21
-21.77318955234064
 31
0.0
  0
LINE
  5
124
  8
0
  6
CONTINUOUS
 62
     7
 10
89.82672756900541
 20
-21.39500553184063
 30
0.0
 11
88.88703473240543
 21
-21.05298459724063
 31
0.0
  0
LINE
  5
125
  8
0
  6
CONTINUOUS
 62
     7
 10
87.80038857480542
 20
-24.38764724564064
 30
0.0
 11
87.80038857480542
 21
-24.41427748324064
 31
0.0
  0
LINE
  5
126
  8
0
  6
CONTINUOUS
 62
     7
 10
87.74983989040541
 20
-23.34186750424064
 30
0.0
 11
87.45836844510544
 21
-23.44795440974064
 31
0.0
  0
LINE
  5
127
  8
0
  6
CONTINUOUS
 62
     7
 10
88.71602481560541
 20
-21.52283124824064
 30
0.0
 11
88.22797779320541
 21
-22.86372993344063
 31
0.0
  0
LINE
  5
128
  8
0
  6
CONTINUOUS
 62
     7
 10
89.65571765220542
 20
-21.86485125144064
 30
0.0
 11
89.16767072190541
 21
-23.20574959784064
 31
0.0
  0
LINE
  5
129
  8
0
  6
CONTINUOUS
 62
     7
 10
88.09185994440543
 20
-24.28156029114064
 30
0.0
 11
87.80038857480542
 21
-24.38764724564064
 31
0.0
  0
LINE
  5
12A
  8
0
  6
CONTINUOUS
 62
     7
 10
86.30038858270541
 20
-55.71427821454065
 30
0.0
 11
83.30038847250543
 21
-55.71427693304064
 31
0.0
  0
LINE
  5
12B
  8
0
  6
CONTINUOUS
 62
     7
 10
86.30038858270541
 20
-54.71427821344064
 30
0.0
 11
83.30038847250543
 21
-54.71427863064065
 31
0.0
  0
LINE
  5
12C
  8
0
  6
CONTINUOUS
 62
     7
 10
86.80038858160543
 20
-51.46427905134063
 30
0.0
 11
86.80038858160543
 21
-54.21427761854065
 31
0.0
  0
LINE
  5
12D
  8
0
  6
CONTINUOUS
 62
     7
 10
87.80038877600543
 20
-51.46427890944064
 30
0.0
 11
87.80038858270541
 21
-54.21427821454065
 31
0.0
  0
LINE
  5
12E
  8
0
  6
CONTINUOUS
 62
     7
 10
90.70038805930542
 20
-24.78940755044065
 30
0.0
 11
89.42755471480541
 21
-24.44835270694064
 31
0.0
  0
LINE
  5
12F
  8
0
  6
CONTINUOUS
 62
     7
 10
89.16873566970543
 20
-24.41427853324064
 30
0.0
 11
86.80038816510543
 21
-24.41427826804064
 31
0.0
  0
LINE
  5
130
  8
0
  6
CONTINUOUS
 62
     7
 10
0.4503885827054152
 20
-53.71427982384065
 30
0.0
 11
0.4503885827054152
 21
-37.31427788074063
 31
0.0
  0
LINE
  5
131
  8
0
  6
CONTINUOUS
 62
     7
 10
0.4503885827054152
 20
-37.31427788074063
 30
0.0
 11
41.45038971520543
 21
-37.31427788074063
 31
0.0
  0
LINE
  5
132
  8
0
  6
CONTINUOUS
 62
     7
 10
41.45038971520543
 20
-37.31427788074063
 30
0.0
 11
41.45038971520543
 21
-53.71427982384065
 31
0.0
  0
LINE
  5
133
  8
0
  6
CONTINUOUS
 62
     7
 10
-7.499609509894582
 20
-53.71427982384065
 30
0.0
 11
0.4503885827054152
 21
-53.71427982384065
 31
0.0
  0
LINE
  5
134
  8
0
  6
CONTINUOUS
 62
     7
 10
-67.23820168329459
 20
40.34601204835936
 30
0.0
 11
-67.23820168329459
 21
42.59601204835936
 31
0.0
  0
LINE
  5
135
  8
0
  6
CONTINUOUS
 62
     7
 10
14.45038914910544
 20
-47.41427982384064
 30
0.0
 11
14.05038914910543
 21
-47.81427982384064
 31
0.0
  0
LINE
  5
136
  8
0
  6
CONTINUOUS
 62
     7
 10
5.950389149005417
 20
-47.81427982384064
 30
0.0
 11
14.05038914910543
 21
-47.81427982384064
 31
0.0
  0
LINE
  5
137
  8
0
  6
CONTINUOUS
 62
     7
 10
5.950389149005417
 20
-47.81427982384064
 30
0.0
 11
5.550389148805407
 21
-47.41427982364063
 31
0.0
  0
LINE
  5
138
  8
0
  6
CONTINUOUS
 62
     7
 10
27.85038914760543
 20
-47.81427982384064
 30
0.0
 11
27.45038914760542
 21
-47.41427982384064
 31
0.0
  0
LINE
  5
139
  8
0
  6
CONTINUOUS
 62
     7
 10
35.95038914900542
 20
-47.81427982384064
 30
0.0
 11
36.35038914900542
 21
-47.41427982384064
 31
0.0
  0
LINE
  5
13A
  8
0
  6
CONTINUOUS
 62
     7
 10
27.85038914760543
 20
-47.81427982384064
 30
0.0
 11
35.95038914900542
 21
-47.81427982384064
 31
0.0
  0
LINE
  5
13B
  8
0
  6
CONTINUOUS
 62
     7
 10
27.45038914760542
 20
-47.41427982384064
 30
0.0
 11
27.45038914760542
 21
-46.21427982664065
 31
0.0
  0
LINE
  5
13C
  8
0
  6
CONTINUOUS
 62
     7
 10
36.35038914900542
 20
-46.21427982664065
 30
0.0
 11
36.35038914900542
 21
-47.41427982384064
 31
0.0
  0
LINE
  5
13D
  8
0
  6
CONTINUOUS
 62
     7
 10
5.550389148805407
 20
-46.21427982664065
 30
0.0
 11
5.550389148805407
 21
-47.41427982364063
 31
0.0
  0
LINE
  5
13E
  8
0
  6
CONTINUOUS
 62
     7
 10
14.45038914910544
 20
-47.41427982384064
 30
0.0
 11
14.45038914910544
 21
-46.21427982384065
 31
0.0
  0
LINE
  5
13F
  8
0
  6
CONTINUOUS
 62
     7
 10
3.300389149005412
 20
-53.31427982384064
 30
0.0
 11
3.300389149005412
 21
-46.21427982664065
 31
0.0
  0
LINE
  5
140
  8
0
  6
CONTINUOUS
 62
     7
 10
3.300389149005412
 20
-53.31427982384064
 30
0.0
 11
2.900389149005434
 21
-53.71427982384065
 31
0.0
  0
LINE
  5
141
  8
0
  6
CONTINUOUS
 62
     7
 10
0.4503885827054152
 20
-53.71427982384065
 30
0.0
 11
2.900389149005434
 21
-53.71427982384065
 31
0.0
  0
LINE
  5
142
  8
0
  6
CONTINUOUS
 62
     7
 10
39.00038914890541
 20
-53.71427982384065
 30
0.0
 11
41.45038971520543
 21
-53.71427982384065
 31
0.0
  0
LINE
  5
143
  8
0
  6
CONTINUOUS
 62
     7
 10
38.60038914900542
 20
-53.31427982384064
 30
0.0
 11
39.00038914890541
 21
-53.71427982384065
 31
0.0
  0
LINE
  5
144
  8
0
  6
CONTINUOUS
 62
     7
 10
38.60038914900542
 20
-46.21427982664065
 30
0.0
 11
38.60038914900542
 21
-53.31427982384064
 31
0.0
  0
LINE
  5
145
  8
0
  6
CONTINUOUS
 62
     7
 10
26.0503891490054
 20
-46.21427982664065
 30
0.0
 11
38.60038914900542
 21
-46.21427982664065
 31
0.0
  0
LINE
  5
146
  8
0
  6
CONTINUOUS
 62
     7
 10
26.0503891490054
 20
-53.31427982384064
 30
0.0
 11
26.0503891490054
 21
-46.21427982664065
 31
0.0
  0
LINE
  5
147
  8
0
  6
CONTINUOUS
 62
     7
 10
25.65038914900543
 20
-53.71427982384065
 30
0.0
 11
26.0503891490054
 21
-53.31427982384064
 31
0.0
  0
LINE
  5
148
  8
0
  6
CONTINUOUS
 62
     7
 10
16.25038914900543
 20
-53.71427982384065
 30
0.0
 11
25.65038914900543
 21
-53.71427982384065
 31
0.0
  0
LINE
  5
149
  8
0
  6
CONTINUOUS
 62
     7
 10
16.25038914900543
 20
-53.71427982384065
 30
0.0
 11
15.85038914900542
 21
-53.31427982384064
 31
0.0
  0
LINE
  5
14A
  8
0
  6
CONTINUOUS
 62
     7
 10
15.85038914900542
 20
-46.21427982664065
 30
0.0
 11
15.85038914900542
 21
-53.31427982384064
 31
0.0
  0
LINE
  5
14B
  8
0
  6
CONTINUOUS
 62
     7
 10
3.300389149005412
 20
-46.21427982664065
 30
0.0
 11
15.85038914900542
 21
-46.21427982664065
 31
0.0
  0
LINE
  5
14C
  8
0
  6
CONTINUOUS
 62
     7
 10
-62.43820168329457
 20
42.59601204835936
 30
0.0
 11
-67.23820168329459
 21
42.59601204835936
 31
0.0
  0
LINE
  5
14D
  8
0
  6
CONTINUOUS
 62
     7
 10
-62.43820168329457
 20
41.59601204835936
 30
0.0
 11
-67.23820168329459
 21
41.59601204835936
 31
0.0
  0
LINE
  5
14E
  8
0
  6
CONTINUOUS
 62
     7
 10
-62.43820168329457
 20
40.34601204835936
 30
0.0
 11
-62.43820168329457
 21
42.59601204835936
 31
0.0
  0
LINE
  5
14F
  8
0
  6
CONTINUOUS
 62
     7
 10
-62.43820168329457
 20
-55.90398795164064
 30
0.0
 11
-67.23820168329459
 21
-55.90398795164064
 31
0.0
  0
LINE
  5
150
  8
0
  6
CONTINUOUS
 62
     7
 10
-67.23820168329459
 20
-53.65398795164064
 30
0.0
 11
-67.23820168329459
 21
-55.90398795164064
 31
0.0
  0
LINE
  5
151
  8
0
  6
CONTINUOUS
 62
     7
 10
-67.23820168329459
 20
-54.90398795164064
 30
0.0
 11
-62.43820168329457
 21
-54.90398795164064
 31
0.0
  0
LINE
  5
152
  8
0
  6
CONTINUOUS
 62
     7
 10
-62.43820168329457
 20
-53.65398795164064
 30
0.0
 11
-62.43820168329457
 21
-55.90398795164064
 31
0.0
  0
LINE
  5
153
  8
0
  6
CONTINUOUS
 62
     7
 10
-107.2382016832946
 20
-54.90398795164064
 30
0.0
 11
-102.4382016832946
 21
-54.90398795164064
 31
0.0
  0
LINE
  5
154
  8
0
  6
CONTINUOUS
 62
     7
 10
-102.4382016832946
 20
-55.90398795164064
 30
0.0
 11
-107.2382016832946
 21
-55.90398795164064
 31
0.0
  0
LINE
  5
155
  8
0
  6
CONTINUOUS
 62
     7
 10
-107.2382016832946
 20
-53.65398795164064
 30
0.0
 11
-107.2382016832946
 21
-55.90398795164064
 31
0.0
  0
LINE
  5
156
  8
0
  6
CONTINUOUS
 62
     7
 10
-102.4382016832946
 20
-53.65398795164064
 30
0.0
 11
-102.4382016832946
 21
-55.90398795164064
 31
0.0
  0
LINE
  5
157
  8
0
  6
CONTINUOUS
 62
     7
 10
-107.2382016832946
 20
40.34601204835936
 30
0.0
 11
-107.2382016832946
 21
42.59601204835936
 31
0.0
  0
LINE
  5
158
  8
0
  6
CONTINUOUS
 62
     7
 10
-102.4382016832946
 20
42.59601204835936
 30
0.0
 11
-107.2382016832946
 21
42.59601204835936
 31
0.0
  0
LINE
  5
159
  8
0
  6
CONTINUOUS
 62
     7
 10
-102.4382016832946
 20
41.59601204835936
 30
0.0
 11
-107.2382016832946
 21
41.59601204835936
 31
0.0
  0
LINE
  5
15A
  8
0
  6
CONTINUOUS
 62
     7
 10
-102.4382016832946
 20
40.34601204835936
 30
0.0
 11
-102.4382016832946
 21
42.59601204835936
 31
0.0
  0
LINE
  5
15B
  8
0
  6
CONTINUOUS
 62
     7
 10
-5.499612691394589
 20
13.88572138465936
 30
0.0
 11
-6.133590044994577
 21
13.88572138465936
 31
0.0
  0
LINE
  5
15C
  8
0
  6
CONTINUOUS
 62
     7
 10
-6.133590044994577
 20
13.88572138465936
 30
0.0
 11
-7.999610307194587
 21
12.80837115555935
 31
0.0
  0
LINE
  5
15D
  8
0
  6
CONTINUOUS
 62
     7
 10
-7.999610307194587
 20
12.80837115555935
 30
0.0
 11
-7.999610307194587
 21
-26.21427941404064
 31
0.0
  0
LINE
  5
15E
  8
0
  6
CONTINUOUS
 62
     7
 10
-5.512434343294586
 20
15.47015147565936
 30
0.0
 11
-5.636061827194567
 21
15.40803598525936
 31
0.0
  0
LINE
  5
15F
  8
0
  6
CONTINUOUS
 62
     7
 10
-5.636061827194567
 20
15.40803598525936
 30
0.0
 11
-5.999611417294574
 21
15.33572178545935
 31
0.0
  0
LINE
  5
160
  8
0
  6
CONTINUOUS
 62
     7
 10
-7.999610307194587
 20
-33.21427790164064
 30
0.0
 11
-7.799613574994567
 21
-33.21427790164064
 31
0.0
  0
LINE
  5
161
  8
0
  6
CONTINUOUS
 62
     7
 10
-6.999615731294568
 20
-33.21427790164064
 30
0.0
 11
-6.999615731294568
 21
-33.71427891494064
 31
0.0
  0
LINE
  5
162
  8
0
  6
CONTINUOUS
 62
     7
 10
-6.999615731294568
 20
-33.71427891494064
 30
0.0
 11
-7.999610307194587
 21
-33.71427891494064
 31
0.0
  0
LINE
  5
163
  8
0
  6
CONTINUOUS
 62
     7
 10
-7.999610307194587
 20
-33.71427891494064
 30
0.0
 11
-7.999610307194587
 21
-33.21427790164064
 31
0.0
  0
LINE
  5
164
  8
0
  6
CONTINUOUS
 62
     7
 10
-7.999610307194587
 20
-26.21427941404064
 30
0.0
 11
-7.999610307194587
 21
-26.61427873454064
 31
0.0
  0
LINE
  5
165
  8
0
  6
CONTINUOUS
 62
     7
 10
-7.999610307194587
 20
-33.01427903854064
 30
0.0
 11
-7.999610307194587
 21
-33.21427790164064
 31
0.0
  0
LINE
  5
166
  8
0
  6
CONTINUOUS
 62
     7
 10
-6.999227503794572
 20
16.25803174735936
 30
0.0
 11
-6.949614087594568
 21
15.97347172265935
 31
0.0
  0
LINE
  5
167
  8
0
  6
CONTINUOUS
 62
     7
 10
-6.949614087594568
 20
15.97347172265935
 30
0.0
 11
-6.949611417294591
 21
13.99193956805936
 31
0.0
  0
LINE
  5
168
  8
0
  6
CONTINUOUS
 62
     7
 10
-6.299610535094587
 20
26.18572363915935
 30
0.0
 11
-6.649609009194592
 21
26.18572363915935
 31
0.0
  0
LINE
  5
169
  8
0
  6
CONTINUOUS
 62
     7
 10
-6.299610535094587
 20
30.98572293585935
 30
0.0
 11
-6.649609009194592
 21
30.98572293585935
 31
0.0
  0
LINE
  5
16A
  8
0
  6
CONTINUOUS
 62
     7
 10
-6.932455400494575
 20
31.03067228855936
 30
0.0
 11
-6.932455400494575
 21
31.03572005695936
 31
0.0
  0
LINE
  5
16B
  8
0
  6
CONTINUOUS
 62
     7
 10
-6.932455400494575
 20
26.13572279275935
 30
0.0
 11
-6.932455400494575
 21
26.14077428645934
 31
0.0
  0
LINE
  5
16C
  8
0
  6
CONTINUOUS
 62
     7
 10
-7.099610102994575
 20
26.18572271235935
 30
0.0
 11
-7.699612809094589
 21
26.18572271235935
 31
0.0
  0
LINE
  5
16D
  8
0
  6
CONTINUOUS
 62
     7
 10
-7.699611306994569
 20
30.98572236065936
 30
0.0
 11
-7.099608600894584
 21
30.98572236065936
 31
0.0
  0
LINE
  5
16E
  8
0
  6
CONTINUOUS
 62
     7
 10
-7.699612809094589
 20
26.18572271235935
 30
0.0
 11
-7.799614501894581
 21
26.18572271235935
 31
0.0
  0
LINE
  5
16F
  8
0
  6
CONTINUOUS
 62
     7
 10
-7.799612999794591
 20
30.98572236065936
 30
0.0
 11
-7.699611306994569
 21
30.98572236065936
 31
0.0
  0
LINE
  5
170
  8
0
  6
CONTINUOUS
 62
     7
 10
-7.999611417294574
 20
26.38572178545935
 30
0.0
 11
-7.999611417294574
 21
30.78572178545936
 31
0.0
  0
LINE
  5
171
  8
0
  6
CONTINUOUS
 62
     7
 10
-6.299610535094587
 20
-44.41427936494063
 30
0.0
 11
-6.649609009194592
 21
-44.41427936494063
 31
0.0
  0
LINE
  5
172
  8
0
  6
CONTINUOUS
 62
     7
 10
-6.299610535094587
 20
-39.61428006824064
 30
0.0
 11
-6.649609009194592
 21
-39.61428006824064
 31
0.0
  0
LINE
  5
173
  8
0
  6
CONTINUOUS
 62
     7
 10
-6.932455400494575
 20
-39.56933071554064
 30
0.0
 11
-6.932455400494575
 21
-39.56427922184064
 31
0.0
  0
LINE
  5
174
  8
0
  6
CONTINUOUS
 62
     7
 10
-6.932455400494575
 20
-44.46427648604064
 30
0.0
 11
-6.932455400494575
 21
-44.45922871764065
 31
0.0
  0
LINE
  5
175
  8
0
  6
CONTINUOUS
 62
     7
 10
-7.099608600894584
 20
-44.41427878974064
 30
0.0
 11
-7.699611306994569
 21
-44.41427878974064
 31
0.0
  0
LINE
  5
176
  8
0
  6
CONTINUOUS
 62
     7
 10
-7.699612809094589
 20
-39.61427914134065
 30
0.0
 11
-7.099610102994575
 21
-39.61427914134065
 31
0.0
  0
LINE
  5
177
  8
0
  6
CONTINUOUS
 62
     7
 10
-7.699611306994569
 20
-44.41427878974064
 30
0.0
 11
-7.799612999794591
 21
-44.41427878974064
 31
0.0
  0
LINE
  5
178
  8
0
  6
CONTINUOUS
 62
     7
 10
-7.799614501894581
 20
-39.61427914134065
 30
0.0
 11
-7.699612809094589
 21
-39.61427914134065
 31
0.0
  0
LINE
  5
179
  8
0
  6
CONTINUOUS
 62
     7
 10
-7.999611417294574
 20
-44.21427821454065
 30
0.0
 11
-7.999611417294574
 21
-39.81427821454064
 31
0.0
  0
LINE
  5
17A
  8
0
  6
CONTINUOUS
 62
     7
 10
-6.299610535094587
 20
-44.56427817874064
 30
0.0
 11
-6.299610535094587
 21
-39.46427752914065
 31
0.0
  0
LINE
  5
17B
  8
0
  6
CONTINUOUS
 62
     7
 10
69.20038821020543
 20
-14.56427605534065
 30
0.0
 11
69.20038821020543
 21
-16.36427672294064
 31
0.0
  0
LINE
  5
17C
  8
0
  6
CONTINUOUS
 62
     7
 10
76.70038850820544
 20
-14.21427571864064
 30
0.0
 11
76.70038850820544
 21
-15.16427596744064
 31
0.0
  0
LINE
  5
17D
  8
0
  6
CONTINUOUS
 62
     7
 10
69.20038821020543
 20
-16.36427672294064
 30
0.0
 11
69.47302171800541
 21
-15.76427681084065
 31
0.0
  0
LINE
  5
17E
  8
0
  6
CONTINUOUS
 62
     7
 10
81.30038814460542
 20
-16.71427612834065
 30
0.0
 11
81.30038814460542
 21
-14.21427571864064
 31
0.0
  0
LINE
  5
17F
  8
0
  6
CONTINUOUS
 62
     7
 10
69.47302171800541
 20
-15.16427596744064
 30
0.0
 11
76.70038850820544
 21
-15.16427596744064
 31
0.0
  0
LINE
  5
180
  8
0
  6
CONTINUOUS
 62
     7
 10
81.30038814460542
 20
-14.21427571864064
 30
0.0
 11
76.70038850820544
 21
-14.21427571864064
 31
0.0
  0
LINE
  5
181
  8
0
  6
CONTINUOUS
 62
     7
 10
75.40038885390541
 20
-14.56427605534065
 30
0.0
 11
69.20038821020543
 21
-14.56427605534065
 31
0.0
  0
LINE
  5
182
  8
0
  6
CONTINUOUS
 62
     7
 10
75.40038885390541
 20
-16.36427579164064
 30
0.0
 11
76.00038783470544
 21
-15.76427587954064
 31
0.0
  0
LINE
  5
183
  8
0
  6
CONTINUOUS
 62
     7
 10
76.70038850820544
 20
-16.71427612834065
 30
0.0
 11
81.30038814460542
 21
-16.71427612834065
 31
0.0
  0
LINE
  5
184
  8
0
  6
CONTINUOUS
 62
     7
 10
76.00038783470544
 20
-15.16427596744064
 30
0.0
 11
75.40038885390541
 21
-14.56427605534065
 31
0.0
  0
LINE
  5
185
  8
0
  6
CONTINUOUS
 62
     7
 10
76.70038850820544
 20
-15.76427587954064
 30
0.0
 11
76.70038850820544
 21
-16.71427612834065
 31
0.0
  0
LINE
  5
186
  8
0
  6
CONTINUOUS
 62
     7
 10
69.47302171800541
 20
-15.16427596744064
 30
0.0
 11
69.20038821020543
 21
-14.56427605534065
 31
0.0
  0
LINE
  5
187
  8
0
  6
CONTINUOUS
 62
     7
 10
76.70038850820544
 20
-15.76427587954064
 30
0.0
 11
69.47302171800541
 21
-15.76427681084065
 31
0.0
  0
LINE
  5
188
  8
0
  6
CONTINUOUS
 62
     7
 10
82.10038864830543
 20
10.38572253945937
 30
0.0
 11
83.90038838450542
 21
10.38572253945937
 31
0.0
  0
LINE
  5
189
  8
0
  6
CONTINUOUS
 62
     7
 10
82.10038864830543
 20
11.68572219375936
 30
0.0
 11
82.10038864830543
 21
10.38572253945937
 31
0.0
  0
LINE
  5
18A
  8
0
  6
CONTINUOUS
 62
     7
 10
66.10038788830542
 20
11.68572219375936
 30
0.0
 11
82.10038864830543
 21
11.68572219375936
 31
0.0
  0
LINE
  5
18B
  8
0
  6
CONTINUOUS
 62
     7
 10
69.20038821020543
 20
-16.36427672294064
 30
0.0
 11
75.40038885390541
 21
-16.36427579164064
 31
0.0
  0
LINE
  5
18C
  8
0
  6
CONTINUOUS
 62
     7
 10
81.30038814460542
 20
-17.71427536094064
 30
0.0
 11
76.70038850820544
 21
-17.71427536094064
 31
0.0
  0
LINE
  5
18D
  8
0
  6
CONTINUOUS
 62
     7
 10
76.00038783470544
 20
-18.66427560984065
 30
0.0
 11
75.40038885390541
 21
-18.06427569774064
 31
0.0
  0
LINE
  5
18E
  8
0
  6
CONTINUOUS
 62
     7
 10
76.70038850820544
 20
-17.71427536094064
 30
0.0
 11
76.70038850820544
 21
-18.66427560984065
 31
0.0
  0
LINE
  5
18F
  8
0
  6
CONTINUOUS
 62
     7
 10
69.47302171800541
 20
-18.66427560984065
 30
0.0
 11
76.70038850820544
 21
-18.66427560984065
 31
0.0
  0
LINE
  5
190
  8
0
  6
CONTINUOUS
 62
     7
 10
69.20038821020543
 20
-18.06427569774064
 30
0.0
 11
69.20038821020543
 21
-19.86427636534065
 31
0.0
  0
LINE
  5
191
  8
0
  6
CONTINUOUS
 62
     7
 10
75.40038885390541
 20
-18.06427569774064
 30
0.0
 11
69.20038821020543
 21
-18.06427569774064
 31
0.0
  0
LINE
  5
192
  8
0
  6
CONTINUOUS
 62
     7
 10
76.70038850820544
 20
-19.26427552194064
 30
0.0
 11
76.70038850820544
 21
-20.21427577074065
 31
0.0
  0
LINE
  5
193
  8
0
  6
CONTINUOUS
 62
     7
 10
-7.999610314494589
 20
31.43572390745934
 30
0.0
 11
-7.69961268679458
 21
31.13572255435936
 31
0.0
  0
LINE
  5
194
  8
0
  6
CONTINUOUS
 62
     7
 10
69.20038821020543
 20
-19.86427636534065
 30
0.0
 11
75.40038885390541
 21
-19.86427636534065
 31
0.0
  0
LINE
  5
195
  8
0
  6
CONTINUOUS
 62
     7
 10
76.70038850820544
 20
-20.21427577074065
 30
0.0
 11
81.30038814460542
 21
-20.21427577074065
 31
0.0
  0
LINE
  5
196
  8
0
  6
CONTINUOUS
 62
     7
 10
69.20038821020543
 20
-19.86427636534065
 30
0.0
 11
69.47302171800541
 21
-19.26427645324064
 31
0.0
  0
LINE
  5
197
  8
0
  6
CONTINUOUS
 62
     7
 10
-7.699611882194575
 20
-44.56427817874064
 30
0.0
 11
-7.999609509894582
 21
-44.86427953184064
 31
0.0
  0
LINE
  5
198
  8
0
  6
CONTINUOUS
 62
     7
 10
-7.999610456194573
 20
-39.16427895504064
 30
0.0
 11
-7.699612828394577
 21
-39.46427658284063
 31
0.0
  0
LINE
  5
199
  8
0
  6
CONTINUOUS
 62
     7
 10
-7.799613449794577
 20
-26.41427999674064
 30
0.0
 11
-6.949613962394579
 21
-26.41427999674064
 31
0.0
  0
LINE
  5
19A
  8
0
  6
CONTINUOUS
 62
     7
 10
-7.999611491994585
 20
18.59360084055936
 30
0.0
 11
-7.999611491994585
 21
25.73572181285935
 31
0.0
  0
LINE
  5
19B
  8
0
  6
CONTINUOUS
 62
     7
 10
69.47302171800541
 20
-18.66427560984065
 30
0.0
 11
69.20038821020543
 21
-18.06427569774064
 31
0.0
  0
LINE
  5
19C
  8
0
  6
CONTINUOUS
 62
     7
 10
66.10038788830542
 20
8.33572136525936
 30
0.0
 11
66.10038788830542
 21
11.68572219375936
 31
0.0
  0
LINE
  5
19D
  8
0
  6
CONTINUOUS
 62
     7
 10
68.10038821620543
 20
8.33572136525936
 30
0.0
 11
66.10038788830542
 21
8.33572136525936
 31
0.0
  0
LINE
  5
19E
  8
0
  6
CONTINUOUS
 62
     7
 10
66.10038788830542
 20
-25.11427862284065
 30
0.0
 11
66.10038788830542
 21
-21.76427779434065
 31
0.0
  0
LINE
  5
19F
  8
0
  6
CONTINUOUS
 62
     7
 10
82.10038864830543
 20
-25.11427862284065
 30
0.0
 11
66.10038788830542
 21
-25.11427862284065
 31
0.0
  0
LINE
  5
1A0
  8
0
  6
CONTINUOUS
 62
     7
 10
83.90038838450542
 20
-23.81427896854063
 30
0.0
 11
82.10038864830543
 21
-23.81427896854063
 31
0.0
  0
LINE
  5
1A1
  8
0
  6
CONTINUOUS
 62
     7
 10
76.70038850820544
 20
-19.26427552194064
 30
0.0
 11
69.47302171800541
 21
-19.26427645324064
 31
0.0
  0
LINE
  5
1A2
  8
0
  6
CONTINUOUS
 62
     7
 10
-7.699613864294577
 20
26.03571944055937
 30
0.0
 11
-7.999611491994585
 21
25.73572181285935
 31
0.0
  0
LINE
  5
1A3
  8
0
  6
CONTINUOUS
 62
     7
 10
-7.49960849659459
 20
40.28572339475935
 30
0.0
 11
0.4503885827054152
 21
40.28572339475935
 31
0.0
  0
LINE
  5
1A4
  8
0
  6
CONTINUOUS
 62
     7
 10
81.30038814460542
 20
-20.21427577074065
 30
0.0
 11
81.30038814460542
 21
-17.71427536094064
 31
0.0
  0
LINE
  5
1A5
  8
0
  6
CONTINUOUS
 62
     7
 10
75.40038885390541
 20
-19.86427636534065
 30
0.0
 11
76.00038783470544
 21
-19.26427552194064
 31
0.0
  0
LINE
  5
1A6
  8
0
  6
CONTINUOUS
 62
     7
 10
-7.999610456194573
 20
-39.16427895504064
 30
0.0
 11
-7.999610456194573
 21
-35.41427694344063
 31
0.0
  0
LINE
  5
1A7
  8
0
  6
CONTINUOUS
 62
     7
 10
-7.999610314494589
 20
31.43572390745934
 30
0.0
 11
-7.999612221894581
 21
39.78572259015935
 31
0.0
  0
LINE
  5
1A8
  8
0
  6
CONTINUOUS
 62
     7
 10
-7.799613574994567
 20
-35.21427822944064
 30
0.0
 11
-6.499613920694571
 21
-35.21427822944064
 31
0.0
  0
LINE
  5
1A9
  8
0
  6
CONTINUOUS
 62
     7
 10
-7.999613899494591
 20
15.87416206615935
 30
0.0
 11
-7.999611992094572
 21
16.27585613915935
 31
0.0
  0
LINE
  5
1AA
  8
0
  6
CONTINUOUS
 62
     7
 10
82.10038864830543
 20
-23.81427896854063
 30
0.0
 11
82.10038864830543
 21
-25.11427862284065
 31
0.0
  0
LINE
  5
1AB
  8
0
  6
CONTINUOUS
 62
     7
 10
66.10038788830542
 20
-21.76427779434065
 30
0.0
 11
68.10038821620543
 21
-21.76427779434065
 31
0.0
  0
LINE
  5
1AC
  8
0
  6
CONTINUOUS
 62
     7
 10
-5.499611768894567
 20
-25.57712158504065
 30
0.0
 11
-5.499611768894567
 21
14.08572184665936
 31
0.0
  0
LINE
  5
1AD
  8
0
  6
CONTINUOUS
 62
     7
 10
41.45038971520543
 20
40.28572339475935
 30
0.0
 11
79.76737226700541
 21
40.28572339475935
 31
0.0
  0
LINE
  5
1AE
  8
0
  6
CONTINUOUS
 62
     7
 10
89.16873566970543
 20
10.98572210415936
 30
0.0
 11
86.80038817720543
 21
10.98572183895936
 31
0.0
  0
LINE
  5
1AF
  8
0
  6
CONTINUOUS
 62
     7
 10
-5.99961488949458
 20
26.03571944055937
 30
0.0
 11
-6.899615223294575
 21
26.03571944055937
 31
0.0
  0
LINE
  5
1B0
  8
0
  6
CONTINUOUS
 62
     7
 10
-6.899614045794578
 20
31.13572255435936
 30
0.0
 11
-5.999613711994585
 21
31.13572255435936
 31
0.0
  0
LINE
  5
1B1
  8
0
  6
CONTINUOUS
 62
     7
 10
-7.69961268679458
 20
31.03572086165935
 30
0.0
 11
-7.69961268679458
 21
31.13572255435936
 31
0.0
  0
LINE
  5
1B2
  8
0
  6
CONTINUOUS
 62
     7
 10
-7.999609509894582
 20
-53.21427982384065
 30
0.0
 11
-7.999609509894582
 21
-44.86427953184064
 31
0.0
  0
LINE
  5
1B3
  8
0
  6
CONTINUOUS
 62
     7
 10
-7.699613864294577
 20
26.13572113335935
 30
0.0
 11
-6.899615223294575
 21
26.13572113335935
 31
0.0
  0
LINE
  5
1B4
  8
0
  6
CONTINUOUS
 62
     7
 10
-5.999614327994578
 20
14.38572213865936
 30
0.0
 11
-5.999612837894574
 21
14.61165568735936
 31
0.0
  0
LINE
  5
1B5
  8
0
  6
CONTINUOUS
 62
     7
 10
-6.899615223294575
 20
26.13572113335935
 30
0.0
 11
-6.899615223294575
 21
26.03571944055937
 31
0.0
  0
LINE
  5
1B6
  8
0
  6
CONTINUOUS
 62
     7
 10
68.10038821620543
 20
-21.76427779434065
 30
0.0
 11
68.10038821620543
 21
8.33572136525936
 31
0.0
  0
LINE
  5
1B7
  8
0
  6
CONTINUOUS
 62
     7
 10
-6.899613241194572
 20
-44.56427817874064
 30
0.0
 11
-5.999612907394578
 21
-44.56427817874064
 31
0.0
  0
LINE
  5
1B8
  8
0
  6
CONTINUOUS
 62
     7
 10
83.90038838450542
 20
10.38572253945937
 30
0.0
 11
83.90038838450542
 21
-23.81427896854063
 31
0.0
  0
LINE
  5
1B9
  8
0
  6
CONTINUOUS
 62
     7
 10
-5.999613853594582
 20
-39.46427658284063
 30
0.0
 11
-6.899614187394577
 21
-39.46427658284063
 31
0.0
  0
LINE
  5
1BA
  8
0
  6
CONTINUOUS
 62
     7
 10
-5.499611768894567
 20
14.08572184665936
 30
0.0
 11
-5.699613582994573
 21
14.08572184665936
 31
0.0
  0
LINE
  5
1BB
  8
0
  6
CONTINUOUS
 62
     7
 10
-6.899614045794578
 20
31.03572086165935
 30
0.0
 11
-7.69961268679458
 21
31.03572086165935
 31
0.0
  0
LINE
  5
1BC
  8
0
  6
CONTINUOUS
 62
     7
 10
-6.899614045794578
 20
31.13572255435936
 30
0.0
 11
-6.899614045794578
 21
31.03572086165935
 31
0.0
  0
LINE
  5
1BD
  8
0
  6
CONTINUOUS
 62
     7
 10
-7.699613864294577
 20
26.03571944055937
 30
0.0
 11
-7.699613864294577
 21
26.13572113335935
 31
0.0
  0
LINE
  5
1BE
  8
0
  6
CONTINUOUS
 62
     7
 10
-6.899613241194572
 20
-44.46427648604064
 30
0.0
 11
-7.699611882194575
 21
-44.46427648604064
 31
0.0
  0
LINE
  5
1BF
  8
0
  6
CONTINUOUS
 62
     7
 10
-6.499611417294574
 20
-33.21427821454065
 30
0.0
 11
-7.799613574994567
 21
-33.21427790164064
 31
0.0
  0
LINE
  5
1C0
  8
0
  6
CONTINUOUS
 62
     7
 10
-6.899613241194572
 20
-44.56427817874064
 30
0.0
 11
-6.899613241194572
 21
-44.46427648604064
 31
0.0
  0
LINE
  5
1C1
  8
0
  6
CONTINUOUS
 62
     7
 10
-6.949613962394579
 20
-26.41427999674064
 30
0.0
 11
-5.499611768894567
 21
-25.57712158504065
 31
0.0
  0
LINE
  5
1C2
  8
0
  6
CONTINUOUS
 62
     7
 10
-7.699612828394577
 20
-39.46427658284063
 30
0.0
 11
-7.699612828394577
 21
-39.56427827554064
 31
0.0
  0
LINE
  5
1C3
  8
0
  6
CONTINUOUS
 62
     7
 10
-7.999610307194587
 20
-33.01427903854064
 30
0.0
 11
-7.999610307194587
 21
-26.61427873454064
 31
0.0
  0
LINE
  5
1C4
  8
0
  6
CONTINUOUS
 62
     7
 10
90.70038805930542
 20
11.36085112145936
 30
0.0
 11
89.42755471480541
 21
11.01979627795936
 31
0.0
  0
LINE
  5
1C5
  8
0
  6
CONTINUOUS
 62
     7
 10
-6.899614187394577
 20
-39.56427827554064
 30
0.0
 11
-6.899614187394577
 21
-39.46427658284063
 31
0.0
  0
LINE
  5
1C6
  8
0
  6
CONTINUOUS
 62
     7
 10
-7.699611882194575
 20
-44.46427648604064
 30
0.0
 11
-7.699611882194575
 21
-44.56427817874064
 31
0.0
  0
LINE
  5
1C7
  8
0
  6
CONTINUOUS
 62
     7
 10
-7.699612828394577
 20
-39.56427827554064
 30
0.0
 11
-6.899614187394577
 21
-39.56427827554064
 31
0.0
  0
LINE
  5
1C8
  8
0
  6
CONTINUOUS
 62
     7
 10
-6.299610535094587
 20
26.03572109995936
 30
0.0
 11
-6.299610535094587
 21
31.13572174965936
 31
0.0
  0
LINE
  5
1C9
  8
0
  6
CONTINUOUS
 62
     7
 10
41.45038971520543
 20
23.88572145165936
 30
0.0
 11
41.45038971520543
 21
40.28572339475935
 31
0.0
  0
LINE
  5
1CA
  8
0
  6
CONTINUOUS
 62
     7
 10
0.4503885827054152
 20
23.88572145165936
 30
0.0
 11
41.45038971520543
 21
23.88572145165936
 31
0.0
  0
LINE
  5
1CB
  8
0
  6
CONTINUOUS
 62
     7
 10
0.4503885827054152
 20
40.28572339475935
 30
0.0
 11
0.4503885827054152
 21
23.88572145165936
 31
0.0
  0
LINE
  5
1CC
  8
0
  6
CONTINUOUS
 62
     7
 10
74.50038852010542
 20
8.035721874859362
 30
0.0
 11
74.50038852010542
 21
9.535721189359364
 31
0.0
  0
LINE
  5
1CD
  8
0
  6
CONTINUOUS
 62
     7
 10
75.00038767080542
 20
10.03572220265936
 30
0.0
 11
74.50038852010542
 21
9.535721189359364
 31
0.0
  0
LINE
  5
1CE
  8
0
  6
CONTINUOUS
 62
     7
 10
75.00038767080542
 20
10.03572220265936
 30
0.0
 11
83.50038813270541
 21
10.03572220265936
 31
0.0
  0
LINE
  5
1CF
  8
0
  6
CONTINUOUS
 62
     7
 10
83.50038813270541
 20
10.03572220265936
 30
0.0
 11
83.50038813270541
 21
-23.46427863174064
 31
0.0
  0
LINE
  5
1D0
  8
0
  6
CONTINUOUS
 62
     7
 10
83.50038813270541
 20
-23.46427863174064
 30
0.0
 11
75.00038767080542
 21
-23.46427863174064
 31
0.0
  0
LINE
  5
1D1
  8
0
  6
CONTINUOUS
 62
     7
 10
74.50038852010542
 20
-22.96427761854063
 30
0.0
 11
75.00038767080542
 21
-23.46427863174064
 31
0.0
  0
LINE
  5
1D2
  8
0
  6
CONTINUOUS
 62
     7
 10
74.50038852010542
 20
-22.96427761854063
 30
0.0
 11
74.50038852010542
 21
-21.46427830394065
 31
0.0
  0
LINE
  5
1D3
  8
0
  6
CONTINUOUS
 62
     7
 10
68.50038939930542
 20
-21.46427830394065
 30
0.0
 11
74.50038852010542
 21
-21.46427830394065
 31
0.0
  0
LINE
  5
1D4
  8
0
  6
CONTINUOUS
 62
     7
 10
68.50038939930542
 20
-21.46427830394065
 30
0.0
 11
68.50038939930542
 21
8.035721874859362
 31
0.0
  0
LINE
  5
1D5
  8
0
  6
CONTINUOUS
 62
     7
 10
74.50038852010542
 20
8.035721874859362
 30
0.0
 11
68.50038939930542
 21
8.035721874859362
 31
0.0
  0
LINE
  5
1D6
  8
0
  6
CONTINUOUS
 62
     7
 10
75.40038885390541
 20
4.635722062659354
 30
0.0
 11
76.00038783470544
 21
5.235721974659356
 31
0.0
  0
LINE
  5
1D7
  8
0
  6
CONTINUOUS
 62
     7
 10
76.70038850820544
 20
5.235721974659356
 30
0.0
 11
76.70038850820544
 21
4.285721725859361
 31
0.0
  0
LINE
  5
1D8
  8
0
  6
CONTINUOUS
 62
     7
 10
76.70038850820544
 20
4.285721725859361
 30
0.0
 11
81.30038814460542
 21
4.285721725859361
 31
0.0
  0
LINE
  5
1D9
  8
0
  6
CONTINUOUS
 62
     7
 10
81.30038814460542
 20
4.285721725859361
 30
0.0
 11
81.30038814460542
 21
6.785722135659356
 31
0.0
  0
LINE
  5
1DA
  8
0
  6
CONTINUOUS
 62
     7
 10
81.30038814460542
 20
6.785722135659356
 30
0.0
 11
76.70038850820544
 21
6.785722135659356
 31
0.0
  0
LINE
  5
1DB
  8
0
  6
CONTINUOUS
 62
     7
 10
76.70038850820544
 20
6.785722135659356
 30
0.0
 11
76.70038850820544
 21
5.835721886759359
 31
0.0
  0
LINE
  5
1DC
  8
0
  6
CONTINUOUS
 62
     7
 10
76.00038783470544
 20
5.835721886759359
 30
0.0
 11
75.40038885390541
 21
6.435721798859361
 31
0.0
  0
LINE
  5
1DD
  8
0
  6
CONTINUOUS
 62
     7
 10
75.40038885390541
 20
6.435721798859361
 30
0.0
 11
69.20038821020543
 21
6.435721798859361
 31
0.0
  0
LINE
  5
1DE
  8
0
  6
CONTINUOUS
 62
     7
 10
69.20038821020543
 20
6.435721798859361
 30
0.0
 11
69.20038821020543
 21
4.635722062659354
 31
0.0
  0
LINE
  5
1DF
  8
0
  6
CONTINUOUS
 62
     7
 10
69.20038821020543
 20
4.635722062659354
 30
0.0
 11
75.40038885390541
 21
4.635722062659354
 31
0.0
  0
LINE
  5
1E0
  8
0
  6
CONTINUOUS
 62
     7
 10
75.40038885390541
 20
2.935722156459363
 30
0.0
 11
69.20038821020543
 21
2.935722156459363
 31
0.0
  0
LINE
  5
1E1
  8
0
  6
CONTINUOUS
 62
     7
 10
69.20038821020543
 20
2.935722156459363
 30
0.0
 11
69.20038821020543
 21
1.135721488959362
 31
0.0
  0
LINE
  5
1E2
  8
0
  6
CONTINUOUS
 62
     7
 10
69.20038821020543
 20
1.135721488959362
 30
0.0
 11
75.40038885390541
 21
1.135722420259355
 31
0.0
  0
LINE
  5
1E3
  8
0
  6
CONTINUOUS
 62
     7
 10
69.47302171800541
 20
5.835721886759359
 30
0.0
 11
76.70038850820544
 21
5.835721886759359
 31
0.0
  0
LINE
  5
1E4
  8
0
  6
CONTINUOUS
 62
     7
 10
69.47302171800541
 20
5.835721886759359
 30
0.0
 11
69.20038821020543
 21
6.435721798859361
 31
0.0
  0
LINE
  5
1E5
  8
0
  6
CONTINUOUS
 62
     7
 10
69.20038821020543
 20
4.635722062659354
 30
0.0
 11
69.47302171800541
 21
5.235721974659356
 31
0.0
  0
LINE
  5
1E6
  8
0
  6
CONTINUOUS
 62
     7
 10
69.47302171800541
 20
2.33572224435936
 30
0.0
 11
69.20038821020543
 21
2.935722156459363
 31
0.0
  0
LINE
  5
1E7
  8
0
  6
CONTINUOUS
 62
     7
 10
69.20038821020543
 20
1.135721488959362
 30
0.0
 11
69.47302171800541
 21
1.735722332359359
 31
0.0
  0
LINE
  5
1E8
  8
0
  6
CONTINUOUS
 62
     7
 10
76.70038850820544
 20
5.235721974659356
 30
0.0
 11
69.47302171800541
 21
5.235721974659356
 31
0.0
  0
LINE
  5
1E9
  8
0
  6
CONTINUOUS
 62
     7
 10
83.30038847250543
 20
41.28572220265936
 30
0.0
 11
83.30038847250543
 21
42.28572050505935
 31
0.0
  0
LINE
  5
1EA
  8
0
  6
CONTINUOUS
 62
     7
 10
87.80038877600543
 20
38.03572248145935
 30
0.0
 11
87.80038858270541
 21
40.78572178655936
 31
0.0
  0
LINE
  5
1EB
  8
0
  6
CONTINUOUS
 62
     7
 10
86.80038858160543
 20
38.03572262325937
 30
0.0
 11
86.80038858160543
 21
40.78572119045938
 31
0.0
  0
LINE
  5
1EC
  8
0
  6
CONTINUOUS
 62
     7
 10
86.30038858270541
 20
41.28572178545935
 30
0.0
 11
83.30038847250543
 21
41.28572220265936
 31
0.0
  0
LINE
  5
1ED
  8
0
  6
CONTINUOUS
 62
     7
 10
86.30038858270541
 20
42.28572178655936
 30
0.0
 11
83.30038847250543
 21
42.28572050505935
 31
0.0
  0
LINE
  5
1EE
  8
0
  6
CONTINUOUS
 62
     7
 10
88.09185994440543
 20
10.85300386215935
 30
0.0
 11
87.80038857480542
 21
10.95909081665936
 31
0.0
  0
LINE
  5
1EF
  8
0
  6
CONTINUOUS
 62
     7
 10
89.65571765220542
 20
8.43629482245936
 30
0.0
 11
89.16767072190541
 21
9.777193168859355
 31
0.0
  0
LINE
  5
1F0
  8
0
  6
CONTINUOUS
 62
     7
 10
88.71602481560541
 20
8.094274819259368
 30
0.0
 11
88.22797779320541
 21
9.435173504359355
 31
0.0
  0
LINE
  5
1F1
  8
0
  6
CONTINUOUS
 62
     7
 10
87.74983989040541
 20
9.913311075159356
 30
0.0
 11
87.45836844510544
 21
10.01939798055936
 31
0.0
  0
LINE
  5
1F2
  8
0
  6
CONTINUOUS
 62
     7
 10
87.80038857480542
 20
10.95909081665936
 30
0.0
 11
87.80038857480542
 21
10.98572105435936
 31
0.0
  0
LINE
  5
1F3
  8
0
  6
CONTINUOUS
 62
     7
 10
89.82672756900541
 20
7.966449102859357
 30
0.0
 11
88.88703473240543
 21
7.624428168259357
 31
0.0
  0
LINE
  5
1F4
  8
0
  6
CONTINUOUS
 62
     7
 10
89.65571765220542
 20
8.43629482245936
 30
0.0
 11
89.68907995510543
 21
8.344633123359358
 31
0.0
  0
LINE
  5
1F5
  8
0
  6
CONTINUOUS
 62
     7
 10
89.68907995510543
 20
8.344633123359358
 30
0.0
 11
89.72116029250543
 21
8.256492754859366
 31
0.0
  0
LINE
  5
1F6
  8
0
  6
CONTINUOUS
 62
     7
 10
89.72116029250543
 20
8.256492754859366
 30
0.0
 11
89.75072559330542
 21
8.175262799959356
 31
0.0
  0
LINE
  5
1F7
  8
0
  6
CONTINUOUS
 62
     7
 10
89.75072559330542
 20
8.175262799959356
 30
0.0
 11
89.77664010960541
 21
8.10406318905936
 31
0.0
  0
LINE
  5
1F8
  8
0
  6
CONTINUOUS
 62
     7
 10
89.77664010960541
 20
8.10406318905936
 30
0.0
 11
89.79790732630542
 21
8.045632010759363
 31
0.0
  0
LINE
  5
1F9
  8
0
  6
CONTINUOUS
 62
     7
 10
89.79790732630542
 20
8.045632010759363
 30
0.0
 11
89.81371047340542
 21
8.002213752359367
 31
0.0
  0
LINE
  5
1FA
  8
0
  6
CONTINUOUS
 62
     7
 10
89.81371047340542
 20
8.002213752359367
 30
0.0
 11
89.82344186300543
 21
7.97547641255936
 31
0.0
  0
LINE
  5
1FB
  8
0
  6
CONTINUOUS
 62
     7
 10
89.82344186300543
 20
7.97547641255936
 30
0.0
 11
89.82672756900541
 21
7.966449102859357
 31
0.0
  0
LINE
  5
1FC
  8
0
  6
CONTINUOUS
 62
     7
 10
88.88703473240543
 20
7.624428168259357
 30
0.0
 11
88.88374856070541
 21
7.633456409359368
 31
0.0
  0
LINE
  5
1FD
  8
0
  6
CONTINUOUS
 62
     7
 10
88.88374856070541
 20
7.633456409359368
 30
0.0
 11
88.87401717110544
 21
7.660193749159362
 31
0.0
  0
LINE
  5
1FE
  8
0
  6
CONTINUOUS
 62
     7
 10
88.87401717110544
 20
7.660193749159362
 30
0.0
 11
88.85821448970543
 21
7.703612007559357
 31
0.0
  0
LINE
  5
1FF
  8
0
  6
CONTINUOUS
 62
     7
 10
88.85821448970543
 20
7.703612007559357
 30
0.0
 11
88.83694680740541
 21
7.762043185859356
 31
0.0
  0
LINE
  5
200
  8
0
  6
CONTINUOUS
 62
     7
 10
88.83694680740541
 20
7.762043185859356
 30
0.0
 11
88.81103275670543
 21
7.833241865359355
 31
0.0
  0
LINE
  5
201
  8
0
  6
CONTINUOUS
 62
     7
 10
88.81103275670543
 20
7.833241865359355
 30
0.0
 11
88.78146745590541
 21
7.91447275165936
 31
0.0
  0
LINE
  5
202
  8
0
  6
CONTINUOUS
 62
     7
 10
88.78146745590541
 20
7.91447275165936
 30
0.0
 11
88.74938711850541
 21
8.002612188759358
 31
0.0
  0
LINE
  5
203
  8
0
  6
CONTINUOUS
 62
     7
 10
88.74938711850541
 20
8.002612188759358
 30
0.0
 11
88.71602481560541
 21
8.094274819259368
 31
0.0
  0
LINE
  5
204
  8
0
  6
CONTINUOUS
 62
     7
 10
92.95920723800543
 20
11.96609903625937
 30
0.0
 11
90.80038812220542
 21
11.38764527195936
 31
0.0
  0
LINE
  5
205
  8
0
  6
CONTINUOUS
 62
     7
 10
93.70038858270541
 20
37.03572178545935
 30
0.0
 11
93.70038858270541
 21
12.93202522015936
 31
0.0
  0
LINE
  5
206
  8
0
  6
CONTINUOUS
 62
     7
 10
79.76737226700541
 20
40.28572339475935
 30
0.0
 11
83.66448996430543
 21
38.03572306695936
 31
0.0
  0
LINE
  5
207
  8
0
  6
CONTINUOUS
 62
     7
 10
83.66448996430543
 20
38.03572306695936
 30
0.0
 11
92.70038858270541
 21
38.03572178545935
 31
0.0
  0
LINE
  5
208
  8
0
  6
CONTINUOUS
 62
     7
 10
86.80038817720543
 20
10.88572137135937
 30
0.0
 11
86.80038817720543
 21
10.98572183895936
 31
0.0
  0
LINE
  5
209
  8
0
  6
CONTINUOUS
 62
     7
 10
90.80038812220542
 20
11.38764527195936
 30
0.0
 11
90.70038805930542
 21
11.36085112145936
 31
0.0
  0
LINE
  5
20A
  8
0
  6
CONTINUOUS
 62
     7
 10
-7.09342357379458
 20
74.77173536455935
 30
0.0
 11
94.90657449510542
 21
74.77173536455935
 31
0.0
  0
LINE
  5
20B
  8
0
  6
CONTINUOUS
 62
     7
 10
42.65657565140543
 20
74.77173536455935
 30
0.0
 11
42.65657565140543
 21
80.77173529075937
 31
0.0
  0
LINE
  5
20C
  8
0
  6
CONTINUOUS
 62
     7
 10
1.656574518905416
 20
80.67173529075937
 30
0.0
 11
1.656574518905416
 21
74.87173536455937
 31
0.0
  0
LINE
  5
20D
  8
0
  6
CONTINUOUS
 62
     7
 10
78.90657460830542
 20
82.77173538575936
 30
0.0
 11
82.10657476030542
 21
82.77173538575936
 31
0.0
  0
LINE
  5
20E
  8
0
  6
CONTINUOUS
 62
     7
 10
82.27458617030541
 20
82.73473926405937
 30
0.0
 11
82.10657490360543
 21
82.67173517645936
 31
0.0
  0
LINE
  5
20F
  8
0
  6
CONTINUOUS
 62
     7
 10
82.10657490360543
 20
82.67173517645936
 30
0.0
 11
78.64199904660543
 21
82.67173517645936
 31
0.0
  0
LINE
  5
210
  8
0
  6
CONTINUOUS
 62
     7
 10
82.50657354650542
 20
82.37173541125937
 30
0.0
 11
82.50657354650542
 21
81.37173571295936
 31
0.0
  0
LINE
  5
211
  8
0
  6
CONTINUOUS
 62
     7
 10
82.10657490360543
 20
82.57173488065935
 30
0.0
 11
82.10657490360543
 21
82.67173517645936
 31
0.0
  0
LINE
  5
212
  8
0
  6
CONTINUOUS
 62
     7
 10
78.30657390820542
 20
82.02173488365936
 30
0.0
 11
78.30657390820542
 21
81.07173486765937
 31
0.0
  0
LINE
  5
213
  8
0
  6
CONTINUOUS
 62
     7
 10
82.10657490360543
 20
81.07173486765937
 30
0.0
 11
82.10657490360543
 21
82.02173488365936
 31
0.0
  0
LINE
  5
214
  8
0
  6
CONTINUOUS
 62
     7
 10
82.40657439390543
 20
80.77173491155936
 30
0.0
 11
82.10657490360543
 21
81.07173486765937
 31
0.0
  0
LINE
  5
215
  8
0
  6
CONTINUOUS
 62
     7
 10
78.30657390820542
 20
81.07173486765937
 30
0.0
 11
78.00657441780541
 21
80.77173491155936
 31
0.0
  0
LINE
  5
216
  8
0
  6
CONTINUOUS
 62
     7
 10
78.30657390820542
 20
82.57173488065935
 30
0.0
 11
82.10657490360543
 21
82.57173488065935
 31
0.0
  0
LINE
  5
217
  8
0
  6
CONTINUOUS
 62
     7
 10
82.10657490360543
 20
82.02173488365936
 30
0.0
 11
82.10657490360543
 21
82.57173488065935
 31
0.0
  0
LINE
  5
218
  8
0
  6
CONTINUOUS
 62
     7
 10
78.30657390820542
 20
82.57173488065935
 30
0.0
 11
78.30657390820542
 21
82.02173488365936
 31
0.0
  0
LINE
  5
219
  8
0
  6
CONTINUOUS
 62
     7
 10
89.00657473750542
 20
75.37173527065936
 30
0.0
 11
89.00657473750542
 21
80.17173549675935
 31
0.0
  0
LINE
  5
21A
  8
0
  6
CONTINUOUS
 62
     7
 10
89.00657473750542
 20
75.37173527065936
 30
0.0
 11
87.50657495730542
 21
75.37173527065936
 31
0.0
  0
LINE
  5
21B
  8
0
  6
CONTINUOUS
 62
     7
 10
89.00657473750542
 20
80.17173549675935
 30
0.0
 11
87.50657484530541
 21
80.17173549675935
 31
0.0
  0
LINE
  5
21C
  8
0
  6
CONTINUOUS
 62
     7
 10
87.50657495730542
 20
75.37173527065936
 30
0.0
 11
85.50657462950542
 21
75.37173527065936
 31
0.0
  0
LINE
  5
21D
  8
0
  6
CONTINUOUS
 62
     7
 10
84.50657451890541
 20
76.37173532765935
 30
0.0
 11
84.50657440860542
 21
79.17173527775937
 31
0.0
  0
LINE
  5
21E
  8
0
  6
CONTINUOUS
 62
     7
 10
87.50657484530541
 20
80.17173549675935
 30
0.0
 11
85.50657446380544
 21
80.17173538285935
 31
0.0
  0
LINE
  5
21F
  8
0
  6
CONTINUOUS
 62
     7
 10
-7.09342357379458
 20
80.77173529075937
 30
0.0
 11
94.90657449510542
 21
80.77173529075937
 31
0.0
  0
LINE
  5
220
  8
0
  6
CONTINUOUS
 62
     7
 10
-7.09342357379458
 20
74.77173536455935
 30
0.0
 11
-7.09342357379458
 21
80.77173529075937
 31
0.0
  0
LINE
  5
221
  8
0
  6
CONTINUOUS
 62
     7
 10
94.90657449510542
 20
74.77173536455935
 30
0.0
 11
94.90657449510542
 21
80.77173529075937
 31
0.0
  0
LINE
  5
222
  8
0
  6
CONTINUOUS
 62
     7
 10
-63.33820167019459
 20
17.34601064765936
 30
0.0
 11
-66.33820169629459
 21
17.34601064765936
 31
0.0
  0
LINE
  5
223
  8
0
  6
CONTINUOUS
 62
     7
 10
-66.33820169629459
 20
17.29600980125935
 30
0.0
 11
-66.4382016428946
 21
17.29600980125935
 31
0.0
  0
LINE
  5
224
  8
0
  6
CONTINUOUS
 62
     7
 10
-67.8382016463946
 20
-39.50398734964064
 30
0.0
 11
-64.83820168329459
 21
-39.50398734964064
 31
0.0
  0
LINE
  5
225
  8
0
  6
CONTINUOUS
 62
     7
 10
-63.23820172369457
 20
17.29600980125935
 30
0.0
 11
-63.33820167019459
 21
17.29600980125935
 31
0.0
  0
LINE
  5
226
  8
0
  6
CONTINUOUS
 62
     7
 10
-67.8382016463946
 20
-44.40398461384065
 30
0.0
 11
-64.83820168329459
 21
-44.40398461384065
 31
0.0
  0
LINE
  5
227
  8
0
  6
CONTINUOUS
 62
     7
 10
-61.83820172019458
 20
-53.65398795164064
 30
0.0
 11
-67.8382016463946
 21
-53.65398795164064
 31
0.0
  0
LINE
  5
228
  8
0
  6
CONTINUOUS
 62
     7
 10
-61.83820172019458
 20
-39.50398734964064
 30
0.0
 11
-64.83820168329459
 21
-39.50398734964064
 31
0.0
  0
LINE
  5
229
  8
0
  6
CONTINUOUS
 62
     7
 10
-61.83820172019458
 20
-44.40398461384065
 30
0.0
 11
-64.83820168329459
 21
-44.40398461384065
 31
0.0
  0
LINE
  5
22A
  8
0
  6
CONTINUOUS
 62
     7
 10
-63.13820267089457
 20
-39.50398641004064
 30
0.0
 11
-63.13820267089457
 21
-39.50903790374063
 31
0.0
  0
LINE
  5
22B
  8
0
  6
CONTINUOUS
 62
     7
 10
-63.13820267089457
 20
-44.39893441574065
 30
0.0
 11
-63.13820267089457
 21
-44.40398218404064
 31
0.0
  0
LINE
  5
22C
  8
0
  6
CONTINUOUS
 62
     7
 10
-63.33820263419457
 20
-39.55398539144063
 30
0.0
 11
-63.43820268409458
 21
-39.55398724514063
 31
0.0
  0
LINE
  5
22D
  8
0
  6
CONTINUOUS
 62
     7
 10
-67.38820272619458
 20
-39.55398724514063
 30
0.0
 11
-67.4882025562946
 21
-39.55398724514063
 31
0.0
  0
LINE
  5
22E
  8
0
  6
CONTINUOUS
 62
     7
 10
-63.13820267089457
 20
-44.15398540274064
 30
0.0
 11
-63.13820267089457
 21
-39.75398691674064
 31
0.0
  0
LINE
  5
22F
  8
0
  6
CONTINUOUS
 62
     7
 10
-63.43820120599457
 20
-44.35398691754064
 30
0.0
 11
-63.33820114309459
 21
-44.35398691754064
 31
0.0
  0
LINE
  5
230
  8
0
  6
CONTINUOUS
 62
     7
 10
-63.43820268409458
 20
-39.55398724514063
 30
0.0
 11
-67.38820272619458
 21
-39.55398724514063
 31
0.0
  0
LINE
  5
231
  8
0
  6
CONTINUOUS
 62
     7
 10
-67.68820173129458
 20
-39.75398785634064
 30
0.0
 11
-67.68820173129458
 21
-44.15398634234064
 31
0.0
  0
LINE
  5
232
  8
0
  6
CONTINUOUS
 62
     7
 10
-67.48820107819458
 20
-44.35398691754064
 30
0.0
 11
-67.38820124809459
 21
-44.35398691754064
 31
0.0
  0
LINE
  5
233
  8
0
  6
CONTINUOUS
 62
     7
 10
-67.38820124809459
 20
-44.35398691754064
 30
0.0
 11
-63.43820120599457
 21
-44.35398691754064
 31
0.0
  0
LINE
  5
234
  8
0
  6
CONTINUOUS
 62
     7
 10
-67.8382016463946
 20
-26.15398996334063
 30
0.0
 11
-66.83820177829458
 21
-26.15398996334063
 31
0.0
  0
LINE
  5
235
  8
0
  6
CONTINUOUS
 62
     7
 10
-61.83820172019458
 20
12.86866060635935
 30
0.0
 11
-67.8382016463946
 21
12.86866060635935
 31
0.0
  0
LINE
  5
236
  8
0
  6
CONTINUOUS
 62
     7
 10
-61.83820172019458
 20
-26.15398996334063
 30
0.0
 11
-62.83820158829459
 21
-26.15398996334063
 31
0.0
  0
LINE
  5
237
  8
0
  6
CONTINUOUS
 62
     7
 10
-62.83820158829459
 20
-26.15398996334063
 30
0.0
 11
-62.83820158829459
 21
-33.15398924804065
 31
0.0
  0
LINE
  5
238
  8
0
  6
CONTINUOUS
 62
     7
 10
-63.63820162629457
 20
-33.65399026134064
 30
0.0
 11
-62.83820158829459
 21
-33.15398924804065
 31
0.0
  0
LINE
  5
239
  8
0
  6
CONTINUOUS
 62
     7
 10
-63.63820162629457
 20
-33.65399026134064
 30
0.0
 11
-66.0382017402946
 21
-33.65399026134064
 31
0.0
  0
LINE
  5
23A
  8
0
  6
CONTINUOUS
 62
     7
 10
-66.83820177829458
 20
-33.15398924804065
 30
0.0
 11
-66.0382017402946
 21
-33.65399026134064
 31
0.0
  0
LINE
  5
23B
  8
0
  6
CONTINUOUS
 62
     7
 10
-66.83820177829458
 20
-26.15398996334063
 30
0.0
 11
-66.83820177829458
 21
-33.15398924804065
 31
0.0
  0
LINE
  5
23C
  8
0
  6
CONTINUOUS
 62
     7
 10
-66.33820169629459
 20
16.03376037615936
 30
0.0
 11
-63.33820167019459
 21
16.03376037615936
 31
0.0
  0
LINE
  5
23D
  8
0
  6
CONTINUOUS
 62
     7
 10
-63.33820167019459
 20
17.34601064765936
 30
0.0
 11
-63.33820167019459
 21
12.86866060635935
 31
0.0
  0
LINE
  5
23E
  8
0
  6
CONTINUOUS
 62
     7
 10
-66.33820169629459
 20
12.86866060635935
 30
0.0
 11
-66.33820169629459
 21
17.34601064765936
 31
0.0
  0
LINE
  5
23F
  8
0
  6
CONTINUOUS
 62
     7
 10
-67.38820124809459
 20
31.04601101415937
 30
0.0
 11
-63.43820120599457
 21
31.04601101415937
 31
0.0
  0
LINE
  5
240
  8
0
  6
CONTINUOUS
 62
     7
 10
-67.48820107819458
 20
31.04601101415937
 30
0.0
 11
-67.38820124809459
 21
31.04601101415937
 31
0.0
  0
LINE
  5
241
  8
0
  6
CONTINUOUS
 62
     7
 10
-67.68820173129458
 20
26.44601195295935
 30
0.0
 11
-67.68820173129458
 21
30.84601043895936
 31
0.0
  0
LINE
  5
242
  8
0
  6
CONTINUOUS
 62
     7
 10
-63.43820268409458
 20
26.24601134195937
 30
0.0
 11
-67.38820272619458
 21
26.24601134195937
 31
0.0
  0
LINE
  5
243
  8
0
  6
CONTINUOUS
 62
     7
 10
-63.43820120599457
 20
31.04601101415937
 30
0.0
 11
-63.33820114309459
 21
31.04601101415937
 31
0.0
  0
LINE
  5
244
  8
0
  6
CONTINUOUS
 62
     7
 10
-63.13820262289458
 20
30.84600949955938
 30
0.0
 11
-63.13820262289458
 21
26.44601101355935
 31
0.0
  0
LINE
  5
245
  8
0
  6
CONTINUOUS
 62
     7
 10
-67.38820272619458
 20
26.24601134195937
 30
0.0
 11
-67.4882025562946
 21
26.24601134195937
 31
0.0
  0
LINE
  5
246
  8
0
  6
CONTINUOUS
 62
     7
 10
-63.33820263419457
 20
26.24600948825936
 30
0.0
 11
-63.43820268409458
 21
26.24601134195937
 31
0.0
  0
LINE
  5
247
  8
0
  6
CONTINUOUS
 62
     7
 10
-63.13820262289458
 20
31.09095851255936
 30
0.0
 11
-63.13820262289458
 21
31.09600628095938
 31
0.0
  0
LINE
  5
248
  8
0
  6
CONTINUOUS
 62
     7
 10
-63.13820262289458
 20
26.19601050695935
 30
0.0
 11
-63.13820262289458
 21
26.20106200055936
 31
0.0
  0
LINE
  5
249
  8
0
  6
CONTINUOUS
 62
     7
 10
-61.83820172019458
 20
-53.65398795164064
 30
0.0
 11
-61.83820172019458
 21
40.34601204835936
 31
0.0
  0
LINE
  5
24A
  8
0
  6
CONTINUOUS
 62
     7
 10
-63.23820172369457
 20
18.65389115355935
 30
0.0
 11
-61.83820172019458
 21
18.65389115355935
 31
0.0
  0
LINE
  5
24B
  8
0
  6
CONTINUOUS
 62
     7
 10
-64.83820168329459
 20
18.30748013395935
 30
0.0
 11
-64.83820168329459
 21
19.34671133005936
 31
0.0
  0
LINE
  5
24C
  8
0
  6
CONTINUOUS
 62
     7
 10
-63.23820172369457
 20
16.33614591495936
 30
0.0
 11
-63.23820172369457
 21
17.14628665885936
 31
0.0
  0
LINE
  5
24D
  8
0
  6
CONTINUOUS
 62
     7
 10
-63.23820172369457
 20
18.65389115355935
 30
0.0
 11
-63.23820172369457
 21
17.14628665885936
 31
0.0
  0
LINE
  5
24E
  8
0
  6
CONTINUOUS
 62
     7
 10
-62.73820175819458
 20
-26.35398962354065
 30
0.0
 11
-61.83820172019458
 21
-26.35398962354065
 31
0.0
  0
LINE
  5
24F
  8
0
  6
CONTINUOUS
 62
     7
 10
-62.73820175819458
 20
-26.55398928384064
 30
0.0
 11
-62.73820175819458
 21
-26.35398962354065
 31
0.0
  0
LINE
  5
250
  8
0
  6
CONTINUOUS
 62
     7
 10
-62.73820175819458
 20
-32.95398958784064
 30
0.0
 11
-62.73820175819458
 21
-26.55398928384064
 31
0.0
  0
LINE
  5
251
  8
0
  6
CONTINUOUS
 62
     7
 10
-64.83820168329459
 20
-35.15398957594065
 30
0.0
 11
-61.83820172019458
 21
-35.15398957594065
 31
0.0
  0
LINE
  5
252
  8
0
  6
CONTINUOUS
 62
     7
 10
-64.83820168329459
 20
-35.35398923614063
 30
0.0
 11
-64.83820168329459
 21
-35.15398957594065
 31
0.0
  0
LINE
  5
253
  8
0
  6
CONTINUOUS
 62
     7
 10
-62.73820175819458
 20
-33.15398924804065
 30
0.0
 11
-61.83820172019458
 21
-33.15398924804065
 31
0.0
  0
LINE
  5
254
  8
0
  6
CONTINUOUS
 62
     7
 10
-62.73820175819458
 20
-33.15398924804065
 30
0.0
 11
-62.73820175819458
 21
-32.95398958784064
 31
0.0
  0
LINE
  5
255
  8
0
  6
CONTINUOUS
 62
     7
 10
-61.83820172019458
 20
31.09600871045938
 30
0.0
 11
-64.83820168329459
 21
31.09600871045938
 31
0.0
  0
LINE
  5
256
  8
0
  6
CONTINUOUS
 62
     7
 10
-61.83820172019458
 20
26.19601144635935
 30
0.0
 11
-64.83820168329459
 21
26.19601144635935
 31
0.0
  0
LINE
  5
257
  8
0
  6
CONTINUOUS
 62
     7
 10
-64.83820168329459
 20
17.44145631035936
 30
0.0
 11
-63.23820172369457
 21
17.44145631035936
 31
0.0
  0
LINE
  5
258
  8
0
  6
CONTINUOUS
 62
     7
 10
-64.83820168329459
 20
18.30748013395935
 30
0.0
 11
-64.83820168329459
 21
17.44145631035936
 31
0.0
  0
LINE
  5
259
  8
0
  6
CONTINUOUS
 62
     7
 10
-62.83820158829459
 20
-33.15398924804065
 30
0.0
 11
-62.73820175819458
 21
-33.15398924804065
 31
0.0
  0
LINE
  5
25A
  8
0
  6
CONTINUOUS
 62
     7
 10
-62.73820175819458
 20
-26.35398962354065
 30
0.0
 11
-62.73820175819458
 21
-26.15398996334063
 31
0.0
  0
LINE
  5
25B
  8
0
  6
CONTINUOUS
 62
     7
 10
-62.73820175819458
 20
-34.15398941194064
 30
0.0
 11
-62.73820175819458
 21
-33.15398924804065
 31
0.0
  0
LINE
  5
25C
  8
0
  6
CONTINUOUS
 62
     7
 10
-62.73820175819458
 20
-35.15398957594065
 30
0.0
 11
-62.73820175819458
 21
-34.15398941194064
 31
0.0
  0
LINE
  5
25D
  8
0
  6
CONTINUOUS
 62
     7
 10
-64.83820168329459
 20
17.44145631035936
 30
0.0
 11
-64.83820168329459
 21
17.34601064765936
 31
0.0
  0
LINE
  5
25E
  8
0
  6
CONTINUOUS
 62
     7
 10
-62.89256102429457
 20
-33.18796389564064
 30
0.0
 11
-62.73820175819458
 21
-33.18796389564064
 31
0.0
  0
LINE
  5
25F
  8
0
  6
CONTINUOUS
 62
     7
 10
-64.83820168329459
 20
-33.65399026134064
 30
0.0
 11
-64.83820168329459
 21
-35.15398957594065
 31
0.0
  0
LINE
  5
260
  8
0
  6
CONTINUOUS
 62
     7
 10
-67.83820164629458
 20
-15.60398925844063
 30
0.0
 11
-69.43820148949459
 21
-15.60398925844063
 31
0.0
  0
LINE
  5
261
  8
0
  6
CONTINUOUS
 62
     7
 10
-67.8382016463946
 20
-15.20398993804064
 30
0.0
 11
-69.43820148959458
 21
-15.20398993804064
 31
0.0
  0
LINE
  5
262
  8
0
  6
CONTINUOUS
 62
     7
 10
-69.7382019112946
 20
-15.20398993804064
 30
0.0
 11
-69.7808625387946
 21
-15.24665103114065
 31
0.0
  0
LINE
  5
263
  8
0
  6
CONTINUOUS
 62
     7
 10
-69.7808625387946
 20
-15.24665103114065
 30
0.0
 11
-69.81236731879457
 21
-15.27815487994065
 31
0.0
  0
LINE
  5
264
  8
0
  6
CONTINUOUS
 62
     7
 10
-69.81236731879457
 20
-15.27815487994065
 30
0.0
 11
-69.8316899339946
 21
-15.29747796064063
 31
0.0
  0
LINE
  5
265
  8
0
  6
CONTINUOUS
 62
     7
 10
-69.8316899339946
 20
-15.29747796064063
 30
0.0
 11
-69.83820174139458
 21
-15.30398976814064
 31
0.0
  0
LINE
  5
266
  8
0
  6
CONTINUOUS
 62
     7
 10
-69.83820174139458
 20
-15.50398942834065
 30
0.0
 11
-69.8316899339946
 21
-15.51050123584064
 31
0.0
  0
LINE
  5
267
  8
0
  6
CONTINUOUS
 62
     7
 10
-69.8316899339946
 20
-15.51050123584064
 30
0.0
 11
-69.81236731879457
 21
-15.52982338524064
 31
0.0
  0
LINE
  5
268
  8
0
  6
CONTINUOUS
 62
     7
 10
-69.81236731879457
 20
-15.52982338524064
 30
0.0
 11
-69.78086253869458
 21
-15.56132816534064
 31
0.0
  0
LINE
  5
269
  8
0
  6
CONTINUOUS
 62
     7
 10
-69.78086253869458
 20
-15.56132816534064
 30
0.0
 11
-69.73820191119458
 21
-15.60398925844063
 31
0.0
  0
LINE
  5
26A
  8
0
  6
CONTINUOUS
 62
     7
 10
-69.83820174139458
 20
-15.30398976814064
 30
0.0
 11
-69.83820174139458
 21
-15.50398942834065
 31
0.0
  0
LINE
  5
26B
  8
0
  6
CONTINUOUS
 62
     7
 10
-69.43820148949459
 20
-15.60398925844063
 30
0.0
 11
-69.73820191119458
 21
-15.60398925844063
 31
0.0
  0
LINE
  5
26C
  8
0
  6
CONTINUOUS
 62
     7
 10
-69.43820148959458
 20
-15.20398993804064
 30
0.0
 11
-69.7382019112946
 21
-15.20398993804064
 31
0.0
  0
LINE
  5
26D
  8
0
  6
CONTINUOUS
 62
     7
 10
-67.8382016463946
 20
-11.70398936434065
 30
0.0
 11
-69.43820148959458
 21
-11.70398936434065
 31
0.0
  0
LINE
  5
26E
  8
0
  6
CONTINUOUS
 62
     7
 10
-67.8382016463946
 20
-12.10398961614064
 30
0.0
 11
-69.43820148959458
 21
-12.10398961614064
 31
0.0
  0
LINE
  5
26F
  8
0
  6
CONTINUOUS
 62
     7
 10
-69.7382019112946
 20
-11.70398936434065
 30
0.0
 11
-69.7808625387946
 21
-11.74665045744064
 31
0.0
  0
LINE
  5
270
  8
0
  6
CONTINUOUS
 62
     7
 10
-69.7808625387946
 20
-11.74665045744064
 30
0.0
 11
-69.81236731879457
 21
-11.77815523744064
 31
0.0
  0
LINE
  5
271
  8
0
  6
CONTINUOUS
 62
     7
 10
-69.81236731879457
 20
-11.77815523744064
 30
0.0
 11
-69.8316899339946
 21
-11.79747785264064
 31
0.0
  0
LINE
  5
272
  8
0
  6
CONTINUOUS
 62
     7
 10
-69.8316899339946
 20
-11.79747785264064
 30
0.0
 11
-69.83820174139458
 21
-11.80398966004065
 31
0.0
  0
LINE
  5
273
  8
0
  6
CONTINUOUS
 62
     7
 10
-69.83820174139458
 20
-12.00398978604064
 30
0.0
 11
-69.8316899339946
 21
-12.01050112774064
 31
0.0
  0
LINE
  5
274
  8
0
  6
CONTINUOUS
 62
     7
 10
-69.8316899339946
 20
-12.01050112774064
 30
0.0
 11
-69.81236731879457
 21
-12.02982374294064
 31
0.0
  0
LINE
  5
275
  8
0
  6
CONTINUOUS
 62
     7
 10
-69.81236731879457
 20
-12.02982374294064
 30
0.0
 11
-69.7808625387946
 21
-12.06132852294065
 31
0.0
  0
LINE
  5
276
  8
0
  6
CONTINUOUS
 62
     7
 10
-69.7808625387946
 20
-12.06132852294065
 30
0.0
 11
-69.7382019112946
 21
-12.10398961614064
 31
0.0
  0
LINE
  5
277
  8
0
  6
CONTINUOUS
 62
     7
 10
-69.83820174139458
 20
-11.80398966004065
 30
0.0
 11
-69.83820174139458
 21
-12.00398978604064
 31
0.0
  0
LINE
  5
278
  8
0
  6
CONTINUOUS
 62
     7
 10
-69.43820148959458
 20
-12.10398961614064
 30
0.0
 11
-69.7382019112946
 21
-12.10398961614064
 31
0.0
  0
LINE
  5
279
  8
0
  6
CONTINUOUS
 62
     7
 10
-69.43820148959458
 20
-11.70398936434065
 30
0.0
 11
-69.7382019112946
 21
-11.70398936434065
 31
0.0
  0
LINE
  5
27A
  8
0
  6
CONTINUOUS
 62
     7
 10
-67.8382016463946
 20
-1.203989505840639
 30
0.0
 11
-69.43820148959458
 21
-1.203989505840639
 31
0.0
  0
LINE
  5
27B
  8
0
  6
CONTINUOUS
 62
     7
 10
-67.8382016463946
 20
-1.603989757640634
 30
0.0
 11
-69.43820148959458
 21
-1.603989757640634
 31
0.0
  0
LINE
  5
27C
  8
0
  6
CONTINUOUS
 62
     7
 10
-69.7382019112946
 20
-1.203989505840639
 30
0.0
 11
-69.7808625387946
 21
-1.246650599040635
 31
0.0
  0
LINE
  5
27D
  8
0
  6
CONTINUOUS
 62
     7
 10
-69.7808625387946
 20
-1.246650599040635
 30
0.0
 11
-69.81236731879457
 21
-1.278155379040641
 31
0.0
  0
LINE
  5
27E
  8
0
  6
CONTINUOUS
 62
     7
 10
-69.81236731879457
 20
-1.278155379040641
 30
0.0
 11
-69.8316899339946
 21
-1.297477994240637
 31
0.0
  0
LINE
  5
27F
  8
0
  6
CONTINUOUS
 62
     7
 10
-69.8316899339946
 20
-1.297477994240637
 30
0.0
 11
-69.83820174139458
 21
-1.303989335940642
 31
0.0
  0
LINE
  5
280
  8
0
  6
CONTINUOUS
 62
     7
 10
-69.43820148959458
 20
-1.203989505840639
 30
0.0
 11
-69.7382019112946
 21
-1.203989505840639
 31
0.0
  0
LINE
  5
281
  8
0
  6
CONTINUOUS
 62
     7
 10
-69.83820174139458
 20
-1.503989461940634
 30
0.0
 11
-69.8316899339946
 21
-1.510501269340637
 31
0.0
  0
LINE
  5
282
  8
0
  6
CONTINUOUS
 62
     7
 10
-69.8316899339946
 20
-1.510501269340637
 30
0.0
 11
-69.81236731879457
 21
-1.529823884440646
 31
0.0
  0
LINE
  5
283
  8
0
  6
CONTINUOUS
 62
     7
 10
-69.81236731879457
 20
-1.529823884440646
 30
0.0
 11
-69.7808625387946
 21
-1.561328664540639
 31
0.0
  0
LINE
  5
284
  8
0
  6
CONTINUOUS
 62
     7
 10
-69.7808625387946
 20
-1.561328664540639
 30
0.0
 11
-69.7382019112946
 21
-1.603989757640634
 31
0.0
  0
LINE
  5
285
  8
0
  6
CONTINUOUS
 62
     7
 10
-69.83820174139458
 20
-1.303989335940642
 30
0.0
 11
-69.83820174139458
 21
-1.503989461940634
 31
0.0
  0
LINE
  5
286
  8
0
  6
CONTINUOUS
 62
     7
 10
-69.43820148959458
 20
-1.603989757640634
 30
0.0
 11
-69.7382019112946
 21
-1.603989757640634
 31
0.0
  0
LINE
  5
287
  8
0
  6
CONTINUOUS
 62
     7
 10
-67.8382016463946
 20
-4.703989613940636
 30
0.0
 11
-69.43820148959458
 21
-4.703989613940636
 31
0.0
  0
LINE
  5
288
  8
0
  6
CONTINUOUS
 62
     7
 10
-67.8382016463946
 20
-5.103989516440635
 30
0.0
 11
-69.43820148959458
 21
-5.103989516440635
 31
0.0
  0
LINE
  5
289
  8
0
  6
CONTINUOUS
 62
     7
 10
-69.7382019112946
 20
-4.703989613940636
 30
0.0
 11
-69.7808625387946
 21
-4.746650590640641
 31
0.0
  0
LINE
  5
28A
  8
0
  6
CONTINUOUS
 62
     7
 10
-69.7808625387946
 20
-4.746650590640641
 30
0.0
 11
-69.81236731879457
 21
-4.778155254340632
 31
0.0
  0
LINE
  5
28B
  8
0
  6
CONTINUOUS
 62
     7
 10
-69.81236731879457
 20
-4.778155254340632
 30
0.0
 11
-69.8316899339946
 21
-4.797477985840644
 31
0.0
  0
LINE
  5
28C
  8
0
  6
CONTINUOUS
 62
     7
 10
-69.8316899339946
 20
-4.797477985840644
 30
0.0
 11
-69.83820174139458
 21
-4.803989560440641
 31
0.0
  0
LINE
  5
28D
  8
0
  6
CONTINUOUS
 62
     7
 10
-69.43820148959458
 20
-4.703989613940636
 30
0.0
 11
-69.7382019112946
 21
-4.703989613940636
 31
0.0
  0
LINE
  5
28E
  8
0
  6
CONTINUOUS
 62
     7
 10
-69.83820174139458
 20
-5.003989569940643
 30
0.0
 11
-69.8316899339946
 21
-5.01050114454064
 31
0.0
  0
LINE
  5
28F
  8
0
  6
CONTINUOUS
 62
     7
 10
-69.8316899339946
 20
-5.01050114454064
 30
0.0
 11
-69.81236731879457
 21
-5.029823876040638
 31
0.0
  0
LINE
  5
290
  8
0
  6
CONTINUOUS
 62
     7
 10
-69.81236731879457
 20
-5.029823876040638
 30
0.0
 11
-69.7808625387946
 21
-5.061328539740643
 31
0.0
  0
LINE
  5
291
  8
0
  6
CONTINUOUS
 62
     7
 10
-69.7808625387946
 20
-5.061328539740643
 30
0.0
 11
-69.7382019112946
 21
-5.103989516440635
 31
0.0
  0
LINE
  5
292
  8
0
  6
CONTINUOUS
 62
     7
 10
-69.83820174139458
 20
-4.803989560440641
 30
0.0
 11
-69.83820174139458
 21
-5.003989569940643
 31
0.0
  0
LINE
  5
293
  8
0
  6
CONTINUOUS
 62
     7
 10
-69.43820148959458
 20
-5.103989516440635
 30
0.0
 11
-69.7382019112946
 21
-5.103989516440635
 31
0.0
  0
LINE
  5
294
  8
0
  6
CONTINUOUS
 62
     7
 10
-67.83820164629458
 20
2.29601013655936
 30
0.0
 11
-69.43820148949459
 21
2.29601013655936
 31
0.0
  0
LINE
  5
295
  8
0
  6
CONTINUOUS
 62
     7
 10
-67.8382016463946
 20
1.896010815959357
 30
0.0
 11
-69.43820148959458
 21
1.896010815959357
 31
0.0
  0
LINE
  5
296
  8
0
  6
CONTINUOUS
 62
     7
 10
-69.73820191119458
 20
2.29601013655936
 30
0.0
 11
-69.78086253869458
 21
2.253349043359364
 31
0.0
  0
LINE
  5
297
  8
0
  6
CONTINUOUS
 62
     7
 10
-69.78086253869458
 20
2.253349043359364
 30
0.0
 11
-69.81236731879457
 21
2.221844263259356
 31
0.0
  0
LINE
  5
298
  8
0
  6
CONTINUOUS
 62
     7
 10
-69.81236731879457
 20
2.221844263259356
 30
0.0
 11
-69.8316899339946
 21
2.202522113859359
 31
0.0
  0
LINE
  5
299
  8
0
  6
CONTINUOUS
 62
     7
 10
-69.8316899339946
 20
2.202522113859359
 30
0.0
 11
-69.83820174139458
 21
2.196010306359355
 31
0.0
  0
LINE
  5
29A
  8
0
  6
CONTINUOUS
 62
     7
 10
-69.43820148949459
 20
2.29601013655936
 30
0.0
 11
-69.73820191119458
 21
2.29601013655936
 31
0.0
  0
LINE
  5
29B
  8
0
  6
CONTINUOUS
 62
     7
 10
-69.83820174139458
 20
1.996010646159363
 30
0.0
 11
-69.8316899339946
 21
1.989498838659358
 31
0.0
  0
LINE
  5
29C
  8
0
  6
CONTINUOUS
 62
     7
 10
-69.8316899339946
 20
1.989498838659358
 30
0.0
 11
-69.81236731879457
 21
1.970175757959368
 31
0.0
  0
LINE
  5
29D
  8
0
  6
CONTINUOUS
 62
     7
 10
-69.81236731879457
 20
1.970175757959368
 30
0.0
 11
-69.7808625387946
 21
1.938671909159368
 31
0.0
  0
LINE
  5
29E
  8
0
  6
CONTINUOUS
 62
     7
 10
-69.7808625387946
 20
1.938671909159368
 30
0.0
 11
-69.7382019112946
 21
1.896010815959357
 31
0.0
  0
LINE
  5
29F
  8
0
  6
CONTINUOUS
 62
     7
 10
-69.83820174139458
 20
2.196010306359355
 30
0.0
 11
-69.83820174139458
 21
1.996010646159363
 31
0.0
  0
LINE
  5
2A0
  8
0
  6
CONTINUOUS
 62
     7
 10
-69.43820148959458
 20
1.896010815959357
 30
0.0
 11
-69.7382019112946
 21
1.896010815959357
 31
0.0
  0
LINE
  5
2A1
  8
0
  6
CONTINUOUS
 62
     7
 10
-67.8382016463946
 20
-8.203989605540645
 30
0.0
 11
-69.43820148959458
 21
-8.203989605540645
 31
0.0
  0
LINE
  5
2A2
  8
0
  6
CONTINUOUS
 62
     7
 10
-67.8382016463946
 20
-8.603989508140646
 30
0.0
 11
-69.43820148959458
 21
-8.603989508140646
 31
0.0
  0
LINE
  5
2A3
  8
0
  6
CONTINUOUS
 62
     7
 10
-69.7382019112946
 20
-8.203989605540645
 30
0.0
 11
-69.7808625387946
 21
-8.246650582240635
 31
0.0
  0
LINE
  5
2A4
  8
0
  6
CONTINUOUS
 62
     7
 10
-69.7808625387946
 20
-8.246650582240635
 30
0.0
 11
-69.81236731879457
 21
-8.278155245940635
 31
0.0
  0
LINE
  5
2A5
  8
0
  6
CONTINUOUS
 62
     7
 10
-69.81236731879457
 20
-8.278155245940635
 30
0.0
 11
-69.8316899339946
 21
-8.297477977440636
 31
0.0
  0
LINE
  5
2A6
  8
0
  6
CONTINUOUS
 62
     7
 10
-69.8316899339946
 20
-8.297477977440636
 30
0.0
 11
-69.83820174139458
 21
-8.303989552040635
 31
0.0
  0
LINE
  5
2A7
  8
0
  6
CONTINUOUS
 62
     7
 10
-69.43820148959458
 20
-8.203989605540645
 30
0.0
 11
-69.7382019112946
 21
-8.203989605540645
 31
0.0
  0
LINE
  5
2A8
  8
0
  6
CONTINUOUS
 62
     7
 10
-69.83820174139458
 20
-8.503989561540635
 30
0.0
 11
-69.8316899339946
 21
-8.510501136140636
 31
0.0
  0
LINE
  5
2A9
  8
0
  6
CONTINUOUS
 62
     7
 10
-69.8316899339946
 20
-8.510501136140636
 30
0.0
 11
-69.81236731879457
 21
-8.529823867740635
 31
0.0
  0
LINE
  5
2AA
  8
0
  6
CONTINUOUS
 62
     7
 10
-69.81236731879457
 20
-8.529823867740635
 30
0.0
 11
-69.7808625387946
 21
-8.561328531340635
 31
0.0
  0
LINE
  5
2AB
  8
0
  6
CONTINUOUS
 62
     7
 10
-69.7808625387946
 20
-8.561328531340635
 30
0.0
 11
-69.7382019112946
 21
-8.603989508140646
 31
0.0
  0
LINE
  5
2AC
  8
0
  6
CONTINUOUS
 62
     7
 10
-69.83820174139458
 20
-8.303989552040635
 30
0.0
 11
-69.83820174139458
 21
-8.503989561540635
 31
0.0
  0
LINE
  5
2AD
  8
0
  6
CONTINUOUS
 62
     7
 10
-69.43820148959458
 20
-8.603989508140646
 30
0.0
 11
-69.7382019112946
 21
-8.603989508140646
 31
0.0
  0
LINE
  5
2AE
  8
0
  6
CONTINUOUS
 62
     7
 10
-67.83820164629458
 20
-18.70398958024064
 30
0.0
 11
-69.43820148949459
 21
-18.70398958024064
 31
0.0
  0
LINE
  5
2AF
  8
0
  6
CONTINUOUS
 62
     7
 10
-67.83820164629458
 20
-19.10398983214064
 30
0.0
 11
-69.43820148949459
 21
-19.10398983214064
 31
0.0
  0
LINE
  5
2B0
  8
0
  6
CONTINUOUS
 62
     7
 10
-69.73820191119458
 20
-18.70398958024064
 30
0.0
 11
-69.78086253869458
 21
-18.74665067354065
 31
0.0
  0
LINE
  5
2B1
  8
0
  6
CONTINUOUS
 62
     7
 10
-69.78086253869458
 20
-18.74665067354065
 30
0.0
 11
-69.81236731879457
 21
-18.77815545364064
 31
0.0
  0
LINE
  5
2B2
  8
0
  6
CONTINUOUS
 62
     7
 10
-69.81236731879457
 20
-18.77815545364064
 30
0.0
 11
-69.8316899339946
 21
-18.79747760304064
 31
0.0
  0
LINE
  5
2B3
  8
0
  6
CONTINUOUS
 62
     7
 10
-69.8316899339946
 20
-18.79747760304064
 30
0.0
 11
-69.83820174139458
 21
-18.80398941054063
 31
0.0
  0
LINE
  5
2B4
  8
0
  6
CONTINUOUS
 62
     7
 10
-69.43820148949459
 20
-19.10398983214064
 30
0.0
 11
-69.73820191119458
 21
-19.10398983214064
 31
0.0
  0
LINE
  5
2B5
  8
0
  6
CONTINUOUS
 62
     7
 10
-69.83820174139458
 20
-19.00399000204063
 30
0.0
 11
-69.8316899339946
 21
-19.01050087814064
 31
0.0
  0
LINE
  5
2B6
  8
0
  6
CONTINUOUS
 62
     7
 10
-69.8316899339946
 20
-19.01050087814064
 30
0.0
 11
-69.81236731879457
 21
-19.02982395894064
 31
0.0
  0
LINE
  5
2B7
  8
0
  6
CONTINUOUS
 62
     7
 10
-69.81236731879457
 20
-19.02982395894064
 30
0.0
 11
-69.78086253869458
 21
-19.06132873894065
 31
0.0
  0
LINE
  5
2B8
  8
0
  6
CONTINUOUS
 62
     7
 10
-69.78086253869458
 20
-19.06132873894065
 30
0.0
 11
-69.73820191119458
 21
-19.10398983214064
 31
0.0
  0
LINE
  5
2B9
  8
0
  6
CONTINUOUS
 62
     7
 10
-69.83820174139458
 20
-18.80398941054063
 30
0.0
 11
-69.83820174139458
 21
-19.00399000204063
 31
0.0
  0
LINE
  5
2BA
  8
0
  6
CONTINUOUS
 62
     7
 10
-69.43820148949459
 20
-18.70398958024064
 30
0.0
 11
-69.73820191119458
 21
-18.70398958024064
 31
0.0
  0
LINE
  5
2BB
  8
0
  6
CONTINUOUS
 62
     7
 10
-67.83820164629458
 20
5.796010710259367
 30
0.0
 11
-69.43820148949459
 21
5.796010710259367
 31
0.0
  0
LINE
  5
2BC
  8
0
  6
CONTINUOUS
 62
     7
 10
-67.8382016463946
 20
5.396010458359356
 30
0.0
 11
-69.43820148959458
 21
5.396010458359356
 31
0.0
  0
LINE
  5
2BD
  8
0
  6
CONTINUOUS
 62
     7
 10
-69.73820191119458
 20
5.796010710259367
 30
0.0
 11
-69.78086253869458
 21
5.753349617059357
 31
0.0
  0
LINE
  5
2BE
  8
0
  6
CONTINUOUS
 62
     7
 10
-69.78086253869458
 20
5.753349617059357
 30
0.0
 11
-69.81236731879457
 21
5.721844836959363
 31
0.0
  0
LINE
  5
2BF
  8
0
  6
CONTINUOUS
 62
     7
 10
-69.81236731879457
 20
5.721844836959363
 30
0.0
 11
-69.8316899339946
 21
5.702521756159356
 31
0.0
  0
LINE
  5
2C0
  8
0
  6
CONTINUOUS
 62
     7
 10
-69.8316899339946
 20
5.702521756159356
 30
0.0
 11
-69.83820174139458
 21
5.696010880059362
 31
0.0
  0
LINE
  5
2C1
  8
0
  6
CONTINUOUS
 62
     7
 10
-69.43820148949459
 20
5.796010710259367
 30
0.0
 11
-69.73820191119458
 21
5.796010710259367
 31
0.0
  0
LINE
  5
2C2
  8
0
  6
CONTINUOUS
 62
     7
 10
-69.43820148959458
 20
5.396010458359356
 30
0.0
 11
-69.7382019112946
 21
5.396010458359356
 31
0.0
  0
LINE
  5
2C3
  8
0
  6
CONTINUOUS
 62
     7
 10
-69.83820174139458
 20
5.49601028845936
 30
0.0
 11
-69.8316899339946
 21
5.489498481059357
 31
0.0
  0
LINE
  5
2C4
  8
0
  6
CONTINUOUS
 62
     7
 10
-69.8316899339946
 20
5.489498481059357
 30
0.0
 11
-69.81236731879457
 21
5.470176331559358
 31
0.0
  0
LINE
  5
2C5
  8
0
  6
CONTINUOUS
 62
     7
 10
-69.81236731879457
 20
5.470176331559358
 30
0.0
 11
-69.7808625387946
 21
5.438671551559366
 31
0.0
  0
LINE
  5
2C6
  8
0
  6
CONTINUOUS
 62
     7
 10
-69.7808625387946
 20
5.438671551559366
 30
0.0
 11
-69.7382019112946
 21
5.396010458359356
 31
0.0
  0
LINE
  5
2C7
  8
0
  6
CONTINUOUS
 62
     7
 10
-69.83820174139458
 20
5.696010880059362
 30
0.0
 11
-69.83820174139458
 21
5.49601028845936
 31
0.0
  0
LINE
  5
2C8
  8
0
  6
CONTINUOUS
 62
     7
 10
-68.1382015684946
 20
-23.90398905394063
 30
0.0
 11
-68.1382015684946
 21
-24.40399010824063
 31
0.0
  0
LINE
  5
2C9
  8
0
  6
CONTINUOUS
 62
     7
 10
-67.83820161249457
 20
-24.40399010824063
 30
0.0
 11
-68.1382015684946
 21
-24.40399010824063
 31
0.0
  0
LINE
  5
2CA
  8
0
  6
CONTINUOUS
 62
     7
 10
-67.83820161249457
 20
-23.90398905394063
 30
0.0
 11
-68.1382015684946
 21
-23.90398905394063
 31
0.0
  0
LINE
  5
2CB
  8
0
  6
CONTINUOUS
 62
     7
 10
-69.13820157449459
 20
-23.85399014514065
 30
0.0
 11
-69.13820157449459
 21
-23.00398879504064
 31
0.0
  0
LINE
  5
2CC
  8
0
  6
CONTINUOUS
 62
     7
 10
-69.63820161549458
 20
-23.85399014514065
 30
0.0
 11
-69.63820161549458
 21
-23.00398879504064
 31
0.0
  0
LINE
  5
2CD
  8
0
  6
CONTINUOUS
 62
     7
 10
-69.63820161549458
 20
-22.40398981434064
 30
0.0
 11
-69.13820157449459
 21
-22.40398981434064
 31
0.0
  0
LINE
  5
2CE
  8
0
  6
CONTINUOUS
 62
     7
 10
-69.13820157449459
 20
-22.40398981434064
 30
0.0
 11
-69.13820157449459
 21
-23.00398879504064
 31
0.0
  0
LINE
  5
2CF
  8
0
  6
CONTINUOUS
 62
     7
 10
-69.63820161549458
 20
-23.00398879504064
 30
0.0
 11
-69.63820161549458
 21
-22.40398981434064
 31
0.0
  0
LINE
  5
2D0
  8
0
  6
CONTINUOUS
 62
     7
 10
-68.1382015684946
 20
-24.40399010824063
 30
0.0
 11
-69.08820164939459
 21
-24.40398952714063
 31
0.0
  0
LINE
  5
2D1
  8
0
  6
CONTINUOUS
 62
     7
 10
-68.1382015684946
 20
-23.90398905394063
 30
0.0
 11
-69.08820164939459
 21
-23.90398948614065
 31
0.0
  0
LINE
  5
2D2
  8
0
  6
CONTINUOUS
 62
     7
 10
-68.13820153459457
 20
11.09601102015937
 30
0.0
 11
-68.13820153459457
 21
10.59601000685936
 31
0.0
  0
LINE
  5
2D3
  8
0
  6
CONTINUOUS
 62
     7
 10
-68.13820153459457
 20
10.59601000685936
 30
0.0
 11
-67.83820157859458
 21
10.59601000685936
 31
0.0
  0
LINE
  5
2D4
  8
0
  6
CONTINUOUS
 62
     7
 10
-68.13820153459457
 20
11.09601102015937
 30
0.0
 11
-67.83820157859458
 21
11.09601102015937
 31
0.0
  0
LINE
  5
2D5
  8
0
  6
CONTINUOUS
 62
     7
 10
-69.0882016154946
 20
10.59601043895937
 30
0.0
 11
-68.13820153459457
 21
10.59601000685936
 31
0.0
  0
LINE
  5
2D6
  8
0
  6
CONTINUOUS
 62
     7
 10
-69.0882016154946
 20
11.09601043895937
 30
0.0
 11
-68.13820153459457
 21
11.09601102015937
 31
0.0
  0
LINE
  5
2D7
  8
0
  6
CONTINUOUS
 62
     7
 10
-69.13820146569458
 20
9.696009673059365
 30
0.0
 11
-69.13820161549458
 21
10.54601043895936
 31
0.0
  0
LINE
  5
2D8
  8
0
  6
CONTINUOUS
 62
     7
 10
-69.63820161549458
 20
9.696009673059365
 30
0.0
 11
-69.63820161549458
 21
10.54601043895936
 31
0.0
  0
LINE
  5
2D9
  8
0
  6
CONTINUOUS
 62
     7
 10
-69.13820146569458
 20
9.096010692359357
 30
0.0
 11
-69.63820161549458
 21
9.096010692359357
 31
0.0
  0
LINE
  5
2DA
  8
0
  6
CONTINUOUS
 62
     7
 10
-69.13820146569458
 20
9.696009673059365
 30
0.0
 11
-69.13820146569458
 21
9.096010692359357
 31
0.0
  0
LINE
  5
2DB
  8
0
  6
CONTINUOUS
 62
     7
 10
-69.63820161549458
 20
9.096010692359357
 30
0.0
 11
-69.63820161549458
 21
9.696009673059365
 31
0.0
  0
LINE
  5
2DC
  8
0
  6
CONTINUOUS
 62
     7
 10
-61.83820172019458
 20
40.34601204835936
 30
0.0
 11
-67.8382016463946
 21
40.34601204835936
 31
0.0
  0
LINE
  5
2DD
  8
0
  6
CONTINUOUS
 62
     7
 10
-67.8382016463946
 20
-53.65398795164064
 30
0.0
 11
-67.8382016463946
 21
40.34601204835936
 31
0.0
  0
LINE
  5
2DE
  8
0
  6
CONTINUOUS
 62
     7
 10
-66.4382016428946
 20
18.65389115355935
 30
0.0
 11
-67.8382016463946
 21
18.65389115355935
 31
0.0
  0
LINE
  5
2DF
  8
0
  6
CONTINUOUS
 62
     7
 10
-66.4382016428946
 20
17.14628665885936
 30
0.0
 11
-66.4382016428946
 21
16.33614591495936
 31
0.0
  0
LINE
  5
2E0
  8
0
  6
CONTINUOUS
 62
     7
 10
-66.4382016428946
 20
17.14628665885936
 30
0.0
 11
-66.4382016428946
 21
18.65389115355935
 31
0.0
  0
LINE
  5
2E1
  8
0
  6
CONTINUOUS
 62
     7
 10
-66.93820160839459
 20
-26.35398962354065
 30
0.0
 11
-67.8382016463946
 21
-26.35398962354065
 31
0.0
  0
LINE
  5
2E2
  8
0
  6
CONTINUOUS
 62
     7
 10
-66.93820160839459
 20
-26.35398962354065
 30
0.0
 11
-66.93820160839459
 21
-26.55398928384064
 31
0.0
  0
LINE
  5
2E3
  8
0
  6
CONTINUOUS
 62
     7
 10
-66.93820160839459
 20
-26.55398928384064
 30
0.0
 11
-66.93820160839459
 21
-32.95398958784064
 31
0.0
  0
LINE
  5
2E4
  8
0
  6
CONTINUOUS
 62
     7
 10
-66.93820160839459
 20
-33.15398924804065
 30
0.0
 11
-67.8382016463946
 21
-33.15398924804065
 31
0.0
  0
LINE
  5
2E5
  8
0
  6
CONTINUOUS
 62
     7
 10
-66.93820160839459
 20
-32.95398958784064
 30
0.0
 11
-66.93820160839459
 21
-33.15398924804065
 31
0.0
  0
LINE
  5
2E6
  8
0
  6
CONTINUOUS
 62
     7
 10
-67.8382016463946
 20
-35.15398957594065
 30
0.0
 11
-64.83820168329459
 21
-35.15398957594065
 31
0.0
  0
LINE
  5
2E7
  8
0
  6
CONTINUOUS
 62
     7
 10
-67.8382016463946
 20
31.09600871045938
 30
0.0
 11
-64.83820168329459
 21
31.09600871045938
 31
0.0
  0
LINE
  5
2E8
  8
0
  6
CONTINUOUS
 62
     7
 10
-67.8382016463946
 20
26.19601144635935
 30
0.0
 11
-64.83820168329459
 21
26.19601144635935
 31
0.0
  0
LINE
  5
2E9
  8
0
  6
CONTINUOUS
 62
     7
 10
-64.83820168329459
 20
17.44145631035936
 30
0.0
 11
-66.4382016428946
 21
17.44145631035936
 31
0.0
  0
LINE
  5
2EA
  8
0
  6
CONTINUOUS
 62
     7
 10
-66.83820177829458
 20
-33.15398924804065
 30
0.0
 11
-66.93820160839459
 21
-33.15398924804065
 31
0.0
  0
LINE
  5
2EB
  8
0
  6
CONTINUOUS
 62
     7
 10
-66.93820160839459
 20
-26.15398996334063
 30
0.0
 11
-66.93820160839459
 21
-26.35398962354065
 31
0.0
  0
LINE
  5
2EC
  8
0
  6
CONTINUOUS
 62
     7
 10
-66.93820160839459
 20
-34.15398941194064
 30
0.0
 11
-66.93820160839459
 21
-35.15398957594065
 31
0.0
  0
LINE
  5
2ED
  8
0
  6
CONTINUOUS
 62
     7
 10
-66.93820160839459
 20
-33.15398924804065
 30
0.0
 11
-66.93820160839459
 21
-34.15398941194064
 31
0.0
  0
LINE
  5
2EE
  8
0
  6
CONTINUOUS
 62
     7
 10
-66.78384234219459
 20
-33.18796389564064
 30
0.0
 11
-66.93820160839459
 21
-33.18796389564064
 31
0.0
  0
LINE
  5
2EF
  8
0
  6
CONTINUOUS
 62
     7
 10
-103.3382016701946
 20
17.34601064765936
 30
0.0
 11
-103.3382016701946
 21
12.86866060635935
 31
0.0
  0
LINE
  5
2F0
  8
0
  6
CONTINUOUS
 62
     7
 10
-104.8382016832947
 20
-35.15398957594065
 30
0.0
 11
-101.8382017201946
 21
-35.15398957594065
 31
0.0
  0
LINE
  5
2F1
  8
0
  6
CONTINUOUS
 62
     7
 10
-108.1382016023947
 20
10.59601000685936
 30
0.0
 11
-107.8382016463946
 21
10.59601000685936
 31
0.0
  0
LINE
  5
2F2
  8
0
  6
CONTINUOUS
 62
     7
 10
-106.9382016083946
 20
-26.35398962354065
 30
0.0
 11
-106.9382016083946
 21
-26.55398928384064
 31
0.0
  0
LINE
  5
2F3
  8
0
  6
CONTINUOUS
 62
     7
 10
-107.8382016463946
 20
31.09600871045938
 30
0.0
 11
-104.8382016832947
 21
31.09600871045938
 31
0.0
  0
LINE
  5
2F4
  8
0
  6
CONTINUOUS
 62
     7
 10
-103.3382026341946
 20
-39.55398539144063
 30
0.0
 11
-103.4382026840946
 21
-39.55398724514063
 31
0.0
  0
LINE
  5
2F5
  8
0
  6
CONTINUOUS
 62
     7
 10
-102.7382017581946
 20
-26.35398962354065
 30
0.0
 11
-101.8382017201946
 21
-26.35398962354065
 31
0.0
  0
LINE
  5
2F6
  8
0
  6
CONTINUOUS
 62
     7
 10
-102.7382017581946
 20
-33.15398924804065
 30
0.0
 11
-101.8382017201946
 21
-33.15398924804065
 31
0.0
  0
LINE
  5
2F7
  8
0
  6
CONTINUOUS
 62
     7
 10
-108.1382016023947
 20
11.09601102015937
 30
0.0
 11
-108.1382016023947
 21
10.59601000685936
 31
0.0
  0
LINE
  5
2F8
  8
0
  6
CONTINUOUS
 62
     7
 10
-106.4382016428946
 20
17.14628665885936
 30
0.0
 11
-106.4382016428946
 21
18.65389115355935
 31
0.0
  0
LINE
  5
2F9
  8
0
  6
CONTINUOUS
 62
     7
 10
-106.9382016083946
 20
-26.15398996334063
 30
0.0
 11
-106.9382016083946
 21
-26.35398962354065
 31
0.0
  0
LINE
  5
2FA
  8
0
  6
CONTINUOUS
 62
     7
 10
-103.1382026708946
 20
-44.39893441574065
 30
0.0
 11
-103.1382026708946
 21
-44.40398218404064
 31
0.0
  0
LINE
  5
2FB
  8
0
  6
CONTINUOUS
 62
     7
 10
-107.4882010781946
 20
-44.35398691754064
 30
0.0
 11
-107.3882012480947
 21
-44.35398691754064
 31
0.0
  0
LINE
  5
2FC
  8
0
  6
CONTINUOUS
 62
     7
 10
-103.6382016262946
 20
-33.65399026134064
 30
0.0
 11
-102.8382015882946
 21
-33.15398924804065
 31
0.0
  0
LINE
  5
2FD
  8
0
  6
CONTINUOUS
 62
     7
 10
-107.3882012480947
 20
31.04601101415937
 30
0.0
 11
-103.4382012059946
 21
31.04601101415937
 31
0.0
  0
LINE
  5
2FE
  8
0
  6
CONTINUOUS
 62
     7
 10
-101.8382017201946
 20
26.19601144635935
 30
0.0
 11
-104.8382016832947
 21
26.19601144635935
 31
0.0
  0
LINE
  5
2FF
  8
0
  6
CONTINUOUS
 62
     7
 10
-108.1382016023947
 20
11.09601102015937
 30
0.0
 11
-107.8382016463946
 21
11.09601102015937
 31
0.0
  0
LINE
  5
300
  8
0
  6
CONTINUOUS
 62
     7
 10
-106.9382016083946
 20
-26.35398962354065
 30
0.0
 11
-107.8382016463946
 21
-26.35398962354065
 31
0.0
  0
LINE
  5
301
  8
0
  6
CONTINUOUS
 62
     7
 10
-107.3882012480947
 20
-44.35398691754064
 30
0.0
 11
-103.4382012059946
 21
-44.35398691754064
 31
0.0
  0
LINE
  5
302
  8
0
  6
CONTINUOUS
 62
     7
 10
-107.8382016463946
 20
-26.15398996334063
 30
0.0
 11
-106.8382017782946
 21
-26.15398996334063
 31
0.0
  0
LINE
  5
303
  8
0
  6
CONTINUOUS
 62
     7
 10
-106.3382016962946
 20
16.03376037615936
 30
0.0
 11
-103.3382016701946
 21
16.03376037615936
 31
0.0
  0
LINE
  5
304
  8
0
  6
CONTINUOUS
 62
     7
 10
-103.1382026228946
 20
26.19601050695935
 30
0.0
 11
-103.1382026228946
 21
26.20106200055936
 31
0.0
  0
LINE
  5
305
  8
0
  6
CONTINUOUS
 62
     7
 10
-102.7382017581946
 20
-35.15398957594065
 30
0.0
 11
-102.7382017581946
 21
-34.15398941194064
 31
0.0
  0
LINE
  5
306
  8
0
  6
CONTINUOUS
 62
     7
 10
-107.8382016124946
 20
-23.90398905394063
 30
0.0
 11
-108.1382015684946
 21
-23.90398905394063
 31
0.0
  0
LINE
  5
307
  8
0
  6
CONTINUOUS
 62
     7
 10
-103.1382026708946
 20
-39.50398641004064
 30
0.0
 11
-103.1382026708946
 21
-39.50903790374063
 31
0.0
  0
LINE
  5
308
  8
0
  6
CONTINUOUS
 62
     7
 10
-103.4382012059946
 20
-44.35398691754064
 30
0.0
 11
-103.3382011430946
 21
-44.35398691754064
 31
0.0
  0
LINE
  5
309
  8
0
  6
CONTINUOUS
 62
     7
 10
-103.4382012059946
 20
31.04601101415937
 30
0.0
 11
-103.3382011430946
 21
31.04601101415937
 31
0.0
  0
LINE
  5
30A
  8
0
  6
CONTINUOUS
 62
     7
 10
-104.8382016832947
 20
17.44145631035936
 30
0.0
 11
-106.4382016428946
 21
17.44145631035936
 31
0.0
  0
LINE
  5
30B
  8
0
  6
CONTINUOUS
 62
     7
 10
-107.3882027261946
 20
26.24601134195937
 30
0.0
 11
-107.4882025562946
 21
26.24601134195937
 31
0.0
  0
LINE
  5
30C
  8
0
  6
CONTINUOUS
 62
     7
 10
-104.8382016832947
 20
18.30748013395935
 30
0.0
 11
-104.8382016832947
 21
17.44145631035936
 31
0.0
  0
LINE
  5
30D
  8
0
  6
CONTINUOUS
 62
     7
 10
-106.8382017782946
 20
-33.15398924804065
 30
0.0
 11
-106.9382016083946
 21
-33.15398924804065
 31
0.0
  0
LINE
  5
30E
  8
0
  6
CONTINUOUS
 62
     7
 10
-107.3882027261946
 20
-39.55398724514063
 30
0.0
 11
-107.4882025562946
 21
-39.55398724514063
 31
0.0
  0
LINE
  5
30F
  8
0
  6
CONTINUOUS
 62
     7
 10
-106.8382017782946
 20
-33.15398924804065
 30
0.0
 11
-106.0382017402946
 21
-33.65399026134064
 31
0.0
  0
LINE
  5
310
  8
0
  6
CONTINUOUS
 62
     7
 10
-103.4382026840946
 20
26.24601134195937
 30
0.0
 11
-107.3882027261946
 21
26.24601134195937
 31
0.0
  0
LINE
  5
311
  8
0
  6
CONTINUOUS
 62
     7
 10
-102.8382015882946
 20
-33.15398924804065
 30
0.0
 11
-102.7382017581946
 21
-33.15398924804065
 31
0.0
  0
LINE
  5
312
  8
0
  6
CONTINUOUS
 62
     7
 10
-106.4382016428946
 20
18.65389115355935
 30
0.0
 11
-107.8382016463946
 21
18.65389115355935
 31
0.0
  0
LINE
  5
313
  8
0
  6
CONTINUOUS
 62
     7
 10
-106.9382016083946
 20
-34.15398941194064
 30
0.0
 11
-106.9382016083946
 21
-35.15398957594065
 31
0.0
  0
LINE
  5
314
  8
0
  6
CONTINUOUS
 62
     7
 10
-106.3382016962946
 20
17.29600980125935
 30
0.0
 11
-106.4382016428946
 21
17.29600980125935
 31
0.0
  0
LINE
  5
315
  8
0
  6
CONTINUOUS
 62
     7
 10
-101.8382017201946
 20
-26.15398996334063
 30
0.0
 11
-102.8382015882946
 21
-26.15398996334063
 31
0.0
  0
LINE
  5
316
  8
0
  6
CONTINUOUS
 62
     7
 10
-107.6882017312947
 20
26.44601195295935
 30
0.0
 11
-107.6882017312947
 21
30.84601043895936
 31
0.0
  0
LINE
  5
317
  8
0
  6
CONTINUOUS
 62
     7
 10
-103.2382017236946
 20
18.65389115355935
 30
0.0
 11
-103.2382017236946
 21
17.14628665885936
 31
0.0
  0
LINE
  5
318
  8
0
  6
CONTINUOUS
 62
     7
 10
-108.1382015684946
 20
-23.90398905394063
 30
0.0
 11
-108.1382015684946
 21
-24.40399010824063
 31
0.0
  0
LINE
  5
319
  8
0
  6
CONTINUOUS
 62
     7
 10
-109.0882016832947
 20
10.59601043895937
 30
0.0
 11
-108.1382016023947
 21
10.59601000685936
 31
0.0
  0
LINE
  5
31A
  8
0
  6
CONTINUOUS
 62
     7
 10
-106.9382016083946
 20
-26.55398928384064
 30
0.0
 11
-106.9382016083946
 21
-32.95398958784064
 31
0.0
  0
LINE
  5
31B
  8
0
  6
CONTINUOUS
 62
     7
 10
-107.8382016463946
 20
-44.40398461384065
 30
0.0
 11
-104.8382016832947
 21
-44.40398461384065
 31
0.0
  0
LINE
  5
31C
  8
0
  6
CONTINUOUS
 62
     7
 10
-101.8382017201946
 20
-39.50398734964064
 30
0.0
 11
-104.8382016832947
 21
-39.50398734964064
 31
0.0
  0
LINE
  5
31D
  8
0
  6
CONTINUOUS
 62
     7
 10
-103.6382016262946
 20
-33.65399026134064
 30
0.0
 11
-106.0382017402946
 21
-33.65399026134064
 31
0.0
  0
LINE
  5
31E
  8
0
  6
CONTINUOUS
 62
     7
 10
-106.3382016962946
 20
12.86866060635935
 30
0.0
 11
-106.3382016962946
 21
17.34601064765936
 31
0.0
  0
LINE
  5
31F
  8
0
  6
CONTINUOUS
 62
     7
 10
-101.8382017201946
 20
31.09600871045938
 30
0.0
 11
-104.8382016832947
 21
31.09600871045938
 31
0.0
  0
LINE
  5
320
  8
0
  6
CONTINUOUS
 62
     7
 10
-104.8382016832947
 20
17.44145631035936
 30
0.0
 11
-104.8382016832947
 21
17.34601064765936
 31
0.0
  0
LINE
  5
321
  8
0
  6
CONTINUOUS
 62
     7
 10
-108.1382015684946
 20
-24.40399010824063
 30
0.0
 11
-109.0882016493946
 21
-24.40398952714063
 31
0.0
  0
LINE
  5
322
  8
0
  6
CONTINUOUS
 62
     7
 10
-106.9382016083946
 20
-32.95398958784064
 30
0.0
 11
-106.9382016083946
 21
-33.15398924804065
 31
0.0
  0
LINE
  5
323
  8
0
  6
CONTINUOUS
 62
     7
 10
-107.8382016463946
 20
-39.50398734964064
 30
0.0
 11
-104.8382016832947
 21
-39.50398734964064
 31
0.0
  0
LINE
  5
324
  8
0
  6
CONTINUOUS
 62
     7
 10
-103.4382026840946
 20
-39.55398724514063
 30
0.0
 11
-107.3882027261946
 21
-39.55398724514063
 31
0.0
  0
LINE
  5
325
  8
0
  6
CONTINUOUS
 62
     7
 10
-103.1382026228946
 20
31.09095851255936
 30
0.0
 11
-103.1382026228946
 21
31.09600628095938
 31
0.0
  0
LINE
  5
326
  8
0
  6
CONTINUOUS
 62
     7
 10
-101.8382017201946
 20
-53.65398795164064
 30
0.0
 11
-101.8382017201946
 21
40.34601204835936
 31
0.0
  0
LINE
  5
327
  8
0
  6
CONTINUOUS
 62
     7
 10
-101.8382017201946
 20
40.34601204835936
 30
0.0
 11
-107.8382016463946
 21
40.34601204835936
 31
0.0
  0
LINE
  5
328
  8
0
  6
CONTINUOUS
 62
     7
 10
-101.8382017201946
 20
12.86866060635935
 30
0.0
 11
-107.8382016463946
 21
12.86866060635935
 31
0.0
  0
LINE
  5
329
  8
0
  6
CONTINUOUS
 62
     7
 10
-104.8382016832947
 20
-35.35398923614063
 30
0.0
 11
-104.8382016832947
 21
-35.15398957594065
 31
0.0
  0
LINE
  5
32A
  8
0
  6
CONTINUOUS
 62
     7
 10
-102.7382017581946
 20
-26.35398962354065
 30
0.0
 11
-102.7382017581946
 21
-26.15398996334063
 31
0.0
  0
LINE
  5
32B
  8
0
  6
CONTINUOUS
 62
     7
 10
-106.9382016083946
 20
-33.15398924804065
 30
0.0
 11
-106.9382016083946
 21
-34.15398941194064
 31
0.0
  0
LINE
  5
32C
  8
0
  6
CONTINUOUS
 62
     7
 10
-101.8382017201946
 20
-53.65398795164064
 30
0.0
 11
-107.8382016463946
 21
-53.65398795164064
 31
0.0
  0
LINE
  5
32D
  8
0
  6
CONTINUOUS
 62
     7
 10
-106.8382017782946
 20
-26.15398996334063
 30
0.0
 11
-106.8382017782946
 21
-33.15398924804065
 31
0.0
  0
LINE
  5
32E
  8
0
  6
CONTINUOUS
 62
     7
 10
-103.3382026341946
 20
26.24600948825936
 30
0.0
 11
-103.4382026840946
 21
26.24601134195937
 31
0.0
  0
LINE
  5
32F
  8
0
  6
CONTINUOUS
 62
     7
 10
-103.2382017236946
 20
16.33614591495936
 30
0.0
 11
-103.2382017236946
 21
17.14628665885936
 31
0.0
  0
LINE
  5
330
  8
0
  6
CONTINUOUS
 62
     7
 10
-109.0882016832947
 20
11.09601043895937
 30
0.0
 11
-108.1382016023947
 21
11.09601102015937
 31
0.0
  0
LINE
  5
331
  8
0
  6
CONTINUOUS
 62
     7
 10
-106.7838423421946
 20
-33.18796389564064
 30
0.0
 11
-106.9382016083946
 21
-33.18796389564064
 31
0.0
  0
LINE
  5
332
  8
0
  6
CONTINUOUS
 62
     7
 10
-102.8382015882946
 20
-26.15398996334063
 30
0.0
 11
-102.8382015882946
 21
-33.15398924804065
 31
0.0
  0
LINE
  5
333
  8
0
  6
CONTINUOUS
 62
     7
 10
-104.8382016832947
 20
18.30748013395935
 30
0.0
 11
-104.8382016832947
 21
19.34671133005936
 31
0.0
  0
LINE
  5
334
  8
0
  6
CONTINUOUS
 62
     7
 10
-102.7382017581946
 20
-26.55398928384064
 30
0.0
 11
-102.7382017581946
 21
-26.35398962354065
 31
0.0
  0
LINE
  5
335
  8
0
  6
CONTINUOUS
 62
     7
 10
-109.1382016832946
 20
10.35932660265937
 30
0.0
 11
-109.1382016832946
 21
10.54601043895936
 31
0.0
  0
LINE
  5
336
  8
0
  6
CONTINUOUS
 62
     7
 10
-107.8382016463946
 20
26.19601144635935
 30
0.0
 11
-104.8382016832947
 21
26.19601144635935
 31
0.0
  0
LINE
  5
337
  8
0
  6
CONTINUOUS
 62
     7
 10
-101.8382017201946
 20
-44.40398461384065
 30
0.0
 11
-104.8382016832947
 21
-44.40398461384065
 31
0.0
  0
LINE
  5
338
  8
0
  6
CONTINUOUS
 62
     7
 10
-104.8382016832947
 20
17.44145631035936
 30
0.0
 11
-103.2382017236946
 21
17.44145631035936
 31
0.0
  0
LINE
  5
339
  8
0
  6
CONTINUOUS
 62
     7
 10
-102.8925610242946
 20
-33.18796389564064
 30
0.0
 11
-102.7382017581946
 21
-33.18796389564064
 31
0.0
  0
LINE
  5
33A
  8
0
  6
CONTINUOUS
 62
     7
 10
-104.8382016832947
 20
-33.65399026134064
 30
0.0
 11
-104.8382016832947
 21
-35.15398957594065
 31
0.0
  0
LINE
  5
33B
  8
0
  6
CONTINUOUS
 62
     7
 10
-107.8382016124946
 20
-24.40399010824063
 30
0.0
 11
-108.1382015684946
 21
-24.40399010824063
 31
0.0
  0
LINE
  5
33C
  8
0
  6
CONTINUOUS
 62
     7
 10
-109.6382016832946
 20
10.33312271215937
 30
0.0
 11
-109.6382016832946
 21
10.54601043895936
 31
0.0
  0
LINE
  5
33D
  8
0
  6
CONTINUOUS
 62
     7
 10
-106.9382016083946
 20
-33.15398924804065
 30
0.0
 11
-107.8382016463946
 21
-33.15398924804065
 31
0.0
  0
LINE
  5
33E
  8
0
  6
CONTINUOUS
 62
     7
 10
-103.2382017236946
 20
17.29600980125935
 30
0.0
 11
-103.3382016701946
 21
17.29600980125935
 31
0.0
  0
LINE
  5
33F
  8
0
  6
CONTINUOUS
 62
     7
 10
-107.6882017312947
 20
-39.75398785634064
 30
0.0
 11
-107.6882017312947
 21
-44.15398634234064
 31
0.0
  0
LINE
  5
340
  8
0
  6
CONTINUOUS
 62
     7
 10
-103.2382017236946
 20
18.65389115355935
 30
0.0
 11
-101.8382017201946
 21
18.65389115355935
 31
0.0
  0
LINE
  5
341
  8
0
  6
CONTINUOUS
 62
     7
 10
-102.7382017581946
 20
-32.95398958784064
 30
0.0
 11
-102.7382017581946
 21
-26.55398928384064
 31
0.0
  0
LINE
  5
342
  8
0
  6
CONTINUOUS
 62
     7
 10
-108.1382015684946
 20
-23.90398905394063
 30
0.0
 11
-109.0882016493946
 21
-23.90398948614065
 31
0.0
  0
LINE
  5
343
  8
0
  6
CONTINUOUS
 62
     7
 10
-107.8382016463946
 20
-53.65398795164064
 30
0.0
 11
-107.8382016463946
 21
40.34601204835936
 31
0.0
  0
LINE
  5
344
  8
0
  6
CONTINUOUS
 62
     7
 10
-107.8382016463946
 20
-35.15398957594065
 30
0.0
 11
-104.8382016832947
 21
-35.15398957594065
 31
0.0
  0
LINE
  5
345
  8
0
  6
CONTINUOUS
 62
     7
 10
-102.7382017581946
 20
-33.15398924804065
 30
0.0
 11
-102.7382017581946
 21
-32.95398958784064
 31
0.0
  0
LINE
  5
346
  8
0
  6
CONTINUOUS
 62
     7
 10
-102.7382017581946
 20
-34.15398941194064
 30
0.0
 11
-102.7382017581946
 21
-33.15398924804065
 31
0.0
  0
LINE
  5
347
  8
0
  6
CONTINUOUS
 62
     7
 10
-103.3382016701946
 20
17.34601064765936
 30
0.0
 11
-106.3382016962946
 21
17.34601064765936
 31
0.0
  0
LINE
  5
348
  8
0
  6
CONTINUOUS
 62
     7
 10
-103.1382026708946
 20
-44.15398540274064
 30
0.0
 11
-103.1382026708946
 21
-39.75398691674064
 31
0.0
  0
LINE
  5
349
  8
0
  6
CONTINUOUS
 62
     7
 10
-107.4882010781946
 20
31.04601101415937
 30
0.0
 11
-107.3882012480947
 21
31.04601101415937
 31
0.0
  0
LINE
  5
34A
  8
0
  6
CONTINUOUS
 62
     7
 10
-103.1382026228946
 20
30.84600949955938
 30
0.0
 11
-103.1382026228946
 21
26.44601101355935
 31
0.0
  0
LINE
  5
34B
  8
0
  6
CONTINUOUS
 62
     7
 10
-106.4382016428946
 20
17.14628665885936
 30
0.0
 11
-106.4382016428946
 21
16.33614591495936
 31
0.0
  0
ARC
  5
34C
  8
0
  6
CONTINUOUS
 62
     7
 10
92.70038825270541
 20
-26.36058164924065
 30
0.0
 40
1.00000033002209
 50
0.0
 51
75.00000861430064
  0
ARC
  5
34D
  8
0
  6
CONTINUOUS
 62
     7
 10
92.70038858270541
 20
-50.46427821454065
 30
0.0
 40
1.000000000000007
 50
270.0
 51
0.0
  0
ARC
  5
34E
  8
0
  6
CONTINUOUS
 62
     7
 10
87.80038857480542
 20
-24.38764724564064
 30
0.0
 40
1.000000197480875
 50
109.9999950508992
 51
179.9999625102001
  0
ARC
  5
34F
  8
0
  6
CONTINUOUS
 62
     7
 10
87.47622371250543
 20
-22.59011323354063
 30
0.0
 40
0.8000001851992131
 50
289.999999992099
 51
339.9999602228999
  0
ARC
  5
350
  8
0
  6
CONTINUOUS
 62
     7
 10
87.47622371250543
 20
-22.59011323354063
 30
0.0
 40
1.800000310744246
 50
289.9999955161995
 51
339.9999999988
  0
ARC
  5
351
  8
0
  6
CONTINUOUS
 62
     7
 10
86.30038858270541
 20
-54.21427821454065
 30
0.0
 40
0.4999999989004066
 50
270.0
 51
0.000068296600224
  0
ARC
  5
352
  8
0
  6
CONTINUOUS
 62
     7
 10
86.30038858270541
 20
-54.21427821454065
 30
0.0
 40
1.5
 50
270.0
 51
0.0
  0
ARC
  5
353
  8
0
  6
CONTINUOUS
 62
     7
 10
89.16873566970543
 20
-25.41427853324064
 30
0.0
 40
1.000000000004967
 50
75.0000000002993
 51
90.0
  0
ARC
  5
354
  8
0
  6
CONTINUOUS
 62
     7
 10
-5.999614820394584
 20
16.28572084645936
 30
0.0
 40
0.9499990609687207
 50
168.7481140139002
 51
270.0002052486996
  0
ARC
  5
355
  8
0
  6
CONTINUOUS
 62
     7
 10
-7.949611417294591
 20
13.99193956805936
 30
0.0
 40
1.00000000000002
 50
299.9999999999993
 51
0.0
  0
ARC
  5
356
  8
0
  6
CONTINUOUS
 62
     7
 10
-7.799612344094584
 20
26.38572178545935
 30
0.0
 40
0.1999990731558228
 50
180.0
 51
269.9993818330034
  0
ARC
  5
357
  8
0
  6
CONTINUOUS
 62
     7
 10
-7.799610842094579
 20
30.78572178545936
 30
0.0
 40
0.20000057520582
 50
90.00061813370161
 51
180.0
  0
ARC
  5
358
  8
0
  6
CONTINUOUS
 62
     7
 10
-7.099610842094592
 20
31.13572178545935
 30
0.0
 40
0.1499994248125945
 50
270.0008560786043
 51
318.1896851041994
  0
ARC
  5
359
  8
0
  6
CONTINUOUS
 62
     7
 10
-7.099612344194583
 20
26.03572085865936
 30
0.0
 40
0.1500018537178159
 50
41.81031489580605
 51
89.99914393520348
  0
ARC
  5
35A
  8
0
  6
CONTINUOUS
 62
     7
 10
-7.799610842094579
 20
-44.21427821454065
 30
0.0
 40
0.20000057520582
 50
180.0
 51
269.9993818662984
  0
ARC
  5
35B
  8
0
  6
CONTINUOUS
 62
     7
 10
-7.799612344094584
 20
-39.81427821454064
 30
0.0
 40
0.1999990731558228
 50
90.00061816699657
 51
180.0
  0
ARC
  5
35C
  8
0
  6
CONTINUOUS
 62
     7
 10
-7.099610842094592
 20
-44.56427821454064
 30
0.0
 40
0.1499994248125661
 50
41.81031489579587
 51
89.9991439213957
  0
ARC
  5
35D
  8
0
  6
CONTINUOUS
 62
     7
 10
-7.099612344194583
 20
-39.46427728764065
 30
0.0
 40
0.1500018537178655
 50
270.0008560647966
 51
318.1896851041999
  0
CIRCLE
  5
35E
  8
0
  6
CONTINUOUS
 62
     7
 10
-6.699611417294591
 20
-36.61427821454063
 30
0.0
 40
0.5
  0
ARC
  5
35F
  8
0
  6
CONTINUOUS
 62
     7
 10
-7.799613899494574
 20
15.87416206615935
 30
0.0
 40
0.2000000000000223
 50
180.0
 51
278.0853719493032
  0
ARC
  5
360
  8
0
  6
CONTINUOUS
 62
     7
 10
89.16873566970543
 20
11.98572210425937
 30
0.0
 40
1.00000000000496
 50
270.0
 51
284.9999999996991
  0
ARC
  5
361
  8
0
  6
CONTINUOUS
 62
     7
 10
-7.499611417294574
 20
39.78572259015935
 30
0.0
 40
0.5000008046043019
 50
89.99966531300002
 51
180.0
  0
ARC
  5
362
  8
0
  6
CONTINUOUS
 62
     7
 10
-5.999614820394584
 20
16.28572084645936
 30
0.0
 40
0.9499990609687317
 50
300.8519893642999
 51
168.7481140138999
  0
ARC
  5
363
  8
0
  6
CONTINUOUS
 62
     7
 10
-4.999611898894585
 20
14.61165568735936
 30
0.0
 40
1.000000939002075
 50
120.8519827611997
 51
180.0
  0
ARC
  5
364
  8
0
  6
CONTINUOUS
 62
     7
 10
-6.499611417294574
 20
-34.21427822194065
 30
0.0
 40
1.000000007451575
 50
269.9998565656996
 51
90.0
  0
ARC
  5
365
  8
0
  6
CONTINUOUS
 62
     7
 10
-5.999612945794582
 20
16.27585665555937
 30
0.0
 40
1.999999046300063
 50
156.1044918137999
 51
180.0000147937999
  0
ARC
  5
366
  8
0
  6
CONTINUOUS
 62
     7
 10
-9.199612780694565
 20
17.69360127035937
 30
0.0
 40
1.500000773185537
 50
336.1044918113997
 51
36.86985497810008
  0
ARC
  5
367
  8
0
  6
CONTINUOUS
 62
     7
 10
-7.912132672894587
 20
16.66620974505936
 30
0.0
 40
1.000000000048914
 50
278.0853719498006
 51
348.748114018
  0
ARC
  5
368
  8
0
  6
CONTINUOUS
 62
     7
 10
-5.699613582994573
 20
14.38572259165935
 30
0.0
 40
0.300000745050184
 50
180.000086516401
 51
270.0
  0
ARC
  5
369
  8
0
  6
CONTINUOUS
 62
     7
 10
-7.799611417294585
 20
-35.41427726824064
 30
0.0
 40
0.1999990388559433
 50
90.00061813849882
 51
179.9999069511992
  0
ARC
  5
36A
  8
0
  6
CONTINUOUS
 62
     7
 10
-7.799611292194584
 20
-26.61427901174063
 30
0.0
 40
0.1999990150059363
 50
90.00061810990364
 51
179.9999205876987
  0
ARC
  5
36B
  8
0
  6
CONTINUOUS
 62
     7
 10
-7.799611417294585
 20
-33.01427901174063
 30
0.0
 40
0.1999988898558361
 50
180.0000076777001
 51
269.9993818610977
  0
CIRCLE
  5
36C
  8
0
  6
CONTINUOUS
 62
     7
 10
-6.699611417294591
 20
-36.61427821454063
 30
0.0
 40
0.1500000000000057
  0
ARC
  5
36D
  8
0
  6
CONTINUOUS
 62
     7
 10
86.30038858270541
 20
40.78572178655936
 30
0.0
 40
1.5
 50
0.0
 51
90.0
  0
ARC
  5
36E
  8
0
  6
CONTINUOUS
 62
     7
 10
86.30038858270541
 20
40.78572178655936
 30
0.0
 40
0.4999999989004068
 50
359.9999316920014
 51
90.0
  0
ARC
  5
36F
  8
0
  6
CONTINUOUS
 62
     7
 10
87.47622371250543
 20
9.161556804559368
 30
0.0
 40
1.800000310742803
 50
20.00000000119953
 51
70.00000448380011
  0
ARC
  5
370
  8
0
  6
CONTINUOUS
 62
     7
 10
87.47622371250543
 20
9.161556804559368
 30
0.0
 40
0.8000001851821208
 50
20.00003977040079
 51
70.00000000789949
  0
ARC
  5
371
  8
0
  6
CONTINUOUS
 62
     7
 10
87.80038857480542
 20
10.95909081665936
 30
0.0
 40
1.000000197590535
 50
180.0000374889001
 51
250.0000049509995
  0
ARC
  5
372
  8
0
  6
CONTINUOUS
 62
     7
 10
92.70038858270541
 20
37.03572178545935
 30
0.0
 40
1.0
 50
0.0
 51
90.0
  0
ARC
  5
373
  8
0
  6
CONTINUOUS
 62
     7
 10
92.70038825270541
 20
12.93202522015936
 30
0.0
 40
1.000000330022107
 50
284.9999913857008
 51
0.0
  0
ARC
  5
374
  8
0
  6
CONTINUOUS
 62
     7
 10
85.20038817220544
 20
-6.714278540640635
 30
0.0
 40
2.299999989690507
 50
314.0792098488
 51
45.92078973190011
  0
ARC
  5
375
  8
0
  6
CONTINUOUS
 62
     7
 10
82.10657376560542
 20
82.37173560495937
 30
0.0
 40
0.3999997808825104
 50
65.16344006909905
 51
89.9998575217996
  0
ARC
  5
376
  8
0
  6
CONTINUOUS
 62
     7
 10
78.90657451890542
 20
82.37173511095936
 30
0.0
 40
0.4000002748004207
 50
89.99998719440153
 51
131.4096525578
  0
ARC
  5
377
  8
0
  6
CONTINUOUS
 62
     7
 10
82.10657376560542
 20
81.37173560495937
 30
0.0
 40
0.3999997809132342
 50
282.9722398853988
 51
0.0000154699007803
  0
ARC
  5
378
  8
0
  6
CONTINUOUS
 62
     7
 10
82.10657376560542
 20
82.37173560495937
 30
0.0
 40
0.3999997808825143
 50
359.999972254499
 51
65.16344006909902
  0
ARC
  5
379
  8
0
  6
CONTINUOUS
 62
     7
 10
78.90657451890542
 20
82.37173511095936
 30
0.0
 40
0.4000002748008418
 50
131.4096525578009
 51
149.9999999999995
  0
ARC
  5
37A
  8
0
  6
CONTINUOUS
 62
     7
 10
85.50657457590543
 20
76.37173532765935
 30
0.0
 40
1.000000057000051
 50
180.0
 51
270.0000030711003
  0
ARC
  5
37B
  8
0
  6
CONTINUOUS
 62
     7
 10
85.50657446380544
 20
79.17173532765936
 30
0.0
 40
1.000000055149998
 50
90.0
 51
180.0000028590997
  0
ARC
  5
37C
  8
0
  6
CONTINUOUS
 62
     7
 10
-63.33820268219458
 20
-39.75398540284065
 30
0.0
 40
0.2000000113528473
 50
359.9995662983995
 51
89.99998622329946
  0
ARC
  5
37D
  8
0
  6
CONTINUOUS
 62
     7
 10
-67.48820263419458
 20
-39.75398634234064
 30
0.0
 40
0.1999990971528725
 50
89.99997768320198
 51
180.0004337309979
  0
ARC
  5
37E
  8
0
  6
CONTINUOUS
 62
     7
 10
-63.33820324609457
 20
-44.15398634234064
 30
0.0
 40
0.2000005752066163
 50
270.000602463401
 51
0.0002691747998961
  0
ARC
  5
37F
  8
0
  6
CONTINUOUS
 62
     7
 10
-67.48820115609459
 20
-44.15398634234064
 30
0.0
 40
0.200000575200022
 50
180.0
 51
270.0000223166005
  0
ARC
  5
380
  8
0
  6
CONTINUOUS
 62
     7
 10
-67.48820115609459
 20
30.84601043895936
 30
0.0
 40
0.200000575200022
 50
89.99997768339948
 51
180.0
  0
ARC
  5
381
  8
0
  6
CONTINUOUS
 62
     7
 10
-63.33820319799457
 20
30.84601043905936
 30
0.0
 40
0.2000005751566342
 50
359.9997308526983
 51
89.99941131330121
  0
ARC
  5
382
  8
0
  6
CONTINUOUS
 62
     7
 10
-67.48820263419458
 20
26.44601043905935
 30
0.0
 40
0.1999990971528859
 50
179.9995662975977
 51
270.000022316798
  0
ARC
  5
383
  8
0
  6
CONTINUOUS
 62
     7
 10
-63.33820263419457
 20
26.44600949955936
 30
0.0
 40
0.2000000113028761
 50
270.0
 51
0.0004337289991703
  0
ARC
  5
384
  8
0
  6
CONTINUOUS
 62
     7
 10
-69.08820164939459
 20
-23.85398956104063
 30
0.0
 40
0.5499999661003134
 50
180.0000608481002
 51
269.9999999998994
  0
ARC
  5
385
  8
0
  6
CONTINUOUS
 62
     7
 10
-69.08820164939459
 20
-23.85398956104063
 30
0.0
 40
0.0499999251018732
 50
180.0006693303075
 51
269.9999999984041
  0
ARC
  5
386
  8
0
  6
CONTINUOUS
 62
     7
 10
-69.0882016154946
 20
10.54601043895936
 30
0.0
 40
0.0500000000000114
 50
90.0
 51
180.0
  0
ARC
  5
387
  8
0
  6
CONTINUOUS
 62
     7
 10
-69.0882016154946
 20
10.54601043895936
 30
0.0
 40
0.5500000000000114
 50
90.0
 51
180.0
  0
ARC
  5
388
  8
0
  6
CONTINUOUS
 62
     7
 10
-109.0882016493946
 20
-23.85398956104063
 30
0.0
 40
0.5499999661003134
 50
180.0000608481002
 51
270.0
  0
ARC
  5
389
  8
0
  6
CONTINUOUS
 62
     7
 10
-107.4882011560946
 20
-44.15398634234064
 30
0.0
 40
0.2000005752000088
 50
180.0
 51
270.0000223166005
  0
ARC
  5
38A
  8
0
  6
CONTINUOUS
 62
     7
 10
-107.4882011560946
 20
30.84601043895936
 30
0.0
 40
0.2000005752000088
 50
89.99997768339948
 51
180.0
  0
ARC
  5
38B
  8
0
  6
CONTINUOUS
 62
     7
 10
-109.0882016493946
 20
-23.85398956104063
 30
0.0
 40
0.0499999251018448
 50
180.0006693303075
 51
270.0
  0
ARC
  5
38C
  8
0
  6
CONTINUOUS
 62
     7
 10
-109.0882016832947
 20
10.54601043895936
 30
0.0
 40
0.5499999999999972
 50
90.0
 51
180.0
  0
ARC
  5
38D
  8
0
  6
CONTINUOUS
 62
     7
 10
-107.4882026341946
 20
-39.75398634234064
 30
0.0
 40
0.1999990971528795
 50
89.99997768320198
 51
180.0004337309979
  0
ARC
  5
38E
  8
0
  6
CONTINUOUS
 62
     7
 10
-103.3382026821946
 20
-39.75398540284065
 30
0.0
 40
0.2000000113528615
 50
359.9995662983995
 51
89.99998622329946
  0
ARC
  5
38F
  8
0
  6
CONTINUOUS
 62
     7
 10
-103.3382026341946
 20
26.44600949955936
 30
0.0
 40
0.2000000113028761
 50
270.0
 51
0.0004337289991703
  0
ARC
  5
390
  8
0
  6
CONTINUOUS
 62
     7
 10
-103.3382032460946
 20
-44.15398634234064
 30
0.0
 40
0.2000005752066345
 50
270.0006024633969
 51
0.0002691747998961
  0
ARC
  5
391
  8
0
  6
CONTINUOUS
 62
     7
 10
-109.0882016832947
 20
10.54601043895936
 30
0.0
 40
0.0499999999999972
 50
90.0
 51
180.0
  0
ARC
  5
392
  8
0
  6
CONTINUOUS
 62
     7
 10
-103.3382031979946
 20
30.84601043905936
 30
0.0
 40
0.2000005751566342
 50
359.9997308526983
 51
89.99941131329714
  0
ARC
  5
393
  8
0
  6
CONTINUOUS
 62
     7
 10
-107.4882026341946
 20
26.44601043905935
 30
0.0
 40
0.199999097152893
 50
179.9995662975977
 51
270.0000223168021
  0
POLYLINE
  5
394
  8
0
  6
CONTINUOUS
 62
     7
 66
     1
 10
0.0
 20
0.0
 30
0.0
  0
VERTEX
  5
3C7
  8
0
  6
CONTINUOUS
 62
     7
 10
-6.649609009194477
 20
30.98572293589605
 30
0.0
 40
0.18
 41
0.18
  0
VERTEX
  5
3C8
  8
0
  6
CONTINUOUS
 62
     7
 10
-6.654066052644878
 20
30.98566243068503
 30
0.0
 40
0.18
 41
0.18
  0
VERTEX
  5
3C9
  8
0
  6
CONTINUOUS
 62
     7
 10
-6.658522671828555
 20
30.98560488871123
 30
0.0
 40
0.18
 41
0.18
  0
VERTEX
  5
3CA
  8
0
  6
CONTINUOUS
 62
     7
 10
-6.662978442478797
 20
30.98555327321187
 30
0.0
 40
0.18
 41
0.18
  0
VERTEX
  5
3CB
  8
0
  6
CONTINUOUS
 62
     7
 10
-6.667432940328878
 20
30.98551054742419
 30
0.0
 40
0.18
 41
0.18
  0
VERTEX
  5
3CC
  8
0
  6
CONTINUOUS
 62
     7
 10
-6.671885741112078
 20
30.98547967458539
 30
0.0
 40
0.18
 41
0.18
  0
VERTEX
  5
3CD
  8
0
  6
CONTINUOUS
 62
     7
 10
-6.676336420561681
 20
30.98546361793271
 30
0.0
 40
0.18
 41
0.18
  0
VERTEX
  5
3CE
  8
0
  6
CONTINUOUS
 62
     7
 10
-6.680784554410963
 20
30.98546534070337
 30
0.0
 40
0.18
 41
0.18
  0
VERTEX
  5
3CF
  8
0
  6
CONTINUOUS
 62
     7
 10
-6.685229718393204
 20
30.98548780613459
 30
0.0
 40
0.18
 41
0.18
  0
VERTEX
  5
3D0
  8
0
  6
CONTINUOUS
 62
     7
 10
-6.689671488241688
 20
30.9855339774636
 30
0.0
 40
0.18
 41
0.18
  0
VERTEX
  5
3D1
  8
0
  6
CONTINUOUS
 62
     7
 10
-6.694109439689691
 20
30.9856068179276
 30
0.0
 40
0.18
 41
0.18
  0
VERTEX
  5
3D2
  8
0
  6
CONTINUOUS
 62
     7
 10
-6.698543148470494
 20
30.98570929076385
 30
0.0
 40
0.18
 41
0.18
  0
VERTEX
  5
3D3
  8
0
  6
CONTINUOUS
 62
     7
 10
-6.702972190317379
 20
30.98584435920954
 30
0.0
 40
0.18
 41
0.18
  0
VERTEX
  5
3D4
  8
0
  6
CONTINUOUS
 62
     7
 10
-6.707396140963621
 20
30.98601498650192
 30
0.0
 40
0.18
 41
0.18
  0
VERTEX
  5
3D5
  8
0
  6
CONTINUOUS
 62
     7
 10
-6.711814576142505
 20
30.9862241358782
 30
0.0
 40
0.18
 41
0.18
  0
VERTEX
  5
3D6
  8
0
  6
CONTINUOUS
 62
     7
 10
-6.716227071587308
 20
30.98647477057559
 30
0.0
 40
0.18
 41
0.18
  0
VERTEX
  5
3D7
  8
0
  6
CONTINUOUS
 62
     7
 10
-6.720633203031312
 20
30.98676985383134
 30
0.0
 40
0.18
 41
0.18
  0
VERTEX
  5
3D8
  8
0
  6
CONTINUOUS
 62
     7
 10
-6.725032546207794
 20
30.98711234888265
 30
0.0
 40
0.18
 41
0.18
  0
VERTEX
  5
3D9
  8
0
  6
CONTINUOUS
 62
     7
 10
-6.729424676850037
 20
30.98750521896676
 30
0.0
 40
0.18
 41
0.18
  0
VERTEX
  5
3DA
  8
0
  6
CONTINUOUS
 62
     7
 10
-6.73380917069132
 20
30.98795142732089
 30
0.0
 40
0.18
 41
0.18
  0
VERTEX
  5
3DB
  8
0
  6
CONTINUOUS
 62
     7
 10
-6.738185603464921
 20
30.98845393718225
 30
0.0
 40
0.18
 41
0.18
  0
VERTEX
  5
3DC
  8
0
  6
CONTINUOUS
 62
     7
 10
-6.742553550904124
 20
30.98901571178808
 30
0.0
 40
0.18
 41
0.18
  0
VERTEX
  5
3DD
  8
0
  6
CONTINUOUS
 62
     7
 10
-6.746912588742204
 20
30.98963971437559
 30
0.0
 40
0.18
 41
0.18
  0
VERTEX
  5
3DE
  8
0
  6
CONTINUOUS
 62
     7
 10
-6.751262289852956
 20
30.99032888531826
 30
0.0
 40
0.18
 41
0.18
  0
VERTEX
  5
3DF
  8
0
  6
CONTINUOUS
 62
     7
 10
-6.755602101563476
 20
30.9910851611493
 30
0.0
 40
0.18
 41
0.18
  0
VERTEX
  5
3E0
  8
0
  6
CONTINUOUS
 62
     7
 10
-6.759931299264577
 20
30.99190910364214
 30
0.0
 40
0.18
 41
0.18
  0
VERTEX
  5
3E1
  8
0
  6
CONTINUOUS
 62
     7
 10
-6.76424914592115
 20
30.99280117521557
 30
0.0
 40
0.18
 41
0.18
  0
VERTEX
  5
3E2
  8
0
  6
CONTINUOUS
 62
     7
 10
-6.76855490449809
 20
30.99376183828837
 30
0.0
 40
0.18
 41
0.18
  0
VERTEX
  5
3E3
  8
0
  6
CONTINUOUS
 62
     7
 10
-6.772847837960279
 20
30.99479155527932
 30
0.0
 40
0.18
 41
0.18
  0
VERTEX
  5
3E4
  8
0
  6
CONTINUOUS
 62
     7
 10
-6.777127209272606
 20
30.99589078860717
 30
0.0
 40
0.18
 41
0.18
  0
VERTEX
  5
3E5
  8
0
  6
CONTINUOUS
 62
     7
 10
-6.781392281399968
 20
30.99706000069074
 30
0.0
 40
0.18
 41
0.18
  0
VERTEX
  5
3E6
  8
0
  6
CONTINUOUS
 62
     7
 10
-6.785642317307246
 20
30.99829965394879
 30
0.0
 40
0.18
 41
0.18
  0
VERTEX
  5
3E7
  8
0
  6
CONTINUOUS
 62
     7
 10
-6.78987657995933
 20
30.99961021080009
 30
0.0
 40
0.18
 41
0.18
  0
VERTEX
  5
3E8
  8
0
  6
CONTINUOUS
 62
     7
 10
-6.794094332321113
 20
31.00099213366345
 30
0.0
 40
0.18
 41
0.18
  0
VERTEX
  5
3E9
  8
0
  6
CONTINUOUS
 62
     7
 10
-6.79829483735748
 20
31.00244588495761
 30
0.0
 40
0.18
 41
0.18
  0
VERTEX
  5
3EA
  8
0
  6
CONTINUOUS
 62
     7
 10
-6.802477358033322
 20
31.00397192710137
 30
0.0
 40
0.18
 41
0.18
  0
VERTEX
  5
3EB
  8
0
  6
CONTINUOUS
 62
     7
 10
-6.806641157313529
 20
31.00557072251351
 30
0.0
 40
0.18
 41
0.18
  0
VERTEX
  5
3EC
  8
0
  6
CONTINUOUS
 62
     7
 10
-6.810785498162985
 20
31.00724273361279
 30
0.0
 40
0.18
 41
0.18
  0
VERTEX
  5
3ED
  8
0
  6
CONTINUOUS
 62
     7
 10
-6.814909643546587
 20
31.00898842281801
 30
0.0
 40
0.18
 41
0.18
  0
VERTEX
  5
3EE
  8
0
  6
CONTINUOUS
 62
     7
 10
-6.819012856429215
 20
31.01080825254794
 30
0.0
 40
0.18
 41
0.18
  0
VERTEX
  5
3EF
  8
0
  6
CONTINUOUS
 62
     7
 10
-6.823094399775767
 20
31.01270268522137
 30
0.0
 40
0.18
 41
0.18
  0
VERTEX
  5
3F0
  8
0
  6
CONTINUOUS
 62
     7
 10
-6.827153321661077
 20
31.01467223224904
 30
0.0
 40
0.18
 41
0.18
  0
VERTEX
  5
3F1
  8
0
  6
CONTINUOUS
 62
     7
 10
-6.831185262820649
 20
31.01671818186835
 30
0.0
 40
0.18
 41
0.18
  0
VERTEX
  5
3F2
  8
0
  6
CONTINUOUS
 62
     7
 10
-6.835183139239748
 20
31.0188424435224
 30
0.0
 40
0.18
 41
0.18
  0
VERTEX
  5
3F3
  8
0
  6
CONTINUOUS
 62
     7
 10
-6.839139790673727
 20
31.0210469440336
 30
0.0
 40
0.18
 41
0.18
  0
VERTEX
  5
3F4
  8
0
  6
CONTINUOUS
 62
     7
 10
-6.843048056877954
 20
31.02333361022442
 30
0.0
 40
0.18
 41
0.18
  0
VERTEX
  5
3F5
  8
0
  6
CONTINUOUS
 62
     7
 10
-6.846900777607783
 20
31.02570436891728
 30
0.0
 40
0.18
 41
0.18
  0
VERTEX
  5
3F6
  8
0
  6
CONTINUOUS
 62
     7
 10
-6.85069079261858
 20
31.02816114693466
 30
0.0
 40
0.18
 41
0.18
  0
VERTEX
  5
3F7
  8
0
  6
CONTINUOUS
 62
     7
 10
-6.854410941665706
 20
31.03070587109898
 30
0.0
 40
0.18
 41
0.18
  0
VERTEX
  5
3F8
  8
0
  6
CONTINUOUS
 62
     7
 10
-6.858054064504521
 20
31.03334046823269
 30
0.0
 40
0.18
 41
0.18
  0
VERTEX
  5
3F9
  8
0
  6
CONTINUOUS
 62
     7
 10
-6.861613000890387
 20
31.03606686515824
 30
0.0
 40
0.18
 41
0.18
  0
VERTEX
  5
3FA
  8
0
  6
CONTINUOUS
 62
     7
 10
-6.865080590578661
 20
31.03888698869807
 30
0.0
 40
0.18
 41
0.18
  0
VERTEX
  5
3FB
  8
0
  6
CONTINUOUS
 62
     7
 10
-6.86844967332471
 20
31.04180276567463
 30
0.0
 40
0.18
 41
0.18
  0
VERTEX
  5
3FC
  8
0
  6
CONTINUOUS
 62
     7
 10
-6.871713088883891
 20
31.04481612291036
 30
0.0
 40
0.18
 41
0.18
  0
VERTEX
  5
3FD
  8
0
  6
CONTINUOUS
 62
     7
 10
-6.874863677011569
 20
31.04792898722771
 30
0.0
 40
0.18
 41
0.18
  0
VERTEX
  5
3FE
  8
0
  6
CONTINUOUS
 62
     7
 10
-6.877894277463101
 20
31.05114328544914
 30
0.0
 40
0.18
 41
0.18
  0
VERTEX
  5
3FF
  8
0
  6
CONTINUOUS
 62
     7
 10
-6.88079772999385
 20
31.05446094439706
 30
0.0
 40
0.18
 41
0.18
  0
VERTEX
  5
400
  8
0
  6
CONTINUOUS
 62
     7
 10
-6.883566874359176
 20
31.05788389089394
 30
0.0
 40
0.18
 41
0.18
  0
VERTEX
  5
401
  8
0
  6
CONTINUOUS
 62
     7
 10
-6.886194550314443
 20
31.06141405176222
 30
0.0
 40
0.18
 41
0.18
  0
VERTEX
  5
402
  8
0
  6
CONTINUOUS
 62
     7
 10
-6.888675249022954
 20
31.06505231343432
 30
0.0
 40
0.18
 41
0.18
  0
VERTEX
  5
403
  8
0
  6
CONTINUOUS
 62
     7
 10
-6.891022836833471
 20
31.06878735594028
 30
0.0
 40
0.18
 41
0.18
  0
VERTEX
  5
404
  8
0
  6
CONTINUOUS
 62
     7
 10
-6.893263765050481
 20
31.07259993076496
 30
0.0
 40
0.18
 41
0.18
  0
VERTEX
  5
405
  8
0
  6
CONTINUOUS
 62
     7
 10
-6.895424698572368
 20
31.07647065482869
 30
0.0
 40
0.18
 41
0.18
  0
VERTEX
  5
406
  8
0
  6
CONTINUOUS
 62
     7
 10
-6.89753230229751
 20
31.08038014505178
 30
0.0
 40
0.18
 41
0.18
  0
VERTEX
  5
407
  8
0
  6
CONTINUOUS
 62
     7
 10
-6.899613241124285
 20
31.08430901835457
 30
0.0
 40
0.18
 41
0.18
  0
SEQEND
  5
6D3
  8
0
  6
CONTINUOUS
 62
     7
  0
POLYLINE
  5
395
  8
0
  6
CONTINUOUS
 62
     7
 66
     1
 10
0.0
 20
0.0
 30
0.0
  0
VERTEX
  5
408
  8
0
  6
CONTINUOUS
 62
     7
 10
-6.890836457181081
 20
26.10420311159486
 30
0.0
 40
0.18
 41
0.18
  0
VERTEX
  5
409
  8
0
  6
CONTINUOUS
 62
     7
 10
-6.88794108280259
 20
26.10719049446025
 30
0.0
 40
0.18
 41
0.18
  0
VERTEX
  5
40A
  8
0
  6
CONTINUOUS
 62
     7
 10
-6.885041594310001
 20
26.11017240830663
 30
0.0
 40
0.18
 41
0.18
  0
VERTEX
  5
40B
  8
0
  6
CONTINUOUS
 62
     7
 10
-6.882133877589218
 20
26.113143384115
 30
0.0
 40
0.18
 41
0.18
  0
VERTEX
  5
40C
  8
0
  6
CONTINUOUS
 62
     7
 10
-6.879213818526146
 20
26.11609795286636
 30
0.0
 40
0.18
 41
0.18
  0
VERTEX
  5
40D
  8
0
  6
CONTINUOUS
 62
     7
 10
-6.876277303006691
 20
26.11903064554169
 30
0.0
 40
0.18
 41
0.18
  0
VERTEX
  5
40E
  8
0
  6
CONTINUOUS
 62
     7
 10
-6.873320216916756
 20
26.12193599312199
 30
0.0
 40
0.18
 41
0.18
  0
VERTEX
  5
40F
  8
0
  6
CONTINUOUS
 62
     7
 10
-6.870338446142245
 20
26.12480852658825
 30
0.0
 40
0.18
 41
0.18
  0
VERTEX
  5
410
  8
0
  6
CONTINUOUS
 62
     7
 10
-6.867327876569066
 20
26.12764277692146
 30
0.0
 40
0.18
 41
0.18
  0
VERTEX
  5
411
  8
0
  6
CONTINUOUS
 62
     7
 10
-6.864284394083121
 20
26.13043327510263
 30
0.0
 40
0.18
 41
0.18
  0
VERTEX
  5
412
  8
0
  6
CONTINUOUS
 62
     7
 10
-6.861203884570314
 20
26.13317455211273
 30
0.0
 40
0.18
 41
0.18
  0
VERTEX
  5
413
  8
0
  6
CONTINUOUS
 62
     7
 10
-6.858082233916554
 20
26.13586113893279
 30
0.0
 40
0.18
 41
0.18
  0
VERTEX
  5
414
  8
0
  6
CONTINUOUS
 62
     7
 10
-6.854915328007741
 20
26.13848756654376
 30
0.0
 40
0.18
 41
0.18
  0
VERTEX
  5
415
  8
0
  6
CONTINUOUS
 62
     7
 10
-6.851699052729782
 20
26.14104836592666
 30
0.0
 40
0.18
 41
0.18
  0
VERTEX
  5
416
  8
0
  6
CONTINUOUS
 62
     7
 10
-6.848429293968582
 20
26.14353806806248
 30
0.0
 40
0.18
 41
0.18
  0
VERTEX
  5
417
  8
0
  6
CONTINUOUS
 62
     7
 10
-6.845101937610044
 20
26.1459512039322
 30
0.0
 40
0.18
 41
0.18
  0
VERTEX
  5
418
  8
0
  6
CONTINUOUS
 62
     7
 10
-6.841712954467882
 20
26.14828237906499
 30
0.0
 40
0.18
 41
0.18
  0
VERTEX
  5
419
  8
0
  6
CONTINUOUS
 62
     7
 10
-6.838261440907274
 20
26.15052894254493
 30
0.0
 40
0.18
 41
0.18
  0
VERTEX
  5
41A
  8
0
  6
CONTINUOUS
 62
     7
 10
-6.834750454503776
 20
26.15269172053794
 30
0.0
 40
0.18
 41
0.18
  0
VERTEX
  5
41B
  8
0
  6
CONTINUOUS
 62
     7
 10
-6.831183307839329
 20
26.15477176305015
 30
0.0
 40
0.18
 41
0.18
  0
VERTEX
  5
41C
  8
0
  6
CONTINUOUS
 62
     7
 10
-6.827563313495877
 20
26.15677012008769
 30
0.0
 40
0.18
 41
0.18
  0
VERTEX
  5
41D
  8
0
  6
CONTINUOUS
 62
     7
 10
-6.823893784055366
 20
26.15868784165666
 30
0.0
 40
0.18
 41
0.18
  0
VERTEX
  5
41E
  8
0
  6
CONTINUOUS
 62
     7
 10
-6.820178032099741
 20
26.16052597776321
 30
0.0
 40
0.18
 41
0.18
  0
VERTEX
  5
41F
  8
0
  6
CONTINUOUS
 62
     7
 10
-6.816419370210943
 20
26.16228557841345
 30
0.0
 40
0.18
 41
0.18
  0
VERTEX
  5
420
  8
0
  6
CONTINUOUS
 62
     7
 10
-6.812621110970919
 20
26.1639676936135
 30
0.0
 40
0.18
 41
0.18
  0
VERTEX
  5
421
  8
0
  6
CONTINUOUS
 62
     7
 10
-6.808786566961611
 20
26.16557337336949
 30
0.0
 40
0.18
 41
0.18
  0
VERTEX
  5
422
  8
0
  6
CONTINUOUS
 62
     7
 10
-6.804919050764965
 20
26.16710366768753
 30
0.0
 40
0.18
 41
0.18
  0
VERTEX
  5
423
  8
0
  6
CONTINUOUS
 62
     7
 10
-6.801021874962922
 20
26.16855962657377
 30
0.0
 40
0.18
 41
0.18
  0
VERTEX
  5
424
  8
0
  6
CONTINUOUS
 62
     7
 10
-6.79709835213743
 20
26.1699423000343
 30
0.0
 40
0.18
 41
0.18
  0
VERTEX
  5
425
  8
0
  6
CONTINUOUS
 62
     7
 10
-6.793151794870432
 20
26.17125273807526
 30
0.0
 40
0.18
 41
0.18
  0
VERTEX
  5
426
  8
0
  6
CONTINUOUS
 62
     7
 10
-6.789185515743871
 20
26.17249199070277
 30
0.0
 40
0.18
 41
0.18
  0
VERTEX
  5
427
  8
0
  6
CONTINUOUS
 62
     7
 10
-6.785202827339692
 20
26.17366110792295
 30
0.0
 40
0.18
 41
0.18
  0
VERTEX
  5
428
  8
0
  6
CONTINUOUS
 62
     7
 10
-6.781207037447574
 20
26.174761141457
 30
0.0
 40
0.18
 41
0.18
  0
VERTEX
  5
429
  8
0
  6
CONTINUOUS
 62
     7
 10
-6.777200585118591
 20
26.175793453935
 30
0.0
 40
0.18
 41
0.18
  0
VERTEX
  5
42A
  8
0
  6
CONTINUOUS
 62
     7
 10
-6.773184038879711
 20
26.17676007742028
 30
0.0
 40
0.18
 41
0.18
  0
VERTEX
  5
42B
  8
0
  6
CONTINUOUS
 62
     7
 10
-6.76915772434093
 20
26.17766313091258
 30
0.0
 40
0.18
 41
0.18
  0
VERTEX
  5
42C
  8
0
  6
CONTINUOUS
 62
     7
 10
-6.765121967112245
 20
26.1785047334117
 30
0.0
 40
0.18
 41
0.18
  0
VERTEX
  5
42D
  8
0
  6
CONTINUOUS
 62
     7
 10
-6.761077092803653
 20
26.17928700391737
 30
0.0
 40
0.18
 41
0.18
  0
VERTEX
  5
42E
  8
0
  6
CONTINUOUS
 62
     7
 10
-6.757023427025151
 20
26.18001206142939
 30
0.0
 40
0.18
 41
0.18
  0
VERTEX
  5
42F
  8
0
  6
CONTINUOUS
 62
     7
 10
-6.752961295386734
 20
26.18068202494749
 30
0.0
 40
0.18
 41
0.18
  0
VERTEX
  5
430
  8
0
  6
CONTINUOUS
 62
     7
 10
-6.7488910234984
 20
26.18129901347147
 30
0.0
 40
0.18
 41
0.18
  0
VERTEX
  5
431
  8
0
  6
CONTINUOUS
 62
     7
 10
-6.744812936970145
 20
26.18186514600107
 30
0.0
 40
0.18
 41
0.18
  0
VERTEX
  5
432
  8
0
  6
CONTINUOUS
 62
     7
 10
-6.740727361411966
 20
26.18238254153607
 30
0.0
 40
0.18
 41
0.18
  0
VERTEX
  5
433
  8
0
  6
CONTINUOUS
 62
     7
 10
-6.73663462243386
 20
26.18285331907622
 30
0.0
 40
0.18
 41
0.18
  0
VERTEX
  5
434
  8
0
  6
CONTINUOUS
 62
     7
 10
-6.732535045645823
 20
26.1832795976213
 30
0.0
 40
0.18
 41
0.18
  0
VERTEX
  5
435
  8
0
  6
CONTINUOUS
 62
     7
 10
-6.728428956657852
 20
26.18366349617108
 30
0.0
 40
0.18
 41
0.18
  0
VERTEX
  5
436
  8
0
  6
CONTINUOUS
 62
     7
 10
-6.724316681079944
 20
26.18400713372531
 30
0.0
 40
0.18
 41
0.18
  0
VERTEX
  5
437
  8
0
  6
CONTINUOUS
 62
     7
 10
-6.720198544522094
 20
26.18431262928376
 30
0.0
 40
0.18
 41
0.18
  0
VERTEX
  5
438
  8
0
  6
CONTINUOUS
 62
     7
 10
-6.716074872594302
 20
26.1845821018462
 30
0.0
 40
0.18
 41
0.18
  0
VERTEX
  5
439
  8
0
  6
CONTINUOUS
 62
     7
 10
-6.711945990906561
 20
26.18481767041239
 30
0.0
 40
0.18
 41
0.18
  0
VERTEX
  5
43A
  8
0
  6
CONTINUOUS
 62
     7
 10
-6.707812225068869
 20
26.1850214539821
 30
0.0
 40
0.18
 41
0.18
  0
VERTEX
  5
43B
  8
0
  6
CONTINUOUS
 62
     7
 10
-6.703673900691224
 20
26.18519557155509
 30
0.0
 40
0.18
 41
0.18
  0
VERTEX
  5
43C
  8
0
  6
CONTINUOUS
 62
     7
 10
-6.699531343383621
 20
26.18534214213113
 30
0.0
 40
0.18
 41
0.18
  0
VERTEX
  5
43D
  8
0
  6
CONTINUOUS
 62
     7
 10
-6.695384878756056
 20
26.18546328470999
 30
0.0
 40
0.18
 41
0.18
  0
VERTEX
  5
43E
  8
0
  6
CONTINUOUS
 62
     7
 10
-6.691234832418528
 20
26.18556111829142
 30
0.0
 40
0.18
 41
0.18
  0
VERTEX
  5
43F
  8
0
  6
CONTINUOUS
 62
     7
 10
-6.687081529981033
 20
26.1856377618752
 30
0.0
 40
0.18
 41
0.18
  0
VERTEX
  5
440
  8
0
  6
CONTINUOUS
 62
     7
 10
-6.682925297053565
 20
26.18569533446109
 30
0.0
 40
0.18
 41
0.18
  0
VERTEX
  5
441
  8
0
  6
CONTINUOUS
 62
     7
 10
-6.678766459246125
 20
26.18573595504886
 30
0.0
 40
0.18
 41
0.18
  0
VERTEX
  5
442
  8
0
  6
CONTINUOUS
 62
     7
 10
-6.674605342168706
 20
26.18576174263828
 30
0.0
 40
0.18
 41
0.18
  0
VERTEX
  5
443
  8
0
  6
CONTINUOUS
 62
     7
 10
-6.670442271431306
 20
26.18577481622909
 30
0.0
 40
0.18
 41
0.18
  0
VERTEX
  5
444
  8
0
  6
CONTINUOUS
 62
     7
 10
-6.666277572643922
 20
26.18577729482108
 30
0.0
 40
0.18
 41
0.18
  0
VERTEX
  5
445
  8
0
  6
CONTINUOUS
 62
     7
 10
-6.662111571416551
 20
26.18577129741401
 30
0.0
 40
0.18
 41
0.18
  0
VERTEX
  5
446
  8
0
  6
CONTINUOUS
 62
     7
 10
-6.657944593359188
 20
26.18575894300763
 30
0.0
 40
0.18
 41
0.18
  0
VERTEX
  5
447
  8
0
  6
CONTINUOUS
 62
     7
 10
-6.653776964081832
 20
26.18574235060174
 30
0.0
 40
0.18
 41
0.18
  0
VERTEX
  5
448
  8
0
  6
CONTINUOUS
 62
     7
 10
-6.649609009194477
 20
26.18572363919607
 30
0.0
 40
0.18
 41
0.18
  0
SEQEND
  5
6D4
  8
0
  6
CONTINUOUS
 62
     7
  0
POLYLINE
  5
396
  8
0
  6
CONTINUOUS
 62
     7
 66
     1
 10
0.0
 20
0.0
 30
0.0
  0
VERTEX
  5
449
  8
0
  6
CONTINUOUS
 62
     7
 10
-6.899613241124285
 20
-44.51163237627369
 30
0.0
 40
0.18
 41
0.18
  0
VERTEX
  5
44A
  8
0
  6
CONTINUOUS
 62
     7
 10
-6.897585547055467
 20
-44.50769968365564
 30
0.0
 40
0.18
 41
0.18
  0
VERTEX
  5
44B
  8
0
  6
CONTINUOUS
 62
     7
 10
-6.895516359024782
 20
-44.50379579200404
 30
0.0
 40
0.18
 41
0.18
  0
VERTEX
  5
44C
  8
0
  6
CONTINUOUS
 62
     7
 10
-6.893364183070357
 20
-44.49994950228537
 30
0.0
 40
0.18
 41
0.18
  0
VERTEX
  5
44D
  8
0
  6
CONTINUOUS
 62
     7
 10
-6.891087525230324
 20
-44.49618961546608
 30
0.0
 40
0.18
 41
0.18
  0
VERTEX
  5
44E
  8
0
  6
CONTINUOUS
 62
     7
 10
-6.888650975700713
 20
-44.49254108880491
 30
0.0
 40
0.18
 41
0.18
  0
VERTEX
  5
44F
  8
0
  6
CONTINUOUS
 62
     7
 10
-6.88605267323311
 20
-44.48900768503471
 30
0.0
 40
0.18
 41
0.18
  0
VERTEX
  5
450
  8
0
  6
CONTINUOUS
 62
     7
 10
-6.883302257416466
 20
-44.48558590115687
 30
0.0
 40
0.18
 41
0.18
  0
VERTEX
  5
451
  8
0
  6
CONTINUOUS
 62
     7
 10
-6.880409378081614
 20
-44.48227222770242
 30
0.0
 40
0.18
 41
0.18
  0
VERTEX
  5
452
  8
0
  6
CONTINUOUS
 62
     7
 10
-6.877383685059395
 20
-44.47906315520236
 30
0.0
 40
0.18
 41
0.18
  0
VERTEX
  5
453
  8
0
  6
CONTINUOUS
 62
     7
 10
-6.874234828180641
 20
-44.47595517418772
 30
0.0
 40
0.18
 41
0.18
  0
VERTEX
  5
454
  8
0
  6
CONTINUOUS
 62
     7
 10
-6.870972457276187
 20
-44.4729447751895
 30
0.0
 40
0.18
 41
0.18
  0
VERTEX
  5
455
  8
0
  6
CONTINUOUS
 62
     7
 10
-6.867606222176871
 20
-44.47002844873875
 30
0.0
 40
0.18
 41
0.18
  0
VERTEX
  5
456
  8
0
  6
CONTINUOUS
 62
     7
 10
-6.864145772713528
 20
-44.46720268536645
 30
0.0
 40
0.18
 41
0.18
  0
VERTEX
  5
457
  8
0
  6
CONTINUOUS
 62
     7
 10
-6.860600758716995
 20
-44.46446397560363
 30
0.0
 40
0.18
 41
0.18
  0
VERTEX
  5
458
  8
0
  6
CONTINUOUS
 62
     7
 10
-6.856980830018109
 20
-44.46180880998132
 30
0.0
 40
0.18
 41
0.18
  0
VERTEX
  5
459
  8
0
  6
CONTINUOUS
 62
     7
 10
-6.853295636447701
 20
-44.45923367903052
 30
0.0
 40
0.18
 41
0.18
  0
VERTEX
  5
45A
  8
0
  6
CONTINUOUS
 62
     7
 10
-6.849554827836611
 20
-44.45673507328225
 30
0.0
 40
0.18
 41
0.18
  0
VERTEX
  5
45B
  8
0
  6
CONTINUOUS
 62
     7
 10
-6.845768054015672
 20
-44.45430948326753
 30
0.0
 40
0.18
 41
0.18
  0
VERTEX
  5
45C
  8
0
  6
CONTINUOUS
 62
     7
 10
-6.841944923078024
 20
-44.45195342074618
 30
0.0
 40
0.18
 41
0.18
  0
VERTEX
  5
45D
  8
0
  6
CONTINUOUS
 62
     7
 10
-6.838091900187768
 20
-44.44966499604909
 30
0.0
 40
0.18
 41
0.18
  0
VERTEX
  5
45E
  8
0
  6
CONTINUOUS
 62
     7
 10
-6.834210171224464
 20
-44.44744500468102
 30
0.0
 40
0.18
 41
0.18
  0
VERTEX
  5
45F
  8
0
  6
CONTINUOUS
 62
     7
 10
-6.830300416692091
 20
-44.44529449919327
 30
0.0
 40
0.18
 41
0.18
  0
VERTEX
  5
460
  8
0
  6
CONTINUOUS
 62
     7
 10
-6.826363317094634
 20
-44.44321453213707
 30
0.0
 40
0.18
 41
0.18
  0
VERTEX
  5
461
  8
0
  6
CONTINUOUS
 62
     7
 10
-6.822399552936074
 20
-44.4412061560637
 30
0.0
 40
0.18
 41
0.18
  0
VERTEX
  5
462
  8
0
  6
CONTINUOUS
 62
     7
 10
-6.818409804720395
 20
-44.43927042352442
 30
0.0
 40
0.18
 41
0.18
  0
VERTEX
  5
463
  8
0
  6
CONTINUOUS
 62
     7
 10
-6.814394752951578
 20
-44.43740838707048
 30
0.0
 40
0.18
 41
0.18
  0
VERTEX
  5
464
  8
0
  6
CONTINUOUS
 62
     7
 10
-6.810355078133606
 20
-44.43562109925316
 30
0.0
 40
0.18
 41
0.18
  0
VERTEX
  5
465
  8
0
  6
CONTINUOUS
 62
     7
 10
-6.806291460770459
 20
-44.4339096126237
 30
0.0
 40
0.18
 41
0.18
  0
VERTEX
  5
466
  8
0
  6
CONTINUOUS
 62
     7
 10
-6.802204581366123
 20
-44.43227497973336
 30
0.0
 40
0.18
 41
0.18
  0
VERTEX
  5
467
  8
0
  6
CONTINUOUS
 62
     7
 10
-6.798095120424579
 20
-44.43071825313341
 30
0.0
 40
0.18
 41
0.18
  0
VERTEX
  5
468
  8
0
  6
CONTINUOUS
 62
     7
 10
-6.793963758449808
 20
-44.42924048537513
 30
0.0
 40
0.18
 41
0.18
  0
VERTEX
  5
469
  8
0
  6
CONTINUOUS
 62
     7
 10
-6.789811175945796
 20
-44.42784272900974
 30
0.0
 40
0.18
 41
0.18
  0
VERTEX
  5
46A
  8
0
  6
CONTINUOUS
 62
     7
 10
-6.785638053416522
 20
-44.42652603658851
 30
0.0
 40
0.18
 41
0.18
  0
VERTEX
  5
46B
  8
0
  6
CONTINUOUS
 62
     7
 10
-6.78144507134475
 20
-44.42529145869303
 30
0.0
 40
0.18
 41
0.18
  0
VERTEX
  5
46C
  8
0
  6
CONTINUOUS
 62
     7
 10
-6.777232900015601
 20
-44.4241390992723
 30
0.0
 40
0.18
 41
0.18
  0
VERTEX
  5
46D
  8
0
  6
CONTINUOUS
 62
     7
 10
-6.773002183187213
 20
-44.4230665998137
 30
0.0
 40
0.18
 41
0.18
  0
VERTEX
  5
46E
  8
0
  6
CONTINUOUS
 62
     7
 10
-6.768753560359559
 20
-44.42207120652545
 30
0.0
 40
0.18
 41
0.18
  0
VERTEX
  5
46F
  8
0
  6
CONTINUOUS
 62
     7
 10
-6.764487671032612
 20
-44.42115016561576
 30
0.0
 40
0.18
 41
0.18
  0
VERTEX
  5
470
  8
0
  6
CONTINUOUS
 62
     7
 10
-6.760205154706348
 20
-44.42030072329281
 30
0.0
 40
0.18
 41
0.18
  0
VERTEX
  5
471
  8
0
  6
CONTINUOUS
 62
     7
 10
-6.755906650880737
 20
-44.41952012576482
 30
0.0
 40
0.18
 41
0.18
  0
VERTEX
  5
472
  8
0
  6
CONTINUOUS
 62
     7
 10
-6.751592799055757
 20
-44.41880561923998
 30
0.0
 40
0.18
 41
0.18
  0
VERTEX
  5
473
  8
0
  6
CONTINUOUS
 62
     7
 10
-6.747264238731379
 20
-44.41815444992651
 30
0.0
 40
0.18
 41
0.18
  0
VERTEX
  5
474
  8
0
  6
CONTINUOUS
 62
     7
 10
-6.742921609407579
 20
-44.41756386403259
 30
0.0
 40
0.18
 41
0.18
  0
VERTEX
  5
475
  8
0
  6
CONTINUOUS
 62
     7
 10
-6.738565550584327
 20
-44.41703110776643
 30
0.0
 40
0.18
 41
0.18
  0
VERTEX
  5
476
  8
0
  6
CONTINUOUS
 62
     7
 10
-6.734196701761602
 20
-44.41655342733624
 30
0.0
 40
0.18
 41
0.18
  0
VERTEX
  5
477
  8
0
  6
CONTINUOUS
 62
     7
 10
-6.729815702439373
 20
-44.41612806895021
 30
0.0
 40
0.18
 41
0.18
  0
VERTEX
  5
478
  8
0
  6
CONTINUOUS
 62
     7
 10
-6.725423192117616
 20
-44.41575227881656
 30
0.0
 40
0.18
 41
0.18
  0
VERTEX
  5
479
  8
0
  6
CONTINUOUS
 62
     7
 10
-6.721019810296305
 20
-44.41542330314346
 30
0.0
 40
0.18
 41
0.18
  0
VERTEX
  5
47A
  8
0
  6
CONTINUOUS
 62
     7
 10
-6.716606196475413
 20
-44.41513838813914
 30
0.0
 40
0.18
 41
0.18
  0
VERTEX
  5
47B
  8
0
  6
CONTINUOUS
 62
     7
 10
-6.712182990154914
 20
-44.41489478001179
 30
0.0
 40
0.18
 41
0.18
  0
VERTEX
  5
47C
  8
0
  6
CONTINUOUS
 62
     7
 10
-6.70775083083478
 20
-44.4146897249696
 30
0.0
 40
0.18
 41
0.18
  0
VERTEX
  5
47D
  8
0
  6
CONTINUOUS
 62
     7
 10
-6.703310358014988
 20
-44.4145204692208
 30
0.0
 40
0.18
 41
0.18
  0
VERTEX
  5
47E
  8
0
  6
CONTINUOUS
 62
     7
 10
-6.698862211195509
 20
-44.41438425897358
 30
0.0
 40
0.18
 41
0.18
  0
VERTEX
  5
47F
  8
0
  6
CONTINUOUS
 62
     7
 10
-6.694407029876319
 20
-44.41427834043613
 30
0.0
 40
0.18
 41
0.18
  0
VERTEX
  5
480
  8
0
  6
CONTINUOUS
 62
     7
 10
-6.689945453557391
 20
-44.41419995981667
 30
0.0
 40
0.18
 41
0.18
  0
VERTEX
  5
481
  8
0
  6
CONTINUOUS
 62
     7
 10
-6.685478121738697
 20
-44.41414636332339
 30
0.0
 40
0.18
 41
0.18
  0
VERTEX
  5
482
  8
0
  6
CONTINUOUS
 62
     7
 10
-6.681005673920214
 20
-44.4141147971645
 30
0.0
 40
0.18
 41
0.18
  0
VERTEX
  5
483
  8
0
  6
CONTINUOUS
 62
     7
 10
-6.676528749601913
 20
-44.41410250754819
 30
0.0
 40
0.18
 41
0.18
  0
VERTEX
  5
484
  8
0
  6
CONTINUOUS
 62
     7
 10
-6.672047988283769
 20
-44.41410674068267
 30
0.0
 40
0.18
 41
0.18
  0
VERTEX
  5
485
  8
0
  6
CONTINUOUS
 62
     7
 10
-6.667564029465754
 20
-44.41412474277614
 30
0.0
 40
0.18
 41
0.18
  0
VERTEX
  5
486
  8
0
  6
CONTINUOUS
 62
     7
 10
-6.663077512647845
 20
-44.41415376003681
 30
0.0
 40
0.18
 41
0.18
  0
VERTEX
  5
487
  8
0
  6
CONTINUOUS
 62
     7
 10
-6.658589077330013
 20
-44.41419103867287
 30
0.0
 40
0.18
 41
0.18
  0
VERTEX
  5
488
  8
0
  6
CONTINUOUS
 62
     7
 10
-6.654099363012231
 20
-44.41423382489252
 30
0.0
 40
0.18
 41
0.18
  0
VERTEX
  5
489
  8
0
  6
CONTINUOUS
 62
     7
 10
-6.649609009194477
 20
-44.41427936490397
 30
0.0
 40
0.18
 41
0.18
  0
SEQEND
  5
6D5
  8
0
  6
CONTINUOUS
 62
     7
  0
POLYLINE
  5
397
  8
0
  6
CONTINUOUS
 62
     7
 66
     1
 10
0.0
 20
0.0
 30
0.0
  0
VERTEX
  5
48A
  8
0
  6
CONTINUOUS
 62
     7
 10
-6.649609009194477
 20
-39.61428006820397
 30
0.0
 40
0.18
 41
0.18
  0
VERTEX
  5
48B
  8
0
  6
CONTINUOUS
 62
     7
 10
-6.654066045958404
 20
-39.61434036035959
 30
0.0
 40
0.18
 41
0.18
  0
VERTEX
  5
48C
  8
0
  6
CONTINUOUS
 62
     7
 10
-6.658522658480887
 20
-39.61439768985482
 30
0.0
 40
0.18
 41
0.18
  0
VERTEX
  5
48D
  8
0
  6
CONTINUOUS
 62
     7
 10
-6.662978422520486
 20
-39.6144490940292
 30
0.0
 40
0.18
 41
0.18
  0
VERTEX
  5
48E
  8
0
  6
CONTINUOUS
 62
     7
 10
-6.667432913835757
 20
-39.61449161022234
 30
0.0
 40
0.18
 41
0.18
  0
VERTEX
  5
48F
  8
0
  6
CONTINUOUS
 62
     7
 10
-6.671885708185259
 20
-39.61452227577382
 30
0.0
 40
0.18
 41
0.18
  0
VERTEX
  5
490
  8
0
  6
CONTINUOUS
 62
     7
 10
-6.676336381327546
 20
-39.61453812802321
 30
0.0
 40
0.18
 41
0.18
  0
VERTEX
  5
491
  8
0
  6
CONTINUOUS
 62
     7
 10
-6.680784509021177
 20
-39.61453620431009
 30
0.0
 40
0.18
 41
0.18
  0
VERTEX
  5
492
  8
0
  6
CONTINUOUS
 62
     7
 10
-6.685229667024712
 20
-39.61451354197407
 30
0.0
 40
0.18
 41
0.18
  0
VERTEX
  5
493
  8
0
  6
CONTINUOUS
 62
     7
 10
-6.689671431096706
 20
-39.61446717835472
 30
0.0
 40
0.18
 41
0.18
  0
VERTEX
  5
494
  8
0
  6
CONTINUOUS
 62
     7
 10
-6.694109376995717
 20
-39.61439415079163
 30
0.0
 40
0.18
 41
0.18
  0
VERTEX
  5
495
  8
0
  6
CONTINUOUS
 62
     7
 10
-6.698543080480301
 20
-39.61429149662437
 30
0.0
 40
0.18
 41
0.18
  0
VERTEX
  5
496
  8
0
  6
CONTINUOUS
 62
     7
 10
-6.70297211730902
 20
-39.61415625319253
 30
0.0
 40
0.18
 41
0.18
  0
VERTEX
  5
497
  8
0
  6
CONTINUOUS
 62
     7
 10
-6.707396063240427
 20
-39.6139854578357
 30
0.0
 40
0.18
 41
0.18
  0
VERTEX
  5
498
  8
0
  6
CONTINUOUS
 62
     7
 10
-6.711814494033082
 20
-39.61377614789346
 30
0.0
 40
0.18
 41
0.18
  0
VERTEX
  5
499
  8
0
  6
CONTINUOUS
 62
     7
 10
-6.716226985445541
 20
-39.6135253607054
 30
0.0
 40
0.18
 41
0.18
  0
VERTEX
  5
49A
  8
0
  6
CONTINUOUS
 62
     7
 10
-6.720633113236363
 20
-39.61323013361108
 30
0.0
 40
0.18
 41
0.18
  0
VERTEX
  5
49B
  8
0
  6
CONTINUOUS
 62
     7
 10
-6.725032453164102
 20
-39.61288750395012
 30
0.0
 40
0.18
 41
0.18
  0
VERTEX
  5
49C
  8
0
  6
CONTINUOUS
 62
     7
 10
-6.729424580987319
 20
-39.61249450906207
 30
0.0
 40
0.18
 41
0.18
  0
VERTEX
  5
49D
  8
0
  6
CONTINUOUS
 62
     7
 10
-6.73380907246457
 20
-39.61204818628654
 30
0.0
 40
0.18
 41
0.18
  0
VERTEX
  5
49E
  8
0
  6
CONTINUOUS
 62
     7
 10
-6.738185503354416
 20
-39.6115455729631
 30
0.0
 40
0.18
 41
0.18
  0
VERTEX
  5
49F
  8
0
  6
CONTINUOUS
 62
     7
 10
-6.74255344941541
 20
-39.61098370643133
 30
0.0
 40
0.18
 41
0.18
  0
VERTEX
  5
4A0
  8
0
  6
CONTINUOUS
 62
     7
 10
-6.746912486406109
 20
-39.61035962403083
 30
0.0
 40
0.18
 41
0.18
  0
VERTEX
  5
4A1
  8
0
  6
CONTINUOUS
 62
     7
 10
-6.751262187225502
 20
-39.60967038594683
 30
0.0
 40
0.18
 41
0.18
  0
VERTEX
  5
4A2
  8
0
  6
CONTINUOUS
 62
     7
 10
-6.755601999203638
 20
-39.60891405555832
 30
0.0
 40
0.18
 41
0.18
  0
VERTEX
  5
4A3
  8
0
  6
CONTINUOUS
 62
     7
 10
-6.759931197693134
 20
-39.60809007020426
 30
0.0
 40
0.18
 41
0.18
  0
VERTEX
  5
4A4
  8
0
  6
CONTINUOUS
 62
     7
 10
-6.764249045616567
 20
-39.60719796652948
 30
0.0
 40
0.18
 41
0.18
  0
VERTEX
  5
4A5
  8
0
  6
CONTINUOUS
 62
     7
 10
-6.768554805896525
 20
-39.60623728117881
 30
0.0
 40
0.18
 41
0.18
  0
VERTEX
  5
4A6
  8
0
  6
CONTINUOUS
 62
     7
 10
-6.772847741455585
 20
-39.60520755079709
 30
0.0
 40
0.18
 41
0.18
  0
VERTEX
  5
4A7
  8
0
  6
CONTINUOUS
 62
     7
 10
-6.777127115216329
 20
-39.60410831202915
 30
0.0
 40
0.18
 41
0.18
  0
VERTEX
  5
4A8
  8
0
  6
CONTINUOUS
 62
     7
 10
-6.781392190101338
 20
-39.60293910151983
 30
0.0
 40
0.18
 41
0.18
  0
VERTEX
  5
4A9
  8
0
  6
CONTINUOUS
 62
     7
 10
-6.785642229033193
 20
-39.60169945591394
 30
0.0
 40
0.18
 41
0.18
  0
VERTEX
  5
4AA
  8
0
  6
CONTINUOUS
 62
     7
 10
-6.789876494934476
 20
-39.60038891185634
 30
0.0
 40
0.18
 41
0.18
  0
VERTEX
  5
4AB
  8
0
  6
CONTINUOUS
 62
     7
 10
-6.794094250727766
 20
-39.59900700599183
 30
0.0
 40
0.18
 41
0.18
  0
VERTEX
  5
4AC
  8
0
  6
CONTINUOUS
 62
     7
 10
-6.798294759335647
 20
-39.59755327496528
 30
0.0
 40
0.18
 41
0.18
  0
VERTEX
  5
4AD
  8
0
  6
CONTINUOUS
 62
     7
 10
-6.802477283680697
 20
-39.59602725542148
 30
0.0
 40
0.18
 41
0.18
  0
VERTEX
  5
4AE
  8
0
  6
CONTINUOUS
 62
     7
 10
-6.8066410866855
 20
-39.59442848400531
 30
0.0
 40
0.18
 41
0.18
  0
VERTEX
  5
4AF
  8
0
  6
CONTINUOUS
 62
     7
 10
-6.810785431272636
 20
-39.59275649736156
 30
0.0
 40
0.18
 41
0.18
  0
VERTEX
  5
4B0
  8
0
  6
CONTINUOUS
 62
     7
 10
-6.814909580364687
 20
-39.59101083213508
 30
0.0
 40
0.18
 41
0.18
  0
VERTEX
  5
4B1
  8
0
  6
CONTINUOUS
 62
     7
 10
-6.819012796884232
 20
-39.5891910249707
 30
0.0
 40
0.18
 41
0.18
  0
VERTEX
  5
4B2
  8
0
  6
CONTINUOUS
 62
     7
 10
-6.823094343753855
 20
-39.58729661251328
 30
0.0
 40
0.18
 41
0.18
  0
VERTEX
  5
4B3
  8
0
  6
CONTINUOUS
 62
     7
 10
-6.827153269022301
 20
-39.58532708245946
 30
0.0
 40
0.18
 41
0.18
  0
VERTEX
  5
4B4
  8
0
  6
CONTINUOUS
 62
     7
 10
-6.831185213470712
 20
-39.5832811463324
 30
0.0
 40
0.18
 41
0.18
  0
VERTEX
  5
4B5
  8
0
  6
CONTINUOUS
 62
     7
 10
-6.835183093091162
 20
-39.58115689494981
 30
0.0
 40
0.18
 41
0.18
  0
VERTEX
  5
4B6
  8
0
  6
CONTINUOUS
 62
     7
 10
-6.839139747638906
 20
-39.57895240176273
 30
0.0
 40
0.18
 41
0.18
  0
VERTEX
  5
4B7
  8
0
  6
CONTINUOUS
 62
     7
 10
-6.843048016869201
 20
-39.57666574022217
 30
0.0
 40
0.18
 41
0.18
  0
VERTEX
  5
4B8
  8
0
  6
CONTINUOUS
 62
     7
 10
-6.846900740537309
 20
-39.5742949837792
 30
0.0
 40
0.18
 41
0.18
  0
VERTEX
  5
4B9
  8
0
  6
CONTINUOUS
 62
     7
 10
-6.850690758398486
 20
-39.57183820588482
 30
0.0
 40
0.18
 41
0.18
  0
VERTEX
  5
4BA
  8
0
  6
CONTINUOUS
 62
     7
 10
-6.85441091020799
 20
-39.56929347999007
 30
0.0
 40
0.18
 41
0.18
  0
VERTEX
  5
4BB
  8
0
  6
CONTINUOUS
 62
     7
 10
-6.85805403572108
 20
-39.56665887954598
 30
0.0
 40
0.18
 41
0.18
  0
VERTEX
  5
4BC
  8
0
  6
CONTINUOUS
 62
     7
 10
-6.861612974693014
 20
-39.56393247800359
 30
0.0
 40
0.18
 41
0.18
  0
VERTEX
  5
4BD
  8
0
  6
CONTINUOUS
 62
     7
 10
-6.865080566879051
 20
-39.56111234881394
 30
0.0
 40
0.18
 41
0.18
  0
VERTEX
  5
4BE
  8
0
  6
CONTINUOUS
 62
     7
 10
-6.868449652034447
 20
-39.55819656542803
 30
0.0
 40
0.18
 41
0.18
  0
VERTEX
  5
4BF
  8
0
  6
CONTINUOUS
 62
     7
 10
-6.87171306991446
 20
-39.55518320129692
 30
0.0
 40
0.18
 41
0.18
  0
VERTEX
  5
4C0
  8
0
  6
CONTINUOUS
 62
     7
 10
-6.874863660274354
 20
-39.55207032987164
 30
0.0
 40
0.18
 41
0.18
  0
VERTEX
  5
4C1
  8
0
  6
CONTINUOUS
 62
     7
 10
-6.877894262869379
 20
-39.54885602460321
 30
0.0
 40
0.18
 41
0.18
  0
VERTEX
  5
4C2
  8
0
  6
CONTINUOUS
 62
     7
 10
-6.880797717454796
 20
-39.54553835894266
 30
0.0
 40
0.18
 41
0.18
  0
VERTEX
  5
4C3
  8
0
  6
CONTINUOUS
 62
     7
 10
-6.883566863785867
 20
-39.54211540634104
 30
0.0
 40
0.18
 41
0.18
  0
VERTEX
  5
4C4
  8
0
  6
CONTINUOUS
 62
     7
 10
-6.886194541617844
 20
-39.53858524024936
 30
0.0
 40
0.18
 41
0.18
  0
VERTEX
  5
4C5
  8
0
  6
CONTINUOUS
 62
     7
 10
-6.888675242091561
 20
-39.53494697447003
 30
0.0
 40
0.18
 41
0.18
  0
VERTEX
  5
4C6
  8
0
  6
CONTINUOUS
 62
     7
 10
-6.891022831498533
 20
-39.53121192889743
 30
0.0
 40
0.18
 41
0.18
  0
VERTEX
  5
4C7
  8
0
  6
CONTINUOUS
 62
     7
 10
-6.893263761171887
 20
-39.52739935183791
 30
0.0
 40
0.18
 41
0.18
  0
VERTEX
  5
4C8
  8
0
  6
CONTINUOUS
 62
     7
 10
-6.895424696045034
 20
-39.52352862616323
 30
0.0
 40
0.18
 41
0.18
  0
VERTEX
  5
4C9
  8
0
  6
CONTINUOUS
 62
     7
 10
-6.897532301051365
 20
-39.51961913474507
 30
0.0
 40
0.18
 41
0.18
  0
VERTEX
  5
4CA
  8
0
  6
CONTINUOUS
 62
     7
 10
-6.899613241124285
 20
-39.51569026045517
 30
0.0
 40
0.18
 41
0.18
  0
SEQEND
  5
6D6
  8
0
  6
CONTINUOUS
 62
     7
  0
POLYLINE
  5
398
  8
0
  6
CONTINUOUS
 62
     7
 66
     1
 10
0.0
 20
0.0
 30
0.0
  0
VERTEX
  5
4CB
  8
0
  6
CONTINUOUS
 62
     7
 10
-63.13820262285027
 20
31.09095851254076
 30
0.0
 40
0.18
 41
0.18
  0
VERTEX
  5
4CC
  8
0
  6
CONTINUOUS
 62
     7
 10
-63.13820262285026
 20
31.08679895456371
 30
0.0
 40
0.18
 41
0.18
  0
VERTEX
  5
4CD
  8
0
  6
CONTINUOUS
 62
     7
 10
-63.13820262285027
 20
31.08263986613658
 30
0.0
 40
0.18
 41
0.18
  0
VERTEX
  5
4CE
  8
0
  6
CONTINUOUS
 62
     7
 10
-63.13820262285027
 20
31.07848171680928
 30
0.0
 40
0.18
 41
0.18
  0
VERTEX
  5
4CF
  8
0
  6
CONTINUOUS
 62
     7
 10
-63.13820262285027
 20
31.07432497613174
 30
0.0
 40
0.18
 41
0.18
  0
VERTEX
  5
4D0
  8
0
  6
CONTINUOUS
 62
     7
 10
-63.13820262285027
 20
31.07017011365387
 30
0.0
 40
0.18
 41
0.18
  0
VERTEX
  5
4D1
  8
0
  6
CONTINUOUS
 62
     7
 10
-63.13820262285027
 20
31.06601759892557
 30
0.0
 40
0.18
 41
0.18
  0
VERTEX
  5
4D2
  8
0
  6
CONTINUOUS
 62
     7
 10
-63.13820262285026
 20
31.06186790149678
 30
0.0
 40
0.18
 41
0.18
  0
VERTEX
  5
4D3
  8
0
  6
CONTINUOUS
 62
     7
 10
-63.13820262285027
 20
31.05772149091741
 30
0.0
 40
0.18
 41
0.18
  0
VERTEX
  5
4D4
  8
0
  6
CONTINUOUS
 62
     7
 10
-63.13820262285027
 20
31.05357883673738
 30
0.0
 40
0.18
 41
0.18
  0
VERTEX
  5
4D5
  8
0
  6
CONTINUOUS
 62
     7
 10
-63.13820262285027
 20
31.0494404085066
 30
0.0
 40
0.18
 41
0.18
  0
VERTEX
  5
4D6
  8
0
  6
CONTINUOUS
 62
     7
 10
-63.13820262285027
 20
31.04530667577499
 30
0.0
 40
0.18
 41
0.18
  0
VERTEX
  5
4D7
  8
0
  6
CONTINUOUS
 62
     7
 10
-63.13820262285027
 20
31.04117810809247
 30
0.0
 40
0.18
 41
0.18
  0
VERTEX
  5
4D8
  8
0
  6
CONTINUOUS
 62
     7
 10
-63.13820262285027
 20
31.03705517500895
 30
0.0
 40
0.18
 41
0.18
  0
VERTEX
  5
4D9
  8
0
  6
CONTINUOUS
 62
     7
 10
-63.13820262285027
 20
31.03293834607436
 30
0.0
 40
0.18
 41
0.18
  0
VERTEX
  5
4DA
  8
0
  6
CONTINUOUS
 62
     7
 10
-63.13820262285026
 20
31.0288280908386
 30
0.0
 40
0.18
 41
0.18
  0
VERTEX
  5
4DB
  8
0
  6
CONTINUOUS
 62
     7
 10
-63.13820262285027
 20
31.0247248788516
 30
0.0
 40
0.18
 41
0.18
  0
VERTEX
  5
4DC
  8
0
  6
CONTINUOUS
 62
     7
 10
-63.13820262285028
 20
31.02062917966327
 30
0.0
 40
0.18
 41
0.18
  0
VERTEX
  5
4DD
  8
0
  6
CONTINUOUS
 62
     7
 10
-63.13820262285027
 20
31.01654146282354
 30
0.0
 40
0.18
 41
0.18
  0
VERTEX
  5
4DE
  8
0
  6
CONTINUOUS
 62
     7
 10
-63.13820262285027
 20
31.01246219788231
 30
0.0
 40
0.18
 41
0.18
  0
VERTEX
  5
4DF
  8
0
  6
CONTINUOUS
 62
     7
 10
-63.13820262285027
 20
31.0083918543895
 30
0.0
 40
0.18
 41
0.18
  0
VERTEX
  5
4E0
  8
0
  6
CONTINUOUS
 62
     7
 10
-63.13820262285027
 20
31.00433090189504
 30
0.0
 40
0.18
 41
0.18
  0
VERTEX
  5
4E1
  8
0
  6
CONTINUOUS
 62
     7
 10
-63.13820262285027
 20
31.00027980994883
 30
0.0
 40
0.18
 41
0.18
  0
VERTEX
  5
4E2
  8
0
  6
CONTINUOUS
 62
     7
 10
-63.13820262285027
 20
30.99623904810079
 30
0.0
 40
0.18
 41
0.18
  0
VERTEX
  5
4E3
  8
0
  6
CONTINUOUS
 62
     7
 10
-63.13820262285027
 20
30.99220908590086
 30
0.0
 40
0.18
 41
0.18
  0
VERTEX
  5
4E4
  8
0
  6
CONTINUOUS
 62
     7
 10
-63.13820262285027
 20
30.98819039289894
 30
0.0
 40
0.18
 41
0.18
  0
VERTEX
  5
4E5
  8
0
  6
CONTINUOUS
 62
     7
 10
-63.13820262285027
 20
30.98418343864493
 30
0.0
 40
0.18
 41
0.18
  0
VERTEX
  5
4E6
  8
0
  6
CONTINUOUS
 62
     7
 10
-63.13820262285027
 20
30.98018869268877
 30
0.0
 40
0.18
 41
0.18
  0
VERTEX
  5
4E7
  8
0
  6
CONTINUOUS
 62
     7
 10
-63.13820262285027
 20
30.97620662458037
 30
0.0
 40
0.18
 41
0.18
  0
VERTEX
  5
4E8
  8
0
  6
CONTINUOUS
 62
     7
 10
-63.13820262285027
 20
30.97223770386966
 30
0.0
 40
0.18
 41
0.18
  0
VERTEX
  5
4E9
  8
0
  6
CONTINUOUS
 62
     7
 10
-63.13820262285028
 20
30.96828240039547
 30
0.0
 40
0.18
 41
0.18
  0
VERTEX
  5
4EA
  8
0
  6
CONTINUOUS
 62
     7
 10
-63.13820262285026
 20
30.96434121944423
 30
0.0
 40
0.18
 41
0.18
  0
VERTEX
  5
4EB
  8
0
  6
CONTINUOUS
 62
     7
 10
-63.13820262285027
 20
30.96041473540899
 30
0.0
 40
0.18
 41
0.18
  0
VERTEX
  5
4EC
  8
0
  6
CONTINUOUS
 62
     7
 10
-63.13820262285027
 20
30.9565035306594
 30
0.0
 40
0.18
 41
0.18
  0
VERTEX
  5
4ED
  8
0
  6
CONTINUOUS
 62
     7
 10
-63.13820262285028
 20
30.95260818756516
 30
0.0
 40
0.18
 41
0.18
  0
VERTEX
  5
4EE
  8
0
  6
CONTINUOUS
 62
     7
 10
-63.13820262285027
 20
30.94872928849592
 30
0.0
 40
0.18
 41
0.18
  0
VERTEX
  5
4EF
  8
0
  6
CONTINUOUS
 62
     7
 10
-63.13820262285028
 20
30.94486741582138
 30
0.0
 40
0.18
 41
0.18
  0
VERTEX
  5
4F0
  8
0
  6
CONTINUOUS
 62
     7
 10
-63.13820262285028
 20
30.94102315191121
 30
0.0
 40
0.18
 41
0.18
  0
VERTEX
  5
4F1
  8
0
  6
CONTINUOUS
 62
     7
 10
-63.13820262285027
 20
30.93719707913507
 30
0.0
 40
0.18
 41
0.18
  0
VERTEX
  5
4F2
  8
0
  6
CONTINUOUS
 62
     7
 10
-63.13820262285029
 20
30.93338977986268
 30
0.0
 40
0.18
 41
0.18
  0
VERTEX
  5
4F3
  8
0
  6
CONTINUOUS
 62
     7
 10
-63.13820262285028
 20
30.92960183646367
 30
0.0
 40
0.18
 41
0.18
  0
VERTEX
  5
4F4
  8
0
  6
CONTINUOUS
 62
     7
 10
-63.13820262285027
 20
30.92583383130774
 30
0.0
 40
0.18
 41
0.18
  0
VERTEX
  5
4F5
  8
0
  6
CONTINUOUS
 62
     7
 10
-63.13820262285029
 20
30.92208634676457
 30
0.0
 40
0.18
 41
0.18
  0
VERTEX
  5
4F6
  8
0
  6
CONTINUOUS
 62
     7
 10
-63.13820262285027
 20
30.91835996520383
 30
0.0
 40
0.18
 41
0.18
  0
VERTEX
  5
4F7
  8
0
  6
CONTINUOUS
 62
     7
 10
-63.13820262285027
 20
30.91465526899519
 30
0.0
 40
0.18
 41
0.18
  0
VERTEX
  5
4F8
  8
0
  6
CONTINUOUS
 62
     7
 10
-63.13820262285029
 20
30.91097284050835
 30
0.0
 40
0.18
 41
0.18
  0
VERTEX
  5
4F9
  8
0
  6
CONTINUOUS
 62
     7
 10
-63.13820262285028
 20
30.90731326211296
 30
0.0
 40
0.18
 41
0.18
  0
VERTEX
  5
4FA
  8
0
  6
CONTINUOUS
 62
     7
 10
-63.13820262285027
 20
30.90367711617871
 30
0.0
 40
0.18
 41
0.18
  0
VERTEX
  5
4FB
  8
0
  6
CONTINUOUS
 62
     7
 10
-63.13820262285027
 20
30.90006498507529
 30
0.0
 40
0.18
 41
0.18
  0
VERTEX
  5
4FC
  8
0
  6
CONTINUOUS
 62
     7
 10
-63.13820262285027
 20
30.89647745117235
 30
0.0
 40
0.18
 41
0.18
  0
VERTEX
  5
4FD
  8
0
  6
CONTINUOUS
 62
     7
 10
-63.13820262285029
 20
30.89291509683958
 30
0.0
 40
0.18
 41
0.18
  0
VERTEX
  5
4FE
  8
0
  6
CONTINUOUS
 62
     7
 10
-63.13820262285027
 20
30.88937850444666
 30
0.0
 40
0.18
 41
0.18
  0
VERTEX
  5
4FF
  8
0
  6
CONTINUOUS
 62
     7
 10
-63.13820262285027
 20
30.88586825636326
 30
0.0
 40
0.18
 41
0.18
  0
VERTEX
  5
500
  8
0
  6
CONTINUOUS
 62
     7
 10
-63.13820262285027
 20
30.88238493495907
 30
0.0
 40
0.18
 41
0.18
  0
VERTEX
  5
501
  8
0
  6
CONTINUOUS
 62
     7
 10
-63.13820262285029
 20
30.87892912260375
 30
0.0
 40
0.18
 41
0.18
  0
VERTEX
  5
502
  8
0
  6
CONTINUOUS
 62
     7
 10
-63.13820262285029
 20
30.87550140166699
 30
0.0
 40
0.18
 41
0.18
  0
VERTEX
  5
503
  8
0
  6
CONTINUOUS
 62
     7
 10
-63.13820262285027
 20
30.87210235451846
 30
0.0
 40
0.18
 41
0.18
  0
VERTEX
  5
504
  8
0
  6
CONTINUOUS
 62
     7
 10
-63.13820262285027
 20
30.86873256352784
 30
0.0
 40
0.18
 41
0.18
  0
VERTEX
  5
505
  8
0
  6
CONTINUOUS
 62
     7
 10
-63.13820262285027
 20
30.86539261106481
 30
0.0
 40
0.18
 41
0.18
  0
VERTEX
  5
506
  8
0
  6
CONTINUOUS
 62
     7
 10
-63.13820262285029
 20
30.86208307949904
 30
0.0
 40
0.18
 41
0.18
  0
VERTEX
  5
507
  8
0
  6
CONTINUOUS
 62
     7
 10
-63.13820262285028
 20
30.85880455120021
 30
0.0
 40
0.18
 41
0.18
  0
VERTEX
  5
508
  8
0
  6
CONTINUOUS
 62
     7
 10
-63.13820262285027
 20
30.855557608538
 30
0.0
 40
0.18
 41
0.18
  0
VERTEX
  5
509
  8
0
  6
CONTINUOUS
 62
     7
 10
-63.13820262285028
 20
30.85234283388208
 30
0.0
 40
0.18
 41
0.18
  0
VERTEX
  5
50A
  8
0
  6
CONTINUOUS
 62
     7
 10
-63.13820262285027
 20
30.84916080960213
 30
0.0
 40
0.18
 41
0.18
  0
VERTEX
  5
50B
  8
0
  6
CONTINUOUS
 62
     7
 10
-63.13820262285027
 20
30.84600949954607
 30
0.0
 40
0.18
 41
0.18
  0
SEQEND
  5
6D7
  8
0
  6
CONTINUOUS
 62
     7
  0
POLYLINE
  5
399
  8
0
  6
CONTINUOUS
 62
     7
 66
     1
 10
0.0
 20
0.0
 30
0.0
  0
VERTEX
  5
50C
  8
0
  6
CONTINUOUS
 62
     7
 10
-63.13820262285027
 20
26.44601101354606
 30
0.0
 40
0.18
 41
0.18
  0
VERTEX
  5
50D
  8
0
  6
CONTINUOUS
 62
     7
 10
-63.13820262285027
 20
26.4428574267427
 30
0.0
 40
0.18
 41
0.18
  0
VERTEX
  5
50E
  8
0
  6
CONTINUOUS
 62
     7
 10
-63.13820262285027
 20
26.43967334603742
 30
0.0
 40
0.18
 41
0.18
  0
VERTEX
  5
50F
  8
0
  6
CONTINUOUS
 62
     7
 10
-63.13820262285027
 20
26.43645673984017
 30
0.0
 40
0.18
 41
0.18
  0
VERTEX
  5
510
  8
0
  6
CONTINUOUS
 62
     7
 10
-63.13820262285028
 20
26.43320818154979
 30
0.0
 40
0.18
 41
0.18
  0
VERTEX
  5
511
  8
0
  6
CONTINUOUS
 62
     7
 10
-63.13820262285028
 20
26.42992824456507
 30
0.0
 40
0.18
 41
0.18
  0
VERTEX
  5
512
  8
0
  6
CONTINUOUS
 62
     7
 10
-63.13820262285027
 20
26.42661750228486
 30
0.0
 40
0.18
 41
0.18
  0
VERTEX
  5
513
  8
0
  6
CONTINUOUS
 62
     7
 10
-63.13820262285027
 20
26.42327652810797
 30
0.0
 40
0.18
 41
0.18
  0
VERTEX
  5
514
  8
0
  6
CONTINUOUS
 62
     7
 10
-63.13820262285027
 20
26.41990589543324
 30
0.0
 40
0.18
 41
0.18
  0
VERTEX
  5
515
  8
0
  6
CONTINUOUS
 62
     7
 10
-63.13820262285027
 20
26.41650617765946
 30
0.0
 40
0.18
 41
0.18
  0
VERTEX
  5
516
  8
0
  6
CONTINUOUS
 62
     7
 10
-63.13820262285027
 20
26.41307794818548
 30
0.0
 40
0.18
 41
0.18
  0
VERTEX
  5
517
  8
0
  6
CONTINUOUS
 62
     7
 10
-63.13820262285028
 20
26.40962178041012
 30
0.0
 40
0.18
 41
0.18
  0
VERTEX
  5
518
  8
0
  6
CONTINUOUS
 62
     7
 10
-63.13820262285028
 20
26.40613824773218
 30
0.0
 40
0.18
 41
0.18
  0
VERTEX
  5
519
  8
0
  6
CONTINUOUS
 62
     7
 10
-63.13820262285028
 20
26.40262792355051
 30
0.0
 40
0.18
 41
0.18
  0
VERTEX
  5
51A
  8
0
  6
CONTINUOUS
 62
     7
 10
-63.13820262285027
 20
26.39909138126391
 30
0.0
 40
0.18
 41
0.18
  0
VERTEX
  5
51B
  8
0
  6
CONTINUOUS
 62
     7
 10
-63.13820262285028
 20
26.39552919427123
 30
0.0
 40
0.18
 41
0.18
  0
VERTEX
  5
51C
  8
0
  6
CONTINUOUS
 62
     7
 10
-63.13820262285029
 20
26.39194193597126
 30
0.0
 40
0.18
 41
0.18
  0
VERTEX
  5
51D
  8
0
  6
CONTINUOUS
 62
     7
 10
-63.13820262285027
 20
26.38833017976285
 30
0.0
 40
0.18
 41
0.18
  0
VERTEX
  5
51E
  8
0
  6
CONTINUOUS
 62
     7
 10
-63.13820262285028
 20
26.38469449904481
 30
0.0
 40
0.18
 41
0.18
  0
VERTEX
  5
51F
  8
0
  6
CONTINUOUS
 62
     7
 10
-63.13820262285027
 20
26.38103546721595
 30
0.0
 40
0.18
 41
0.18
  0
VERTEX
  5
520
  8
0
  6
CONTINUOUS
 62
     7
 10
-63.13820262285027
 20
26.37735365767512
 30
0.0
 40
0.18
 41
0.18
  0
VERTEX
  5
521
  8
0
  6
CONTINUOUS
 62
     7
 10
-63.13820262285027
 20
26.37364964382112
 30
0.0
 40
0.18
 41
0.18
  0
VERTEX
  5
522
  8
0
  6
CONTINUOUS
 62
     7
 10
-63.13820262285028
 20
26.36992399905279
 30
0.0
 40
0.18
 41
0.18
  0
VERTEX
  5
523
  8
0
  6
CONTINUOUS
 62
     7
 10
-63.13820262285028
 20
26.36617729676894
 30
0.0
 40
0.18
 41
0.18
  0
VERTEX
  5
524
  8
0
  6
CONTINUOUS
 62
     7
 10
-63.13820262285028
 20
26.3624101103684
 30
0.0
 40
0.18
 41
0.18
  0
VERTEX
  5
525
  8
0
  6
CONTINUOUS
 62
     7
 10
-63.13820262285027
 20
26.35862301324998
 30
0.0
 40
0.18
 41
0.18
  0
VERTEX
  5
526
  8
0
  6
CONTINUOUS
 62
     7
 10
-63.13820262285027
 20
26.35481657881251
 30
0.0
 40
0.18
 41
0.18
  0
VERTEX
  5
527
  8
0
  6
CONTINUOUS
 62
     7
 10
-63.13820262285027
 20
26.35099138045482
 30
0.0
 40
0.18
 41
0.18
  0
VERTEX
  5
528
  8
0
  6
CONTINUOUS
 62
     7
 10
-63.13820262285027
 20
26.34714799157573
 30
0.0
 40
0.18
 41
0.18
  0
VERTEX
  5
529
  8
0
  6
CONTINUOUS
 62
     7
 10
-63.13820262285027
 20
26.34328698557405
 30
0.0
 40
0.18
 41
0.18
  0
VERTEX
  5
52A
  8
0
  6
CONTINUOUS
 62
     7
 10
-63.13820262285027
 20
26.33940893584862
 30
0.0
 40
0.18
 41
0.18
  0
VERTEX
  5
52B
  8
0
  6
CONTINUOUS
 62
     7
 10
-63.13820262285028
 20
26.33551441579824
 30
0.0
 40
0.18
 41
0.18
  0
VERTEX
  5
52C
  8
0
  6
CONTINUOUS
 62
     7
 10
-63.13820262285027
 20
26.33160399882176
 30
0.0
 40
0.18
 41
0.18
  0
VERTEX
  5
52D
  8
0
  6
CONTINUOUS
 62
     7
 10
-63.13820262285027
 20
26.32767825831798
 30
0.0
 40
0.18
 41
0.18
  0
VERTEX
  5
52E
  8
0
  6
CONTINUOUS
 62
     7
 10
-63.13820262285027
 20
26.32373776768574
 30
0.0
 40
0.18
 41
0.18
  0
VERTEX
  5
52F
  8
0
  6
CONTINUOUS
 62
     7
 10
-63.13820262285028
 20
26.31978309313322
 30
0.0
 40
0.18
 41
0.18
  0
VERTEX
  5
530
  8
0
  6
CONTINUOUS
 62
     7
 10
-63.13820262285027
 20
26.31581473858142
 30
0.0
 40
0.18
 41
0.18
  0
VERTEX
  5
531
  8
0
  6
CONTINUOUS
 62
     7
 10
-63.13820262285028
 20
26.31183317600573
 30
0.0
 40
0.18
 41
0.18
  0
VERTEX
  5
532
  8
0
  6
CONTINUOUS
 62
     7
 10
-63.13820262285027
 20
26.30783887712129
 30
0.0
 40
0.18
 41
0.18
  0
VERTEX
  5
533
  8
0
  6
CONTINUOUS
 62
     7
 10
-63.13820262285027
 20
26.30383231364325
 30
0.0
 40
0.18
 41
0.18
  0
VERTEX
  5
534
  8
0
  6
CONTINUOUS
 62
     7
 10
-63.13820262285027
 20
26.29981395728674
 30
0.0
 40
0.18
 41
0.18
  0
VERTEX
  5
535
  8
0
  6
CONTINUOUS
 62
     7
 10
-63.13820262285028
 20
26.29578427976691
 30
0.0
 40
0.18
 41
0.18
  0
VERTEX
  5
536
  8
0
  6
CONTINUOUS
 62
     7
 10
-63.13820262285027
 20
26.29174375279889
 30
0.0
 40
0.18
 41
0.18
  0
VERTEX
  5
537
  8
0
  6
CONTINUOUS
 62
     7
 10
-63.13820262285027
 20
26.28769284809782
 30
0.0
 40
0.18
 41
0.18
  0
VERTEX
  5
538
  8
0
  6
CONTINUOUS
 62
     7
 10
-63.13820262285027
 20
26.28363203737883
 30
0.0
 40
0.18
 41
0.18
  0
VERTEX
  5
539
  8
0
  6
CONTINUOUS
 62
     7
 10
-63.13820262285027
 20
26.27956179235708
 30
0.0
 40
0.18
 41
0.18
  0
VERTEX
  5
53A
  8
0
  6
CONTINUOUS
 62
     7
 10
-63.13820262285027
 20
26.27548258474769
 30
0.0
 40
0.18
 41
0.18
  0
VERTEX
  5
53B
  8
0
  6
CONTINUOUS
 62
     7
 10
-63.13820262285027
 20
26.2713948862658
 30
0.0
 40
0.18
 41
0.18
  0
VERTEX
  5
53C
  8
0
  6
CONTINUOUS
 62
     7
 10
-63.13820262285027
 20
26.26729916862656
 30
0.0
 40
0.18
 41
0.18
  0
VERTEX
  5
53D
  8
0
  6
CONTINUOUS
 62
     7
 10
-63.13820262285027
 20
26.2631959035451
 30
0.0
 40
0.18
 41
0.18
  0
VERTEX
  5
53E
  8
0
  6
CONTINUOUS
 62
     7
 10
-63.13820262285026
 20
26.25908556273656
 30
0.0
 40
0.18
 41
0.18
  0
VERTEX
  5
53F
  8
0
  6
CONTINUOUS
 62
     7
 10
-63.13820262285026
 20
26.25496861791607
 30
0.0
 40
0.18
 41
0.18
  0
VERTEX
  5
540
  8
0
  6
CONTINUOUS
 62
     7
 10
-63.13820262285027
 20
26.25084554079879
 30
0.0
 40
0.18
 41
0.18
  0
VERTEX
  5
541
  8
0
  6
CONTINUOUS
 62
     7
 10
-63.13820262285026
 20
26.24671680309984
 30
0.0
 40
0.18
 41
0.18
  0
VERTEX
  5
542
  8
0
  6
CONTINUOUS
 62
     7
 10
-63.13820262285027
 20
26.24258287653437
 30
0.0
 40
0.18
 41
0.18
  0
VERTEX
  5
543
  8
0
  6
CONTINUOUS
 62
     7
 10
-63.13820262285026
 20
26.23844423281751
 30
0.0
 40
0.18
 41
0.18
  0
VERTEX
  5
544
  8
0
  6
CONTINUOUS
 62
     7
 10
-63.13820262285027
 20
26.23430134366441
 30
0.0
 40
0.18
 41
0.18
  0
VERTEX
  5
545
  8
0
  6
CONTINUOUS
 62
     7
 10
-63.13820262285027
 20
26.23015468079019
 30
0.0
 40
0.18
 41
0.18
  0
VERTEX
  5
546
  8
0
  6
CONTINUOUS
 62
     7
 10
-63.13820262285027
 20
26.22600471591
 30
0.0
 40
0.18
 41
0.18
  0
VERTEX
  5
547
  8
0
  6
CONTINUOUS
 62
     7
 10
-63.13820262285026
 20
26.22185192073898
 30
0.0
 40
0.18
 41
0.18
  0
VERTEX
  5
548
  8
0
  6
CONTINUOUS
 62
     7
 10
-63.13820262285026
 20
26.21769676699227
 30
0.0
 40
0.18
 41
0.18
  0
VERTEX
  5
549
  8
0
  6
CONTINUOUS
 62
     7
 10
-63.13820262285027
 20
26.21353972638501
 30
0.0
 40
0.18
 41
0.18
  0
VERTEX
  5
54A
  8
0
  6
CONTINUOUS
 62
     7
 10
-63.13820262285026
 20
26.20938127063232
 30
0.0
 40
0.18
 41
0.18
  0
VERTEX
  5
54B
  8
0
  6
CONTINUOUS
 62
     7
 10
-63.13820262285026
 20
26.20522187144936
 30
0.0
 40
0.18
 41
0.18
  0
VERTEX
  5
54C
  8
0
  6
CONTINUOUS
 62
     7
 10
-63.13820262285027
 20
26.20106200055126
 30
0.0
 40
0.18
 41
0.18
  0
SEQEND
  5
6D8
  8
0
  6
CONTINUOUS
 62
     7
  0
POLYLINE
  5
39A
  8
0
  6
CONTINUOUS
 62
     7
 66
     1
 10
0.0
 20
0.0
 30
0.0
  0
VERTEX
  5
54D
  8
0
  6
CONTINUOUS
 62
     7
 10
-63.13820267089014
 20
-39.75398691670839
 30
0.0
 40
0.18
 41
0.18
  0
VERTEX
  5
54E
  8
0
  6
CONTINUOUS
 62
     7
 10
-63.13820267089014
 20
-39.750833329905
 30
0.0
 40
0.18
 41
0.18
  0
VERTEX
  5
54F
  8
0
  6
CONTINUOUS
 62
     7
 10
-63.13820267089014
 20
-39.74764924919973
 30
0.0
 40
0.18
 41
0.18
  0
VERTEX
  5
550
  8
0
  6
CONTINUOUS
 62
     7
 10
-63.13820267089015
 20
-39.74443264300249
 30
0.0
 40
0.18
 41
0.18
  0
VERTEX
  5
551
  8
0
  6
CONTINUOUS
 62
     7
 10
-63.13820267089014
 20
-39.7411840847121
 30
0.0
 40
0.18
 41
0.18
  0
VERTEX
  5
552
  8
0
  6
CONTINUOUS
 62
     7
 10
-63.13820267089014
 20
-39.7379041477274
 30
0.0
 40
0.18
 41
0.18
  0
VERTEX
  5
553
  8
0
  6
CONTINUOUS
 62
     7
 10
-63.13820267089014
 20
-39.73459340544719
 30
0.0
 40
0.18
 41
0.18
  0
VERTEX
  5
554
  8
0
  6
CONTINUOUS
 62
     7
 10
-63.13820267089014
 20
-39.73125243127031
 30
0.0
 40
0.18
 41
0.18
  0
VERTEX
  5
555
  8
0
  6
CONTINUOUS
 62
     7
 10
-63.13820267089014
 20
-39.72788179859558
 30
0.0
 40
0.18
 41
0.18
  0
VERTEX
  5
556
  8
0
  6
CONTINUOUS
 62
     7
 10
-63.13820267089014
 20
-39.7244820808218
 30
0.0
 40
0.18
 41
0.18
  0
VERTEX
  5
557
  8
0
  6
CONTINUOUS
 62
     7
 10
-63.13820267089014
 20
-39.72105385134782
 30
0.0
 40
0.18
 41
0.18
  0
VERTEX
  5
558
  8
0
  6
CONTINUOUS
 62
     7
 10
-63.13820267089015
 20
-39.71759768357246
 30
0.0
 40
0.18
 41
0.18
  0
VERTEX
  5
559
  8
0
  6
CONTINUOUS
 62
     7
 10
-63.13820267089015
 20
-39.71411415089453
 30
0.0
 40
0.18
 41
0.18
  0
VERTEX
  5
55A
  8
0
  6
CONTINUOUS
 62
     7
 10
-63.13820267089015
 20
-39.71060382671286
 30
0.0
 40
0.18
 41
0.18
  0
VERTEX
  5
55B
  8
0
  6
CONTINUOUS
 62
     7
 10
-63.13820267089014
 20
-39.70706728442627
 30
0.0
 40
0.18
 41
0.18
  0
VERTEX
  5
55C
  8
0
  6
CONTINUOUS
 62
     7
 10
-63.13820267089014
 20
-39.70350509743358
 30
0.0
 40
0.18
 41
0.18
  0
VERTEX
  5
55D
  8
0
  6
CONTINUOUS
 62
     7
 10
-63.13820267089014
 20
-39.69991783913362
 30
0.0
 40
0.18
 41
0.18
  0
VERTEX
  5
55E
  8
0
  6
CONTINUOUS
 62
     7
 10
-63.13820267089014
 20
-39.6963060829252
 30
0.0
 40
0.18
 41
0.18
  0
VERTEX
  5
55F
  8
0
  6
CONTINUOUS
 62
     7
 10
-63.13820267089015
 20
-39.69267040220716
 30
0.0
 40
0.18
 41
0.18
  0
VERTEX
  5
560
  8
0
  6
CONTINUOUS
 62
     7
 10
-63.13820267089014
 20
-39.6890113703783
 30
0.0
 40
0.18
 41
0.18
  0
VERTEX
  5
561
  8
0
  6
CONTINUOUS
 62
     7
 10
-63.13820267089015
 20
-39.68532956083748
 30
0.0
 40
0.18
 41
0.18
  0
VERTEX
  5
562
  8
0
  6
CONTINUOUS
 62
     7
 10
-63.13820267089014
 20
-39.68162554698348
 30
0.0
 40
0.18
 41
0.18
  0
VERTEX
  5
563
  8
0
  6
CONTINUOUS
 62
     7
 10
-63.13820267089014
 20
-39.67789990221515
 30
0.0
 40
0.18
 41
0.18
  0
VERTEX
  5
564
  8
0
  6
CONTINUOUS
 62
     7
 10
-63.13820267089015
 20
-39.67415319993129
 30
0.0
 40
0.18
 41
0.18
  0
VERTEX
  5
565
  8
0
  6
CONTINUOUS
 62
     7
 10
-63.13820267089014
 20
-39.67038601353075
 30
0.0
 40
0.18
 41
0.18
  0
VERTEX
  5
566
  8
0
  6
CONTINUOUS
 62
     7
 10
-63.13820267089014
 20
-39.66659891641233
 30
0.0
 40
0.18
 41
0.18
  0
VERTEX
  5
567
  8
0
  6
CONTINUOUS
 62
     7
 10
-63.13820267089015
 20
-39.66279248197487
 30
0.0
 40
0.18
 41
0.18
  0
VERTEX
  5
568
  8
0
  6
CONTINUOUS
 62
     7
 10
-63.13820267089014
 20
-39.65896728361717
 30
0.0
 40
0.18
 41
0.18
  0
VERTEX
  5
569
  8
0
  6
CONTINUOUS
 62
     7
 10
-63.13820267089014
 20
-39.65512389473808
 30
0.0
 40
0.18
 41
0.18
  0
VERTEX
  5
56A
  8
0
  6
CONTINUOUS
 62
     7
 10
-63.13820267089015
 20
-39.6512628887364
 30
0.0
 40
0.18
 41
0.18
  0
VERTEX
  5
56B
  8
0
  6
CONTINUOUS
 62
     7
 10
-63.13820267089014
 20
-39.64738483901095
 30
0.0
 40
0.18
 41
0.18
  0
VERTEX
  5
56C
  8
0
  6
CONTINUOUS
 62
     7
 10
-63.13820267089014
 20
-39.64349031896059
 30
0.0
 40
0.18
 41
0.18
  0
VERTEX
  5
56D
  8
0
  6
CONTINUOUS
 62
     7
 10
-63.13820267089014
 20
-39.63957990198409
 30
0.0
 40
0.18
 41
0.18
  0
VERTEX
  5
56E
  8
0
  6
CONTINUOUS
 62
     7
 10
-63.13820267089014
 20
-39.63565416148032
 30
0.0
 40
0.18
 41
0.18
  0
VERTEX
  5
56F
  8
0
  6
CONTINUOUS
 62
     7
 10
-63.13820267089015
 20
-39.63171367084807
 30
0.0
 40
0.18
 41
0.18
  0
VERTEX
  5
570
  8
0
  6
CONTINUOUS
 62
     7
 10
-63.13820267089016
 20
-39.62775899629556
 30
0.0
 40
0.18
 41
0.18
  0
VERTEX
  5
571
  8
0
  6
CONTINUOUS
 62
     7
 10
-63.13820267089014
 20
-39.62379064174375
 30
0.0
 40
0.18
 41
0.18
  0
VERTEX
  5
572
  8
0
  6
CONTINUOUS
 62
     7
 10
-63.13820267089014
 20
-39.61980907916806
 30
0.0
 40
0.18
 41
0.18
  0
VERTEX
  5
573
  8
0
  6
CONTINUOUS
 62
     7
 10
-63.13820267089015
 20
-39.61581478028362
 30
0.0
 40
0.18
 41
0.18
  0
VERTEX
  5
574
  8
0
  6
CONTINUOUS
 62
     7
 10
-63.13820267089015
 20
-39.61180821680558
 30
0.0
 40
0.18
 41
0.18
  0
VERTEX
  5
575
  8
0
  6
CONTINUOUS
 62
     7
 10
-63.13820267089014
 20
-39.60778986044907
 30
0.0
 40
0.18
 41
0.18
  0
VERTEX
  5
576
  8
0
  6
CONTINUOUS
 62
     7
 10
-63.13820267089014
 20
-39.60376018292924
 30
0.0
 40
0.18
 41
0.18
  0
VERTEX
  5
577
  8
0
  6
CONTINUOUS
 62
     7
 10
-63.13820267089015
 20
-39.59971965596122
 30
0.0
 40
0.18
 41
0.18
  0
VERTEX
  5
578
  8
0
  6
CONTINUOUS
 62
     7
 10
-63.13820267089016
 20
-39.59566875126015
 30
0.0
 40
0.18
 41
0.18
  0
VERTEX
  5
579
  8
0
  6
CONTINUOUS
 62
     7
 10
-63.13820267089014
 20
-39.59160794054116
 30
0.0
 40
0.18
 41
0.18
  0
VERTEX
  5
57A
  8
0
  6
CONTINUOUS
 62
     7
 10
-63.13820267089014
 20
-39.5875376955194
 30
0.0
 40
0.18
 41
0.18
  0
VERTEX
  5
57B
  8
0
  6
CONTINUOUS
 62
     7
 10
-63.13820267089015
 20
-39.58345848791002
 30
0.0
 40
0.18
 41
0.18
  0
VERTEX
  5
57C
  8
0
  6
CONTINUOUS
 62
     7
 10
-63.13820267089014
 20
-39.57937078942813
 30
0.0
 40
0.18
 41
0.18
  0
VERTEX
  5
57D
  8
0
  6
CONTINUOUS
 62
     7
 10
-63.13820267089014
 20
-39.57527507178889
 30
0.0
 40
0.18
 41
0.18
  0
VERTEX
  5
57E
  8
0
  6
CONTINUOUS
 62
     7
 10
-63.13820267089015
 20
-39.57117180670742
 30
0.0
 40
0.18
 41
0.18
  0
VERTEX
  5
57F
  8
0
  6
CONTINUOUS
 62
     7
 10
-63.13820267089014
 20
-39.56706146589888
 30
0.0
 40
0.18
 41
0.18
  0
VERTEX
  5
580
  8
0
  6
CONTINUOUS
 62
     7
 10
-63.13820267089014
 20
-39.5629445210784
 30
0.0
 40
0.18
 41
0.18
  0
VERTEX
  5
581
  8
0
  6
CONTINUOUS
 62
     7
 10
-63.13820267089015
 20
-39.55882144396111
 30
0.0
 40
0.18
 41
0.18
  0
VERTEX
  5
582
  8
0
  6
CONTINUOUS
 62
     7
 10
-63.13820267089014
 20
-39.55469270626217
 30
0.0
 40
0.18
 41
0.18
  0
VERTEX
  5
583
  8
0
  6
CONTINUOUS
 62
     7
 10
-63.13820267089015
 20
-39.55055877969669
 30
0.0
 40
0.18
 41
0.18
  0
VERTEX
  5
584
  8
0
  6
CONTINUOUS
 62
     7
 10
-63.13820267089014
 20
-39.54642013597984
 30
0.0
 40
0.18
 41
0.18
  0
VERTEX
  5
585
  8
0
  6
CONTINUOUS
 62
     7
 10
-63.13820267089015
 20
-39.54227724682674
 30
0.0
 40
0.18
 41
0.18
  0
VERTEX
  5
586
  8
0
  6
CONTINUOUS
 62
     7
 10
-63.13820267089014
 20
-39.53813058395252
 30
0.0
 40
0.18
 41
0.18
  0
VERTEX
  5
587
  8
0
  6
CONTINUOUS
 62
     7
 10
-63.13820267089015
 20
-39.53398061907233
 30
0.0
 40
0.18
 41
0.18
  0
VERTEX
  5
588
  8
0
  6
CONTINUOUS
 62
     7
 10
-63.13820267089014
 20
-39.52982782390131
 30
0.0
 40
0.18
 41
0.18
  0
VERTEX
  5
589
  8
0
  6
CONTINUOUS
 62
     7
 10
-63.13820267089014
 20
-39.5256726701546
 30
0.0
 40
0.18
 41
0.18
  0
VERTEX
  5
58A
  8
0
  6
CONTINUOUS
 62
     7
 10
-63.13820267089015
 20
-39.52151562954734
 30
0.0
 40
0.18
 41
0.18
  0
VERTEX
  5
58B
  8
0
  6
CONTINUOUS
 62
     7
 10
-63.13820267089014
 20
-39.51735717379466
 30
0.0
 40
0.18
 41
0.18
  0
VERTEX
  5
58C
  8
0
  6
CONTINUOUS
 62
     7
 10
-63.13820267089014
 20
-39.5131977746117
 30
0.0
 40
0.18
 41
0.18
  0
VERTEX
  5
58D
  8
0
  6
CONTINUOUS
 62
     7
 10
-63.13820267089014
 20
-39.5090379037136
 30
0.0
 40
0.18
 41
0.18
  0
SEQEND
  5
6D9
  8
0
  6
CONTINUOUS
 62
     7
  0
POLYLINE
  5
39B
  8
0
  6
CONTINUOUS
 62
     7
 66
     1
 10
0.0
 20
0.0
 30
0.0
  0
VERTEX
  5
58E
  8
0
  6
CONTINUOUS
 62
     7
 10
-63.13820267089014
 20
-44.39893441570315
 30
0.0
 40
0.18
 41
0.18
  0
VERTEX
  5
58F
  8
0
  6
CONTINUOUS
 62
     7
 10
-63.13820267089014
 20
-44.39477485772611
 30
0.0
 40
0.18
 41
0.18
  0
VERTEX
  5
590
  8
0
  6
CONTINUOUS
 62
     7
 10
-63.13820267089014
 20
-44.39061576929898
 30
0.0
 40
0.18
 41
0.18
  0
VERTEX
  5
591
  8
0
  6
CONTINUOUS
 62
     7
 10
-63.13820267089016
 20
-44.38645761997169
 30
0.0
 40
0.18
 41
0.18
  0
VERTEX
  5
592
  8
0
  6
CONTINUOUS
 62
     7
 10
-63.13820267089014
 20
-44.38230087929413
 30
0.0
 40
0.18
 41
0.18
  0
VERTEX
  5
593
  8
0
  6
CONTINUOUS
 62
     7
 10
-63.13820267089014
 20
-44.37814601681626
 30
0.0
 40
0.18
 41
0.18
  0
VERTEX
  5
594
  8
0
  6
CONTINUOUS
 62
     7
 10
-63.13820267089015
 20
-44.37399350208796
 30
0.0
 40
0.18
 41
0.18
  0
VERTEX
  5
595
  8
0
  6
CONTINUOUS
 62
     7
 10
-63.13820267089014
 20
-44.36984380465917
 30
0.0
 40
0.18
 41
0.18
  0
VERTEX
  5
596
  8
0
  6
CONTINUOUS
 62
     7
 10
-63.13820267089014
 20
-44.3656973940798
 30
0.0
 40
0.18
 41
0.18
  0
VERTEX
  5
597
  8
0
  6
CONTINUOUS
 62
     7
 10
-63.13820267089014
 20
-44.36155473989977
 30
0.0
 40
0.18
 41
0.18
  0
VERTEX
  5
598
  8
0
  6
CONTINUOUS
 62
     7
 10
-63.13820267089014
 20
-44.35741631166899
 30
0.0
 40
0.18
 41
0.18
  0
VERTEX
  5
599
  8
0
  6
CONTINUOUS
 62
     7
 10
-63.13820267089015
 20
-44.35328257893738
 30
0.0
 40
0.18
 41
0.18
  0
VERTEX
  5
59A
  8
0
  6
CONTINUOUS
 62
     7
 10
-63.13820267089014
 20
-44.34915401125487
 30
0.0
 40
0.18
 41
0.18
  0
VERTEX
  5
59B
  8
0
  6
CONTINUOUS
 62
     7
 10
-63.13820267089015
 20
-44.34503107817135
 30
0.0
 40
0.18
 41
0.18
  0
VERTEX
  5
59C
  8
0
  6
CONTINUOUS
 62
     7
 10
-63.13820267089014
 20
-44.34091424923675
 30
0.0
 40
0.18
 41
0.18
  0
VERTEX
  5
59D
  8
0
  6
CONTINUOUS
 62
     7
 10
-63.13820267089014
 20
-44.33680399400099
 30
0.0
 40
0.18
 41
0.18
  0
VERTEX
  5
59E
  8
0
  6
CONTINUOUS
 62
     7
 10
-63.13820267089014
 20
-44.33270078201399
 30
0.0
 40
0.18
 41
0.18
  0
VERTEX
  5
59F
  8
0
  6
CONTINUOUS
 62
     7
 10
-63.13820267089016
 20
-44.32860508282566
 30
0.0
 40
0.18
 41
0.18
  0
VERTEX
  5
5A0
  8
0
  6
CONTINUOUS
 62
     7
 10
-63.13820267089015
 20
-44.32451736598592
 30
0.0
 40
0.18
 41
0.18
  0
VERTEX
  5
5A1
  8
0
  6
CONTINUOUS
 62
     7
 10
-63.13820267089014
 20
-44.32043810104469
 30
0.0
 40
0.18
 41
0.18
  0
VERTEX
  5
5A2
  8
0
  6
CONTINUOUS
 62
     7
 10
-63.13820267089014
 20
-44.31636775755188
 30
0.0
 40
0.18
 41
0.18
  0
VERTEX
  5
5A3
  8
0
  6
CONTINUOUS
 62
     7
 10
-63.13820267089015
 20
-44.31230680505742
 30
0.0
 40
0.18
 41
0.18
  0
VERTEX
  5
5A4
  8
0
  6
CONTINUOUS
 62
     7
 10
-63.13820267089013
 20
-44.3082557131112
 30
0.0
 40
0.18
 41
0.18
  0
VERTEX
  5
5A5
  8
0
  6
CONTINUOUS
 62
     7
 10
-63.13820267089014
 20
-44.30421495126318
 30
0.0
 40
0.18
 41
0.18
  0
VERTEX
  5
5A6
  8
0
  6
CONTINUOUS
 62
     7
 10
-63.13820267089015
 20
-44.30018498906325
 30
0.0
 40
0.18
 41
0.18
  0
VERTEX
  5
5A7
  8
0
  6
CONTINUOUS
 62
     7
 10
-63.13820267089015
 20
-44.29616629606131
 30
0.0
 40
0.18
 41
0.18
  0
VERTEX
  5
5A8
  8
0
  6
CONTINUOUS
 62
     7
 10
-63.13820267089015
 20
-44.29215934180731
 30
0.0
 40
0.18
 41
0.18
  0
VERTEX
  5
5A9
  8
0
  6
CONTINUOUS
 62
     7
 10
-63.13820267089015
 20
-44.28816459585114
 30
0.0
 40
0.18
 41
0.18
  0
VERTEX
  5
5AA
  8
0
  6
CONTINUOUS
 62
     7
 10
-63.13820267089015
 20
-44.28418252774275
 30
0.0
 40
0.18
 41
0.18
  0
VERTEX
  5
5AB
  8
0
  6
CONTINUOUS
 62
     7
 10
-63.13820267089015
 20
-44.28021360703203
 30
0.0
 40
0.18
 41
0.18
  0
VERTEX
  5
5AC
  8
0
  6
CONTINUOUS
 62
     7
 10
-63.13820267089015
 20
-44.27625830355784
 30
0.0
 40
0.18
 41
0.18
  0
VERTEX
  5
5AD
  8
0
  6
CONTINUOUS
 62
     7
 10
-63.13820267089014
 20
-44.2723171226066
 30
0.0
 40
0.18
 41
0.18
  0
VERTEX
  5
5AE
  8
0
  6
CONTINUOUS
 62
     7
 10
-63.13820267089014
 20
-44.26839063857135
 30
0.0
 40
0.18
 41
0.18
  0
VERTEX
  5
5AF
  8
0
  6
CONTINUOUS
 62
     7
 10
-63.13820267089014
 20
-44.26447943382177
 30
0.0
 40
0.18
 41
0.18
  0
VERTEX
  5
5B0
  8
0
  6
CONTINUOUS
 62
     7
 10
-63.13820267089016
 20
-44.26058409072753
 30
0.0
 40
0.18
 41
0.18
  0
VERTEX
  5
5B1
  8
0
  6
CONTINUOUS
 62
     7
 10
-63.13820267089014
 20
-44.25670519165828
 30
0.0
 40
0.18
 41
0.18
  0
VERTEX
  5
5B2
  8
0
  6
CONTINUOUS
 62
     7
 10
-63.13820267089015
 20
-44.25284331898374
 30
0.0
 40
0.18
 41
0.18
  0
VERTEX
  5
5B3
  8
0
  6
CONTINUOUS
 62
     7
 10
-63.13820267089015
 20
-44.24899905507356
 30
0.0
 40
0.18
 41
0.18
  0
VERTEX
  5
5B4
  8
0
  6
CONTINUOUS
 62
     7
 10
-63.13820267089014
 20
-44.24517298229743
 30
0.0
 40
0.18
 41
0.18
  0
VERTEX
  5
5B5
  8
0
  6
CONTINUOUS
 62
     7
 10
-63.13820267089015
 20
-44.24136568302503
 30
0.0
 40
0.18
 41
0.18
  0
VERTEX
  5
5B6
  8
0
  6
CONTINUOUS
 62
     7
 10
-63.13820267089016
 20
-44.23757773962603
 30
0.0
 40
0.18
 41
0.18
  0
VERTEX
  5
5B7
  8
0
  6
CONTINUOUS
 62
     7
 10
-63.13820267089014
 20
-44.2338097344701
 30
0.0
 40
0.18
 41
0.18
  0
VERTEX
  5
5B8
  8
0
  6
CONTINUOUS
 62
     7
 10
-63.13820267089016
 20
-44.23006224992693
 30
0.0
 40
0.18
 41
0.18
  0
VERTEX
  5
5B9
  8
0
  6
CONTINUOUS
 62
     7
 10
-63.13820267089014
 20
-44.22633586836618
 30
0.0
 40
0.18
 41
0.18
  0
VERTEX
  5
5BA
  8
0
  6
CONTINUOUS
 62
     7
 10
-63.13820267089015
 20
-44.22263117215754
 30
0.0
 40
0.18
 41
0.18
  0
VERTEX
  5
5BB
  8
0
  6
CONTINUOUS
 62
     7
 10
-63.13820267089015
 20
-44.2189487436707
 30
0.0
 40
0.18
 41
0.18
  0
VERTEX
  5
5BC
  8
0
  6
CONTINUOUS
 62
     7
 10
-63.13820267089016
 20
-44.21528916527532
 30
0.0
 40
0.18
 41
0.18
  0
VERTEX
  5
5BD
  8
0
  6
CONTINUOUS
 62
     7
 10
-63.13820267089014
 20
-44.21165301934106
 30
0.0
 40
0.18
 41
0.18
  0
VERTEX
  5
5BE
  8
0
  6
CONTINUOUS
 62
     7
 10
-63.13820267089014
 20
-44.20804088823763
 30
0.0
 40
0.18
 41
0.18
  0
VERTEX
  5
5BF
  8
0
  6
CONTINUOUS
 62
     7
 10
-63.13820267089014
 20
-44.2044533543347
 30
0.0
 40
0.18
 41
0.18
  0
VERTEX
  5
5C0
  8
0
  6
CONTINUOUS
 62
     7
 10
-63.13820267089015
 20
-44.20089100000192
 30
0.0
 40
0.18
 41
0.18
  0
VERTEX
  5
5C1
  8
0
  6
CONTINUOUS
 62
     7
 10
-63.13820267089015
 20
-44.197354407609
 30
0.0
 40
0.18
 41
0.18
  0
VERTEX
  5
5C2
  8
0
  6
CONTINUOUS
 62
     7
 10
-63.13820267089015
 20
-44.1938441595256
 30
0.0
 40
0.18
 41
0.18
  0
VERTEX
  5
5C3
  8
0
  6
CONTINUOUS
 62
     7
 10
-63.13820267089015
 20
-44.1903608381214
 30
0.0
 40
0.18
 41
0.18
  0
VERTEX
  5
5C4
  8
0
  6
CONTINUOUS
 62
     7
 10
-63.13820267089015
 20
-44.18690502576609
 30
0.0
 40
0.18
 41
0.18
  0
VERTEX
  5
5C5
  8
0
  6
CONTINUOUS
 62
     7
 10
-63.13820267089015
 20
-44.18347730482932
 30
0.0
 40
0.18
 41
0.18
  0
VERTEX
  5
5C6
  8
0
  6
CONTINUOUS
 62
     7
 10
-63.13820267089014
 20
-44.18007825768079
 30
0.0
 40
0.18
 41
0.18
  0
VERTEX
  5
5C7
  8
0
  6
CONTINUOUS
 62
     7
 10
-63.13820267089015
 20
-44.17670846669017
 30
0.0
 40
0.18
 41
0.18
  0
VERTEX
  5
5C8
  8
0
  6
CONTINUOUS
 62
     7
 10
-63.13820267089014
 20
-44.17336851422714
 30
0.0
 40
0.18
 41
0.18
  0
VERTEX
  5
5C9
  8
0
  6
CONTINUOUS
 62
     7
 10
-63.13820267089016
 20
-44.17005898266137
 30
0.0
 40
0.18
 41
0.18
  0
VERTEX
  5
5CA
  8
0
  6
CONTINUOUS
 62
     7
 10
-63.13820267089015
 20
-44.16678045436254
 30
0.0
 40
0.18
 41
0.18
  0
VERTEX
  5
5CB
  8
0
  6
CONTINUOUS
 62
     7
 10
-63.13820267089015
 20
-44.16353351170032
 30
0.0
 40
0.18
 41
0.18
  0
VERTEX
  5
5CC
  8
0
  6
CONTINUOUS
 62
     7
 10
-63.13820267089015
 20
-44.16031873704441
 30
0.0
 40
0.18
 41
0.18
  0
VERTEX
  5
5CD
  8
0
  6
CONTINUOUS
 62
     7
 10
-63.13820267089014
 20
-44.15713671276445
 30
0.0
 40
0.18
 41
0.18
  0
VERTEX
  5
5CE
  8
0
  6
CONTINUOUS
 62
     7
 10
-63.13820267089014
 20
-44.15398540270839
 30
0.0
 40
0.18
 41
0.18
  0
SEQEND
  5
6DA
  8
0
  6
CONTINUOUS
 62
     7
  0
POLYLINE
  5
39C
  8
0
  6
CONTINUOUS
 62
     7
 66
     1
 10
0.0
 20
0.0
 30
0.0
  0
VERTEX
  5
5CF
  8
0
  6
CONTINUOUS
 62
     7
 10
-103.1382026708902
 20
-39.75398691670839
 30
0.0
 40
0.18
 41
0.18
  0
VERTEX
  5
5D0
  8
0
  6
CONTINUOUS
 62
     7
 10
-103.1382026708902
 20
-39.750833329905
 30
0.0
 40
0.18
 41
0.18
  0
VERTEX
  5
5D1
  8
0
  6
CONTINUOUS
 62
     7
 10
-103.1382026708902
 20
-39.74764924919973
 30
0.0
 40
0.18
 41
0.18
  0
VERTEX
  5
5D2
  8
0
  6
CONTINUOUS
 62
     7
 10
-103.1382026708902
 20
-39.74443264300249
 30
0.0
 40
0.18
 41
0.18
  0
VERTEX
  5
5D3
  8
0
  6
CONTINUOUS
 62
     7
 10
-103.1382026708902
 20
-39.7411840847121
 30
0.0
 40
0.18
 41
0.18
  0
VERTEX
  5
5D4
  8
0
  6
CONTINUOUS
 62
     7
 10
-103.1382026708902
 20
-39.7379041477274
 30
0.0
 40
0.18
 41
0.18
  0
VERTEX
  5
5D5
  8
0
  6
CONTINUOUS
 62
     7
 10
-103.1382026708902
 20
-39.73459340544719
 30
0.0
 40
0.18
 41
0.18
  0
VERTEX
  5
5D6
  8
0
  6
CONTINUOUS
 62
     7
 10
-103.1382026708902
 20
-39.73125243127031
 30
0.0
 40
0.18
 41
0.18
  0
VERTEX
  5
5D7
  8
0
  6
CONTINUOUS
 62
     7
 10
-103.1382026708902
 20
-39.72788179859558
 30
0.0
 40
0.18
 41
0.18
  0
VERTEX
  5
5D8
  8
0
  6
CONTINUOUS
 62
     7
 10
-103.1382026708902
 20
-39.7244820808218
 30
0.0
 40
0.18
 41
0.18
  0
VERTEX
  5
5D9
  8
0
  6
CONTINUOUS
 62
     7
 10
-103.1382026708902
 20
-39.72105385134782
 30
0.0
 40
0.18
 41
0.18
  0
VERTEX
  5
5DA
  8
0
  6
CONTINUOUS
 62
     7
 10
-103.1382026708902
 20
-39.71759768357246
 30
0.0
 40
0.18
 41
0.18
  0
VERTEX
  5
5DB
  8
0
  6
CONTINUOUS
 62
     7
 10
-103.1382026708902
 20
-39.71411415089453
 30
0.0
 40
0.18
 41
0.18
  0
VERTEX
  5
5DC
  8
0
  6
CONTINUOUS
 62
     7
 10
-103.1382026708903
 20
-39.71060382671286
 30
0.0
 40
0.18
 41
0.18
  0
VERTEX
  5
5DD
  8
0
  6
CONTINUOUS
 62
     7
 10
-103.1382026708902
 20
-39.70706728442627
 30
0.0
 40
0.18
 41
0.18
  0
VERTEX
  5
5DE
  8
0
  6
CONTINUOUS
 62
     7
 10
-103.1382026708902
 20
-39.70350509743358
 30
0.0
 40
0.18
 41
0.18
  0
VERTEX
  5
5DF
  8
0
  6
CONTINUOUS
 62
     7
 10
-103.1382026708902
 20
-39.69991783913362
 30
0.0
 40
0.18
 41
0.18
  0
VERTEX
  5
5E0
  8
0
  6
CONTINUOUS
 62
     7
 10
-103.1382026708902
 20
-39.6963060829252
 30
0.0
 40
0.18
 41
0.18
  0
VERTEX
  5
5E1
  8
0
  6
CONTINUOUS
 62
     7
 10
-103.1382026708903
 20
-39.69267040220716
 30
0.0
 40
0.18
 41
0.18
  0
VERTEX
  5
5E2
  8
0
  6
CONTINUOUS
 62
     7
 10
-103.1382026708903
 20
-39.6890113703783
 30
0.0
 40
0.18
 41
0.18
  0
VERTEX
  5
5E3
  8
0
  6
CONTINUOUS
 62
     7
 10
-103.1382026708902
 20
-39.68532956083748
 30
0.0
 40
0.18
 41
0.18
  0
VERTEX
  5
5E4
  8
0
  6
CONTINUOUS
 62
     7
 10
-103.1382026708903
 20
-39.68162554698348
 30
0.0
 40
0.18
 41
0.18
  0
VERTEX
  5
5E5
  8
0
  6
CONTINUOUS
 62
     7
 10
-103.1382026708903
 20
-39.67789990221515
 30
0.0
 40
0.18
 41
0.18
  0
VERTEX
  5
5E6
  8
0
  6
CONTINUOUS
 62
     7
 10
-103.1382026708903
 20
-39.67415319993129
 30
0.0
 40
0.18
 41
0.18
  0
VERTEX
  5
5E7
  8
0
  6
CONTINUOUS
 62
     7
 10
-103.1382026708903
 20
-39.67038601353075
 30
0.0
 40
0.18
 41
0.18
  0
VERTEX
  5
5E8
  8
0
  6
CONTINUOUS
 62
     7
 10
-103.1382026708903
 20
-39.66659891641233
 30
0.0
 40
0.18
 41
0.18
  0
VERTEX
  5
5E9
  8
0
  6
CONTINUOUS
 62
     7
 10
-103.1382026708903
 20
-39.66279248197487
 30
0.0
 40
0.18
 41
0.18
  0
VERTEX
  5
5EA
  8
0
  6
CONTINUOUS
 62
     7
 10
-103.1382026708903
 20
-39.65896728361717
 30
0.0
 40
0.18
 41
0.18
  0
VERTEX
  5
5EB
  8
0
  6
CONTINUOUS
 62
     7
 10
-103.1382026708903
 20
-39.65512389473808
 30
0.0
 40
0.18
 41
0.18
  0
VERTEX
  5
5EC
  8
0
  6
CONTINUOUS
 62
     7
 10
-103.1382026708903
 20
-39.6512628887364
 30
0.0
 40
0.18
 41
0.18
  0
VERTEX
  5
5ED
  8
0
  6
CONTINUOUS
 62
     7
 10
-103.1382026708903
 20
-39.64738483901095
 30
0.0
 40
0.18
 41
0.18
  0
VERTEX
  5
5EE
  8
0
  6
CONTINUOUS
 62
     7
 10
-103.1382026708903
 20
-39.64349031896059
 30
0.0
 40
0.18
 41
0.18
  0
VERTEX
  5
5EF
  8
0
  6
CONTINUOUS
 62
     7
 10
-103.1382026708903
 20
-39.63957990198409
 30
0.0
 40
0.18
 41
0.18
  0
VERTEX
  5
5F0
  8
0
  6
CONTINUOUS
 62
     7
 10
-103.1382026708903
 20
-39.63565416148032
 30
0.0
 40
0.18
 41
0.18
  0
VERTEX
  5
5F1
  8
0
  6
CONTINUOUS
 62
     7
 10
-103.1382026708903
 20
-39.63171367084807
 30
0.0
 40
0.18
 41
0.18
  0
VERTEX
  5
5F2
  8
0
  6
CONTINUOUS
 62
     7
 10
-103.1382026708903
 20
-39.62775899629556
 30
0.0
 40
0.18
 41
0.18
  0
VERTEX
  5
5F3
  8
0
  6
CONTINUOUS
 62
     7
 10
-103.1382026708903
 20
-39.62379064174375
 30
0.0
 40
0.18
 41
0.18
  0
VERTEX
  5
5F4
  8
0
  6
CONTINUOUS
 62
     7
 10
-103.1382026708903
 20
-39.61980907916806
 30
0.0
 40
0.18
 41
0.18
  0
VERTEX
  5
5F5
  8
0
  6
CONTINUOUS
 62
     7
 10
-103.1382026708903
 20
-39.61581478028362
 30
0.0
 40
0.18
 41
0.18
  0
VERTEX
  5
5F6
  8
0
  6
CONTINUOUS
 62
     7
 10
-103.1382026708903
 20
-39.61180821680558
 30
0.0
 40
0.18
 41
0.18
  0
VERTEX
  5
5F7
  8
0
  6
CONTINUOUS
 62
     7
 10
-103.1382026708903
 20
-39.60778986044907
 30
0.0
 40
0.18
 41
0.18
  0
VERTEX
  5
5F8
  8
0
  6
CONTINUOUS
 62
     7
 10
-103.1382026708903
 20
-39.60376018292924
 30
0.0
 40
0.18
 41
0.18
  0
VERTEX
  5
5F9
  8
0
  6
CONTINUOUS
 62
     7
 10
-103.1382026708903
 20
-39.59971965596122
 30
0.0
 40
0.18
 41
0.18
  0
VERTEX
  5
5FA
  8
0
  6
CONTINUOUS
 62
     7
 10
-103.1382026708903
 20
-39.59566875126015
 30
0.0
 40
0.18
 41
0.18
  0
VERTEX
  5
5FB
  8
0
  6
CONTINUOUS
 62
     7
 10
-103.1382026708903
 20
-39.59160794054116
 30
0.0
 40
0.18
 41
0.18
  0
VERTEX
  5
5FC
  8
0
  6
CONTINUOUS
 62
     7
 10
-103.1382026708903
 20
-39.5875376955194
 30
0.0
 40
0.18
 41
0.18
  0
VERTEX
  5
5FD
  8
0
  6
CONTINUOUS
 62
     7
 10
-103.1382026708903
 20
-39.58345848791002
 30
0.0
 40
0.18
 41
0.18
  0
VERTEX
  5
5FE
  8
0
  6
CONTINUOUS
 62
     7
 10
-103.1382026708903
 20
-39.57937078942813
 30
0.0
 40
0.18
 41
0.18
  0
VERTEX
  5
5FF
  8
0
  6
CONTINUOUS
 62
     7
 10
-103.1382026708903
 20
-39.57527507178889
 30
0.0
 40
0.18
 41
0.18
  0
VERTEX
  5
600
  8
0
  6
CONTINUOUS
 62
     7
 10
-103.1382026708903
 20
-39.57117180670742
 30
0.0
 40
0.18
 41
0.18
  0
VERTEX
  5
601
  8
0
  6
CONTINUOUS
 62
     7
 10
-103.1382026708902
 20
-39.56706146589888
 30
0.0
 40
0.18
 41
0.18
  0
VERTEX
  5
602
  8
0
  6
CONTINUOUS
 62
     7
 10
-103.1382026708902
 20
-39.5629445210784
 30
0.0
 40
0.18
 41
0.18
  0
VERTEX
  5
603
  8
0
  6
CONTINUOUS
 62
     7
 10
-103.1382026708903
 20
-39.55882144396111
 30
0.0
 40
0.18
 41
0.18
  0
VERTEX
  5
604
  8
0
  6
CONTINUOUS
 62
     7
 10
-103.1382026708903
 20
-39.55469270626217
 30
0.0
 40
0.18
 41
0.18
  0
VERTEX
  5
605
  8
0
  6
CONTINUOUS
 62
     7
 10
-103.1382026708903
 20
-39.55055877969669
 30
0.0
 40
0.18
 41
0.18
  0
VERTEX
  5
606
  8
0
  6
CONTINUOUS
 62
     7
 10
-103.1382026708903
 20
-39.54642013597984
 30
0.0
 40
0.18
 41
0.18
  0
VERTEX
  5
607
  8
0
  6
CONTINUOUS
 62
     7
 10
-103.1382026708903
 20
-39.54227724682674
 30
0.0
 40
0.18
 41
0.18
  0
VERTEX
  5
608
  8
0
  6
CONTINUOUS
 62
     7
 10
-103.1382026708903
 20
-39.53813058395252
 30
0.0
 40
0.18
 41
0.18
  0
VERTEX
  5
609
  8
0
  6
CONTINUOUS
 62
     7
 10
-103.1382026708903
 20
-39.53398061907233
 30
0.0
 40
0.18
 41
0.18
  0
VERTEX
  5
60A
  8
0
  6
CONTINUOUS
 62
     7
 10
-103.1382026708903
 20
-39.52982782390131
 30
0.0
 40
0.18
 41
0.18
  0
VERTEX
  5
60B
  8
0
  6
CONTINUOUS
 62
     7
 10
-103.1382026708903
 20
-39.5256726701546
 30
0.0
 40
0.18
 41
0.18
  0
VERTEX
  5
60C
  8
0
  6
CONTINUOUS
 62
     7
 10
-103.1382026708903
 20
-39.52151562954734
 30
0.0
 40
0.18
 41
0.18
  0
VERTEX
  5
60D
  8
0
  6
CONTINUOUS
 62
     7
 10
-103.1382026708903
 20
-39.51735717379466
 30
0.0
 40
0.18
 41
0.18
  0
VERTEX
  5
60E
  8
0
  6
CONTINUOUS
 62
     7
 10
-103.1382026708903
 20
-39.5131977746117
 30
0.0
 40
0.18
 41
0.18
  0
VERTEX
  5
60F
  8
0
  6
CONTINUOUS
 62
     7
 10
-103.1382026708903
 20
-39.5090379037136
 30
0.0
 40
0.18
 41
0.18
  0
SEQEND
  5
6DB
  8
0
  6
CONTINUOUS
 62
     7
  0
POLYLINE
  5
39D
  8
0
  6
CONTINUOUS
 62
     7
 66
     1
 10
0.0
 20
0.0
 30
0.0
  0
VERTEX
  5
610
  8
0
  6
CONTINUOUS
 62
     7
 10
-103.1382026708903
 20
-44.39893441570314
 30
0.0
 40
0.18
 41
0.18
  0
VERTEX
  5
611
  8
0
  6
CONTINUOUS
 62
     7
 10
-103.1382026708902
 20
-44.39477485772609
 30
0.0
 40
0.18
 41
0.18
  0
VERTEX
  5
612
  8
0
  6
CONTINUOUS
 62
     7
 10
-103.1382026708903
 20
-44.39061576929897
 30
0.0
 40
0.18
 41
0.18
  0
VERTEX
  5
613
  8
0
  6
CONTINUOUS
 62
     7
 10
-103.1382026708902
 20
-44.38645761997167
 30
0.0
 40
0.18
 41
0.18
  0
VERTEX
  5
614
  8
0
  6
CONTINUOUS
 62
     7
 10
-103.1382026708902
 20
-44.38230087929412
 30
0.0
 40
0.18
 41
0.18
  0
VERTEX
  5
615
  8
0
  6
CONTINUOUS
 62
     7
 10
-103.1382026708902
 20
-44.37814601681625
 30
0.0
 40
0.18
 41
0.18
  0
VERTEX
  5
616
  8
0
  6
CONTINUOUS
 62
     7
 10
-103.1382026708902
 20
-44.37399350208796
 30
0.0
 40
0.18
 41
0.18
  0
VERTEX
  5
617
  8
0
  6
CONTINUOUS
 62
     7
 10
-103.1382026708902
 20
-44.36984380465915
 30
0.0
 40
0.18
 41
0.18
  0
VERTEX
  5
618
  8
0
  6
CONTINUOUS
 62
     7
 10
-103.1382026708902
 20
-44.3656973940798
 30
0.0
 40
0.18
 41
0.18
  0
VERTEX
  5
619
  8
0
  6
CONTINUOUS
 62
     7
 10
-103.1382026708902
 20
-44.36155473989976
 30
0.0
 40
0.18
 41
0.18
  0
VERTEX
  5
61A
  8
0
  6
CONTINUOUS
 62
     7
 10
-103.1382026708902
 20
-44.35741631166898
 30
0.0
 40
0.18
 41
0.18
  0
VERTEX
  5
61B
  8
0
  6
CONTINUOUS
 62
     7
 10
-103.1382026708902
 20
-44.35328257893737
 30
0.0
 40
0.18
 41
0.18
  0
VERTEX
  5
61C
  8
0
  6
CONTINUOUS
 62
     7
 10
-103.1382026708902
 20
-44.34915401125485
 30
0.0
 40
0.18
 41
0.18
  0
VERTEX
  5
61D
  8
0
  6
CONTINUOUS
 62
     7
 10
-103.1382026708902
 20
-44.34503107817135
 30
0.0
 40
0.18
 41
0.18
  0
VERTEX
  5
61E
  8
0
  6
CONTINUOUS
 62
     7
 10
-103.1382026708902
 20
-44.34091424923675
 30
0.0
 40
0.18
 41
0.18
  0
VERTEX
  5
61F
  8
0
  6
CONTINUOUS
 62
     7
 10
-103.1382026708902
 20
-44.33680399400098
 30
0.0
 40
0.18
 41
0.18
  0
VERTEX
  5
620
  8
0
  6
CONTINUOUS
 62
     7
 10
-103.1382026708902
 20
-44.33270078201399
 30
0.0
 40
0.18
 41
0.18
  0
VERTEX
  5
621
  8
0
  6
CONTINUOUS
 62
     7
 10
-103.1382026708902
 20
-44.32860508282565
 30
0.0
 40
0.18
 41
0.18
  0
VERTEX
  5
622
  8
0
  6
CONTINUOUS
 62
     7
 10
-103.1382026708902
 20
-44.32451736598591
 30
0.0
 40
0.18
 41
0.18
  0
VERTEX
  5
623
  8
0
  6
CONTINUOUS
 62
     7
 10
-103.1382026708902
 20
-44.32043810104468
 30
0.0
 40
0.18
 41
0.18
  0
VERTEX
  5
624
  8
0
  6
CONTINUOUS
 62
     7
 10
-103.1382026708902
 20
-44.31636775755187
 30
0.0
 40
0.18
 41
0.18
  0
VERTEX
  5
625
  8
0
  6
CONTINUOUS
 62
     7
 10
-103.1382026708902
 20
-44.31230680505741
 30
0.0
 40
0.18
 41
0.18
  0
VERTEX
  5
626
  8
0
  6
CONTINUOUS
 62
     7
 10
-103.1382026708902
 20
-44.3082557131112
 30
0.0
 40
0.18
 41
0.18
  0
VERTEX
  5
627
  8
0
  6
CONTINUOUS
 62
     7
 10
-103.1382026708902
 20
-44.30421495126317
 30
0.0
 40
0.18
 41
0.18
  0
VERTEX
  5
628
  8
0
  6
CONTINUOUS
 62
     7
 10
-103.1382026708902
 20
-44.30018498906324
 30
0.0
 40
0.18
 41
0.18
  0
VERTEX
  5
629
  8
0
  6
CONTINUOUS
 62
     7
 10
-103.1382026708902
 20
-44.29616629606131
 30
0.0
 40
0.18
 41
0.18
  0
VERTEX
  5
62A
  8
0
  6
CONTINUOUS
 62
     7
 10
-103.1382026708902
 20
-44.29215934180728
 30
0.0
 40
0.18
 41
0.18
  0
VERTEX
  5
62B
  8
0
  6
CONTINUOUS
 62
     7
 10
-103.1382026708902
 20
-44.28816459585114
 30
0.0
 40
0.18
 41
0.18
  0
VERTEX
  5
62C
  8
0
  6
CONTINUOUS
 62
     7
 10
-103.1382026708902
 20
-44.28418252774273
 30
0.0
 40
0.18
 41
0.18
  0
VERTEX
  5
62D
  8
0
  6
CONTINUOUS
 62
     7
 10
-103.1382026708902
 20
-44.28021360703202
 30
0.0
 40
0.18
 41
0.18
  0
VERTEX
  5
62E
  8
0
  6
CONTINUOUS
 62
     7
 10
-103.1382026708902
 20
-44.27625830355784
 30
0.0
 40
0.18
 41
0.18
  0
VERTEX
  5
62F
  8
0
  6
CONTINUOUS
 62
     7
 10
-103.1382026708902
 20
-44.27231712260659
 30
0.0
 40
0.18
 41
0.18
  0
VERTEX
  5
630
  8
0
  6
CONTINUOUS
 62
     7
 10
-103.1382026708902
 20
-44.26839063857134
 30
0.0
 40
0.18
 41
0.18
  0
VERTEX
  5
631
  8
0
  6
CONTINUOUS
 62
     7
 10
-103.1382026708902
 20
-44.26447943382176
 30
0.0
 40
0.18
 41
0.18
  0
VERTEX
  5
632
  8
0
  6
CONTINUOUS
 62
     7
 10
-103.1382026708902
 20
-44.26058409072752
 30
0.0
 40
0.18
 41
0.18
  0
VERTEX
  5
633
  8
0
  6
CONTINUOUS
 62
     7
 10
-103.1382026708902
 20
-44.25670519165827
 30
0.0
 40
0.18
 41
0.18
  0
VERTEX
  5
634
  8
0
  6
CONTINUOUS
 62
     7
 10
-103.1382026708902
 20
-44.25284331898373
 30
0.0
 40
0.18
 41
0.18
  0
VERTEX
  5
635
  8
0
  6
CONTINUOUS
 62
     7
 10
-103.1382026708902
 20
-44.24899905507355
 30
0.0
 40
0.18
 41
0.18
  0
VERTEX
  5
636
  8
0
  6
CONTINUOUS
 62
     7
 10
-103.1382026708902
 20
-44.24517298229743
 30
0.0
 40
0.18
 41
0.18
  0
VERTEX
  5
637
  8
0
  6
CONTINUOUS
 62
     7
 10
-103.1382026708902
 20
-44.24136568302502
 30
0.0
 40
0.18
 41
0.18
  0
VERTEX
  5
638
  8
0
  6
CONTINUOUS
 62
     7
 10
-103.1382026708902
 20
-44.23757773962601
 30
0.0
 40
0.18
 41
0.18
  0
VERTEX
  5
639
  8
0
  6
CONTINUOUS
 62
     7
 10
-103.1382026708902
 20
-44.23380973447009
 30
0.0
 40
0.18
 41
0.18
  0
VERTEX
  5
63A
  8
0
  6
CONTINUOUS
 62
     7
 10
-103.1382026708902
 20
-44.23006224992692
 30
0.0
 40
0.18
 41
0.18
  0
VERTEX
  5
63B
  8
0
  6
CONTINUOUS
 62
     7
 10
-103.1382026708902
 20
-44.22633586836616
 30
0.0
 40
0.18
 41
0.18
  0
VERTEX
  5
63C
  8
0
  6
CONTINUOUS
 62
     7
 10
-103.1382026708902
 20
-44.22263117215753
 30
0.0
 40
0.18
 41
0.18
  0
VERTEX
  5
63D
  8
0
  6
CONTINUOUS
 62
     7
 10
-103.1382026708902
 20
-44.21894874367069
 30
0.0
 40
0.18
 41
0.18
  0
VERTEX
  5
63E
  8
0
  6
CONTINUOUS
 62
     7
 10
-103.1382026708902
 20
-44.2152891652753
 30
0.0
 40
0.18
 41
0.18
  0
VERTEX
  5
63F
  8
0
  6
CONTINUOUS
 62
     7
 10
-103.1382026708902
 20
-44.21165301934104
 30
0.0
 40
0.18
 41
0.18
  0
VERTEX
  5
640
  8
0
  6
CONTINUOUS
 62
     7
 10
-103.1382026708902
 20
-44.20804088823762
 30
0.0
 40
0.18
 41
0.18
  0
VERTEX
  5
641
  8
0
  6
CONTINUOUS
 62
     7
 10
-103.1382026708902
 20
-44.20445335433468
 30
0.0
 40
0.18
 41
0.18
  0
VERTEX
  5
642
  8
0
  6
CONTINUOUS
 62
     7
 10
-103.1382026708902
 20
-44.20089100000191
 30
0.0
 40
0.18
 41
0.18
  0
VERTEX
  5
643
  8
0
  6
CONTINUOUS
 62
     7
 10
-103.1382026708902
 20
-44.19735440760899
 30
0.0
 40
0.18
 41
0.18
  0
VERTEX
  5
644
  8
0
  6
CONTINUOUS
 62
     7
 10
-103.1382026708902
 20
-44.19384415952559
 30
0.0
 40
0.18
 41
0.18
  0
VERTEX
  5
645
  8
0
  6
CONTINUOUS
 62
     7
 10
-103.1382026708902
 20
-44.19036083812139
 30
0.0
 40
0.18
 41
0.18
  0
VERTEX
  5
646
  8
0
  6
CONTINUOUS
 62
     7
 10
-103.1382026708902
 20
-44.18690502576608
 30
0.0
 40
0.18
 41
0.18
  0
VERTEX
  5
647
  8
0
  6
CONTINUOUS
 62
     7
 10
-103.1382026708902
 20
-44.18347730482931
 30
0.0
 40
0.18
 41
0.18
  0
VERTEX
  5
648
  8
0
  6
CONTINUOUS
 62
     7
 10
-103.1382026708902
 20
-44.18007825768078
 30
0.0
 40
0.18
 41
0.18
  0
VERTEX
  5
649
  8
0
  6
CONTINUOUS
 62
     7
 10
-103.1382026708902
 20
-44.17670846669017
 30
0.0
 40
0.18
 41
0.18
  0
VERTEX
  5
64A
  8
0
  6
CONTINUOUS
 62
     7
 10
-103.1382026708902
 20
-44.17336851422713
 30
0.0
 40
0.18
 41
0.18
  0
VERTEX
  5
64B
  8
0
  6
CONTINUOUS
 62
     7
 10
-103.1382026708902
 20
-44.17005898266137
 30
0.0
 40
0.18
 41
0.18
  0
VERTEX
  5
64C
  8
0
  6
CONTINUOUS
 62
     7
 10
-103.1382026708902
 20
-44.16678045436253
 30
0.0
 40
0.18
 41
0.18
  0
VERTEX
  5
64D
  8
0
  6
CONTINUOUS
 62
     7
 10
-103.1382026708902
 20
-44.16353351170032
 30
0.0
 40
0.18
 41
0.18
  0
VERTEX
  5
64E
  8
0
  6
CONTINUOUS
 62
     7
 10
-103.1382026708902
 20
-44.16031873704441
 30
0.0
 40
0.18
 41
0.18
  0
VERTEX
  5
64F
  8
0
  6
CONTINUOUS
 62
     7
 10
-103.1382026708902
 20
-44.15713671276445
 30
0.0
 40
0.18
 41
0.18
  0
VERTEX
  5
650
  8
0
  6
CONTINUOUS
 62
     7
 10
-103.1382026708902
 20
-44.15398540270839
 30
0.0
 40
0.18
 41
0.18
  0
SEQEND
  5
6DC
  8
0
  6
CONTINUOUS
 62
     7
  0
POLYLINE
  5
39E
  8
0
  6
CONTINUOUS
 62
     7
 66
     1
 10
0.0
 20
0.0
 30
0.0
  0
VERTEX
  5
651
  8
0
  6
CONTINUOUS
 62
     7
 10
-103.1382026228504
 20
26.44601101354606
 30
0.0
 40
0.18
 41
0.18
  0
VERTEX
  5
652
  8
0
  6
CONTINUOUS
 62
     7
 10
-103.1382026228504
 20
26.4428574267427
 30
0.0
 40
0.18
 41
0.18
  0
VERTEX
  5
653
  8
0
  6
CONTINUOUS
 62
     7
 10
-103.1382026228504
 20
26.43967334603742
 30
0.0
 40
0.18
 41
0.18
  0
VERTEX
  5
654
  8
0
  6
CONTINUOUS
 62
     7
 10
-103.1382026228504
 20
26.43645673984017
 30
0.0
 40
0.18
 41
0.18
  0
VERTEX
  5
655
  8
0
  6
CONTINUOUS
 62
     7
 10
-103.1382026228504
 20
26.43320818154979
 30
0.0
 40
0.18
 41
0.18
  0
VERTEX
  5
656
  8
0
  6
CONTINUOUS
 62
     7
 10
-103.1382026228504
 20
26.42992824456507
 30
0.0
 40
0.18
 41
0.18
  0
VERTEX
  5
657
  8
0
  6
CONTINUOUS
 62
     7
 10
-103.1382026228504
 20
26.42661750228486
 30
0.0
 40
0.18
 41
0.18
  0
VERTEX
  5
658
  8
0
  6
CONTINUOUS
 62
     7
 10
-103.1382026228504
 20
26.42327652810797
 30
0.0
 40
0.18
 41
0.18
  0
VERTEX
  5
659
  8
0
  6
CONTINUOUS
 62
     7
 10
-103.1382026228504
 20
26.41990589543324
 30
0.0
 40
0.18
 41
0.18
  0
VERTEX
  5
65A
  8
0
  6
CONTINUOUS
 62
     7
 10
-103.1382026228504
 20
26.41650617765946
 30
0.0
 40
0.18
 41
0.18
  0
VERTEX
  5
65B
  8
0
  6
CONTINUOUS
 62
     7
 10
-103.1382026228503
 20
26.41307794818548
 30
0.0
 40
0.18
 41
0.18
  0
VERTEX
  5
65C
  8
0
  6
CONTINUOUS
 62
     7
 10
-103.1382026228504
 20
26.40962178041012
 30
0.0
 40
0.18
 41
0.18
  0
VERTEX
  5
65D
  8
0
  6
CONTINUOUS
 62
     7
 10
-103.1382026228504
 20
26.40613824773218
 30
0.0
 40
0.18
 41
0.18
  0
VERTEX
  5
65E
  8
0
  6
CONTINUOUS
 62
     7
 10
-103.1382026228504
 20
26.40262792355051
 30
0.0
 40
0.18
 41
0.18
  0
VERTEX
  5
65F
  8
0
  6
CONTINUOUS
 62
     7
 10
-103.1382026228504
 20
26.39909138126391
 30
0.0
 40
0.18
 41
0.18
  0
VERTEX
  5
660
  8
0
  6
CONTINUOUS
 62
     7
 10
-103.1382026228504
 20
26.39552919427123
 30
0.0
 40
0.18
 41
0.18
  0
VERTEX
  5
661
  8
0
  6
CONTINUOUS
 62
     7
 10
-103.1382026228504
 20
26.39194193597126
 30
0.0
 40
0.18
 41
0.18
  0
VERTEX
  5
662
  8
0
  6
CONTINUOUS
 62
     7
 10
-103.1382026228504
 20
26.38833017976285
 30
0.0
 40
0.18
 41
0.18
  0
VERTEX
  5
663
  8
0
  6
CONTINUOUS
 62
     7
 10
-103.1382026228504
 20
26.38469449904481
 30
0.0
 40
0.18
 41
0.18
  0
VERTEX
  5
664
  8
0
  6
CONTINUOUS
 62
     7
 10
-103.1382026228504
 20
26.38103546721595
 30
0.0
 40
0.18
 41
0.18
  0
VERTEX
  5
665
  8
0
  6
CONTINUOUS
 62
     7
 10
-103.1382026228504
 20
26.37735365767512
 30
0.0
 40
0.18
 41
0.18
  0
VERTEX
  5
666
  8
0
  6
CONTINUOUS
 62
     7
 10
-103.1382026228504
 20
26.37364964382112
 30
0.0
 40
0.18
 41
0.18
  0
VERTEX
  5
667
  8
0
  6
CONTINUOUS
 62
     7
 10
-103.1382026228504
 20
26.36992399905279
 30
0.0
 40
0.18
 41
0.18
  0
VERTEX
  5
668
  8
0
  6
CONTINUOUS
 62
     7
 10
-103.1382026228504
 20
26.36617729676894
 30
0.0
 40
0.18
 41
0.18
  0
VERTEX
  5
669
  8
0
  6
CONTINUOUS
 62
     7
 10
-103.1382026228504
 20
26.3624101103684
 30
0.0
 40
0.18
 41
0.18
  0
VERTEX
  5
66A
  8
0
  6
CONTINUOUS
 62
     7
 10
-103.1382026228504
 20
26.35862301324998
 30
0.0
 40
0.18
 41
0.18
  0
VERTEX
  5
66B
  8
0
  6
CONTINUOUS
 62
     7
 10
-103.1382026228504
 20
26.35481657881251
 30
0.0
 40
0.18
 41
0.18
  0
VERTEX
  5
66C
  8
0
  6
CONTINUOUS
 62
     7
 10
-103.1382026228504
 20
26.35099138045482
 30
0.0
 40
0.18
 41
0.18
  0
VERTEX
  5
66D
  8
0
  6
CONTINUOUS
 62
     7
 10
-103.1382026228504
 20
26.34714799157573
 30
0.0
 40
0.18
 41
0.18
  0
VERTEX
  5
66E
  8
0
  6
CONTINUOUS
 62
     7
 10
-103.1382026228504
 20
26.34328698557405
 30
0.0
 40
0.18
 41
0.18
  0
VERTEX
  5
66F
  8
0
  6
CONTINUOUS
 62
     7
 10
-103.1382026228504
 20
26.33940893584862
 30
0.0
 40
0.18
 41
0.18
  0
VERTEX
  5
670
  8
0
  6
CONTINUOUS
 62
     7
 10
-103.1382026228504
 20
26.33551441579824
 30
0.0
 40
0.18
 41
0.18
  0
VERTEX
  5
671
  8
0
  6
CONTINUOUS
 62
     7
 10
-103.1382026228504
 20
26.33160399882176
 30
0.0
 40
0.18
 41
0.18
  0
VERTEX
  5
672
  8
0
  6
CONTINUOUS
 62
     7
 10
-103.1382026228504
 20
26.32767825831798
 30
0.0
 40
0.18
 41
0.18
  0
VERTEX
  5
673
  8
0
  6
CONTINUOUS
 62
     7
 10
-103.1382026228504
 20
26.32373776768574
 30
0.0
 40
0.18
 41
0.18
  0
VERTEX
  5
674
  8
0
  6
CONTINUOUS
 62
     7
 10
-103.1382026228504
 20
26.31978309313322
 30
0.0
 40
0.18
 41
0.18
  0
VERTEX
  5
675
  8
0
  6
CONTINUOUS
 62
     7
 10
-103.1382026228504
 20
26.31581473858142
 30
0.0
 40
0.18
 41
0.18
  0
VERTEX
  5
676
  8
0
  6
CONTINUOUS
 62
     7
 10
-103.1382026228504
 20
26.31183317600573
 30
0.0
 40
0.18
 41
0.18
  0
VERTEX
  5
677
  8
0
  6
CONTINUOUS
 62
     7
 10
-103.1382026228504
 20
26.30783887712129
 30
0.0
 40
0.18
 41
0.18
  0
VERTEX
  5
678
  8
0
  6
CONTINUOUS
 62
     7
 10
-103.1382026228504
 20
26.30383231364325
 30
0.0
 40
0.18
 41
0.18
  0
VERTEX
  5
679
  8
0
  6
CONTINUOUS
 62
     7
 10
-103.1382026228504
 20
26.29981395728674
 30
0.0
 40
0.18
 41
0.18
  0
VERTEX
  5
67A
  8
0
  6
CONTINUOUS
 62
     7
 10
-103.1382026228504
 20
26.29578427976691
 30
0.0
 40
0.18
 41
0.18
  0
VERTEX
  5
67B
  8
0
  6
CONTINUOUS
 62
     7
 10
-103.1382026228504
 20
26.29174375279889
 30
0.0
 40
0.18
 41
0.18
  0
VERTEX
  5
67C
  8
0
  6
CONTINUOUS
 62
     7
 10
-103.1382026228504
 20
26.28769284809782
 30
0.0
 40
0.18
 41
0.18
  0
VERTEX
  5
67D
  8
0
  6
CONTINUOUS
 62
     7
 10
-103.1382026228504
 20
26.28363203737883
 30
0.0
 40
0.18
 41
0.18
  0
VERTEX
  5
67E
  8
0
  6
CONTINUOUS
 62
     7
 10
-103.1382026228504
 20
26.27956179235708
 30
0.0
 40
0.18
 41
0.18
  0
VERTEX
  5
67F
  8
0
  6
CONTINUOUS
 62
     7
 10
-103.1382026228504
 20
26.27548258474769
 30
0.0
 40
0.18
 41
0.18
  0
VERTEX
  5
680
  8
0
  6
CONTINUOUS
 62
     7
 10
-103.1382026228504
 20
26.2713948862658
 30
0.0
 40
0.18
 41
0.18
  0
VERTEX
  5
681
  8
0
  6
CONTINUOUS
 62
     7
 10
-103.1382026228504
 20
26.26729916862656
 30
0.0
 40
0.18
 41
0.18
  0
VERTEX
  5
682
  8
0
  6
CONTINUOUS
 62
     7
 10
-103.1382026228504
 20
26.2631959035451
 30
0.0
 40
0.18
 41
0.18
  0
VERTEX
  5
683
  8
0
  6
CONTINUOUS
 62
     7
 10
-103.1382026228504
 20
26.25908556273656
 30
0.0
 40
0.18
 41
0.18
  0
VERTEX
  5
684
  8
0
  6
CONTINUOUS
 62
     7
 10
-103.1382026228503
 20
26.25496861791607
 30
0.0
 40
0.18
 41
0.18
  0
VERTEX
  5
685
  8
0
  6
CONTINUOUS
 62
     7
 10
-103.1382026228504
 20
26.25084554079879
 30
0.0
 40
0.18
 41
0.18
  0
VERTEX
  5
686
  8
0
  6
CONTINUOUS
 62
     7
 10
-103.1382026228504
 20
26.24671680309984
 30
0.0
 40
0.18
 41
0.18
  0
VERTEX
  5
687
  8
0
  6
CONTINUOUS
 62
     7
 10
-103.1382026228504
 20
26.24258287653437
 30
0.0
 40
0.18
 41
0.18
  0
VERTEX
  5
688
  8
0
  6
CONTINUOUS
 62
     7
 10
-103.1382026228504
 20
26.23844423281751
 30
0.0
 40
0.18
 41
0.18
  0
VERTEX
  5
689
  8
0
  6
CONTINUOUS
 62
     7
 10
-103.1382026228504
 20
26.23430134366441
 30
0.0
 40
0.18
 41
0.18
  0
VERTEX
  5
68A
  8
0
  6
CONTINUOUS
 62
     7
 10
-103.1382026228504
 20
26.23015468079019
 30
0.0
 40
0.18
 41
0.18
  0
VERTEX
  5
68B
  8
0
  6
CONTINUOUS
 62
     7
 10
-103.1382026228504
 20
26.22600471591
 30
0.0
 40
0.18
 41
0.18
  0
VERTEX
  5
68C
  8
0
  6
CONTINUOUS
 62
     7
 10
-103.1382026228504
 20
26.22185192073898
 30
0.0
 40
0.18
 41
0.18
  0
VERTEX
  5
68D
  8
0
  6
CONTINUOUS
 62
     7
 10
-103.1382026228504
 20
26.21769676699227
 30
0.0
 40
0.18
 41
0.18
  0
VERTEX
  5
68E
  8
0
  6
CONTINUOUS
 62
     7
 10
-103.1382026228504
 20
26.21353972638501
 30
0.0
 40
0.18
 41
0.18
  0
VERTEX
  5
68F
  8
0
  6
CONTINUOUS
 62
     7
 10
-103.1382026228504
 20
26.20938127063232
 30
0.0
 40
0.18
 41
0.18
  0
VERTEX
  5
690
  8
0
  6
CONTINUOUS
 62
     7
 10
-103.1382026228504
 20
26.20522187144936
 30
0.0
 40
0.18
 41
0.18
  0
VERTEX
  5
691
  8
0
  6
CONTINUOUS
 62
     7
 10
-103.1382026228504
 20
26.20106200055126
 30
0.0
 40
0.18
 41
0.18
  0
SEQEND
  5
6DD
  8
0
  6
CONTINUOUS
 62
     7
  0
POLYLINE
  5
39F
  8
0
  6
CONTINUOUS
 62
     7
 66
     1
 10
0.0
 20
0.0
 30
0.0
  0
VERTEX
  5
692
  8
0
  6
CONTINUOUS
 62
     7
 10
-103.1382026228504
 20
31.09095851254076
 30
0.0
 40
0.18
 41
0.18
  0
VERTEX
  5
693
  8
0
  6
CONTINUOUS
 62
     7
 10
-103.1382026228504
 20
31.08679895456371
 30
0.0
 40
0.18
 41
0.18
  0
VERTEX
  5
694
  8
0
  6
CONTINUOUS
 62
     7
 10
-103.1382026228504
 20
31.08263986613658
 30
0.0
 40
0.18
 41
0.18
  0
VERTEX
  5
695
  8
0
  6
CONTINUOUS
 62
     7
 10
-103.1382026228504
 20
31.07848171680928
 30
0.0
 40
0.18
 41
0.18
  0
VERTEX
  5
696
  8
0
  6
CONTINUOUS
 62
     7
 10
-103.1382026228504
 20
31.07432497613174
 30
0.0
 40
0.18
 41
0.18
  0
VERTEX
  5
697
  8
0
  6
CONTINUOUS
 62
     7
 10
-103.1382026228504
 20
31.07017011365387
 30
0.0
 40
0.18
 41
0.18
  0
VERTEX
  5
698
  8
0
  6
CONTINUOUS
 62
     7
 10
-103.1382026228504
 20
31.06601759892557
 30
0.0
 40
0.18
 41
0.18
  0
VERTEX
  5
699
  8
0
  6
CONTINUOUS
 62
     7
 10
-103.1382026228504
 20
31.06186790149678
 30
0.0
 40
0.18
 41
0.18
  0
VERTEX
  5
69A
  8
0
  6
CONTINUOUS
 62
     7
 10
-103.1382026228504
 20
31.05772149091741
 30
0.0
 40
0.18
 41
0.18
  0
VERTEX
  5
69B
  8
0
  6
CONTINUOUS
 62
     7
 10
-103.1382026228504
 20
31.05357883673738
 30
0.0
 40
0.18
 41
0.18
  0
VERTEX
  5
69C
  8
0
  6
CONTINUOUS
 62
     7
 10
-103.1382026228504
 20
31.0494404085066
 30
0.0
 40
0.18
 41
0.18
  0
VERTEX
  5
69D
  8
0
  6
CONTINUOUS
 62
     7
 10
-103.1382026228504
 20
31.04530667577499
 30
0.0
 40
0.18
 41
0.18
  0
VERTEX
  5
69E
  8
0
  6
CONTINUOUS
 62
     7
 10
-103.1382026228504
 20
31.04117810809247
 30
0.0
 40
0.18
 41
0.18
  0
VERTEX
  5
69F
  8
0
  6
CONTINUOUS
 62
     7
 10
-103.1382026228504
 20
31.03705517500895
 30
0.0
 40
0.18
 41
0.18
  0
VERTEX
  5
6A0
  8
0
  6
CONTINUOUS
 62
     7
 10
-103.1382026228504
 20
31.03293834607436
 30
0.0
 40
0.18
 41
0.18
  0
VERTEX
  5
6A1
  8
0
  6
CONTINUOUS
 62
     7
 10
-103.1382026228504
 20
31.0288280908386
 30
0.0
 40
0.18
 41
0.18
  0
VERTEX
  5
6A2
  8
0
  6
CONTINUOUS
 62
     7
 10
-103.1382026228504
 20
31.0247248788516
 30
0.0
 40
0.18
 41
0.18
  0
VERTEX
  5
6A3
  8
0
  6
CONTINUOUS
 62
     7
 10
-103.1382026228504
 20
31.02062917966327
 30
0.0
 40
0.18
 41
0.18
  0
VERTEX
  5
6A4
  8
0
  6
CONTINUOUS
 62
     7
 10
-103.1382026228504
 20
31.01654146282354
 30
0.0
 40
0.18
 41
0.18
  0
VERTEX
  5
6A5
  8
0
  6
CONTINUOUS
 62
     7
 10
-103.1382026228504
 20
31.01246219788231
 30
0.0
 40
0.18
 41
0.18
  0
VERTEX
  5
6A6
  8
0
  6
CONTINUOUS
 62
     7
 10
-103.1382026228504
 20
31.0083918543895
 30
0.0
 40
0.18
 41
0.18
  0
VERTEX
  5
6A7
  8
0
  6
CONTINUOUS
 62
     7
 10
-103.1382026228504
 20
31.00433090189504
 30
0.0
 40
0.18
 41
0.18
  0
VERTEX
  5
6A8
  8
0
  6
CONTINUOUS
 62
     7
 10
-103.1382026228504
 20
31.00027980994883
 30
0.0
 40
0.18
 41
0.18
  0
VERTEX
  5
6A9
  8
0
  6
CONTINUOUS
 62
     7
 10
-103.1382026228504
 20
30.99623904810079
 30
0.0
 40
0.18
 41
0.18
  0
VERTEX
  5
6AA
  8
0
  6
CONTINUOUS
 62
     7
 10
-103.1382026228504
 20
30.99220908590086
 30
0.0
 40
0.18
 41
0.18
  0
VERTEX
  5
6AB
  8
0
  6
CONTINUOUS
 62
     7
 10
-103.1382026228504
 20
30.98819039289894
 30
0.0
 40
0.18
 41
0.18
  0
VERTEX
  5
6AC
  8
0
  6
CONTINUOUS
 62
     7
 10
-103.1382026228504
 20
30.98418343864493
 30
0.0
 40
0.18
 41
0.18
  0
VERTEX
  5
6AD
  8
0
  6
CONTINUOUS
 62
     7
 10
-103.1382026228504
 20
30.98018869268877
 30
0.0
 40
0.18
 41
0.18
  0
VERTEX
  5
6AE
  8
0
  6
CONTINUOUS
 62
     7
 10
-103.1382026228504
 20
30.97620662458037
 30
0.0
 40
0.18
 41
0.18
  0
VERTEX
  5
6AF
  8
0
  6
CONTINUOUS
 62
     7
 10
-103.1382026228504
 20
30.97223770386966
 30
0.0
 40
0.18
 41
0.18
  0
VERTEX
  5
6B0
  8
0
  6
CONTINUOUS
 62
     7
 10
-103.1382026228504
 20
30.96828240039547
 30
0.0
 40
0.18
 41
0.18
  0
VERTEX
  5
6B1
  8
0
  6
CONTINUOUS
 62
     7
 10
-103.1382026228504
 20
30.96434121944423
 30
0.0
 40
0.18
 41
0.18
  0
VERTEX
  5
6B2
  8
0
  6
CONTINUOUS
 62
     7
 10
-103.1382026228504
 20
30.96041473540899
 30
0.0
 40
0.18
 41
0.18
  0
VERTEX
  5
6B3
  8
0
  6
CONTINUOUS
 62
     7
 10
-103.1382026228504
 20
30.9565035306594
 30
0.0
 40
0.18
 41
0.18
  0
VERTEX
  5
6B4
  8
0
  6
CONTINUOUS
 62
     7
 10
-103.1382026228504
 20
30.95260818756516
 30
0.0
 40
0.18
 41
0.18
  0
VERTEX
  5
6B5
  8
0
  6
CONTINUOUS
 62
     7
 10
-103.1382026228504
 20
30.94872928849592
 30
0.0
 40
0.18
 41
0.18
  0
VERTEX
  5
6B6
  8
0
  6
CONTINUOUS
 62
     7
 10
-103.1382026228504
 20
30.94486741582138
 30
0.0
 40
0.18
 41
0.18
  0
VERTEX
  5
6B7
  8
0
  6
CONTINUOUS
 62
     7
 10
-103.1382026228504
 20
30.94102315191121
 30
0.0
 40
0.18
 41
0.18
  0
VERTEX
  5
6B8
  8
0
  6
CONTINUOUS
 62
     7
 10
-103.1382026228503
 20
30.93719707913507
 30
0.0
 40
0.18
 41
0.18
  0
VERTEX
  5
6B9
  8
0
  6
CONTINUOUS
 62
     7
 10
-103.1382026228504
 20
30.93338977986268
 30
0.0
 40
0.18
 41
0.18
  0
VERTEX
  5
6BA
  8
0
  6
CONTINUOUS
 62
     7
 10
-103.1382026228504
 20
30.92960183646367
 30
0.0
 40
0.18
 41
0.18
  0
VERTEX
  5
6BB
  8
0
  6
CONTINUOUS
 62
     7
 10
-103.1382026228504
 20
30.92583383130774
 30
0.0
 40
0.18
 41
0.18
  0
VERTEX
  5
6BC
  8
0
  6
CONTINUOUS
 62
     7
 10
-103.1382026228504
 20
30.92208634676457
 30
0.0
 40
0.18
 41
0.18
  0
VERTEX
  5
6BD
  8
0
  6
CONTINUOUS
 62
     7
 10
-103.1382026228504
 20
30.91835996520383
 30
0.0
 40
0.18
 41
0.18
  0
VERTEX
  5
6BE
  8
0
  6
CONTINUOUS
 62
     7
 10
-103.1382026228503
 20
30.91465526899519
 30
0.0
 40
0.18
 41
0.18
  0
VERTEX
  5
6BF
  8
0
  6
CONTINUOUS
 62
     7
 10
-103.1382026228504
 20
30.91097284050835
 30
0.0
 40
0.18
 41
0.18
  0
VERTEX
  5
6C0
  8
0
  6
CONTINUOUS
 62
     7
 10
-103.1382026228504
 20
30.90731326211296
 30
0.0
 40
0.18
 41
0.18
  0
VERTEX
  5
6C1
  8
0
  6
CONTINUOUS
 62
     7
 10
-103.1382026228504
 20
30.90367711617871
 30
0.0
 40
0.18
 41
0.18
  0
VERTEX
  5
6C2
  8
0
  6
CONTINUOUS
 62
     7
 10
-103.1382026228504
 20
30.90006498507529
 30
0.0
 40
0.18
 41
0.18
  0
VERTEX
  5
6C3
  8
0
  6
CONTINUOUS
 62
     7
 10
-103.1382026228504
 20
30.89647745117235
 30
0.0
 40
0.18
 41
0.18
  0
VERTEX
  5
6C4
  8
0
  6
CONTINUOUS
 62
     7
 10
-103.1382026228504
 20
30.89291509683958
 30
0.0
 40
0.18
 41
0.18
  0
VERTEX
  5
6C5
  8
0
  6
CONTINUOUS
 62
     7
 10
-103.1382026228504
 20
30.88937850444666
 30
0.0
 40
0.18
 41
0.18
  0
VERTEX
  5
6C6
  8
0
  6
CONTINUOUS
 62
     7
 10
-103.1382026228504
 20
30.88586825636326
 30
0.0
 40
0.18
 41
0.18
  0
VERTEX
  5
6C7
  8
0
  6
CONTINUOUS
 62
     7
 10
-103.1382026228504
 20
30.88238493495907
 30
0.0
 40
0.18
 41
0.18
  0
VERTEX
  5
6C8
  8
0
  6
CONTINUOUS
 62
     7
 10
-103.1382026228504
 20
30.87892912260375
 30
0.0
 40
0.18
 41
0.18
  0
VERTEX
  5
6C9
  8
0
  6
CONTINUOUS
 62
     7
 10
-103.1382026228504
 20
30.87550140166699
 30
0.0
 40
0.18
 41
0.18
  0
VERTEX
  5
6CA
  8
0
  6
CONTINUOUS
 62
     7
 10
-103.1382026228504
 20
30.87210235451846
 30
0.0
 40
0.18
 41
0.18
  0
VERTEX
  5
6CB
  8
0
  6
CONTINUOUS
 62
     7
 10
-103.1382026228504
 20
30.86873256352784
 30
0.0
 40
0.18
 41
0.18
  0
VERTEX
  5
6CC
  8
0
  6
CONTINUOUS
 62
     7
 10
-103.1382026228504
 20
30.86539261106481
 30
0.0
 40
0.18
 41
0.18
  0
VERTEX
  5
6CD
  8
0
  6
CONTINUOUS
 62
     7
 10
-103.1382026228504
 20
30.86208307949904
 30
0.0
 40
0.18
 41
0.18
  0
VERTEX
  5
6CE
  8
0
  6
CONTINUOUS
 62
     7
 10
-103.1382026228504
 20
30.85880455120021
 30
0.0
 40
0.18
 41
0.18
  0
VERTEX
  5
6CF
  8
0
  6
CONTINUOUS
 62
     7
 10
-103.1382026228504
 20
30.855557608538
 30
0.0
 40
0.18
 41
0.18
  0
VERTEX
  5
6D0
  8
0
  6
CONTINUOUS
 62
     7
 10
-103.1382026228504
 20
30.85234283388208
 30
0.0
 40
0.18
 41
0.18
  0
VERTEX
  5
6D1
  8
0
  6
CONTINUOUS
 62
     7
 10
-103.1382026228504
 20
30.84916080960213
 30
0.0
 40
0.18
 41
0.18
  0
VERTEX
  5
6D2
  8
0
  6
CONTINUOUS
 62
     7
 10
-103.1382026228504
 20
30.84600949954607
 30
0.0
 40
0.18
 41
0.18
  0
SEQEND
  5
6DE
  8
0
  6
CONTINUOUS
 62
     7
  0
LINE
  5
3A0
  8
0
  6
CONTINUOUS
 62
     7
 10
-64.83820168329459
 20
40.34601204835936
 30
0.0
 11
-64.83820168329459
 21
50.49469868885937
 31
0.0
  0
LINE
  5
3A1
  8
0
  6
CONTINUOUS
 62
     7
 10
-104.8382016832947
 20
40.34601204835936
 30
0.0
 11
-104.8382016832947
 21
50.49469868885937
 31
0.0
  0
LINE
  5
3A2
  8
0
  6
CONTINUOUS
 62
     7
 10
-104.8382016832947
 20
-53.65398795164064
 30
0.0
 11
-104.8382016832947
 21
-69.20155932864064
 31
0.0
  0
LINE
  5
3A3
  8
0
  6
CONTINUOUS
 62
     7
 10
-64.83820168329459
 20
-53.65398795164064
 30
0.0
 11
-64.83820168329459
 21
-70.12740516334064
 31
0.0
  0
LINE
  5
3A4
  8
0
  6
CONTINUOUS
 62
     7
 10
26.0503891490054
 20
74.77173536455935
 30
0.0
 11
26.0503891490054
 21
80.77173529075937
 31
0.0
  0
LINE
  5
3A5
  8
0
  6
CONTINUOUS
 62
     7
 10
15.85038914900542
 20
74.77173536455935
 30
0.0
 11
15.85038914900542
 21
80.77173529075937
 31
0.0
  0
ARC
  5
3A6
  8
0
  6
CONTINUOUS
 62
     7
 10
-7.499609509894582
 20
-53.21427982384065
 30
0.0
 40
0.5
 50
180.0
 51
270.0
  0
LINE
  5
3A7
  8
0
  6
CENTER
 62
     7
 10
98.79273150010545
 20
-6.714278214540641
 30
0.0
 11
-12.48953254799457
 21
-6.714278214540641
 31
0.0
  0
LINE
  5
3A8
  8
0
  6
CENTER
 62
     7
 10
-10.60337556679456
 20
77.77173532765936
 30
0.0
 11
96.90657451890542
 21
77.77173532765936
 31
0.0
  0
LINE
  5
3A9
  8
0
  6
CENTER
 62
     7
 10
-64.83820168329459
 20
35.74436109285936
 30
0.0
 11
-64.83820168329459
 21
-50.13816559794065
 31
0.0
  0
LINE
  5
3AA
  8
0
  6
CENTER
 62
     7
 10
-109.1382015744947
 20
-23.85399014514065
 30
0.0
 11
-109.1382015744947
 21
-23.66730250994064
 31
0.0
  0
LINE
  5
3AB
  8
0
  6
CENTER
 62
     7
 10
-109.6382016154946
 20
-23.85399014514065
 30
0.0
 11
-109.6382016154946
 21
-23.64109861814065
 31
0.0
  0
LINE
  5
3AC
  8
0
  6
CENTER
 62
     7
 10
-101.8382017201946
 20
11.59601204835936
 30
0.0
 11
-100.2382017201946
 21
11.59601204835936
 31
0.0
  0
LINE
  5
3AD
  8
0
  6
CENTER
 62
     7
 10
-99.73820172019458
 20
11.09601204835936
 30
0.0
 11
-99.73820172019458
 21
-24.40398795164064
 31
0.0
  0
LINE
  5
3AE
  8
0
  6
CENTER
 62
     7
 10
-100.2382017201946
 20
-24.90398795164064
 30
0.0
 11
-101.8382017201946
 21
-24.90398795164064
 31
0.0
  0
LINE
  5
3AF
  8
0
  6
CENTER
 62
     7
 10
-111.0643696244947
 20
8.658380416659355
 30
0.0
 11
-107.8382016463946
 21
8.827456715959357
 31
0.0
  0
LINE
  5
3B0
  8
0
  6
CENTER
 62
     7
 10
-110.4382016463947
 20
8.691196489759363
 30
0.0
 11
-110.4382016463947
 21
10.00650711975936
 31
0.0
  0
LINE
  5
3B1
  8
0
  6
CENTER
 62
     7
 10
-107.8382016463946
 20
-22.13543261924064
 30
0.0
 11
-111.0643696244947
 21
-21.96635631994064
 31
0.0
  0
LINE
  5
3B2
  8
0
  6
CENTER
 62
     7
 10
-107.8382016463946
 20
-23.73543261904064
 30
0.0
 11
-110.1539024332946
 21
-23.61407188344064
 31
0.0
  0
LINE
  5
3B3
  8
0
  6
CENTER
 62
     7
 10
-110.4382016463947
 20
-21.99917239304063
 30
0.0
 11
-110.4382016463947
 21
-23.31448302304064
 31
0.0
  0
LINE
  5
3B4
  8
0
  6
CENTER
 62
     7
 10
-111.5382016463947
 20
-21.46704155254064
 30
0.0
 11
-111.5382016463947
 21
8.159065649259361
 31
0.0
  0
LINE
  5
3B5
  8
0
  6
CENTER
 62
     7
 10
-104.8382016832947
 20
36.73446567755936
 30
0.0
 11
-104.8382016832947
 21
-49.80511921364064
 31
0.0
  0
ARC
  5
3B6
  8
0
  6
CENTER
 62
     7
 10
-100.2382017201946
 20
11.09601204835936
 30
0.0
 40
0.5
 50
0.0
 51
90.0
  0
ARC
  5
3B7
  8
0
  6
CENTER
 62
     7
 10
-100.2382017201946
 20
-24.40398795164064
 30
0.0
 40
0.5000000000000142
 50
270.0
 51
0.0
  0
ARC
  5
3B8
  8
0
  6
CENTER
 62
     7
 10
-111.0382016463947
 20
-21.46704155254064
 30
0.0
 40
0.5000000000107652
 50
180.0
 51
267.0000000025997
  0
ARC
  5
3B9
  8
0
  6
CENTER
 62
     7
 10
-111.0382016463947
 20
8.159065649259361
 30
0.0
 40
0.5000000000107652
 50
92.99999999740035
 51
180.0
  0
ARC
  5
3BA
  8
0
  6
CENTER
 62
     7
 10
-110.1382016463946
 20
-23.31448302304064
 30
0.0
 40
0.3000000000374864
 50
180.0
 51
266.9999999955999
  0
LINE
  5
3BB
  8
0
  6
PHANTOM
 62
     7
 10
-107.8382016463946
 20
10.42745671595937
 30
0.0
 11
-110.1539024332946
 21
10.30609598025936
 31
0.0
  0
ARC
  5
3BC
  8
0
  6
PHANTOM
 62
     7
 10
-110.1382016463946
 20
10.00650711975936
 30
0.0
 40
0.3000000000374783
 50
93.0000000044002
 51
180.0
  0
TEXT
  5
3BE
  8
0
 62
     7
 10
107.2519516464054
 20
-82.77173538584064
 30
0.0
 40
4.7625
  1
000
 41
0.3315789473684207
  7
DCSTYLE0
 72
     5
 11
111.5382016464054
 21
-82.77173538584064
 31
0.0
  0
VIEWPORT
  5
B1
 67
     1
  8
0
 10
-1.693124999999981
 20
0.0
 30
0.0
 40
659.0704598784328
 41
496.6304123150438
 68
     1
 69
     1
1001
ACAD
1000
MVIEW
1002
{
1070
    16
1010
0.0
1020
0.0
1030
0.0
1010
0.0
1020
0.0
1030
1.0
1040
0.0
1040
496.6304123150438
1040
-1.693124999999981
1040
0.0
1040
50.0
1040
0.0
1040
0.0
1070
     0
1070
   100
1070
     0
1070
     3
1070
     0
1070
     0
1070
     0
1070
     0
1040
0.0
1040
0.0
1040
0.0
1040
0.5
1040
0.5
1040
0.0
1040
0.0
1070
     0
1002
{
1002
}
1002
}
  0
ENDSEC
  0
EOF
