  0
SECTION
  2
HEADER
  9
$ACADVER
  1
AC1014
  9
$ACADMAINTVER
 70
       0
  9
$DWGCODEPAGE
  3
ANSI_932
  9
$INSBASE
 10
0.0
 20
0.0
 30
0.0
  9
$EXTMIN
 10
-138.16300919
 20
-102.67132584
 30
0.0
  9
$EXTMAX
 10
138.16300919
 20
49.53173538
 30
0.0
  9
$LIMMIN
 10
-146.79819727
 20
-107.4276715
  9
$LIMMAX
 10
146.79819727
 20
54.28808104
  9
$ORTHOMODE
 70
       0
  9
$REGENMODE
 70
       1
  9
$FILLMODE
 70
       1
  9
$QTEXTMODE
 70
       0
  9
$MIRRTEXT
 70
       1
  9
$DRAGMODE
 70
       2
  9
$LTSCALE
 40
1.0
  9
$OSMODE
 70
       0
  9
$ATTMODE
 70
       1
  9
$TEXTSIZE
 40
0.2
  9
$TRACEWID
 40
0.05
  9
$TEXTSTYLE
  7
STANDARD
  9
$CLAYER
  8
0
  9
$CELTYPE
  6
CONTINUOUS
  9
$CECOLOR
 62
     256
  9
$CELTSCALE
 40
1.0
  9
$DELOBJ
 70
       1
  9
$DISPSILH
 70
       0
  9
$DIMSCALE
 40
1.0
  9
$DIMASZ
 40
0.18
  9
$DIMEXO
 40
0.0625
  9
$DIMDLI
 40
0.38
  9
$DIMRND
 40
0.0
  9
$DIMDLE
 40
0.0
  9
$DIMEXE
 40
0.18
  9
$DIMTP
 40
0.0
  9
$DIMTM
 40
0.0
  9
$DIMTXT
 40
0.18
  9
$DIMCEN
 40
0.09
  9
$DIMTSZ
 40
0.0
  9
$DIMTOL
 70
       0
  9
$DIMLIM
 70
       0
  9
$DIMTIH
 70
       1
  9
$DIMTOH
 70
       1
  9
$DIMSE1
 70
       0
  9
$DIMSE2
 70
       0
  9
$DIMTAD
 70
       0
  9
$DIMZIN
 70
       0
  9
$DIMBLK
  1

  9
$DIMASO
 70
       1
  9
$DIMSHO
 70
       1
  9
$DIMPOST
  1

  9
$DIMAPOST
  1

  9
$DIMALT
 70
       0
  9
$DIMALTD
 70
       2
  9
$DIMALTF
 40
25.4
  9
$DIMLFAC
 40
1.0
  9
$DIMTOFL
 70
       0
  9
$DIMTVP
 40
0.0
  9
$DIMTIX
 70
       0
  9
$DIMSOXD
 70
       0
  9
$DIMSAH
 70
       0
  9
$DIMBLK1
  1

  9
$DIMBLK2
  1

  9
$DIMSTYLE
  2
STANDARD
  9
$DIMCLRD
 70
       0
  9
$DIMCLRE
 70
       0
  9
$DIMCLRT
 70
       0
  9
$DIMTFAC
 40
1.0
  9
$DIMGAP
 40
0.09
  9
$DIMJUST
 70
       0
  9
$DIMSD1
 70
       0
  9
$DIMSD2
 70
       0
  9
$DIMTOLJ
 70
       1
  9
$DIMTZIN
 70
       0
  9
$DIMALTZ
 70
       0
  9
$DIMALTTZ
 70
       0
  9
$DIMFIT
 70
       3
  9
$DIMUPT
 70
       0
  9
$DIMUNIT
 70
       2
  9
$DIMDEC
 70
       4
  9
$DIMTDEC
 70
       4
  9
$DIMALTU
 70
       2
  9
$DIMALTTD
 70
       2
  9
$DIMTXSTY
  7
STANDARD
  9
$DIMAUNIT
 70
       0
  9
$LUNITS
 70
       2
  9
$LUPREC
 70
       4
  9
$SKETCHINC
 40
0.1
  9
$FILLETRAD
 40
0.0
  9
$AUNITS
 70
       0
  9
$AUPREC
 70
       0
  9
$MENU
  1
acad
  9
$ELEVATION
 40
0.0
  9
$PELEVATION
 40
0.0
  9
$THICKNESS
 40
0.0
  9
$LIMCHECK
 70
       0
  9
$BLIPMODE
 70
       1
  9
$CHAMFERA
 40
0.0
  9
$CHAMFERB
 40
0.0
  9
$CHAMFERC
 40
0.0
  9
$CHAMFERD
 40
0.0
  9
$SKPOLY
 70
       0
  9
$TDCREATE
 40
0.000000000
  9
$TDUPDATE
 40
0.000000000
  9
$TDINDWG
 40
0.0000000000
  9
$TDUSRTIMER
 40
0.0000000000
  9
$USRTIMER
 70
       1
  9
$ANGBASE
 50
0.0
  9
$ANGDIR
 70
       0
  9
$PDMODE
 70
       0
  9
$PDSIZE
 40
1.0
  9
$PLINEWID
 40
0.0
  9
$COORDS
 70
       1
  9
$SPLFRAME
 70
       0
  9
$SPLINETYPE
 70
       6
  9
$SPLINESEGS
 70
       8
  9
$ATTDIA
 70
       0
  9
$ATTREQ
 70
       1
  9
$HANDLING
 70
       1
  9
$HANDSEED
  5
796
  9
$SURFTAB1
 70
       6
  9
$SURFTAB2
 70
       6
  9
$SURFTYPE
 70
       6
  9
$SURFU
 70
       6
  9
$SURFV
 70
       6
  9
$UCSNAME
  2

  9
$UCSORG
 10
0.0
 20
0.0
 30
0.0
  9
$UCSXDIR
 10
1.0
 20
0.0
 30
0.0
  9
$UCSYDIR
 10
0.0
 20
1.0
 30
0.0
  9
$PUCSNAME
  2

  9
$PUCSORG
 10
0.0
 20
0.0
 30
0.0
  9
$PUCSXDIR
 10
1.0
 20
0.0
 30
0.0
  9
$PUCSYDIR
 10
0.0
 20
1.0
 30
0.0
  9
$USERI1
 70
       0
  9
$USERI2
 70
       0
  9
$USERI3
 70
       0
  9
$USERI4
 70
       0
  9
$USERI5
 70
       0
  9
$USERR1
 40
0.0
  9
$USERR2
 40
0.0
  9
$USERR3
 40
0.0
  9
$USERR4
 40
0.0
  9
$USERR5
 40
0.0
  9
$WORLDVIEW
 70
       1
  9
$SHADEDGE
 70
       3
  9
$SHADEDIF
 70
      70
  9
$TILEMODE
 70
       1
  9
$MAXACTVP
 70
      16
  9
$PINSBASE
 10
0.0
 20
0.0
 30
0.0
  9
$PLIMCHECK
 70
       0
  9
$PEXTMIN
 10
1.00000000E+20
 20
1.00000000E+20
 30
1.00000000E+20
  9
$PEXTMAX
 10
-1.00000000E+20
 20
-1.00000000E+20
 30
-1.00000000E+20
  9
$PLIMMIN
 10
0.0
 20
0.0
  9
$PLIMMAX
 10
12.0
 20
9.0
  9
$UNITMODE
 70
       0
  9
$VISRETAIN
 70
       0
  9
$PLINEGEN
 70
       1
  9
$PSLTSCALE
 70
       0
  9
$TREEDEPTH
 70
    3020
  9
$PICKSTYLE
 70
       1
  9
$CMLSTYLE
  2
STANDARD
  9
$CMLJUST
 70
       0
  9
$CMLSCALE
 40
1.0
  9
$PROXYGRAPHICS
 70
       0
  9
$MEASUREMENT
 70
       0
  0
ENDSEC
  0
SECTION
  2
CLASSES
  0
CLASS
  1
LWPOLYLINE
  2
AcDbPolyline
  3
"AutoCAD"
 90
        0
280
       0
281
       1
  0
CLASS
  1
IMAGE
  2
AcDbRasterImage
  3
ISM
 90
      127
280
       0
281
       1
  0
CLASS
  1
OLE2FRAME
  2
AcDbOle2Frame
  3
""
 90
        0
280
       0
281
       1
  0
CLASS
  1
HATCH
  2
AcDbHatch
  3
"ACAD_SEDONA"
 90
        0
280
       0
281
       1
  0
CLASS
  1
DICTIONARYVAR
  2
AcDbDictionaryVar
  3
"AutoCAD"
 90
        0
280
       0
281
       0
  0
CLASS
  1
RASTERVARIABLES
  2
AcDbRasterVariables
  3
ISM
 90
        0
280
       0
281
       0
  0
CLASS
  1
IMAGEDEF
  2
AcDbRasterImageDef
  3
ISM
 90
        0
280
       0
281
       0
  0
CLASS
  1
IMAGEDEF_REACTOR
  2
AcDbRasterImageDefReactor
  3
ISM
 90
        1
280
       0
281
       0
  0
CLASS
  1
IDBUFFER
  2
AcDbIdBuffer
  3
"Acad"
 90
        0
280
       0
281
       0
  0
CLASS
  1
SPATIAL_FILTER
  2
AcDbSpatialFilter
  3
"Acad"
 90
        0
280
       0
281
       0
  0
CLASS
  1
XRECORD
  2
AcDbXrecord
  3
"<Built In>"
 90
        0
280
       0
281
       0
  0
CLASS
  1
SORTENTSTABLE
  2
AcDbSortentsTable
  3
"AutoCAD"
 90
        0
280
       0
281
       0
  0
CLASS
  1
LAYER_INDEX
  2
AcDbLayerIndex
  3
"Acad"
 90
        0
280
       0
281
       0
  0
CLASS
  1
SPATIAL_INDEX
  2
AcDbSpatialIndex
  3
"Acad"
 90
        0
280
       0
281
       0
  0
CLASS
  1
OBJECT_PTR
  2
CAseDLPNTableRecord
  3
"ASE-LPNTableRecord"
 90
        1
280
       0
281
       0
  0
CLASS
  1
LAYOUT
  2
AcDbLayout
  3
"AutoCAD 2000"
 90
        1
280
       0
281
       0
  0
CLASS
  1
PLOTSETTINGS
  2
AcDbPlotSettings
  3
"AutoCAD 2000"
 90
        1
280
       0
281
       0
  0
CLASS
  1
ACDBDICTIONARYWDFLT
  2
AcDbDictionaryWithDefault
  3
"AutoCAD 2000"
 90
        1
280
       0
281
       0
  0
CLASS
  1
ACDBPLACEHOLDER
  2
AcDbPlaceHolder
  3
"AutoCAD 2000"
 90
        1
280
       0
281
       0
  0
CLASS
  1
VBA_PROJECT
  2
AcDbVbaProject
  3
"acadvba"
 90
        1
280
       0
281
       0
  0
CLASS
  1
WIPEOUT
  2
AcDbWipeout
  3
WipeOut|AutoCAD Express Tool|expresstools@autodesk.com
 90
      127
280
       0
281
       1
  0
CLASS
  1
WIPEOUTVARIABLES
  2
AcDbWipeoutVariables
  3
WipeOut|AutoCAD Express Tool|expresstools@autodesk.com
 90
        0
280
       0
281
       0
  0
CLASS
  1
RTEXT
  2
RText
  3
RText|AutoCAD Express Tool|expresstools@autodesk.com
 90
        0
280
       0
281
       1
  0
CLASS
  1
ARCALIGNEDTEXT
  2
AcDbArcAlignedText
  3
ATEXT|AutoCAD Express Tool|expresstools@autodesk.com
 90
        0
280
       0
281
       1
  0
ENDSEC
  0
SECTION
  2
TABLES
  0
TABLE
  2
VPORT
  5
7
100
AcDbSymbolTable
 70
       1
  0
VPORT
  5
15
100
AcDbSymbolTableRecord
100
AcDbViewportTableRecord
  2
*ACTIVE
 70
       0
 10
0.0
 20
0.0
 11
1.0
 21
1.0
 12
0.0
 22
-26.56979523
 13
0.0
 23
0.0
 14
1.0
 24
1.0
 15
0.0
 25
0.0
 16
0.0
 26
0.0
 36
1.0
 17
0.0
 27
0.0
 37
0.0
 40
161.71575254
 41
1.81550894
 42
50.0
 43
0.0
 44
0.0
 50
0.0
 51
0.0
 71
       0
 72
     100
 73
       1
 74
       1
 75
       0
 76
       0
 77
       0
 78
       0
  0
ENDTAB
  0
TABLE
  2
LTYPE
  5
4
100
AcDbSymbolTable
 70
      30
  0
LTYPE
  5
11
100
AcDbSymbolTableRecord
100
AcDbLinetypeTableRecord
  2
BYBLOCK
 70
      64
  3

 72
      65
 73
       0
 40
0.0
  0
LTYPE
  5
12
100
AcDbSymbolTableRecord
100
AcDbLinetypeTableRecord
  2
BYLAYER
 70
      64
  3

 72
      65
 73
       0
 40
0.0
  0
LTYPE
  5
13
100
AcDbSymbolTableRecord
100
AcDbLinetypeTableRecord
  2
CONTINUOUS
 70
      64
  3
Solid line
 72
      65
 73
       0
 40
0.0
  0
LTYPE
  5
1D
100
AcDbSymbolTableRecord
100
AcDbLinetypeTableRecord
  2
HIDDENX2
 70
      64
  3
CADPAC LINETYPE
 72
      65
 73
       2
 40
11.88
 49
8.91
 74
       0
 49
-2.97
 74
       0
  0
LTYPE
  5
1E
100
AcDbSymbolTableRecord
100
AcDbLinetypeTableRecord
  2
HIDDEN
 70
      64
  3
CADPAC LINETYPE
 72
      65
 73
       2
 40
8.91
 49
5.94
 74
       0
 49
-2.97
 74
       0
  0
LTYPE
  5
1F
100
AcDbSymbolTableRecord
100
AcDbLinetypeTableRecord
  2
HIDDEN2
 70
      64
  3
CADPAC LINETYPE
 72
      65
 73
       2
 40
7.425
 49
4.455
 74
       0
 49
-2.97
 74
       0
  0
LTYPE
  5
20
100
AcDbSymbolTableRecord
100
AcDbLinetypeTableRecord
  2
DASHED
 70
      64
  3
CADPAC LINETYPE
 72
      65
 73
       2
 40
8.91
 49
5.94
 74
       0
 49
-2.97
 74
       0
  0
LTYPE
  5
21
100
AcDbSymbolTableRecord
100
AcDbLinetypeTableRecord
  2
DASHED2
 70
      64
  3
CADPAC LINETYPE
 72
      65
 73
       2
 40
6.6825
 49
4.455
 74
       0
 49
-2.2275
 74
       0
  0
LTYPE
  5
22
100
AcDbSymbolTableRecord
100
AcDbLinetypeTableRecord
  2
DASHEDX2
 70
      64
  3
CADPAC LINETYPE
 72
      65
 73
       2
 40
13.365
 49
8.91
 74
       0
 49
-4.455
 74
       0
  0
LTYPE
  5
23
100
AcDbSymbolTableRecord
100
AcDbLinetypeTableRecord
  2
DOTX2
 70
      64
  3
CADPAC LINETYPE
 72
      65
 73
       2
 40
3.7125
 49
0.0
 74
       0
 49
-3.7125
 74
       0
  0
LTYPE
  5
24
100
AcDbSymbolTableRecord
100
AcDbLinetypeTableRecord
  2
DOT
 70
      64
  3
CADPAC LINETYPE
 72
      65
 73
       2
 40
2.97
 49
0.0
 74
       0
 49
-2.97
 74
       0
  0
LTYPE
  5
25
100
AcDbSymbolTableRecord
100
AcDbLinetypeTableRecord
  2
DOT2
 70
      64
  3
CADPAC LINETYPE
 72
      65
 73
       2
 40
2.2275
 49
0.0
 74
       0
 49
-2.2275
 74
       0
  0
LTYPE
  5
26
100
AcDbSymbolTableRecord
100
AcDbLinetypeTableRecord
  2
CENTERX2
 70
      64
  3
CADPAC LINETYPE
 72
      65
 73
       4
 40
17.82
 49
7.425
 74
       0
 49
-3.7125
 74
       0
 49
2.97
 74
       0
 49
-3.7125
 74
       0
  0
LTYPE
  5
27
100
AcDbSymbolTableRecord
100
AcDbLinetypeTableRecord
  2
CENTER
 70
      64
  3
CADPAC LINETYPE
 72
      65
 73
       4
 40
13.662
 49
5.94
 74
       0
 49
-2.97
 74
       0
 49
1.782
 74
       0
 49
-2.97
 74
       0
  0
LTYPE
  5
28
100
AcDbSymbolTableRecord
100
AcDbLinetypeTableRecord
  2
CENTER2
 70
      64
  3
CADPAC LINETYPE
 72
      65
 73
       4
 40
9.504
 49
4.455
 74
       0
 49
-2.2275
 74
       0
 49
0.594
 74
       0
 49
-2.2275
 74
       0
  0
LTYPE
  5
29
100
AcDbSymbolTableRecord
100
AcDbLinetypeTableRecord
  2
DASHDOTX2
 70
      64
  3
CADPAC LINETYPE
 72
      65
 73
       4
 40
14.85
 49
7.425
 74
       0
 49
-3.7125
 74
       0
 49
0.0
 74
       0
 49
-3.7125
 74
       0
  0
LTYPE
  5
2A
100
AcDbSymbolTableRecord
100
AcDbLinetypeTableRecord
  2
DASHDOT
 70
      64
  3
CADPAC LINETYPE
 72
      65
 73
       4
 40
11.88
 49
5.94
 74
       0
 49
-2.97
 74
       0
 49
0.0
 74
       0
 49
-2.97
 74
       0
  0
LTYPE
  5
2B
100
AcDbSymbolTableRecord
100
AcDbLinetypeTableRecord
  2
DASHDOT2
 70
      64
  3
CADPAC LINETYPE
 72
      65
 73
       4
 40
8.91
 49
4.455
 74
       0
 49
-2.2275
 74
       0
 49
0.0
 74
       0
 49
-2.2275
 74
       0
  0
LTYPE
  5
2C
100
AcDbSymbolTableRecord
100
AcDbLinetypeTableRecord
  2
DIVIDEX2
 70
      64
  3
CADPAC LINETYPE
 72
      65
 73
       6
 40
18.5625
 49
7.425
 74
       0
 49
-3.7125
 74
       0
 49
0.0
 74
       0
 49
-3.7125
 74
       0
 49
0.0
 74
       0
 49
-3.7125
 74
       0
  0
LTYPE
  5
2D
100
AcDbSymbolTableRecord
100
AcDbLinetypeTableRecord
  2
DIVIDE
 70
      64
  3
CADPAC LINETYPE
 72
      65
 73
       6
 40
14.85
 49
5.94
 74
       0
 49
-2.97
 74
       0
 49
0.0
 74
       0
 49
-2.97
 74
       0
 49
0.0
 74
       0
 49
-2.97
 74
       0
  0
LTYPE
  5
2E
100
AcDbSymbolTableRecord
100
AcDbLinetypeTableRecord
  2
DIVIDE2
 70
      64
  3
CADPAC LINETYPE
 72
      65
 73
       6
 40
11.1375
 49
4.455
 74
       0
 49
-2.2275
 74
       0
 49
0.0
 74
       0
 49
-2.2275
 74
       0
 49
0.0
 74
       0
 49
-2.2275
 74
       0
  0
LTYPE
  5
2F
100
AcDbSymbolTableRecord
100
AcDbLinetypeTableRecord
  2
BORDERX2
 70
      64
  3
CADPAC LINETYPE
 72
      65
 73
       6
 40
25.9875
 49
7.425
 74
       0
 49
-3.7125
 74
       0
 49
7.425
 74
       0
 49
-3.7125
 74
       0
 49
0.0
 74
       0
 49
-3.7125
 74
       0
  0
LTYPE
  5
30
100
AcDbSymbolTableRecord
100
AcDbLinetypeTableRecord
  2
BORDER
 70
      64
  3
CADPAC LINETYPE
 72
      65
 73
       6
 40
20.79
 49
5.94
 74
       0
 49
-2.97
 74
       0
 49
5.94
 74
       0
 49
-2.97
 74
       0
 49
0.0
 74
       0
 49
-2.97
 74
       0
  0
LTYPE
  5
31
100
AcDbSymbolTableRecord
100
AcDbLinetypeTableRecord
  2
BORDER2
 70
      64
  3
CADPAC LINETYPE
 72
      65
 73
       6
 40
15.5925
 49
4.455
 74
       0
 49
-2.2275
 74
       0
 49
4.455
 74
       0
 49
-2.2275
 74
       0
 49
0.0
 74
       0
 49
-2.2275
 74
       0
  0
LTYPE
  5
32
100
AcDbSymbolTableRecord
100
AcDbLinetypeTableRecord
  2
PHANTOMX2
 70
      64
  3
CADPAC LINETYPE
 72
      65
 73
       6
 40
22.275
 49
7.425
 74
       0
 49
-2.97
 74
       0
 49
2.97
 74
       0
 49
-2.97
 74
       0
 49
2.97
 74
       0
 49
-2.97
 74
       0
  0
LTYPE
  5
33
100
AcDbSymbolTableRecord
100
AcDbLinetypeTableRecord
  2
PHANTOM
 70
      64
  3
CADPAC LINETYPE
 72
      65
 73
       6
 40
18.414
 49
5.94
 74
       0
 49
-2.97
 74
       0
 49
1.782
 74
       0
 49
-2.97
 74
       0
 49
1.782
 74
       0
 49
-2.97
 74
       0
  0
LTYPE
  5
34
100
AcDbSymbolTableRecord
100
AcDbLinetypeTableRecord
  2
PHANTOM2
 70
      64
  3
CADPAC LINETYPE
 72
      65
 73
       6
 40
15.741
 49
4.455
 74
       0
 49
-2.97
 74
       0
 49
1.188
 74
       0
 49
-2.97
 74
       0
 49
1.188
 74
       0
 49
-2.97
 74
       0
  0
LTYPE
  5
35
100
AcDbSymbolTableRecord
100
AcDbLinetypeTableRecord
  2
ACAD_ISO06W100
 70
      64
  3
CADPAC LINETYPE
 72
      65
 73
       8
 40
20.0475
 49
7.425
 74
       0
 49
-3.7125
 74
       0
 49
0.0
 74
       0
 49
-2.97
 74
       0
 49
0.0
 74
       0
 49
-2.97
 74
       0
 49
0.0
 74
       0
 49
-2.97
 74
       0
  0
LTYPE
  5
36
100
AcDbSymbolTableRecord
100
AcDbLinetypeTableRecord
  2
ACAD_ISO13W100
 70
      64
  3
CADPAC LINETYPE
 72
      65
 73
       8
 40
23.76
 49
5.94
 74
       0
 49
-2.97
 74
       0
 49
5.94
 74
       0
 49
-2.97
 74
       0
 49
0.0
 74
       0
 49
-2.97
 74
       0
 49
0.0
 74
       0
 49
-2.97
 74
       0
  0
LTYPE
  5
37
100
AcDbSymbolTableRecord
100
AcDbLinetypeTableRecord
  2
ACAD_ISO14W100
 70
      64
  3
CADPAC LINETYPE
 72
      65
 73
       8
 40
17.82
 49
5.94
 74
       0
 49
-2.97
 74
       0
 49
0.0
 74
       0
 49
-2.97
 74
       0
 49
0.0
 74
       0
 49
-2.97
 74
       0
 49
0.0
 74
       0
 49
-2.97
 74
       0
  0
ENDTAB
  0
TABLE
  2
LAYER
  5
2
100
AcDbSymbolTable
 70
       2
  0
LAYER
  5
14
100
AcDbSymbolTableRecord
100
AcDbLayerTableRecord
  2
0
 70
       0
 62
       7
  6
CONTINUOUS
  0
LAYER
  5
38
100
AcDbSymbolTableRecord
100
AcDbLayerTableRecord
  2
レイヤー_1
 70
       0
 62
       7
  6
CONTINUOUS
  0
ENDTAB
  0
TABLE
  2
STYLE
  5
3
100
AcDbSymbolTable
 70
       1
  0
STYLE
  5
17
100
AcDbSymbolTableRecord
100
AcDbTextStyleTableRecord
  2
STANDARD
 70
       0
 40
0.0
 41
0.8
 50
0.0
 71
       0
 42
5.0
  3
txt.shx
  4
bigfont.shx
  0
ENDTAB
  0
TABLE
  2
VIEW
  5
5
100
AcDbSymbolTable
 70
       1
  0
VIEW
  5
39
100
AcDbSymbolTableRecord
100
AcDbViewTableRecord
  2
QQQQ
 70
       0
 40
161.71575254
 10
0.0
 20
-26.56979523
 41
293.59639453
 11
0.0
 21
0.0
 31
1.0
 12
100.0
 22
100.0
 32
0.0
 42
50.0
 43
0.0
 44
0.0
 50
0.0
 71
       0
  0
ENDTAB
  0
TABLE
  2
UCS
  5
6
100
AcDbSymbolTable
 70
       0
  0
ENDTAB
  0
TABLE
  2
APPID
  5
8
100
AcDbSymbolTable
 70
       1
  0
APPID
  5
16
100
AcDbSymbolTableRecord
100
AcDbRegAppTableRecord
  2
ACAD
 70
       0
  0
ENDTAB
  0
TABLE
  2
DIMSTYLE
  5
9
100
AcDbSymbolTable
 70
       1
  0
DIMSTYLE
105
18
100
AcDbSymbolTableRecord
100
AcDbDimStyleTableRecord
  2
STANDARD
 70
       0
  3

  4

  5

  6

  7

 40
1.0
 41
0.18
 42
0.0625
 43
0.38
 44
0.18
 45
0.0
 46
0.0
 47
0.0
 48
0.0
 71
       0
 72
       0
 73
       1
 74
       1
 75
       0
 76
       0
 77
       0
 78
       0
140
0.18
141
0.09
142
0.0
143
25.4
144
1.0
145
0.0
146
1.0
147
0.09
170
       0
171
       2
172
       0
173
       0
174
       0
175
       0
176
       0
177
       0
178
       0
270
       2
271
       4
272
       4
273
       2
274
       2
275
       0
280
       0
281
       0
282
       0
283
       1
284
       0
285
       0
286
       0
287
       0
288
       0
340
17
  0
ENDTAB
  0
TABLE
  2
BLOCK_RECORD
  5
1
100
AcDbSymbolTable
 70
       0
  0
BLOCK_RECORD
  5
A
100
AcDbSymbolTableRecord
100
AcDbBlockTableRecord
  2
*MODEL_SPACE
  0
BLOCK_RECORD
  5
B
100
AcDbSymbolTableRecord
100
AcDbBlockTableRecord
  2
*PAPER_SPACE
  0
ENDTAB
  0
ENDSEC
  0
SECTION
  2
BLOCKS
  0
BLOCK
  5
D
100
AcDbEntity
  8
0
100
AcDbBlockBegin
  2
*MODEL_SPACE
 70
       0
 10
0.0
 20
0.0
 30
0.0
  3
*MODEL_SPACE
  1

  0
ENDBLK
  5
E
100
AcDbEntity
  8
0
100
AcDbBlockEnd
  0
BLOCK
  5
F
100
AcDbEntity
 67
       1
  8
0
100
AcDbBlockBegin
  2
*PAPER_SPACE
 70
       0
 10
0.0
 20
0.0
 30
0.0
  3
*PAPER_SPACE
  1

  0
ENDBLK
  5
10
100
AcDbEntity
 67
       1
  8
0
100
AcDbBlockEnd
  0
ENDSEC
  0
SECTION
  2
ENTITIES
  0
LINE
  5
3A
100
AcDbEntity
  8
レイヤー_1
  6
CONTINUOUS
 62
       3
100
AcDbLine
 10
113.00205171
 20
39.90714875
 30
0.0
 11
113.00205171
 21
21.11617311
 31
0.0
  0
LINE
  5
3B
100
AcDbEntity
  8
レイヤー_1
  6
CONTINUOUS
 62
       3
100
AcDbLine
 10
113.00205171
 20
21.11617311
 30
0.0
 11
106.93217367
 21
21.11617311
 31
0.0
  0
LINE
  5
3C
100
AcDbEntity
  8
レイヤー_1
  6
CONTINUOUS
 62
       3
100
AcDbLine
 10
106.93217367
 20
21.11617311
 30
0.0
 11
106.93217367
 21
39.90714875
 31
0.0
  0
LINE
  5
3D
100
AcDbEntity
  8
レイヤー_1
  6
CONTINUOUS
 62
       3
100
AcDbLine
 10
118.53381011
 20
-32.09285125
 30
0.0
 11
118.53381011
 21
-34.43213319
 31
0.0
  0
LINE
  5
3E
100
AcDbEntity
  8
レイヤー_1
  6
CONTINUOUS
 62
       3
100
AcDbLine
 10
118.53381011
 20
-34.43213319
 30
0.0
 11
116.46009776
 21
-36.50689111
 31
0.0
  0
LINE
  5
3F
100
AcDbEntity
  8
レイヤー_1
  6
CONTINUOUS
 62
       3
100
AcDbLine
 10
116.46009776
 20
-36.50689111
 30
0.0
 11
103.41836393
 21
-36.50689111
 31
0.0
  0
LINE
  5
40
100
AcDbEntity
  8
レイヤー_1
  6
CONTINUOUS
 62
       3
100
AcDbLine
 10
103.41836393
 20
-36.50689111
 30
0.0
 11
101.34465157
 21
-34.43213319
 31
0.0
  0
LINE
  5
41
100
AcDbEntity
  8
レイヤー_1
  6
CONTINUOUS
 62
       3
100
AcDbLine
 10
101.34465157
 20
-34.43213319
 30
0.0
 11
101.34465157
 21
-32.09285125
 31
0.0
  0
LINE
  5
42
100
AcDbEntity
  8
レイヤー_1
  6
CONTINUOUS
 62
       3
100
AcDbLine
 10
23.52600845
 20
18.06833873
 30
0.0
 11
25.19038461
 21
18.06833873
 31
0.0
  0
LINE
  5
43
100
AcDbEntity
  8
レイヤー_1
  6
CONTINUOUS
 62
       3
100
AcDbLine
 10
51.50318046
 20
-14.3178204
 30
0.0
 11
51.50318046
 21
-12.29429537
 31
0.0
  0
LINE
  5
44
100
AcDbEntity
  8
レイヤー_1
  6
CONTINUOUS
 62
       3
100
AcDbLine
 10
51.50318046
 20
-12.29429537
 30
0.0
 11
52.51459445
 21
-12.29429537
 31
0.0
  0
LINE
  5
45
100
AcDbEntity
  8
レイヤー_1
  6
CONTINUOUS
 62
       3
100
AcDbLine
 10
52.51459445
 20
-12.29429537
 30
0.0
 11
53.52600845
 21
-14.3178204
 31
0.0
  0
LINE
  5
46
100
AcDbEntity
  8
レイヤー_1
  6
CONTINUOUS
 62
       3
100
AcDbLine
 10
46.95077193
 20
-32.09285125
 30
0.0
 11
46.95077193
 21
-22.41052642
 31
0.0
  0
LINE
  5
47
100
AcDbEntity
  8
レイヤー_1
  6
CONTINUOUS
 62
       3
100
AcDbLine
 10
46.95077193
 20
-22.41052642
 30
0.0
 11
26.71830981
 21
-22.41052642
 31
0.0
  0
LINE
  5
48
100
AcDbEntity
  8
レイヤー_1
  6
CONTINUOUS
 62
       3
100
AcDbLine
 10
26.71830981
 20
-22.41052642
 30
0.0
 11
25.2008403
 21
-20.89305691
 31
0.0
  0
LINE
  5
49
100
AcDbEntity
  8
レイヤー_1
  6
CONTINUOUS
 62
       3
100
AcDbLine
 10
51.50318046
 20
22.09831116
 30
0.0
 11
51.50318046
 21
20.07548318
 31
0.0
  0
LINE
  5
4A
100
AcDbEntity
  8
レイヤー_1
  6
CONTINUOUS
 62
       3
100
AcDbLine
 10
51.50318046
 20
20.07548318
 30
0.0
 11
52.51459445
 21
20.07548318
 31
0.0
  0
LINE
  5
4B
100
AcDbEntity
  8
レイヤー_1
  6
CONTINUOUS
 62
       3
100
AcDbLine
 10
52.51459445
 20
20.07548318
 30
0.0
 11
53.52600845
 21
22.09831116
 31
0.0
  0
LINE
  5
4C
100
AcDbEntity
  8
レイヤー_1
  6
CONTINUOUS
 62
       3
100
AcDbLine
 10
23.52600845
 20
-12.27791478
 30
0.0
 11
25.19038461
 21
-12.27791478
 31
0.0
  0
LINE
  5
4D
100
AcDbEntity
  8
レイヤー_1
  6
CONTINUOUS
 62
       3
100
AcDbLine
 10
23.52600845
 20
20.09116672
 30
0.0
 11
25.19038461
 21
20.09116672
 31
0.0
  0
LINE
  5
4E
100
AcDbEntity
  8
レイヤー_1
  6
CONTINUOUS
 62
       3
100
AcDbLine
 10
23.52600845
 20
-10.2550868
 30
0.0
 11
25.19038461
 21
-10.2550868
 31
0.0
  0
LINE
  5
4F
100
AcDbEntity
  8
レイヤー_1
  6
CONTINUOUS
 62
       3
100
AcDbLine
 10
50.49176647
 20
-36.57101936
 30
0.0
 11
53.52600845
 21
-36.57101936
 31
0.0
  0
LINE
  5
50
100
AcDbEntity
  8
レイヤー_1
  6
CONTINUOUS
 62
       3
100
AcDbLine
 10
53.52600845
 20
-36.57101936
 30
0.0
 11
53.52600845
 21
-32.52710601
 31
0.0
  0
LINE
  5
51
100
AcDbEntity
  8
レイヤー_1
  6
CONTINUOUS
 62
       3
100
AcDbLine
 10
50.49176647
 20
-32.09285125
 30
0.0
 11
50.49176647
 21
-36.57101936
 31
0.0
  0
LINE
  5
52
100
AcDbEntity
  8
レイヤー_1
  6
CONTINUOUS
 62
       3
100
AcDbLine
 10
50.49176647
 20
-34.54819137
 30
0.0
 11
53.52600845
 21
-34.54819137
 31
0.0
  0
LINE
  5
53
100
AcDbEntity
  8
レイヤー_1
  6
CONTINUOUS
 62
       3
100
AcDbLine
 10
50.50710149
 20
15.0347938
 30
0.0
 11
51.15326328
 21
17.05065133
 31
0.0
  0
LINE
  5
54
100
AcDbEntity
  8
レイヤー_1
  6
CONTINUOUS
 62
       3
100
AcDbLine
 10
51.15326328
 20
17.05065133
 30
0.0
 11
50.50710149
 21
19.06546328
 31
0.0
  0
LINE
  5
55
100
AcDbEntity
  8
レイヤー_1
  6
CONTINUOUS
 62
       3
100
AcDbLine
 10
50.49176647
 20
-14.3178204
 30
0.0
 11
53.52600845
 21
-14.3178204
 31
0.0
  0
LINE
  5
56
100
AcDbEntity
  8
レイヤー_1
  6
CONTINUOUS
 62
       3
100
AcDbLine
 10
53.52600845
 20
-14.3178204
 30
0.0
 11
53.52600845
 21
-32.52710601
 31
0.0
  0
LINE
  5
57
100
AcDbEntity
  8
レイヤー_1
  6
CONTINUOUS
 62
       3
100
AcDbLine
 10
37.91805477
 20
-32.09285125
 30
0.0
 11
36.83523792
 21
-31.00928797
 31
0.0
  0
LINE
  5
58
100
AcDbEntity
  8
レイヤー_1
  6
CONTINUOUS
 62
       3
100
AcDbLine
 10
36.83523792
 20
-31.00928797
 30
0.0
 11
36.83523792
 21
-24.43405145
 31
0.0
  0
LINE
  5
59
100
AcDbEntity
  8
レイヤー_1
  6
CONTINUOUS
 62
       3
100
AcDbLine
 10
36.83523792
 20
-24.43405145
 30
0.0
 11
26.71830981
 21
-24.43405145
 31
0.0
  0
LINE
  5
5A
100
AcDbEntity
  8
レイヤー_1
  6
CONTINUOUS
 62
       3
100
AcDbLine
 10
26.71830981
 20
-24.43405145
 30
0.0
 11
25.2008403
 21
-22.91658194
 31
0.0
  0
LINE
  5
5B
100
AcDbEntity
  8
レイヤー_1
  6
CONTINUOUS
 62
       3
100
AcDbLine
 10
25.2008403
 20
-22.91658194
 30
0.0
 11
25.2008403
 21
30.69637566
 31
0.0
  0
LINE
  5
5C
100
AcDbEntity
  8
レイヤー_1
  6
CONTINUOUS
 62
       3
100
AcDbLine
 10
25.2008403
 20
30.69637566
 30
0.0
 11
26.71830981
 21
32.21384517
 31
0.0
  0
LINE
  5
5D
100
AcDbEntity
  8
レイヤー_1
  6
CONTINUOUS
 62
       3
100
AcDbLine
 10
26.71830981
 20
32.21384517
 30
0.0
 11
36.83523792
 21
32.21384517
 31
0.0
  0
LINE
  5
5E
100
AcDbEntity
  8
レイヤー_1
  6
CONTINUOUS
 62
       3
100
AcDbLine
 10
36.83523792
 20
32.21384517
 30
0.0
 11
36.83523792
 21
38.78838465
 31
0.0
  0
LINE
  5
5F
100
AcDbEntity
  8
レイヤー_1
  6
CONTINUOUS
 62
       3
100
AcDbLine
 10
36.83523792
 20
38.78838465
 30
0.0
 11
37.95348812
 21
39.90714875
 31
0.0
  0
LINE
  5
60
100
AcDbEntity
  8
レイヤー_1
  6
CONTINUOUS
 62
       3
100
AcDbLine
 10
53.52600845
 20
39.90714875
 30
0.0
 11
53.52600845
 21
22.09831116
 31
0.0
  0
LINE
  5
61
100
AcDbEntity
  8
レイヤー_1
  6
CONTINUOUS
 62
       3
100
AcDbLine
 10
53.52600845
 20
22.09831116
 30
0.0
 11
50.49176647
 21
22.09831116
 31
0.0
  0
LINE
  5
62
100
AcDbEntity
  8
レイヤー_1
  6
CONTINUOUS
 62
       3
100
AcDbLine
 10
50.49176647
 20
22.09831116
 30
0.0
 11
50.49176647
 21
-14.3178204
 31
0.0
  0
LINE
  5
63
100
AcDbEntity
  8
レイヤー_1
  6
CONTINUOUS
 62
       3
100
AcDbLine
 10
127.66999426
 20
37.52359437
 30
0.0
 11
121.60081326
 21
37.52359437
 31
0.0
  0
LINE
  5
64
100
AcDbEntity
  8
レイヤー_1
  6
CONTINUOUS
 62
       3
100
AcDbLine
 10
127.66999426
 20
38.53570541
 30
0.0
 11
121.60081326
 21
38.53570541
 31
0.0
  0
LINE
  5
65
100
AcDbEntity
  8
レイヤー_1
  6
CONTINUOUS
 62
       3
100
AcDbLine
 10
121.60081326
 20
30.44369643
 30
0.0
 11
127.66999426
 21
30.44369643
 31
0.0
  0
LINE
  5
66
100
AcDbEntity
  8
レイヤー_1
  6
CONTINUOUS
 62
       3
100
AcDbLine
 10
121.60081326
 20
29.43228243
 30
0.0
 11
127.66999426
 21
29.43228243
 31
0.0
  0
LINE
  5
67
100
AcDbEntity
  8
レイヤー_1
  6
CONTINUOUS
 62
       3
100
AcDbLine
 10
121.60081326
 20
39.90714875
 30
0.0
 11
121.60081326
 21
21.08620012
 31
0.0
  0
LINE
  5
68
100
AcDbEntity
  8
レイヤー_1
  6
CONTINUOUS
 62
       3
100
AcDbLine
 10
121.60081326
 20
21.08620012
 30
0.0
 11
127.66999426
 21
21.08620012
 31
0.0
  0
LINE
  5
69
100
AcDbEntity
  8
レイヤー_1
  6
CONTINUOUS
 62
       3
100
AcDbLine
 10
127.66999426
 20
21.08620012
 30
0.0
 11
127.66999426
 21
39.90714875
 31
0.0
  0
LINE
  5
6A
100
AcDbEntity
  8
レイヤー_1
  6
CONTINUOUS
 62
       3
100
AcDbLine
 10
120.33637151
 20
37.52359437
 30
0.0
 11
114.26649346
 21
37.52359437
 31
0.0
  0
LINE
  5
6B
100
AcDbEntity
  8
レイヤー_1
  6
CONTINUOUS
 62
       3
100
AcDbLine
 10
113.00205171
 20
38.53570541
 30
0.0
 11
106.93217367
 21
38.53570541
 31
0.0
  0
LINE
  5
6C
100
AcDbEntity
  8
レイヤー_1
  6
CONTINUOUS
 62
       3
100
AcDbLine
 10
120.33637151
 20
38.53570541
 30
0.0
 11
114.26649346
 21
38.53570541
 31
0.0
  0
LINE
  5
6D
100
AcDbEntity
  8
レイヤー_1
  6
CONTINUOUS
 62
       3
100
AcDbLine
 10
114.26649346
 20
30.44369643
 30
0.0
 11
120.33637151
 21
30.44369643
 31
0.0
  0
LINE
  5
6E
100
AcDbEntity
  8
レイヤー_1
  6
CONTINUOUS
 62
       3
100
AcDbLine
 10
120.33637151
 20
39.90714875
 30
0.0
 11
120.33637151
 21
21.11617311
 31
0.0
  0
LINE
  5
6F
100
AcDbEntity
  8
レイヤー_1
  6
CONTINUOUS
 62
       3
100
AcDbLine
 10
120.33637151
 20
21.11617311
 30
0.0
 11
114.26649346
 21
21.11617311
 31
0.0
  0
LINE
  5
70
100
AcDbEntity
  8
レイヤー_1
  6
CONTINUOUS
 62
       3
100
AcDbLine
 10
114.26649346
 20
21.11617311
 30
0.0
 11
114.26649346
 21
39.90714875
 31
0.0
  0
LINE
  5
71
100
AcDbEntity
  8
レイヤー_1
  6
CONTINUOUS
 62
       3
100
AcDbLine
 10
127.68254109
 20
-21.36495717
 30
0.0
 11
128.4100633
 21
-21.36495717
 31
0.0
  0
LINE
  5
72
100
AcDbEntity
  8
レイヤー_1
  6
CONTINUOUS
 62
       3
100
AcDbLine
 10
98.9100633
 20
30.44369643
 30
0.0
 11
105.66773192
 21
30.44369643
 31
0.0
  0
LINE
  5
73
100
AcDbEntity
  8
レイヤー_1
  6
CONTINUOUS
 62
       3
100
AcDbLine
 10
99.59855092
 20
29.43228243
 30
0.0
 11
105.66773192
 21
29.43228243
 31
0.0
  0
LINE
  5
74
100
AcDbEntity
  8
レイヤー_1
  6
CONTINUOUS
 62
       3
100
AcDbLine
 10
99.59855092
 20
30.4478787
 30
0.0
 11
99.59855092
 21
21.08620012
 31
0.0
  0
LINE
  5
75
100
AcDbEntity
  8
レイヤー_1
  6
CONTINUOUS
 62
       3
100
AcDbLine
 10
99.59855092
 20
21.08620012
 30
0.0
 11
105.66773192
 21
21.08620012
 31
0.0
  0
LINE
  5
76
100
AcDbEntity
  8
レイヤー_1
  6
CONTINUOUS
 62
       3
100
AcDbLine
 10
105.66773192
 20
21.08620012
 30
0.0
 11
105.66773192
 21
39.90714875
 31
0.0
  0
LINE
  5
77
100
AcDbEntity
  8
レイヤー_1
  6
CONTINUOUS
 62
       3
100
AcDbLine
 10
99.61737116
 20
-30.72175643
 30
0.0
 11
105.68794626
 21
-30.72175643
 31
0.0
  0
LINE
  5
78
100
AcDbEntity
  8
レイヤー_1
  6
CONTINUOUS
 62
       3
100
AcDbLine
 10
105.68794626
 20
-22.62974744
 30
0.0
 11
99.61737116
 21
-22.62974744
 31
0.0
  0
LINE
  5
79
100
AcDbEntity
  8
レイヤー_1
  6
CONTINUOUS
 62
       3
100
AcDbLine
 10
105.68794626
 20
-21.61833345
 30
0.0
 11
99.61737116
 21
-21.61833345
 31
0.0
  0
LINE
  5
7A
100
AcDbEntity
  8
レイヤー_1
  6
CONTINUOUS
 62
       3
100
AcDbLine
 10
105.68794626
 20
-32.09285125
 30
0.0
 11
105.68794626
 21
-13.27225114
 31
0.0
  0
LINE
  5
7B
100
AcDbEntity
  8
レイヤー_1
  6
CONTINUOUS
 62
       3
100
AcDbLine
 10
105.68794626
 20
-13.27225114
 30
0.0
 11
99.61737116
 21
-13.27225114
 31
0.0
  0
LINE
  5
7C
100
AcDbEntity
  8
レイヤー_1
  6
CONTINUOUS
 62
       3
100
AcDbLine
 10
99.61737116
 20
-13.27225114
 30
0.0
 11
99.61737116
 21
-32.09285125
 31
0.0
  0
LINE
  5
7D
100
AcDbEntity
  8
レイヤー_1
  6
CONTINUOUS
 62
       3
100
AcDbLine
 10
114.28601076
 20
-29.71034243
 30
0.0
 11
120.35658585
 21
-29.71034243
 31
0.0
  0
LINE
  5
7E
100
AcDbEntity
  8
レイヤー_1
  6
CONTINUOUS
 62
       3
100
AcDbLine
 10
114.28601076
 20
-30.72175643
 30
0.0
 11
120.35658585
 21
-30.72175643
 31
0.0
  0
LINE
  5
7F
100
AcDbEntity
  8
レイヤー_1
  6
CONTINUOUS
 62
       3
100
AcDbLine
 10
120.35658585
 20
-22.62974744
 30
0.0
 11
114.28601076
 21
-22.62974744
 31
0.0
  0
LINE
  5
80
100
AcDbEntity
  8
レイヤー_1
  6
CONTINUOUS
 62
       3
100
AcDbLine
 10
114.28601076
 20
-32.49260222
 30
0.0
 11
114.28601076
 21
-32.49190517
 31
0.0
  0
LINE
  5
81
100
AcDbEntity
  8
レイヤー_1
  6
CONTINUOUS
 62
       3
100
AcDbLine
 10
114.28601076
 20
-13.2579617
 30
0.0
 11
120.35658585
 21
-13.2579617
 31
0.0
  0
LINE
  5
82
100
AcDbEntity
  8
レイヤー_1
  6
CONTINUOUS
 62
       3
100
AcDbLine
 10
120.35658585
 20
-13.2579617
 30
0.0
 11
120.35658585
 21
-32.09285125
 31
0.0
  0
LINE
  5
83
100
AcDbEntity
  8
レイヤー_1
  6
CONTINUOUS
 62
       3
100
AcDbLine
 10
128.4100633
 20
-22.62974744
 30
0.0
 11
121.6210276
 21
-22.62974744
 31
0.0
  0
LINE
  5
84
100
AcDbEntity
  8
レイヤー_1
  6
CONTINUOUS
 62
       3
100
AcDbLine
 10
113.021569
 20
-21.61833345
 30
0.0
 11
106.95238801
 21
-21.61833345
 31
0.0
  0
LINE
  5
85
100
AcDbEntity
  8
レイヤー_1
  6
CONTINUOUS
 62
       3
100
AcDbLine
 10
120.35658585
 20
-21.61833345
 30
0.0
 11
114.28601076
 21
-21.61833345
 31
0.0
  0
LINE
  5
86
100
AcDbEntity
  8
レイヤー_1
  6
CONTINUOUS
 62
       3
100
AcDbLine
 10
127.68951155
 20
-21.61833345
 30
0.0
 11
121.6210276
 21
-21.61833345
 31
0.0
  0
LINE
  5
87
100
AcDbEntity
  8
レイヤー_1
  6
CONTINUOUS
 62
       3
100
AcDbLine
 10
127.68951155
 20
-22.63392972
 30
0.0
 11
127.68951155
 21
-13.27225114
 31
0.0
  0
LINE
  5
88
100
AcDbEntity
  8
レイヤー_1
  6
CONTINUOUS
 62
       3
100
AcDbLine
 10
127.68951155
 20
-13.27225114
 30
0.0
 11
121.6210276
 21
-13.27225114
 31
0.0
  0
LINE
  5
89
100
AcDbEntity
  8
レイヤー_1
  6
CONTINUOUS
 62
       3
100
AcDbLine
 10
121.6210276
 20
-13.27225114
 30
0.0
 11
121.6210276
 21
-32.09285125
 31
0.0
  0
LINE
  5
8A
100
AcDbEntity
  8
レイヤー_1
  6
CONTINUOUS
 62
       3
100
AcDbLine
 10
111.84286393
 20
13.00848059
 30
0.0
 11
115.38385847
 21
13.00848059
 31
0.0
  0
LINE
  5
8B
100
AcDbEntity
  8
レイヤー_1
  6
CONTINUOUS
 62
       3
100
AcDbLine
 10
115.38385847
 20
13.00848059
 30
0.0
 11
115.38385847
 21
14.5259501
 31
0.0
  0
LINE
  5
8C
100
AcDbEntity
  8
レイヤー_1
  6
CONTINUOUS
 62
       3
100
AcDbLine
 10
115.38385847
 20
14.5259501
 30
0.0
 11
111.84286393
 21
14.5259501
 31
0.0
  0
LINE
  5
8D
100
AcDbEntity
  8
レイヤー_1
  6
CONTINUOUS
 62
       3
100
AcDbLine
 10
111.84286393
 20
14.5259501
 30
0.0
 11
111.84286393
 21
13.00848059
 31
0.0
  0
LINE
  5
8E
100
AcDbEntity
  8
レイヤー_1
  6
CONTINUOUS
 62
       3
100
AcDbLine
 10
111.84286393
 20
8.96212757
 30
0.0
 11
115.38385847
 21
8.96212757
 31
0.0
  0
LINE
  5
8F
100
AcDbEntity
  8
レイヤー_1
  6
CONTINUOUS
 62
       3
100
AcDbLine
 10
115.38385847
 20
8.96212757
 30
0.0
 11
115.38385847
 21
10.47959709
 31
0.0
  0
LINE
  5
90
100
AcDbEntity
  8
レイヤー_1
  6
CONTINUOUS
 62
       3
100
AcDbLine
 10
115.38385847
 20
10.47959709
 30
0.0
 11
111.84286393
 21
10.47959709
 31
0.0
  0
LINE
  5
91
100
AcDbEntity
  8
レイヤー_1
  6
CONTINUOUS
 62
       3
100
AcDbLine
 10
111.84286393
 20
10.47959709
 30
0.0
 11
111.84286393
 21
8.96212757
 31
0.0
  0
LINE
  5
92
100
AcDbEntity
  8
レイヤー_1
  6
CONTINUOUS
 62
       3
100
AcDbLine
 10
111.84286393
 20
2.89259805
 30
0.0
 11
115.38385847
 21
2.89259805
 31
0.0
  0
LINE
  5
93
100
AcDbEntity
  8
レイヤー_1
  6
CONTINUOUS
 62
       3
100
AcDbLine
 10
115.38385847
 20
2.89259805
 30
0.0
 11
115.38385847
 21
4.41006756
 31
0.0
  0
LINE
  5
94
100
AcDbEntity
  8
レイヤー_1
  6
CONTINUOUS
 62
       3
100
AcDbLine
 10
115.38385847
 20
4.41006756
 30
0.0
 11
111.84286393
 21
4.41006756
 31
0.0
  0
LINE
  5
95
100
AcDbEntity
  8
レイヤー_1
  6
CONTINUOUS
 62
       3
100
AcDbLine
 10
111.84286393
 20
4.41006756
 30
0.0
 11
111.84286393
 21
2.89259805
 31
0.0
  0
LINE
  5
96
100
AcDbEntity
  8
レイヤー_1
  6
CONTINUOUS
 62
       3
100
AcDbLine
 10
113.00205171
 20
37.52359437
 30
0.0
 11
106.93217367
 21
37.52359437
 31
0.0
  0
LINE
  5
97
100
AcDbEntity
  8
レイヤー_1
  6
CONTINUOUS
 62
       3
100
AcDbLine
 10
106.93217367
 20
30.44369643
 30
0.0
 11
113.00205171
 21
30.44369643
 31
0.0
  0
LINE
  5
98
100
AcDbEntity
  8
レイヤー_1
  6
CONTINUOUS
 62
       3
100
AcDbLine
 10
106.95238801
 20
-29.71034243
 30
0.0
 11
113.021569
 21
-29.71034243
 31
0.0
  0
LINE
  5
99
100
AcDbEntity
  8
レイヤー_1
  6
CONTINUOUS
 62
       3
100
AcDbLine
 10
106.95238801
 20
-30.72175643
 30
0.0
 11
113.021569
 21
-30.72175643
 31
0.0
  0
LINE
  5
9A
100
AcDbEntity
  8
レイヤー_1
  6
CONTINUOUS
 62
       3
100
AcDbLine
 10
113.021569
 20
-22.62974744
 30
0.0
 11
106.95238801
 21
-22.62974744
 31
0.0
  0
LINE
  5
9B
100
AcDbEntity
  8
レイヤー_1
  6
CONTINUOUS
 62
       3
100
AcDbLine
 10
106.95238801
 20
-32.49260222
 30
0.0
 11
106.95238801
 21
-32.49190517
 31
0.0
  0
LINE
  5
9C
100
AcDbEntity
  8
レイヤー_1
  6
CONTINUOUS
 62
       3
100
AcDbLine
 10
106.95238801
 20
-13.2579617
 30
0.0
 11
113.021569
 21
-13.2579617
 31
0.0
  0
LINE
  5
9D
100
AcDbEntity
  8
レイヤー_1
  6
CONTINUOUS
 62
       3
100
AcDbLine
 10
113.021569
 20
-13.2579617
 30
0.0
 11
113.021569
 21
-32.09285125
 31
0.0
  0
LINE
  5
9E
100
AcDbEntity
  8
レイヤー_1
  6
CONTINUOUS
 62
       3
100
AcDbLine
 10
114.26649346
 20
29.43228243
 30
0.0
 11
120.33637151
 21
29.43228243
 31
0.0
  0
LINE
  5
9F
100
AcDbEntity
  8
レイヤー_1
  6
CONTINUOUS
 62
       3
100
AcDbLine
 10
125.92040837
 20
-7.70912566
 30
0.0
 11
126.93182236
 21
-7.70912566
 31
0.0
  0
LINE
  5
A0
100
AcDbEntity
  8
レイヤー_1
  6
CONTINUOUS
 62
       3
100
AcDbLine
 10
126.93182236
 20
-7.70912566
 30
0.0
 11
126.93182236
 21
-2.65135866
 31
0.0
  0
LINE
  5
A1
100
AcDbEntity
  8
レイヤー_1
  6
CONTINUOUS
 62
       3
100
AcDbLine
 10
126.93182236
 20
-2.65135866
 30
0.0
 11
125.92040837
 21
-2.65135866
 31
0.0
  0
LINE
  5
A2
100
AcDbEntity
  8
レイヤー_1
  6
CONTINUOUS
 62
       3
100
AcDbLine
 10
125.92040837
 20
-2.65135866
 30
0.0
 11
125.92040837
 21
-7.70912566
 31
0.0
  0
LINE
  5
A3
100
AcDbEntity
  8
レイヤー_1
  6
CONTINUOUS
 62
       3
100
AcDbLine
 10
100.32626712
 20
10.46530764
 30
0.0
 11
101.33837816
 21
10.46530764
 31
0.0
  0
LINE
  5
A4
100
AcDbEntity
  8
レイヤー_1
  6
CONTINUOUS
 62
       3
100
AcDbLine
 10
101.33837816
 20
10.46530764
 30
0.0
 11
101.33837816
 21
15.52307464
 31
0.0
  0
LINE
  5
A5
100
AcDbEntity
  8
レイヤー_1
  6
CONTINUOUS
 62
       3
100
AcDbLine
 10
101.33837816
 20
15.52307464
 30
0.0
 11
100.32626712
 21
15.52307464
 31
0.0
  0
LINE
  5
A6
100
AcDbEntity
  8
レイヤー_1
  6
CONTINUOUS
 62
       3
100
AcDbLine
 10
100.32626712
 20
15.52307464
 30
0.0
 11
100.32626712
 21
10.46530764
 31
0.0
  0
LINE
  5
A7
100
AcDbEntity
  8
レイヤー_1
  6
CONTINUOUS
 62
       3
100
AcDbLine
 10
104.50157367
 20
14.5259501
 30
0.0
 11
108.04256822
 21
14.5259501
 31
0.0
  0
LINE
  5
A8
100
AcDbEntity
  8
レイヤー_1
  6
CONTINUOUS
 62
       3
100
AcDbLine
 10
108.04256822
 20
14.5259501
 30
0.0
 11
108.04256822
 21
13.00848059
 31
0.0
  0
LINE
  5
A9
100
AcDbEntity
  8
レイヤー_1
  6
CONTINUOUS
 62
       3
100
AcDbLine
 10
108.04256822
 20
13.00848059
 30
0.0
 11
104.50157367
 21
13.00848059
 31
0.0
  0
LINE
  5
AA
100
AcDbEntity
  8
レイヤー_1
  6
CONTINUOUS
 62
       3
100
AcDbLine
 10
104.50157367
 20
13.00848059
 30
0.0
 11
104.50157367
 21
14.5259501
 31
0.0
  0
LINE
  5
AB
100
AcDbEntity
  8
レイヤー_1
  6
CONTINUOUS
 62
       3
100
AcDbLine
 10
104.50157367
 20
10.47959709
 30
0.0
 11
108.04256822
 21
10.47959709
 31
0.0
  0
LINE
  5
AC
100
AcDbEntity
  8
レイヤー_1
  6
CONTINUOUS
 62
       3
100
AcDbLine
 10
108.04256822
 20
10.47959709
 30
0.0
 11
108.04256822
 21
8.96212757
 31
0.0
  0
LINE
  5
AD
100
AcDbEntity
  8
レイヤー_1
  6
CONTINUOUS
 62
       3
100
AcDbLine
 10
108.04256822
 20
8.96212757
 30
0.0
 11
104.50157367
 21
8.96212757
 31
0.0
  0
LINE
  5
AE
100
AcDbEntity
  8
レイヤー_1
  6
CONTINUOUS
 62
       3
100
AcDbLine
 10
104.50157367
 20
8.96212757
 30
0.0
 11
104.50157367
 21
10.47959709
 31
0.0
  0
LINE
  5
AF
100
AcDbEntity
  8
レイヤー_1
  6
CONTINUOUS
 62
       3
100
AcDbLine
 10
104.50157367
 20
4.41006756
 30
0.0
 11
108.04256822
 21
4.41006756
 31
0.0
  0
LINE
  5
B0
100
AcDbEntity
  8
レイヤー_1
  6
CONTINUOUS
 62
       3
100
AcDbLine
 10
108.04256822
 20
4.41006756
 30
0.0
 11
108.04256822
 21
2.89259805
 31
0.0
  0
LINE
  5
B1
100
AcDbEntity
  8
レイヤー_1
  6
CONTINUOUS
 62
       3
100
AcDbLine
 10
108.04256822
 20
2.89259805
 30
0.0
 11
104.50157367
 21
2.89259805
 31
0.0
  0
LINE
  5
B2
100
AcDbEntity
  8
レイヤー_1
  6
CONTINUOUS
 62
       3
100
AcDbLine
 10
104.50157367
 20
2.89259805
 30
0.0
 11
104.50157367
 21
4.41006756
 31
0.0
  0
LINE
  5
B3
100
AcDbEntity
  8
レイヤー_1
  6
CONTINUOUS
 62
       3
100
AcDbLine
 10
104.50157367
 20
-1.65911343
 30
0.0
 11
108.04256822
 21
-1.65911343
 31
0.0
  0
LINE
  5
B4
100
AcDbEntity
  8
レイヤー_1
  6
CONTINUOUS
 62
       3
100
AcDbLine
 10
108.04256822
 20
-1.65911343
 30
0.0
 11
108.04256822
 21
-3.17658295
 31
0.0
  0
LINE
  5
B5
100
AcDbEntity
  8
レイヤー_1
  6
CONTINUOUS
 62
       3
100
AcDbLine
 10
108.04256822
 20
-3.17658295
 30
0.0
 11
104.50157367
 21
-3.17658295
 31
0.0
  0
LINE
  5
B6
100
AcDbEntity
  8
レイヤー_1
  6
CONTINUOUS
 62
       3
100
AcDbLine
 10
104.50157367
 20
-3.17658295
 30
0.0
 11
104.50157367
 21
-1.65911343
 31
0.0
  0
LINE
  5
B7
100
AcDbEntity
  8
レイヤー_1
  6
CONTINUOUS
 62
       3
100
AcDbLine
 10
119.17718373
 20
13.00848059
 30
0.0
 11
122.71817827
 21
13.00848059
 31
0.0
  0
LINE
  5
B8
100
AcDbEntity
  8
レイヤー_1
  6
CONTINUOUS
 62
       3
100
AcDbLine
 10
122.71817827
 20
13.00848059
 30
0.0
 11
122.71817827
 21
14.5259501
 31
0.0
  0
LINE
  5
B9
100
AcDbEntity
  8
レイヤー_1
  6
CONTINUOUS
 62
       3
100
AcDbLine
 10
122.71817827
 20
14.5259501
 30
0.0
 11
119.17718373
 21
14.5259501
 31
0.0
  0
LINE
  5
BA
100
AcDbEntity
  8
レイヤー_1
  6
CONTINUOUS
 62
       3
100
AcDbLine
 10
119.17718373
 20
14.5259501
 30
0.0
 11
119.17718373
 21
13.00848059
 31
0.0
  0
LINE
  5
BB
100
AcDbEntity
  8
レイヤー_1
  6
CONTINUOUS
 62
       3
100
AcDbLine
 10
119.17718373
 20
8.96212757
 30
0.0
 11
122.71817827
 21
8.96212757
 31
0.0
  0
LINE
  5
BC
100
AcDbEntity
  8
レイヤー_1
  6
CONTINUOUS
 62
       3
100
AcDbLine
 10
122.71817827
 20
8.96212757
 30
0.0
 11
122.71817827
 21
10.47959709
 31
0.0
  0
LINE
  5
BD
100
AcDbEntity
  8
レイヤー_1
  6
CONTINUOUS
 62
       3
100
AcDbLine
 10
122.71817827
 20
10.47959709
 30
0.0
 11
119.17718373
 21
10.47959709
 31
0.0
  0
LINE
  5
BE
100
AcDbEntity
  8
レイヤー_1
  6
CONTINUOUS
 62
       3
100
AcDbLine
 10
119.17718373
 20
10.47959709
 30
0.0
 11
119.17718373
 21
8.96212757
 31
0.0
  0
LINE
  5
BF
100
AcDbEntity
  8
レイヤー_1
  6
CONTINUOUS
 62
       3
100
AcDbLine
 10
119.17718373
 20
2.89259805
 30
0.0
 11
122.71817827
 21
2.89259805
 31
0.0
  0
LINE
  5
C0
100
AcDbEntity
  8
レイヤー_1
  6
CONTINUOUS
 62
       3
100
AcDbLine
 10
122.71817827
 20
2.89259805
 30
0.0
 11
122.71817827
 21
4.41006756
 31
0.0
  0
LINE
  5
C1
100
AcDbEntity
  8
レイヤー_1
  6
CONTINUOUS
 62
       3
100
AcDbLine
 10
122.71817827
 20
4.41006756
 30
0.0
 11
119.17718373
 21
4.41006756
 31
0.0
  0
LINE
  5
C2
100
AcDbEntity
  8
レイヤー_1
  6
CONTINUOUS
 62
       3
100
AcDbLine
 10
119.17718373
 20
4.41006756
 30
0.0
 11
119.17718373
 21
2.89259805
 31
0.0
  0
LINE
  5
C3
100
AcDbEntity
  8
レイヤー_1
  6
CONTINUOUS
 62
       3
100
AcDbLine
 10
119.17718373
 20
-3.17658295
 30
0.0
 11
122.71817827
 21
-3.17658295
 31
0.0
  0
LINE
  5
C4
100
AcDbEntity
  8
レイヤー_1
  6
CONTINUOUS
 62
       3
100
AcDbLine
 10
122.71817827
 20
-3.17658295
 30
0.0
 11
122.71817827
 21
-1.65911343
 31
0.0
  0
LINE
  5
C5
100
AcDbEntity
  8
レイヤー_1
  6
CONTINUOUS
 62
       3
100
AcDbLine
 10
122.71817827
 20
-1.65911343
 30
0.0
 11
119.17718373
 21
-1.65911343
 31
0.0
  0
LINE
  5
C6
100
AcDbEntity
  8
レイヤー_1
  6
CONTINUOUS
 62
       3
100
AcDbLine
 10
119.17718373
 20
-1.65911343
 30
0.0
 11
119.17718373
 21
-3.17658295
 31
0.0
  0
LINE
  5
C7
100
AcDbEntity
  8
レイヤー_1
  6
CONTINUOUS
 62
       3
100
AcDbLine
 10
127.94323636
 20
-7.70912566
 30
0.0
 11
127.94323636
 21
-2.65135866
 31
0.0
  0
LINE
  5
C8
100
AcDbEntity
  8
レイヤー_1
  6
CONTINUOUS
 62
       3
100
AcDbLine
 10
127.94323636
 20
-2.65135866
 30
0.0
 11
128.4100633
 21
-2.65135866
 31
0.0
  0
LINE
  5
C9
100
AcDbEntity
  8
レイヤー_1
  6
CONTINUOUS
 62
       3
100
AcDbLine
 10
128.4100633
 20
-1.63994466
 30
0.0
 11
124.87344503
 21
-1.63994466
 31
0.0
  0
LINE
  5
CA
100
AcDbEntity
  8
レイヤー_1
  6
CONTINUOUS
 62
       3
100
AcDbLine
 10
124.87344503
 20
-1.63994466
 30
0.0
 11
124.87344503
 21
19.06337214
 31
0.0
  0
LINE
  5
CB
100
AcDbEntity
  8
レイヤー_1
  6
CONTINUOUS
 62
       3
100
AcDbLine
 10
124.87344503
 20
19.06337214
 30
0.0
 11
102.33236599
 21
19.06337214
 31
0.0
  0
LINE
  5
CC
100
AcDbEntity
  8
レイヤー_1
  6
CONTINUOUS
 62
       3
100
AcDbLine
 10
102.33236599
 20
19.06337214
 30
0.0
 11
102.33236599
 21
16.53448864
 31
0.0
  0
LINE
  5
CD
100
AcDbEntity
  8
レイヤー_1
  6
CONTINUOUS
 62
       3
100
AcDbLine
 10
102.33236599
 20
16.53448864
 30
0.0
 11
98.9100633
 21
16.53448864
 31
0.0
  0
LINE
  5
CE
100
AcDbEntity
  8
レイヤー_1
  6
CONTINUOUS
 62
       3
100
AcDbLine
 10
98.9100633
 20
15.52307464
 30
0.0
 11
99.31415608
 21
15.52307464
 31
0.0
  0
LINE
  5
CF
100
AcDbEntity
  8
レイヤー_1
  6
CONTINUOUS
 62
       3
100
AcDbLine
 10
99.31415608
 20
15.52307464
 30
0.0
 11
99.31415608
 21
10.46530764
 31
0.0
  0
LINE
  5
D0
100
AcDbEntity
  8
レイヤー_1
  6
CONTINUOUS
 62
       3
100
AcDbLine
 10
99.31415608
 20
10.46530764
 30
0.0
 11
98.9100633
 21
10.46530764
 31
0.0
  0
LINE
  5
D1
100
AcDbEntity
  8
レイヤー_1
  6
CONTINUOUS
 62
       3
100
AcDbLine
 10
98.9100633
 20
9.45389365
 30
0.0
 11
102.33236599
 21
9.45389365
 31
0.0
  0
LINE
  5
D2
100
AcDbEntity
  8
レイヤー_1
  6
CONTINUOUS
 62
       3
100
AcDbLine
 10
102.33236599
 20
9.45389365
 30
0.0
 11
102.33236599
 21
-11.2501202
 31
0.0
  0
LINE
  5
D3
100
AcDbEntity
  8
レイヤー_1
  6
CONTINUOUS
 62
       3
100
AcDbLine
 10
102.33236599
 20
-11.2501202
 30
0.0
 11
124.87344503
 21
-11.2501202
 31
0.0
  0
LINE
  5
D4
100
AcDbEntity
  8
レイヤー_1
  6
CONTINUOUS
 62
       3
100
AcDbLine
 10
124.87344503
 20
-11.2501202
 30
0.0
 11
124.87344503
 21
-8.72053965
 31
0.0
  0
LINE
  5
D5
100
AcDbEntity
  8
レイヤー_1
  6
CONTINUOUS
 62
       3
100
AcDbLine
 10
124.87344503
 20
-8.72053965
 30
0.0
 11
128.4100633
 21
-8.72053965
 31
0.0
  0
LINE
  5
D6
100
AcDbEntity
  8
レイヤー_1
  6
CONTINUOUS
 62
       3
100
AcDbLine
 10
128.4100633
 20
-7.70912566
 30
0.0
 11
127.94323636
 21
-7.70912566
 31
0.0
  0
LINE
  5
D7
100
AcDbEntity
  8
レイヤー_1
  6
CONTINUOUS
 62
       3
100
AcDbLine
 10
-67.15882273
 20
42.2812452
 30
0.0
 11
-67.15882273
 21
-40.7187548
 31
0.0
  0
LINE
  5
D8
100
AcDbEntity
  8
レイヤー_1
  6
CONTINUOUS
 62
       3
100
AcDbLine
 10
-120.11167762
 20
-27.43901749
 30
0.0
 11
-123.36583766
 21
-27.43901749
 31
0.0
  0
LINE
  5
D9
100
AcDbEntity
  8
レイヤー_1
  6
CONTINUOUS
 62
       3
100
AcDbLine
 10
-123.36583766
 20
-27.43901749
 30
0.0
 11
-123.75130419
 21
-27.56692546
 31
0.0
  0
LINE
  5
DA
100
AcDbEntity
  8
レイヤー_1
  6
CONTINUOUS
 62
       3
100
AcDbLine
 10
-123.75130419
 20
-27.56692546
 30
0.0
 11
-124.05103404
 21
-27.86665532
 31
0.0
  0
LINE
  5
DB
100
AcDbEntity
  8
レイヤー_1
  6
CONTINUOUS
 62
       3
100
AcDbLine
 10
-124.05103404
 20
-27.86665532
 30
0.0
 11
-124.13677072
 21
-28.25212185
 31
0.0
  0
LINE
  5
DC
100
AcDbEntity
  8
レイヤー_1
  6
CONTINUOUS
 62
       3
100
AcDbLine
 10
-63.51954468
 20
-27.05355096
 30
0.0
 11
-63.51954468
 21
-18.96084493
 31
0.0
  0
LINE
  5
DD
100
AcDbEntity
  8
レイヤー_1
  6
CONTINUOUS
 62
       3
100
AcDbLine
 10
-104.30894391
 20
-28.25212185
 30
0.0
 11
-104.4372004
 21
-27.86665532
 31
0.0
  0
LINE
  5
DE
100
AcDbEntity
  8
レイヤー_1
  6
CONTINUOUS
 62
       3
100
AcDbLine
 10
-104.4372004
 20
-27.86665532
 30
0.0
 11
-104.73693025
 21
-27.56692546
 31
0.0
  0
LINE
  5
DF
100
AcDbEntity
  8
レイヤー_1
  6
CONTINUOUS
 62
       3
100
AcDbLine
 10
-104.73693025
 20
-27.56692546
 30
0.0
 11
-105.12239679
 21
-27.43901749
 31
0.0
  0
LINE
  5
E0
100
AcDbEntity
  8
レイヤー_1
  6
CONTINUOUS
 62
       3
100
AcDbLine
 10
-104.30894391
 20
-28.25212185
 30
0.0
 11
-104.30894391
 21
-40.88468958
 31
0.0
  0
LINE
  5
E1
100
AcDbEntity
  8
レイヤー_1
  6
CONTINUOUS
 62
       3
100
AcDbLine
 10
-63.51954468
 20
20.47872439
 30
0.0
 11
-63.51954468
 21
28.57282451
 31
0.0
  0
LINE
  5
E2
100
AcDbEntity
  8
レイヤー_1
  6
CONTINUOUS
 62
       3
100
AcDbLine
 10
19.34704657
 20
-9.83895023
 30
0.0
 11
19.34704657
 21
-17.93235331
 31
0.0
  0
LINE
  5
E3
100
AcDbEntity
  8
レイヤー_1
  6
CONTINUOUS
 62
       3
100
AcDbLine
 10
19.34704657
 20
11.40109212
 30
0.0
 11
19.34704657
 21
19.4944952
 31
0.0
  0
LINE
  5
E4
100
AcDbEntity
  8
レイヤー_1
  6
CONTINUOUS
 62
       3
100
AcDbLine
 10
20.63170266
 20
-9.88112153
 30
0.0
 11
20.58987989
 21
-9.75321355
 31
0.0
  0
LINE
  5
E5
100
AcDbEntity
  8
レイヤー_1
  6
CONTINUOUS
 62
       3
100
AcDbLine
 10
20.58987989
 20
-9.75321355
 30
0.0
 11
20.50344616
 21
-9.62460854
 31
0.0
  0
LINE
  5
E6
100
AcDbEntity
  8
レイヤー_1
  6
CONTINUOUS
 62
       3
100
AcDbLine
 10
20.50344616
 20
-9.62460854
 30
0.0
 11
20.33197281
 21
-9.58139167
 31
0.0
  0
LINE
  5
E7
100
AcDbEntity
  8
レイヤー_1
  6
CONTINUOUS
 62
       3
100
AcDbLine
 10
20.33197281
 20
-9.58139167
 30
0.0
 11
19.00409985
 21
-9.58139167
 31
0.0
  0
LINE
  5
E8
100
AcDbEntity
  8
レイヤー_1
  6
CONTINUOUS
 62
       3
100
AcDbLine
 10
18.01917362
 20
-17.16142024
 30
0.0
 11
18.01917362
 21
-10.61058034
 31
0.0
  0
LINE
  5
E9
100
AcDbEntity
  8
レイヤー_1
  6
CONTINUOUS
 62
       3
100
AcDbLine
 10
19.00409985
 20
-9.58139167
 30
0.0
 11
18.53359369
 21
-9.71034522
 31
0.0
  0
LINE
  5
EA
100
AcDbEntity
  8
レイヤー_1
  6
CONTINUOUS
 62
       3
100
AcDbLine
 10
18.53359369
 20
-9.71034522
 30
0.0
 11
18.14812716
 21
-10.09650879
 31
0.0
  0
LINE
  5
EB
100
AcDbEntity
  8
レイヤー_1
  6
CONTINUOUS
 62
       3
100
AcDbLine
 10
18.14812716
 20
-10.09650879
 30
0.0
 11
18.01917362
 21
-10.61058034
 31
0.0
  0
LINE
  5
EC
100
AcDbEntity
  8
レイヤー_1
  6
CONTINUOUS
 62
       3
100
AcDbLine
 10
20.63170266
 20
-17.89018201
 30
0.0
 11
20.63170266
 21
-9.88112153
 31
0.0
  0
LINE
  5
ED
100
AcDbEntity
  8
レイヤー_1
  6
CONTINUOUS
 62
       3
100
AcDbLine
 10
20.33197281
 20
-18.18991187
 30
0.0
 11
19.00409985
 21
-18.18991187
 31
0.0
  0
LINE
  5
EE
100
AcDbEntity
  8
レイヤー_1
  6
CONTINUOUS
 62
       3
100
AcDbLine
 10
20.33197281
 20
-18.18991187
 30
0.0
 11
20.50344616
 21
-18.14669501
 31
0.0
  0
LINE
  5
EF
100
AcDbEntity
  8
レイヤー_1
  6
CONTINUOUS
 62
       3
100
AcDbLine
 10
20.50344616
 20
-18.14669501
 30
0.0
 11
20.58987989
 21
-18.01808999
 31
0.0
  0
LINE
  5
F0
100
AcDbEntity
  8
レイヤー_1
  6
CONTINUOUS
 62
       3
100
AcDbLine
 10
20.58987989
 20
-18.01808999
 30
0.0
 11
20.63170266
 21
-17.89018201
 31
0.0
  0
LINE
  5
F1
100
AcDbEntity
  8
レイヤー_1
  6
CONTINUOUS
 62
       3
100
AcDbLine
 10
18.01917362
 20
-17.16142024
 30
0.0
 11
18.14812716
 21
-17.67549179
 31
0.0
  0
LINE
  5
F2
100
AcDbEntity
  8
レイヤー_1
  6
CONTINUOUS
 62
       3
100
AcDbLine
 10
18.14812716
 20
-17.67549179
 30
0.0
 11
18.53359369
 21
-18.06095833
 31
0.0
  0
LINE
  5
F3
100
AcDbEntity
  8
レイヤー_1
  6
CONTINUOUS
 62
       3
100
AcDbLine
 10
18.53359369
 20
-18.06095833
 30
0.0
 11
19.00409985
 21
-18.18991187
 31
0.0
  0
LINE
  5
F4
100
AcDbEntity
  8
レイヤー_1
  6
CONTINUOUS
 62
       3
100
AcDbLine
 10
20.63170266
 20
19.40875852
 30
0.0
 11
20.58987989
 21
19.58023187
 31
0.0
  0
LINE
  5
F5
100
AcDbEntity
  8
レイヤー_1
  6
CONTINUOUS
 62
       3
100
AcDbLine
 10
20.58987989
 20
19.58023187
 30
0.0
 11
20.50344616
 21
19.70848837
 31
0.0
  0
LINE
  5
F6
100
AcDbEntity
  8
レイヤー_1
  6
CONTINUOUS
 62
       3
100
AcDbLine
 10
20.50344616
 20
19.70848837
 30
0.0
 11
20.33197281
 21
19.75135671
 31
0.0
  0
LINE
  5
F7
100
AcDbEntity
  8
レイヤー_1
  6
CONTINUOUS
 62
       3
100
AcDbLine
 10
20.63170266
 20
19.40875852
 30
0.0
 11
20.63170266
 21
11.44361194
 31
0.0
  0
LINE
  5
F8
100
AcDbEntity
  8
レイヤー_1
  6
CONTINUOUS
 62
       3
100
AcDbLine
 10
20.33197281
 20
11.14457913
 30
0.0
 11
19.00409985
 21
11.14457913
 31
0.0
  0
LINE
  5
F9
100
AcDbEntity
  8
レイヤー_1
  6
CONTINUOUS
 62
       3
100
AcDbLine
 10
20.33197281
 20
11.14457913
 30
0.0
 11
20.50344616
 21
11.18675042
 31
0.0
  0
LINE
  5
FA
100
AcDbEntity
  8
レイヤー_1
  6
CONTINUOUS
 62
       3
100
AcDbLine
 10
20.50344616
 20
11.18675042
 30
0.0
 11
20.58987989
 21
11.2724871
 31
0.0
  0
LINE
  5
FB
100
AcDbEntity
  8
レイヤー_1
  6
CONTINUOUS
 62
       3
100
AcDbLine
 10
20.58987989
 20
11.2724871
 30
0.0
 11
20.63170266
 21
11.44361194
 31
0.0
  0
LINE
  5
FC
100
AcDbEntity
  8
レイヤー_1
  6
CONTINUOUS
 62
       3
100
AcDbLine
 10
20.33197281
 20
19.75135671
 30
0.0
 11
19.00409985
 21
19.75135671
 31
0.0
  0
LINE
  5
FD
100
AcDbEntity
  8
レイヤー_1
  6
CONTINUOUS
 62
       3
100
AcDbLine
 10
19.00409985
 20
19.75135671
 30
0.0
 11
18.53359369
 21
19.58023187
 31
0.0
  0
LINE
  5
FE
100
AcDbEntity
  8
レイヤー_1
  6
CONTINUOUS
 62
       3
100
AcDbLine
 10
18.53359369
 20
19.58023187
 30
0.0
 11
18.14812716
 21
19.23728516
 31
0.0
  0
LINE
  5
FF
100
AcDbEntity
  8
レイヤー_1
  6
CONTINUOUS
 62
       3
100
AcDbLine
 10
18.14812716
 20
19.23728516
 30
0.0
 11
18.01917362
 21
18.72356213
 31
0.0
  0
LINE
  5
100
100
AcDbEntity
  8
レイヤー_1
  6
CONTINUOUS
 62
       3
100
AcDbLine
 10
18.01917362
 20
18.72356213
 30
0.0
 11
18.01917362
 21
12.12880832
 31
0.0
  0
LINE
  5
101
100
AcDbEntity
  8
レイヤー_1
  6
CONTINUOUS
 62
       3
100
AcDbLine
 10
18.01917362
 20
12.12880832
 30
0.0
 11
18.14812716
 21
11.65795363
 31
0.0
  0
LINE
  5
102
100
AcDbEntity
  8
レイヤー_1
  6
CONTINUOUS
 62
       3
100
AcDbLine
 10
18.14812716
 20
11.65795363
 30
0.0
 11
18.53359369
 21
11.2724871
 31
0.0
  0
LINE
  5
103
100
AcDbEntity
  8
レイヤー_1
  6
CONTINUOUS
 62
       3
100
AcDbLine
 10
18.53359369
 20
11.2724871
 30
0.0
 11
19.00409985
 21
11.14457913
 31
0.0
  0
LINE
  5
104
100
AcDbEntity
  8
レイヤー_1
  6
CONTINUOUS
 62
       3
100
AcDbLine
 10
-64.84637206
 20
-27.0103341
 30
0.0
 11
-64.67489871
 21
-27.26719561
 31
0.0
  0
LINE
  5
105
100
AcDbEntity
  8
レイヤー_1
  6
CONTINUOUS
 62
       3
100
AcDbLine
 10
-64.67489871
 20
-27.26719561
 30
0.0
 11
-64.54664221
 21
-27.31006395
 31
0.0
  0
LINE
  5
106
100
AcDbEntity
  8
レイヤー_1
  6
CONTINUOUS
 62
       3
100
AcDbLine
 10
-64.54664221
 20
-27.31006395
 30
0.0
 11
-63.21981483
 21
-27.31006395
 31
0.0
  0
LINE
  5
107
100
AcDbEntity
  8
レイヤー_1
  6
CONTINUOUS
 62
       3
100
AcDbLine
 10
-63.21981483
 20
-27.31006395
 30
0.0
 11
-62.70574328
 21
-27.18145893
 31
0.0
  0
LINE
  5
108
100
AcDbEntity
  8
レイヤー_1
  6
CONTINUOUS
 62
       3
100
AcDbLine
 10
-62.70574328
 20
-27.18145893
 30
0.0
 11
-62.32027675
 21
-26.7959924
 31
0.0
  0
LINE
  5
109
100
AcDbEntity
  8
レイヤー_1
  6
CONTINUOUS
 62
       3
100
AcDbLine
 10
-62.32027675
 20
-26.7959924
 30
0.0
 11
-62.19167173
 21
-26.28226937
 31
0.0
  0
LINE
  5
10A
100
AcDbEntity
  8
レイヤー_1
  6
CONTINUOUS
 62
       3
100
AcDbLine
 10
-62.19167173
 20
-26.28226937
 30
0.0
 11
-62.19167173
 21
-19.68751556
 31
0.0
  0
LINE
  5
10B
100
AcDbEntity
  8
レイヤー_1
  6
CONTINUOUS
 62
       3
100
AcDbLine
 10
-62.19167173
 20
-19.68751556
 30
0.0
 11
-62.32027675
 21
-19.21666088
 31
0.0
  0
LINE
  5
10C
100
AcDbEntity
  8
レイヤー_1
  6
CONTINUOUS
 62
       3
100
AcDbLine
 10
-62.32027675
 20
-19.21666088
 30
0.0
 11
-62.70574328
 21
-18.83119434
 31
0.0
  0
LINE
  5
10D
100
AcDbEntity
  8
レイヤー_1
  6
CONTINUOUS
 62
       3
100
AcDbLine
 10
-62.70574328
 20
-18.83119434
 30
0.0
 11
-63.21981483
 21
-18.70328637
 31
0.0
  0
LINE
  5
10E
100
AcDbEntity
  8
レイヤー_1
  6
CONTINUOUS
 62
       3
100
AcDbLine
 10
-64.54664221
 20
-18.70328637
 30
0.0
 11
-63.21981483
 21
-18.70328637
 31
0.0
  0
LINE
  5
10F
100
AcDbEntity
  8
レイヤー_1
  6
CONTINUOUS
 62
       3
100
AcDbLine
 10
-64.54664221
 20
-18.70328637
 30
0.0
 11
-64.67489871
 21
-18.74615471
 31
0.0
  0
LINE
  5
110
100
AcDbEntity
  8
レイヤー_1
  6
CONTINUOUS
 62
       3
100
AcDbLine
 10
-64.67489871
 20
-18.74615471
 30
0.0
 11
-64.76063538
 21
-18.83119434
 31
0.0
  0
LINE
  5
111
100
AcDbEntity
  8
レイヤー_1
  6
CONTINUOUS
 62
       3
100
AcDbLine
 10
-64.76063538
 20
-18.83119434
 30
0.0
 11
-64.84637206
 21
-19.00231918
 31
0.0
  0
LINE
  5
112
100
AcDbEntity
  8
レイヤー_1
  6
CONTINUOUS
 62
       3
100
AcDbLine
 10
-64.84637206
 20
-27.0103341
 30
0.0
 11
-64.84637206
 21
-19.00231918
 31
0.0
  0
LINE
  5
113
100
AcDbEntity
  8
レイヤー_1
  6
CONTINUOUS
 62
       3
100
AcDbLine
 10
-63.21981483
 20
20.22255992
 30
0.0
 11
-62.70574328
 21
20.35081642
 31
0.0
  0
LINE
  5
114
100
AcDbEntity
  8
レイヤー_1
  6
CONTINUOUS
 62
       3
100
AcDbLine
 10
-62.70574328
 20
20.35081642
 30
0.0
 11
-62.32027675
 21
20.73628295
 31
0.0
  0
LINE
  5
115
100
AcDbEntity
  8
レイヤー_1
  6
CONTINUOUS
 62
       3
100
AcDbLine
 10
-62.32027675
 20
20.73628295
 30
0.0
 11
-62.19167173
 21
21.24965745
 31
0.0
  0
LINE
  5
116
100
AcDbEntity
  8
レイヤー_1
  6
CONTINUOUS
 62
       3
100
AcDbLine
 10
-62.19167173
 20
27.84475978
 30
0.0
 11
-62.19167173
 21
21.24965745
 31
0.0
  0
LINE
  5
117
100
AcDbEntity
  8
レイヤー_1
  6
CONTINUOUS
 62
       3
100
AcDbLine
 10
-62.19167173
 20
27.84475978
 30
0.0
 11
-62.32027675
 21
28.31596299
 31
0.0
  0
LINE
  5
118
100
AcDbEntity
  8
レイヤー_1
  6
CONTINUOUS
 62
       3
100
AcDbLine
 10
-62.32027675
 20
28.31596299
 30
0.0
 11
-62.70574328
 21
28.70142953
 31
0.0
  0
LINE
  5
119
100
AcDbEntity
  8
レイヤー_1
  6
CONTINUOUS
 62
       3
100
AcDbLine
 10
-62.70574328
 20
28.70142953
 30
0.0
 11
-63.21981483
 21
28.8293375
 31
0.0
  0
LINE
  5
11A
100
AcDbEntity
  8
レイヤー_1
  6
CONTINUOUS
 62
       3
100
AcDbLine
 10
-64.54664221
 20
28.8293375
 30
0.0
 11
-63.21981483
 21
28.8293375
 31
0.0
  0
LINE
  5
11B
100
AcDbEntity
  8
レイヤー_1
  6
CONTINUOUS
 62
       3
100
AcDbLine
 10
-64.54664221
 20
28.8293375
 30
0.0
 11
-64.67489871
 21
28.7871662
 31
0.0
  0
LINE
  5
11C
100
AcDbEntity
  8
レイヤー_1
  6
CONTINUOUS
 62
       3
100
AcDbLine
 10
-64.67489871
 20
28.7871662
 30
0.0
 11
-64.76063538
 21
28.70142953
 31
0.0
  0
LINE
  5
11D
100
AcDbEntity
  8
レイヤー_1
  6
CONTINUOUS
 62
       3
100
AcDbLine
 10
-64.76063538
 20
28.70142953
 30
0.0
 11
-64.84637206
 21
28.52995617
 31
0.0
  0
LINE
  5
11E
100
AcDbEntity
  8
レイヤー_1
  6
CONTINUOUS
 62
       3
100
AcDbLine
 10
-64.84637206
 20
28.52995617
 30
0.0
 11
-64.84637206
 21
20.52228977
 31
0.0
  0
LINE
  5
11F
100
AcDbEntity
  8
レイヤー_1
  6
CONTINUOUS
 62
       3
100
AcDbLine
 10
-64.84637206
 20
20.52228977
 30
0.0
 11
-64.67489871
 21
20.26542826
 31
0.0
  0
LINE
  5
120
100
AcDbEntity
  8
レイヤー_1
  6
CONTINUOUS
 62
       3
100
AcDbLine
 10
-64.67489871
 20
20.26542826
 30
0.0
 11
-64.54664221
 21
20.22255992
 31
0.0
  0
LINE
  5
121
100
AcDbEntity
  8
レイヤー_1
  6
CONTINUOUS
 62
       3
100
AcDbLine
 10
-64.54664221
 20
20.22255992
 30
0.0
 11
-63.21981483
 21
20.22255992
 31
0.0
  0
LINE
  5
122
100
AcDbEntity
  8
レイヤー_1
  6
CONTINUOUS
 62
       3
100
AcDbLine
 10
-120.7107888
 20
-27.69553048
 30
0.0
 11
-120.7107888
 21
-27.86665532
 31
0.0
  0
LINE
  5
123
100
AcDbEntity
  8
レイヤー_1
  6
CONTINUOUS
 62
       3
100
AcDbLine
 10
-120.7107888
 20
-27.86665532
 30
0.0
 11
-120.66792046
 21
-27.95239199
 31
0.0
  0
LINE
  5
124
100
AcDbEntity
  8
レイヤー_1
  6
CONTINUOUS
 62
       3
100
AcDbLine
 10
-120.66792046
 20
-27.95239199
 30
0.0
 11
-120.66792046
 21
-28.12421388
 31
0.0
  0
LINE
  5
125
100
AcDbEntity
  8
レイヤー_1
  6
CONTINUOUS
 62
       3
100
AcDbLine
 10
-120.66792046
 20
-28.12421388
 30
0.0
 11
-120.62505212
 21
-28.20995055
 31
0.0
  0
LINE
  5
126
100
AcDbEntity
  8
レイヤー_1
  6
CONTINUOUS
 62
       3
100
AcDbLine
 10
-120.62505212
 20
-28.20995055
 30
0.0
 11
-120.62505212
 21
-28.29568723
 31
0.0
  0
LINE
  5
127
100
AcDbEntity
  8
レイヤー_1
  6
CONTINUOUS
 62
       3
100
AcDbLine
 10
-120.62505212
 20
-28.29568723
 30
0.0
 11
-120.58218378
 21
-28.38072687
 31
0.0
  0
LINE
  5
128
100
AcDbEntity
  8
レイヤー_1
  6
CONTINUOUS
 62
       3
100
AcDbLine
 10
-120.58218378
 20
-28.38072687
 30
0.0
 11
-120.58218378
 21
-28.46646354
 31
0.0
  0
LINE
  5
129
100
AcDbEntity
  8
レイヤー_1
  6
CONTINUOUS
 62
       3
100
AcDbLine
 10
-120.58218378
 20
-28.46646354
 30
0.0
 11
-120.53931544
 21
-28.5518517
 31
0.0
  0
LINE
  5
12A
100
AcDbEntity
  8
レイヤー_1
  6
CONTINUOUS
 62
       3
100
AcDbLine
 10
-120.53931544
 20
-28.5518517
 30
0.0
 11
-120.53931544
 21
-28.63758838
 31
0.0
  0
LINE
  5
12B
100
AcDbEntity
  8
レイヤー_1
  6
CONTINUOUS
 62
       3
100
AcDbLine
 10
-120.53931544
 20
-28.63758838
 30
0.0
 11
-120.4964471
 21
-28.68115377
 31
0.0
  0
LINE
  5
12C
100
AcDbEntity
  8
レイヤー_1
  6
CONTINUOUS
 62
       3
100
AcDbLine
 10
-120.4964471
 20
-28.68115377
 30
0.0
 11
-120.41175599
 21
-28.85158155
 31
0.0
  0
LINE
  5
12D
100
AcDbEntity
  8
レイヤー_1
  6
CONTINUOUS
 62
       3
100
AcDbLine
 10
-120.41175599
 20
-28.85158155
 30
0.0
 11
-120.41175599
 21
-28.93731823
 31
0.0
  0
LINE
  5
12E
100
AcDbEntity
  8
レイヤー_1
  6
CONTINUOUS
 62
       3
100
AcDbLine
 10
-120.41175599
 20
-28.93731823
 30
0.0
 11
-120.36819061
 21
-29.02305491
 31
0.0
  0
LINE
  5
12F
100
AcDbEntity
  8
レイヤー_1
  6
CONTINUOUS
 62
       3
100
AcDbLine
 10
-120.36819061
 20
-29.02305491
 30
0.0
 11
-120.23958559
 21
-29.28061347
 31
0.0
  0
LINE
  5
130
100
AcDbEntity
  8
レイヤー_1
  6
CONTINUOUS
 62
       3
100
AcDbLine
 10
-120.23958559
 20
-29.28061347
 30
0.0
 11
-120.19671725
 21
-29.32278476
 31
0.0
  0
LINE
  5
131
100
AcDbEntity
  8
レイヤー_1
  6
CONTINUOUS
 62
       3
100
AcDbLine
 10
-120.19671725
 20
-29.32278476
 30
0.0
 11
-120.02559241
 21
-29.66608
 31
0.0
  0
LINE
  5
132
100
AcDbEntity
  8
レイヤー_1
  6
CONTINUOUS
 62
       3
100
AcDbLine
 10
-120.02559241
 20
-29.66608
 30
0.0
 11
-119.93985573
 21
-29.7082513
 31
0.0
  0
LINE
  5
133
100
AcDbEntity
  8
レイヤー_1
  6
CONTINUOUS
 62
       3
100
AcDbLine
 10
-119.93985573
 20
-29.7082513
 30
0.0
 11
-119.85411906
 21
-29.88007318
 31
0.0
  0
LINE
  5
134
100
AcDbEntity
  8
レイヤー_1
  6
CONTINUOUS
 62
       3
100
AcDbLine
 10
-119.85411906
 20
-29.88007318
 30
0.0
 11
-119.72621108
 21
-30.00798115
 31
0.0
  0
LINE
  5
135
100
AcDbEntity
  8
レイヤー_1
  6
CONTINUOUS
 62
       3
100
AcDbLine
 10
-119.72621108
 20
-30.00798115
 30
0.0
 11
-119.68299422
 21
-30.09371783
 31
0.0
  0
LINE
  5
136
100
AcDbEntity
  8
レイヤー_1
  6
CONTINUOUS
 62
       3
100
AcDbLine
 10
-119.68299422
 20
-30.09371783
 30
0.0
 11
-119.59725754
 21
-30.13658617
 31
0.0
  0
LINE
  5
137
100
AcDbEntity
  8
レイヤー_1
  6
CONTINUOUS
 62
       3
100
AcDbLine
 10
-119.59725754
 20
-30.13658617
 30
0.0
 11
-119.5543892
 21
-30.22232285
 31
0.0
  0
LINE
  5
138
100
AcDbEntity
  8
レイヤー_1
  6
CONTINUOUS
 62
       3
100
AcDbLine
 10
-119.5543892
 20
-30.22232285
 30
0.0
 11
-119.34109307
 21
-30.43701307
 31
0.0
  0
LINE
  5
139
100
AcDbEntity
  8
レイヤー_1
  6
CONTINUOUS
 62
       3
100
AcDbLine
 10
-119.34109307
 20
-30.43701307
 30
0.0
 11
-119.25465935
 21
-30.47918436
 31
0.0
  0
LINE
  5
13A
100
AcDbEntity
  8
レイヤー_1
  6
CONTINUOUS
 62
       3
100
AcDbLine
 10
-119.25465935
 20
-30.47918436
 30
0.0
 11
-119.21179101
 21
-30.56492104
 31
0.0
  0
LINE
  5
13B
100
AcDbEntity
  8
レイヤー_1
  6
CONTINUOUS
 62
       3
100
AcDbLine
 10
-119.21179101
 20
-30.56492104
 30
0.0
 11
-119.12605433
 21
-30.65100624
 31
0.0
  0
LINE
  5
13C
100
AcDbEntity
  8
レイヤー_1
  6
CONTINUOUS
 62
       3
100
AcDbLine
 10
-119.12605433
 20
-30.65100624
 30
0.0
 11
-118.95562654
 21
-30.73674292
 31
0.0
  0
LINE
  5
13D
100
AcDbEntity
  8
レイヤー_1
  6
CONTINUOUS
 62
       3
100
AcDbLine
 10
-118.95562654
 20
-30.73674292
 30
0.0
 11
-118.9127582
 21
-30.8224796
 31
0.0
  0
LINE
  5
13E
100
AcDbEntity
  8
レイヤー_1
  6
CONTINUOUS
 62
       3
100
AcDbLine
 10
-118.9127582
 20
-30.8224796
 30
0.0
 11
-118.82632448
 21
-30.86465089
 31
0.0
  0
LINE
  5
13F
100
AcDbEntity
  8
レイヤー_1
  6
CONTINUOUS
 62
       3
100
AcDbLine
 10
-118.82632448
 20
-30.86465089
 30
0.0
 11
-118.7405878
 21
-30.95073609
 31
0.0
  0
LINE
  5
140
100
AcDbEntity
  8
レイヤー_1
  6
CONTINUOUS
 62
       3
100
AcDbLine
 10
-118.7405878
 20
-30.95073609
 30
0.0
 11
-118.57016001
 21
-31.03647277
 31
0.0
  0
LINE
  5
141
100
AcDbEntity
  8
レイヤー_1
  6
CONTINUOUS
 62
       3
100
AcDbLine
 10
-118.57016001
 20
-31.03647277
 30
0.0
 11
-118.48372629
 21
-31.12220945
 31
0.0
  0
LINE
  5
142
100
AcDbEntity
  8
レイヤー_1
  6
CONTINUOUS
 62
       3
100
AcDbLine
 10
-118.48372629
 20
-31.12220945
 30
0.0
 11
-118.22756182
 21
-31.25011742
 31
0.0
  0
LINE
  5
143
100
AcDbEntity
  8
レイヤー_1
  6
CONTINUOUS
 62
       3
100
AcDbLine
 10
-118.22756182
 20
-31.25011742
 30
0.0
 11
-118.14112809
 21
-31.33620262
 31
0.0
  0
LINE
  5
144
100
AcDbEntity
  8
レイヤー_1
  6
CONTINUOUS
 62
       3
100
AcDbLine
 10
-118.14112809
 20
-31.33620262
 30
0.0
 11
-117.97035178
 21
-31.4219393
 31
0.0
  0
LINE
  5
145
100
AcDbEntity
  8
レイヤー_1
  6
CONTINUOUS
 62
       3
100
AcDbLine
 10
-117.97035178
 20
-31.4219393
 30
0.0
 11
-117.84209529
 21
-31.4641106
 31
0.0
  0
LINE
  5
146
100
AcDbEntity
  8
レイヤー_1
  6
CONTINUOUS
 62
       3
100
AcDbLine
 10
-117.84209529
 20
-31.4641106
 30
0.0
 11
-117.58488525
 21
-31.59271562
 31
0.0
  0
LINE
  5
147
100
AcDbEntity
  8
レイヤー_1
  6
CONTINUOUS
 62
       3
100
AcDbLine
 10
-117.58488525
 20
-31.59271562
 30
0.0
 11
-117.45662876
 21
-31.63558395
 31
0.0
  0
LINE
  5
148
100
AcDbEntity
  8
レイヤー_1
  6
CONTINUOUS
 62
       3
100
AcDbLine
 10
-117.45662876
 20
-31.63558395
 30
0.0
 11
-117.19976724
 21
-31.76384045
 31
0.0
  0
LINE
  5
149
100
AcDbEntity
  8
レイヤー_1
  6
CONTINUOUS
 62
       3
100
AcDbLine
 10
-117.19976724
 20
-31.76384045
 30
0.0
 11
-117.07116222
 21
-31.80740584
 31
0.0
  0
LINE
  5
14A
100
AcDbEntity
  8
レイヤー_1
  6
CONTINUOUS
 62
       3
100
AcDbLine
 10
-117.07116222
 20
-31.80740584
 30
0.0
 11
-116.9847285
 21
-31.84957713
 31
0.0
  0
LINE
  5
14B
100
AcDbEntity
  8
レイヤー_1
  6
CONTINUOUS
 62
       3
100
AcDbLine
 10
-116.9847285
 20
-31.84957713
 30
0.0
 11
-116.85716905
 21
-31.89314251
 31
0.0
  0
LINE
  5
14C
100
AcDbEntity
  8
レイヤー_1
  6
CONTINUOUS
 62
       3
100
AcDbLine
 10
-116.85716905
 20
-31.89314251
 30
0.0
 11
-116.77143237
 21
-31.93531381
 31
0.0
  0
LINE
  5
14D
100
AcDbEntity
  8
レイヤー_1
  6
CONTINUOUS
 62
       3
100
AcDbLine
 10
-116.77143237
 20
-31.93531381
 30
0.0
 11
-116.68499865
 21
-31.93531381
 31
0.0
  0
LINE
  5
14E
100
AcDbEntity
  8
レイヤー_1
  6
CONTINUOUS
 62
       3
100
AcDbLine
 10
-116.68499865
 20
-31.93531381
 30
0.0
 11
-116.55709067
 21
-31.97818215
 31
0.0
  0
LINE
  5
14F
100
AcDbEntity
  8
レイヤー_1
  6
CONTINUOUS
 62
       3
100
AcDbLine
 10
-116.55709067
 20
-31.97818215
 30
0.0
 11
-116.47170252
 21
-32.02174753
 31
0.0
  0
LINE
  5
150
100
AcDbEntity
  8
レイヤー_1
  6
CONTINUOUS
 62
       3
100
AcDbLine
 10
-116.47170252
 20
-32.02174753
 30
0.0
 11
-116.3430975
 21
-32.02174753
 31
0.0
  0
LINE
  5
151
100
AcDbEntity
  8
レイヤー_1
  6
CONTINUOUS
 62
       3
100
AcDbLine
 10
-116.3430975
 20
-32.02174753
 30
0.0
 11
-116.25666377
 21
-32.0635703
 31
0.0
  0
LINE
  5
152
100
AcDbEntity
  8
レイヤー_1
  6
CONTINUOUS
 62
       3
100
AcDbLine
 10
-116.25666377
 20
-32.0635703
 30
0.0
 11
-116.12910433
 21
-32.10713569
 31
0.0
  0
LINE
  5
153
100
AcDbEntity
  8
レイヤー_1
  6
CONTINUOUS
 62
       3
100
AcDbLine
 10
-116.12910433
 20
-32.10713569
 30
0.0
 11
-116.04336765
 21
-32.10713569
 31
0.0
  0
LINE
  5
154
100
AcDbEntity
  8
レイヤー_1
  6
CONTINUOUS
 62
       3
100
AcDbLine
 10
-116.04336765
 20
-32.10713569
 30
0.0
 11
-115.91406558
 21
-32.14930698
 31
0.0
  0
LINE
  5
155
100
AcDbEntity
  8
レイヤー_1
  6
CONTINUOUS
 62
       3
100
AcDbLine
 10
-115.91406558
 20
-32.14930698
 30
0.0
 11
-115.82902595
 21
-32.14930698
 31
0.0
  0
LINE
  5
156
100
AcDbEntity
  8
レイヤー_1
  6
CONTINUOUS
 62
       3
100
AcDbLine
 10
-115.82902595
 20
-32.14930698
 30
0.0
 11
-115.70076945
 21
-32.19287237
 31
0.0
  0
LINE
  5
157
100
AcDbEntity
  8
レイヤー_1
  6
CONTINUOUS
 62
       3
100
AcDbLine
 10
-115.70076945
 20
-32.19287237
 30
0.0
 11
-115.48642776
 21
-32.19287237
 31
0.0
  0
LINE
  5
158
100
AcDbEntity
  8
レイヤー_1
  6
CONTINUOUS
 62
       3
100
AcDbLine
 10
-115.48642776
 20
-32.19287237
 30
0.0
 11
-115.35817126
 21
-32.23504366
 31
0.0
  0
LINE
  5
159
100
AcDbEntity
  8
レイヤー_1
  6
CONTINUOUS
 62
       3
100
AcDbLine
 10
-115.35817126
 20
-32.23504366
 30
0.0
 11
-115.14313252
 21
-32.23504366
 31
0.0
  0
LINE
  5
15A
100
AcDbEntity
  8
レイヤー_1
  6
CONTINUOUS
 62
       3
100
AcDbLine
 10
-115.14313252
 20
-32.23504366
 30
0.0
 11
-115.01557307
 21
-32.277912
 31
0.0
  0
LINE
  5
15B
100
AcDbEntity
  8
レイヤー_1
  6
CONTINUOUS
 62
       3
100
AcDbLine
 10
-115.01557307
 20
-32.277912
 30
0.0
 11
-114.5872382
 21
-32.277912
 31
0.0
  0
LINE
  5
15C
100
AcDbEntity
  8
レイヤー_1
  6
CONTINUOUS
 62
       3
100
AcDbLine
 10
-114.5872382
 20
-32.277912
 30
0.0
 11
-114.45793613
 21
-32.32078034
 31
0.0
  0
LINE
  5
15D
100
AcDbEntity
  8
レイヤー_1
  6
CONTINUOUS
 62
       3
100
AcDbLine
 10
-114.45793613
 20
-32.32078034
 30
0.0
 11
-114.03029831
 21
-32.32078034
 31
0.0
  0
LINE
  5
15E
100
AcDbEntity
  8
レイヤー_1
  6
CONTINUOUS
 62
       3
100
AcDbLine
 10
-114.03029831
 20
-32.32078034
 30
0.0
 11
-113.90204181
 21
-32.277912
 31
0.0
  0
LINE
  5
15F
100
AcDbEntity
  8
レイヤー_1
  6
CONTINUOUS
 62
       3
100
AcDbLine
 10
-113.90204181
 20
-32.277912
 30
0.0
 11
-113.4308386
 21
-32.277912
 31
0.0
  0
LINE
  5
160
100
AcDbEntity
  8
レイヤー_1
  6
CONTINUOUS
 62
       3
100
AcDbLine
 10
-113.4308386
 20
-32.277912
 30
0.0
 11
-113.34510192
 21
-32.23504366
 31
0.0
  0
LINE
  5
161
100
AcDbEntity
  8
レイヤー_1
  6
CONTINUOUS
 62
       3
100
AcDbLine
 10
-113.34510192
 20
-32.23504366
 30
0.0
 11
-113.13110875
 21
-32.23504366
 31
0.0
  0
LINE
  5
162
100
AcDbEntity
  8
レイヤー_1
  6
CONTINUOUS
 62
       3
100
AcDbLine
 10
-113.13110875
 20
-32.23504366
 30
0.0
 11
-113.00250373
 21
-32.19287237
 31
0.0
  0
LINE
  5
163
100
AcDbEntity
  8
レイヤー_1
  6
CONTINUOUS
 62
       3
100
AcDbLine
 10
-113.00250373
 20
-32.19287237
 30
0.0
 11
-112.78851056
 21
-32.19287237
 31
0.0
  0
LINE
  5
164
100
AcDbEntity
  8
レイヤー_1
  6
CONTINUOUS
 62
       3
100
AcDbLine
 10
-112.78851056
 20
-32.19287237
 30
0.0
 11
-112.65990554
 21
-32.14930698
 31
0.0
  0
LINE
  5
165
100
AcDbEntity
  8
レイヤー_1
  6
CONTINUOUS
 62
       3
100
AcDbLine
 10
-112.65990554
 20
-32.14930698
 30
0.0
 11
-112.57451738
 21
-32.14930698
 31
0.0
  0
LINE
  5
166
100
AcDbEntity
  8
レイヤー_1
  6
CONTINUOUS
 62
       3
100
AcDbLine
 10
-112.57451738
 20
-32.14930698
 30
0.0
 11
-112.44591237
 21
-32.10713569
 31
0.0
  0
LINE
  5
167
100
AcDbEntity
  8
レイヤー_1
  6
CONTINUOUS
 62
       3
100
AcDbLine
 10
-112.44591237
 20
-32.10713569
 30
0.0
 11
-112.36017569
 21
-32.10713569
 31
0.0
  0
LINE
  5
168
100
AcDbEntity
  8
レイヤー_1
  6
CONTINUOUS
 62
       3
100
AcDbLine
 10
-112.36017569
 20
-32.10713569
 30
0.0
 11
-112.23157067
 21
-32.0635703
 31
0.0
  0
LINE
  5
169
100
AcDbEntity
  8
レイヤー_1
  6
CONTINUOUS
 62
       3
100
AcDbLine
 10
-112.23157067
 20
-32.0635703
 30
0.0
 11
-112.14618251
 21
-32.02174753
 31
0.0
  0
LINE
  5
16A
100
AcDbEntity
  8
レイヤー_1
  6
CONTINUOUS
 62
       3
100
AcDbLine
 10
-112.14618251
 20
-32.02174753
 30
0.0
 11
-112.01757749
 21
-32.02174753
 31
0.0
  0
LINE
  5
16B
100
AcDbEntity
  8
レイヤー_1
  6
CONTINUOUS
 62
       3
100
AcDbLine
 10
-112.01757749
 20
-32.02174753
 30
0.0
 11
-111.93184082
 21
-31.97818215
 31
0.0
  0
LINE
  5
16C
100
AcDbEntity
  8
レイヤー_1
  6
CONTINUOUS
 62
       3
100
AcDbLine
 10
-111.93184082
 20
-31.97818215
 30
0.0
 11
-111.80358432
 21
-31.93531381
 31
0.0
  0
LINE
  5
16D
100
AcDbEntity
  8
レイヤー_1
  6
CONTINUOUS
 62
       3
100
AcDbLine
 10
-108.37725387
 20
-27.43901749
 30
0.0
 11
-108.46299055
 21
-27.35293229
 31
0.0
  0
LINE
  5
16E
100
AcDbEntity
  8
レイヤー_1
  6
CONTINUOUS
 62
       3
100
AcDbLine
 10
-108.46299055
 20
-27.35293229
 30
0.0
 11
-108.50585889
 21
-27.26719561
 31
0.0
  0
LINE
  5
16F
100
AcDbEntity
  8
レイヤー_1
  6
CONTINUOUS
 62
       3
100
AcDbLine
 10
-108.50585889
 20
-27.26719561
 30
0.0
 11
-108.63446391
 21
-27.18145893
 31
0.0
  0
LINE
  5
170
100
AcDbEntity
  8
レイヤー_1
  6
CONTINUOUS
 62
       3
100
AcDbLine
 10
-108.63446391
 20
-27.18145893
 30
0.0
 11
-108.93419376
 21
-26.88172908
 31
0.0
  0
LINE
  5
171
100
AcDbEntity
  8
レイヤー_1
  6
CONTINUOUS
 62
       3
100
AcDbLine
 10
-108.93419376
 20
-26.88172908
 30
0.0
 11
-109.01958192
 21
-26.83955779
 31
0.0
  0
LINE
  5
172
100
AcDbEntity
  8
レイヤー_1
  6
CONTINUOUS
 62
       3
100
AcDbLine
 10
-109.01958192
 20
-26.83955779
 30
0.0
 11
-109.14818694
 21
-26.75382111
 31
0.0
  0
LINE
  5
173
100
AcDbEntity
  8
レイヤー_1
  6
CONTINUOUS
 62
       3
100
AcDbLine
 10
-109.14818694
 20
-26.75382111
 30
0.0
 11
-109.23392362
 21
-26.66808443
 31
0.0
  0
LINE
  5
174
100
AcDbEntity
  8
レイヤー_1
  6
CONTINUOUS
 62
       3
100
AcDbLine
 10
-109.23392362
 20
-26.66808443
 30
0.0
 11
-109.3196603
 21
-26.62486757
 31
0.0
  0
LINE
  5
175
100
AcDbEntity
  8
レイヤー_1
  6
CONTINUOUS
 62
       3
100
AcDbLine
 10
-109.3196603
 20
-26.62486757
 30
0.0
 11
-109.40504845
 21
-26.53982793
 31
0.0
  0
LINE
  5
176
100
AcDbEntity
  8
レイヤー_1
  6
CONTINUOUS
 62
       3
100
AcDbLine
 10
-109.40504845
 20
-26.53982793
 30
0.0
 11
-109.53365347
 21
-26.49626255
 31
0.0
  0
LINE
  5
177
100
AcDbEntity
  8
レイヤー_1
  6
CONTINUOUS
 62
       3
100
AcDbLine
 10
-109.53365347
 20
-26.49626255
 30
0.0
 11
-109.61939015
 21
-26.41052587
 31
0.0
  0
LINE
  5
178
100
AcDbEntity
  8
レイヤー_1
  6
CONTINUOUS
 62
       3
100
AcDbLine
 10
-109.61939015
 20
-26.41052587
 30
0.0
 11
-109.70512683
 21
-26.36835457
 31
0.0
  0
LINE
  5
179
100
AcDbEntity
  8
レイヤー_1
  6
CONTINUOUS
 62
       3
100
AcDbLine
 10
-109.70512683
 20
-26.36835457
 30
0.0
 11
-109.79051498
 21
-26.28226937
 31
0.0
  0
LINE
  5
17A
100
AcDbEntity
  8
レイヤー_1
  6
CONTINUOUS
 62
       3
100
AcDbLine
 10
-109.79051498
 20
-26.28226937
 30
0.0
 11
-109.91912
 21
-26.23940103
 31
0.0
  0
LINE
  5
17B
100
AcDbEntity
  8
レイヤー_1
  6
CONTINUOUS
 62
       3
100
AcDbLine
 10
-109.91912
 20
-26.23940103
 30
0.0
 11
-110.00485668
 21
-26.19653269
 31
0.0
  0
LINE
  5
17C
100
AcDbEntity
  8
レイヤー_1
  6
CONTINUOUS
 62
       3
100
AcDbLine
 10
-110.00485668
 20
-26.19653269
 30
0.0
 11
-110.13311318
 21
-26.11079602
 31
0.0
  0
LINE
  5
17D
100
AcDbEntity
  8
レイヤー_1
  6
CONTINUOUS
 62
       3
100
AcDbLine
 10
-110.13311318
 20
-26.11079602
 30
0.0
 11
-110.21884985
 21
-26.06862472
 31
0.0
  0
LINE
  5
17E
100
AcDbEntity
  8
レイヤー_1
  6
CONTINUOUS
 62
       3
100
AcDbLine
 10
-110.21884985
 20
-26.06862472
 30
0.0
 11
-110.34745487
 21
-26.02505934
 31
0.0
  0
LINE
  5
17F
100
AcDbEntity
  8
レイヤー_1
  6
CONTINUOUS
 62
       3
100
AcDbLine
 10
-110.34745487
 20
-26.02505934
 30
0.0
 11
-110.43319155
 21
-25.93967118
 31
0.0
  0
LINE
  5
180
100
AcDbEntity
  8
レイヤー_1
  6
CONTINUOUS
 62
       3
100
AcDbLine
 10
-110.43319155
 20
-25.93967118
 30
0.0
 11
-110.69005306
 21
-25.85463155
 31
0.0
  0
LINE
  5
181
100
AcDbEntity
  8
レイヤー_1
  6
CONTINUOUS
 62
       3
100
AcDbLine
 10
-110.69005306
 20
-25.85463155
 30
0.0
 11
-110.77578974
 21
-25.81176321
 31
0.0
  0
LINE
  5
182
100
AcDbEntity
  8
レイヤー_1
  6
CONTINUOUS
 62
       3
100
AcDbLine
 10
-110.77578974
 20
-25.81176321
 30
0.0
 11
-111.03265126
 21
-25.72602653
 31
0.0
  0
LINE
  5
183
100
AcDbEntity
  8
レイヤー_1
  6
CONTINUOUS
 62
       3
100
AcDbLine
 10
-111.03265126
 20
-25.72602653
 30
0.0
 11
-111.11838794
 21
-25.68385524
 31
0.0
  0
LINE
  5
184
100
AcDbEntity
  8
レイヤー_1
  6
CONTINUOUS
 62
       3
100
AcDbLine
 10
-111.11838794
 20
-25.68385524
 30
0.0
 11
-111.37524945
 21
-25.59846708
 31
0.0
  0
LINE
  5
185
100
AcDbEntity
  8
レイヤー_1
  6
CONTINUOUS
 62
       3
100
AcDbLine
 10
-111.37524945
 20
-25.59846708
 30
0.0
 11
-111.46098613
 21
-25.55490169
 31
0.0
  0
LINE
  5
186
100
AcDbEntity
  8
レイヤー_1
  6
CONTINUOUS
 62
       3
100
AcDbLine
 10
-111.46098613
 20
-25.55490169
 30
0.0
 11
-111.71784764
 21
-25.46986206
 31
0.0
  0
LINE
  5
187
100
AcDbEntity
  8
レイヤー_1
  6
CONTINUOUS
 62
       3
100
AcDbLine
 10
-111.71784764
 20
-25.46986206
 30
0.0
 11
-111.97470916
 21
-25.38412538
 31
0.0
  0
LINE
  5
188
100
AcDbEntity
  8
レイヤー_1
  6
CONTINUOUS
 62
       3
100
AcDbLine
 10
-111.97470916
 20
-25.38412538
 30
0.0
 11
-112.06044583
 21
-25.38412538
 31
0.0
  0
LINE
  5
189
100
AcDbEntity
  8
レイヤー_1
  6
CONTINUOUS
 62
       3
100
AcDbLine
 10
-112.06044583
 20
-25.38412538
 30
0.0
 11
-112.18905085
 21
-25.34056
 31
0.0
  0
LINE
  5
18A
100
AcDbEntity
  8
レイヤー_1
  6
CONTINUOUS
 62
       3
100
AcDbLine
 10
-112.18905085
 20
-25.34056
 30
0.0
 11
-112.31730735
 21
-25.34056
 31
0.0
  0
LINE
  5
18B
100
AcDbEntity
  8
レイヤー_1
  6
CONTINUOUS
 62
       3
100
AcDbLine
 10
-112.31730735
 20
-25.34056
 30
0.0
 11
-112.57451738
 21
-25.25517184
 31
0.0
  0
LINE
  5
18C
100
AcDbEntity
  8
レイヤー_1
  6
CONTINUOUS
 62
       3
100
AcDbLine
 10
-112.57451738
 20
-25.25517184
 30
0.0
 11
-112.70277388
 21
-25.25517184
 31
0.0
  0
LINE
  5
18D
100
AcDbEntity
  8
レイヤー_1
  6
CONTINUOUS
 62
       3
100
AcDbLine
 10
-112.70277388
 20
-25.25517184
 30
0.0
 11
-112.8313789
 21
-25.2123035
 31
0.0
  0
LINE
  5
18E
100
AcDbEntity
  8
レイヤー_1
  6
CONTINUOUS
 62
       3
100
AcDbLine
 10
-112.8313789
 20
-25.2123035
 30
0.0
 11
-112.95963539
 21
-25.2123035
 31
0.0
  0
LINE
  5
18F
100
AcDbEntity
  8
レイヤー_1
  6
CONTINUOUS
 62
       3
100
AcDbLine
 10
-112.95963539
 20
-25.2123035
 30
0.0
 11
-113.08824041
 21
-25.16943516
 31
0.0
  0
LINE
  5
190
100
AcDbEntity
  8
レイヤー_1
  6
CONTINUOUS
 62
       3
100
AcDbLine
 10
-113.08824041
 20
-25.16943516
 30
0.0
 11
-113.47370694
 21
-25.16943516
 31
0.0
  0
LINE
  5
191
100
AcDbEntity
  8
レイヤー_1
  6
CONTINUOUS
 62
       3
100
AcDbLine
 10
-113.47370694
 20
-25.16943516
 30
0.0
 11
-113.60231196
 21
-25.12656682
 31
0.0
  0
LINE
  5
192
100
AcDbEntity
  8
レイヤー_1
  6
CONTINUOUS
 62
       3
100
AcDbLine
 10
-113.60231196
 20
-25.12656682
 30
0.0
 11
-114.88696805
 21
-25.12656682
 31
0.0
  0
LINE
  5
193
100
AcDbEntity
  8
レイヤー_1
  6
CONTINUOUS
 62
       3
100
AcDbLine
 10
-114.88696805
 20
-25.12656682
 30
0.0
 11
-114.97270473
 21
-25.16943516
 31
0.0
  0
LINE
  5
194
100
AcDbEntity
  8
レイヤー_1
  6
CONTINUOUS
 62
       3
100
AcDbLine
 10
-114.97270473
 20
-25.16943516
 30
0.0
 11
-115.35817126
 21
-25.16943516
 31
0.0
  0
LINE
  5
195
100
AcDbEntity
  8
レイヤー_1
  6
CONTINUOUS
 62
       3
100
AcDbLine
 10
-115.35817126
 20
-25.16943516
 30
0.0
 11
-115.48642776
 21
-25.2123035
 31
0.0
  0
LINE
  5
196
100
AcDbEntity
  8
レイヤー_1
  6
CONTINUOUS
 62
       3
100
AcDbLine
 10
-115.48642776
 20
-25.2123035
 30
0.0
 11
-115.61503278
 21
-25.2123035
 31
0.0
  0
LINE
  5
197
100
AcDbEntity
  8
レイヤー_1
  6
CONTINUOUS
 62
       3
100
AcDbLine
 10
-115.61503278
 20
-25.2123035
 30
0.0
 11
-115.74363779
 21
-25.25517184
 31
0.0
  0
LINE
  5
198
100
AcDbEntity
  8
レイヤー_1
  6
CONTINUOUS
 62
       3
100
AcDbLine
 10
-115.74363779
 20
-25.25517184
 30
0.0
 11
-115.87119724
 21
-25.25517184
 31
0.0
  0
LINE
  5
199
100
AcDbEntity
  8
レイヤー_1
  6
CONTINUOUS
 62
       3
100
AcDbLine
 10
-115.87119724
 20
-25.25517184
 30
0.0
 11
-116.00049931
 21
-25.2983887
 31
0.0
  0
LINE
  5
19A
100
AcDbEntity
  8
レイヤー_1
  6
CONTINUOUS
 62
       3
100
AcDbLine
 10
-116.00049931
 20
-25.2983887
 30
0.0
 11
-116.12910433
 21
-25.2983887
 31
0.0
  0
LINE
  5
19B
100
AcDbEntity
  8
レイヤー_1
  6
CONTINUOUS
 62
       3
100
AcDbLine
 10
-116.12910433
 20
-25.2983887
 30
0.0
 11
-116.38596584
 21
-25.38412538
 31
0.0
  0
LINE
  5
19C
100
AcDbEntity
  8
レイヤー_1
  6
CONTINUOUS
 62
       3
100
AcDbLine
 10
-116.38596584
 20
-25.38412538
 30
0.0
 11
-116.47170252
 21
-25.38412538
 31
0.0
  0
LINE
  5
19D
100
AcDbEntity
  8
レイヤー_1
  6
CONTINUOUS
 62
       3
100
AcDbLine
 10
-116.47170252
 20
-25.38412538
 30
0.0
 11
-116.85716905
 21
-25.51203336
 31
0.0
  0
LINE
  5
19E
100
AcDbEntity
  8
レイヤー_1
  6
CONTINUOUS
 62
       3
100
AcDbLine
 10
-116.85716905
 20
-25.51203336
 30
0.0
 11
-116.9847285
 21
-25.51203336
 31
0.0
  0
LINE
  5
19F
100
AcDbEntity
  8
レイヤー_1
  6
CONTINUOUS
 62
       3
100
AcDbLine
 10
-116.9847285
 20
-25.51203336
 30
0.0
 11
-117.11403056
 21
-25.55490169
 31
0.0
  0
LINE
  5
1A0
100
AcDbEntity
  8
レイヤー_1
  6
CONTINUOUS
 62
       3
100
AcDbLine
 10
-117.11403056
 20
-25.55490169
 30
0.0
 11
-117.19976724
 21
-25.59846708
 31
0.0
  0
LINE
  5
1A1
100
AcDbEntity
  8
レイヤー_1
  6
CONTINUOUS
 62
       3
100
AcDbLine
 10
-117.19976724
 20
-25.59846708
 30
0.0
 11
-117.32732669
 21
-25.64063837
 31
0.0
  0
LINE
  5
1A2
100
AcDbEntity
  8
レイヤー_1
  6
CONTINUOUS
 62
       3
100
AcDbLine
 10
-117.32732669
 20
-25.64063837
 30
0.0
 11
-117.45662876
 21
-25.72602653
 31
0.0
  0
LINE
  5
1A3
100
AcDbEntity
  8
レイヤー_1
  6
CONTINUOUS
 62
       3
100
AcDbLine
 10
-117.45662876
 20
-25.72602653
 30
0.0
 11
-117.54236543
 21
-25.72602653
 31
0.0
  0
LINE
  5
1A4
100
AcDbEntity
  8
レイヤー_1
  6
CONTINUOUS
 62
       3
100
AcDbLine
 10
-117.54236543
 20
-25.72602653
 30
0.0
 11
-117.66992488
 21
-25.81176321
 31
0.0
  0
LINE
  5
1A5
100
AcDbEntity
  8
レイヤー_1
  6
CONTINUOUS
 62
       3
100
AcDbLine
 10
-117.66992488
 20
-25.81176321
 30
0.0
 11
-117.7985299
 21
-25.85463155
 31
0.0
  0
LINE
  5
1A6
100
AcDbEntity
  8
レイヤー_1
  6
CONTINUOUS
 62
       3
100
AcDbLine
 10
-117.7985299
 20
-25.85463155
 30
0.0
 11
-117.88496363
 21
-25.89749989
 31
0.0
  0
LINE
  5
1A7
100
AcDbEntity
  8
レイヤー_1
  6
CONTINUOUS
 62
       3
100
AcDbLine
 10
-117.88496363
 20
-25.89749989
 30
0.0
 11
-118.01252308
 21
-25.93967118
 31
0.0
  0
LINE
  5
1A8
100
AcDbEntity
  8
レイヤー_1
  6
CONTINUOUS
 62
       3
100
AcDbLine
 10
-118.01252308
 20
-25.93967118
 30
0.0
 11
-118.09825975
 21
-25.98288804
 31
0.0
  0
LINE
  5
1A9
100
AcDbEntity
  8
レイヤー_1
  6
CONTINUOUS
 62
       3
100
AcDbLine
 10
-118.09825975
 20
-25.98288804
 30
0.0
 11
-118.22756182
 21
-26.06862472
 31
0.0
  0
LINE
  5
1AA
100
AcDbEntity
  8
レイヤー_1
  6
CONTINUOUS
 62
       3
100
AcDbLine
 10
-118.22756182
 20
-26.06862472
 30
0.0
 11
-118.31294997
 21
-26.11079602
 31
0.0
  0
LINE
  5
1AB
100
AcDbEntity
  8
レイヤー_1
  6
CONTINUOUS
 62
       3
100
AcDbLine
 10
-118.31294997
 20
-26.11079602
 30
0.0
 11
-118.44085795
 21
-26.1543614
 31
0.0
  0
LINE
  5
1AC
100
AcDbEntity
  8
レイヤー_1
  6
CONTINUOUS
 62
       3
100
AcDbLine
 10
-118.44085795
 20
-26.1543614
 30
0.0
 11
-118.52659463
 21
-26.23940103
 31
0.0
  0
LINE
  5
1AD
100
AcDbEntity
  8
レイヤー_1
  6
CONTINUOUS
 62
       3
100
AcDbLine
 10
-118.52659463
 20
-26.23940103
 30
0.0
 11
-118.65554817
 21
-26.28226937
 31
0.0
  0
LINE
  5
1AE
100
AcDbEntity
  8
レイヤー_1
  6
CONTINUOUS
 62
       3
100
AcDbLine
 10
-118.65554817
 20
-26.28226937
 30
0.0
 11
-118.7405878
 21
-26.32513771
 31
0.0
  0
LINE
  5
1AF
100
AcDbEntity
  8
レイヤー_1
  6
CONTINUOUS
 62
       3
100
AcDbLine
 10
-118.7405878
 20
-26.32513771
 30
0.0
 11
-118.82632448
 21
-26.41052587
 31
0.0
  0
LINE
  5
1B0
100
AcDbEntity
  8
レイヤー_1
  6
CONTINUOUS
 62
       3
100
AcDbLine
 10
-118.82632448
 20
-26.41052587
 30
0.0
 11
-118.95562654
 21
-26.45409125
 31
0.0
  0
LINE
  5
1B1
100
AcDbEntity
  8
レイヤー_1
  6
CONTINUOUS
 62
       3
100
AcDbLine
 10
-118.95562654
 20
-26.45409125
 30
0.0
 11
-119.12605433
 21
-26.62486757
 31
0.0
  0
LINE
  5
1B2
100
AcDbEntity
  8
レイヤー_1
  6
CONTINUOUS
 62
       3
100
AcDbLine
 10
-119.12605433
 20
-26.62486757
 30
0.0
 11
-119.21179101
 21
-26.66808443
 31
0.0
  0
LINE
  5
1B3
100
AcDbEntity
  8
レイヤー_1
  6
CONTINUOUS
 62
       3
100
AcDbLine
 10
-119.21179101
 20
-26.66808443
 30
0.0
 11
-119.29822474
 21
-26.75382111
 31
0.0
  0
LINE
  5
1B4
100
AcDbEntity
  8
レイヤー_1
  6
CONTINUOUS
 62
       3
100
AcDbLine
 10
-119.29822474
 20
-26.75382111
 30
0.0
 11
-119.42578418
 21
-26.7959924
 31
0.0
  0
LINE
  5
1B5
100
AcDbEntity
  8
レイヤー_1
  6
CONTINUOUS
 62
       3
100
AcDbLine
 10
-119.42578418
 20
-26.7959924
 30
0.0
 11
-119.59725754
 21
-26.96746576
 31
0.0
  0
LINE
  5
1B6
100
AcDbEntity
  8
レイヤー_1
  6
CONTINUOUS
 62
       3
100
AcDbLine
 10
-119.59725754
 20
-26.96746576
 30
0.0
 11
-119.68299422
 21
-27.0103341
 31
0.0
  0
LINE
  5
1B7
100
AcDbEntity
  8
レイヤー_1
  6
CONTINUOUS
 62
       3
100
AcDbLine
 10
-119.68299422
 20
-27.0103341
 30
0.0
 11
-120.02559241
 21
-27.35293229
 31
0.0
  0
LINE
  5
1B8
100
AcDbEntity
  8
レイヤー_1
  6
CONTINUOUS
 62
       3
100
AcDbLine
 10
-120.02559241
 20
-27.35293229
 30
0.0
 11
-120.0691578
 21
-27.43901749
 31
0.0
  0
LINE
  5
1B9
100
AcDbEntity
  8
レイヤー_1
  6
CONTINUOUS
 62
       3
100
AcDbLine
 10
-120.0691578
 20
-27.43901749
 30
0.0
 11
-120.11167762
 21
-27.43901749
 31
0.0
  0
LINE
  5
1BA
100
AcDbEntity
  8
レイヤー_1
  6
CONTINUOUS
 62
       3
100
AcDbLine
 10
-108.37725387
 20
-27.43901749
 30
0.0
 11
-105.12239679
 21
-27.43901749
 31
0.0
  0
LINE
  5
1BB
100
AcDbEntity
  8
レイヤー_1
  6
CONTINUOUS
 62
       3
100
AcDbLine
 10
-117.75566156
 20
-1.78806698
 30
0.0
 11
-110.7329214
 21
-1.78806698
 31
0.0
  0
LINE
  5
1BC
100
AcDbEntity
  8
レイヤー_1
  6
CONTINUOUS
 62
       3
100
AcDbLine
 10
-117.75566156
 20
-2.81586155
 30
0.0
 11
-110.7329214
 21
-2.81586155
 31
0.0
  0
LINE
  5
1BD
100
AcDbEntity
  8
レイヤー_1
  6
CONTINUOUS
 62
       3
100
AcDbLine
 10
-124.13677072
 20
-28.25212185
 30
0.0
 11
-124.13677072
 21
-40.88468958
 31
0.0
  0
LINE
  5
1BE
100
AcDbEntity
  8
レイヤー_1
  6
CONTINUOUS
 62
       3
100
AcDbLine
 10
-27.84646434
 20
-22.98524099
 30
0.0
 11
23.52600845
 21
-22.98524099
 31
0.0
  0
LINE
  5
1BF
100
AcDbEntity
  8
レイヤー_1
  6
CONTINUOUS
 62
       3
100
AcDbLine
 10
-27.84646434
 20
24.54738288
 30
0.0
 11
23.52600845
 21
24.54738288
 31
0.0
  0
LINE
  5
1C0
100
AcDbEntity
  8
レイヤー_1
  6
CONTINUOUS
 62
       3
100
AcDbLine
 10
-120.7107888
 20
-27.69553048
 30
0.0
 11
-107.77779417
 21
-27.69553048
 31
0.0
  0
LINE
  5
1C1
100
AcDbEntity
  8
レイヤー_1
  6
CONTINUOUS
 62
       3
100
AcDbLine
 10
-111.80358432
 20
-31.93531381
 30
0.0
 11
-111.71784764
 21
-31.93531381
 31
0.0
  0
LINE
  5
1C2
100
AcDbEntity
  8
レイヤー_1
  6
CONTINUOUS
 62
       3
100
AcDbLine
 10
-111.71784764
 20
-31.93531381
 30
0.0
 11
-111.58924262
 21
-31.89314251
 31
0.0
  0
LINE
  5
1C3
100
AcDbEntity
  8
レイヤー_1
  6
CONTINUOUS
 62
       3
100
AcDbLine
 10
-111.58924262
 20
-31.89314251
 30
0.0
 11
-111.41811779
 21
-31.80740584
 31
0.0
  0
LINE
  5
1C4
100
AcDbEntity
  8
レイヤー_1
  6
CONTINUOUS
 62
       3
100
AcDbLine
 10
-111.41811779
 20
-31.80740584
 30
0.0
 11
-111.28951277
 21
-31.76384045
 31
0.0
  0
LINE
  5
1C5
100
AcDbEntity
  8
レイヤー_1
  6
CONTINUOUS
 62
       3
100
AcDbLine
 10
-111.28951277
 20
-31.76384045
 30
0.0
 11
-111.11838794
 21
-31.67845229
 31
0.0
  0
LINE
  5
1C6
100
AcDbEntity
  8
レイヤー_1
  6
CONTINUOUS
 62
       3
100
AcDbLine
 10
-111.11838794
 20
-31.67845229
 30
0.0
 11
-110.98978292
 21
-31.63558395
 31
0.0
  0
LINE
  5
1C7
100
AcDbEntity
  8
レイヤー_1
  6
CONTINUOUS
 62
       3
100
AcDbLine
 10
-110.98978292
 20
-31.63558395
 30
0.0
 11
-110.7329214
 21
-31.50767598
 31
0.0
  0
LINE
  5
1C8
100
AcDbEntity
  8
レイヤー_1
  6
CONTINUOUS
 62
       3
100
AcDbLine
 10
-110.7329214
 20
-31.50767598
 30
0.0
 11
-110.60431639
 21
-31.4641106
 31
0.0
  0
LINE
  5
1C9
100
AcDbEntity
  8
レイヤー_1
  6
CONTINUOUS
 62
       3
100
AcDbLine
 10
-110.60431639
 20
-31.4641106
 30
0.0
 11
-110.34745487
 21
-31.33620262
 31
0.0
  0
LINE
  5
1CA
100
AcDbEntity
  8
レイヤー_1
  6
CONTINUOUS
 62
       3
100
AcDbLine
 10
-110.34745487
 20
-31.33620262
 30
0.0
 11
-110.26171819
 21
-31.25011742
 31
0.0
  0
LINE
  5
1CB
100
AcDbEntity
  8
レイヤー_1
  6
CONTINUOUS
 62
       3
100
AcDbLine
 10
-110.26171819
 20
-31.25011742
 30
0.0
 11
-110.17598151
 21
-31.20724908
 31
0.0
  0
LINE
  5
1CC
100
AcDbEntity
  8
レイヤー_1
  6
CONTINUOUS
 62
       3
100
AcDbLine
 10
-110.17598151
 20
-31.20724908
 30
0.0
 11
-110.00485668
 21
-31.12220945
 31
0.0
  0
LINE
  5
1CD
100
AcDbEntity
  8
レイヤー_1
  6
CONTINUOUS
 62
       3
100
AcDbLine
 10
-110.00485668
 20
-31.12220945
 30
0.0
 11
-109.91912
 21
-31.03647277
 31
0.0
  0
LINE
  5
1CE
100
AcDbEntity
  8
レイヤー_1
  6
CONTINUOUS
 62
       3
100
AcDbLine
 10
-109.91912
 20
-31.03647277
 30
0.0
 11
-109.74764664
 21
-30.95073609
 31
0.0
  0
LINE
  5
1CF
100
AcDbEntity
  8
レイヤー_1
  6
CONTINUOUS
 62
       3
100
AcDbLine
 10
-109.74764664
 20
-30.95073609
 30
0.0
 11
-109.66225849
 21
-30.86465089
 31
0.0
  0
LINE
  5
1D0
100
AcDbEntity
  8
レイヤー_1
  6
CONTINUOUS
 62
       3
100
AcDbLine
 10
-109.66225849
 20
-30.86465089
 30
0.0
 11
-109.57652181
 21
-30.8224796
 31
0.0
  0
LINE
  5
1D1
100
AcDbEntity
  8
レイヤー_1
  6
CONTINUOUS
 62
       3
100
AcDbLine
 10
-109.57652181
 20
-30.8224796
 30
0.0
 11
-109.49078513
 21
-30.73674292
 31
0.0
  0
LINE
  5
1D2
100
AcDbEntity
  8
レイヤー_1
  6
CONTINUOUS
 62
       3
100
AcDbLine
 10
-109.49078513
 20
-30.73674292
 30
0.0
 11
-109.40504845
 21
-30.69317753
 31
0.0
  0
LINE
  5
1D3
100
AcDbEntity
  8
レイヤー_1
  6
CONTINUOUS
 62
       3
100
AcDbLine
 10
-109.40504845
 20
-30.69317753
 30
0.0
 11
-108.80558875
 21
-30.09371783
 31
0.0
  0
LINE
  5
1D4
100
AcDbEntity
  8
レイヤー_1
  6
CONTINUOUS
 62
       3
100
AcDbLine
 10
-108.80558875
 20
-30.09371783
 30
0.0
 11
-108.76272041
 21
-30.00798115
 31
0.0
  0
LINE
  5
1D5
100
AcDbEntity
  8
レイヤー_1
  6
CONTINUOUS
 62
       3
100
AcDbLine
 10
-108.76272041
 20
-30.00798115
 30
0.0
 11
-108.63446391
 21
-29.88007318
 31
0.0
  0
LINE
  5
1D6
100
AcDbEntity
  8
レイヤー_1
  6
CONTINUOUS
 62
       3
100
AcDbLine
 10
-108.63446391
 20
-29.88007318
 30
0.0
 11
-108.59159557
 21
-29.79398797
 31
0.0
  0
LINE
  5
1D7
100
AcDbEntity
  8
レイヤー_1
  6
CONTINUOUS
 62
       3
100
AcDbLine
 10
-108.59159557
 20
-29.79398797
 30
0.0
 11
-108.46299055
 21
-29.66608
 31
0.0
  0
LINE
  5
1D8
100
AcDbEntity
  8
レイヤー_1
  6
CONTINUOUS
 62
       3
100
AcDbLine
 10
-108.46299055
 20
-29.66608
 30
0.0
 11
-108.42012221
 21
-29.58034332
 31
0.0
  0
LINE
  5
1D9
100
AcDbEntity
  8
レイヤー_1
  6
CONTINUOUS
 62
       3
100
AcDbLine
 10
-108.42012221
 20
-29.58034332
 30
0.0
 11
-108.33438553
 21
-29.40852144
 31
0.0
  0
LINE
  5
1DA
100
AcDbEntity
  8
レイヤー_1
  6
CONTINUOUS
 62
       3
100
AcDbLine
 10
-108.33438553
 20
-29.40852144
 30
0.0
 11
-108.29186572
 21
-29.36635015
 31
0.0
  0
LINE
  5
1DB
100
AcDbEntity
  8
レイヤー_1
  6
CONTINUOUS
 62
       3
100
AcDbLine
 10
-108.29186572
 20
-29.36635015
 30
0.0
 11
-108.03465568
 21
-28.85158155
 31
0.0
  0
LINE
  5
1DC
100
AcDbEntity
  8
レイヤー_1
  6
CONTINUOUS
 62
       3
100
AcDbLine
 10
-108.03465568
 20
-28.85158155
 30
0.0
 11
-108.03465568
 21
-28.7661934
 31
0.0
  0
LINE
  5
1DD
100
AcDbEntity
  8
レイヤー_1
  6
CONTINUOUS
 62
       3
100
AcDbLine
 10
-108.03465568
 20
-28.7661934
 30
0.0
 11
-107.99178734
 21
-28.68115377
 31
0.0
  0
LINE
  5
1DE
100
AcDbEntity
  8
レイヤー_1
  6
CONTINUOUS
 62
       3
100
AcDbLine
 10
-107.99178734
 20
-28.68115377
 30
0.0
 11
-107.948919
 21
-28.63758838
 31
0.0
  0
LINE
  5
1DF
100
AcDbEntity
  8
レイヤー_1
  6
CONTINUOUS
 62
       3
100
AcDbLine
 10
-107.948919
 20
-28.63758838
 30
0.0
 11
-107.90639919
 21
-28.5518517
 31
0.0
  0
LINE
  5
1E0
100
AcDbEntity
  8
レイヤー_1
  6
CONTINUOUS
 62
       3
100
AcDbLine
 10
-107.90639919
 20
-28.5518517
 30
0.0
 11
-107.90639919
 21
-28.38072687
 31
0.0
  0
LINE
  5
1E1
100
AcDbEntity
  8
レイヤー_1
  6
CONTINUOUS
 62
       3
100
AcDbLine
 10
-107.90639919
 20
-28.38072687
 30
0.0
 11
-107.86353085
 21
-28.29568723
 31
0.0
  0
LINE
  5
1E2
100
AcDbEntity
  8
レイヤー_1
  6
CONTINUOUS
 62
       3
100
AcDbLine
 10
-107.86353085
 20
-28.29568723
 30
0.0
 11
-107.86353085
 21
-28.20995055
 31
0.0
  0
LINE
  5
1E3
100
AcDbEntity
  8
レイヤー_1
  6
CONTINUOUS
 62
       3
100
AcDbLine
 10
-107.86353085
 20
-28.20995055
 30
0.0
 11
-107.82066251
 21
-28.12421388
 31
0.0
  0
LINE
  5
1E4
100
AcDbEntity
  8
レイヤー_1
  6
CONTINUOUS
 62
       3
100
AcDbLine
 10
-107.82066251
 20
-28.12421388
 30
0.0
 11
-107.82066251
 21
-28.03812867
 31
0.0
  0
LINE
  5
1E5
100
AcDbEntity
  8
レイヤー_1
  6
CONTINUOUS
 62
       3
100
AcDbLine
 10
-107.82066251
 20
-28.03812867
 30
0.0
 11
-107.77779417
 21
-27.95239199
 31
0.0
  0
LINE
  5
1E6
100
AcDbEntity
  8
レイヤー_1
  6
CONTINUOUS
 62
       3
100
AcDbLine
 10
-107.77779417
 20
-27.95239199
 30
0.0
 11
-107.77779417
 21
-27.69553048
 31
0.0
  0
LINE
  5
1E7
100
AcDbEntity
  8
レイヤー_1
  6
CONTINUOUS
 62
       3
100
AcDbLine
 10
23.52600845
 20
8.91252994
 30
0.0
 11
21.36011591
 21
8.78856308
 31
0.0
  0
LINE
  5
1E8
100
AcDbEntity
  8
レイヤー_1
  6
CONTINUOUS
 62
       3
100
AcDbLine
 10
21.36011591
 20
8.78856308
 30
0.0
 11
21.10290587
 21
8.74639178
 31
0.0
  0
LINE
  5
1E9
100
AcDbEntity
  8
レイヤー_1
  6
CONTINUOUS
 62
       3
100
AcDbLine
 10
21.10290587
 20
8.74639178
 30
0.0
 11
20.88821565
 21
8.53239861
 31
0.0
  0
LINE
  5
1EA
100
AcDbEntity
  8
レイヤー_1
  6
CONTINUOUS
 62
       3
100
AcDbLine
 10
20.88821565
 20
8.53239861
 30
0.0
 11
20.84569583
 21
8.31805691
 31
0.0
  0
LINE
  5
1EB
100
AcDbEntity
  8
レイヤー_1
  6
CONTINUOUS
 62
       3
100
AcDbLine
 10
20.84569583
 20
8.31805691
 30
0.0
 11
20.84569583
 21
-6.7555665
 31
0.0
  0
LINE
  5
1EC
100
AcDbEntity
  8
レイヤー_1
  6
CONTINUOUS
 62
       3
100
AcDbLine
 10
20.84569583
 20
-6.7555665
 30
0.0
 11
20.93143251
 21
-7.01242802
 31
0.0
  0
LINE
  5
1ED
100
AcDbEntity
  8
レイヤー_1
  6
CONTINUOUS
 62
       3
100
AcDbLine
 10
20.93143251
 20
-7.01242802
 30
0.0
 11
21.10290587
 21
-7.18355285
 31
0.0
  0
LINE
  5
1EE
100
AcDbEntity
  8
レイヤー_1
  6
CONTINUOUS
 62
       3
100
AcDbLine
 10
21.10290587
 20
-7.18355285
 30
0.0
 11
21.36011591
 21
-7.26998658
 31
0.0
  0
LINE
  5
1EF
100
AcDbEntity
  8
レイヤー_1
  6
CONTINUOUS
 62
       3
100
AcDbLine
 10
21.36011591
 20
-7.26998658
 30
0.0
 11
23.52600845
 21
-7.33096215
 31
0.0
  0
LINE
  5
1F0
100
AcDbEntity
  8
レイヤー_1
  6
CONTINUOUS
 62
       3
100
AcDbLine
 10
-125.89263002
 20
11.10101375
 30
0.0
 11
-125.72150519
 21
10.58729072
 31
0.0
  0
LINE
  5
1F1
100
AcDbEntity
  8
レイヤー_1
  6
CONTINUOUS
 62
       3
100
AcDbLine
 10
-125.72150519
 20
10.58729072
 30
0.0
 11
-125.378907
 21
10.20182419
 31
0.0
  0
LINE
  5
1F2
100
AcDbEntity
  8
レイヤー_1
  6
CONTINUOUS
 62
       3
100
AcDbLine
 10
-125.378907
 20
10.20182419
 30
0.0
 11
-124.86483545
 21
10.07391621
 31
0.0
  0
LINE
  5
1F3
100
AcDbEntity
  8
レイヤー_1
  6
CONTINUOUS
 62
       3
100
AcDbLine
 10
-103.62374752
 20
10.07391621
 30
0.0
 11
-124.86483545
 21
10.07391621
 31
0.0
  0
LINE
  5
1F4
100
AcDbEntity
  8
レイヤー_1
  6
CONTINUOUS
 62
       3
100
AcDbLine
 10
-103.62374752
 20
10.07391621
 30
0.0
 11
-103.10967597
 21
10.20182419
 31
0.0
  0
LINE
  5
1F5
100
AcDbEntity
  8
レイヤー_1
  6
CONTINUOUS
 62
       3
100
AcDbLine
 10
-103.10967597
 20
10.20182419
 30
0.0
 11
-102.72420944
 21
10.58729072
 31
0.0
  0
LINE
  5
1F6
100
AcDbEntity
  8
レイヤー_1
  6
CONTINUOUS
 62
       3
100
AcDbLine
 10
-102.72420944
 20
10.58729072
 30
0.0
 11
-102.59664999
 21
11.10101375
 31
0.0
  0
LINE
  5
1F7
100
AcDbEntity
  8
レイヤー_1
  6
CONTINUOUS
 62
       3
100
AcDbLine
 10
-102.59664999
 20
36.88056928
 30
0.0
 11
-102.59664999
 21
11.10101375
 31
0.0
  0
LINE
  5
1F8
100
AcDbEntity
  8
レイヤー_1
  6
CONTINUOUS
 62
       3
100
AcDbLine
 10
-102.59664999
 20
36.88056928
 30
0.0
 11
-102.72420944
 21
37.39394378
 31
0.0
  0
LINE
  5
1F9
100
AcDbEntity
  8
レイヤー_1
  6
CONTINUOUS
 62
       3
100
AcDbLine
 10
-102.72420944
 20
37.39394378
 30
0.0
 11
-103.10967597
 21
37.73723902
 31
0.0
  0
LINE
  5
1FA
100
AcDbEntity
  8
レイヤー_1
  6
CONTINUOUS
 62
       3
100
AcDbLine
 10
-103.10967597
 20
37.73723902
 30
0.0
 11
-103.62374752
 21
37.90836386
 31
0.0
  0
LINE
  5
1FB
100
AcDbEntity
  8
レイヤー_1
  6
CONTINUOUS
 62
       3
100
AcDbLine
 10
-124.86483545
 20
37.90836386
 30
0.0
 11
-103.62374752
 21
37.90836386
 31
0.0
  0
LINE
  5
1FC
100
AcDbEntity
  8
レイヤー_1
  6
CONTINUOUS
 62
       3
100
AcDbLine
 10
-124.86483545
 20
37.90836386
 30
0.0
 11
-125.378907
 21
37.73723902
 31
0.0
  0
LINE
  5
1FD
100
AcDbEntity
  8
レイヤー_1
  6
CONTINUOUS
 62
       3
100
AcDbLine
 10
-125.378907
 20
37.73723902
 30
0.0
 11
-125.72150519
 21
37.39394378
 31
0.0
  0
LINE
  5
1FE
100
AcDbEntity
  8
レイヤー_1
  6
CONTINUOUS
 62
       3
100
AcDbLine
 10
-125.72150519
 20
37.39394378
 30
0.0
 11
-125.89263002
 21
36.88056928
 31
0.0
  0
LINE
  5
1FF
100
AcDbEntity
  8
レイヤー_1
  6
CONTINUOUS
 62
       3
100
AcDbLine
 10
-125.89263002
 20
11.10101375
 30
0.0
 11
-125.89263002
 21
36.88056928
 31
0.0
  0
LINE
  5
200
100
AcDbEntity
  8
レイヤー_1
  6
CONTINUOUS
 62
       3
100
AcDbLine
 10
-124.65084227
 20
13.32807626
 30
0.0
 11
-124.60797393
 21
13.07121474
 31
0.0
  0
LINE
  5
201
100
AcDbEntity
  8
レイヤー_1
  6
CONTINUOUS
 62
       3
100
AcDbLine
 10
-124.60797393
 20
13.07121474
 30
0.0
 11
-124.39363223
 21
12.85722157
 31
0.0
  0
LINE
  5
202
100
AcDbEntity
  8
レイヤー_1
  6
CONTINUOUS
 62
       3
100
AcDbLine
 10
-124.39363223
 20
12.85722157
 30
0.0
 11
-124.13677072
 21
12.81400471
 31
0.0
  0
LINE
  5
203
100
AcDbEntity
  8
レイヤー_1
  6
CONTINUOUS
 62
       3
100
AcDbLine
 10
-104.30894391
 20
12.81400471
 30
0.0
 11
-124.13677072
 21
12.81400471
 31
0.0
  0
LINE
  5
204
100
AcDbEntity
  8
レイヤー_1
  6
CONTINUOUS
 62
       3
100
AcDbLine
 10
-104.30894391
 20
12.81400471
 30
0.0
 11
-104.05173387
 21
12.85722157
 31
0.0
  0
LINE
  5
205
100
AcDbEntity
  8
レイヤー_1
  6
CONTINUOUS
 62
       3
100
AcDbLine
 10
-104.05173387
 20
12.85722157
 30
0.0
 11
-103.88060903
 21
13.07121474
 31
0.0
  0
LINE
  5
206
100
AcDbEntity
  8
レイヤー_1
  6
CONTINUOUS
 62
       3
100
AcDbLine
 10
-103.88060903
 20
13.07121474
 30
0.0
 11
-103.8377407
 21
13.32807626
 31
0.0
  0
LINE
  5
207
100
AcDbEntity
  8
レイヤー_1
  6
CONTINUOUS
 62
       3
100
AcDbLine
 10
-103.8377407
 20
35.76703802
 30
0.0
 11
-103.8377407
 21
13.32807626
 31
0.0
  0
LINE
  5
208
100
AcDbEntity
  8
レイヤー_1
  6
CONTINUOUS
 62
       3
100
AcDbLine
 10
-103.8377407
 20
35.76703802
 30
0.0
 11
-103.88060903
 21
36.02389954
 31
0.0
  0
LINE
  5
209
100
AcDbEntity
  8
レイヤー_1
  6
CONTINUOUS
 62
       3
100
AcDbLine
 10
-103.88060903
 20
36.02389954
 30
0.0
 11
-104.05173387
 21
36.19537289
 31
0.0
  0
LINE
  5
20A
100
AcDbEntity
  8
レイヤー_1
  6
CONTINUOUS
 62
       3
100
AcDbLine
 10
-104.05173387
 20
36.19537289
 30
0.0
 11
-104.30894391
 21
36.28110957
 31
0.0
  0
LINE
  5
20B
100
AcDbEntity
  8
レイヤー_1
  6
CONTINUOUS
 62
       3
100
AcDbLine
 10
-124.13677072
 20
36.28110957
 30
0.0
 11
-104.30894391
 21
36.28110957
 31
0.0
  0
LINE
  5
20C
100
AcDbEntity
  8
レイヤー_1
  6
CONTINUOUS
 62
       3
100
AcDbLine
 10
-124.13677072
 20
36.28110957
 30
0.0
 11
-124.39363223
 21
36.19537289
 31
0.0
  0
LINE
  5
20D
100
AcDbEntity
  8
レイヤー_1
  6
CONTINUOUS
 62
       3
100
AcDbLine
 10
-124.39363223
 20
36.19537289
 30
0.0
 11
-124.60797393
 21
36.02389954
 31
0.0
  0
LINE
  5
20E
100
AcDbEntity
  8
レイヤー_1
  6
CONTINUOUS
 62
       3
100
AcDbLine
 10
-124.60797393
 20
36.02389954
 30
0.0
 11
-124.65084227
 21
35.76703802
 31
0.0
  0
LINE
  5
20F
100
AcDbEntity
  8
レイヤー_1
  6
CONTINUOUS
 62
       3
100
AcDbLine
 10
-124.65084227
 20
13.32807626
 30
0.0
 11
-124.65084227
 21
35.76703802
 31
0.0
  0
LINE
  5
210
100
AcDbEntity
  8
レイヤー_1
  6
CONTINUOUS
 62
       3
100
AcDbLine
 10
-70.47399155
 20
-38.77012396
 30
0.0
 11
-68.52504973
 21
-40.7187548
 31
0.0
  0
LINE
  5
211
100
AcDbEntity
  8
レイヤー_1
  6
CONTINUOUS
 62
       3
100
AcDbLine
 10
-51.27174644
 20
40.30585416
 30
0.0
 11
23.52600845
 21
40.30585416
 31
0.0
  0
LINE
  5
212
100
AcDbEntity
  8
レイヤー_1
  6
CONTINUOUS
 62
       3
100
AcDbLine
 10
-51.27174644
 20
-38.57258743
 30
0.0
 11
23.52600845
 21
-38.57258743
 31
0.0
  0
LINE
  5
213
100
AcDbEntity
  8
レイヤー_1
  6
CONTINUOUS
 62
       3
100
AcDbLine
 10
113.02226605
 20
-32.49190517
 30
0.0
 11
113.021569
 21
-32.49190517
 31
0.0
  0
LINE
  5
214
100
AcDbEntity
  8
レイヤー_1
  6
CONTINUOUS
 62
       3
100
AcDbLine
 10
106.33271396
 20
-33.56187104
 30
0.0
 11
106.33271396
 21
-33.56775006
 31
0.0
  0
LINE
  5
215
100
AcDbEntity
  8
レイヤー_1
  6
CONTINUOUS
 62
       3
100
AcDbLine
 10
106.33271396
 20
-33.56775006
 30
0.0
 11
106.33271396
 21
-33.58434526
 31
0.0
  0
LINE
  5
216
100
AcDbEntity
  8
レイヤー_1
  6
CONTINUOUS
 62
       3
100
AcDbLine
 10
106.33271396
 20
-33.58434526
 30
0.0
 11
106.33271396
 21
-33.61009386
 31
0.0
  0
LINE
  5
217
100
AcDbEntity
  8
レイヤー_1
  6
CONTINUOUS
 62
       3
100
AcDbLine
 10
106.33271396
 20
-33.61009386
 30
0.0
 11
106.33271396
 21
-33.64343309
 31
0.0
  0
LINE
  5
218
100
AcDbEntity
  8
レイヤー_1
  6
CONTINUOUS
 62
       3
100
AcDbLine
 10
106.33271396
 20
-33.64343309
 30
0.0
 11
106.33271396
 21
-33.68280018
 31
0.0
  0
LINE
  5
219
100
AcDbEntity
  8
レイヤー_1
  6
CONTINUOUS
 62
       3
100
AcDbLine
 10
106.33271396
 20
-33.68280018
 30
0.0
 11
106.33271396
 21
-33.72663233
 31
0.0
  0
LINE
  5
21A
100
AcDbEntity
  8
レイヤー_1
  6
CONTINUOUS
 62
       3
100
AcDbLine
 10
106.33271396
 20
-33.72663233
 30
0.0
 11
106.33271396
 21
-33.77336679
 31
0.0
  0
LINE
  5
21B
100
AcDbEntity
  8
レイヤー_1
  6
CONTINUOUS
 62
       3
100
AcDbLine
 10
106.33271396
 20
-33.77336679
 30
0.0
 11
106.33271396
 21
-33.82144077
 31
0.0
  0
LINE
  5
21C
100
AcDbEntity
  8
レイヤー_1
  6
CONTINUOUS
 62
       3
100
AcDbLine
 10
106.33271396
 20
-33.82144077
 30
0.0
 11
106.33271396
 21
-33.8692915
 31
0.0
  0
LINE
  5
21D
100
AcDbEntity
  8
レイヤー_1
  6
CONTINUOUS
 62
       3
100
AcDbLine
 10
106.33271396
 20
-33.8692915
 30
0.0
 11
106.33271396
 21
-33.9153562
 31
0.0
  0
LINE
  5
21E
100
AcDbEntity
  8
レイヤー_1
  6
CONTINUOUS
 62
       3
100
AcDbLine
 10
106.33271396
 20
-33.9153562
 30
0.0
 11
106.33271396
 21
-33.95807209
 31
0.0
  0
LINE
  5
21F
100
AcDbEntity
  8
レイヤー_1
  6
CONTINUOUS
 62
       3
100
AcDbLine
 10
106.33271396
 20
-33.95807209
 30
0.0
 11
106.33271396
 21
-33.99587639
 31
0.0
  0
LINE
  5
220
100
AcDbEntity
  8
レイヤー_1
  6
CONTINUOUS
 62
       3
100
AcDbLine
 10
106.33271396
 20
-33.99587639
 30
0.0
 11
106.33271396
 21
-34.02720634
 31
0.0
  0
LINE
  5
221
100
AcDbEntity
  8
レイヤー_1
  6
CONTINUOUS
 62
       3
100
AcDbLine
 10
106.33271396
 20
-34.02720634
 30
0.0
 11
106.33271396
 21
-34.05049915
 31
0.0
  0
LINE
  5
222
100
AcDbEntity
  8
レイヤー_1
  6
CONTINUOUS
 62
       3
100
AcDbLine
 10
106.33271396
 20
-34.05049915
 30
0.0
 11
106.33271396
 21
-34.06419205
 31
0.0
  0
LINE
  5
223
100
AcDbEntity
  8
レイヤー_1
  6
CONTINUOUS
 62
       3
100
AcDbLine
 10
106.33397802
 20
-34.06722952
 30
0.0
 11
106.3572119
 21
-34.06722952
 31
0.0
  0
LINE
  5
224
100
AcDbEntity
  8
レイヤー_1
  6
CONTINUOUS
 62
       3
100
AcDbLine
 10
106.3572119
 20
-34.06722952
 30
0.0
 11
106.40666532
 21
-34.06722952
 31
0.0
  0
LINE
  5
225
100
AcDbEntity
  8
レイヤー_1
  6
CONTINUOUS
 62
       3
100
AcDbLine
 10
106.40666532
 20
-34.06722952
 30
0.0
 11
106.47834834
 21
-34.06722952
 31
0.0
  0
LINE
  5
226
100
AcDbEntity
  8
レイヤー_1
  6
CONTINUOUS
 62
       3
100
AcDbLine
 10
106.47834834
 20
-34.06722952
 30
0.0
 11
106.56827105
 21
-34.06722952
 31
0.0
  0
LINE
  5
227
100
AcDbEntity
  8
レイヤー_1
  6
CONTINUOUS
 62
       3
100
AcDbLine
 10
106.56827105
 20
-34.06722952
 30
0.0
 11
106.67244351
 21
-34.06722952
 31
0.0
  0
LINE
  5
228
100
AcDbEntity
  8
レイヤー_1
  6
CONTINUOUS
 62
       3
100
AcDbLine
 10
106.67244351
 20
-34.06722952
 30
0.0
 11
106.78687579
 21
-34.06722952
 31
0.0
  0
LINE
  5
229
100
AcDbEntity
  8
レイヤー_1
  6
CONTINUOUS
 62
       3
100
AcDbLine
 10
106.78687579
 20
-34.06722952
 30
0.0
 11
106.90757796
 21
-34.06722952
 31
0.0
  0
LINE
  5
22A
100
AcDbEntity
  8
レイヤー_1
  6
CONTINUOUS
 62
       3
100
AcDbLine
 10
106.90757796
 20
-34.06722952
 30
0.0
 11
107.03056008
 21
-34.06722952
 31
0.0
  0
LINE
  5
22B
100
AcDbEntity
  8
レイヤー_1
  6
CONTINUOUS
 62
       3
100
AcDbLine
 10
107.03056008
 20
-34.06722952
 30
0.0
 11
107.15183224
 21
-34.06722952
 31
0.0
  0
LINE
  5
22C
100
AcDbEntity
  8
レイヤー_1
  6
CONTINUOUS
 62
       3
100
AcDbLine
 10
107.15183224
 20
-34.06722952
 30
0.0
 11
107.2674045
 21
-34.06722952
 31
0.0
  0
LINE
  5
22D
100
AcDbEntity
  8
レイヤー_1
  6
CONTINUOUS
 62
       3
100
AcDbLine
 10
107.2674045
 20
-34.06722952
 30
0.0
 11
107.37328693
 21
-34.06722952
 31
0.0
  0
LINE
  5
22E
100
AcDbEntity
  8
レイヤー_1
  6
CONTINUOUS
 62
       3
100
AcDbLine
 10
107.37328693
 20
-34.06722952
 30
0.0
 11
107.46548959
 21
-34.06722952
 31
0.0
  0
LINE
  5
22F
100
AcDbEntity
  8
レイヤー_1
  6
CONTINUOUS
 62
       3
100
AcDbLine
 10
107.46548959
 20
-34.06722952
 30
0.0
 11
107.54002257
 21
-34.06722952
 31
0.0
  0
LINE
  5
230
100
AcDbEntity
  8
レイヤー_1
  6
CONTINUOUS
 62
       3
100
AcDbLine
 10
107.54002257
 20
-34.06722952
 30
0.0
 11
107.59289593
 21
-34.06722952
 31
0.0
  0
LINE
  5
231
100
AcDbEntity
  8
レイヤー_1
  6
CONTINUOUS
 62
       3
100
AcDbLine
 10
107.59289593
 20
-34.06722952
 30
0.0
 11
107.62011974
 21
-34.06722952
 31
0.0
  0
LINE
  5
232
100
AcDbEntity
  8
レイヤー_1
  6
CONTINUOUS
 62
       3
100
AcDbLine
 10
107.62011974
 20
-34.06722952
 30
0.0
 11
107.65184109
 21
-34.16053314
 31
0.0
  0
LINE
  5
233
100
AcDbEntity
  8
レイヤー_1
  6
CONTINUOUS
 62
       3
100
AcDbLine
 10
107.65184109
 20
-34.16053314
 30
0.0
 11
107.71956887
 21
-34.31916361
 31
0.0
  0
LINE
  5
234
100
AcDbEntity
  8
レイヤー_1
  6
CONTINUOUS
 62
       3
100
AcDbLine
 10
107.71956887
 20
-34.31916361
 30
0.0
 11
107.80754762
 21
-34.47132603
 31
0.0
  0
LINE
  5
235
100
AcDbEntity
  8
レイヤー_1
  6
CONTINUOUS
 62
       3
100
AcDbLine
 10
107.80754762
 20
-34.47132603
 30
0.0
 11
107.91392032
 21
-34.6163802
 31
0.0
  0
LINE
  5
236
100
AcDbEntity
  8
レイヤー_1
  6
CONTINUOUS
 62
       3
100
AcDbLine
 10
107.91392032
 20
-34.6163802
 30
0.0
 11
108.03682997
 21
-34.75368593
 31
0.0
  0
LINE
  5
237
100
AcDbEntity
  8
レイヤー_1
  6
CONTINUOUS
 62
       3
100
AcDbLine
 10
108.03682997
 20
-34.75368593
 30
0.0
 11
108.17441955
 21
-34.88260301
 31
0.0
  0
LINE
  5
238
100
AcDbEntity
  8
レイヤー_1
  6
CONTINUOUS
 62
       3
100
AcDbLine
 10
108.17441955
 20
-34.88260301
 30
0.0
 11
108.32483207
 21
-35.00249125
 31
0.0
  0
LINE
  5
239
100
AcDbEntity
  8
レイヤー_1
  6
CONTINUOUS
 62
       3
100
AcDbLine
 10
108.32483207
 20
-35.00249125
 30
0.0
 11
108.4862105
 21
-35.11271044
 31
0.0
  0
LINE
  5
23A
100
AcDbEntity
  8
レイヤー_1
  6
CONTINUOUS
 62
       3
100
AcDbLine
 10
108.4862105
 20
-35.11271044
 30
0.0
 11
108.65669784
 21
-35.21262039
 31
0.0
  0
LINE
  5
23B
100
AcDbEntity
  8
レイヤー_1
  6
CONTINUOUS
 62
       3
100
AcDbLine
 10
108.65669784
 20
-35.21262039
 30
0.0
 11
108.83443707
 21
-35.3015809
 31
0.0
  0
LINE
  5
23C
100
AcDbEntity
  8
レイヤー_1
  6
CONTINUOUS
 62
       3
100
AcDbLine
 10
108.83443707
 20
-35.3015809
 30
0.0
 11
109.0175712
 21
-35.37895176
 31
0.0
  0
LINE
  5
23D
100
AcDbEntity
  8
レイヤー_1
  6
CONTINUOUS
 62
       3
100
AcDbLine
 10
109.0175712
 20
-35.37895176
 30
0.0
 11
109.20424321
 21
-35.44409278
 31
0.0
  0
LINE
  5
23E
100
AcDbEntity
  8
レイヤー_1
  6
CONTINUOUS
 62
       3
100
AcDbLine
 10
109.20424321
 20
-35.44409278
 30
0.0
 11
109.39259608
 21
-35.49636376
 31
0.0
  0
LINE
  5
23F
100
AcDbEntity
  8
レイヤー_1
  6
CONTINUOUS
 62
       3
100
AcDbLine
 10
109.39259608
 20
-35.49636376
 30
0.0
 11
109.58077282
 21
-35.5351245
 31
0.0
  0
LINE
  5
240
100
AcDbEntity
  8
レイヤー_1
  6
CONTINUOUS
 62
       3
100
AcDbLine
 10
109.58077282
 20
-35.5351245
 30
0.0
 11
109.76691641
 21
-35.5597348
 31
0.0
  0
LINE
  5
241
100
AcDbEntity
  8
レイヤー_1
  6
CONTINUOUS
 62
       3
100
AcDbLine
 10
109.76691641
 20
-35.5597348
 30
0.0
 11
109.94916984
 21
-35.56955446
 31
0.0
  0
LINE
  5
242
100
AcDbEntity
  8
レイヤー_1
  6
CONTINUOUS
 62
       3
100
AcDbLine
 10
109.94916984
 20
-35.56955446
 30
0.0
 11
110.12988361
 21
-35.56407766
 31
0.0
  0
LINE
  5
243
100
AcDbEntity
  8
レイヤー_1
  6
CONTINUOUS
 62
       3
100
AcDbLine
 10
110.12988361
 20
-35.56407766
 30
0.0
 11
110.31490492
 21
-35.54362793
 31
0.0
  0
LINE
  5
244
100
AcDbEntity
  8
レイヤー_1
  6
CONTINUOUS
 62
       3
100
AcDbLine
 10
110.31490492
 20
-35.54362793
 30
0.0
 11
110.50253475
 21
-35.50884485
 31
0.0
  0
LINE
  5
245
100
AcDbEntity
  8
レイヤー_1
  6
CONTINUOUS
 62
       3
100
AcDbLine
 10
110.50253475
 20
-35.50884485
 30
0.0
 11
110.69091286
 21
-35.46036861
 31
0.0
  0
LINE
  5
246
100
AcDbEntity
  8
レイヤー_1
  6
CONTINUOUS
 62
       3
100
AcDbLine
 10
110.69091286
 20
-35.46036861
 30
0.0
 11
110.87817902
 21
-35.39883942
 31
0.0
  0
LINE
  5
247
100
AcDbEntity
  8
レイヤー_1
  6
CONTINUOUS
 62
       3
100
AcDbLine
 10
110.87817902
 20
-35.39883942
 30
0.0
 11
111.06247298
 21
-35.32489747
 31
0.0
  0
LINE
  5
248
100
AcDbEntity
  8
レイヤー_1
  6
CONTINUOUS
 62
       3
100
AcDbLine
 10
111.06247298
 20
-35.32489747
 30
0.0
 11
111.24193449
 21
-35.23918297
 31
0.0
  0
LINE
  5
249
100
AcDbEntity
  8
レイヤー_1
  6
CONTINUOUS
 62
       3
100
AcDbLine
 10
111.24193449
 20
-35.23918297
 30
0.0
 11
111.41470332
 21
-35.1423361
 31
0.0
  0
LINE
  5
24A
100
AcDbEntity
  8
レイヤー_1
  6
CONTINUOUS
 62
       3
100
AcDbLine
 10
111.41470332
 20
-35.1423361
 30
0.0
 11
111.57891922
 21
-35.03499708
 31
0.0
  0
LINE
  5
24B
100
AcDbEntity
  8
レイヤー_1
  6
CONTINUOUS
 62
       3
100
AcDbLine
 10
111.57891922
 20
-35.03499708
 30
0.0
 11
111.73272195
 21
-34.9178061
 31
0.0
  0
LINE
  5
24C
100
AcDbEntity
  8
レイヤー_1
  6
CONTINUOUS
 62
       3
100
AcDbLine
 10
111.73272195
 20
-34.9178061
 30
0.0
 11
111.87425126
 21
-34.79140336
 31
0.0
  0
LINE
  5
24D
100
AcDbEntity
  8
レイヤー_1
  6
CONTINUOUS
 62
       3
100
AcDbLine
 10
111.87425126
 20
-34.79140336
 30
0.0
 11
112.00164691
 21
-34.65642907
 31
0.0
  0
LINE
  5
24E
100
AcDbEntity
  8
レイヤー_1
  6
CONTINUOUS
 62
       3
100
AcDbLine
 10
112.00164691
 20
-34.65642907
 30
0.0
 11
112.11304866
 21
-34.51352341
 31
0.0
  0
LINE
  5
24F
100
AcDbEntity
  8
レイヤー_1
  6
CONTINUOUS
 62
       3
100
AcDbLine
 10
112.11304866
 20
-34.51352341
 30
0.0
 11
112.20659627
 21
-34.36332659
 31
0.0
  0
LINE
  5
250
100
AcDbEntity
  8
レイヤー_1
  6
CONTINUOUS
 62
       3
100
AcDbLine
 10
112.20659627
 20
-34.36332659
 30
0.0
 11
112.28042949
 21
-34.20647881
 31
0.0
  0
LINE
  5
251
100
AcDbEntity
  8
レイヤー_1
  6
CONTINUOUS
 62
       3
100
AcDbLine
 10
112.28042949
 20
-34.20647881
 30
0.0
 11
112.32693176
 21
-34.06722952
 31
0.0
  0
LINE
  5
252
100
AcDbEntity
  8
レイヤー_1
  6
CONTINUOUS
 62
       3
100
AcDbLine
 10
112.32693176
 20
-34.06722952
 30
0.0
 11
112.34608392
 21
-34.06722952
 31
0.0
  0
LINE
  5
253
100
AcDbEntity
  8
レイヤー_1
  6
CONTINUOUS
 62
       3
100
AcDbLine
 10
112.34608392
 20
-34.06722952
 30
0.0
 11
112.39201115
 21
-34.06722952
 31
0.0
  0
LINE
  5
254
100
AcDbEntity
  8
レイヤー_1
  6
CONTINUOUS
 62
       3
100
AcDbLine
 10
112.39201115
 20
-34.06722952
 30
0.0
 11
112.46072566
 21
-34.06722952
 31
0.0
  0
LINE
  5
255
100
AcDbEntity
  8
レイヤー_1
  6
CONTINUOUS
 62
       3
100
AcDbLine
 10
112.46072566
 20
-34.06722952
 30
0.0
 11
112.54823967
 21
-34.06722952
 31
0.0
  0
LINE
  5
256
100
AcDbEntity
  8
レイヤー_1
  6
CONTINUOUS
 62
       3
100
AcDbLine
 10
112.54823967
 20
-34.06722952
 30
0.0
 11
112.65056542
 21
-34.06722952
 31
0.0
  0
LINE
  5
257
100
AcDbEntity
  8
レイヤー_1
  6
CONTINUOUS
 62
       3
100
AcDbLine
 10
112.65056542
 20
-34.06722952
 30
0.0
 11
112.76371513
 21
-34.06722952
 31
0.0
  0
LINE
  5
258
100
AcDbEntity
  8
レイヤー_1
  6
CONTINUOUS
 62
       3
100
AcDbLine
 10
112.76371513
 20
-34.06722952
 30
0.0
 11
112.88370102
 21
-34.06722952
 31
0.0
  0
LINE
  5
259
100
AcDbEntity
  8
レイヤー_1
  6
CONTINUOUS
 62
       3
100
AcDbLine
 10
112.88370102
 20
-34.06722952
 30
0.0
 11
113.00653533
 21
-34.06722952
 31
0.0
  0
LINE
  5
25A
100
AcDbEntity
  8
レイヤー_1
  6
CONTINUOUS
 62
       3
100
AcDbLine
 10
113.00653533
 20
-34.06722952
 30
0.0
 11
113.12823027
 21
-34.06722952
 31
0.0
  0
LINE
  5
25B
100
AcDbEntity
  8
レイヤー_1
  6
CONTINUOUS
 62
       3
100
AcDbLine
 10
113.12823027
 20
-34.06722952
 30
0.0
 11
113.24479807
 21
-34.06722952
 31
0.0
  0
LINE
  5
25C
100
AcDbEntity
  8
レイヤー_1
  6
CONTINUOUS
 62
       3
100
AcDbLine
 10
113.24479807
 20
-34.06722952
 30
0.0
 11
113.35225095
 21
-34.06722952
 31
0.0
  0
LINE
  5
25D
100
AcDbEntity
  8
レイヤー_1
  6
CONTINUOUS
 62
       3
100
AcDbLine
 10
113.35225095
 20
-34.06722952
 30
0.0
 11
113.44660115
 21
-34.06722952
 31
0.0
  0
LINE
  5
25E
100
AcDbEntity
  8
レイヤー_1
  6
CONTINUOUS
 62
       3
100
AcDbLine
 10
113.44660115
 20
-34.06722952
 30
0.0
 11
113.52386089
 21
-34.06722952
 31
0.0
  0
LINE
  5
25F
100
AcDbEntity
  8
レイヤー_1
  6
CONTINUOUS
 62
       3
100
AcDbLine
 10
113.52386089
 20
-34.06722952
 30
0.0
 11
113.5800424
 21
-34.06722952
 31
0.0
  0
LINE
  5
260
100
AcDbEntity
  8
レイヤー_1
  6
CONTINUOUS
 62
       3
100
AcDbLine
 10
113.5800424
 20
-34.06722952
 30
0.0
 11
113.61115789
 21
-34.06722952
 31
0.0
  0
LINE
  5
261
100
AcDbEntity
  8
レイヤー_1
  6
CONTINUOUS
 62
       3
100
AcDbLine
 10
113.61115789
 20
-34.06722952
 30
0.0
 11
113.61614939
 21
-34.06612236
 31
0.0
  0
LINE
  5
262
100
AcDbEntity
  8
レイヤー_1
  6
CONTINUOUS
 62
       3
100
AcDbLine
 10
113.61614939
 20
-34.06612236
 30
0.0
 11
113.61614939
 21
-34.05545933
 31
0.0
  0
LINE
  5
263
100
AcDbEntity
  8
レイヤー_1
  6
CONTINUOUS
 62
       3
100
AcDbLine
 10
113.61614939
 20
-34.05545933
 30
0.0
 11
113.61614939
 21
-34.03474989
 31
0.0
  0
LINE
  5
264
100
AcDbEntity
  8
レイヤー_1
  6
CONTINUOUS
 62
       3
100
AcDbLine
 10
113.61614939
 20
-34.03474989
 30
0.0
 11
113.61614939
 21
-34.0055568
 31
0.0
  0
LINE
  5
265
100
AcDbEntity
  8
レイヤー_1
  6
CONTINUOUS
 62
       3
100
AcDbLine
 10
113.61614939
 20
-34.0055568
 30
0.0
 11
113.61614939
 21
-33.96944284
 31
0.0
  0
LINE
  5
266
100
AcDbEntity
  8
レイヤー_1
  6
CONTINUOUS
 62
       3
100
AcDbLine
 10
113.61614939
 20
-33.96944284
 30
0.0
 11
113.61614939
 21
-33.92797079
 31
0.0
  0
LINE
  5
267
100
AcDbEntity
  8
レイヤー_1
  6
CONTINUOUS
 62
       3
100
AcDbLine
 10
113.61614939
 20
-33.92797079
 30
0.0
 11
113.61614939
 21
-33.88270343
 31
0.0
  0
LINE
  5
268
100
AcDbEntity
  8
レイヤー_1
  6
CONTINUOUS
 62
       3
100
AcDbLine
 10
113.61614939
 20
-33.88270343
 30
0.0
 11
113.61614939
 21
-33.83520353
 31
0.0
  0
LINE
  5
269
100
AcDbEntity
  8
レイヤー_1
  6
CONTINUOUS
 62
       3
100
AcDbLine
 10
113.61614939
 20
-33.83520353
 30
0.0
 11
113.61614939
 21
-33.78703387
 31
0.0
  0
LINE
  5
26A
100
AcDbEntity
  8
レイヤー_1
  6
CONTINUOUS
 62
       3
100
AcDbLine
 10
113.61614939
 20
-33.78703387
 30
0.0
 11
113.61614939
 21
-33.73975723
 31
0.0
  0
LINE
  5
26B
100
AcDbEntity
  8
レイヤー_1
  6
CONTINUOUS
 62
       3
100
AcDbLine
 10
113.61614939
 20
-33.73975723
 30
0.0
 11
113.61614939
 21
-33.69493637
 31
0.0
  0
LINE
  5
26C
100
AcDbEntity
  8
レイヤー_1
  6
CONTINUOUS
 62
       3
100
AcDbLine
 10
113.61614939
 20
-33.69493637
 30
0.0
 11
113.61614939
 21
-33.65413409
 31
0.0
  0
LINE
  5
26D
100
AcDbEntity
  8
レイヤー_1
  6
CONTINUOUS
 62
       3
100
AcDbLine
 10
113.61614939
 20
-33.65413409
 30
0.0
 11
113.61614939
 21
-33.61891314
 31
0.0
  0
LINE
  5
26E
100
AcDbEntity
  8
レイヤー_1
  6
CONTINUOUS
 62
       3
100
AcDbLine
 10
113.61614939
 20
-33.61891314
 30
0.0
 11
113.61614939
 21
-33.59083632
 31
0.0
  0
LINE
  5
26F
100
AcDbEntity
  8
レイヤー_1
  6
CONTINUOUS
 62
       3
100
AcDbLine
 10
113.61614939
 20
-33.59083632
 30
0.0
 11
113.61614939
 21
-33.5714664
 31
0.0
  0
LINE
  5
270
100
AcDbEntity
  8
レイヤー_1
  6
CONTINUOUS
 62
       3
100
AcDbLine
 10
113.61614939
 20
-33.5714664
 30
0.0
 11
113.61614939
 21
-33.56236615
 31
0.0
  0
LINE
  5
271
100
AcDbEntity
  8
レイヤー_1
  6
CONTINUOUS
 62
       3
100
AcDbLine
 10
113.61614939
 20
-33.56236615
 30
0.0
 11
113.57237216
 21
-33.56187104
 31
0.0
  0
LINE
  5
272
100
AcDbEntity
  8
レイヤー_1
  6
CONTINUOUS
 62
       3
100
AcDbLine
 10
113.57237216
 20
-33.56187104
 30
0.0
 11
113.37502444
 21
-33.56187104
 31
0.0
  0
LINE
  5
273
100
AcDbEntity
  8
レイヤー_1
  6
CONTINUOUS
 62
       3
100
AcDbLine
 10
113.37502444
 20
-33.56187104
 30
0.0
 11
113.03931881
 21
-33.56187104
 31
0.0
  0
LINE
  5
274
100
AcDbEntity
  8
レイヤー_1
  6
CONTINUOUS
 62
       3
100
AcDbLine
 10
113.03931881
 20
-33.56187104
 30
0.0
 11
112.58777865
 21
-33.56187104
 31
0.0
  0
LINE
  5
275
100
AcDbEntity
  8
レイヤー_1
  6
CONTINUOUS
 62
       3
100
AcDbLine
 10
112.58777865
 20
-33.56187104
 30
0.0
 11
112.04292734
 21
-33.56187104
 31
0.0
  0
LINE
  5
276
100
AcDbEntity
  8
レイヤー_1
  6
CONTINUOUS
 62
       3
100
AcDbLine
 10
112.04292734
 20
-33.56187104
 30
0.0
 11
111.42728825
 21
-33.56187104
 31
0.0
  0
LINE
  5
277
100
AcDbEntity
  8
レイヤー_1
  6
CONTINUOUS
 62
       3
100
AcDbLine
 10
111.42728825
 20
-33.56187104
 30
0.0
 11
110.76338478
 21
-33.56187104
 31
0.0
  0
LINE
  5
278
100
AcDbEntity
  8
レイヤー_1
  6
CONTINUOUS
 62
       3
100
AcDbLine
 10
110.76338478
 20
-33.56187104
 30
0.0
 11
110.0737403
 21
-33.56187104
 31
0.0
  0
LINE
  5
279
100
AcDbEntity
  8
レイヤー_1
  6
CONTINUOUS
 62
       3
100
AcDbLine
 10
110.0737403
 20
-33.56187104
 30
0.0
 11
109.3808782
 21
-33.56187104
 31
0.0
  0
LINE
  5
27A
100
AcDbEntity
  8
レイヤー_1
  6
CONTINUOUS
 62
       3
100
AcDbLine
 10
109.3808782
 20
-33.56187104
 30
0.0
 11
108.70732185
 21
-33.56187104
 31
0.0
  0
LINE
  5
27B
100
AcDbEntity
  8
レイヤー_1
  6
CONTINUOUS
 62
       3
100
AcDbLine
 10
108.70732185
 20
-33.56187104
 30
0.0
 11
108.07559464
 21
-33.56187104
 31
0.0
  0
LINE
  5
27C
100
AcDbEntity
  8
レイヤー_1
  6
CONTINUOUS
 62
       3
100
AcDbLine
 10
108.07559464
 20
-33.56187104
 30
0.0
 11
107.50821995
 21
-33.56187104
 31
0.0
  0
LINE
  5
27D
100
AcDbEntity
  8
レイヤー_1
  6
CONTINUOUS
 62
       3
100
AcDbLine
 10
107.50821995
 20
-33.56187104
 30
0.0
 11
107.02772115
 21
-33.56187104
 31
0.0
  0
LINE
  5
27E
100
AcDbEntity
  8
レイヤー_1
  6
CONTINUOUS
 62
       3
100
AcDbLine
 10
107.02772115
 20
-33.56187104
 30
0.0
 11
106.65662163
 21
-33.56187104
 31
0.0
  0
LINE
  5
27F
100
AcDbEntity
  8
レイヤー_1
  6
CONTINUOUS
 62
       3
100
AcDbLine
 10
106.65662163
 20
-33.56187104
 30
0.0
 11
106.41744478
 21
-33.56187104
 31
0.0
  0
LINE
  5
280
100
AcDbEntity
  8
レイヤー_1
  6
CONTINUOUS
 62
       3
100
AcDbLine
 10
106.41744478
 20
-33.56187104
 30
0.0
 11
106.33271396
 21
-33.56187104
 31
0.0
  0
LINE
  5
281
100
AcDbEntity
  8
レイヤー_1
  6
CONTINUOUS
 62
       3
100
AcDbLine
 10
113.63218145
 20
-4.44137322
 30
0.0
 11
113.86132639
 21
-4.42996636
 31
0.0
  0
LINE
  5
282
100
AcDbEntity
  8
レイヤー_1
  6
CONTINUOUS
 62
       3
100
AcDbLine
 10
113.86132639
 20
-4.42996636
 30
0.0
 11
114.0839918
 21
-4.39647677
 31
0.0
  0
LINE
  5
283
100
AcDbEntity
  8
レイヤー_1
  6
CONTINUOUS
 62
       3
100
AcDbLine
 10
114.0839918
 20
-4.39647677
 30
0.0
 11
114.29908313
 21
-4.34200095
 31
0.0
  0
LINE
  5
284
100
AcDbEntity
  8
レイヤー_1
  6
CONTINUOUS
 62
       3
100
AcDbLine
 10
114.29908313
 20
-4.34200095
 30
0.0
 11
114.50550585
 21
-4.26763538
 31
0.0
  0
LINE
  5
285
100
AcDbEntity
  8
レイヤー_1
  6
CONTINUOUS
 62
       3
100
AcDbLine
 10
114.50550585
 20
-4.26763538
 30
0.0
 11
114.7021654
 21
-4.17447656
 31
0.0
  0
LINE
  5
286
100
AcDbEntity
  8
レイヤー_1
  6
CONTINUOUS
 62
       3
100
AcDbLine
 10
114.7021654
 20
-4.17447656
 30
0.0
 11
114.88796726
 21
-4.06362097
 31
0.0
  0
LINE
  5
287
100
AcDbEntity
  8
レイヤー_1
  6
CONTINUOUS
 62
       3
100
AcDbLine
 10
114.88796726
 20
-4.06362097
 30
0.0
 11
115.06181687
 21
-3.93616512
 31
0.0
  0
LINE
  5
288
100
AcDbEntity
  8
レイヤー_1
  6
CONTINUOUS
 62
       3
100
AcDbLine
 10
115.06181687
 20
-3.93616512
 30
0.0
 11
115.2226197
 21
-3.79320549
 31
0.0
  0
LINE
  5
289
100
AcDbEntity
  8
レイヤー_1
  6
CONTINUOUS
 62
       3
100
AcDbLine
 10
115.2226197
 20
-3.79320549
 30
0.0
 11
115.3692812
 21
-3.63583857
 31
0.0
  0
LINE
  5
28A
100
AcDbEntity
  8
レイヤー_1
  6
CONTINUOUS
 62
       3
100
AcDbLine
 10
115.3692812
 20
-3.63583857
 30
0.0
 11
115.50070683
 21
-3.46516085
 31
0.0
  0
LINE
  5
28B
100
AcDbEntity
  8
レイヤー_1
  6
CONTINUOUS
 62
       3
100
AcDbLine
 10
115.50070683
 20
-3.46516085
 30
0.0
 11
115.61580204
 21
-3.28226883
 31
0.0
  0
LINE
  5
28C
100
AcDbEntity
  8
レイヤー_1
  6
CONTINUOUS
 62
       3
100
AcDbLine
 10
115.61580204
 20
-3.28226883
 30
0.0
 11
115.71347231
 21
-3.088259
 31
0.0
  0
LINE
  5
28D
100
AcDbEntity
  8
レイヤー_1
  6
CONTINUOUS
 62
       3
100
AcDbLine
 10
115.71347231
 20
-3.088259
 30
0.0
 11
115.79262308
 21
-2.88422784
 31
0.0
  0
LINE
  5
28E
100
AcDbEntity
  8
レイヤー_1
  6
CONTINUOUS
 62
       3
100
AcDbLine
 10
115.79262308
 20
-2.88422784
 30
0.0
 11
115.85215981
 21
-2.67127185
 31
0.0
  0
LINE
  5
28F
100
AcDbEntity
  8
レイヤー_1
  6
CONTINUOUS
 62
       3
100
AcDbLine
 10
115.85215981
 20
-2.67127185
 30
0.0
 11
115.89098796
 21
-2.45048753
 31
0.0
  0
LINE
  5
290
100
AcDbEntity
  8
レイヤー_1
  6
CONTINUOUS
 62
       3
100
AcDbLine
 10
115.89098796
 20
-2.45048753
 30
0.0
 11
115.90801299
 21
-2.22297135
 31
0.0
  0
LINE
  5
291
100
AcDbEntity
  8
レイヤー_1
  6
CONTINUOUS
 62
       3
100
AcDbLine
 10
115.90801299
 20
-2.22297135
 30
0.0
 11
115.90229427
 21
-1.9927038
 31
0.0
  0
LINE
  5
292
100
AcDbEntity
  8
レイヤー_1
  6
CONTINUOUS
 62
       3
100
AcDbLine
 10
115.90229427
 20
-1.9927038
 30
0.0
 11
115.87423086
 21
-1.76827924
 31
0.0
  0
LINE
  5
293
100
AcDbEntity
  8
レイヤー_1
  6
CONTINUOUS
 62
       3
100
AcDbLine
 10
115.87423086
 20
-1.76827924
 30
0.0
 11
115.82491161
 21
-1.55117462
 31
0.0
  0
LINE
  5
294
100
AcDbEntity
  8
レイヤー_1
  6
CONTINUOUS
 62
       3
100
AcDbLine
 10
115.82491161
 20
-1.55117462
 30
0.0
 11
115.75543104
 21
-1.34248204
 31
0.0
  0
LINE
  5
295
100
AcDbEntity
  8
レイヤー_1
  6
CONTINUOUS
 62
       3
100
AcDbLine
 10
115.75543104
 20
-1.34248204
 30
0.0
 11
115.6668837
 21
-1.14329359
 31
0.0
  0
LINE
  5
296
100
AcDbEntity
  8
レイヤー_1
  6
CONTINUOUS
 62
       3
100
AcDbLine
 10
115.6668837
 20
-1.14329359
 30
0.0
 11
115.56036415
 21
-0.9547014
 31
0.0
  0
LINE
  5
297
100
AcDbEntity
  8
レイヤー_1
  6
CONTINUOUS
 62
       3
100
AcDbLine
 10
115.56036415
 20
-0.9547014
 30
0.0
 11
115.4369669
 21
-0.77779756
 31
0.0
  0
LINE
  5
298
100
AcDbEntity
  8
レイヤー_1
  6
CONTINUOUS
 62
       3
100
AcDbLine
 10
115.4369669
 20
-0.77779756
 30
0.0
 11
115.29778652
 21
-0.61367419
 31
0.0
  0
LINE
  5
299
100
AcDbEntity
  8
レイヤー_1
  6
CONTINUOUS
 62
       3
100
AcDbLine
 10
115.29778652
 20
-0.61367419
 30
0.0
 11
115.14391754
 21
-0.46342337
 31
0.0
  0
LINE
  5
29A
100
AcDbEntity
  8
レイヤー_1
  6
CONTINUOUS
 62
       3
100
AcDbLine
 10
115.14391754
 20
-0.46342337
 30
0.0
 11
114.9764545
 21
-0.32813723
 31
0.0
  0
LINE
  5
29B
100
AcDbEntity
  8
レイヤー_1
  6
CONTINUOUS
 62
       3
100
AcDbLine
 10
114.9764545
 20
-0.32813723
 30
0.0
 11
114.79649195
 21
-0.20890787
 31
0.0
  0
LINE
  5
29C
100
AcDbEntity
  8
レイヤー_1
  6
CONTINUOUS
 62
       3
100
AcDbLine
 10
114.79649195
 20
-0.20890787
 30
0.0
 11
114.60512443
 21
-0.10682738
 31
0.0
  0
LINE
  5
29D
100
AcDbEntity
  8
レイヤー_1
  6
CONTINUOUS
 62
       3
100
AcDbLine
 10
114.60512443
 20
-0.10682738
 30
0.0
 11
114.40344648
 21
-0.02298788
 31
0.0
  0
LINE
  5
29E
100
AcDbEntity
  8
レイヤー_1
  6
CONTINUOUS
 62
       3
100
AcDbLine
 10
114.40344648
 20
-0.02298788
 30
0.0
 11
114.19255263
 21
0.04151852
 31
0.0
  0
LINE
  5
29F
100
AcDbEntity
  8
レイヤー_1
  6
CONTINUOUS
 62
       3
100
AcDbLine
 10
114.19255263
 20
0.04151852
 30
0.0
 11
113.97353745
 21
0.08559973
 31
0.0
  0
LINE
  5
2A0
100
AcDbEntity
  8
レイヤー_1
  6
CONTINUOUS
 62
       3
100
AcDbLine
 10
113.97353745
 20
0.08559973
 30
0.0
 11
113.74749545
 21
0.10816363
 31
0.0
  0
LINE
  5
2A1
100
AcDbEntity
  8
レイヤー_1
  6
CONTINUOUS
 62
       3
100
AcDbLine
 10
113.74749545
 20
0.10816363
 30
0.0
 11
113.51686745
 21
0.10816363
 31
0.0
  0
LINE
  5
2A2
100
AcDbEntity
  8
レイヤー_1
  6
CONTINUOUS
 62
       3
100
AcDbLine
 10
113.51686745
 20
0.10816363
 30
0.0
 11
113.29082545
 21
0.08559973
 31
0.0
  0
LINE
  5
2A3
100
AcDbEntity
  8
レイヤー_1
  6
CONTINUOUS
 62
       3
100
AcDbLine
 10
113.29082545
 20
0.08559973
 30
0.0
 11
113.07181027
 21
0.04151852
 31
0.0
  0
LINE
  5
2A4
100
AcDbEntity
  8
レイヤー_1
  6
CONTINUOUS
 62
       3
100
AcDbLine
 10
113.07181027
 20
0.04151852
 30
0.0
 11
112.86091642
 21
-0.02298788
 31
0.0
  0
LINE
  5
2A5
100
AcDbEntity
  8
レイヤー_1
  6
CONTINUOUS
 62
       3
100
AcDbLine
 10
112.86091642
 20
-0.02298788
 30
0.0
 11
112.65923847
 21
-0.10682738
 31
0.0
  0
LINE
  5
2A6
100
AcDbEntity
  8
レイヤー_1
  6
CONTINUOUS
 62
       3
100
AcDbLine
 10
112.65923847
 20
-0.10682738
 30
0.0
 11
112.46787095
 21
-0.20890787
 31
0.0
  0
LINE
  5
2A7
100
AcDbEntity
  8
レイヤー_1
  6
CONTINUOUS
 62
       3
100
AcDbLine
 10
112.46787095
 20
-0.20890787
 30
0.0
 11
112.28790839
 21
-0.32813723
 31
0.0
  0
LINE
  5
2A8
100
AcDbEntity
  8
レイヤー_1
  6
CONTINUOUS
 62
       3
100
AcDbLine
 10
112.28790839
 20
-0.32813723
 30
0.0
 11
112.12044536
 21
-0.46342337
 31
0.0
  0
LINE
  5
2A9
100
AcDbEntity
  8
レイヤー_1
  6
CONTINUOUS
 62
       3
100
AcDbLine
 10
112.12044536
 20
-0.46342337
 30
0.0
 11
111.96657638
 21
-0.61367419
 31
0.0
  0
LINE
  5
2AA
100
AcDbEntity
  8
レイヤー_1
  6
CONTINUOUS
 62
       3
100
AcDbLine
 10
111.96657638
 20
-0.61367419
 30
0.0
 11
111.82739599
 21
-0.77779756
 31
0.0
  0
LINE
  5
2AB
100
AcDbEntity
  8
レイヤー_1
  6
CONTINUOUS
 62
       3
100
AcDbLine
 10
111.82739599
 20
-0.77779756
 30
0.0
 11
111.70399875
 21
-0.9547014
 31
0.0
  0
LINE
  5
2AC
100
AcDbEntity
  8
レイヤー_1
  6
CONTINUOUS
 62
       3
100
AcDbLine
 10
111.70399875
 20
-0.9547014
 30
0.0
 11
111.59747919
 21
-1.14329359
 31
0.0
  0
LINE
  5
2AD
100
AcDbEntity
  8
レイヤー_1
  6
CONTINUOUS
 62
       3
100
AcDbLine
 10
111.59747919
 20
-1.14329359
 30
0.0
 11
111.50893186
 21
-1.34248204
 31
0.0
  0
LINE
  5
2AE
100
AcDbEntity
  8
レイヤー_1
  6
CONTINUOUS
 62
       3
100
AcDbLine
 10
111.50893186
 20
-1.34248204
 30
0.0
 11
111.43945129
 21
-1.55117462
 31
0.0
  0
LINE
  5
2AF
100
AcDbEntity
  8
レイヤー_1
  6
CONTINUOUS
 62
       3
100
AcDbLine
 10
111.43945129
 20
-1.55117462
 30
0.0
 11
111.39013204
 21
-1.76827924
 31
0.0
  0
LINE
  5
2B0
100
AcDbEntity
  8
レイヤー_1
  6
CONTINUOUS
 62
       3
100
AcDbLine
 10
111.39013204
 20
-1.76827924
 30
0.0
 11
111.36206863
 21
-1.9927038
 31
0.0
  0
LINE
  5
2B1
100
AcDbEntity
  8
レイヤー_1
  6
CONTINUOUS
 62
       3
100
AcDbLine
 10
111.36206863
 20
-1.9927038
 30
0.0
 11
111.35634991
 21
-2.22297135
 31
0.0
  0
LINE
  5
2B2
100
AcDbEntity
  8
レイヤー_1
  6
CONTINUOUS
 62
       3
100
AcDbLine
 10
111.35634991
 20
-2.22297135
 30
0.0
 11
111.37337494
 21
-2.45048753
 31
0.0
  0
LINE
  5
2B3
100
AcDbEntity
  8
レイヤー_1
  6
CONTINUOUS
 62
       3
100
AcDbLine
 10
111.37337494
 20
-2.45048753
 30
0.0
 11
111.41220309
 21
-2.67127185
 31
0.0
  0
LINE
  5
2B4
100
AcDbEntity
  8
レイヤー_1
  6
CONTINUOUS
 62
       3
100
AcDbLine
 10
111.41220309
 20
-2.67127185
 30
0.0
 11
111.47173982
 21
-2.88422784
 31
0.0
  0
LINE
  5
2B5
100
AcDbEntity
  8
レイヤー_1
  6
CONTINUOUS
 62
       3
100
AcDbLine
 10
111.47173982
 20
-2.88422784
 30
0.0
 11
111.55089059
 21
-3.088259
 31
0.0
  0
LINE
  5
2B6
100
AcDbEntity
  8
レイヤー_1
  6
CONTINUOUS
 62
       3
100
AcDbLine
 10
111.55089059
 20
-3.088259
 30
0.0
 11
111.64856085
 21
-3.28226883
 31
0.0
  0
LINE
  5
2B7
100
AcDbEntity
  8
レイヤー_1
  6
CONTINUOUS
 62
       3
100
AcDbLine
 10
111.64856085
 20
-3.28226883
 30
0.0
 11
111.76365607
 21
-3.46516085
 31
0.0
  0
LINE
  5
2B8
100
AcDbEntity
  8
レイヤー_1
  6
CONTINUOUS
 62
       3
100
AcDbLine
 10
111.76365607
 20
-3.46516085
 30
0.0
 11
111.8950817
 21
-3.63583857
 31
0.0
  0
LINE
  5
2B9
100
AcDbEntity
  8
レイヤー_1
  6
CONTINUOUS
 62
       3
100
AcDbLine
 10
111.8950817
 20
-3.63583857
 30
0.0
 11
112.0417432
 21
-3.79320549
 31
0.0
  0
LINE
  5
2BA
100
AcDbEntity
  8
レイヤー_1
  6
CONTINUOUS
 62
       3
100
AcDbLine
 10
112.0417432
 20
-3.79320549
 30
0.0
 11
112.20254603
 21
-3.93616512
 31
0.0
  0
LINE
  5
2BB
100
AcDbEntity
  8
レイヤー_1
  6
CONTINUOUS
 62
       3
100
AcDbLine
 10
112.20254603
 20
-3.93616512
 30
0.0
 11
112.37639564
 21
-4.06362097
 31
0.0
  0
LINE
  5
2BC
100
AcDbEntity
  8
レイヤー_1
  6
CONTINUOUS
 62
       3
100
AcDbLine
 10
112.37639564
 20
-4.06362097
 30
0.0
 11
112.56219749
 21
-4.17447656
 31
0.0
  0
LINE
  5
2BD
100
AcDbEntity
  8
レイヤー_1
  6
CONTINUOUS
 62
       3
100
AcDbLine
 10
112.56219749
 20
-4.17447656
 30
0.0
 11
112.75885705
 21
-4.26763538
 31
0.0
  0
LINE
  5
2BE
100
AcDbEntity
  8
レイヤー_1
  6
CONTINUOUS
 62
       3
100
AcDbLine
 10
112.75885705
 20
-4.26763538
 30
0.0
 11
112.96527977
 21
-4.34200095
 31
0.0
  0
LINE
  5
2BF
100
AcDbEntity
  8
レイヤー_1
  6
CONTINUOUS
 62
       3
100
AcDbLine
 10
112.96527977
 20
-4.34200095
 30
0.0
 11
113.1803711
 21
-4.39647677
 31
0.0
  0
LINE
  5
2C0
100
AcDbEntity
  8
レイヤー_1
  6
CONTINUOUS
 62
       3
100
AcDbLine
 10
113.1803711
 20
-4.39647677
 30
0.0
 11
113.40303651
 21
-4.42996636
 31
0.0
  0
LINE
  5
2C1
100
AcDbEntity
  8
レイヤー_1
  6
CONTINUOUS
 62
       3
100
AcDbLine
 10
113.40303651
 20
-4.42996636
 30
0.0
 11
113.63218145
 21
-4.44137322
 31
0.0
  0
LINE
  5
2C2
100
AcDbEntity
  8
レイヤー_1
  6
CONTINUOUS
 62
       3
100
AcDbLine
 10
113.63218145
 20
-3.17658295
 30
0.0
 11
113.73398165
 21
-3.1715203
 31
0.0
  0
LINE
  5
2C3
100
AcDbEntity
  8
レイヤー_1
  6
CONTINUOUS
 62
       3
100
AcDbLine
 10
113.73398165
 20
-3.1715203
 30
0.0
 11
113.83290392
 21
-3.15665564
 31
0.0
  0
LINE
  5
2C4
100
AcDbEntity
  8
レイヤー_1
  6
CONTINUOUS
 62
       3
100
AcDbLine
 10
113.83290392
 20
-3.15665564
 30
0.0
 11
113.92846192
 21
-3.13247384
 31
0.0
  0
LINE
  5
2C5
100
AcDbEntity
  8
レイヤー_1
  6
CONTINUOUS
 62
       3
100
AcDbLine
 10
113.92846192
 20
-3.13247384
 30
0.0
 11
114.02016928
 21
-3.0994598
 31
0.0
  0
LINE
  5
2C6
100
AcDbEntity
  8
レイヤー_1
  6
CONTINUOUS
 62
       3
100
AcDbLine
 10
114.02016928
 20
-3.0994598
 30
0.0
 11
114.10753965
 21
-3.05809842
 31
0.0
  0
LINE
  5
2C7
100
AcDbEntity
  8
レイヤー_1
  6
CONTINUOUS
 62
       3
100
AcDbLine
 10
114.10753965
 20
-3.05809842
 30
0.0
 11
114.19008668
 21
-3.00887459
 31
0.0
  0
LINE
  5
2C8
100
AcDbEntity
  8
レイヤー_1
  6
CONTINUOUS
 62
       3
100
AcDbLine
 10
114.19008668
 20
-3.00887459
 30
0.0
 11
114.26732401
 21
-2.9522732
 31
0.0
  0
LINE
  5
2C9
100
AcDbEntity
  8
レイヤー_1
  6
CONTINUOUS
 62
       3
100
AcDbLine
 10
114.26732401
 20
-2.9522732
 30
0.0
 11
114.33876529
 21
-2.88877914
 31
0.0
  0
LINE
  5
2CA
100
AcDbEntity
  8
レイヤー_1
  6
CONTINUOUS
 62
       3
100
AcDbLine
 10
114.33876529
 20
-2.88877914
 30
0.0
 11
114.40392415
 21
-2.8188773
 31
0.0
  0
LINE
  5
2CB
100
AcDbEntity
  8
レイヤー_1
  6
CONTINUOUS
 62
       3
100
AcDbLine
 10
114.40392415
 20
-2.8188773
 30
0.0
 11
114.46231426
 21
-2.74305259
 31
0.0
  0
LINE
  5
2CC
100
AcDbEntity
  8
レイヤー_1
  6
CONTINUOUS
 62
       3
100
AcDbLine
 10
114.46231426
 20
-2.74305259
 30
0.0
 11
114.51344925
 21
-2.66178989
 31
0.0
  0
LINE
  5
2CD
100
AcDbEntity
  8
レイヤー_1
  6
CONTINUOUS
 62
       3
100
AcDbLine
 10
114.51344925
 20
-2.66178989
 30
0.0
 11
114.55684276
 21
-2.57557409
 31
0.0
  0
LINE
  5
2CE
100
AcDbEntity
  8
レイヤー_1
  6
CONTINUOUS
 62
       3
100
AcDbLine
 10
114.55684276
 20
-2.57557409
 30
0.0
 11
114.59200845
 21
-2.48489009
 31
0.0
  0
LINE
  5
2CF
100
AcDbEntity
  8
レイヤー_1
  6
CONTINUOUS
 62
       3
100
AcDbLine
 10
114.59200845
 20
-2.48489009
 30
0.0
 11
114.61845995
 21
-2.39022278
 31
0.0
  0
LINE
  5
2D0
100
AcDbEntity
  8
レイヤー_1
  6
CONTINUOUS
 62
       3
100
AcDbLine
 10
114.61845995
 20
-2.39022278
 30
0.0
 11
114.63571092
 21
-2.29205705
 31
0.0
  0
LINE
  5
2D1
100
AcDbEntity
  8
レイヤー_1
  6
CONTINUOUS
 62
       3
100
AcDbLine
 10
114.63571092
 20
-2.29205705
 30
0.0
 11
114.64327499
 21
-2.19087781
 31
0.0
  0
LINE
  5
2D2
100
AcDbEntity
  8
レイヤー_1
  6
CONTINUOUS
 62
       3
100
AcDbLine
 10
114.64327499
 20
-2.19087781
 30
0.0
 11
114.64073422
 21
-2.08848019
 31
0.0
  0
LINE
  5
2D3
100
AcDbEntity
  8
レイヤー_1
  6
CONTINUOUS
 62
       3
100
AcDbLine
 10
114.64073422
 20
-2.08848019
 30
0.0
 11
114.6282659
 21
-1.98870134
 31
0.0
  0
LINE
  5
2D4
100
AcDbEntity
  8
レイヤー_1
  6
CONTINUOUS
 62
       3
100
AcDbLine
 10
114.6282659
 20
-1.98870134
 30
0.0
 11
114.60635387
 21
-1.89219174
 31
0.0
  0
LINE
  5
2D5
100
AcDbEntity
  8
レイヤー_1
  6
CONTINUOUS
 62
       3
100
AcDbLine
 10
114.60635387
 20
-1.89219174
 30
0.0
 11
114.57548448
 21
-1.79943482
 31
0.0
  0
LINE
  5
2D6
100
AcDbEntity
  8
レイヤー_1
  6
CONTINUOUS
 62
       3
100
AcDbLine
 10
114.57548448
 20
-1.79943482
 30
0.0
 11
114.53614409
 21
-1.71091402
 31
0.0
  0
LINE
  5
2D7
100
AcDbEntity
  8
レイヤー_1
  6
CONTINUOUS
 62
       3
100
AcDbLine
 10
114.53614409
 20
-1.71091402
 30
0.0
 11
114.48881904
 21
-1.62711276
 31
0.0
  0
LINE
  5
2D8
100
AcDbEntity
  8
レイヤー_1
  6
CONTINUOUS
 62
       3
100
AcDbLine
 10
114.48881904
 20
-1.62711276
 30
0.0
 11
114.4339957
 21
-1.54851447
 31
0.0
  0
LINE
  5
2D9
100
AcDbEntity
  8
レイヤー_1
  6
CONTINUOUS
 62
       3
100
AcDbLine
 10
114.4339957
 20
-1.54851447
 30
0.0
 11
114.37216042
 21
-1.47560258
 31
0.0
  0
LINE
  5
2DA
100
AcDbEntity
  8
レイヤー_1
  6
CONTINUOUS
 62
       3
100
AcDbLine
 10
114.37216042
 20
-1.47560258
 30
0.0
 11
114.30379955
 21
-1.40886053
 31
0.0
  0
LINE
  5
2DB
100
AcDbEntity
  8
レイヤー_1
  6
CONTINUOUS
 62
       3
100
AcDbLine
 10
114.30379955
 20
-1.40886053
 30
0.0
 11
114.22939945
 21
-1.34877175
 31
0.0
  0
LINE
  5
2DC
100
AcDbEntity
  8
レイヤー_1
  6
CONTINUOUS
 62
       3
100
AcDbLine
 10
114.22939945
 20
-1.34877175
 30
0.0
 11
114.14944648
 21
-1.29581966
 31
0.0
  0
LINE
  5
2DD
100
AcDbEntity
  8
レイヤー_1
  6
CONTINUOUS
 62
       3
100
AcDbLine
 10
114.14944648
 20
-1.29581966
 30
0.0
 11
114.06442699
 21
-1.2504877
 31
0.0
  0
LINE
  5
2DE
100
AcDbEntity
  8
レイヤー_1
  6
CONTINUOUS
 62
       3
100
AcDbLine
 10
114.06442699
 20
-1.2504877
 30
0.0
 11
113.97482732
 21
-1.2132593
 31
0.0
  0
LINE
  5
2DF
100
AcDbEntity
  8
レイヤー_1
  6
CONTINUOUS
 62
       3
100
AcDbLine
 10
113.97482732
 20
-1.2132593
 30
0.0
 11
113.88113385
 21
-1.18461789
 31
0.0
  0
LINE
  5
2E0
100
AcDbEntity
  8
レイヤー_1
  6
CONTINUOUS
 62
       3
100
AcDbLine
 10
113.88113385
 20
-1.18461789
 30
0.0
 11
113.78383292
 21
-1.1650469
 31
0.0
  0
LINE
  5
2E1
100
AcDbEntity
  8
レイヤー_1
  6
CONTINUOUS
 62
       3
100
AcDbLine
 10
113.78383292
 20
-1.1650469
 30
0.0
 11
113.68341089
 21
-1.15502976
 31
0.0
  0
LINE
  5
2E2
100
AcDbEntity
  8
レイヤー_1
  6
CONTINUOUS
 62
       3
100
AcDbLine
 10
113.68341089
 20
-1.15502976
 30
0.0
 11
113.58095007
 21
-1.15502976
 31
0.0
  0
LINE
  5
2E3
100
AcDbEntity
  8
レイヤー_1
  6
CONTINUOUS
 62
       3
100
AcDbLine
 10
113.58095007
 20
-1.15502976
 30
0.0
 11
113.48051325
 21
-1.1650469
 31
0.0
  0
LINE
  5
2E4
100
AcDbEntity
  8
レイヤー_1
  6
CONTINUOUS
 62
       3
100
AcDbLine
 10
113.48051325
 20
-1.1650469
 30
0.0
 11
113.38318463
 21
-1.18461789
 31
0.0
  0
LINE
  5
2E5
100
AcDbEntity
  8
レイヤー_1
  6
CONTINUOUS
 62
       3
100
AcDbLine
 10
113.38318463
 20
-1.18461789
 30
0.0
 11
113.28945249
 21
-1.2132593
 31
0.0
  0
LINE
  5
2E6
100
AcDbEntity
  8
レイヤー_1
  6
CONTINUOUS
 62
       3
100
AcDbLine
 10
113.28945249
 20
-1.2132593
 30
0.0
 11
113.19980516
 21
-1.2504877
 31
0.0
  0
LINE
  5
2E7
100
AcDbEntity
  8
レイヤー_1
  6
CONTINUOUS
 62
       3
100
AcDbLine
 10
113.19980516
 20
-1.2504877
 30
0.0
 11
113.11473092
 21
-1.29581966
 31
0.0
  0
LINE
  5
2E8
100
AcDbEntity
  8
レイヤー_1
  6
CONTINUOUS
 62
       3
100
AcDbLine
 10
113.11473092
 20
-1.29581966
 30
0.0
 11
113.03471808
 21
-1.34877175
 31
0.0
  0
LINE
  5
2E9
100
AcDbEntity
  8
レイヤー_1
  6
CONTINUOUS
 62
       3
100
AcDbLine
 10
113.03471808
 20
-1.34877175
 30
0.0
 11
112.96025496
 21
-1.40886053
 31
0.0
  0
LINE
  5
2EA
100
AcDbEntity
  8
レイヤー_1
  6
CONTINUOUS
 62
       3
100
AcDbLine
 10
112.96025496
 20
-1.40886053
 30
0.0
 11
112.89182985
 21
-1.47560258
 31
0.0
  0
LINE
  5
2EB
100
AcDbEntity
  8
レイヤー_1
  6
CONTINUOUS
 62
       3
100
AcDbLine
 10
112.89182985
 20
-1.47560258
 30
0.0
 11
112.82993105
 21
-1.54851447
 31
0.0
  0
LINE
  5
2EC
100
AcDbEntity
  8
レイヤー_1
  6
CONTINUOUS
 62
       3
100
AcDbLine
 10
112.82993105
 20
-1.54851447
 30
0.0
 11
112.77504687
 21
-1.62711276
 31
0.0
  0
LINE
  5
2ED
100
AcDbEntity
  8
レイヤー_1
  6
CONTINUOUS
 62
       3
100
AcDbLine
 10
112.77504687
 20
-1.62711276
 30
0.0
 11
112.72766562
 21
-1.71091402
 31
0.0
  0
LINE
  5
2EE
100
AcDbEntity
  8
レイヤー_1
  6
CONTINUOUS
 62
       3
100
AcDbLine
 10
112.72766562
 20
-1.71091402
 30
0.0
 11
112.6882756
 21
-1.79943482
 31
0.0
  0
LINE
  5
2EF
100
AcDbEntity
  8
レイヤー_1
  6
CONTINUOUS
 62
       3
100
AcDbLine
 10
112.6882756
 20
-1.79943482
 30
0.0
 11
112.65736511
 21
-1.89219174
 31
0.0
  0
LINE
  5
2F0
100
AcDbEntity
  8
レイヤー_1
  6
CONTINUOUS
 62
       3
100
AcDbLine
 10
112.65736511
 20
-1.89219174
 30
0.0
 11
112.63542246
 21
-1.98870134
 31
0.0
  0
LINE
  5
2F1
100
AcDbEntity
  8
レイヤー_1
  6
CONTINUOUS
 62
       3
100
AcDbLine
 10
112.63542246
 20
-1.98870134
 30
0.0
 11
112.62293595
 21
-2.08848019
 31
0.0
  0
LINE
  5
2F2
100
AcDbEntity
  8
レイヤー_1
  6
CONTINUOUS
 62
       3
100
AcDbLine
 10
112.62293595
 20
-2.08848019
 30
0.0
 11
112.62039135
 21
-2.19087781
 31
0.0
  0
LINE
  5
2F3
100
AcDbEntity
  8
レイヤー_1
  6
CONTINUOUS
 62
       3
100
AcDbLine
 10
112.62039135
 20
-2.19087781
 30
0.0
 11
112.62796667
 21
-2.29205705
 31
0.0
  0
LINE
  5
2F4
100
AcDbEntity
  8
レイヤー_1
  6
CONTINUOUS
 62
       3
100
AcDbLine
 10
112.62796667
 20
-2.29205705
 30
0.0
 11
112.64524229
 21
-2.39022278
 31
0.0
  0
LINE
  5
2F5
100
AcDbEntity
  8
レイヤー_1
  6
CONTINUOUS
 62
       3
100
AcDbLine
 10
112.64524229
 20
-2.39022278
 30
0.0
 11
112.6717299
 21
-2.48489009
 31
0.0
  0
LINE
  5
2F6
100
AcDbEntity
  8
レイヤー_1
  6
CONTINUOUS
 62
       3
100
AcDbLine
 10
112.6717299
 20
-2.48489009
 30
0.0
 11
112.70694119
 21
-2.57557409
 31
0.0
  0
LINE
  5
2F7
100
AcDbEntity
  8
レイヤー_1
  6
CONTINUOUS
 62
       3
100
AcDbLine
 10
112.70694119
 20
-2.57557409
 30
0.0
 11
112.75038786
 21
-2.66178989
 31
0.0
  0
LINE
  5
2F8
100
AcDbEntity
  8
レイヤー_1
  6
CONTINUOUS
 62
       3
100
AcDbLine
 10
112.75038786
 20
-2.66178989
 30
0.0
 11
112.80158161
 21
-2.74305259
 31
0.0
  0
LINE
  5
2F9
100
AcDbEntity
  8
レイヤー_1
  6
CONTINUOUS
 62
       3
100
AcDbLine
 10
112.80158161
 20
-2.74305259
 30
0.0
 11
112.86003414
 21
-2.8188773
 31
0.0
  0
LINE
  5
2FA
100
AcDbEntity
  8
レイヤー_1
  6
CONTINUOUS
 62
       3
100
AcDbLine
 10
112.86003414
 20
-2.8188773
 30
0.0
 11
112.92525713
 21
-2.88877914
 31
0.0
  0
LINE
  5
2FB
100
AcDbEntity
  8
レイヤー_1
  6
CONTINUOUS
 62
       3
100
AcDbLine
 10
112.92525713
 20
-2.88877914
 30
0.0
 11
112.99676229
 21
-2.9522732
 31
0.0
  0
LINE
  5
2FC
100
AcDbEntity
  8
レイヤー_1
  6
CONTINUOUS
 62
       3
100
AcDbLine
 10
112.99676229
 20
-2.9522732
 30
0.0
 11
113.07406131
 21
-3.00887459
 31
0.0
  0
LINE
  5
2FD
100
AcDbEntity
  8
レイヤー_1
  6
CONTINUOUS
 62
       3
100
AcDbLine
 10
113.07406131
 20
-3.00887459
 30
0.0
 11
113.15666588
 21
-3.05809842
 31
0.0
  0
LINE
  5
2FE
100
AcDbEntity
  8
レイヤー_1
  6
CONTINUOUS
 62
       3
100
AcDbLine
 10
113.15666588
 20
-3.05809842
 30
0.0
 11
113.24408771
 21
-3.0994598
 31
0.0
  0
LINE
  5
2FF
100
AcDbEntity
  8
レイヤー_1
  6
CONTINUOUS
 62
       3
100
AcDbLine
 10
113.24408771
 20
-3.0994598
 30
0.0
 11
113.33583848
 21
-3.13247384
 31
0.0
  0
LINE
  5
300
100
AcDbEntity
  8
レイヤー_1
  6
CONTINUOUS
 62
       3
100
AcDbLine
 10
113.33583848
 20
-3.13247384
 30
0.0
 11
113.4314299
 21
-3.15665564
 31
0.0
  0
LINE
  5
301
100
AcDbEntity
  8
レイヤー_1
  6
CONTINUOUS
 62
       3
100
AcDbLine
 10
113.4314299
 20
-3.15665564
 30
0.0
 11
113.53037366
 21
-3.1715203
 31
0.0
  0
LINE
  5
302
100
AcDbEntity
  8
レイヤー_1
  6
CONTINUOUS
 62
       3
100
AcDbLine
 10
113.53037366
 20
-3.1715203
 30
0.0
 11
113.63218145
 21
-3.17658295
 31
0.0
  0
LINE
  5
303
100
AcDbEntity
  8
レイヤー_1
  6
CONTINUOUS
 62
       3
100
AcDbLine
 10
-109.49078513
 20
-2.25927019
 30
0.0
 11
-109.5147334
 21
-1.77572958
 31
0.0
  0
LINE
  5
304
100
AcDbEntity
  8
レイヤー_1
  6
CONTINUOUS
 62
       3
100
AcDbLine
 10
-109.5147334
 20
-1.77572958
 30
0.0
 11
-109.5850613
 21
-1.30699917
 31
0.0
  0
LINE
  5
305
100
AcDbEntity
  8
レイヤー_1
  6
CONTINUOUS
 62
       3
100
AcDbLine
 10
-109.5850613
 20
-1.30699917
 30
0.0
 11
-109.69949349
 21
-0.8552344
 31
0.0
  0
LINE
  5
306
100
AcDbEntity
  8
レイヤー_1
  6
CONTINUOUS
 62
       3
100
AcDbLine
 10
-109.69949349
 20
-0.8552344
 30
0.0
 11
-109.85575464
 21
-0.42259074
 31
0.0
  0
LINE
  5
307
100
AcDbEntity
  8
レイヤー_1
  6
CONTINUOUS
 62
       3
100
AcDbLine
 10
-109.85575464
 20
-0.42259074
 30
0.0
 11
-110.0515694
 21
-0.01122363
 31
0.0
  0
LINE
  5
308
100
AcDbEntity
  8
レイヤー_1
  6
CONTINUOUS
 62
       3
100
AcDbLine
 10
-110.0515694
 20
-0.01122363
 30
0.0
 11
-110.28466243
 21
0.37671145
 31
0.0
  0
LINE
  5
309
100
AcDbEntity
  8
レイヤー_1
  6
CONTINUOUS
 62
       3
100
AcDbLine
 10
-110.28466243
 20
0.37671145
 30
0.0
 11
-110.55275839
 21
0.73905905
 31
0.0
  0
LINE
  5
30A
100
AcDbEntity
  8
レイヤー_1
  6
CONTINUOUS
 62
       3
100
AcDbLine
 10
-110.55275839
 20
0.73905905
 30
0.0
 11
-110.85358194
 21
1.07366371
 31
0.0
  0
LINE
  5
30B
100
AcDbEntity
  8
レイヤー_1
  6
CONTINUOUS
 62
       3
100
AcDbLine
 10
-110.85358194
 20
1.07366371
 30
0.0
 11
-111.18485773
 21
1.37836998
 31
0.0
  0
LINE
  5
30C
100
AcDbEntity
  8
レイヤー_1
  6
CONTINUOUS
 62
       3
100
AcDbLine
 10
-111.18485773
 20
1.37836998
 30
0.0
 11
-111.54431043
 21
1.6510224
 31
0.0
  0
LINE
  5
30D
100
AcDbEntity
  8
レイヤー_1
  6
CONTINUOUS
 62
       3
100
AcDbLine
 10
-111.54431043
 20
1.6510224
 30
0.0
 11
-111.92966469
 21
1.8894655
 31
0.0
  0
LINE
  5
30E
100
AcDbEntity
  8
レイヤー_1
  6
CONTINUOUS
 62
       3
100
AcDbLine
 10
-111.92966469
 20
1.8894655
 30
0.0
 11
-112.33864517
 21
2.09154383
 31
0.0
  0
LINE
  5
30F
100
AcDbEntity
  8
レイヤー_1
  6
CONTINUOUS
 62
       3
100
AcDbLine
 10
-112.33864517
 20
2.09154383
 30
0.0
 11
-112.76897654
 21
2.25510193
 31
0.0
  0
LINE
  5
310
100
AcDbEntity
  8
レイヤー_1
  6
CONTINUOUS
 62
       3
100
AcDbLine
 10
-112.76897654
 20
2.25510193
 30
0.0
 11
-113.21838344
 21
2.37798435
 31
0.0
  0
LINE
  5
311
100
AcDbEntity
  8
レイヤー_1
  6
CONTINUOUS
 62
       3
100
AcDbLine
 10
-113.21838344
 20
2.37798435
 30
0.0
 11
-113.68459054
 21
2.45803561
 31
0.0
  0
LINE
  5
312
100
AcDbEntity
  8
レイヤー_1
  6
CONTINUOUS
 62
       3
100
AcDbLine
 10
-113.68459054
 20
2.45803561
 30
0.0
 11
-114.16532249
 21
2.49310027
 31
0.0
  0
LINE
  5
313
100
AcDbEntity
  8
レイヤー_1
  6
CONTINUOUS
 62
       3
100
AcDbLine
 10
-114.16532249
 20
2.49310027
 30
0.0
 11
-114.65133418
 21
2.48132598
 31
0.0
  0
LINE
  5
314
100
AcDbEntity
  8
レイヤー_1
  6
CONTINUOUS
 62
       3
100
AcDbLine
 10
-114.65133418
 20
2.48132598
 30
0.0
 11
-115.12382287
 21
2.42349859
 31
0.0
  0
LINE
  5
315
100
AcDbEntity
  8
レイヤー_1
  6
CONTINUOUS
 62
       3
100
AcDbLine
 10
-115.12382287
 20
2.42349859
 30
0.0
 11
-115.57991841
 21
2.32176232
 31
0.0
  0
LINE
  5
316
100
AcDbEntity
  8
レイヤー_1
  6
CONTINUOUS
 62
       3
100
AcDbLine
 10
-115.57991841
 20
2.32176232
 30
0.0
 11
-116.01746193
 21
2.17827263
 31
0.0
  0
LINE
  5
317
100
AcDbEntity
  8
レイヤー_1
  6
CONTINUOUS
 62
       3
100
AcDbLine
 10
-116.01746193
 20
2.17827263
 30
0.0
 11
-116.43429455
 21
1.99518498
 31
0.0
  0
LINE
  5
318
100
AcDbEntity
  8
レイヤー_1
  6
CONTINUOUS
 62
       3
100
AcDbLine
 10
-116.43429455
 20
1.99518498
 30
0.0
 11
-116.8282574
 21
1.77465483
 31
0.0
  0
LINE
  5
319
100
AcDbEntity
  8
レイヤー_1
  6
CONTINUOUS
 62
       3
100
AcDbLine
 10
-116.8282574
 20
1.77465483
 30
0.0
 11
-117.19719162
 21
1.51883764
 31
0.0
  0
LINE
  5
31A
100
AcDbEntity
  8
レイヤー_1
  6
CONTINUOUS
 62
       3
100
AcDbLine
 10
-117.19719162
 20
1.51883764
 30
0.0
 11
-117.53893834
 21
1.22988886
 31
0.0
  0
LINE
  5
31B
100
AcDbEntity
  8
レイヤー_1
  6
CONTINUOUS
 62
       3
100
AcDbLine
 10
-117.53893834
 20
1.22988886
 30
0.0
 11
-117.85133868
 21
0.90996397
 31
0.0
  0
LINE
  5
31C
100
AcDbEntity
  8
レイヤー_1
  6
CONTINUOUS
 62
       3
100
AcDbLine
 10
-117.85133868
 20
0.90996397
 30
0.0
 11
-118.13223378
 21
0.5612184
 31
0.0
  0
LINE
  5
31D
100
AcDbEntity
  8
レイヤー_1
  6
CONTINUOUS
 62
       3
100
AcDbLine
 10
-118.13223378
 20
0.5612184
 30
0.0
 11
-118.37946477
 21
0.18580763
 31
0.0
  0
LINE
  5
31E
100
AcDbEntity
  8
レイヤー_1
  6
CONTINUOUS
 62
       3
100
AcDbLine
 10
-118.37946477
 20
0.18580763
 30
0.0
 11
-118.59087278
 21
-0.2141129
 31
0.0
  0
LINE
  5
31F
100
AcDbEntity
  8
レイヤー_1
  6
CONTINUOUS
 62
       3
100
AcDbLine
 10
-118.59087278
 20
-0.2141129
 30
0.0
 11
-118.76429893
 21
-0.63638771
 31
0.0
  0
LINE
  5
320
100
AcDbEntity
  8
レイヤー_1
  6
CONTINUOUS
 62
       3
100
AcDbLine
 10
-118.76429893
 20
-0.63638771
 30
0.0
 11
-118.89758436
 21
-1.07886136
 31
0.0
  0
LINE
  5
321
100
AcDbEntity
  8
レイヤー_1
  6
CONTINUOUS
 62
       3
100
AcDbLine
 10
-118.89758436
 20
-1.07886136
 30
0.0
 11
-118.9885702
 21
-1.53937839
 31
0.0
  0
LINE
  5
322
100
AcDbEntity
  8
レイヤー_1
  6
CONTINUOUS
 62
       3
100
AcDbLine
 10
-118.9885702
 20
-1.53937839
 30
0.0
 11
-119.03509758
 21
-2.01578333
 31
0.0
  0
LINE
  5
323
100
AcDbEntity
  8
レイヤー_1
  6
CONTINUOUS
 62
       3
100
AcDbLine
 10
-119.03509758
 20
-2.01578333
 30
0.0
 11
-119.03509758
 21
-2.50281392
 31
0.0
  0
LINE
  5
324
100
AcDbEntity
  8
レイヤー_1
  6
CONTINUOUS
 62
       3
100
AcDbLine
 10
-119.03509758
 20
-2.50281392
 30
0.0
 11
-118.9885702
 21
-2.9800146
 31
0.0
  0
LINE
  5
325
100
AcDbEntity
  8
レイヤー_1
  6
CONTINUOUS
 62
       3
100
AcDbLine
 10
-118.9885702
 20
-2.9800146
 30
0.0
 11
-118.89758436
 21
-3.44213596
 31
0.0
  0
LINE
  5
326
100
AcDbEntity
  8
レイヤー_1
  6
CONTINUOUS
 62
       3
100
AcDbLine
 10
-118.89758436
 20
-3.44213596
 30
0.0
 11
-118.76429893
 21
-3.88690169
 31
0.0
  0
LINE
  5
327
100
AcDbEntity
  8
レイヤー_1
  6
CONTINUOUS
 62
       3
100
AcDbLine
 10
-118.76429893
 20
-3.88690169
 30
0.0
 11
-118.59087278
 21
-4.31203548
 31
0.0
  0
LINE
  5
328
100
AcDbEntity
  8
レイヤー_1
  6
CONTINUOUS
 62
       3
100
AcDbLine
 10
-118.59087278
 20
-4.31203548
 30
0.0
 11
-118.37946477
 21
-4.715261
 31
0.0
  0
LINE
  5
329
100
AcDbEntity
  8
レイヤー_1
  6
CONTINUOUS
 62
       3
100
AcDbLine
 10
-118.37946477
 20
-4.715261
 30
0.0
 11
-118.13223378
 21
-5.09430194
 31
0.0
  0
LINE
  5
32A
100
AcDbEntity
  8
レイヤー_1
  6
CONTINUOUS
 62
       3
100
AcDbLine
 10
-118.13223378
 20
-5.09430194
 30
0.0
 11
-117.85133868
 21
-5.44688199
 31
0.0
  0
LINE
  5
32B
100
AcDbEntity
  8
レイヤー_1
  6
CONTINUOUS
 62
       3
100
AcDbLine
 10
-117.85133868
 20
-5.44688199
 30
0.0
 11
-117.53893834
 21
-5.77072483
 31
0.0
  0
LINE
  5
32C
100
AcDbEntity
  8
レイヤー_1
  6
CONTINUOUS
 62
       3
100
AcDbLine
 10
-117.53893834
 20
-5.77072483
 30
0.0
 11
-117.19719162
 21
-6.06355413
 31
0.0
  0
LINE
  5
32D
100
AcDbEntity
  8
レイヤー_1
  6
CONTINUOUS
 62
       3
100
AcDbLine
 10
-117.19719162
 20
-6.06355413
 30
0.0
 11
-116.8282574
 21
-6.3230936
 31
0.0
  0
LINE
  5
32E
100
AcDbEntity
  8
レイヤー_1
  6
CONTINUOUS
 62
       3
100
AcDbLine
 10
-116.8282574
 20
-6.3230936
 30
0.0
 11
-116.43429455
 21
-6.5470669
 31
0.0
  0
LINE
  5
32F
100
AcDbEntity
  8
レイヤー_1
  6
CONTINUOUS
 62
       3
100
AcDbLine
 10
-116.43429455
 20
-6.5470669
 30
0.0
 11
-116.01746193
 21
-6.73319773
 31
0.0
  0
LINE
  5
330
100
AcDbEntity
  8
レイヤー_1
  6
CONTINUOUS
 62
       3
100
AcDbLine
 10
-116.01746193
 20
-6.73319773
 30
0.0
 11
-115.57991841
 21
-6.87920977
 31
0.0
  0
LINE
  5
331
100
AcDbEntity
  8
レイヤー_1
  6
CONTINUOUS
 62
       3
100
AcDbLine
 10
-115.57991841
 20
-6.87920977
 30
0.0
 11
-115.12382287
 21
-6.98282669
 31
0.0
  0
LINE
  5
332
100
AcDbEntity
  8
レイヤー_1
  6
CONTINUOUS
 62
       3
100
AcDbLine
 10
-115.12382287
 20
-6.98282669
 30
0.0
 11
-114.65133418
 21
-7.0417722
 31
0.0
  0
LINE
  5
333
100
AcDbEntity
  8
レイヤー_1
  6
CONTINUOUS
 62
       3
100
AcDbLine
 10
-114.65133418
 20
-7.0417722
 30
0.0
 11
-114.16532249
 21
-7.05378182
 31
0.0
  0
LINE
  5
334
100
AcDbEntity
  8
レイヤー_1
  6
CONTINUOUS
 62
       3
100
AcDbLine
 10
-114.16532249
 20
-7.05378182
 30
0.0
 11
-113.68459054
 21
-7.01802564
 31
0.0
  0
LINE
  5
335
100
AcDbEntity
  8
レイヤー_1
  6
CONTINUOUS
 62
       3
100
AcDbLine
 10
-113.68459054
 20
-7.01802564
 30
0.0
 11
-113.21838344
 21
-6.93645989
 31
0.0
  0
LINE
  5
336
100
AcDbEntity
  8
レイヤー_1
  6
CONTINUOUS
 62
       3
100
AcDbLine
 10
-113.21838344
 20
-6.93645989
 30
0.0
 11
-112.76897654
 21
-6.81136087
 31
0.0
  0
LINE
  5
337
100
AcDbEntity
  8
レイヤー_1
  6
CONTINUOUS
 62
       3
100
AcDbLine
 10
-112.76897654
 20
-6.81136087
 30
0.0
 11
-112.33864517
 21
-6.64500489
 31
0.0
  0
LINE
  5
338
100
AcDbEntity
  8
レイヤー_1
  6
CONTINUOUS
 62
       3
100
AcDbLine
 10
-112.33864517
 20
-6.64500489
 30
0.0
 11
-111.92966469
 21
-6.43966829
 31
0.0
  0
LINE
  5
339
100
AcDbEntity
  8
レイヤー_1
  6
CONTINUOUS
 62
       3
100
AcDbLine
 10
-111.92966469
 20
-6.43966829
 30
0.0
 11
-111.54431043
 21
-6.19762737
 31
0.0
  0
LINE
  5
33A
100
AcDbEntity
  8
レイヤー_1
  6
CONTINUOUS
 62
       3
100
AcDbLine
 10
-111.54431043
 20
-6.19762737
 30
0.0
 11
-111.18485773
 21
-5.92115844
 31
0.0
  0
LINE
  5
33B
100
AcDbEntity
  8
レイヤー_1
  6
CONTINUOUS
 62
       3
100
AcDbLine
 10
-111.18485773
 20
-5.92115844
 30
0.0
 11
-110.85358194
 21
-5.61253783
 31
0.0
  0
LINE
  5
33C
100
AcDbEntity
  8
レイヤー_1
  6
CONTINUOUS
 62
       3
100
AcDbLine
 10
-110.85358194
 20
-5.61253783
 30
0.0
 11
-110.55275839
 21
-5.27404185
 31
0.0
  0
LINE
  5
33D
100
AcDbEntity
  8
レイヤー_1
  6
CONTINUOUS
 62
       3
100
AcDbLine
 10
-110.55275839
 20
-5.27404185
 30
0.0
 11
-110.28466243
 21
-4.90794681
 31
0.0
  0
LINE
  5
33E
100
AcDbEntity
  8
レイヤー_1
  6
CONTINUOUS
 62
       3
100
AcDbLine
 10
-110.28466243
 20
-4.90794681
 30
0.0
 11
-110.0515694
 21
-4.51652904
 31
0.0
  0
LINE
  5
33F
100
AcDbEntity
  8
レイヤー_1
  6
CONTINUOUS
 62
       3
100
AcDbLine
 10
-110.0515694
 20
-4.51652904
 30
0.0
 11
-109.85575464
 21
-4.10206485
 31
0.0
  0
LINE
  5
340
100
AcDbEntity
  8
レイヤー_1
  6
CONTINUOUS
 62
       3
100
AcDbLine
 10
-109.85575464
 20
-4.10206485
 30
0.0
 11
-109.69949349
 21
-3.66683055
 31
0.0
  0
LINE
  5
341
100
AcDbEntity
  8
レイヤー_1
  6
CONTINUOUS
 62
       3
100
AcDbLine
 10
-109.69949349
 20
-3.66683055
 30
0.0
 11
-109.5850613
 21
-3.21310246
 31
0.0
  0
LINE
  5
342
100
AcDbEntity
  8
レイヤー_1
  6
CONTINUOUS
 62
       3
100
AcDbLine
 10
-109.5850613
 20
-3.21310246
 30
0.0
 11
-109.5147334
 21
-2.7431569
 31
0.0
  0
LINE
  5
343
100
AcDbEntity
  8
レイヤー_1
  6
CONTINUOUS
 62
       3
100
AcDbLine
 10
-109.5147334
 20
-2.7431569
 30
0.0
 11
-109.49078513
 21
-2.25927019
 31
0.0
  0
LINE
  5
344
100
AcDbEntity
  8
レイヤー_1
  6
CONTINUOUS
 62
       3
100
AcDbLine
 10
-117.32732669
 20
-19.98724542
 30
0.0
 11
-117.34265365
 21
-19.68315779
 31
0.0
  0
LINE
  5
345
100
AcDbEntity
  8
レイヤー_1
  6
CONTINUOUS
 62
       3
100
AcDbLine
 10
-117.34265365
 20
-19.68315779
 30
0.0
 11
-117.38763485
 21
-19.38821697
 31
0.0
  0
LINE
  5
346
100
AcDbEntity
  8
レイヤー_1
  6
CONTINUOUS
 62
       3
100
AcDbLine
 10
-117.38763485
 20
-19.38821697
 30
0.0
 11
-117.46077079
 21
-19.10380112
 31
0.0
  0
LINE
  5
347
100
AcDbEntity
  8
レイヤー_1
  6
CONTINUOUS
 62
       3
100
AcDbLine
 10
-117.46077079
 20
-19.10380112
 30
0.0
 11
-117.56056194
 21
-18.83128842
 31
0.0
  0
LINE
  5
348
100
AcDbEntity
  8
レイヤー_1
  6
CONTINUOUS
 62
       3
100
AcDbLine
 10
-117.56056194
 20
-18.83128842
 30
0.0
 11
-117.6855088
 21
-18.57205704
 31
0.0
  0
LINE
  5
349
100
AcDbEntity
  8
レイヤー_1
  6
CONTINUOUS
 62
       3
100
AcDbLine
 10
-117.6855088
 20
-18.57205704
 30
0.0
 11
-117.83411185
 21
-18.32748513
 31
0.0
  0
LINE
  5
34A
100
AcDbEntity
  8
レイヤー_1
  6
CONTINUOUS
 62
       3
100
AcDbLine
 10
-117.83411185
 20
-18.32748513
 30
0.0
 11
-118.00487158
 21
-18.09895088
 31
0.0
  0
LINE
  5
34B
100
AcDbEntity
  8
レイヤー_1
  6
CONTINUOUS
 62
       3
100
AcDbLine
 10
-118.00487158
 20
-18.09895088
 30
0.0
 11
-118.19628847
 21
-17.88783244
 31
0.0
  0
LINE
  5
34C
100
AcDbEntity
  8
レイヤー_1
  6
CONTINUOUS
 62
       3
100
AcDbLine
 10
-118.19628847
 20
-17.88783244
 30
0.0
 11
-118.40686302
 21
-17.69550798
 31
0.0
  0
LINE
  5
34D
100
AcDbEntity
  8
レイヤー_1
  6
CONTINUOUS
 62
       3
100
AcDbLine
 10
-118.40686302
 20
-17.69550798
 30
0.0
 11
-118.63509572
 21
-17.52335568
 31
0.0
  0
LINE
  5
34E
100
AcDbEntity
  8
レイヤー_1
  6
CONTINUOUS
 62
       3
100
AcDbLine
 10
-118.63509572
 20
-17.52335568
 30
0.0
 11
-118.87948703
 21
-17.37275369
 31
0.0
  0
LINE
  5
34F
100
AcDbEntity
  8
レイヤー_1
  6
CONTINUOUS
 62
       3
100
AcDbLine
 10
-118.87948703
 20
-17.37275369
 30
0.0
 11
-119.13853747
 21
-17.2450802
 31
0.0
  0
LINE
  5
350
100
AcDbEntity
  8
レイヤー_1
  6
CONTINUOUS
 62
       3
100
AcDbLine
 10
-119.13853747
 20
-17.2450802
 30
0.0
 11
-119.4107475
 21
-17.14171336
 31
0.0
  0
LINE
  5
351
100
AcDbEntity
  8
レイヤー_1
  6
CONTINUOUS
 62
       3
100
AcDbLine
 10
-119.4107475
 20
-17.14171336
 30
0.0
 11
-119.69461763
 21
-17.06403134
 31
0.0
  0
LINE
  5
352
100
AcDbEntity
  8
レイヤー_1
  6
CONTINUOUS
 62
       3
100
AcDbLine
 10
-119.69461763
 20
-17.06403134
 30
0.0
 11
-119.98864833
 21
-17.01341231
 31
0.0
  0
LINE
  5
353
100
AcDbEntity
  8
レイヤー_1
  6
CONTINUOUS
 62
       3
100
AcDbLine
 10
-119.98864833
 20
-17.01341231
 30
0.0
 11
-120.2913401
 21
-16.99123444
 31
0.0
  0
LINE
  5
354
100
AcDbEntity
  8
レイヤー_1
  6
CONTINUOUS
 62
       3
100
AcDbLine
 10
-120.2913401
 20
-16.99123444
 30
0.0
 11
-120.59715213
 21
-16.9986821
 31
0.0
  0
LINE
  5
355
100
AcDbEntity
  8
レイヤー_1
  6
CONTINUOUS
 62
       3
100
AcDbLine
 10
-120.59715213
 20
-16.9986821
 30
0.0
 11
-120.89461855
 21
-17.03525281
 31
0.0
  0
LINE
  5
356
100
AcDbEntity
  8
レイヤー_1
  6
CONTINUOUS
 62
       3
100
AcDbLine
 10
-120.89461855
 20
-17.03525281
 30
0.0
 11
-121.1818904
 21
-17.09957561
 31
0.0
  0
LINE
  5
357
100
AcDbEntity
  8
レイヤー_1
  6
CONTINUOUS
 62
       3
100
AcDbLine
 10
-121.1818904
 20
-17.09957561
 30
0.0
 11
-121.45759048
 21
-17.19027231
 31
0.0
  0
LINE
  5
358
100
AcDbEntity
  8
レイヤー_1
  6
CONTINUOUS
 62
       3
100
AcDbLine
 10
-121.45759048
 20
-17.19027231
 30
0.0
 11
-121.72034162
 21
-17.30596475
 31
0.0
  0
LINE
  5
359
100
AcDbEntity
  8
レイヤー_1
  6
CONTINUOUS
 62
       3
100
AcDbLine
 10
-121.72034162
 20
-17.30596475
 30
0.0
 11
-121.9687666
 21
-17.44527476
 31
0.0
  0
LINE
  5
35A
100
AcDbEntity
  8
レイヤー_1
  6
CONTINUOUS
 62
       3
100
AcDbLine
 10
-121.9687666
 20
-17.44527476
 30
0.0
 11
-122.20148825
 21
-17.60682418
 31
0.0
  0
LINE
  5
35B
100
AcDbEntity
  8
レイヤー_1
  6
CONTINUOUS
 62
       3
100
AcDbLine
 10
-122.20148825
 20
-17.60682418
 30
0.0
 11
-122.41712936
 21
-17.78923483
 31
0.0
  0
LINE
  5
35C
100
AcDbEntity
  8
レイヤー_1
  6
CONTINUOUS
 62
       3
100
AcDbLine
 10
-122.41712936
 20
-17.78923483
 30
0.0
 11
-122.61431275
 21
-17.99112855
 31
0.0
  0
LINE
  5
35D
100
AcDbEntity
  8
レイヤー_1
  6
CONTINUOUS
 62
       3
100
AcDbLine
 10
-122.61431275
 20
-17.99112855
 30
0.0
 11
-122.79166121
 21
-18.21112716
 31
0.0
  0
LINE
  5
35E
100
AcDbEntity
  8
レイヤー_1
  6
CONTINUOUS
 62
       3
100
AcDbLine
 10
-122.79166121
 20
-18.21112716
 30
0.0
 11
-122.94779756
 21
-18.44785252
 31
0.0
  0
LINE
  5
35F
100
AcDbEntity
  8
レイヤー_1
  6
CONTINUOUS
 62
       3
100
AcDbLine
 10
-122.94779756
 20
-18.44785252
 30
0.0
 11
-123.08134461
 21
-18.69992643
 31
0.0
  0
LINE
  5
360
100
AcDbEntity
  8
レイヤー_1
  6
CONTINUOUS
 62
       3
100
AcDbLine
 10
-123.08134461
 20
-18.69992643
 30
0.0
 11
-123.19092515
 21
-18.96597075
 31
0.0
  0
LINE
  5
361
100
AcDbEntity
  8
レイヤー_1
  6
CONTINUOUS
 62
       3
100
AcDbLine
 10
-123.19092515
 20
-18.96597075
 30
0.0
 11
-123.27516201
 21
-19.24460729
 31
0.0
  0
LINE
  5
362
100
AcDbEntity
  8
レイヤー_1
  6
CONTINUOUS
 62
       3
100
AcDbLine
 10
-123.27516201
 20
-19.24460729
 30
0.0
 11
-123.33267798
 21
-19.53445789
 31
0.0
  0
LINE
  5
363
100
AcDbEntity
  8
レイヤー_1
  6
CONTINUOUS
 62
       3
100
AcDbLine
 10
-123.33267798
 20
-19.53445789
 30
0.0
 11
-123.36209587
 21
-19.83414439
 31
0.0
  0
LINE
  5
364
100
AcDbEntity
  8
レイヤー_1
  6
CONTINUOUS
 62
       3
100
AcDbLine
 10
-123.36209587
 20
-19.83414439
 30
0.0
 11
-123.36209587
 21
-20.14055928
 31
0.0
  0
LINE
  5
365
100
AcDbEntity
  8
レイヤー_1
  6
CONTINUOUS
 62
       3
100
AcDbLine
 10
-123.36209587
 20
-20.14055928
 30
0.0
 11
-123.33267798
 21
-20.44132495
 31
0.0
  0
LINE
  5
366
100
AcDbEntity
  8
レイヤー_1
  6
CONTINUOUS
 62
       3
100
AcDbLine
 10
-123.33267798
 20
-20.44132495
 30
0.0
 11
-123.27516201
 21
-20.73302739
 31
0.0
  0
LINE
  5
367
100
AcDbEntity
  8
レイヤー_1
  6
CONTINUOUS
 62
       3
100
AcDbLine
 10
-123.27516201
 20
-20.73302739
 30
0.0
 11
-123.19092515
 21
-21.01417001
 31
0.0
  0
LINE
  5
368
100
AcDbEntity
  8
レイヤー_1
  6
CONTINUOUS
 62
       3
100
AcDbLine
 10
-123.19092515
 20
-21.01417001
 30
0.0
 11
-123.08134461
 21
-21.28325622
 31
0.0
  0
LINE
  5
369
100
AcDbEntity
  8
レイヤー_1
  6
CONTINUOUS
 62
       3
100
AcDbLine
 10
-123.08134461
 20
-21.28325622
 30
0.0
 11
-122.94779756
 21
-21.53878943
 31
0.0
  0
LINE
  5
36A
100
AcDbEntity
  8
レイヤー_1
  6
CONTINUOUS
 62
       3
100
AcDbLine
 10
-122.94779756
 20
-21.53878943
 30
0.0
 11
-122.79166121
 21
-21.77927305
 31
0.0
  0
LINE
  5
36B
100
AcDbEntity
  8
レイヤー_1
  6
CONTINUOUS
 62
       3
100
AcDbLine
 10
-122.79166121
 20
-21.77927305
 30
0.0
 11
-122.61431275
 21
-22.00321049
 31
0.0
  0
LINE
  5
36C
100
AcDbEntity
  8
レイヤー_1
  6
CONTINUOUS
 62
       3
100
AcDbLine
 10
-122.61431275
 20
-22.00321049
 30
0.0
 11
-122.41712936
 21
-22.20910517
 31
0.0
  0
LINE
  5
36D
100
AcDbEntity
  8
レイヤー_1
  6
CONTINUOUS
 62
       3
100
AcDbLine
 10
-122.41712936
 20
-22.20910517
 30
0.0
 11
-122.20148825
 21
-22.3954605
 31
0.0
  0
LINE
  5
36E
100
AcDbEntity
  8
レイヤー_1
  6
CONTINUOUS
 62
       3
100
AcDbLine
 10
-122.20148825
 20
-22.3954605
 30
0.0
 11
-121.9687666
 21
-22.56077988
 31
0.0
  0
LINE
  5
36F
100
AcDbEntity
  8
レイヤー_1
  6
CONTINUOUS
 62
       3
100
AcDbLine
 10
-121.9687666
 20
-22.56077988
 30
0.0
 11
-121.72034162
 21
-22.70356673
 31
0.0
  0
LINE
  5
370
100
AcDbEntity
  8
レイヤー_1
  6
CONTINUOUS
 62
       3
100
AcDbLine
 10
-121.72034162
 20
-22.70356673
 30
0.0
 11
-121.45759048
 21
-22.82232445
 31
0.0
  0
LINE
  5
371
100
AcDbEntity
  8
レイヤー_1
  6
CONTINUOUS
 62
       3
100
AcDbLine
 10
-121.45759048
 20
-22.82232445
 30
0.0
 11
-121.1818904
 21
-22.91555647
 31
0.0
  0
LINE
  5
372
100
AcDbEntity
  8
レイヤー_1
  6
CONTINUOUS
 62
       3
100
AcDbLine
 10
-121.1818904
 20
-22.91555647
 30
0.0
 11
-120.89461855
 21
-22.98176619
 31
0.0
  0
LINE
  5
373
100
AcDbEntity
  8
レイヤー_1
  6
CONTINUOUS
 62
       3
100
AcDbLine
 10
-120.89461855
 20
-22.98176619
 30
0.0
 11
-120.59715213
 21
-23.01945702
 31
0.0
  0
LINE
  5
374
100
AcDbEntity
  8
レイヤー_1
  6
CONTINUOUS
 62
       3
100
AcDbLine
 10
-120.59715213
 20
-23.01945702
 30
0.0
 11
-120.2913401
 21
-23.02714017
 31
0.0
  0
LINE
  5
375
100
AcDbEntity
  8
レイヤー_1
  6
CONTINUOUS
 62
       3
100
AcDbLine
 10
-120.2913401
 20
-23.02714017
 30
0.0
 11
-119.98864833
 21
-23.00427
 31
0.0
  0
LINE
  5
376
100
AcDbEntity
  8
レイヤー_1
  6
CONTINUOUS
 62
       3
100
AcDbLine
 10
-119.98864833
 20
-23.00427
 30
0.0
 11
-119.69461763
 21
-22.95213265
 31
0.0
  0
LINE
  5
377
100
AcDbEntity
  8
レイヤー_1
  6
CONTINUOUS
 62
       3
100
AcDbLine
 10
-119.69461763
 20
-22.95213265
 30
0.0
 11
-119.4107475
 21
-22.87222471
 31
0.0
  0
LINE
  5
378
100
AcDbEntity
  8
レイヤー_1
  6
CONTINUOUS
 62
       3
100
AcDbLine
 10
-119.4107475
 20
-22.87222471
 30
0.0
 11
-119.13853747
 21
-22.76604277
 31
0.0
  0
LINE
  5
379
100
AcDbEntity
  8
レイヤー_1
  6
CONTINUOUS
 62
       3
100
AcDbLine
 10
-119.13853747
 20
-22.76604277
 30
0.0
 11
-118.87948703
 21
-22.63508341
 31
0.0
  0
LINE
  5
37A
100
AcDbEntity
  8
レイヤー_1
  6
CONTINUOUS
 62
       3
100
AcDbLine
 10
-118.87948703
 20
-22.63508341
 30
0.0
 11
-118.63509572
 21
-22.48084322
 31
0.0
  0
LINE
  5
37B
100
AcDbEntity
  8
レイヤー_1
  6
CONTINUOUS
 62
       3
100
AcDbLine
 10
-118.63509572
 20
-22.48084322
 30
0.0
 11
-118.40686302
 21
-22.30481879
 31
0.0
  0
LINE
  5
37C
100
AcDbEntity
  8
レイヤー_1
  6
CONTINUOUS
 62
       3
100
AcDbLine
 10
-118.40686302
 20
-22.30481879
 30
0.0
 11
-118.19628847
 21
-22.10850672
 31
0.0
  0
LINE
  5
37D
100
AcDbEntity
  8
レイヤー_1
  6
CONTINUOUS
 62
       3
100
AcDbLine
 10
-118.19628847
 20
-22.10850672
 30
0.0
 11
-118.00487158
 21
-21.89340358
 31
0.0
  0
LINE
  5
37E
100
AcDbEntity
  8
レイヤー_1
  6
CONTINUOUS
 62
       3
100
AcDbLine
 10
-118.00487158
 20
-21.89340358
 30
0.0
 11
-117.83411185
 21
-21.66100597
 31
0.0
  0
LINE
  5
37F
100
AcDbEntity
  8
レイヤー_1
  6
CONTINUOUS
 62
       3
100
AcDbLine
 10
-117.83411185
 20
-21.66100597
 30
0.0
 11
-117.6855088
 21
-21.41281048
 31
0.0
  0
LINE
  5
380
100
AcDbEntity
  8
レイヤー_1
  6
CONTINUOUS
 62
       3
100
AcDbLine
 10
-117.6855088
 20
-21.41281048
 30
0.0
 11
-117.56056194
 21
-21.1503137
 31
0.0
  0
LINE
  5
381
100
AcDbEntity
  8
レイヤー_1
  6
CONTINUOUS
 62
       3
100
AcDbLine
 10
-117.56056194
 20
-21.1503137
 30
0.0
 11
-117.46077079
 21
-20.87501221
 31
0.0
  0
LINE
  5
382
100
AcDbEntity
  8
レイヤー_1
  6
CONTINUOUS
 62
       3
100
AcDbLine
 10
-117.46077079
 20
-20.87501221
 30
0.0
 11
-117.38763485
 21
-20.58840261
 31
0.0
  0
LINE
  5
383
100
AcDbEntity
  8
レイヤー_1
  6
CONTINUOUS
 62
       3
100
AcDbLine
 10
-117.38763485
 20
-20.58840261
 30
0.0
 11
-117.34265365
 21
-20.29198148
 31
0.0
  0
LINE
  5
384
100
AcDbEntity
  8
レイヤー_1
  6
CONTINUOUS
 62
       3
100
AcDbLine
 10
-117.34265365
 20
-20.29198148
 30
0.0
 11
-117.32732669
 21
-19.98724542
 31
0.0
  0
LINE
  5
385
100
AcDbEntity
  8
レイヤー_1
  6
CONTINUOUS
 62
       3
100
AcDbLine
 10
-105.16526512
 20
-19.98724542
 30
0.0
 11
-105.18058465
 21
-19.68315779
 31
0.0
  0
LINE
  5
386
100
AcDbEntity
  8
レイヤー_1
  6
CONTINUOUS
 62
       3
100
AcDbLine
 10
-105.18058465
 20
-19.68315779
 30
0.0
 11
-105.22554551
 21
-19.38821697
 31
0.0
  0
LINE
  5
387
100
AcDbEntity
  8
レイヤー_1
  6
CONTINUOUS
 62
       3
100
AcDbLine
 10
-105.22554551
 20
-19.38821697
 30
0.0
 11
-105.29865111
 21
-19.10380112
 31
0.0
  0
LINE
  5
388
100
AcDbEntity
  8
レイヤー_1
  6
CONTINUOUS
 62
       3
100
AcDbLine
 10
-105.29865111
 20
-19.10380112
 30
0.0
 11
-105.39840486
 21
-18.83128842
 31
0.0
  0
LINE
  5
389
100
AcDbEntity
  8
レイヤー_1
  6
CONTINUOUS
 62
       3
100
AcDbLine
 10
-105.39840486
 20
-18.83128842
 30
0.0
 11
-105.52331017
 21
-18.57205704
 31
0.0
  0
LINE
  5
38A
100
AcDbEntity
  8
レイヤー_1
  6
CONTINUOUS
 62
       3
100
AcDbLine
 10
-105.52331017
 20
-18.57205704
 30
0.0
 11
-105.67187046
 21
-18.32748513
 31
0.0
  0
LINE
  5
38B
100
AcDbEntity
  8
レイヤー_1
  6
CONTINUOUS
 62
       3
100
AcDbLine
 10
-105.67187046
 20
-18.32748513
 30
0.0
 11
-105.84258913
 21
-18.09895088
 31
0.0
  0
LINE
  5
38C
100
AcDbEntity
  8
レイヤー_1
  6
CONTINUOUS
 62
       3
100
AcDbLine
 10
-105.84258913
 20
-18.09895088
 30
0.0
 11
-106.0339696
 21
-17.88783244
 31
0.0
  0
LINE
  5
38D
100
AcDbEntity
  8
レイヤー_1
  6
CONTINUOUS
 62
       3
100
AcDbLine
 10
-106.0339696
 20
-17.88783244
 30
0.0
 11
-106.24451527
 21
-17.69550798
 31
0.0
  0
LINE
  5
38E
100
AcDbEntity
  8
レイヤー_1
  6
CONTINUOUS
 62
       3
100
AcDbLine
 10
-106.24451527
 20
-17.69550798
 30
0.0
 11
-106.47272957
 21
-17.52335568
 31
0.0
  0
LINE
  5
38F
100
AcDbEntity
  8
レイヤー_1
  6
CONTINUOUS
 62
       3
100
AcDbLine
 10
-106.47272957
 20
-17.52335568
 30
0.0
 11
-106.71711589
 21
-17.37275369
 31
0.0
  0
LINE
  5
390
100
AcDbEntity
  8
レイヤー_1
  6
CONTINUOUS
 62
       3
100
AcDbLine
 10
-106.71711589
 20
-17.37275369
 30
0.0
 11
-106.97617766
 21
-17.2450802
 31
0.0
  0
LINE
  5
391
100
AcDbEntity
  8
レイヤー_1
  6
CONTINUOUS
 62
       3
100
AcDbLine
 10
-106.97617766
 20
-17.2450802
 30
0.0
 11
-107.24841827
 21
-17.14171336
 31
0.0
  0
LINE
  5
392
100
AcDbEntity
  8
レイヤー_1
  6
CONTINUOUS
 62
       3
100
AcDbLine
 10
-107.24841827
 20
-17.14171336
 30
0.0
 11
-107.53234115
 21
-17.06403134
 31
0.0
  0
LINE
  5
393
100
AcDbEntity
  8
レイヤー_1
  6
CONTINUOUS
 62
       3
100
AcDbLine
 10
-107.53234115
 20
-17.06403134
 30
0.0
 11
-107.8264497
 21
-17.01341231
 31
0.0
  0
LINE
  5
394
100
AcDbEntity
  8
レイヤー_1
  6
CONTINUOUS
 62
       3
100
AcDbLine
 10
-107.8264497
 20
-17.01341231
 30
0.0
 11
-108.12924734
 21
-16.99123444
 31
0.0
  0
LINE
  5
395
100
AcDbEntity
  8
レイヤー_1
  6
CONTINUOUS
 62
       3
100
AcDbLine
 10
-108.12924734
 20
-16.99123444
 30
0.0
 11
-108.43509057
 21
-16.9986821
 31
0.0
  0
LINE
  5
396
100
AcDbEntity
  8
レイヤー_1
  6
CONTINUOUS
 62
       3
100
AcDbLine
 10
-108.43509057
 20
-16.9986821
 30
0.0
 11
-108.73255698
 21
-17.03525281
 31
0.0
  0
LINE
  5
397
100
AcDbEntity
  8
レイヤー_1
  6
CONTINUOUS
 62
       3
100
AcDbLine
 10
-108.73255698
 20
-17.03525281
 30
0.0
 11
-109.01982883
 21
-17.09957561
 31
0.0
  0
LINE
  5
398
100
AcDbEntity
  8
レイヤー_1
  6
CONTINUOUS
 62
       3
100
AcDbLine
 10
-109.01982883
 20
-17.09957561
 30
0.0
 11
-109.29552892
 21
-17.19027231
 31
0.0
  0
LINE
  5
399
100
AcDbEntity
  8
レイヤー_1
  6
CONTINUOUS
 62
       3
100
AcDbLine
 10
-109.29552892
 20
-17.19027231
 30
0.0
 11
-109.55828005
 21
-17.30596475
 31
0.0
  0
LINE
  5
39A
100
AcDbEntity
  8
レイヤー_1
  6
CONTINUOUS
 62
       3
100
AcDbLine
 10
-109.55828005
 20
-17.30596475
 30
0.0
 11
-109.80670504
 21
-17.44527476
 31
0.0
  0
LINE
  5
39B
100
AcDbEntity
  8
レイヤー_1
  6
CONTINUOUS
 62
       3
100
AcDbLine
 10
-109.80670504
 20
-17.44527476
 30
0.0
 11
-110.03942668
 21
-17.60682418
 31
0.0
  0
LINE
  5
39C
100
AcDbEntity
  8
レイヤー_1
  6
CONTINUOUS
 62
       3
100
AcDbLine
 10
-110.03942668
 20
-17.60682418
 30
0.0
 11
-110.25506779
 21
-17.78923483
 31
0.0
  0
LINE
  5
39D
100
AcDbEntity
  8
レイヤー_1
  6
CONTINUOUS
 62
       3
100
AcDbLine
 10
-110.25506779
 20
-17.78923483
 30
0.0
 11
-110.45225118
 21
-17.99112855
 31
0.0
  0
LINE
  5
39E
100
AcDbEntity
  8
レイヤー_1
  6
CONTINUOUS
 62
       3
100
AcDbLine
 10
-110.45225118
 20
-17.99112855
 30
0.0
 11
-110.62959964
 21
-18.21112716
 31
0.0
  0
LINE
  5
39F
100
AcDbEntity
  8
レイヤー_1
  6
CONTINUOUS
 62
       3
100
AcDbLine
 10
-110.62959964
 20
-18.21112716
 30
0.0
 11
-110.785736
 21
-18.44785252
 31
0.0
  0
LINE
  5
3A0
100
AcDbEntity
  8
レイヤー_1
  6
CONTINUOUS
 62
       3
100
AcDbLine
 10
-110.785736
 20
-18.44785252
 30
0.0
 11
-110.91928304
 21
-18.69992643
 31
0.0
  0
LINE
  5
3A1
100
AcDbEntity
  8
レイヤー_1
  6
CONTINUOUS
 62
       3
100
AcDbLine
 10
-110.91928304
 20
-18.69992643
 30
0.0
 11
-111.02886359
 21
-18.96597075
 31
0.0
  0
LINE
  5
3A2
100
AcDbEntity
  8
レイヤー_1
  6
CONTINUOUS
 62
       3
100
AcDbLine
 10
-111.02886359
 20
-18.96597075
 30
0.0
 11
-111.11310044
 21
-19.24460729
 31
0.0
  0
LINE
  5
3A3
100
AcDbEntity
  8
レイヤー_1
  6
CONTINUOUS
 62
       3
100
AcDbLine
 10
-111.11310044
 20
-19.24460729
 30
0.0
 11
-111.17061641
 21
-19.53445789
 31
0.0
  0
LINE
  5
3A4
100
AcDbEntity
  8
レイヤー_1
  6
CONTINUOUS
 62
       3
100
AcDbLine
 10
-111.17061641
 20
-19.53445789
 30
0.0
 11
-111.2000343
 21
-19.83414439
 31
0.0
  0
LINE
  5
3A5
100
AcDbEntity
  8
レイヤー_1
  6
CONTINUOUS
 62
       3
100
AcDbLine
 10
-111.2000343
 20
-19.83414439
 30
0.0
 11
-111.2000343
 21
-20.14055928
 31
0.0
  0
LINE
  5
3A6
100
AcDbEntity
  8
レイヤー_1
  6
CONTINUOUS
 62
       3
100
AcDbLine
 10
-111.2000343
 20
-20.14055928
 30
0.0
 11
-111.17061641
 21
-20.44132495
 31
0.0
  0
LINE
  5
3A7
100
AcDbEntity
  8
レイヤー_1
  6
CONTINUOUS
 62
       3
100
AcDbLine
 10
-111.17061641
 20
-20.44132495
 30
0.0
 11
-111.11310044
 21
-20.73302739
 31
0.0
  0
LINE
  5
3A8
100
AcDbEntity
  8
レイヤー_1
  6
CONTINUOUS
 62
       3
100
AcDbLine
 10
-111.11310044
 20
-20.73302739
 30
0.0
 11
-111.02886359
 21
-21.01417001
 31
0.0
  0
LINE
  5
3A9
100
AcDbEntity
  8
レイヤー_1
  6
CONTINUOUS
 62
       3
100
AcDbLine
 10
-111.02886359
 20
-21.01417001
 30
0.0
 11
-110.91928304
 21
-21.28325622
 31
0.0
  0
LINE
  5
3AA
100
AcDbEntity
  8
レイヤー_1
  6
CONTINUOUS
 62
       3
100
AcDbLine
 10
-110.91928304
 20
-21.28325622
 30
0.0
 11
-110.785736
 21
-21.53878943
 31
0.0
  0
LINE
  5
3AB
100
AcDbEntity
  8
レイヤー_1
  6
CONTINUOUS
 62
       3
100
AcDbLine
 10
-110.785736
 20
-21.53878943
 30
0.0
 11
-110.62959964
 21
-21.77927305
 31
0.0
  0
LINE
  5
3AC
100
AcDbEntity
  8
レイヤー_1
  6
CONTINUOUS
 62
       3
100
AcDbLine
 10
-110.62959964
 20
-21.77927305
 30
0.0
 11
-110.45225118
 21
-22.00321049
 31
0.0
  0
LINE
  5
3AD
100
AcDbEntity
  8
レイヤー_1
  6
CONTINUOUS
 62
       3
100
AcDbLine
 10
-110.45225118
 20
-22.00321049
 30
0.0
 11
-110.25506779
 21
-22.20910517
 31
0.0
  0
LINE
  5
3AE
100
AcDbEntity
  8
レイヤー_1
  6
CONTINUOUS
 62
       3
100
AcDbLine
 10
-110.25506779
 20
-22.20910517
 30
0.0
 11
-110.03942668
 21
-22.3954605
 31
0.0
  0
LINE
  5
3AF
100
AcDbEntity
  8
レイヤー_1
  6
CONTINUOUS
 62
       3
100
AcDbLine
 10
-110.03942668
 20
-22.3954605
 30
0.0
 11
-109.80670504
 21
-22.56077988
 31
0.0
  0
LINE
  5
3B0
100
AcDbEntity
  8
レイヤー_1
  6
CONTINUOUS
 62
       3
100
AcDbLine
 10
-109.80670504
 20
-22.56077988
 30
0.0
 11
-109.55828005
 21
-22.70356673
 31
0.0
  0
LINE
  5
3B1
100
AcDbEntity
  8
レイヤー_1
  6
CONTINUOUS
 62
       3
100
AcDbLine
 10
-109.55828005
 20
-22.70356673
 30
0.0
 11
-109.29552892
 21
-22.82232445
 31
0.0
  0
LINE
  5
3B2
100
AcDbEntity
  8
レイヤー_1
  6
CONTINUOUS
 62
       3
100
AcDbLine
 10
-109.29552892
 20
-22.82232445
 30
0.0
 11
-109.01982883
 21
-22.91555647
 31
0.0
  0
LINE
  5
3B3
100
AcDbEntity
  8
レイヤー_1
  6
CONTINUOUS
 62
       3
100
AcDbLine
 10
-109.01982883
 20
-22.91555647
 30
0.0
 11
-108.73255698
 21
-22.98176619
 31
0.0
  0
LINE
  5
3B4
100
AcDbEntity
  8
レイヤー_1
  6
CONTINUOUS
 62
       3
100
AcDbLine
 10
-108.73255698
 20
-22.98176619
 30
0.0
 11
-108.43509057
 21
-23.01945702
 31
0.0
  0
LINE
  5
3B5
100
AcDbEntity
  8
レイヤー_1
  6
CONTINUOUS
 62
       3
100
AcDbLine
 10
-108.43509057
 20
-23.01945702
 30
0.0
 11
-108.12924734
 21
-23.02714017
 31
0.0
  0
LINE
  5
3B6
100
AcDbEntity
  8
レイヤー_1
  6
CONTINUOUS
 62
       3
100
AcDbLine
 10
-108.12924734
 20
-23.02714017
 30
0.0
 11
-107.8264497
 21
-23.00427
 31
0.0
  0
LINE
  5
3B7
100
AcDbEntity
  8
レイヤー_1
  6
CONTINUOUS
 62
       3
100
AcDbLine
 10
-107.8264497
 20
-23.00427
 30
0.0
 11
-107.53234115
 21
-22.95213265
 31
0.0
  0
LINE
  5
3B8
100
AcDbEntity
  8
レイヤー_1
  6
CONTINUOUS
 62
       3
100
AcDbLine
 10
-107.53234115
 20
-22.95213265
 30
0.0
 11
-107.24841827
 21
-22.87222471
 31
0.0
  0
LINE
  5
3B9
100
AcDbEntity
  8
レイヤー_1
  6
CONTINUOUS
 62
       3
100
AcDbLine
 10
-107.24841827
 20
-22.87222471
 30
0.0
 11
-106.97617766
 21
-22.76604277
 31
0.0
  0
LINE
  5
3BA
100
AcDbEntity
  8
レイヤー_1
  6
CONTINUOUS
 62
       3
100
AcDbLine
 10
-106.97617766
 20
-22.76604277
 30
0.0
 11
-106.71711589
 21
-22.63508341
 31
0.0
  0
LINE
  5
3BB
100
AcDbEntity
  8
レイヤー_1
  6
CONTINUOUS
 62
       3
100
AcDbLine
 10
-106.71711589
 20
-22.63508341
 30
0.0
 11
-106.47272957
 21
-22.48084322
 31
0.0
  0
LINE
  5
3BC
100
AcDbEntity
  8
レイヤー_1
  6
CONTINUOUS
 62
       3
100
AcDbLine
 10
-106.47272957
 20
-22.48084322
 30
0.0
 11
-106.24451527
 21
-22.30481879
 31
0.0
  0
LINE
  5
3BD
100
AcDbEntity
  8
レイヤー_1
  6
CONTINUOUS
 62
       3
100
AcDbLine
 10
-106.24451527
 20
-22.30481879
 30
0.0
 11
-106.0339696
 21
-22.10850672
 31
0.0
  0
LINE
  5
3BE
100
AcDbEntity
  8
レイヤー_1
  6
CONTINUOUS
 62
       3
100
AcDbLine
 10
-106.0339696
 20
-22.10850672
 30
0.0
 11
-105.84258913
 21
-21.89340358
 31
0.0
  0
LINE
  5
3BF
100
AcDbEntity
  8
レイヤー_1
  6
CONTINUOUS
 62
       3
100
AcDbLine
 10
-105.84258913
 20
-21.89340358
 30
0.0
 11
-105.67187046
 21
-21.66100597
 31
0.0
  0
LINE
  5
3C0
100
AcDbEntity
  8
レイヤー_1
  6
CONTINUOUS
 62
       3
100
AcDbLine
 10
-105.67187046
 20
-21.66100597
 30
0.0
 11
-105.52331017
 21
-21.41281048
 31
0.0
  0
LINE
  5
3C1
100
AcDbEntity
  8
レイヤー_1
  6
CONTINUOUS
 62
       3
100
AcDbLine
 10
-105.52331017
 20
-21.41281048
 30
0.0
 11
-105.39840486
 21
-21.1503137
 31
0.0
  0
LINE
  5
3C2
100
AcDbEntity
  8
レイヤー_1
  6
CONTINUOUS
 62
       3
100
AcDbLine
 10
-105.39840486
 20
-21.1503137
 30
0.0
 11
-105.29865111
 21
-20.87501221
 31
0.0
  0
LINE
  5
3C3
100
AcDbEntity
  8
レイヤー_1
  6
CONTINUOUS
 62
       3
100
AcDbLine
 10
-105.29865111
 20
-20.87501221
 30
0.0
 11
-105.22554551
 21
-20.58840261
 31
0.0
  0
LINE
  5
3C4
100
AcDbEntity
  8
レイヤー_1
  6
CONTINUOUS
 62
       3
100
AcDbLine
 10
-105.22554551
 20
-20.58840261
 30
0.0
 11
-105.18058465
 21
-20.29198148
 31
0.0
  0
LINE
  5
3C5
100
AcDbEntity
  8
レイヤー_1
  6
CONTINUOUS
 62
       3
100
AcDbLine
 10
-105.18058465
 20
-20.29198148
 30
0.0
 11
-105.16526512
 21
-19.98724542
 31
0.0
  0
LINE
  5
3C6
100
AcDbEntity
  8
レイヤー_1
  6
CONTINUOUS
 62
       3
100
AcDbLine
 10
-105.16526512
 20
-11.93671068
 30
0.0
 11
-105.18058465
 21
-11.63261925
 31
0.0
  0
LINE
  5
3C7
100
AcDbEntity
  8
レイヤー_1
  6
CONTINUOUS
 62
       3
100
AcDbLine
 10
-105.18058465
 20
-11.63261925
 30
0.0
 11
-105.22554551
 21
-11.33766769
 31
0.0
  0
LINE
  5
3C8
100
AcDbEntity
  8
レイヤー_1
  6
CONTINUOUS
 62
       3
100
AcDbLine
 10
-105.22554551
 20
-11.33766769
 30
0.0
 11
-105.29865111
 21
-11.05323514
 31
0.0
  0
LINE
  5
3C9
100
AcDbEntity
  8
レイヤー_1
  6
CONTINUOUS
 62
       3
100
AcDbLine
 10
-105.29865111
 20
-11.05323514
 30
0.0
 11
-105.39840486
 21
-10.78070073
 31
0.0
  0
LINE
  5
3CA
100
AcDbEntity
  8
レイヤー_1
  6
CONTINUOUS
 62
       3
100
AcDbLine
 10
-105.39840486
 20
-10.78070073
 30
0.0
 11
-105.52331017
 21
-10.52144362
 31
0.0
  0
LINE
  5
3CB
100
AcDbEntity
  8
レイヤー_1
  6
CONTINUOUS
 62
       3
100
AcDbLine
 10
-105.52331017
 20
-10.52144362
 30
0.0
 11
-105.67187046
 21
-10.27684294
 31
0.0
  0
LINE
  5
3CC
100
AcDbEntity
  8
レイヤー_1
  6
CONTINUOUS
 62
       3
100
AcDbLine
 10
-105.67187046
 20
-10.27684294
 30
0.0
 11
-105.84258913
 21
-10.04827784
 31
0.0
  0
LINE
  5
3CD
100
AcDbEntity
  8
レイヤー_1
  6
CONTINUOUS
 62
       3
100
AcDbLine
 10
-105.84258913
 20
-10.04827784
 30
0.0
 11
-106.0339696
 21
-9.83712746
 31
0.0
  0
LINE
  5
3CE
100
AcDbEntity
  8
レイヤー_1
  6
CONTINUOUS
 62
       3
100
AcDbLine
 10
-106.0339696
 20
-9.83712746
 30
0.0
 11
-106.24451527
 21
-9.64477094
 31
0.0
  0
LINE
  5
3CF
100
AcDbEntity
  8
レイヤー_1
  6
CONTINUOUS
 62
       3
100
AcDbLine
 10
-106.24451527
 20
-9.64477094
 30
0.0
 11
-106.47272957
 21
-9.47258743
 31
0.0
  0
LINE
  5
3D0
100
AcDbEntity
  8
レイヤー_1
  6
CONTINUOUS
 62
       3
100
AcDbLine
 10
-106.47272957
 20
-9.47258743
 30
0.0
 11
-106.71711589
 21
-9.32195606
 31
0.0
  0
LINE
  5
3D1
100
AcDbEntity
  8
レイヤー_1
  6
CONTINUOUS
 62
       3
100
AcDbLine
 10
-106.71711589
 20
-9.32195606
 30
0.0
 11
-106.97617766
 21
-9.19425599
 31
0.0
  0
LINE
  5
3D2
100
AcDbEntity
  8
レイヤー_1
  6
CONTINUOUS
 62
       3
100
AcDbLine
 10
-106.97617766
 20
-9.19425599
 30
0.0
 11
-107.24841827
 21
-9.09086634
 31
0.0
  0
LINE
  5
3D3
100
AcDbEntity
  8
レイヤー_1
  6
CONTINUOUS
 62
       3
100
AcDbLine
 10
-107.24841827
 20
-9.09086634
 30
0.0
 11
-107.53234115
 21
-9.01316627
 31
0.0
  0
LINE
  5
3D4
100
AcDbEntity
  8
レイヤー_1
  6
CONTINUOUS
 62
       3
100
AcDbLine
 10
-107.53234115
 20
-9.01316627
 30
0.0
 11
-107.8264497
 21
-8.96253492
 31
0.0
  0
LINE
  5
3D5
100
AcDbEntity
  8
レイヤー_1
  6
CONTINUOUS
 62
       3
100
AcDbLine
 10
-107.8264497
 20
-8.96253492
 30
0.0
 11
-108.12924734
 21
-8.94035143
 31
0.0
  0
LINE
  5
3D6
100
AcDbEntity
  8
レイヤー_1
  6
CONTINUOUS
 62
       3
100
AcDbLine
 10
-108.12924734
 20
-8.94035143
 30
0.0
 11
-108.43509057
 21
-8.947801
 31
0.0
  0
LINE
  5
3D7
100
AcDbEntity
  8
レイヤー_1
  6
CONTINUOUS
 62
       3
100
AcDbLine
 10
-108.43509057
 20
-8.947801
 30
0.0
 11
-108.73255698
 21
-8.98438081
 31
0.0
  0
LINE
  5
3D8
100
AcDbEntity
  8
レイヤー_1
  6
CONTINUOUS
 62
       3
100
AcDbLine
 10
-108.73255698
 20
-8.98438081
 30
0.0
 11
-109.01982883
 21
-9.04871892
 31
0.0
  0
LINE
  5
3D9
100
AcDbEntity
  8
レイヤー_1
  6
CONTINUOUS
 62
       3
100
AcDbLine
 10
-109.01982883
 20
-9.04871892
 30
0.0
 11
-109.29552892
 21
-9.13943617
 31
0.0
  0
LINE
  5
3DA
100
AcDbEntity
  8
レイヤー_1
  6
CONTINUOUS
 62
       3
100
AcDbLine
 10
-109.29552892
 20
-9.13943617
 30
0.0
 11
-109.55828005
 21
-9.25515342
 31
0.0
  0
LINE
  5
3DB
100
AcDbEntity
  8
レイヤー_1
  6
CONTINUOUS
 62
       3
100
AcDbLine
 10
-109.55828005
 20
-9.25515342
 30
0.0
 11
-109.80670504
 21
-9.39449153
 31
0.0
  0
LINE
  5
3DC
100
AcDbEntity
  8
レイヤー_1
  6
CONTINUOUS
 62
       3
100
AcDbLine
 10
-109.80670504
 20
-9.39449153
 30
0.0
 11
-110.03942668
 21
-9.55607137
 31
0.0
  0
LINE
  5
3DD
100
AcDbEntity
  8
レイヤー_1
  6
CONTINUOUS
 62
       3
100
AcDbLine
 10
-110.03942668
 20
-9.55607137
 30
0.0
 11
-110.25506779
 21
-9.73851377
 31
0.0
  0
LINE
  5
3DE
100
AcDbEntity
  8
レイヤー_1
  6
CONTINUOUS
 62
       3
100
AcDbLine
 10
-110.25506779
 20
-9.73851377
 30
0.0
 11
-110.45225118
 21
-9.94043962
 31
0.0
  0
LINE
  5
3DF
100
AcDbEntity
  8
レイヤー_1
  6
CONTINUOUS
 62
       3
100
AcDbLine
 10
-110.45225118
 20
-9.94043962
 30
0.0
 11
-110.62959964
 21
-10.16046975
 31
0.0
  0
LINE
  5
3E0
100
AcDbEntity
  8
レイヤー_1
  6
CONTINUOUS
 62
       3
100
AcDbLine
 10
-110.62959964
 20
-10.16046975
 30
0.0
 11
-110.785736
 21
-10.39722503
 31
0.0
  0
LINE
  5
3E1
100
AcDbEntity
  8
レイヤー_1
  6
CONTINUOUS
 62
       3
100
AcDbLine
 10
-110.785736
 20
-10.39722503
 30
0.0
 11
-110.91928304
 21
-10.64932632
 31
0.0
  0
LINE
  5
3E2
100
AcDbEntity
  8
レイヤー_1
  6
CONTINUOUS
 62
       3
100
AcDbLine
 10
-110.91928304
 20
-10.64932632
 30
0.0
 11
-111.02886359
 21
-10.91539447
 31
0.0
  0
LINE
  5
3E3
100
AcDbEntity
  8
レイヤー_1
  6
CONTINUOUS
 62
       3
100
AcDbLine
 10
-111.02886359
 20
-10.91539447
 30
0.0
 11
-111.11310044
 21
-11.19405034
 31
0.0
  0
LINE
  5
3E4
100
AcDbEntity
  8
レイヤー_1
  6
CONTINUOUS
 62
       3
100
AcDbLine
 10
-111.11310044
 20
-11.19405034
 30
0.0
 11
-111.17061641
 21
-11.48391479
 31
0.0
  0
LINE
  5
3E5
100
AcDbEntity
  8
レイヤー_1
  6
CONTINUOUS
 62
       3
100
AcDbLine
 10
-111.17061641
 20
-11.48391479
 30
0.0
 11
-111.2000343
 21
-11.78360868
 31
0.0
  0
LINE
  5
3E6
100
AcDbEntity
  8
レイヤー_1
  6
CONTINUOUS
 62
       3
100
AcDbLine
 10
-111.2000343
 20
-11.78360868
 30
0.0
 11
-111.2000343
 21
-12.09005574
 31
0.0
  0
LINE
  5
3E7
100
AcDbEntity
  8
レイヤー_1
  6
CONTINUOUS
 62
       3
100
AcDbLine
 10
-111.2000343
 20
-12.09005574
 30
0.0
 11
-111.17061641
 21
-12.3908781
 31
0.0
  0
LINE
  5
3E8
100
AcDbEntity
  8
レイヤー_1
  6
CONTINUOUS
 62
       3
100
AcDbLine
 10
-111.17061641
 20
-12.3908781
 30
0.0
 11
-111.11310044
 21
-12.68263003
 31
0.0
  0
LINE
  5
3E9
100
AcDbEntity
  8
レイヤー_1
  6
CONTINUOUS
 62
       3
100
AcDbLine
 10
-111.11310044
 20
-12.68263003
 30
0.0
 11
-111.02886359
 21
-12.96381545
 31
0.0
  0
LINE
  5
3EA
100
AcDbEntity
  8
レイヤー_1
  6
CONTINUOUS
 62
       3
100
AcDbLine
 10
-111.02886359
 20
-12.96381545
 30
0.0
 11
-110.91928304
 21
-13.23293825
 31
0.0
  0
LINE
  5
3EB
100
AcDbEntity
  8
レイヤー_1
  6
CONTINUOUS
 62
       3
100
AcDbLine
 10
-110.91928304
 20
-13.23293825
 30
0.0
 11
-110.785736
 21
-13.48850231
 31
0.0
  0
LINE
  5
3EC
100
AcDbEntity
  8
レイヤー_1
  6
CONTINUOUS
 62
       3
100
AcDbLine
 10
-110.785736
 20
-13.48850231
 30
0.0
 11
-110.62959964
 21
-13.72901156
 31
0.0
  0
LINE
  5
3ED
100
AcDbEntity
  8
レイヤー_1
  6
CONTINUOUS
 62
       3
100
AcDbLine
 10
-110.62959964
 20
-13.72901156
 30
0.0
 11
-110.45225118
 21
-13.95296987
 31
0.0
  0
LINE
  5
3EE
100
AcDbEntity
  8
レイヤー_1
  6
CONTINUOUS
 62
       3
100
AcDbLine
 10
-110.45225118
 20
-13.95296987
 30
0.0
 11
-110.25506779
 21
-14.15888115
 31
0.0
  0
LINE
  5
3EF
100
AcDbEntity
  8
レイヤー_1
  6
CONTINUOUS
 62
       3
100
AcDbLine
 10
-110.25506779
 20
-14.15888115
 30
0.0
 11
-110.03942668
 21
-14.34524931
 31
0.0
  0
LINE
  5
3F0
100
AcDbEntity
  8
レイヤー_1
  6
CONTINUOUS
 62
       3
100
AcDbLine
 10
-110.03942668
 20
-14.34524931
 30
0.0
 11
-109.80670504
 21
-14.51057822
 31
0.0
  0
LINE
  5
3F1
100
AcDbEntity
  8
レイヤー_1
  6
CONTINUOUS
 62
       3
100
AcDbLine
 10
-109.80670504
 20
-14.51057822
 30
0.0
 11
-109.55828005
 21
-14.65337181
 31
0.0
  0
LINE
  5
3F2
100
AcDbEntity
  8
レイヤー_1
  6
CONTINUOUS
 62
       3
100
AcDbLine
 10
-109.55828005
 20
-14.65337181
 30
0.0
 11
-109.29552892
 21
-14.77213396
 31
0.0
  0
LINE
  5
3F3
100
AcDbEntity
  8
レイヤー_1
  6
CONTINUOUS
 62
       3
100
AcDbLine
 10
-109.29552892
 20
-14.77213396
 30
0.0
 11
-109.01982883
 21
-14.86536857
 31
0.0
  0
LINE
  5
3F4
100
AcDbEntity
  8
レイヤー_1
  6
CONTINUOUS
 62
       3
100
AcDbLine
 10
-109.01982883
 20
-14.86536857
 30
0.0
 11
-108.73255698
 21
-14.93157954
 31
0.0
  0
LINE
  5
3F5
100
AcDbEntity
  8
レイヤー_1
  6
CONTINUOUS
 62
       3
100
AcDbLine
 10
-108.73255698
 20
-14.93157954
 30
0.0
 11
-108.43509057
 21
-14.96927077
 31
0.0
  0
LINE
  5
3F6
100
AcDbEntity
  8
レイヤー_1
  6
CONTINUOUS
 62
       3
100
AcDbLine
 10
-108.43509057
 20
-14.96927077
 30
0.0
 11
-108.12924734
 21
-14.97695395
 31
0.0
  0
LINE
  5
3F7
100
AcDbEntity
  8
レイヤー_1
  6
CONTINUOUS
 62
       3
100
AcDbLine
 10
-108.12924734
 20
-14.97695395
 30
0.0
 11
-107.8264497
 21
-14.95408363
 31
0.0
  0
LINE
  5
3F8
100
AcDbEntity
  8
レイヤー_1
  6
CONTINUOUS
 62
       3
100
AcDbLine
 10
-107.8264497
 20
-14.95408363
 30
0.0
 11
-107.53234115
 21
-14.90194552
 31
0.0
  0
LINE
  5
3F9
100
AcDbEntity
  8
レイヤー_1
  6
CONTINUOUS
 62
       3
100
AcDbLine
 10
-107.53234115
 20
-14.90194552
 30
0.0
 11
-107.24841827
 21
-14.82203571
 31
0.0
  0
LINE
  5
3FA
100
AcDbEntity
  8
レイヤー_1
  6
CONTINUOUS
 62
       3
100
AcDbLine
 10
-107.24841827
 20
-14.82203571
 30
0.0
 11
-106.97617766
 21
-14.71585032
 31
0.0
  0
LINE
  5
3FB
100
AcDbEntity
  8
レイヤー_1
  6
CONTINUOUS
 62
       3
100
AcDbLine
 10
-106.97617766
 20
-14.71585032
 30
0.0
 11
-106.71711589
 21
-14.58488544
 31
0.0
  0
LINE
  5
3FC
100
AcDbEntity
  8
レイヤー_1
  6
CONTINUOUS
 62
       3
100
AcDbLine
 10
-106.71711589
 20
-14.58488544
 30
0.0
 11
-106.47272957
 21
-14.43063718
 31
0.0
  0
LINE
  5
3FD
100
AcDbEntity
  8
レイヤー_1
  6
CONTINUOUS
 62
       3
100
AcDbLine
 10
-106.47272957
 20
-14.43063718
 30
0.0
 11
-106.24451527
 21
-14.25460163
 31
0.0
  0
LINE
  5
3FE
100
AcDbEntity
  8
レイヤー_1
  6
CONTINUOUS
 62
       3
100
AcDbLine
 10
-106.24451527
 20
-14.25460163
 30
0.0
 11
-106.0339696
 21
-14.0582749
 31
0.0
  0
LINE
  5
3FF
100
AcDbEntity
  8
レイヤー_1
  6
CONTINUOUS
 62
       3
100
AcDbLine
 10
-106.0339696
 20
-14.0582749
 30
0.0
 11
-105.84258913
 21
-13.84315308
 31
0.0
  0
LINE
  5
400
100
AcDbEntity
  8
レイヤー_1
  6
CONTINUOUS
 62
       3
100
AcDbLine
 10
-105.84258913
 20
-13.84315308
 30
0.0
 11
-105.67187046
 21
-13.61073229
 31
0.0
  0
LINE
  5
401
100
AcDbEntity
  8
レイヤー_1
  6
CONTINUOUS
 62
       3
100
AcDbLine
 10
-105.67187046
 20
-13.61073229
 30
0.0
 11
-105.52331017
 21
-13.36250863
 31
0.0
  0
LINE
  5
402
100
AcDbEntity
  8
レイヤー_1
  6
CONTINUOUS
 62
       3
100
AcDbLine
 10
-105.52331017
 20
-13.36250863
 30
0.0
 11
-105.39840486
 21
-13.09997818
 31
0.0
  0
LINE
  5
403
100
AcDbEntity
  8
レイヤー_1
  6
CONTINUOUS
 62
       3
100
AcDbLine
 10
-105.39840486
 20
-13.09997818
 30
0.0
 11
-105.29865111
 21
-12.82463706
 31
0.0
  0
LINE
  5
404
100
AcDbEntity
  8
レイヤー_1
  6
CONTINUOUS
 62
       3
100
AcDbLine
 10
-105.29865111
 20
-12.82463706
 30
0.0
 11
-105.22554551
 21
-12.53798137
 31
0.0
  0
LINE
  5
405
100
AcDbEntity
  8
レイヤー_1
  6
CONTINUOUS
 62
       3
100
AcDbLine
 10
-105.22554551
 20
-12.53798137
 30
0.0
 11
-105.18058465
 21
-12.24150721
 31
0.0
  0
LINE
  5
406
100
AcDbEntity
  8
レイヤー_1
  6
CONTINUOUS
 62
       3
100
AcDbLine
 10
-105.18058465
 20
-12.24150721
 30
0.0
 11
-105.16526512
 21
-11.93671068
 31
0.0
  0
LINE
  5
407
100
AcDbEntity
  8
レイヤー_1
  6
CONTINUOUS
 62
       3
100
AcDbLine
 10
-117.32732669
 20
-11.93671068
 30
0.0
 11
-117.34265365
 21
-11.63261925
 31
0.0
  0
LINE
  5
408
100
AcDbEntity
  8
レイヤー_1
  6
CONTINUOUS
 62
       3
100
AcDbLine
 10
-117.34265365
 20
-11.63261925
 30
0.0
 11
-117.38763485
 21
-11.33766769
 31
0.0
  0
LINE
  5
409
100
AcDbEntity
  8
レイヤー_1
  6
CONTINUOUS
 62
       3
100
AcDbLine
 10
-117.38763485
 20
-11.33766769
 30
0.0
 11
-117.46077079
 21
-11.05323514
 31
0.0
  0
LINE
  5
40A
100
AcDbEntity
  8
レイヤー_1
  6
CONTINUOUS
 62
       3
100
AcDbLine
 10
-117.46077079
 20
-11.05323514
 30
0.0
 11
-117.56056194
 21
-10.78070073
 31
0.0
  0
LINE
  5
40B
100
AcDbEntity
  8
レイヤー_1
  6
CONTINUOUS
 62
       3
100
AcDbLine
 10
-117.56056194
 20
-10.78070073
 30
0.0
 11
-117.6855088
 21
-10.52144362
 31
0.0
  0
LINE
  5
40C
100
AcDbEntity
  8
レイヤー_1
  6
CONTINUOUS
 62
       3
100
AcDbLine
 10
-117.6855088
 20
-10.52144362
 30
0.0
 11
-117.83411185
 21
-10.27684294
 31
0.0
  0
LINE
  5
40D
100
AcDbEntity
  8
レイヤー_1
  6
CONTINUOUS
 62
       3
100
AcDbLine
 10
-117.83411185
 20
-10.27684294
 30
0.0
 11
-118.00487158
 21
-10.04827784
 31
0.0
  0
LINE
  5
40E
100
AcDbEntity
  8
レイヤー_1
  6
CONTINUOUS
 62
       3
100
AcDbLine
 10
-118.00487158
 20
-10.04827784
 30
0.0
 11
-118.19628847
 21
-9.83712746
 31
0.0
  0
LINE
  5
40F
100
AcDbEntity
  8
レイヤー_1
  6
CONTINUOUS
 62
       3
100
AcDbLine
 10
-118.19628847
 20
-9.83712746
 30
0.0
 11
-118.40686302
 21
-9.64477094
 31
0.0
  0
LINE
  5
410
100
AcDbEntity
  8
レイヤー_1
  6
CONTINUOUS
 62
       3
100
AcDbLine
 10
-118.40686302
 20
-9.64477094
 30
0.0
 11
-118.63509572
 21
-9.47258743
 31
0.0
  0
LINE
  5
411
100
AcDbEntity
  8
レイヤー_1
  6
CONTINUOUS
 62
       3
100
AcDbLine
 10
-118.63509572
 20
-9.47258743
 30
0.0
 11
-118.87948703
 21
-9.32195606
 31
0.0
  0
LINE
  5
412
100
AcDbEntity
  8
レイヤー_1
  6
CONTINUOUS
 62
       3
100
AcDbLine
 10
-118.87948703
 20
-9.32195606
 30
0.0
 11
-119.13853747
 21
-9.19425599
 31
0.0
  0
LINE
  5
413
100
AcDbEntity
  8
レイヤー_1
  6
CONTINUOUS
 62
       3
100
AcDbLine
 10
-119.13853747
 20
-9.19425599
 30
0.0
 11
-119.4107475
 21
-9.09086634
 31
0.0
  0
LINE
  5
414
100
AcDbEntity
  8
レイヤー_1
  6
CONTINUOUS
 62
       3
100
AcDbLine
 10
-119.4107475
 20
-9.09086634
 30
0.0
 11
-119.69461763
 21
-9.01316627
 31
0.0
  0
LINE
  5
415
100
AcDbEntity
  8
レイヤー_1
  6
CONTINUOUS
 62
       3
100
AcDbLine
 10
-119.69461763
 20
-9.01316627
 30
0.0
 11
-119.98864833
 21
-8.96253492
 31
0.0
  0
LINE
  5
416
100
AcDbEntity
  8
レイヤー_1
  6
CONTINUOUS
 62
       3
100
AcDbLine
 10
-119.98864833
 20
-8.96253492
 30
0.0
 11
-120.2913401
 21
-8.94035143
 31
0.0
  0
LINE
  5
417
100
AcDbEntity
  8
レイヤー_1
  6
CONTINUOUS
 62
       3
100
AcDbLine
 10
-120.2913401
 20
-8.94035143
 30
0.0
 11
-120.59715213
 21
-8.947801
 31
0.0
  0
LINE
  5
418
100
AcDbEntity
  8
レイヤー_1
  6
CONTINUOUS
 62
       3
100
AcDbLine
 10
-120.59715213
 20
-8.947801
 30
0.0
 11
-120.89461855
 21
-8.98438081
 31
0.0
  0
LINE
  5
419
100
AcDbEntity
  8
レイヤー_1
  6
CONTINUOUS
 62
       3
100
AcDbLine
 10
-120.89461855
 20
-8.98438081
 30
0.0
 11
-121.1818904
 21
-9.04871892
 31
0.0
  0
LINE
  5
41A
100
AcDbEntity
  8
レイヤー_1
  6
CONTINUOUS
 62
       3
100
AcDbLine
 10
-121.1818904
 20
-9.04871892
 30
0.0
 11
-121.45759048
 21
-9.13943617
 31
0.0
  0
LINE
  5
41B
100
AcDbEntity
  8
レイヤー_1
  6
CONTINUOUS
 62
       3
100
AcDbLine
 10
-121.45759048
 20
-9.13943617
 30
0.0
 11
-121.72034162
 21
-9.25515342
 31
0.0
  0
LINE
  5
41C
100
AcDbEntity
  8
レイヤー_1
  6
CONTINUOUS
 62
       3
100
AcDbLine
 10
-121.72034162
 20
-9.25515342
 30
0.0
 11
-121.9687666
 21
-9.39449153
 31
0.0
  0
LINE
  5
41D
100
AcDbEntity
  8
レイヤー_1
  6
CONTINUOUS
 62
       3
100
AcDbLine
 10
-121.9687666
 20
-9.39449153
 30
0.0
 11
-122.20148825
 21
-9.55607137
 31
0.0
  0
LINE
  5
41E
100
AcDbEntity
  8
レイヤー_1
  6
CONTINUOUS
 62
       3
100
AcDbLine
 10
-122.20148825
 20
-9.55607137
 30
0.0
 11
-122.41712936
 21
-9.73851377
 31
0.0
  0
LINE
  5
41F
100
AcDbEntity
  8
レイヤー_1
  6
CONTINUOUS
 62
       3
100
AcDbLine
 10
-122.41712936
 20
-9.73851377
 30
0.0
 11
-122.61431275
 21
-9.94043962
 31
0.0
  0
LINE
  5
420
100
AcDbEntity
  8
レイヤー_1
  6
CONTINUOUS
 62
       3
100
AcDbLine
 10
-122.61431275
 20
-9.94043962
 30
0.0
 11
-122.79166121
 21
-10.16046975
 31
0.0
  0
LINE
  5
421
100
AcDbEntity
  8
レイヤー_1
  6
CONTINUOUS
 62
       3
100
AcDbLine
 10
-122.79166121
 20
-10.16046975
 30
0.0
 11
-122.94779756
 21
-10.39722503
 31
0.0
  0
LINE
  5
422
100
AcDbEntity
  8
レイヤー_1
  6
CONTINUOUS
 62
       3
100
AcDbLine
 10
-122.94779756
 20
-10.39722503
 30
0.0
 11
-123.08134461
 21
-10.64932632
 31
0.0
  0
LINE
  5
423
100
AcDbEntity
  8
レイヤー_1
  6
CONTINUOUS
 62
       3
100
AcDbLine
 10
-123.08134461
 20
-10.64932632
 30
0.0
 11
-123.19092515
 21
-10.91539447
 31
0.0
  0
LINE
  5
424
100
AcDbEntity
  8
レイヤー_1
  6
CONTINUOUS
 62
       3
100
AcDbLine
 10
-123.19092515
 20
-10.91539447
 30
0.0
 11
-123.27516201
 21
-11.19405034
 31
0.0
  0
LINE
  5
425
100
AcDbEntity
  8
レイヤー_1
  6
CONTINUOUS
 62
       3
100
AcDbLine
 10
-123.27516201
 20
-11.19405034
 30
0.0
 11
-123.33267798
 21
-11.48391479
 31
0.0
  0
LINE
  5
426
100
AcDbEntity
  8
レイヤー_1
  6
CONTINUOUS
 62
       3
100
AcDbLine
 10
-123.33267798
 20
-11.48391479
 30
0.0
 11
-123.36209587
 21
-11.78360868
 31
0.0
  0
LINE
  5
427
100
AcDbEntity
  8
レイヤー_1
  6
CONTINUOUS
 62
       3
100
AcDbLine
 10
-123.36209587
 20
-11.78360868
 30
0.0
 11
-123.36209587
 21
-12.09005574
 31
0.0
  0
LINE
  5
428
100
AcDbEntity
  8
レイヤー_1
  6
CONTINUOUS
 62
       3
100
AcDbLine
 10
-123.36209587
 20
-12.09005574
 30
0.0
 11
-123.33267798
 21
-12.3908781
 31
0.0
  0
LINE
  5
429
100
AcDbEntity
  8
レイヤー_1
  6
CONTINUOUS
 62
       3
100
AcDbLine
 10
-123.33267798
 20
-12.3908781
 30
0.0
 11
-123.27516201
 21
-12.68263003
 31
0.0
  0
LINE
  5
42A
100
AcDbEntity
  8
レイヤー_1
  6
CONTINUOUS
 62
       3
100
AcDbLine
 10
-123.27516201
 20
-12.68263003
 30
0.0
 11
-123.19092515
 21
-12.96381545
 31
0.0
  0
LINE
  5
42B
100
AcDbEntity
  8
レイヤー_1
  6
CONTINUOUS
 62
       3
100
AcDbLine
 10
-123.19092515
 20
-12.96381545
 30
0.0
 11
-123.08134461
 21
-13.23293825
 31
0.0
  0
LINE
  5
42C
100
AcDbEntity
  8
レイヤー_1
  6
CONTINUOUS
 62
       3
100
AcDbLine
 10
-123.08134461
 20
-13.23293825
 30
0.0
 11
-122.94779756
 21
-13.48850231
 31
0.0
  0
LINE
  5
42D
100
AcDbEntity
  8
レイヤー_1
  6
CONTINUOUS
 62
       3
100
AcDbLine
 10
-122.94779756
 20
-13.48850231
 30
0.0
 11
-122.79166121
 21
-13.72901156
 31
0.0
  0
LINE
  5
42E
100
AcDbEntity
  8
レイヤー_1
  6
CONTINUOUS
 62
       3
100
AcDbLine
 10
-122.79166121
 20
-13.72901156
 30
0.0
 11
-122.61431275
 21
-13.95296987
 31
0.0
  0
LINE
  5
42F
100
AcDbEntity
  8
レイヤー_1
  6
CONTINUOUS
 62
       3
100
AcDbLine
 10
-122.61431275
 20
-13.95296987
 30
0.0
 11
-122.41712936
 21
-14.15888115
 31
0.0
  0
LINE
  5
430
100
AcDbEntity
  8
レイヤー_1
  6
CONTINUOUS
 62
       3
100
AcDbLine
 10
-122.41712936
 20
-14.15888115
 30
0.0
 11
-122.20148825
 21
-14.34524931
 31
0.0
  0
LINE
  5
431
100
AcDbEntity
  8
レイヤー_1
  6
CONTINUOUS
 62
       3
100
AcDbLine
 10
-122.20148825
 20
-14.34524931
 30
0.0
 11
-121.9687666
 21
-14.51057822
 31
0.0
  0
LINE
  5
432
100
AcDbEntity
  8
レイヤー_1
  6
CONTINUOUS
 62
       3
100
AcDbLine
 10
-121.9687666
 20
-14.51057822
 30
0.0
 11
-121.72034162
 21
-14.65337181
 31
0.0
  0
LINE
  5
433
100
AcDbEntity
  8
レイヤー_1
  6
CONTINUOUS
 62
       3
100
AcDbLine
 10
-121.72034162
 20
-14.65337181
 30
0.0
 11
-121.45759048
 21
-14.77213396
 31
0.0
  0
LINE
  5
434
100
AcDbEntity
  8
レイヤー_1
  6
CONTINUOUS
 62
       3
100
AcDbLine
 10
-121.45759048
 20
-14.77213396
 30
0.0
 11
-121.1818904
 21
-14.86536857
 31
0.0
  0
LINE
  5
435
100
AcDbEntity
  8
レイヤー_1
  6
CONTINUOUS
 62
       3
100
AcDbLine
 10
-121.1818904
 20
-14.86536857
 30
0.0
 11
-120.89461855
 21
-14.93157954
 31
0.0
  0
LINE
  5
436
100
AcDbEntity
  8
レイヤー_1
  6
CONTINUOUS
 62
       3
100
AcDbLine
 10
-120.89461855
 20
-14.93157954
 30
0.0
 11
-120.59715213
 21
-14.96927077
 31
0.0
  0
LINE
  5
437
100
AcDbEntity
  8
レイヤー_1
  6
CONTINUOUS
 62
       3
100
AcDbLine
 10
-120.59715213
 20
-14.96927077
 30
0.0
 11
-120.2913401
 21
-14.97695395
 31
0.0
  0
LINE
  5
438
100
AcDbEntity
  8
レイヤー_1
  6
CONTINUOUS
 62
       3
100
AcDbLine
 10
-120.2913401
 20
-14.97695395
 30
0.0
 11
-119.98864833
 21
-14.95408363
 31
0.0
  0
LINE
  5
439
100
AcDbEntity
  8
レイヤー_1
  6
CONTINUOUS
 62
       3
100
AcDbLine
 10
-119.98864833
 20
-14.95408363
 30
0.0
 11
-119.69461763
 21
-14.90194552
 31
0.0
  0
LINE
  5
43A
100
AcDbEntity
  8
レイヤー_1
  6
CONTINUOUS
 62
       3
100
AcDbLine
 10
-119.69461763
 20
-14.90194552
 30
0.0
 11
-119.4107475
 21
-14.82203571
 31
0.0
  0
LINE
  5
43B
100
AcDbEntity
  8
レイヤー_1
  6
CONTINUOUS
 62
       3
100
AcDbLine
 10
-119.4107475
 20
-14.82203571
 30
0.0
 11
-119.13853747
 21
-14.71585032
 31
0.0
  0
LINE
  5
43C
100
AcDbEntity
  8
レイヤー_1
  6
CONTINUOUS
 62
       3
100
AcDbLine
 10
-119.13853747
 20
-14.71585032
 30
0.0
 11
-118.87948703
 21
-14.58488544
 31
0.0
  0
LINE
  5
43D
100
AcDbEntity
  8
レイヤー_1
  6
CONTINUOUS
 62
       3
100
AcDbLine
 10
-118.87948703
 20
-14.58488544
 30
0.0
 11
-118.63509572
 21
-14.43063718
 31
0.0
  0
LINE
  5
43E
100
AcDbEntity
  8
レイヤー_1
  6
CONTINUOUS
 62
       3
100
AcDbLine
 10
-118.63509572
 20
-14.43063718
 30
0.0
 11
-118.40686302
 21
-14.25460163
 31
0.0
  0
LINE
  5
43F
100
AcDbEntity
  8
レイヤー_1
  6
CONTINUOUS
 62
       3
100
AcDbLine
 10
-118.40686302
 20
-14.25460163
 30
0.0
 11
-118.19628847
 21
-14.0582749
 31
0.0
  0
LINE
  5
440
100
AcDbEntity
  8
レイヤー_1
  6
CONTINUOUS
 62
       3
100
AcDbLine
 10
-118.19628847
 20
-14.0582749
 30
0.0
 11
-118.00487158
 21
-13.84315308
 31
0.0
  0
LINE
  5
441
100
AcDbEntity
  8
レイヤー_1
  6
CONTINUOUS
 62
       3
100
AcDbLine
 10
-118.00487158
 20
-13.84315308
 30
0.0
 11
-117.83411185
 21
-13.61073229
 31
0.0
  0
LINE
  5
442
100
AcDbEntity
  8
レイヤー_1
  6
CONTINUOUS
 62
       3
100
AcDbLine
 10
-117.83411185
 20
-13.61073229
 30
0.0
 11
-117.6855088
 21
-13.36250863
 31
0.0
  0
LINE
  5
443
100
AcDbEntity
  8
レイヤー_1
  6
CONTINUOUS
 62
       3
100
AcDbLine
 10
-117.6855088
 20
-13.36250863
 30
0.0
 11
-117.56056194
 21
-13.09997818
 31
0.0
  0
LINE
  5
444
100
AcDbEntity
  8
レイヤー_1
  6
CONTINUOUS
 62
       3
100
AcDbLine
 10
-117.56056194
 20
-13.09997818
 30
0.0
 11
-117.46077079
 21
-12.82463706
 31
0.0
  0
LINE
  5
445
100
AcDbEntity
  8
レイヤー_1
  6
CONTINUOUS
 62
       3
100
AcDbLine
 10
-117.46077079
 20
-12.82463706
 30
0.0
 11
-117.38763485
 21
-12.53798137
 31
0.0
  0
LINE
  5
446
100
AcDbEntity
  8
レイヤー_1
  6
CONTINUOUS
 62
       3
100
AcDbLine
 10
-117.38763485
 20
-12.53798137
 30
0.0
 11
-117.34265365
 21
-12.24150721
 31
0.0
  0
LINE
  5
447
100
AcDbEntity
  8
レイヤー_1
  6
CONTINUOUS
 62
       3
100
AcDbLine
 10
-117.34265365
 20
-12.24150721
 30
0.0
 11
-117.32732669
 21
-11.93671068
 31
0.0
  0
LINE
  5
448
100
AcDbEntity
  8
レイヤー_1
  6
CONTINUOUS
 62
       3
100
AcDbLine
 10
-106.1930597
 20
-19.98724542
 30
0.0
 11
-106.20311954
 21
-19.78496645
 31
0.0
  0
LINE
  5
449
100
AcDbEntity
  8
レイヤー_1
  6
CONTINUOUS
 62
       3
100
AcDbLine
 10
-106.20311954
 20
-19.78496645
 30
0.0
 11
-106.23266002
 21
-19.58932588
 31
0.0
  0
LINE
  5
44A
100
AcDbEntity
  8
レイヤー_1
  6
CONTINUOUS
 62
       3
100
AcDbLine
 10
-106.23266002
 20
-19.58932588
 30
0.0
 11
-106.28072254
 21
-19.40116534
 31
0.0
  0
LINE
  5
44B
100
AcDbEntity
  8
レイヤー_1
  6
CONTINUOUS
 62
       3
100
AcDbLine
 10
-106.28072254
 20
-19.40116534
 30
0.0
 11
-106.34634855
 21
-19.22132643
 31
0.0
  0
LINE
  5
44C
100
AcDbEntity
  8
レイヤー_1
  6
CONTINUOUS
 62
       3
100
AcDbLine
 10
-106.34634855
 20
-19.22132643
 30
0.0
 11
-106.42857945
 21
-19.05065078
 31
0.0
  0
LINE
  5
44D
100
AcDbEntity
  8
レイヤー_1
  6
CONTINUOUS
 62
       3
100
AcDbLine
 10
-106.42857945
 20
-19.05065078
 30
0.0
 11
-106.52645668
 21
-18.88998
 31
0.0
  0
LINE
  5
44E
100
AcDbEntity
  8
レイヤー_1
  6
CONTINUOUS
 62
       3
100
AcDbLine
 10
-106.52645668
 20
-18.88998
 30
0.0
 11
-106.63902165
 21
-18.74015572
 31
0.0
  0
LINE
  5
44F
100
AcDbEntity
  8
レイヤー_1
  6
CONTINUOUS
 62
       3
100
AcDbLine
 10
-106.63902165
 20
-18.74015572
 30
0.0
 11
-106.76531579
 21
-18.60201955
 31
0.0
  0
LINE
  5
450
100
AcDbEntity
  8
レイヤー_1
  6
CONTINUOUS
 62
       3
100
AcDbLine
 10
-106.76531579
 20
-18.60201955
 30
0.0
 11
-106.90438052
 21
-18.47641311
 31
0.0
  0
LINE
  5
451
100
AcDbEntity
  8
レイヤー_1
  6
CONTINUOUS
 62
       3
100
AcDbLine
 10
-106.90438052
 20
-18.47641311
 30
0.0
 11
-107.05525727
 21
-18.36417801
 31
0.0
  0
LINE
  5
452
100
AcDbEntity
  8
レイヤー_1
  6
CONTINUOUS
 62
       3
100
AcDbLine
 10
-107.05525727
 20
-18.36417801
 30
0.0
 11
-107.21698746
 21
-18.26615588
 31
0.0
  0
LINE
  5
453
100
AcDbEntity
  8
レイヤー_1
  6
CONTINUOUS
 62
       3
100
AcDbLine
 10
-107.21698746
 20
-18.26615588
 30
0.0
 11
-107.3886125
 21
-18.18318833
 31
0.0
  0
LINE
  5
454
100
AcDbEntity
  8
レイヤー_1
  6
CONTINUOUS
 62
       3
100
AcDbLine
 10
-107.3886125
 20
-18.18318833
 30
0.0
 11
-107.56917383
 21
-18.11611698
 31
0.0
  0
LINE
  5
455
100
AcDbEntity
  8
レイヤー_1
  6
CONTINUOUS
 62
       3
100
AcDbLine
 10
-107.56917383
 20
-18.11611698
 30
0.0
 11
-107.75771286
 21
-18.06578346
 31
0.0
  0
LINE
  5
456
100
AcDbEntity
  8
レイヤー_1
  6
CONTINUOUS
 62
       3
100
AcDbLine
 10
-107.75771286
 20
-18.06578346
 30
0.0
 11
-107.95327102
 21
-18.03302936
 31
0.0
  0
LINE
  5
457
100
AcDbEntity
  8
レイヤー_1
  6
CONTINUOUS
 62
       3
100
AcDbLine
 10
-107.95327102
 20
-18.03302936
 30
0.0
 11
-108.15488973
 21
-18.01869633
 31
0.0
  0
LINE
  5
458
100
AcDbEntity
  8
レイヤー_1
  6
CONTINUOUS
 62
       3
100
AcDbLine
 10
-108.15488973
 20
-18.01869633
 30
0.0
 11
-108.35860768
 21
-18.02350761
 31
0.0
  0
LINE
  5
459
100
AcDbEntity
  8
レイヤー_1
  6
CONTINUOUS
 62
       3
100
AcDbLine
 10
-108.35860768
 20
-18.02350761
 30
0.0
 11
-108.55618793
 21
-18.04715638
 31
0.0
  0
LINE
  5
45A
100
AcDbEntity
  8
レイヤー_1
  6
CONTINUOUS
 62
       3
100
AcDbLine
 10
-108.55618793
 20
-18.04715638
 30
0.0
 11
-108.74645788
 21
-18.08880539
 31
0.0
  0
LINE
  5
45B
100
AcDbEntity
  8
レイヤー_1
  6
CONTINUOUS
 62
       3
100
AcDbLine
 10
-108.74645788
 20
-18.08880539
 30
0.0
 11
-108.9285798
 21
-18.14761303
 31
0.0
  0
LINE
  5
45C
100
AcDbEntity
  8
レイヤー_1
  6
CONTINUOUS
 62
       3
100
AcDbLine
 10
-108.9285798
 20
-18.14761303
 30
0.0
 11
-109.10171597
 21
-18.22273768
 31
0.0
  0
LINE
  5
45D
100
AcDbEntity
  8
レイヤー_1
  6
CONTINUOUS
 62
       3
100
AcDbLine
 10
-109.10171597
 20
-18.22273768
 30
0.0
 11
-109.26502867
 21
-18.31333772
 31
0.0
  0
LINE
  5
45E
100
AcDbEntity
  8
レイヤー_1
  6
CONTINUOUS
 62
       3
100
AcDbLine
 10
-109.26502867
 20
-18.31333772
 30
0.0
 11
-109.41768019
 21
-18.41857154
 31
0.0
  0
LINE
  5
45F
100
AcDbEntity
  8
レイヤー_1
  6
CONTINUOUS
 62
       3
100
AcDbLine
 10
-109.41768019
 20
-18.41857154
 30
0.0
 11
-109.55883281
 21
-18.53759751
 31
0.0
  0
LINE
  5
460
100
AcDbEntity
  8
レイヤー_1
  6
CONTINUOUS
 62
       3
100
AcDbLine
 10
-109.55883281
 20
-18.53759751
 30
0.0
 11
-109.6876488
 21
-18.66957402
 31
0.0
  0
LINE
  5
461
100
AcDbEntity
  8
レイヤー_1
  6
CONTINUOUS
 62
       3
100
AcDbLine
 10
-109.6876488
 20
-18.66957402
 30
0.0
 11
-109.80329045
 21
-18.81365945
 31
0.0
  0
LINE
  5
462
100
AcDbEntity
  8
レイヤー_1
  6
CONTINUOUS
 62
       3
100
AcDbLine
 10
-109.80329045
 20
-18.81365945
 30
0.0
 11
-109.90492003
 21
-18.96901218
 31
0.0
  0
LINE
  5
463
100
AcDbEntity
  8
レイヤー_1
  6
CONTINUOUS
 62
       3
100
AcDbLine
 10
-109.90492003
 20
-18.96901218
 30
0.0
 11
-109.99169983
 21
-19.1347906
 31
0.0
  0
LINE
  5
464
100
AcDbEntity
  8
レイヤー_1
  6
CONTINUOUS
 62
       3
100
AcDbLine
 10
-109.99169983
 20
-19.1347906
 30
0.0
 11
-110.06279213
 21
-19.31015308
 31
0.0
  0
LINE
  5
465
100
AcDbEntity
  8
レイヤー_1
  6
CONTINUOUS
 62
       3
100
AcDbLine
 10
-110.06279213
 20
-19.31015308
 30
0.0
 11
-110.1173592
 21
-19.49425801
 31
0.0
  0
LINE
  5
466
100
AcDbEntity
  8
レイヤー_1
  6
CONTINUOUS
 62
       3
100
AcDbLine
 10
-110.1173592
 20
-19.49425801
 30
0.0
 11
-110.15456334
 21
-19.68626376
 31
0.0
  0
LINE
  5
467
100
AcDbEntity
  8
レイヤー_1
  6
CONTINUOUS
 62
       3
100
AcDbLine
 10
-110.15456334
 20
-19.68626376
 30
0.0
 11
-110.17356681
 21
-19.88532873
 31
0.0
  0
LINE
  5
468
100
AcDbEntity
  8
レイヤー_1
  6
CONTINUOUS
 62
       3
100
AcDbLine
 10
-110.17356681
 20
-19.88532873
 30
0.0
 11
-110.17356681
 21
-20.0894656
 31
0.0
  0
LINE
  5
469
100
AcDbEntity
  8
レイヤー_1
  6
CONTINUOUS
 62
       3
100
AcDbLine
 10
-110.17356681
 20
-20.0894656
 30
0.0
 11
-110.15456334
 21
-20.28975763
 31
0.0
  0
LINE
  5
46A
100
AcDbEntity
  8
レイヤー_1
  6
CONTINUOUS
 62
       3
100
AcDbLine
 10
-110.15456334
 20
-20.28975763
 30
0.0
 11
-110.1173592
 21
-20.48372218
 31
0.0
  0
LINE
  5
46B
100
AcDbEntity
  8
レイヤー_1
  6
CONTINUOUS
 62
       3
100
AcDbLine
 10
-110.1173592
 20
-20.48372218
 30
0.0
 11
-110.06279213
 21
-20.67040359
 31
0.0
  0
LINE
  5
46C
100
AcDbEntity
  8
レイヤー_1
  6
CONTINUOUS
 62
       3
100
AcDbLine
 10
-110.06279213
 20
-20.67040359
 30
0.0
 11
-109.99169983
 21
-20.84884621
 31
0.0
  0
LINE
  5
46D
100
AcDbEntity
  8
レイヤー_1
  6
CONTINUOUS
 62
       3
100
AcDbLine
 10
-109.99169983
 20
-20.84884621
 30
0.0
 11
-109.90492003
 21
-21.01809438
 31
0.0
  0
LINE
  5
46E
100
AcDbEntity
  8
レイヤー_1
  6
CONTINUOUS
 62
       3
100
AcDbLine
 10
-109.90492003
 20
-21.01809438
 30
0.0
 11
-109.80329045
 21
-21.17719245
 31
0.0
  0
LINE
  5
46F
100
AcDbEntity
  8
レイヤー_1
  6
CONTINUOUS
 62
       3
100
AcDbLine
 10
-109.80329045
 20
-21.17719245
 30
0.0
 11
-109.6876488
 21
-21.32518477
 31
0.0
  0
LINE
  5
470
100
AcDbEntity
  8
レイヤー_1
  6
CONTINUOUS
 62
       3
100
AcDbLine
 10
-109.6876488
 20
-21.32518477
 30
0.0
 11
-109.55883281
 21
-21.46111568
 31
0.0
  0
LINE
  5
471
100
AcDbEntity
  8
レイヤー_1
  6
CONTINUOUS
 62
       3
100
AcDbLine
 10
-109.55883281
 20
-21.46111568
 30
0.0
 11
-109.41768019
 21
-21.58402954
 31
0.0
  0
LINE
  5
472
100
AcDbEntity
  8
レイヤー_1
  6
CONTINUOUS
 62
       3
100
AcDbLine
 10
-109.41768019
 20
-21.58402954
 30
0.0
 11
-109.26502867
 21
-21.69297068
 31
0.0
  0
LINE
  5
473
100
AcDbEntity
  8
レイヤー_1
  6
CONTINUOUS
 62
       3
100
AcDbLine
 10
-109.26502867
 20
-21.69297068
 30
0.0
 11
-109.10171597
 21
-21.78698346
 31
0.0
  0
LINE
  5
474
100
AcDbEntity
  8
レイヤー_1
  6
CONTINUOUS
 62
       3
100
AcDbLine
 10
-109.10171597
 20
-21.78698346
 30
0.0
 11
-108.9285798
 21
-21.86511223
 31
0.0
  0
LINE
  5
475
100
AcDbEntity
  8
レイヤー_1
  6
CONTINUOUS
 62
       3
100
AcDbLine
 10
-108.9285798
 20
-21.86511223
 30
0.0
 11
-108.74645788
 21
-21.92640132
 31
0.0
  0
LINE
  5
476
100
AcDbEntity
  8
レイヤー_1
  6
CONTINUOUS
 62
       3
100
AcDbLine
 10
-108.74645788
 20
-21.92640132
 30
0.0
 11
-108.55618793
 21
-21.96989508
 31
0.0
  0
LINE
  5
477
100
AcDbEntity
  8
レイヤー_1
  6
CONTINUOUS
 62
       3
100
AcDbLine
 10
-108.55618793
 20
-21.96989508
 30
0.0
 11
-108.35860768
 21
-21.99463787
 31
0.0
  0
LINE
  5
478
100
AcDbEntity
  8
レイヤー_1
  6
CONTINUOUS
 62
       3
100
AcDbLine
 10
-108.35860768
 20
-21.99463787
 30
0.0
 11
-108.15488973
 21
-21.99967901
 31
0.0
  0
LINE
  5
479
100
AcDbEntity
  8
レイヤー_1
  6
CONTINUOUS
 62
       3
100
AcDbLine
 10
-108.15488973
 20
-21.99967901
 30
0.0
 11
-107.95327102
 21
-21.98467008
 31
0.0
  0
LINE
  5
47A
100
AcDbEntity
  8
レイヤー_1
  6
CONTINUOUS
 62
       3
100
AcDbLine
 10
-107.95327102
 20
-21.98467008
 30
0.0
 11
-107.75771286
 21
-21.95043235
 31
0.0
  0
LINE
  5
47B
100
AcDbEntity
  8
レイヤー_1
  6
CONTINUOUS
 62
       3
100
AcDbLine
 10
-107.75771286
 20
-21.95043235
 30
0.0
 11
-107.56917383
 21
-21.89792146
 31
0.0
  0
LINE
  5
47C
100
AcDbEntity
  8
レイヤー_1
  6
CONTINUOUS
 62
       3
100
AcDbLine
 10
-107.56917383
 20
-21.89792146
 30
0.0
 11
-107.3886125
 21
-21.82809308
 31
0.0
  0
LINE
  5
47D
100
AcDbEntity
  8
レイヤー_1
  6
CONTINUOUS
 62
       3
100
AcDbLine
 10
-107.3886125
 20
-21.82809308
 30
0.0
 11
-107.21698746
 21
-21.74190285
 31
0.0
  0
LINE
  5
47E
100
AcDbEntity
  8
レイヤー_1
  6
CONTINUOUS
 62
       3
100
AcDbLine
 10
-107.21698746
 20
-21.74190285
 30
0.0
 11
-107.05525727
 21
-21.64030643
 31
0.0
  0
LINE
  5
47F
100
AcDbEntity
  8
レイヤー_1
  6
CONTINUOUS
 62
       3
100
AcDbLine
 10
-107.05525727
 20
-21.64030643
 30
0.0
 11
-106.90438052
 21
-21.52425947
 31
0.0
  0
LINE
  5
480
100
AcDbEntity
  8
レイヤー_1
  6
CONTINUOUS
 62
       3
100
AcDbLine
 10
-106.90438052
 20
-21.52425947
 30
0.0
 11
-106.76531579
 21
-21.39471763
 31
0.0
  0
LINE
  5
481
100
AcDbEntity
  8
レイヤー_1
  6
CONTINUOUS
 62
       3
100
AcDbLine
 10
-106.76531579
 20
-21.39471763
 30
0.0
 11
-106.63902165
 21
-21.25263656
 31
0.0
  0
LINE
  5
482
100
AcDbEntity
  8
レイヤー_1
  6
CONTINUOUS
 62
       3
100
AcDbLine
 10
-106.63902165
 20
-21.25263656
 30
0.0
 11
-106.52645668
 21
-21.0989719
 31
0.0
  0
LINE
  5
483
100
AcDbEntity
  8
レイヤー_1
  6
CONTINUOUS
 62
       3
100
AcDbLine
 10
-106.52645668
 20
-21.0989719
 30
0.0
 11
-106.42857945
 21
-20.93467933
 31
0.0
  0
LINE
  5
484
100
AcDbEntity
  8
レイヤー_1
  6
CONTINUOUS
 62
       3
100
AcDbLine
 10
-106.42857945
 20
-20.93467933
 30
0.0
 11
-106.34634855
 21
-20.76071448
 31
0.0
  0
LINE
  5
485
100
AcDbEntity
  8
レイヤー_1
  6
CONTINUOUS
 62
       3
100
AcDbLine
 10
-106.34634855
 20
-20.76071448
 30
0.0
 11
-106.28072254
 21
-20.57803301
 31
0.0
  0
LINE
  5
486
100
AcDbEntity
  8
レイヤー_1
  6
CONTINUOUS
 62
       3
100
AcDbLine
 10
-106.28072254
 20
-20.57803301
 30
0.0
 11
-106.23266002
 21
-20.38759057
 31
0.0
  0
LINE
  5
487
100
AcDbEntity
  8
レイヤー_1
  6
CONTINUOUS
 62
       3
100
AcDbLine
 10
-106.23266002
 20
-20.38759057
 30
0.0
 11
-106.20311954
 21
-20.19034282
 31
0.0
  0
LINE
  5
488
100
AcDbEntity
  8
レイヤー_1
  6
CONTINUOUS
 62
       3
100
AcDbLine
 10
-106.20311954
 20
-20.19034282
 30
0.0
 11
-106.1930597
 21
-19.98724542
 31
0.0
  0
LINE
  5
489
100
AcDbEntity
  8
レイヤー_1
  6
CONTINUOUS
 62
       3
100
AcDbLine
 10
-118.31294997
 20
-19.98724542
 30
0.0
 11
-118.32300222
 21
-19.78496645
 31
0.0
  0
LINE
  5
48A
100
AcDbEntity
  8
レイヤー_1
  6
CONTINUOUS
 62
       3
100
AcDbLine
 10
-118.32300222
 20
-19.78496645
 30
0.0
 11
-118.35252121
 21
-19.58932588
 31
0.0
  0
LINE
  5
48B
100
AcDbEntity
  8
レイヤー_1
  6
CONTINUOUS
 62
       3
100
AcDbLine
 10
-118.35252121
 20
-19.58932588
 30
0.0
 11
-118.40055032
 21
-19.40116534
 31
0.0
  0
LINE
  5
48C
100
AcDbEntity
  8
レイヤー_1
  6
CONTINUOUS
 62
       3
100
AcDbLine
 10
-118.40055032
 20
-19.40116534
 30
0.0
 11
-118.46613291
 21
-19.22132643
 31
0.0
  0
LINE
  5
48D
100
AcDbEntity
  8
レイヤー_1
  6
CONTINUOUS
 62
       3
100
AcDbLine
 10
-118.46613291
 20
-19.22132643
 30
0.0
 11
-118.54831236
 21
-19.05065078
 31
0.0
  0
LINE
  5
48E
100
AcDbEntity
  8
レイヤー_1
  6
CONTINUOUS
 62
       3
100
AcDbLine
 10
-118.54831236
 20
-19.05065078
 30
0.0
 11
-118.64613204
 21
-18.88998
 31
0.0
  0
LINE
  5
48F
100
AcDbEntity
  8
レイヤー_1
  6
CONTINUOUS
 62
       3
100
AcDbLine
 10
-118.64613204
 20
-18.88998
 30
0.0
 11
-118.75863532
 21
-18.74015572
 31
0.0
  0
LINE
  5
490
100
AcDbEntity
  8
レイヤー_1
  6
CONTINUOUS
 62
       3
100
AcDbLine
 10
-118.75863532
 20
-18.74015572
 30
0.0
 11
-118.88486558
 21
-18.60201955
 31
0.0
  0
LINE
  5
491
100
AcDbEntity
  8
レイヤー_1
  6
CONTINUOUS
 62
       3
100
AcDbLine
 10
-118.88486558
 20
-18.60201955
 30
0.0
 11
-119.02386619
 21
-18.47641311
 31
0.0
  0
LINE
  5
492
100
AcDbEntity
  8
レイヤー_1
  6
CONTINUOUS
 62
       3
100
AcDbLine
 10
-119.02386619
 20
-18.47641311
 30
0.0
 11
-119.17468052
 21
-18.36417801
 31
0.0
  0
LINE
  5
493
100
AcDbEntity
  8
レイヤー_1
  6
CONTINUOUS
 62
       3
100
AcDbLine
 10
-119.17468052
 20
-18.36417801
 30
0.0
 11
-119.33635194
 21
-18.26615588
 31
0.0
  0
LINE
  5
494
100
AcDbEntity
  8
レイヤー_1
  6
CONTINUOUS
 62
       3
100
AcDbLine
 10
-119.33635194
 20
-18.26615588
 30
0.0
 11
-119.50792382
 21
-18.18318833
 31
0.0
  0
LINE
  5
495
100
AcDbEntity
  8
レイヤー_1
  6
CONTINUOUS
 62
       3
100
AcDbLine
 10
-119.50792382
 20
-18.18318833
 30
0.0
 11
-119.68843955
 21
-18.11611698
 31
0.0
  0
LINE
  5
496
100
AcDbEntity
  8
レイヤー_1
  6
CONTINUOUS
 62
       3
100
AcDbLine
 10
-119.68843955
 20
-18.11611698
 30
0.0
 11
-119.87694248
 21
-18.06578346
 31
0.0
  0
LINE
  5
497
100
AcDbEntity
  8
レイヤー_1
  6
CONTINUOUS
 62
       3
100
AcDbLine
 10
-119.87694248
 20
-18.06578346
 30
0.0
 11
-120.07247599
 21
-18.03302936
 31
0.0
  0
LINE
  5
498
100
AcDbEntity
  8
レイヤー_1
  6
CONTINUOUS
 62
       3
100
AcDbLine
 10
-120.07247599
 20
-18.03302936
 30
0.0
 11
-120.27408345
 21
-18.01869633
 31
0.0
  0
LINE
  5
499
100
AcDbEntity
  8
レイヤー_1
  6
CONTINUOUS
 62
       3
100
AcDbLine
 10
-120.27408345
 20
-18.01869633
 30
0.0
 11
-120.47806643
 21
-18.02350761
 31
0.0
  0
LINE
  5
49A
100
AcDbEntity
  8
レイヤー_1
  6
CONTINUOUS
 62
       3
100
AcDbLine
 10
-120.47806643
 20
-18.02350761
 30
0.0
 11
-120.67676559
 21
-18.04715638
 31
0.0
  0
LINE
  5
49B
100
AcDbEntity
  8
レイヤー_1
  6
CONTINUOUS
 62
       3
100
AcDbLine
 10
-120.67676559
 20
-18.04715638
 30
0.0
 11
-120.8689187
 21
-18.08880539
 31
0.0
  0
LINE
  5
49C
100
AcDbEntity
  8
レイヤー_1
  6
CONTINUOUS
 62
       3
100
AcDbLine
 10
-120.8689187
 20
-18.08880539
 30
0.0
 11
-121.05356815
 21
-18.14761303
 31
0.0
  0
LINE
  5
49D
100
AcDbEntity
  8
レイヤー_1
  6
CONTINUOUS
 62
       3
100
AcDbLine
 10
-121.05356815
 20
-18.14761303
 30
0.0
 11
-121.22975635
 21
-18.22273768
 31
0.0
  0
LINE
  5
49E
100
AcDbEntity
  8
レイヤー_1
  6
CONTINUOUS
 62
       3
100
AcDbLine
 10
-121.22975635
 20
-18.22273768
 30
0.0
 11
-121.39652568
 21
-18.31333772
 31
0.0
  0
LINE
  5
49F
100
AcDbEntity
  8
レイヤー_1
  6
CONTINUOUS
 62
       3
100
AcDbLine
 10
-121.39652568
 20
-18.31333772
 30
0.0
 11
-121.55291855
 21
-18.41857154
 31
0.0
  0
LINE
  5
4A0
100
AcDbEntity
  8
レイヤー_1
  6
CONTINUOUS
 62
       3
100
AcDbLine
 10
-121.55291855
 20
-18.41857154
 30
0.0
 11
-121.69797735
 21
-18.53759751
 31
0.0
  0
LINE
  5
4A1
100
AcDbEntity
  8
レイヤー_1
  6
CONTINUOUS
 62
       3
100
AcDbLine
 10
-121.69797735
 20
-18.53759751
 30
0.0
 11
-121.83074449
 21
-18.66957402
 31
0.0
  0
LINE
  5
4A2
100
AcDbEntity
  8
レイヤー_1
  6
CONTINUOUS
 62
       3
100
AcDbLine
 10
-121.83074449
 20
-18.66957402
 30
0.0
 11
-121.95026236
 21
-18.81365945
 31
0.0
  0
LINE
  5
4A3
100
AcDbEntity
  8
レイヤー_1
  6
CONTINUOUS
 62
       3
100
AcDbLine
 10
-121.95026236
 20
-18.81365945
 30
0.0
 11
-122.05557335
 21
-18.96901218
 31
0.0
  0
LINE
  5
4A4
100
AcDbEntity
  8
レイヤー_1
  6
CONTINUOUS
 62
       3
100
AcDbLine
 10
-122.05557335
 20
-18.96901218
 30
0.0
 11
-122.14571986
 21
-19.1347906
 31
0.0
  0
LINE
  5
4A5
100
AcDbEntity
  8
レイヤー_1
  6
CONTINUOUS
 62
       3
100
AcDbLine
 10
-122.14571986
 20
-19.1347906
 30
0.0
 11
-122.2197443
 21
-19.31015308
 31
0.0
  0
LINE
  5
4A6
100
AcDbEntity
  8
レイヤー_1
  6
CONTINUOUS
 62
       3
100
AcDbLine
 10
-122.2197443
 20
-19.31015308
 30
0.0
 11
-122.27668906
 21
-19.49425801
 31
0.0
  0
LINE
  5
4A7
100
AcDbEntity
  8
レイヤー_1
  6
CONTINUOUS
 62
       3
100
AcDbLine
 10
-122.27668906
 20
-19.49425801
 30
0.0
 11
-122.31559653
 21
-19.68626376
 31
0.0
  0
LINE
  5
4A8
100
AcDbEntity
  8
レイヤー_1
  6
CONTINUOUS
 62
       3
100
AcDbLine
 10
-122.31559653
 20
-19.68626376
 30
0.0
 11
-122.33550912
 21
-19.88532873
 31
0.0
  0
LINE
  5
4A9
100
AcDbEntity
  8
レイヤー_1
  6
CONTINUOUS
 62
       3
100
AcDbLine
 10
-122.33550912
 20
-19.88532873
 30
0.0
 11
-122.33550912
 21
-20.0894656
 31
0.0
  0
LINE
  5
4AA
100
AcDbEntity
  8
レイヤー_1
  6
CONTINUOUS
 62
       3
100
AcDbLine
 10
-122.33550912
 20
-20.0894656
 30
0.0
 11
-122.31559653
 21
-20.28975763
 31
0.0
  0
LINE
  5
4AB
100
AcDbEntity
  8
レイヤー_1
  6
CONTINUOUS
 62
       3
100
AcDbLine
 10
-122.31559653
 20
-20.28975763
 30
0.0
 11
-122.27668906
 21
-20.48372218
 31
0.0
  0
LINE
  5
4AC
100
AcDbEntity
  8
レイヤー_1
  6
CONTINUOUS
 62
       3
100
AcDbLine
 10
-122.27668906
 20
-20.48372218
 30
0.0
 11
-122.2197443
 21
-20.67040359
 31
0.0
  0
LINE
  5
4AD
100
AcDbEntity
  8
レイヤー_1
  6
CONTINUOUS
 62
       3
100
AcDbLine
 10
-122.2197443
 20
-20.67040359
 30
0.0
 11
-122.14571986
 21
-20.84884621
 31
0.0
  0
LINE
  5
4AE
100
AcDbEntity
  8
レイヤー_1
  6
CONTINUOUS
 62
       3
100
AcDbLine
 10
-122.14571986
 20
-20.84884621
 30
0.0
 11
-122.05557335
 21
-21.01809438
 31
0.0
  0
LINE
  5
4AF
100
AcDbEntity
  8
レイヤー_1
  6
CONTINUOUS
 62
       3
100
AcDbLine
 10
-122.05557335
 20
-21.01809438
 30
0.0
 11
-121.95026236
 21
-21.17719245
 31
0.0
  0
LINE
  5
4B0
100
AcDbEntity
  8
レイヤー_1
  6
CONTINUOUS
 62
       3
100
AcDbLine
 10
-121.95026236
 20
-21.17719245
 30
0.0
 11
-121.83074449
 21
-21.32518477
 31
0.0
  0
LINE
  5
4B1
100
AcDbEntity
  8
レイヤー_1
  6
CONTINUOUS
 62
       3
100
AcDbLine
 10
-121.83074449
 20
-21.32518477
 30
0.0
 11
-121.69797735
 21
-21.46111568
 31
0.0
  0
LINE
  5
4B2
100
AcDbEntity
  8
レイヤー_1
  6
CONTINUOUS
 62
       3
100
AcDbLine
 10
-121.69797735
 20
-21.46111568
 30
0.0
 11
-121.55291855
 21
-21.58402954
 31
0.0
  0
LINE
  5
4B3
100
AcDbEntity
  8
レイヤー_1
  6
CONTINUOUS
 62
       3
100
AcDbLine
 10
-121.55291855
 20
-21.58402954
 30
0.0
 11
-121.39652568
 21
-21.69297068
 31
0.0
  0
LINE
  5
4B4
100
AcDbEntity
  8
レイヤー_1
  6
CONTINUOUS
 62
       3
100
AcDbLine
 10
-121.39652568
 20
-21.69297068
 30
0.0
 11
-121.22975635
 21
-21.78698346
 31
0.0
  0
LINE
  5
4B5
100
AcDbEntity
  8
レイヤー_1
  6
CONTINUOUS
 62
       3
100
AcDbLine
 10
-121.22975635
 20
-21.78698346
 30
0.0
 11
-121.05356815
 21
-21.86511223
 31
0.0
  0
LINE
  5
4B6
100
AcDbEntity
  8
レイヤー_1
  6
CONTINUOUS
 62
       3
100
AcDbLine
 10
-121.05356815
 20
-21.86511223
 30
0.0
 11
-120.8689187
 21
-21.92640132
 31
0.0
  0
LINE
  5
4B7
100
AcDbEntity
  8
レイヤー_1
  6
CONTINUOUS
 62
       3
100
AcDbLine
 10
-120.8689187
 20
-21.92640132
 30
0.0
 11
-120.67676559
 21
-21.96989508
 31
0.0
  0
LINE
  5
4B8
100
AcDbEntity
  8
レイヤー_1
  6
CONTINUOUS
 62
       3
100
AcDbLine
 10
-120.67676559
 20
-21.96989508
 30
0.0
 11
-120.47806643
 21
-21.99463787
 31
0.0
  0
LINE
  5
4B9
100
AcDbEntity
  8
レイヤー_1
  6
CONTINUOUS
 62
       3
100
AcDbLine
 10
-120.47806643
 20
-21.99463787
 30
0.0
 11
-120.27408345
 21
-21.99967901
 31
0.0
  0
LINE
  5
4BA
100
AcDbEntity
  8
レイヤー_1
  6
CONTINUOUS
 62
       3
100
AcDbLine
 10
-120.27408345
 20
-21.99967901
 30
0.0
 11
-120.07247599
 21
-21.98467008
 31
0.0
  0
LINE
  5
4BB
100
AcDbEntity
  8
レイヤー_1
  6
CONTINUOUS
 62
       3
100
AcDbLine
 10
-120.07247599
 20
-21.98467008
 30
0.0
 11
-119.87694248
 21
-21.95043235
 31
0.0
  0
LINE
  5
4BC
100
AcDbEntity
  8
レイヤー_1
  6
CONTINUOUS
 62
       3
100
AcDbLine
 10
-119.87694248
 20
-21.95043235
 30
0.0
 11
-119.68843955
 21
-21.89792146
 31
0.0
  0
LINE
  5
4BD
100
AcDbEntity
  8
レイヤー_1
  6
CONTINUOUS
 62
       3
100
AcDbLine
 10
-119.68843955
 20
-21.89792146
 30
0.0
 11
-119.50792382
 21
-21.82809308
 31
0.0
  0
LINE
  5
4BE
100
AcDbEntity
  8
レイヤー_1
  6
CONTINUOUS
 62
       3
100
AcDbLine
 10
-119.50792382
 20
-21.82809308
 30
0.0
 11
-119.33635194
 21
-21.74190285
 31
0.0
  0
LINE
  5
4BF
100
AcDbEntity
  8
レイヤー_1
  6
CONTINUOUS
 62
       3
100
AcDbLine
 10
-119.33635194
 20
-21.74190285
 30
0.0
 11
-119.17468052
 21
-21.64030643
 31
0.0
  0
LINE
  5
4C0
100
AcDbEntity
  8
レイヤー_1
  6
CONTINUOUS
 62
       3
100
AcDbLine
 10
-119.17468052
 20
-21.64030643
 30
0.0
 11
-119.02386619
 21
-21.52425947
 31
0.0
  0
LINE
  5
4C1
100
AcDbEntity
  8
レイヤー_1
  6
CONTINUOUS
 62
       3
100
AcDbLine
 10
-119.02386619
 20
-21.52425947
 30
0.0
 11
-118.88486558
 21
-21.39471763
 31
0.0
  0
LINE
  5
4C2
100
AcDbEntity
  8
レイヤー_1
  6
CONTINUOUS
 62
       3
100
AcDbLine
 10
-118.88486558
 20
-21.39471763
 30
0.0
 11
-118.75863532
 21
-21.25263656
 31
0.0
  0
LINE
  5
4C3
100
AcDbEntity
  8
レイヤー_1
  6
CONTINUOUS
 62
       3
100
AcDbLine
 10
-118.75863532
 20
-21.25263656
 30
0.0
 11
-118.64613204
 21
-21.0989719
 31
0.0
  0
LINE
  5
4C4
100
AcDbEntity
  8
レイヤー_1
  6
CONTINUOUS
 62
       3
100
AcDbLine
 10
-118.64613204
 20
-21.0989719
 30
0.0
 11
-118.54831236
 21
-20.93467933
 31
0.0
  0
LINE
  5
4C5
100
AcDbEntity
  8
レイヤー_1
  6
CONTINUOUS
 62
       3
100
AcDbLine
 10
-118.54831236
 20
-20.93467933
 30
0.0
 11
-118.46613291
 21
-20.76071448
 31
0.0
  0
LINE
  5
4C6
100
AcDbEntity
  8
レイヤー_1
  6
CONTINUOUS
 62
       3
100
AcDbLine
 10
-118.46613291
 20
-20.76071448
 30
0.0
 11
-118.40055032
 21
-20.57803301
 31
0.0
  0
LINE
  5
4C7
100
AcDbEntity
  8
レイヤー_1
  6
CONTINUOUS
 62
       3
100
AcDbLine
 10
-118.40055032
 20
-20.57803301
 30
0.0
 11
-118.35252121
 21
-20.38759057
 31
0.0
  0
LINE
  5
4C8
100
AcDbEntity
  8
レイヤー_1
  6
CONTINUOUS
 62
       3
100
AcDbLine
 10
-118.35252121
 20
-20.38759057
 30
0.0
 11
-118.32300222
 21
-20.19034282
 31
0.0
  0
LINE
  5
4C9
100
AcDbEntity
  8
レイヤー_1
  6
CONTINUOUS
 62
       3
100
AcDbLine
 10
-118.32300222
 20
-20.19034282
 30
0.0
 11
-118.31294997
 21
-19.98724542
 31
0.0
  0
LINE
  5
4CA
100
AcDbEntity
  8
レイヤー_1
  6
CONTINUOUS
 62
       3
100
AcDbLine
 10
-106.1930597
 20
-11.93671068
 30
0.0
 11
-106.20311954
 21
-11.73385133
 31
0.0
  0
LINE
  5
4CB
100
AcDbEntity
  8
レイヤー_1
  6
CONTINUOUS
 62
       3
100
AcDbLine
 10
-106.20311954
 20
-11.73385133
 30
0.0
 11
-106.23266002
 21
-11.53680497
 31
0.0
  0
LINE
  5
4CC
100
AcDbEntity
  8
レイヤー_1
  6
CONTINUOUS
 62
       3
100
AcDbLine
 10
-106.23266002
 20
-11.53680497
 30
0.0
 11
-106.28072254
 21
-11.34653018
 31
0.0
  0
LINE
  5
4CD
100
AcDbEntity
  8
レイヤー_1
  6
CONTINUOUS
 62
       3
100
AcDbLine
 10
-106.28072254
 20
-11.34653018
 30
0.0
 11
-106.34634855
 21
-11.16398553
 31
0.0
  0
LINE
  5
4CE
100
AcDbEntity
  8
レイヤー_1
  6
CONTINUOUS
 62
       3
100
AcDbLine
 10
-106.34634855
 20
-11.16398553
 30
0.0
 11
-106.42857945
 21
-10.9901296
 31
0.0
  0
LINE
  5
4CF
100
AcDbEntity
  8
レイヤー_1
  6
CONTINUOUS
 62
       3
100
AcDbLine
 10
-106.42857945
 20
-10.9901296
 30
0.0
 11
-106.52645668
 21
-10.82592096
 31
0.0
  0
LINE
  5
4D0
100
AcDbEntity
  8
レイヤー_1
  6
CONTINUOUS
 62
       3
100
AcDbLine
 10
-106.52645668
 20
-10.82592096
 30
0.0
 11
-106.63902165
 21
-10.6723182
 31
0.0
  0
LINE
  5
4D1
100
AcDbEntity
  8
レイヤー_1
  6
CONTINUOUS
 62
       3
100
AcDbLine
 10
-106.63902165
 20
-10.6723182
 30
0.0
 11
-106.76531579
 21
-10.53027989
 31
0.0
  0
LINE
  5
4D2
100
AcDbEntity
  8
レイヤー_1
  6
CONTINUOUS
 62
       3
100
AcDbLine
 10
-106.76531579
 20
-10.53027989
 30
0.0
 11
-106.90438052
 21
-10.40076461
 31
0.0
  0
LINE
  5
4D3
100
AcDbEntity
  8
レイヤー_1
  6
CONTINUOUS
 62
       3
100
AcDbLine
 10
-106.90438052
 20
-10.40076461
 30
0.0
 11
-107.05525727
 21
-10.28473093
 31
0.0
  0
LINE
  5
4D4
100
AcDbEntity
  8
レイヤー_1
  6
CONTINUOUS
 62
       3
100
AcDbLine
 10
-107.05525727
 20
-10.28473093
 30
0.0
 11
-107.21698746
 21
-10.18313743
 31
0.0
  0
LINE
  5
4D5
100
AcDbEntity
  8
レイヤー_1
  6
CONTINUOUS
 62
       3
100
AcDbLine
 10
-107.21698746
 20
-10.18313743
 30
0.0
 11
-107.3886125
 21
-10.0969427
 31
0.0
  0
LINE
  5
4D6
100
AcDbEntity
  8
レイヤー_1
  6
CONTINUOUS
 62
       3
100
AcDbLine
 10
-107.3886125
 20
-10.0969427
 30
0.0
 11
-107.56917383
 21
-10.0271053
 31
0.0
  0
LINE
  5
4D7
100
AcDbEntity
  8
レイヤー_1
  6
CONTINUOUS
 62
       3
100
AcDbLine
 10
-107.56917383
 20
-10.0271053
 30
0.0
 11
-107.75771286
 21
-9.97458381
 31
0.0
  0
LINE
  5
4D8
100
AcDbEntity
  8
レイヤー_1
  6
CONTINUOUS
 62
       3
100
AcDbLine
 10
-107.75771286
 20
-9.97458381
 30
0.0
 11
-107.95327102
 21
-9.94033682
 31
0.0
  0
LINE
  5
4D9
100
AcDbEntity
  8
レイヤー_1
  6
CONTINUOUS
 62
       3
100
AcDbLine
 10
-107.95327102
 20
-9.94033682
 30
0.0
 11
-108.15488973
 21
-9.92532289
 31
0.0
  0
LINE
  5
4DA
100
AcDbEntity
  8
レイヤー_1
  6
CONTINUOUS
 62
       3
100
AcDbLine
 10
-108.15488973
 20
-9.92532289
 30
0.0
 11
-108.35860768
 21
-9.93036581
 31
0.0
  0
LINE
  5
4DB
100
AcDbEntity
  8
レイヤー_1
  6
CONTINUOUS
 62
       3
100
AcDbLine
 10
-108.35860768
 20
-9.93036581
 30
0.0
 11
-108.55618793
 21
-9.9551161
 31
0.0
  0
LINE
  5
4DC
100
AcDbEntity
  8
レイヤー_1
  6
CONTINUOUS
 62
       3
100
AcDbLine
 10
-108.55618793
 20
-9.9551161
 30
0.0
 11
-108.74645788
 21
-9.99862016
 31
0.0
  0
LINE
  5
4DD
100
AcDbEntity
  8
レイヤー_1
  6
CONTINUOUS
 62
       3
100
AcDbLine
 10
-108.74645788
 20
-9.99862016
 30
0.0
 11
-108.9285798
 21
-10.05991942
 31
0.0
  0
LINE
  5
4DE
100
AcDbEntity
  8
レイヤー_1
  6
CONTINUOUS
 62
       3
100
AcDbLine
 10
-108.9285798
 20
-10.05991942
 30
0.0
 11
-109.10171597
 21
-10.13805531
 31
0.0
  0
LINE
  5
4DF
100
AcDbEntity
  8
レイヤー_1
  6
CONTINUOUS
 62
       3
100
AcDbLine
 10
-109.10171597
 20
-10.13805531
 30
0.0
 11
-109.26502867
 21
-10.23206925
 31
0.0
  0
LINE
  5
4E0
100
AcDbEntity
  8
レイヤー_1
  6
CONTINUOUS
 62
       3
100
AcDbLine
 10
-109.26502867
 20
-10.23206925
 30
0.0
 11
-109.41768019
 21
-10.34100266
 31
0.0
  0
LINE
  5
4E1
100
AcDbEntity
  8
レイヤー_1
  6
CONTINUOUS
 62
       3
100
AcDbLine
 10
-109.41768019
 20
-10.34100266
 30
0.0
 11
-109.55883281
 21
-10.46389696
 31
0.0
  0
LINE
  5
4E2
100
AcDbEntity
  8
レイヤー_1
  6
CONTINUOUS
 62
       3
100
AcDbLine
 10
-109.55883281
 20
-10.46389696
 30
0.0
 11
-109.6876488
 21
-10.59979358
 31
0.0
  0
LINE
  5
4E3
100
AcDbEntity
  8
レイヤー_1
  6
CONTINUOUS
 62
       3
100
AcDbLine
 10
-109.6876488
 20
-10.59979358
 30
0.0
 11
-109.80329045
 21
-10.74773394
 31
0.0
  0
LINE
  5
4E4
100
AcDbEntity
  8
レイヤー_1
  6
CONTINUOUS
 62
       3
100
AcDbLine
 10
-109.80329045
 20
-10.74773394
 30
0.0
 11
-109.90492003
 21
-10.90675946
 31
0.0
  0
LINE
  5
4E5
100
AcDbEntity
  8
レイヤー_1
  6
CONTINUOUS
 62
       3
100
AcDbLine
 10
-109.90492003
 20
-10.90675946
 30
0.0
 11
-109.99169983
 21
-11.07591156
 31
0.0
  0
LINE
  5
4E6
100
AcDbEntity
  8
レイヤー_1
  6
CONTINUOUS
 62
       3
100
AcDbLine
 10
-109.99169983
 20
-11.07591156
 30
0.0
 11
-110.06279213
 21
-11.25423168
 31
0.0
  0
LINE
  5
4E7
100
AcDbEntity
  8
レイヤー_1
  6
CONTINUOUS
 62
       3
100
AcDbLine
 10
-110.06279213
 20
-11.25423168
 30
0.0
 11
-110.1173592
 21
-11.44076122
 31
0.0
  0
LINE
  5
4E8
100
AcDbEntity
  8
レイヤー_1
  6
CONTINUOUS
 62
       3
100
AcDbLine
 10
-110.1173592
 20
-11.44076122
 30
0.0
 11
-110.15456334
 21
-11.63454162
 31
0.0
  0
LINE
  5
4E9
100
AcDbEntity
  8
レイヤー_1
  6
CONTINUOUS
 62
       3
100
AcDbLine
 10
-110.15456334
 20
-11.63454162
 30
0.0
 11
-110.17356681
 21
-11.83461429
 31
0.0
  0
LINE
  5
4EA
100
AcDbEntity
  8
レイヤー_1
  6
CONTINUOUS
 62
       3
100
AcDbLine
 10
-110.17356681
 20
-11.83461429
 30
0.0
 11
-110.17356681
 21
-12.03515214
 31
0.0
  0
LINE
  5
4EB
100
AcDbEntity
  8
レイヤー_1
  6
CONTINUOUS
 62
       3
100
AcDbLine
 10
-110.17356681
 20
-12.03515214
 30
0.0
 11
-110.15456334
 21
-12.22927473
 31
0.0
  0
LINE
  5
4EC
100
AcDbEntity
  8
レイヤー_1
  6
CONTINUOUS
 62
       3
100
AcDbLine
 10
-110.15456334
 20
-12.22927473
 30
0.0
 11
-110.1173592
 21
-12.41876903
 31
0.0
  0
LINE
  5
4ED
100
AcDbEntity
  8
レイヤー_1
  6
CONTINUOUS
 62
       3
100
AcDbLine
 10
-110.1173592
 20
-12.41876903
 30
0.0
 11
-110.06279213
 21
-12.60249761
 31
0.0
  0
LINE
  5
4EE
100
AcDbEntity
  8
レイヤー_1
  6
CONTINUOUS
 62
       3
100
AcDbLine
 10
-110.06279213
 20
-12.60249761
 30
0.0
 11
-109.99169983
 21
-12.77932305
 31
0.0
  0
LINE
  5
4EF
100
AcDbEntity
  8
レイヤー_1
  6
CONTINUOUS
 62
       3
100
AcDbLine
 10
-109.99169983
 20
-12.77932305
 30
0.0
 11
-109.90492003
 21
-12.94810792
 31
0.0
  0
LINE
  5
4F0
100
AcDbEntity
  8
レイヤー_1
  6
CONTINUOUS
 62
       3
100
AcDbLine
 10
-109.90492003
 20
-12.94810792
 30
0.0
 11
-109.80329045
 21
-13.10771479
 31
0.0
  0
LINE
  5
4F1
100
AcDbEntity
  8
レイヤー_1
  6
CONTINUOUS
 62
       3
100
AcDbLine
 10
-109.80329045
 20
-13.10771479
 30
0.0
 11
-109.6876488
 21
-13.25700623
 31
0.0
  0
LINE
  5
4F2
100
AcDbEntity
  8
レイヤー_1
  6
CONTINUOUS
 62
       3
100
AcDbLine
 10
-109.6876488
 20
-13.25700623
 30
0.0
 11
-109.55883281
 21
-13.39484482
 31
0.0
  0
LINE
  5
4F3
100
AcDbEntity
  8
レイヤー_1
  6
CONTINUOUS
 62
       3
100
AcDbLine
 10
-109.55883281
 20
-13.39484482
 30
0.0
 11
-109.41768019
 21
-13.52009313
 31
0.0
  0
LINE
  5
4F4
100
AcDbEntity
  8
レイヤー_1
  6
CONTINUOUS
 62
       3
100
AcDbLine
 10
-109.41768019
 20
-13.52009313
 30
0.0
 11
-109.26502867
 21
-13.63161374
 31
0.0
  0
LINE
  5
4F5
100
AcDbEntity
  8
レイヤー_1
  6
CONTINUOUS
 62
       3
100
AcDbLine
 10
-109.26502867
 20
-13.63161374
 30
0.0
 11
-109.10171597
 21
-13.72826921
 31
0.0
  0
LINE
  5
4F6
100
AcDbEntity
  8
レイヤー_1
  6
CONTINUOUS
 62
       3
100
AcDbLine
 10
-109.10171597
 20
-13.72826921
 30
0.0
 11
-108.9285798
 21
-13.80892212
 31
0.0
  0
LINE
  5
4F7
100
AcDbEntity
  8
レイヤー_1
  6
CONTINUOUS
 62
       3
100
AcDbLine
 10
-108.9285798
 20
-13.80892212
 30
0.0
 11
-108.74645788
 21
-13.87243504
 31
0.0
  0
LINE
  5
4F8
100
AcDbEntity
  8
レイヤー_1
  6
CONTINUOUS
 62
       3
100
AcDbLine
 10
-108.74645788
 20
-13.87243504
 30
0.0
 11
-108.55618793
 21
-13.91767055
 31
0.0
  0
LINE
  5
4F9
100
AcDbEntity
  8
レイヤー_1
  6
CONTINUOUS
 62
       3
100
AcDbLine
 10
-108.55618793
 20
-13.91767055
 30
0.0
 11
-108.35860768
 21
-13.94349122
 31
0.0
  0
LINE
  5
4FA
100
AcDbEntity
  8
レイヤー_1
  6
CONTINUOUS
 62
       3
100
AcDbLine
 10
-108.35860768
 20
-13.94349122
 30
0.0
 11
-108.15488973
 21
-13.94876554
 31
0.0
  0
LINE
  5
4FB
100
AcDbEntity
  8
レイヤー_1
  6
CONTINUOUS
 62
       3
100
AcDbLine
 10
-108.15488973
 20
-13.94876554
 30
0.0
 11
-107.95327102
 21
-13.93307883
 31
0.0
  0
LINE
  5
4FC
100
AcDbEntity
  8
レイヤー_1
  6
CONTINUOUS
 62
       3
100
AcDbLine
 10
-107.95327102
 20
-13.93307883
 30
0.0
 11
-107.75771286
 21
-13.89740856
 31
0.0
  0
LINE
  5
4FD
100
AcDbEntity
  8
レイヤー_1
  6
CONTINUOUS
 62
       3
100
AcDbLine
 10
-107.75771286
 20
-13.89740856
 30
0.0
 11
-107.56917383
 21
-13.84289217
 31
0.0
  0
LINE
  5
4FE
100
AcDbEntity
  8
レイヤー_1
  6
CONTINUOUS
 62
       3
100
AcDbLine
 10
-107.56917383
 20
-13.84289217
 30
0.0
 11
-107.3886125
 21
-13.77066708
 31
0.0
  0
LINE
  5
4FF
100
AcDbEntity
  8
レイヤー_1
  6
CONTINUOUS
 62
       3
100
AcDbLine
 10
-107.3886125
 20
-13.77066708
 30
0.0
 11
-107.21698746
 21
-13.68187071
 31
0.0
  0
LINE
  5
500
100
AcDbEntity
  8
レイヤー_1
  6
CONTINUOUS
 62
       3
100
AcDbLine
 10
-107.21698746
 20
-13.68187071
 30
0.0
 11
-107.05525727
 21
-13.57764049
 31
0.0
  0
LINE
  5
501
100
AcDbEntity
  8
レイヤー_1
  6
CONTINUOUS
 62
       3
100
AcDbLine
 10
-107.05525727
 20
-13.57764049
 30
0.0
 11
-106.90438052
 21
-13.45911385
 31
0.0
  0
LINE
  5
502
100
AcDbEntity
  8
レイヤー_1
  6
CONTINUOUS
 62
       3
100
AcDbLine
 10
-106.90438052
 20
-13.45911385
 30
0.0
 11
-106.76531579
 21
-13.32742822
 31
0.0
  0
LINE
  5
503
100
AcDbEntity
  8
レイヤー_1
  6
CONTINUOUS
 62
       3
100
AcDbLine
 10
-106.76531579
 20
-13.32742822
 30
0.0
 11
-106.63902165
 21
-13.18372103
 31
0.0
  0
LINE
  5
504
100
AcDbEntity
  8
レイヤー_1
  6
CONTINUOUS
 62
       3
100
AcDbLine
 10
-106.63902165
 20
-13.18372103
 30
0.0
 11
-106.52645668
 21
-13.02912969
 31
0.0
  0
LINE
  5
505
100
AcDbEntity
  8
レイヤー_1
  6
CONTINUOUS
 62
       3
100
AcDbLine
 10
-106.52645668
 20
-13.02912969
 30
0.0
 11
-106.42857945
 21
-12.86479165
 31
0.0
  0
LINE
  5
506
100
AcDbEntity
  8
レイヤー_1
  6
CONTINUOUS
 62
       3
100
AcDbLine
 10
-106.42857945
 20
-12.86479165
 30
0.0
 11
-106.34634855
 21
-12.69184431
 31
0.0
  0
LINE
  5
507
100
AcDbEntity
  8
レイヤー_1
  6
CONTINUOUS
 62
       3
100
AcDbLine
 10
-106.34634855
 20
-12.69184431
 30
0.0
 11
-106.28072254
 21
-12.51142512
 31
0.0
  0
LINE
  5
508
100
AcDbEntity
  8
レイヤー_1
  6
CONTINUOUS
 62
       3
100
AcDbLine
 10
-106.28072254
 20
-12.51142512
 30
0.0
 11
-106.23266002
 21
-12.3246715
 31
0.0
  0
LINE
  5
509
100
AcDbEntity
  8
レイヤー_1
  6
CONTINUOUS
 62
       3
100
AcDbLine
 10
-106.23266002
 20
-12.3246715
 30
0.0
 11
-106.20311954
 21
-12.13272088
 31
0.0
  0
LINE
  5
50A
100
AcDbEntity
  8
レイヤー_1
  6
CONTINUOUS
 62
       3
100
AcDbLine
 10
-106.20311954
 20
-12.13272088
 30
0.0
 11
-106.1930597
 21
-11.93671068
 31
0.0
  0
LINE
  5
50B
100
AcDbEntity
  8
レイヤー_1
  6
CONTINUOUS
 62
       3
100
AcDbLine
 10
-118.31294997
 20
-11.93671068
 30
0.0
 11
-118.32300222
 21
-11.73385133
 31
0.0
  0
LINE
  5
50C
100
AcDbEntity
  8
レイヤー_1
  6
CONTINUOUS
 62
       3
100
AcDbLine
 10
-118.32300222
 20
-11.73385133
 30
0.0
 11
-118.35252121
 21
-11.53680497
 31
0.0
  0
LINE
  5
50D
100
AcDbEntity
  8
レイヤー_1
  6
CONTINUOUS
 62
       3
100
AcDbLine
 10
-118.35252121
 20
-11.53680497
 30
0.0
 11
-118.40055032
 21
-11.34653018
 31
0.0
  0
LINE
  5
50E
100
AcDbEntity
  8
レイヤー_1
  6
CONTINUOUS
 62
       3
100
AcDbLine
 10
-118.40055032
 20
-11.34653018
 30
0.0
 11
-118.46613291
 21
-11.16398553
 31
0.0
  0
LINE
  5
50F
100
AcDbEntity
  8
レイヤー_1
  6
CONTINUOUS
 62
       3
100
AcDbLine
 10
-118.46613291
 20
-11.16398553
 30
0.0
 11
-118.54831236
 21
-10.9901296
 31
0.0
  0
LINE
  5
510
100
AcDbEntity
  8
レイヤー_1
  6
CONTINUOUS
 62
       3
100
AcDbLine
 10
-118.54831236
 20
-10.9901296
 30
0.0
 11
-118.64613204
 21
-10.82592096
 31
0.0
  0
LINE
  5
511
100
AcDbEntity
  8
レイヤー_1
  6
CONTINUOUS
 62
       3
100
AcDbLine
 10
-118.64613204
 20
-10.82592096
 30
0.0
 11
-118.75863532
 21
-10.6723182
 31
0.0
  0
LINE
  5
512
100
AcDbEntity
  8
レイヤー_1
  6
CONTINUOUS
 62
       3
100
AcDbLine
 10
-118.75863532
 20
-10.6723182
 30
0.0
 11
-118.88486558
 21
-10.53027989
 31
0.0
  0
LINE
  5
513
100
AcDbEntity
  8
レイヤー_1
  6
CONTINUOUS
 62
       3
100
AcDbLine
 10
-118.88486558
 20
-10.53027989
 30
0.0
 11
-119.02386619
 21
-10.40076461
 31
0.0
  0
LINE
  5
514
100
AcDbEntity
  8
レイヤー_1
  6
CONTINUOUS
 62
       3
100
AcDbLine
 10
-119.02386619
 20
-10.40076461
 30
0.0
 11
-119.17468052
 21
-10.28473093
 31
0.0
  0
LINE
  5
515
100
AcDbEntity
  8
レイヤー_1
  6
CONTINUOUS
 62
       3
100
AcDbLine
 10
-119.17468052
 20
-10.28473093
 30
0.0
 11
-119.33635194
 21
-10.18313743
 31
0.0
  0
LINE
  5
516
100
AcDbEntity
  8
レイヤー_1
  6
CONTINUOUS
 62
       3
100
AcDbLine
 10
-119.33635194
 20
-10.18313743
 30
0.0
 11
-119.50792382
 21
-10.0969427
 31
0.0
  0
LINE
  5
517
100
AcDbEntity
  8
レイヤー_1
  6
CONTINUOUS
 62
       3
100
AcDbLine
 10
-119.50792382
 20
-10.0969427
 30
0.0
 11
-119.68843955
 21
-10.0271053
 31
0.0
  0
LINE
  5
518
100
AcDbEntity
  8
レイヤー_1
  6
CONTINUOUS
 62
       3
100
AcDbLine
 10
-119.68843955
 20
-10.0271053
 30
0.0
 11
-119.87694248
 21
-9.97458381
 31
0.0
  0
LINE
  5
519
100
AcDbEntity
  8
レイヤー_1
  6
CONTINUOUS
 62
       3
100
AcDbLine
 10
-119.87694248
 20
-9.97458381
 30
0.0
 11
-120.07247599
 21
-9.94033682
 31
0.0
  0
LINE
  5
51A
100
AcDbEntity
  8
レイヤー_1
  6
CONTINUOUS
 62
       3
100
AcDbLine
 10
-120.07247599
 20
-9.94033682
 30
0.0
 11
-120.27408345
 21
-9.92532289
 31
0.0
  0
LINE
  5
51B
100
AcDbEntity
  8
レイヤー_1
  6
CONTINUOUS
 62
       3
100
AcDbLine
 10
-120.27408345
 20
-9.92532289
 30
0.0
 11
-120.47806643
 21
-9.93036581
 31
0.0
  0
LINE
  5
51C
100
AcDbEntity
  8
レイヤー_1
  6
CONTINUOUS
 62
       3
100
AcDbLine
 10
-120.47806643
 20
-9.93036581
 30
0.0
 11
-120.67676559
 21
-9.9551161
 31
0.0
  0
LINE
  5
51D
100
AcDbEntity
  8
レイヤー_1
  6
CONTINUOUS
 62
       3
100
AcDbLine
 10
-120.67676559
 20
-9.9551161
 30
0.0
 11
-120.8689187
 21
-9.99862016
 31
0.0
  0
LINE
  5
51E
100
AcDbEntity
  8
レイヤー_1
  6
CONTINUOUS
 62
       3
100
AcDbLine
 10
-120.8689187
 20
-9.99862016
 30
0.0
 11
-121.05356815
 21
-10.05991942
 31
0.0
  0
LINE
  5
51F
100
AcDbEntity
  8
レイヤー_1
  6
CONTINUOUS
 62
       3
100
AcDbLine
 10
-121.05356815
 20
-10.05991942
 30
0.0
 11
-121.22975635
 21
-10.13805531
 31
0.0
  0
LINE
  5
520
100
AcDbEntity
  8
レイヤー_1
  6
CONTINUOUS
 62
       3
100
AcDbLine
 10
-121.22975635
 20
-10.13805531
 30
0.0
 11
-121.39652568
 21
-10.23206925
 31
0.0
  0
LINE
  5
521
100
AcDbEntity
  8
レイヤー_1
  6
CONTINUOUS
 62
       3
100
AcDbLine
 10
-121.39652568
 20
-10.23206925
 30
0.0
 11
-121.55291855
 21
-10.34100266
 31
0.0
  0
LINE
  5
522
100
AcDbEntity
  8
レイヤー_1
  6
CONTINUOUS
 62
       3
100
AcDbLine
 10
-121.55291855
 20
-10.34100266
 30
0.0
 11
-121.69797735
 21
-10.46389696
 31
0.0
  0
LINE
  5
523
100
AcDbEntity
  8
レイヤー_1
  6
CONTINUOUS
 62
       3
100
AcDbLine
 10
-121.69797735
 20
-10.46389696
 30
0.0
 11
-121.83074449
 21
-10.59979358
 31
0.0
  0
LINE
  5
524
100
AcDbEntity
  8
レイヤー_1
  6
CONTINUOUS
 62
       3
100
AcDbLine
 10
-121.83074449
 20
-10.59979358
 30
0.0
 11
-121.95026236
 21
-10.74773394
 31
0.0
  0
LINE
  5
525
100
AcDbEntity
  8
レイヤー_1
  6
CONTINUOUS
 62
       3
100
AcDbLine
 10
-121.95026236
 20
-10.74773394
 30
0.0
 11
-122.05557335
 21
-10.90675946
 31
0.0
  0
LINE
  5
526
100
AcDbEntity
  8
レイヤー_1
  6
CONTINUOUS
 62
       3
100
AcDbLine
 10
-122.05557335
 20
-10.90675946
 30
0.0
 11
-122.14571986
 21
-11.07591156
 31
0.0
  0
LINE
  5
527
100
AcDbEntity
  8
レイヤー_1
  6
CONTINUOUS
 62
       3
100
AcDbLine
 10
-122.14571986
 20
-11.07591156
 30
0.0
 11
-122.2197443
 21
-11.25423168
 31
0.0
  0
LINE
  5
528
100
AcDbEntity
  8
レイヤー_1
  6
CONTINUOUS
 62
       3
100
AcDbLine
 10
-122.2197443
 20
-11.25423168
 30
0.0
 11
-122.27668906
 21
-11.44076122
 31
0.0
  0
LINE
  5
529
100
AcDbEntity
  8
レイヤー_1
  6
CONTINUOUS
 62
       3
100
AcDbLine
 10
-122.27668906
 20
-11.44076122
 30
0.0
 11
-122.31559653
 21
-11.63454162
 31
0.0
  0
LINE
  5
52A
100
AcDbEntity
  8
レイヤー_1
  6
CONTINUOUS
 62
       3
100
AcDbLine
 10
-122.31559653
 20
-11.63454162
 30
0.0
 11
-122.33550912
 21
-11.83461429
 31
0.0
  0
LINE
  5
52B
100
AcDbEntity
  8
レイヤー_1
  6
CONTINUOUS
 62
       3
100
AcDbLine
 10
-122.33550912
 20
-11.83461429
 30
0.0
 11
-122.33550912
 21
-12.03515214
 31
0.0
  0
LINE
  5
52C
100
AcDbEntity
  8
レイヤー_1
  6
CONTINUOUS
 62
       3
100
AcDbLine
 10
-122.33550912
 20
-12.03515214
 30
0.0
 11
-122.31559653
 21
-12.22927473
 31
0.0
  0
LINE
  5
52D
100
AcDbEntity
  8
レイヤー_1
  6
CONTINUOUS
 62
       3
100
AcDbLine
 10
-122.31559653
 20
-12.22927473
 30
0.0
 11
-122.27668906
 21
-12.41876903
 31
0.0
  0
LINE
  5
52E
100
AcDbEntity
  8
レイヤー_1
  6
CONTINUOUS
 62
       3
100
AcDbLine
 10
-122.27668906
 20
-12.41876903
 30
0.0
 11
-122.2197443
 21
-12.60249761
 31
0.0
  0
LINE
  5
52F
100
AcDbEntity
  8
レイヤー_1
  6
CONTINUOUS
 62
       3
100
AcDbLine
 10
-122.2197443
 20
-12.60249761
 30
0.0
 11
-122.14571986
 21
-12.77932305
 31
0.0
  0
LINE
  5
530
100
AcDbEntity
  8
レイヤー_1
  6
CONTINUOUS
 62
       3
100
AcDbLine
 10
-122.14571986
 20
-12.77932305
 30
0.0
 11
-122.05557335
 21
-12.94810792
 31
0.0
  0
LINE
  5
531
100
AcDbEntity
  8
レイヤー_1
  6
CONTINUOUS
 62
       3
100
AcDbLine
 10
-122.05557335
 20
-12.94810792
 30
0.0
 11
-121.95026236
 21
-13.10771479
 31
0.0
  0
LINE
  5
532
100
AcDbEntity
  8
レイヤー_1
  6
CONTINUOUS
 62
       3
100
AcDbLine
 10
-121.95026236
 20
-13.10771479
 30
0.0
 11
-121.83074449
 21
-13.25700623
 31
0.0
  0
LINE
  5
533
100
AcDbEntity
  8
レイヤー_1
  6
CONTINUOUS
 62
       3
100
AcDbLine
 10
-121.83074449
 20
-13.25700623
 30
0.0
 11
-121.69797735
 21
-13.39484482
 31
0.0
  0
LINE
  5
534
100
AcDbEntity
  8
レイヤー_1
  6
CONTINUOUS
 62
       3
100
AcDbLine
 10
-121.69797735
 20
-13.39484482
 30
0.0
 11
-121.55291855
 21
-13.52009313
 31
0.0
  0
LINE
  5
535
100
AcDbEntity
  8
レイヤー_1
  6
CONTINUOUS
 62
       3
100
AcDbLine
 10
-121.55291855
 20
-13.52009313
 30
0.0
 11
-121.39652568
 21
-13.63161374
 31
0.0
  0
LINE
  5
536
100
AcDbEntity
  8
レイヤー_1
  6
CONTINUOUS
 62
       3
100
AcDbLine
 10
-121.39652568
 20
-13.63161374
 30
0.0
 11
-121.22975635
 21
-13.72826921
 31
0.0
  0
LINE
  5
537
100
AcDbEntity
  8
レイヤー_1
  6
CONTINUOUS
 62
       3
100
AcDbLine
 10
-121.22975635
 20
-13.72826921
 30
0.0
 11
-121.05356815
 21
-13.80892212
 31
0.0
  0
LINE
  5
538
100
AcDbEntity
  8
レイヤー_1
  6
CONTINUOUS
 62
       3
100
AcDbLine
 10
-121.05356815
 20
-13.80892212
 30
0.0
 11
-120.8689187
 21
-13.87243504
 31
0.0
  0
LINE
  5
539
100
AcDbEntity
  8
レイヤー_1
  6
CONTINUOUS
 62
       3
100
AcDbLine
 10
-120.8689187
 20
-13.87243504
 30
0.0
 11
-120.67676559
 21
-13.91767055
 31
0.0
  0
LINE
  5
53A
100
AcDbEntity
  8
レイヤー_1
  6
CONTINUOUS
 62
       3
100
AcDbLine
 10
-120.67676559
 20
-13.91767055
 30
0.0
 11
-120.47806643
 21
-13.94349122
 31
0.0
  0
LINE
  5
53B
100
AcDbEntity
  8
レイヤー_1
  6
CONTINUOUS
 62
       3
100
AcDbLine
 10
-120.47806643
 20
-13.94349122
 30
0.0
 11
-120.27408345
 21
-13.94876554
 31
0.0
  0
LINE
  5
53C
100
AcDbEntity
  8
レイヤー_1
  6
CONTINUOUS
 62
       3
100
AcDbLine
 10
-120.27408345
 20
-13.94876554
 30
0.0
 11
-120.07247599
 21
-13.93307883
 31
0.0
  0
LINE
  5
53D
100
AcDbEntity
  8
レイヤー_1
  6
CONTINUOUS
 62
       3
100
AcDbLine
 10
-120.07247599
 20
-13.93307883
 30
0.0
 11
-119.87694248
 21
-13.89740856
 31
0.0
  0
LINE
  5
53E
100
AcDbEntity
  8
レイヤー_1
  6
CONTINUOUS
 62
       3
100
AcDbLine
 10
-119.87694248
 20
-13.89740856
 30
0.0
 11
-119.68843955
 21
-13.84289217
 31
0.0
  0
LINE
  5
53F
100
AcDbEntity
  8
レイヤー_1
  6
CONTINUOUS
 62
       3
100
AcDbLine
 10
-119.68843955
 20
-13.84289217
 30
0.0
 11
-119.50792382
 21
-13.77066708
 31
0.0
  0
LINE
  5
540
100
AcDbEntity
  8
レイヤー_1
  6
CONTINUOUS
 62
       3
100
AcDbLine
 10
-119.50792382
 20
-13.77066708
 30
0.0
 11
-119.33635194
 21
-13.68187071
 31
0.0
  0
LINE
  5
541
100
AcDbEntity
  8
レイヤー_1
  6
CONTINUOUS
 62
       3
100
AcDbLine
 10
-119.33635194
 20
-13.68187071
 30
0.0
 11
-119.17468052
 21
-13.57764049
 31
0.0
  0
LINE
  5
542
100
AcDbEntity
  8
レイヤー_1
  6
CONTINUOUS
 62
       3
100
AcDbLine
 10
-119.17468052
 20
-13.57764049
 30
0.0
 11
-119.02386619
 21
-13.45911385
 31
0.0
  0
LINE
  5
543
100
AcDbEntity
  8
レイヤー_1
  6
CONTINUOUS
 62
       3
100
AcDbLine
 10
-119.02386619
 20
-13.45911385
 30
0.0
 11
-118.88486558
 21
-13.32742822
 31
0.0
  0
LINE
  5
544
100
AcDbEntity
  8
レイヤー_1
  6
CONTINUOUS
 62
       3
100
AcDbLine
 10
-118.88486558
 20
-13.32742822
 30
0.0
 11
-118.75863532
 21
-13.18372103
 31
0.0
  0
LINE
  5
545
100
AcDbEntity
  8
レイヤー_1
  6
CONTINUOUS
 62
       3
100
AcDbLine
 10
-118.75863532
 20
-13.18372103
 30
0.0
 11
-118.64613204
 21
-13.02912969
 31
0.0
  0
LINE
  5
546
100
AcDbEntity
  8
レイヤー_1
  6
CONTINUOUS
 62
       3
100
AcDbLine
 10
-118.64613204
 20
-13.02912969
 30
0.0
 11
-118.54831236
 21
-12.86479165
 31
0.0
  0
LINE
  5
547
100
AcDbEntity
  8
レイヤー_1
  6
CONTINUOUS
 62
       3
100
AcDbLine
 10
-118.54831236
 20
-12.86479165
 30
0.0
 11
-118.46613291
 21
-12.69184431
 31
0.0
  0
LINE
  5
548
100
AcDbEntity
  8
レイヤー_1
  6
CONTINUOUS
 62
       3
100
AcDbLine
 10
-118.46613291
 20
-12.69184431
 30
0.0
 11
-118.40055032
 21
-12.51142512
 31
0.0
  0
LINE
  5
549
100
AcDbEntity
  8
レイヤー_1
  6
CONTINUOUS
 62
       3
100
AcDbLine
 10
-118.40055032
 20
-12.51142512
 30
0.0
 11
-118.35252121
 21
-12.3246715
 31
0.0
  0
LINE
  5
54A
100
AcDbEntity
  8
レイヤー_1
  6
CONTINUOUS
 62
       3
100
AcDbLine
 10
-118.35252121
 20
-12.3246715
 30
0.0
 11
-118.32300222
 21
-12.13272088
 31
0.0
  0
LINE
  5
54B
100
AcDbEntity
  8
レイヤー_1
  6
CONTINUOUS
 62
       3
100
AcDbLine
 10
-118.32300222
 20
-12.13272088
 30
0.0
 11
-118.31294997
 21
-11.93671068
 31
0.0
  0
LINE
  5
54C
100
AcDbEntity
  8
レイヤー_1
  6
CONTINUOUS
 62
       3
100
AcDbLine
 10
-24.12040404
 20
-22.9430697
 30
0.0
 11
-23.9861607
 21
-22.75643023
 31
0.0
  0
LINE
  5
54D
100
AcDbEntity
  8
レイヤー_1
  6
CONTINUOUS
 62
       3
100
AcDbLine
 10
-23.9861607
 20
-22.75643023
 30
0.0
 11
-23.8531663
 21
-22.56915218
 31
0.0
  0
LINE
  5
54E
100
AcDbEntity
  8
レイヤー_1
  6
CONTINUOUS
 62
       3
100
AcDbLine
 10
-23.8531663
 20
-22.56915218
 30
0.0
 11
-23.72138893
 21
-22.38123476
 31
0.0
  0
LINE
  5
54F
100
AcDbEntity
  8
レイヤー_1
  6
CONTINUOUS
 62
       3
100
AcDbLine
 10
-23.72138893
 20
-22.38123476
 30
0.0
 11
-23.59079672
 21
-22.19267719
 31
0.0
  0
LINE
  5
550
100
AcDbEntity
  8
レイヤー_1
  6
CONTINUOUS
 62
       3
100
AcDbLine
 10
-23.59079672
 20
-22.19267719
 30
0.0
 11
-23.46135778
 21
-22.00347869
 31
0.0
  0
LINE
  5
551
100
AcDbEntity
  8
レイヤー_1
  6
CONTINUOUS
 62
       3
100
AcDbLine
 10
-23.46135778
 20
-22.00347869
 30
0.0
 11
-23.3330402
 21
-21.81363847
 31
0.0
  0
LINE
  5
552
100
AcDbEntity
  8
レイヤー_1
  6
CONTINUOUS
 62
       3
100
AcDbLine
 10
-23.3330402
 20
-21.81363847
 30
0.0
 11
-23.20581211
 21
-21.62315575
 31
0.0
  0
LINE
  5
553
100
AcDbEntity
  8
レイヤー_1
  6
CONTINUOUS
 62
       3
100
AcDbLine
 10
-23.20581211
 20
-21.62315575
 30
0.0
 11
-23.07964162
 21
-21.43202974
 31
0.0
  0
LINE
  5
554
100
AcDbEntity
  8
レイヤー_1
  6
CONTINUOUS
 62
       3
100
AcDbLine
 10
-23.07964162
 20
-21.43202974
 30
0.0
 11
-22.95449682
 21
-21.24025966
 31
0.0
  0
LINE
  5
555
100
AcDbEntity
  8
レイヤー_1
  6
CONTINUOUS
 62
       3
100
AcDbLine
 10
-22.95449682
 20
-21.24025966
 30
0.0
 11
-22.83034584
 21
-21.04784473
 31
0.0
  0
LINE
  5
556
100
AcDbEntity
  8
レイヤー_1
  6
CONTINUOUS
 62
       3
100
AcDbLine
 10
-22.83034584
 20
-21.04784473
 30
0.0
 11
-22.70715678
 21
-20.85478416
 31
0.0
  0
LINE
  5
557
100
AcDbEntity
  8
レイヤー_1
  6
CONTINUOUS
 62
       3
100
AcDbLine
 10
-22.70715678
 20
-20.85478416
 30
0.0
 11
-22.58489776
 21
-20.66107716
 31
0.0
  0
LINE
  5
558
100
AcDbEntity
  8
レイヤー_1
  6
CONTINUOUS
 62
       3
100
AcDbLine
 10
-22.58489776
 20
-20.66107716
 30
0.0
 11
-22.46353688
 21
-20.46672296
 31
0.0
  0
LINE
  5
559
100
AcDbEntity
  8
レイヤー_1
  6
CONTINUOUS
 62
       3
100
AcDbLine
 10
-22.46353688
 20
-20.46672296
 30
0.0
 11
-22.34304226
 21
-20.27172076
 31
0.0
  0
LINE
  5
55A
100
AcDbEntity
  8
レイヤー_1
  6
CONTINUOUS
 62
       3
100
AcDbLine
 10
-22.34304226
 20
-20.27172076
 30
0.0
 11
-22.223382
 21
-20.07606979
 31
0.0
  0
LINE
  5
55B
100
AcDbEntity
  8
レイヤー_1
  6
CONTINUOUS
 62
       3
100
AcDbLine
 10
-22.223382
 20
-20.07606979
 30
0.0
 11
-22.10452421
 21
-19.87976926
 31
0.0
  0
LINE
  5
55C
100
AcDbEntity
  8
レイヤー_1
  6
CONTINUOUS
 62
       3
100
AcDbLine
 10
-22.10452421
 20
-19.87976926
 30
0.0
 11
-21.98643701
 21
-19.68281839
 31
0.0
  0
LINE
  5
55D
100
AcDbEntity
  8
レイヤー_1
  6
CONTINUOUS
 62
       3
100
AcDbLine
 10
-21.98643701
 20
-19.68281839
 30
0.0
 11
-21.8690885
 21
-19.48521638
 31
0.0
  0
LINE
  5
55E
100
AcDbEntity
  8
レイヤー_1
  6
CONTINUOUS
 62
       3
100
AcDbLine
 10
-21.8690885
 20
-19.48521638
 30
0.0
 11
-21.7524468
 21
-19.28696247
 31
0.0
  0
LINE
  5
55F
100
AcDbEntity
  8
レイヤー_1
  6
CONTINUOUS
 62
       3
100
AcDbLine
 10
-21.7524468
 20
-19.28696247
 30
0.0
 11
-21.63648001
 21
-19.08805586
 31
0.0
  0
LINE
  5
560
100
AcDbEntity
  8
レイヤー_1
  6
CONTINUOUS
 62
       3
100
AcDbLine
 10
-43.09190964
 20
-35.23269071
 30
0.0
 11
-41.91995724
 21
-34.63159765
 31
0.0
  0
LINE
  5
561
100
AcDbEntity
  8
レイヤー_1
  6
CONTINUOUS
 62
       3
100
AcDbLine
 10
-41.91995724
 20
-34.63159765
 30
0.0
 11
-40.768561
 21
-33.99760785
 31
0.0
  0
LINE
  5
562
100
AcDbEntity
  8
レイヤー_1
  6
CONTINUOUS
 62
       3
100
AcDbLine
 10
-40.768561
 20
-33.99760785
 30
0.0
 11
-39.6383642
 21
-33.33123572
 31
0.0
  0
LINE
  5
563
100
AcDbEntity
  8
レイヤー_1
  6
CONTINUOUS
 62
       3
100
AcDbLine
 10
-39.6383642
 20
-33.33123572
 30
0.0
 11
-38.53001012
 21
-32.63299568
 31
0.0
  0
LINE
  5
564
100
AcDbEntity
  8
レイヤー_1
  6
CONTINUOUS
 62
       3
100
AcDbLine
 10
-38.53001012
 20
-32.63299568
 30
0.0
 11
-37.44414206
 21
-31.90340216
 31
0.0
  0
LINE
  5
565
100
AcDbEntity
  8
レイヤー_1
  6
CONTINUOUS
 62
       3
100
AcDbLine
 10
-37.44414206
 20
-31.90340216
 30
0.0
 11
-36.38140329
 21
-31.14296958
 31
0.0
  0
LINE
  5
566
100
AcDbEntity
  8
レイヤー_1
  6
CONTINUOUS
 62
       3
100
AcDbLine
 10
-36.38140329
 20
-31.14296958
 30
0.0
 11
-35.34243711
 21
-30.35221235
 31
0.0
  0
LINE
  5
567
100
AcDbEntity
  8
レイヤー_1
  6
CONTINUOUS
 62
       3
100
AcDbLine
 10
-35.34243711
 20
-30.35221235
 30
0.0
 11
-34.32788681
 21
-29.53164489
 31
0.0
  0
LINE
  5
568
100
AcDbEntity
  8
レイヤー_1
  6
CONTINUOUS
 62
       3
100
AcDbLine
 10
-34.32788681
 20
-29.53164489
 30
0.0
 11
-33.33839566
 21
-28.68178163
 31
0.0
  0
LINE
  5
569
100
AcDbEntity
  8
レイヤー_1
  6
CONTINUOUS
 62
       3
100
AcDbLine
 10
-33.33839566
 20
-28.68178163
 30
0.0
 11
-32.37460695
 21
-27.80313698
 31
0.0
  0
LINE
  5
56A
100
AcDbEntity
  8
レイヤー_1
  6
CONTINUOUS
 62
       3
100
AcDbLine
 10
-32.37460695
 20
-27.80313698
 30
0.0
 11
-31.43716398
 21
-26.89622537
 31
0.0
  0
LINE
  5
56B
100
AcDbEntity
  8
レイヤー_1
  6
CONTINUOUS
 62
       3
100
AcDbLine
 10
-31.43716398
 20
-26.89622537
 30
0.0
 11
-30.52671002
 21
-25.96156122
 31
0.0
  0
LINE
  5
56C
100
AcDbEntity
  8
レイヤー_1
  6
CONTINUOUS
 62
       3
100
AcDbLine
 10
-30.52671002
 20
-25.96156122
 30
0.0
 11
-29.64388837
 21
-24.99965894
 31
0.0
  0
LINE
  5
56D
100
AcDbEntity
  8
レイヤー_1
  6
CONTINUOUS
 62
       3
100
AcDbLine
 10
-29.64388837
 20
-24.99965894
 30
0.0
 11
-28.78934231
 21
-24.01103295
 31
0.0
  0
LINE
  5
56E
100
AcDbEntity
  8
レイヤー_1
  6
CONTINUOUS
 62
       3
100
AcDbLine
 10
-28.78934231
 20
-24.01103295
 30
0.0
 11
-27.96371513
 21
-22.99619769
 31
0.0
  0
LINE
  5
56F
100
AcDbEntity
  8
レイヤー_1
  6
CONTINUOUS
 62
       3
100
AcDbLine
 10
-27.96371513
 20
-22.99619769
 30
0.0
 11
-27.16765011
 21
-21.95566755
 31
0.0
  0
LINE
  5
570
100
AcDbEntity
  8
レイヤー_1
  6
CONTINUOUS
 62
       3
100
AcDbLine
 10
-27.16765011
 20
-21.95566755
 30
0.0
 11
-26.40179054
 21
-20.88995697
 31
0.0
  0
LINE
  5
571
100
AcDbEntity
  8
レイヤー_1
  6
CONTINUOUS
 62
       3
100
AcDbLine
 10
-26.40179054
 20
-20.88995697
 30
0.0
 11
-25.66677971
 21
-19.79958037
 31
0.0
  0
LINE
  5
572
100
AcDbEntity
  8
レイヤー_1
  6
CONTINUOUS
 62
       3
100
AcDbLine
 10
-25.66677971
 20
-19.79958037
 30
0.0
 11
-24.9632609
 21
-18.68505217
 31
0.0
  0
LINE
  5
573
100
AcDbEntity
  8
レイヤー_1
  6
CONTINUOUS
 62
       3
100
AcDbLine
 10
-24.9632609
 20
-18.68505217
 30
0.0
 11
-24.2918774
 21
-17.54688678
 31
0.0
  0
LINE
  5
574
100
AcDbEntity
  8
レイヤー_1
  6
CONTINUOUS
 62
       3
100
AcDbLine
 10
-24.2918774
 20
19.19476534
 30
0.0
 11
-24.9632609
 21
20.32707528
 31
0.0
  0
LINE
  5
575
100
AcDbEntity
  8
レイヤー_1
  6
CONTINUOUS
 62
       3
100
AcDbLine
 10
-24.9632609
 20
20.32707528
 30
0.0
 11
-25.66677971
 21
21.43693842
 31
0.0
  0
LINE
  5
576
100
AcDbEntity
  8
レイヤー_1
  6
CONTINUOUS
 62
       3
100
AcDbLine
 10
-25.66677971
 20
21.43693842
 30
0.0
 11
-26.40179054
 21
22.52374467
 31
0.0
  0
LINE
  5
577
100
AcDbEntity
  8
レイヤー_1
  6
CONTINUOUS
 62
       3
100
AcDbLine
 10
-26.40179054
 20
22.52374467
 30
0.0
 11
-27.16765011
 21
23.58688393
 31
0.0
  0
LINE
  5
578
100
AcDbEntity
  8
レイヤー_1
  6
CONTINUOUS
 62
       3
100
AcDbLine
 10
-27.16765011
 20
23.58688393
 30
0.0
 11
-27.96371513
 21
24.62574612
 31
0.0
  0
LINE
  5
579
100
AcDbEntity
  8
レイヤー_1
  6
CONTINUOUS
 62
       3
100
AcDbLine
 10
-27.96371513
 20
24.62574612
 30
0.0
 11
-28.78934231
 21
25.63972114
 31
0.0
  0
LINE
  5
57A
100
AcDbEntity
  8
レイヤー_1
  6
CONTINUOUS
 62
       3
100
AcDbLine
 10
-28.78934231
 20
25.63972114
 30
0.0
 11
-29.64388837
 21
26.62819892
 31
0.0
  0
LINE
  5
57B
100
AcDbEntity
  8
レイヤー_1
  6
CONTINUOUS
 62
       3
100
AcDbLine
 10
-29.64388837
 20
26.62819892
 30
0.0
 11
-30.52671002
 21
27.59056935
 31
0.0
  0
LINE
  5
57C
100
AcDbEntity
  8
レイヤー_1
  6
CONTINUOUS
 62
       3
100
AcDbLine
 10
-30.52671002
 20
27.59056935
 30
0.0
 11
-31.43716398
 21
28.52622235
 31
0.0
  0
LINE
  5
57D
100
AcDbEntity
  8
レイヤー_1
  6
CONTINUOUS
 62
       3
100
AcDbLine
 10
-31.43716398
 20
28.52622235
 30
0.0
 11
-32.37460695
 21
29.43454783
 31
0.0
  0
LINE
  5
57E
100
AcDbEntity
  8
レイヤー_1
  6
CONTINUOUS
 62
       3
100
AcDbLine
 10
-32.37460695
 20
29.43454783
 30
0.0
 11
-33.33839566
 21
30.31493571
 31
0.0
  0
LINE
  5
57F
100
AcDbEntity
  8
レイヤー_1
  6
CONTINUOUS
 62
       3
100
AcDbLine
 10
-33.33839566
 20
30.31493571
 30
0.0
 11
-34.32788681
 21
31.16677588
 31
0.0
  0
LINE
  5
580
100
AcDbEntity
  8
レイヤー_1
  6
CONTINUOUS
 62
       3
100
AcDbLine
 10
-34.32788681
 20
31.16677588
 30
0.0
 11
-35.34243711
 21
31.98945826
 31
0.0
  0
LINE
  5
581
100
AcDbEntity
  8
レイヤー_1
  6
CONTINUOUS
 62
       3
100
AcDbLine
 10
-35.34243711
 20
31.98945826
 30
0.0
 11
-36.38140329
 21
32.78237276
 31
0.0
  0
LINE
  5
582
100
AcDbEntity
  8
レイヤー_1
  6
CONTINUOUS
 62
       3
100
AcDbLine
 10
-36.38140329
 20
32.78237276
 30
0.0
 11
-37.44414206
 21
33.54490929
 31
0.0
  0
LINE
  5
583
100
AcDbEntity
  8
レイヤー_1
  6
CONTINUOUS
 62
       3
100
AcDbLine
 10
-37.44414206
 20
33.54490929
 30
0.0
 11
-38.53001012
 21
34.27645777
 31
0.0
  0
LINE
  5
584
100
AcDbEntity
  8
レイヤー_1
  6
CONTINUOUS
 62
       3
100
AcDbLine
 10
-38.53001012
 20
34.27645777
 30
0.0
 11
-39.6383642
 21
34.97640809
 31
0.0
  0
LINE
  5
585
100
AcDbEntity
  8
レイヤー_1
  6
CONTINUOUS
 62
       3
100
AcDbLine
 10
-39.6383642
 20
34.97640809
 30
0.0
 11
-40.768561
 21
35.64415018
 31
0.0
  0
LINE
  5
586
100
AcDbEntity
  8
レイヤー_1
  6
CONTINUOUS
 62
       3
100
AcDbLine
 10
-40.768561
 20
35.64415018
 30
0.0
 11
-41.91995724
 21
36.27907394
 31
0.0
  0
LINE
  5
587
100
AcDbEntity
  8
レイヤー_1
  6
CONTINUOUS
 62
       3
100
AcDbLine
 10
-41.91995724
 20
36.27907394
 30
0.0
 11
-43.09190964
 21
36.88056928
 31
0.0
  0
LINE
  5
588
100
AcDbEntity
  8
レイヤー_1
  6
CONTINUOUS
 62
       3
100
AcDbLine
 10
-21.63648001
 20
20.69341461
 30
0.0
 11
-21.7524468
 21
20.89217706
 31
0.0
  0
LINE
  5
589
100
AcDbEntity
  8
レイヤー_1
  6
CONTINUOUS
 62
       3
100
AcDbLine
 10
-21.7524468
 20
20.89217706
 30
0.0
 11
-21.8690885
 21
21.09031061
 31
0.0
  0
LINE
  5
58A
100
AcDbEntity
  8
レイヤー_1
  6
CONTINUOUS
 62
       3
100
AcDbLine
 10
-21.8690885
 20
21.09031061
 30
0.0
 11
-21.98643701
 21
21.28781367
 31
0.0
  0
LINE
  5
58B
100
AcDbEntity
  8
レイヤー_1
  6
CONTINUOUS
 62
       3
100
AcDbLine
 10
-21.98643701
 20
21.28781367
 30
0.0
 11
-22.10452421
 21
21.48468469
 31
0.0
  0
LINE
  5
58C
100
AcDbEntity
  8
レイヤー_1
  6
CONTINUOUS
 62
       3
100
AcDbLine
 10
-22.10452421
 20
21.48468469
 30
0.0
 11
-22.223382
 21
21.68092209
 31
0.0
  0
LINE
  5
58D
100
AcDbEntity
  8
レイヤー_1
  6
CONTINUOUS
 62
       3
100
AcDbLine
 10
-22.223382
 20
21.68092209
 30
0.0
 11
-22.34304226
 21
21.87652431
 31
0.0
  0
LINE
  5
58E
100
AcDbEntity
  8
レイヤー_1
  6
CONTINUOUS
 62
       3
100
AcDbLine
 10
-22.34304226
 20
21.87652431
 30
0.0
 11
-22.46353688
 21
22.07148978
 31
0.0
  0
LINE
  5
58F
100
AcDbEntity
  8
レイヤー_1
  6
CONTINUOUS
 62
       3
100
AcDbLine
 10
-22.46353688
 20
22.07148978
 30
0.0
 11
-22.58489776
 21
22.26581693
 31
0.0
  0
LINE
  5
590
100
AcDbEntity
  8
レイヤー_1
  6
CONTINUOUS
 62
       3
100
AcDbLine
 10
-22.58489776
 20
22.26581693
 30
0.0
 11
-22.70715678
 21
22.45950419
 31
0.0
  0
LINE
  5
591
100
AcDbEntity
  8
レイヤー_1
  6
CONTINUOUS
 62
       3
100
AcDbLine
 10
-22.70715678
 20
22.45950419
 30
0.0
 11
-22.83034584
 21
22.65255
 31
0.0
  0
LINE
  5
592
100
AcDbEntity
  8
レイヤー_1
  6
CONTINUOUS
 62
       3
100
AcDbLine
 10
-22.83034584
 20
22.65255
 30
0.0
 11
-22.95449682
 21
22.84495278
 31
0.0
  0
LINE
  5
593
100
AcDbEntity
  8
レイヤー_1
  6
CONTINUOUS
 62
       3
100
AcDbLine
 10
-22.95449682
 20
22.84495278
 30
0.0
 11
-23.07964162
 21
23.03671096
 31
0.0
  0
LINE
  5
594
100
AcDbEntity
  8
レイヤー_1
  6
CONTINUOUS
 62
       3
100
AcDbLine
 10
-23.07964162
 20
23.03671096
 30
0.0
 11
-23.20581211
 21
23.22782299
 31
0.0
  0
LINE
  5
595
100
AcDbEntity
  8
レイヤー_1
  6
CONTINUOUS
 62
       3
100
AcDbLine
 10
-23.20581211
 20
23.22782299
 30
0.0
 11
-23.3330402
 21
23.41828728
 31
0.0
  0
LINE
  5
596
100
AcDbEntity
  8
レイヤー_1
  6
CONTINUOUS
 62
       3
100
AcDbLine
 10
-23.3330402
 20
23.41828728
 30
0.0
 11
-23.46135778
 21
23.60810227
 31
0.0
  0
LINE
  5
597
100
AcDbEntity
  8
レイヤー_1
  6
CONTINUOUS
 62
       3
100
AcDbLine
 10
-23.46135778
 20
23.60810227
 30
0.0
 11
-23.59079672
 21
23.7972664
 31
0.0
  0
LINE
  5
598
100
AcDbEntity
  8
レイヤー_1
  6
CONTINUOUS
 62
       3
100
AcDbLine
 10
-23.59079672
 20
23.7972664
 30
0.0
 11
-23.72138893
 21
23.98577809
 31
0.0
  0
LINE
  5
599
100
AcDbEntity
  8
レイヤー_1
  6
CONTINUOUS
 62
       3
100
AcDbLine
 10
-23.72138893
 20
23.98577809
 30
0.0
 11
-23.8531663
 21
24.17363578
 31
0.0
  0
LINE
  5
59A
100
AcDbEntity
  8
レイヤー_1
  6
CONTINUOUS
 62
       3
100
AcDbLine
 10
-23.8531663
 20
24.17363578
 30
0.0
 11
-23.9861607
 21
24.3608379
 31
0.0
  0
LINE
  5
59B
100
AcDbEntity
  8
レイヤー_1
  6
CONTINUOUS
 62
       3
100
AcDbLine
 10
-23.9861607
 20
24.3608379
 30
0.0
 11
-24.12040404
 21
24.54738288
 31
0.0
  0
LINE
  5
59C
100
AcDbEntity
  8
レイヤー_1
  6
CONTINUOUS
 62
       3
100
AcDbLine
 10
-21.67934835
 20
-19.04658161
 30
0.0
 11
-21.09373183
 21
-18.00345819
 31
0.0
  0
LINE
  5
59D
100
AcDbEntity
  8
レイヤー_1
  6
CONTINUOUS
 62
       3
100
AcDbLine
 10
-21.09373183
 20
-18.00345819
 30
0.0
 11
-20.54102805
 21
-16.94518414
 31
0.0
  0
LINE
  5
59E
100
AcDbEntity
  8
レイヤー_1
  6
CONTINUOUS
 62
       3
100
AcDbLine
 10
-20.54102805
 20
-16.94518414
 30
0.0
 11
-20.02142897
 21
-15.87252541
 31
0.0
  0
LINE
  5
59F
100
AcDbEntity
  8
レイヤー_1
  6
CONTINUOUS
 62
       3
100
AcDbLine
 10
-20.02142897
 20
-15.87252541
 30
0.0
 11
-19.53512658
 21
-14.78624791
 31
0.0
  0
LINE
  5
5A0
100
AcDbEntity
  8
レイヤー_1
  6
CONTINUOUS
 62
       3
100
AcDbLine
 10
-19.53512658
 20
-14.78624791
 30
0.0
 11
-19.08231284
 21
-13.68711758
 31
0.0
  0
LINE
  5
5A1
100
AcDbEntity
  8
レイヤー_1
  6
CONTINUOUS
 62
       3
100
AcDbLine
 10
-19.08231284
 20
-13.68711758
 30
0.0
 11
-18.66317972
 21
-12.57590034
 31
0.0
  0
LINE
  5
5A2
100
AcDbEntity
  8
レイヤー_1
  6
CONTINUOUS
 62
       3
100
AcDbLine
 10
-18.66317972
 20
-12.57590034
 30
0.0
 11
-18.27791919
 21
-11.45336214
 31
0.0
  0
LINE
  5
5A3
100
AcDbEntity
  8
レイヤー_1
  6
CONTINUOUS
 62
       3
100
AcDbLine
 10
-18.27791919
 20
-11.45336214
 30
0.0
 11
-17.92672321
 21
-10.32026889
 31
0.0
  0
LINE
  5
5A4
100
AcDbEntity
  8
レイヤー_1
  6
CONTINUOUS
 62
       3
100
AcDbLine
 10
-17.92672321
 20
-10.32026889
 30
0.0
 11
-17.60978378
 21
-9.17738653
 31
0.0
  0
LINE
  5
5A5
100
AcDbEntity
  8
レイヤー_1
  6
CONTINUOUS
 62
       3
100
AcDbLine
 10
-17.60978378
 20
-9.17738653
 30
0.0
 11
-17.32729284
 21
-8.02548098
 31
0.0
  0
LINE
  5
5A6
100
AcDbEntity
  8
レイヤー_1
  6
CONTINUOUS
 62
       3
100
AcDbLine
 10
-17.32729284
 20
-8.02548098
 30
0.0
 11
-17.07944237
 21
-6.86531818
 31
0.0
  0
LINE
  5
5A7
100
AcDbEntity
  8
レイヤー_1
  6
CONTINUOUS
 62
       3
100
AcDbLine
 10
-17.07944237
 20
-6.86531818
 30
0.0
 11
-16.86642435
 21
-5.69766406
 31
0.0
  0
LINE
  5
5A8
100
AcDbEntity
  8
レイヤー_1
  6
CONTINUOUS
 62
       3
100
AcDbLine
 10
-16.86642435
 20
-5.69766406
 30
0.0
 11
-16.68843073
 21
-4.52328454
 31
0.0
  0
LINE
  5
5A9
100
AcDbEntity
  8
レイヤー_1
  6
CONTINUOUS
 62
       3
100
AcDbLine
 10
-16.68843073
 20
-4.52328454
 30
0.0
 11
-16.5456535
 21
-3.34294556
 31
0.0
  0
LINE
  5
5AA
100
AcDbEntity
  8
レイヤー_1
  6
CONTINUOUS
 62
       3
100
AcDbLine
 10
-16.5456535
 20
-3.34294556
 30
0.0
 11
-16.43828462
 21
-2.15741304
 31
0.0
  0
LINE
  5
5AB
100
AcDbEntity
  8
レイヤー_1
  6
CONTINUOUS
 62
       3
100
AcDbLine
 10
-16.43828462
 20
-2.15741304
 30
0.0
 11
-16.36651607
 21
-0.96745292
 31
0.0
  0
LINE
  5
5AC
100
AcDbEntity
  8
レイヤー_1
  6
CONTINUOUS
 62
       3
100
AcDbLine
 10
-16.36651607
 20
-0.96745292
 30
0.0
 11
-16.3305398
 21
0.22616887
 31
0.0
  0
LINE
  5
5AD
100
AcDbEntity
  8
レイヤー_1
  6
CONTINUOUS
 62
       3
100
AcDbLine
 10
-16.3305398
 20
0.22616887
 30
0.0
 11
-16.3305398
 21
1.42202999
 31
0.0
  0
LINE
  5
5AE
100
AcDbEntity
  8
レイヤー_1
  6
CONTINUOUS
 62
       3
100
AcDbLine
 10
-16.3305398
 20
1.42202999
 30
0.0
 11
-16.36651607
 21
2.61560422
 31
0.0
  0
LINE
  5
5AF
100
AcDbEntity
  8
レイヤー_1
  6
CONTINUOUS
 62
       3
100
AcDbLine
 10
-16.36651607
 20
2.61560422
 30
0.0
 11
-16.43828462
 21
3.80552633
 31
0.0
  0
LINE
  5
5B0
100
AcDbEntity
  8
レイヤー_1
  6
CONTINUOUS
 62
       3
100
AcDbLine
 10
-16.43828462
 20
3.80552633
 30
0.0
 11
-16.5456535
 21
4.99102766
 31
0.0
  0
LINE
  5
5B1
100
AcDbEntity
  8
レイヤー_1
  6
CONTINUOUS
 62
       3
100
AcDbLine
 10
-16.5456535
 20
4.99102766
 30
0.0
 11
-16.68843073
 21
6.17133956
 31
0.0
  0
LINE
  5
5B2
100
AcDbEntity
  8
レイヤー_1
  6
CONTINUOUS
 62
       3
100
AcDbLine
 10
-16.68843073
 20
6.17133956
 30
0.0
 11
-16.86642435
 21
7.34569336
 31
0.0
  0
LINE
  5
5B3
100
AcDbEntity
  8
レイヤー_1
  6
CONTINUOUS
 62
       3
100
AcDbLine
 10
-16.86642435
 20
7.34569336
 30
0.0
 11
-17.07944237
 21
8.5133204
 31
0.0
  0
LINE
  5
5B4
100
AcDbEntity
  8
レイヤー_1
  6
CONTINUOUS
 62
       3
100
AcDbLine
 10
-17.07944237
 20
8.5133204
 30
0.0
 11
-17.32729284
 21
9.67345201
 31
0.0
  0
LINE
  5
5B5
100
AcDbEntity
  8
レイヤー_1
  6
CONTINUOUS
 62
       3
100
AcDbLine
 10
-17.32729284
 20
9.67345201
 30
0.0
 11
-17.60978378
 21
10.82531955
 31
0.0
  0
LINE
  5
5B6
100
AcDbEntity
  8
レイヤー_1
  6
CONTINUOUS
 62
       3
100
AcDbLine
 10
-17.60978378
 20
10.82531955
 30
0.0
 11
-17.92672321
 21
11.96815434
 31
0.0
  0
LINE
  5
5B7
100
AcDbEntity
  8
レイヤー_1
  6
CONTINUOUS
 62
       3
100
AcDbLine
 10
-17.92672321
 20
11.96815434
 30
0.0
 11
-18.27791919
 21
13.10118773
 31
0.0
  0
LINE
  5
5B8
100
AcDbEntity
  8
レイヤー_1
  6
CONTINUOUS
 62
       3
100
AcDbLine
 10
-18.27791919
 20
13.10118773
 30
0.0
 11
-18.66317972
 21
14.22365105
 31
0.0
  0
LINE
  5
5B9
100
AcDbEntity
  8
レイヤー_1
  6
CONTINUOUS
 62
       3
100
AcDbLine
 10
-18.66317972
 20
14.22365105
 30
0.0
 11
-19.08231284
 21
15.33477565
 31
0.0
  0
LINE
  5
5BA
100
AcDbEntity
  8
レイヤー_1
  6
CONTINUOUS
 62
       3
100
AcDbLine
 10
-19.08231284
 20
15.33477565
 30
0.0
 11
-19.53512658
 21
16.43379286
 31
0.0
  0
LINE
  5
5BB
100
AcDbEntity
  8
レイヤー_1
  6
CONTINUOUS
 62
       3
100
AcDbLine
 10
-19.53512658
 20
16.43379286
 30
0.0
 11
-20.02142897
 21
17.51993402
 31
0.0
  0
LINE
  5
5BC
100
AcDbEntity
  8
レイヤー_1
  6
CONTINUOUS
 62
       3
100
AcDbLine
 10
-20.02142897
 20
17.51993402
 30
0.0
 11
-20.54102805
 21
18.59243047
 31
0.0
  0
LINE
  5
5BD
100
AcDbEntity
  8
レイヤー_1
  6
CONTINUOUS
 62
       3
100
AcDbLine
 10
-20.54102805
 20
18.59243047
 30
0.0
 11
-21.09373183
 21
19.65051356
 31
0.0
  0
LINE
  5
5BE
100
AcDbEntity
  8
レイヤー_1
  6
CONTINUOUS
 62
       3
100
AcDbLine
 10
-21.09373183
 20
19.65051356
 30
0.0
 11
-21.67934835
 21
20.69341461
 31
0.0
  0
LINE
  5
5BF
100
AcDbEntity
  8
レイヤー_1
  6
CONTINUOUS
 62
       3
100
AcDbLine
 10
-24.2918774
 20
-17.54688678
 30
0.0
 11
-23.75597474
 21
-16.58506571
 31
0.0
  0
LINE
  5
5C0
100
AcDbEntity
  8
レイヤー_1
  6
CONTINUOUS
 62
       3
100
AcDbLine
 10
-23.75597474
 20
-16.58506571
 30
0.0
 11
-23.24967978
 21
-15.60887264
 31
0.0
  0
LINE
  5
5C1
100
AcDbEntity
  8
レイヤー_1
  6
CONTINUOUS
 62
       3
100
AcDbLine
 10
-23.24967978
 20
-15.60887264
 30
0.0
 11
-22.77323209
 21
-14.61902588
 31
0.0
  0
LINE
  5
5C2
100
AcDbEntity
  8
レイヤー_1
  6
CONTINUOUS
 62
       3
100
AcDbLine
 10
-22.77323209
 20
-14.61902588
 30
0.0
 11
-22.32687123
 21
-13.61624377
 31
0.0
  0
LINE
  5
5C3
100
AcDbEntity
  8
レイヤー_1
  6
CONTINUOUS
 62
       3
100
AcDbLine
 10
-22.32687123
 20
-13.61624377
 30
0.0
 11
-21.91083678
 21
-12.60124463
 31
0.0
  0
LINE
  5
5C4
100
AcDbEntity
  8
レイヤー_1
  6
CONTINUOUS
 62
       3
100
AcDbLine
 10
-21.91083678
 20
-12.60124463
 30
0.0
 11
-21.52536831
 21
-11.57474678
 31
0.0
  0
LINE
  5
5C5
100
AcDbEntity
  8
レイヤー_1
  6
CONTINUOUS
 62
       3
100
AcDbLine
 10
-21.52536831
 20
-11.57474678
 30
0.0
 11
-21.1707054
 21
-10.53746856
 31
0.0
  0
LINE
  5
5C6
100
AcDbEntity
  8
レイヤー_1
  6
CONTINUOUS
 62
       3
100
AcDbLine
 10
-21.1707054
 20
-10.53746856
 30
0.0
 11
-20.84708762
 21
-9.4901283
 31
0.0
  0
LINE
  5
5C7
100
AcDbEntity
  8
レイヤー_1
  6
CONTINUOUS
 62
       3
100
AcDbLine
 10
-20.84708762
 20
-9.4901283
 30
0.0
 11
-20.55475453
 21
-8.43344432
 31
0.0
  0
LINE
  5
5C8
100
AcDbEntity
  8
レイヤー_1
  6
CONTINUOUS
 62
       3
100
AcDbLine
 10
-20.55475453
 20
-8.43344432
 30
0.0
 11
-20.29394572
 21
-7.36813494
 31
0.0
  0
LINE
  5
5C9
100
AcDbEntity
  8
レイヤー_1
  6
CONTINUOUS
 62
       3
100
AcDbLine
 10
-20.29394572
 20
-7.36813494
 30
0.0
 11
-20.06490076
 21
-6.29491851
 31
0.0
  0
LINE
  5
5CA
100
AcDbEntity
  8
レイヤー_1
  6
CONTINUOUS
 62
       3
100
AcDbLine
 10
-20.06490076
 20
-6.29491851
 30
0.0
 11
-19.86785921
 21
-5.21451333
 31
0.0
  0
LINE
  5
5CB
100
AcDbEntity
  8
レイヤー_1
  6
CONTINUOUS
 62
       3
100
AcDbLine
 10
-19.86785921
 20
-5.21451333
 30
0.0
 11
-19.70306065
 21
-4.12763775
 31
0.0
  0
LINE
  5
5CC
100
AcDbEntity
  8
レイヤー_1
  6
CONTINUOUS
 62
       3
100
AcDbLine
 10
-19.70306065
 20
-4.12763775
 30
0.0
 11
-19.57074466
 21
-3.03501008
 31
0.0
  0
LINE
  5
5CD
100
AcDbEntity
  8
レイヤー_1
  6
CONTINUOUS
 62
       3
100
AcDbLine
 10
-19.57074466
 20
-3.03501008
 30
0.0
 11
-19.4711508
 21
-1.93734866
 31
0.0
  0
LINE
  5
5CE
100
AcDbEntity
  8
レイヤー_1
  6
CONTINUOUS
 62
       3
100
AcDbLine
 10
-19.4711508
 20
-1.93734866
 30
0.0
 11
-19.40451865
 21
-0.83537181
 31
0.0
  0
LINE
  5
5CF
100
AcDbEntity
  8
レイヤー_1
  6
CONTINUOUS
 62
       3
100
AcDbLine
 10
-19.40451865
 20
-0.83537181
 30
0.0
 11
-19.37108778
 21
0.27020214
 31
0.0
  0
LINE
  5
5D0
100
AcDbEntity
  8
レイヤー_1
  6
CONTINUOUS
 62
       3
100
AcDbLine
 10
-19.37108778
 20
0.27020214
 30
0.0
 11
-19.37108778
 21
1.37802495
 31
0.0
  0
LINE
  5
5D1
100
AcDbEntity
  8
レイヤー_1
  6
CONTINUOUS
 62
       3
100
AcDbLine
 10
-19.37108778
 20
1.37802495
 30
0.0
 11
-19.40451865
 21
2.48359868
 31
0.0
  0
LINE
  5
5D2
100
AcDbEntity
  8
レイヤー_1
  6
CONTINUOUS
 62
       3
100
AcDbLine
 10
-19.40451865
 20
2.48359868
 30
0.0
 11
-19.4711508
 21
3.58557473
 31
0.0
  0
LINE
  5
5D3
100
AcDbEntity
  8
レイヤー_1
  6
CONTINUOUS
 62
       3
100
AcDbLine
 10
-19.4711508
 20
3.58557473
 30
0.0
 11
-19.57074466
 21
4.68323438
 31
0.0
  0
LINE
  5
5D4
100
AcDbEntity
  8
レイヤー_1
  6
CONTINUOUS
 62
       3
100
AcDbLine
 10
-19.57074466
 20
4.68323438
 30
0.0
 11
-19.70306065
 21
5.77585891
 31
0.0
  0
LINE
  5
5D5
100
AcDbEntity
  8
レイヤー_1
  6
CONTINUOUS
 62
       3
100
AcDbLine
 10
-19.70306065
 20
5.77585891
 30
0.0
 11
-19.86785921
 21
6.8627296
 31
0.0
  0
LINE
  5
5D6
100
AcDbEntity
  8
レイヤー_1
  6
CONTINUOUS
 62
       3
100
AcDbLine
 10
-19.86785921
 20
6.8627296
 30
0.0
 11
-20.06490076
 21
7.94312774
 31
0.0
  0
LINE
  5
5D7
100
AcDbEntity
  8
レイヤー_1
  6
CONTINUOUS
 62
       3
100
AcDbLine
 10
-20.06490076
 20
7.94312774
 30
0.0
 11
-20.29394572
 21
9.0163346
 31
0.0
  0
LINE
  5
5D8
100
AcDbEntity
  8
レイヤー_1
  6
CONTINUOUS
 62
       3
100
AcDbLine
 10
-20.29394572
 20
9.0163346
 30
0.0
 11
-20.55475453
 21
10.08163147
 31
0.0
  0
LINE
  5
5D9
100
AcDbEntity
  8
レイヤー_1
  6
CONTINUOUS
 62
       3
100
AcDbLine
 10
-20.55475453
 20
10.08163147
 30
0.0
 11
-20.84708762
 21
11.13829964
 31
0.0
  0
LINE
  5
5DA
100
AcDbEntity
  8
レイヤー_1
  6
CONTINUOUS
 62
       3
100
AcDbLine
 10
-20.84708762
 20
11.13829964
 30
0.0
 11
-21.1707054
 21
12.18562037
 31
0.0
  0
LINE
  5
5DB
100
AcDbEntity
  8
レイヤー_1
  6
CONTINUOUS
 62
       3
100
AcDbLine
 10
-21.1707054
 20
12.18562037
 30
0.0
 11
-21.52536831
 21
13.22287497
 31
0.0
  0
LINE
  5
5DC
100
AcDbEntity
  8
レイヤー_1
  6
CONTINUOUS
 62
       3
100
AcDbLine
 10
-21.52536831
 20
13.22287497
 30
0.0
 11
-21.91083678
 21
14.2493447
 31
0.0
  0
LINE
  5
5DD
100
AcDbEntity
  8
レイヤー_1
  6
CONTINUOUS
 62
       3
100
AcDbLine
 10
-21.91083678
 20
14.2493447
 30
0.0
 11
-22.32687123
 21
15.26431086
 31
0.0
  0
LINE
  5
5DE
100
AcDbEntity
  8
レイヤー_1
  6
CONTINUOUS
 62
       3
100
AcDbLine
 10
-22.32687123
 20
15.26431086
 30
0.0
 11
-22.77323209
 21
16.26705472
 31
0.0
  0
LINE
  5
5DF
100
AcDbEntity
  8
レイヤー_1
  6
CONTINUOUS
 62
       3
100
AcDbLine
 10
-22.77323209
 20
16.26705472
 30
0.0
 11
-23.24967978
 21
17.25685756
 31
0.0
  0
LINE
  5
5E0
100
AcDbEntity
  8
レイヤー_1
  6
CONTINUOUS
 62
       3
100
AcDbLine
 10
-23.24967978
 20
17.25685756
 30
0.0
 11
-23.75597474
 21
18.23300068
 31
0.0
  0
LINE
  5
5E1
100
AcDbEntity
  8
レイヤー_1
  6
CONTINUOUS
 62
       3
100
AcDbLine
 10
-23.75597474
 20
18.23300068
 30
0.0
 11
-24.2918774
 21
19.19476534
 31
0.0
  0
LINE
  5
5E2
100
AcDbEntity
  8
レイヤー_1
  6
CONTINUOUS
 62
       3
100
AcDbLine
 10
-51.36759028
 20
-38.53111319
 30
0.0
 11
-50.94176012
 21
-38.39968086
 31
0.0
  0
LINE
  5
5E3
100
AcDbEntity
  8
レイヤー_1
  6
CONTINUOUS
 62
       3
100
AcDbLine
 10
-50.94176012
 20
-38.39968086
 30
0.0
 11
-50.51705211
 21
-38.2646889
 31
0.0
  0
LINE
  5
5E4
100
AcDbEntity
  8
レイヤー_1
  6
CONTINUOUS
 62
       3
100
AcDbLine
 10
-50.51705211
 20
-38.2646889
 30
0.0
 11
-50.09349057
 21
-38.12614304
 31
0.0
  0
LINE
  5
5E5
100
AcDbEntity
  8
レイヤー_1
  6
CONTINUOUS
 62
       3
100
AcDbLine
 10
-50.09349057
 20
-38.12614304
 30
0.0
 11
-49.6710998
 21
-37.98404905
 31
0.0
  0
LINE
  5
5E6
100
AcDbEntity
  8
レイヤー_1
  6
CONTINUOUS
 62
       3
100
AcDbLine
 10
-49.6710998
 20
-37.98404905
 30
0.0
 11
-49.24990412
 21
-37.83841266
 31
0.0
  0
LINE
  5
5E7
100
AcDbEntity
  8
レイヤー_1
  6
CONTINUOUS
 62
       3
100
AcDbLine
 10
-49.24990412
 20
-37.83841266
 30
0.0
 11
-48.82992783
 21
-37.68923964
 31
0.0
  0
LINE
  5
5E8
100
AcDbEntity
  8
レイヤー_1
  6
CONTINUOUS
 62
       3
100
AcDbLine
 10
-48.82992783
 20
-37.68923964
 30
0.0
 11
-48.41119525
 21
-37.53653574
 31
0.0
  0
LINE
  5
5E9
100
AcDbEntity
  8
レイヤー_1
  6
CONTINUOUS
 62
       3
100
AcDbLine
 10
-48.41119525
 20
-37.53653574
 30
0.0
 11
-47.99373068
 21
-37.38030669
 31
0.0
  0
LINE
  5
5EA
100
AcDbEntity
  8
レイヤー_1
  6
CONTINUOUS
 62
       3
100
AcDbLine
 10
-47.99373068
 20
-37.38030669
 30
0.0
 11
-47.57755844
 21
-37.22055826
 31
0.0
  0
LINE
  5
5EB
100
AcDbEntity
  8
レイヤー_1
  6
CONTINUOUS
 62
       3
100
AcDbLine
 10
-47.57755844
 20
-37.22055826
 30
0.0
 11
-47.16270283
 21
-37.05729619
 31
0.0
  0
LINE
  5
5EC
100
AcDbEntity
  8
レイヤー_1
  6
CONTINUOUS
 62
       3
100
AcDbLine
 10
-47.16270283
 20
-37.05729619
 30
0.0
 11
-46.74918816
 21
-36.89052624
 31
0.0
  0
LINE
  5
5ED
100
AcDbEntity
  8
レイヤー_1
  6
CONTINUOUS
 62
       3
100
AcDbLine
 10
-46.74918816
 20
-36.89052624
 30
0.0
 11
-46.33703875
 21
-36.72025415
 31
0.0
  0
LINE
  5
5EE
100
AcDbEntity
  8
レイヤー_1
  6
CONTINUOUS
 62
       3
100
AcDbLine
 10
-46.33703875
 20
-36.72025415
 30
0.0
 11
-45.92627889
 21
-36.54648569
 31
0.0
  0
LINE
  5
5EF
100
AcDbEntity
  8
レイヤー_1
  6
CONTINUOUS
 62
       3
100
AcDbLine
 10
-45.92627889
 20
-36.54648569
 30
0.0
 11
-45.51693291
 21
-36.36922658
 31
0.0
  0
LINE
  5
5F0
100
AcDbEntity
  8
レイヤー_1
  6
CONTINUOUS
 62
       3
100
AcDbLine
 10
-45.51693291
 20
-36.36922658
 30
0.0
 11
-45.10902511
 21
-36.1884826
 31
0.0
  0
LINE
  5
5F1
100
AcDbEntity
  8
レイヤー_1
  6
CONTINUOUS
 62
       3
100
AcDbLine
 10
-45.10902511
 20
-36.1884826
 30
0.0
 11
-44.7025798
 21
-36.00425948
 31
0.0
  0
LINE
  5
5F2
100
AcDbEntity
  8
レイヤー_1
  6
CONTINUOUS
 62
       3
100
AcDbLine
 10
-44.7025798
 20
-36.00425948
 30
0.0
 11
-44.29762128
 21
-35.81656298
 31
0.0
  0
LINE
  5
5F3
100
AcDbEntity
  8
レイヤー_1
  6
CONTINUOUS
 62
       3
100
AcDbLine
 10
-44.29762128
 20
-35.81656298
 30
0.0
 11
-43.89417388
 21
-35.62539886
 31
0.0
  0
LINE
  5
5F4
100
AcDbEntity
  8
レイヤー_1
  6
CONTINUOUS
 62
       3
100
AcDbLine
 10
-43.89417388
 20
-35.62539886
 30
0.0
 11
-43.49226189
 21
-35.43077285
 31
0.0
  0
LINE
  5
5F5
100
AcDbEntity
  8
レイヤー_1
  6
CONTINUOUS
 62
       3
100
AcDbLine
 10
-43.49226189
 20
-35.43077285
 30
0.0
 11
-43.09190964
 21
-35.23269071
 31
0.0
  0
LINE
  5
5F6
100
AcDbEntity
  8
レイヤー_1
  6
CONTINUOUS
 62
       3
100
AcDbLine
 10
-43.09190964
 20
36.88056928
 30
0.0
 11
-43.50218395
 21
37.08343795
 31
0.0
  0
LINE
  5
5F7
100
AcDbEntity
  8
レイヤー_1
  6
CONTINUOUS
 62
       3
100
AcDbLine
 10
-43.50218395
 20
37.08343795
 30
0.0
 11
-43.91409929
 21
37.28259693
 31
0.0
  0
LINE
  5
5F8
100
AcDbEntity
  8
レイヤー_1
  6
CONTINUOUS
 62
       3
100
AcDbLine
 10
-43.91409929
 20
37.28259693
 30
0.0
 11
-44.32762899
 21
37.4780431
 31
0.0
  0
LINE
  5
5F9
100
AcDbEntity
  8
レイヤー_1
  6
CONTINUOUS
 62
       3
100
AcDbLine
 10
-44.32762899
 20
37.4780431
 30
0.0
 11
-44.74274638
 21
37.66977332
 31
0.0
  0
LINE
  5
5FA
100
AcDbEntity
  8
レイヤー_1
  6
CONTINUOUS
 62
       3
100
AcDbLine
 10
-44.74274638
 20
37.66977332
 30
0.0
 11
-45.15942481
 21
37.85778444
 31
0.0
  0
LINE
  5
5FB
100
AcDbEntity
  8
レイヤー_1
  6
CONTINUOUS
 62
       3
100
AcDbLine
 10
-45.15942481
 20
37.85778444
 30
0.0
 11
-45.57763762
 21
38.04207334
 31
0.0
  0
LINE
  5
5FC
100
AcDbEntity
  8
レイヤー_1
  6
CONTINUOUS
 62
       3
100
AcDbLine
 10
-45.57763762
 20
38.04207334
 30
0.0
 11
-45.99735813
 21
38.22263688
 31
0.0
  0
LINE
  5
5FD
100
AcDbEntity
  8
レイヤー_1
  6
CONTINUOUS
 62
       3
100
AcDbLine
 10
-45.99735813
 20
38.22263688
 30
0.0
 11
-46.41855969
 21
38.39947192
 31
0.0
  0
LINE
  5
5FE
100
AcDbEntity
  8
レイヤー_1
  6
CONTINUOUS
 62
       3
100
AcDbLine
 10
-46.41855969
 20
38.39947192
 30
0.0
 11
-46.84121564
 21
38.57257532
 31
0.0
  0
LINE
  5
5FF
100
AcDbEntity
  8
レイヤー_1
  6
CONTINUOUS
 62
       3
100
AcDbLine
 10
-46.84121564
 20
38.57257532
 30
0.0
 11
-47.26529931
 21
38.74194394
 31
0.0
  0
LINE
  5
600
100
AcDbEntity
  8
レイヤー_1
  6
CONTINUOUS
 62
       3
100
AcDbLine
 10
-47.26529931
 20
38.74194394
 30
0.0
 11
-47.69078405
 21
38.90757466
 31
0.0
  0
LINE
  5
601
100
AcDbEntity
  8
レイヤー_1
  6
CONTINUOUS
 62
       3
100
AcDbLine
 10
-47.69078405
 20
38.90757466
 30
0.0
 11
-48.11764319
 21
39.06946433
 31
0.0
  0
LINE
  5
602
100
AcDbEntity
  8
レイヤー_1
  6
CONTINUOUS
 62
       3
100
AcDbLine
 10
-48.11764319
 20
39.06946433
 30
0.0
 11
-48.54585006
 21
39.22760982
 31
0.0
  0
LINE
  5
603
100
AcDbEntity
  8
レイヤー_1
  6
CONTINUOUS
 62
       3
100
AcDbLine
 10
-48.54585006
 20
39.22760982
 30
0.0
 11
-48.97537802
 21
39.38200798
 31
0.0
  0
LINE
  5
604
100
AcDbEntity
  8
レイヤー_1
  6
CONTINUOUS
 62
       3
100
AcDbLine
 10
-48.97537802
 20
39.38200798
 30
0.0
 11
-49.40620038
 21
39.53265569
 31
0.0
  0
LINE
  5
605
100
AcDbEntity
  8
レイヤー_1
  6
CONTINUOUS
 62
       3
100
AcDbLine
 10
-49.40620038
 20
39.53265569
 30
0.0
 11
-49.8382905
 21
39.67954981
 31
0.0
  0
LINE
  5
606
100
AcDbEntity
  8
レイヤー_1
  6
CONTINUOUS
 62
       3
100
AcDbLine
 10
-49.8382905
 20
39.67954981
 30
0.0
 11
-50.27162172
 21
39.82268719
 31
0.0
  0
LINE
  5
607
100
AcDbEntity
  8
レイヤー_1
  6
CONTINUOUS
 62
       3
100
AcDbLine
 10
-50.27162172
 20
39.82268719
 30
0.0
 11
-50.70616736
 21
39.96206471
 31
0.0
  0
LINE
  5
608
100
AcDbEntity
  8
レイヤー_1
  6
CONTINUOUS
 62
       3
100
AcDbLine
 10
-50.70616736
 20
39.96206471
 30
0.0
 11
-51.14190076
 21
40.09767923
 31
0.0
  0
LINE
  5
609
100
AcDbEntity
  8
レイヤー_1
  6
CONTINUOUS
 62
       3
100
AcDbLine
 10
-51.14190076
 20
40.09767923
 30
0.0
 11
-51.57879527
 21
40.2295276
 31
0.0
  0
LINE
  5
60A
100
AcDbEntity
  8
レイヤー_1
  6
CONTINUOUS
 62
       3
100
AcDbLine
 10
-110.7329214
 20
-2.25927019
 30
0.0
 11
-110.75064221
 21
-1.90072703
 31
0.0
  0
LINE
  5
60B
100
AcDbEntity
  8
レイヤー_1
  6
CONTINUOUS
 62
       3
100
AcDbLine
 10
-110.75064221
 20
-1.90072703
 30
0.0
 11
-110.80268733
 21
-1.55346604
 31
0.0
  0
LINE
  5
60C
100
AcDbEntity
  8
レイヤー_1
  6
CONTINUOUS
 62
       3
100
AcDbLine
 10
-110.80268733
 20
-1.55346604
 30
0.0
 11
-110.88738086
 21
-1.21904471
 31
0.0
  0
LINE
  5
60D
100
AcDbEntity
  8
レイヤー_1
  6
CONTINUOUS
 62
       3
100
AcDbLine
 10
-110.88738086
 20
-1.21904471
 30
0.0
 11
-111.00304685
 21
-0.89902057
 31
0.0
  0
LINE
  5
60E
100
AcDbEntity
  8
レイヤー_1
  6
CONTINUOUS
 62
       3
100
AcDbLine
 10
-111.00304685
 20
-0.89902057
 30
0.0
 11
-111.14800938
 21
-0.5949511
 31
0.0
  0
LINE
  5
60F
100
AcDbEntity
  8
レイヤー_1
  6
CONTINUOUS
 62
       3
100
AcDbLine
 10
-111.14800938
 20
-0.5949511
 30
0.0
 11
-111.32059254
 21
-0.30839382
 31
0.0
  0
LINE
  5
610
100
AcDbEntity
  8
レイヤー_1
  6
CONTINUOUS
 62
       3
100
AcDbLine
 10
-111.32059254
 20
-0.30839382
 30
0.0
 11
-111.51912038
 21
-0.04090623
 31
0.0
  0
LINE
  5
611
100
AcDbEntity
  8
レイヤー_1
  6
CONTINUOUS
 62
       3
100
AcDbLine
 10
-111.51912038
 20
-0.04090623
 30
0.0
 11
-111.741917
 21
0.20595416
 31
0.0
  0
LINE
  5
612
100
AcDbEntity
  8
レイヤー_1
  6
CONTINUOUS
 62
       3
100
AcDbLine
 10
-111.741917
 20
0.20595416
 30
0.0
 11
-111.98730645
 21
0.43062986
 31
0.0
  0
LINE
  5
613
100
AcDbEntity
  8
レイヤー_1
  6
CONTINUOUS
 62
       3
100
AcDbLine
 10
-111.98730645
 20
0.43062986
 30
0.0
 11
-112.25361281
 21
0.63156334
 31
0.0
  0
LINE
  5
614
100
AcDbEntity
  8
レイヤー_1
  6
CONTINUOUS
 62
       3
100
AcDbLine
 10
-112.25361281
 20
0.63156334
 30
0.0
 11
-112.53916016
 21
0.80719712
 31
0.0
  0
LINE
  5
615
100
AcDbEntity
  8
レイヤー_1
  6
CONTINUOUS
 62
       3
100
AcDbLine
 10
-112.53916016
 20
0.80719712
 30
0.0
 11
-112.84227257
 21
0.95597368
 31
0.0
  0
LINE
  5
616
100
AcDbEntity
  8
レイヤー_1
  6
CONTINUOUS
 62
       3
100
AcDbLine
 10
-112.84227257
 20
0.95597368
 30
0.0
 11
-113.16127412
 21
1.07633552
 31
0.0
  0
LINE
  5
617
100
AcDbEntity
  8
レイヤー_1
  6
CONTINUOUS
 62
       3
100
AcDbLine
 10
-113.16127412
 20
1.07633552
 30
0.0
 11
-113.49448888
 21
1.16672513
 31
0.0
  0
LINE
  5
618
100
AcDbEntity
  8
レイヤー_1
  6
CONTINUOUS
 62
       3
100
AcDbLine
 10
-113.49448888
 20
1.16672513
 30
0.0
 11
-113.84024091
 21
1.22558501
 31
0.0
  0
LINE
  5
619
100
AcDbEntity
  8
レイヤー_1
  6
CONTINUOUS
 62
       3
100
AcDbLine
 10
-113.84024091
 20
1.22558501
 30
0.0
 11
-114.19685431
 21
1.25135766
 31
0.0
  0
LINE
  5
61A
100
AcDbEntity
  8
レイヤー_1
  6
CONTINUOUS
 62
       3
100
AcDbLine
 10
-114.19685431
 20
1.25135766
 30
0.0
 11
-114.55732045
 21
1.24270458
 31
0.0
  0
LINE
  5
61B
100
AcDbEntity
  8
レイヤー_1
  6
CONTINUOUS
 62
       3
100
AcDbLine
 10
-114.55732045
 20
1.24270458
 30
0.0
 11
-114.90743831
 21
1.20019363
 31
0.0
  0
LINE
  5
61C
100
AcDbEntity
  8
レイヤー_1
  6
CONTINUOUS
 62
       3
100
AcDbLine
 10
-114.90743831
 20
1.20019363
 30
0.0
 11
-115.24512001
 21
1.1253742
 31
0.0
  0
LINE
  5
61D
100
AcDbEntity
  8
レイヤー_1
  6
CONTINUOUS
 62
       3
100
AcDbLine
 10
-115.24512001
 20
1.1253742
 30
0.0
 11
-115.56880707
 21
1.01980378
 31
0.0
  0
LINE
  5
61E
100
AcDbEntity
  8
レイヤー_1
  6
CONTINUOUS
 62
       3
100
AcDbLine
 10
-115.56880707
 20
1.01980378
 30
0.0
 11
-115.876941
 21
0.8850399
 31
0.0
  0
LINE
  5
61F
100
AcDbEntity
  8
レイヤー_1
  6
CONTINUOUS
 62
       3
100
AcDbLine
 10
-115.876941
 20
0.8850399
 30
0.0
 11
-116.16796334
 21
0.72264004
 31
0.0
  0
LINE
  5
620
100
AcDbEntity
  8
レイヤー_1
  6
CONTINUOUS
 62
       3
100
AcDbLine
 10
-116.16796334
 20
0.72264004
 30
0.0
 11
-116.44031559
 21
0.53416172
 31
0.0
  0
LINE
  5
621
100
AcDbEntity
  8
レイヤー_1
  6
CONTINUOUS
 62
       3
100
AcDbLine
 10
-116.44031559
 20
0.53416172
 30
0.0
 11
-116.69243929
 21
0.32116244
 31
0.0
  0
LINE
  5
622
100
AcDbEntity
  8
レイヤー_1
  6
CONTINUOUS
 62
       3
100
AcDbLine
 10
-116.69243929
 20
0.32116244
 30
0.0
 11
-116.92277594
 21
0.08519971
 31
0.0
  0
LINE
  5
623
100
AcDbEntity
  8
レイヤー_1
  6
CONTINUOUS
 62
       3
100
AcDbLine
 10
-116.92277594
 20
0.08519971
 30
0.0
 11
-117.12976708
 21
-0.17216897
 31
0.0
  0
LINE
  5
624
100
AcDbEntity
  8
レイヤー_1
  6
CONTINUOUS
 62
       3
100
AcDbLine
 10
-117.12976708
 20
-0.17216897
 30
0.0
 11
-117.31185421
 21
-0.44938609
 31
0.0
  0
LINE
  5
625
100
AcDbEntity
  8
レイヤー_1
  6
CONTINUOUS
 62
       3
100
AcDbLine
 10
-117.31185421
 20
-0.44938609
 30
0.0
 11
-117.46747887
 21
-0.74489415
 31
0.0
  0
LINE
  5
626
100
AcDbEntity
  8
レイヤー_1
  6
CONTINUOUS
 62
       3
100
AcDbLine
 10
-117.46747887
 20
-0.74489415
 30
0.0
 11
-117.59508257
 21
-1.05713565
 31
0.0
  0
LINE
  5
627
100
AcDbEntity
  8
レイヤー_1
  6
CONTINUOUS
 62
       3
100
AcDbLine
 10
-117.59508257
 20
-1.05713565
 30
0.0
 11
-117.69310682
 21
-1.38455307
 31
0.0
  0
LINE
  5
628
100
AcDbEntity
  8
レイヤー_1
  6
CONTINUOUS
 62
       3
100
AcDbLine
 10
-117.69310682
 20
-1.38455307
 30
0.0
 11
-117.75999316
 21
-1.72558892
 31
0.0
  0
LINE
  5
629
100
AcDbEntity
  8
レイヤー_1
  6
CONTINUOUS
 62
       3
100
AcDbLine
 10
-117.75999316
 20
-1.72558892
 30
0.0
 11
-117.79418311
 21
-2.07868568
 31
0.0
  0
LINE
  5
62A
100
AcDbEntity
  8
レイヤー_1
  6
CONTINUOUS
 62
       3
100
AcDbLine
 10
-117.79418311
 20
-2.07868568
 30
0.0
 11
-117.79418311
 21
-2.43994373
 31
0.0
  0
LINE
  5
62B
100
AcDbEntity
  8
レイヤー_1
  6
CONTINUOUS
 62
       3
100
AcDbLine
 10
-117.79418311
 20
-2.43994373
 30
0.0
 11
-117.75999316
 21
-2.79390031
 31
0.0
  0
LINE
  5
62C
100
AcDbEntity
  8
レイヤー_1
  6
CONTINUOUS
 62
       3
100
AcDbLine
 10
-117.75999316
 20
-2.79390031
 30
0.0
 11
-117.69310682
 21
-3.13660384
 31
0.0
  0
LINE
  5
62D
100
AcDbEntity
  8
レイヤー_1
  6
CONTINUOUS
 62
       3
100
AcDbLine
 10
-117.69310682
 20
-3.13660384
 30
0.0
 11
-117.59508257
 21
-3.46637548
 31
0.0
  0
LINE
  5
62E
100
AcDbEntity
  8
レイヤー_1
  6
CONTINUOUS
 62
       3
100
AcDbLine
 10
-117.59508257
 20
-3.46637548
 30
0.0
 11
-117.46747887
 21
-3.78153636
 31
0.0
  0
LINE
  5
62F
100
AcDbEntity
  8
レイヤー_1
  6
CONTINUOUS
 62
       3
100
AcDbLine
 10
-117.46747887
 20
-3.78153636
 30
0.0
 11
-117.31185421
 21
-4.08040765
 31
0.0
  0
LINE
  5
630
100
AcDbEntity
  8
レイヤー_1
  6
CONTINUOUS
 62
       3
100
AcDbLine
 10
-117.31185421
 20
-4.08040765
 30
0.0
 11
-117.12976708
 21
-4.3613105
 31
0.0
  0
LINE
  5
631
100
AcDbEntity
  8
レイヤー_1
  6
CONTINUOUS
 62
       3
100
AcDbLine
 10
-117.12976708
 20
-4.3613105
 30
0.0
 11
-116.92277594
 21
-4.62256604
 31
0.0
  0
LINE
  5
632
100
AcDbEntity
  8
レイヤー_1
  6
CONTINUOUS
 62
       3
100
AcDbLine
 10
-116.92277594
 20
-4.62256604
 30
0.0
 11
-116.69243929
 21
-4.86249544
 31
0.0
  0
LINE
  5
633
100
AcDbEntity
  8
レイヤー_1
  6
CONTINUOUS
 62
       3
100
AcDbLine
 10
-116.69243929
 20
-4.86249544
 30
0.0
 11
-116.44031559
 21
-5.07941983
 31
0.0
  0
LINE
  5
634
100
AcDbEntity
  8
レイヤー_1
  6
CONTINUOUS
 62
       3
100
AcDbLine
 10
-116.44031559
 20
-5.07941983
 30
0.0
 11
-116.16796334
 21
-5.27166038
 31
0.0
  0
LINE
  5
635
100
AcDbEntity
  8
レイヤー_1
  6
CONTINUOUS
 62
       3
100
AcDbLine
 10
-116.16796334
 20
-5.27166038
 30
0.0
 11
-115.876941
 21
-5.43753823
 31
0.0
  0
LINE
  5
636
100
AcDbEntity
  8
レイヤー_1
  6
CONTINUOUS
 62
       3
100
AcDbLine
 10
-115.876941
 20
-5.43753823
 30
0.0
 11
-115.56880707
 21
-5.57537454
 31
0.0
  0
LINE
  5
637
100
AcDbEntity
  8
レイヤー_1
  6
CONTINUOUS
 62
       3
100
AcDbLine
 10
-115.56880707
 20
-5.57537454
 30
0.0
 11
-115.24512001
 21
-5.68349044
 31
0.0
  0
LINE
  5
638
100
AcDbEntity
  8
レイヤー_1
  6
CONTINUOUS
 62
       3
100
AcDbLine
 10
-115.24512001
 20
-5.68349044
 30
0.0
 11
-114.90743831
 21
-5.76020709
 31
0.0
  0
LINE
  5
639
100
AcDbEntity
  8
レイヤー_1
  6
CONTINUOUS
 62
       3
100
AcDbLine
 10
-114.90743831
 20
-5.76020709
 30
0.0
 11
-114.55732045
 21
-5.80384565
 31
0.0
  0
LINE
  5
63A
100
AcDbEntity
  8
レイヤー_1
  6
CONTINUOUS
 62
       3
100
AcDbLine
 10
-114.55732045
 20
-5.80384565
 30
0.0
 11
-114.19685431
 21
-5.812736
 31
0.0
  0
LINE
  5
63B
100
AcDbEntity
  8
レイヤー_1
  6
CONTINUOUS
 62
       3
100
AcDbLine
 10
-114.19685431
 20
-5.812736
 30
0.0
 11
-113.84024091
 21
-5.78626606
 31
0.0
  0
LINE
  5
63C
100
AcDbEntity
  8
レイヤー_1
  6
CONTINUOUS
 62
       3
100
AcDbLine
 10
-113.84024091
 20
-5.78626606
 30
0.0
 11
-113.49448888
 21
-5.7258786
 31
0.0
  0
LINE
  5
63D
100
AcDbEntity
  8
レイヤー_1
  6
CONTINUOUS
 62
       3
100
AcDbLine
 10
-113.49448888
 20
-5.7258786
 30
0.0
 11
-113.16127412
 21
-5.63325247
 31
0.0
  0
LINE
  5
63E
100
AcDbEntity
  8
レイヤー_1
  6
CONTINUOUS
 62
       3
100
AcDbLine
 10
-113.16127412
 20
-5.63325247
 30
0.0
 11
-112.84227257
 21
-5.51006651
 31
0.0
  0
LINE
  5
63F
100
AcDbEntity
  8
レイヤー_1
  6
CONTINUOUS
 62
       3
100
AcDbLine
 10
-112.84227257
 20
-5.51006651
 30
0.0
 11
-112.53916016
 21
-5.35799957
 31
0.0
  0
LINE
  5
640
100
AcDbEntity
  8
レイヤー_1
  6
CONTINUOUS
 62
       3
100
AcDbLine
 10
-112.53916016
 20
-5.35799957
 30
0.0
 11
-112.25361281
 21
-5.17873052
 31
0.0
  0
LINE
  5
641
100
AcDbEntity
  8
レイヤー_1
  6
CONTINUOUS
 62
       3
100
AcDbLine
 10
-112.25361281
 20
-5.17873052
 30
0.0
 11
-111.98730645
 21
-4.97393819
 31
0.0
  0
LINE
  5
642
100
AcDbEntity
  8
レイヤー_1
  6
CONTINUOUS
 62
       3
100
AcDbLine
 10
-111.98730645
 20
-4.97393819
 30
0.0
 11
-111.741917
 21
-4.74530144
 31
0.0
  0
LINE
  5
643
100
AcDbEntity
  8
レイヤー_1
  6
CONTINUOUS
 62
       3
100
AcDbLine
 10
-111.741917
 20
-4.74530144
 30
0.0
 11
-111.51912038
 21
-4.49449911
 31
0.0
  0
LINE
  5
644
100
AcDbEntity
  8
レイヤー_1
  6
CONTINUOUS
 62
       3
100
AcDbLine
 10
-111.51912038
 20
-4.49449911
 30
0.0
 11
-111.32059254
 21
-4.22321006
 31
0.0
  0
LINE
  5
645
100
AcDbEntity
  8
レイヤー_1
  6
CONTINUOUS
 62
       3
100
AcDbLine
 10
-111.32059254
 20
-4.22321006
 30
0.0
 11
-111.14800938
 21
-3.93311314
 31
0.0
  0
LINE
  5
646
100
AcDbEntity
  8
レイヤー_1
  6
CONTINUOUS
 62
       3
100
AcDbLine
 10
-111.14800938
 20
-3.93311314
 30
0.0
 11
-111.00304685
 21
-3.62588719
 31
0.0
  0
LINE
  5
647
100
AcDbEntity
  8
レイヤー_1
  6
CONTINUOUS
 62
       3
100
AcDbLine
 10
-111.00304685
 20
-3.62588719
 30
0.0
 11
-110.88738086
 21
-3.30321107
 31
0.0
  0
LINE
  5
648
100
AcDbEntity
  8
レイヤー_1
  6
CONTINUOUS
 62
       3
100
AcDbLine
 10
-110.88738086
 20
-3.30321107
 30
0.0
 11
-110.80268733
 21
-2.96676363
 31
0.0
  0
LINE
  5
649
100
AcDbEntity
  8
レイヤー_1
  6
CONTINUOUS
 62
       3
100
AcDbLine
 10
-110.80268733
 20
-2.96676363
 30
0.0
 11
-110.75064221
 21
-2.61822372
 31
0.0
  0
LINE
  5
64A
100
AcDbEntity
  8
レイヤー_1
  6
CONTINUOUS
 62
       3
100
AcDbLine
 10
-110.75064221
 20
-2.61822372
 30
0.0
 11
-110.7329214
 21
-2.25927019
 31
0.0
  0
LINE
  5
64B
100
AcDbEntity
  8
レイヤー_1
  6
CONTINUOUS
 62
       3
100
AcDbLine
 10
-118.82632448
 20
-11.93671068
 30
0.0
 11
-118.83397925
 21
-11.78132539
 31
0.0
  0
LINE
  5
64C
100
AcDbEntity
  8
レイヤー_1
  6
CONTINUOUS
 62
       3
100
AcDbLine
 10
-118.83397925
 20
-11.78132539
 30
0.0
 11
-118.85642471
 21
-11.63136518
 31
0.0
  0
LINE
  5
64D
100
AcDbEntity
  8
レイヤー_1
  6
CONTINUOUS
 62
       3
100
AcDbLine
 10
-118.85642471
 20
-11.63136518
 30
0.0
 11
-118.8928826
 21
-11.48743238
 31
0.0
  0
LINE
  5
64E
100
AcDbEntity
  8
レイヤー_1
  6
CONTINUOUS
 62
       3
100
AcDbLine
 10
-118.8928826
 20
-11.48743238
 30
0.0
 11
-118.94257466
 21
-11.35012934
 31
0.0
  0
LINE
  5
64F
100
AcDbEntity
  8
レイヤー_1
  6
CONTINUOUS
 62
       3
100
AcDbLine
 10
-118.94257466
 20
-11.35012934
 30
0.0
 11
-119.00472261
 21
-11.22005838
 31
0.0
  0
LINE
  5
650
100
AcDbEntity
  8
レイヤー_1
  6
CONTINUOUS
 62
       3
100
AcDbLine
 10
-119.00472261
 20
-11.22005838
 30
0.0
 11
-119.0785482
 21
-11.09782186
 31
0.0
  0
LINE
  5
651
100
AcDbEntity
  8
レイヤー_1
  6
CONTINUOUS
 62
       3
100
AcDbLine
 10
-119.0785482
 20
-11.09782186
 30
0.0
 11
-119.16327315
 21
-10.9840221
 31
0.0
  0
LINE
  5
652
100
AcDbEntity
  8
レイヤー_1
  6
CONTINUOUS
 62
       3
100
AcDbLine
 10
-119.16327315
 20
-10.9840221
 30
0.0
 11
-119.25811921
 21
-10.87926146
 31
0.0
  0
LINE
  5
653
100
AcDbEntity
  8
レイヤー_1
  6
CONTINUOUS
 62
       3
100
AcDbLine
 10
-119.25811921
 20
-10.87926146
 30
0.0
 11
-119.36230811
 21
-10.78414226
 31
0.0
  0
LINE
  5
654
100
AcDbEntity
  8
レイヤー_1
  6
CONTINUOUS
 62
       3
100
AcDbLine
 10
-119.36230811
 20
-10.78414226
 30
0.0
 11
-119.47506157
 21
-10.69926686
 31
0.0
  0
LINE
  5
655
100
AcDbEntity
  8
レイヤー_1
  6
CONTINUOUS
 62
       3
100
AcDbLine
 10
-119.47506157
 20
-10.69926686
 30
0.0
 11
-119.59560135
 21
-10.62523758
 31
0.0
  0
LINE
  5
656
100
AcDbEntity
  8
レイヤー_1
  6
CONTINUOUS
 62
       3
100
AcDbLine
 10
-119.59560135
 20
-10.62523758
 30
0.0
 11
-119.72314916
 21
-10.56265676
 31
0.0
  0
LINE
  5
657
100
AcDbEntity
  8
レイヤー_1
  6
CONTINUOUS
 62
       3
100
AcDbLine
 10
-119.72314916
 20
-10.56265676
 30
0.0
 11
-119.85692676
 21
-10.51212675
 31
0.0
  0
LINE
  5
658
100
AcDbEntity
  8
レイヤー_1
  6
CONTINUOUS
 62
       3
100
AcDbLine
 10
-119.85692676
 20
-10.51212675
 30
0.0
 11
-119.99615586
 21
-10.47424989
 31
0.0
  0
LINE
  5
659
100
AcDbEntity
  8
レイヤー_1
  6
CONTINUOUS
 62
       3
100
AcDbLine
 10
-119.99615586
 20
-10.47424989
 30
0.0
 11
-120.14005821
 21
-10.44962851
 31
0.0
  0
LINE
  5
65A
100
AcDbEntity
  8
レイヤー_1
  6
CONTINUOUS
 62
       3
100
AcDbLine
 10
-120.14005821
 20
-10.44962851
 30
0.0
 11
-120.28785555
 21
-10.43886496
 31
0.0
  0
LINE
  5
65B
100
AcDbEntity
  8
レイヤー_1
  6
CONTINUOUS
 62
       3
100
AcDbLine
 10
-120.28785555
 20
-10.43886496
 30
0.0
 11
-120.44248234
 21
-10.44247686
 31
0.0
  0
LINE
  5
65C
100
AcDbEntity
  8
レイヤー_1
  6
CONTINUOUS
 62
       3
100
AcDbLine
 10
-120.44248234
 20
-10.44247686
 30
0.0
 11
-120.59401072
 21
-10.46024462
 31
0.0
  0
LINE
  5
65D
100
AcDbEntity
  8
レイヤー_1
  6
CONTINUOUS
 62
       3
100
AcDbLine
 10
-120.59401072
 20
-10.46024462
 30
0.0
 11
-120.73963487
 21
-10.49156903
 31
0.0
  0
LINE
  5
65E
100
AcDbEntity
  8
レイヤー_1
  6
CONTINUOUS
 62
       3
100
AcDbLine
 10
-120.73963487
 20
-10.49156903
 30
0.0
 11
-120.87875487
 21
-10.53584776
 31
0.0
  0
LINE
  5
65F
100
AcDbEntity
  8
レイヤー_1
  6
CONTINUOUS
 62
       3
100
AcDbLine
 10
-120.87875487
 20
-10.53584776
 30
0.0
 11
-121.01077083
 21
-10.59247846
 31
0.0
  0
LINE
  5
660
100
AcDbEntity
  8
レイヤー_1
  6
CONTINUOUS
 62
       3
100
AcDbLine
 10
-121.01077083
 20
-10.59247846
 30
0.0
 11
-121.13508284
 21
-10.6608588
 31
0.0
  0
LINE
  5
661
100
AcDbEntity
  8
レイヤー_1
  6
CONTINUOUS
 62
       3
100
AcDbLine
 10
-121.13508284
 20
-10.6608588
 30
0.0
 11
-121.251091
 21
-10.74038644
 31
0.0
  0
LINE
  5
662
100
AcDbEntity
  8
レイヤー_1
  6
CONTINUOUS
 62
       3
100
AcDbLine
 10
-121.251091
 20
-10.74038644
 30
0.0
 11
-121.35819541
 21
-10.83045903
 31
0.0
  0
LINE
  5
663
100
AcDbEntity
  8
レイヤー_1
  6
CONTINUOUS
 62
       3
100
AcDbLine
 10
-121.35819541
 20
-10.83045903
 30
0.0
 11
-121.45579615
 21
-10.93047425
 31
0.0
  0
LINE
  5
664
100
AcDbEntity
  8
レイヤー_1
  6
CONTINUOUS
 62
       3
100
AcDbLine
 10
-121.45579615
 20
-10.93047425
 30
0.0
 11
-121.54329334
 21
-11.03982974
 31
0.0
  0
LINE
  5
665
100
AcDbEntity
  8
レイヤー_1
  6
CONTINUOUS
 62
       3
100
AcDbLine
 10
-121.54329334
 20
-11.03982974
 30
0.0
 11
-121.62008707
 21
-11.15792317
 31
0.0
  0
LINE
  5
666
100
AcDbEntity
  8
レイヤー_1
  6
CONTINUOUS
 62
       3
100
AcDbLine
 10
-121.62008707
 20
-11.15792317
 30
0.0
 11
-121.68557744
 21
-11.2841522
 31
0.0
  0
LINE
  5
667
100
AcDbEntity
  8
レイヤー_1
  6
CONTINUOUS
 62
       3
100
AcDbLine
 10
-121.68557744
 20
-11.2841522
 30
0.0
 11
-121.73916453
 21
-11.4179145
 31
0.0
  0
LINE
  5
668
100
AcDbEntity
  8
レイヤー_1
  6
CONTINUOUS
 62
       3
100
AcDbLine
 10
-121.73916453
 20
-11.4179145
 30
0.0
 11
-121.78024846
 21
-11.55860771
 31
0.0
  0
LINE
  5
669
100
AcDbEntity
  8
レイヤー_1
  6
CONTINUOUS
 62
       3
100
AcDbLine
 10
-121.78024846
 20
-11.55860771
 30
0.0
 11
-121.80822932
 21
-11.70562951
 31
0.0
  0
LINE
  5
66A
100
AcDbEntity
  8
レイヤー_1
  6
CONTINUOUS
 62
       3
100
AcDbLine
 10
-121.80822932
 20
-11.70562951
 30
0.0
 11
-121.8225072
 21
-11.85837755
 31
0.0
  0
LINE
  5
66B
100
AcDbEntity
  8
レイヤー_1
  6
CONTINUOUS
 62
       3
100
AcDbLine
 10
-121.8225072
 20
-11.85837755
 30
0.0
 11
-121.8225072
 21
-12.01150977
 31
0.0
  0
LINE
  5
66C
100
AcDbEntity
  8
レイヤー_1
  6
CONTINUOUS
 62
       3
100
AcDbLine
 10
-121.8225072
 20
-12.01150977
 30
0.0
 11
-121.80822932
 21
-12.15850491
 31
0.0
  0
LINE
  5
66D
100
AcDbEntity
  8
レイヤー_1
  6
CONTINUOUS
 62
       3
100
AcDbLine
 10
-121.80822932
 20
-12.15850491
 30
0.0
 11
-121.78024846
 21
-12.30138322
 31
0.0
  0
LINE
  5
66E
100
AcDbEntity
  8
レイヤー_1
  6
CONTINUOUS
 62
       3
100
AcDbLine
 10
-121.78024846
 20
-12.30138322
 30
0.0
 11
-121.73916453
 21
-12.43936934
 31
0.0
  0
LINE
  5
66F
100
AcDbEntity
  8
レイヤー_1
  6
CONTINUOUS
 62
       3
100
AcDbLine
 10
-121.73916453
 20
-12.43936934
 30
0.0
 11
-121.68557744
 21
-12.57168795
 31
0.0
  0
LINE
  5
670
100
AcDbEntity
  8
レイヤー_1
  6
CONTINUOUS
 62
       3
100
AcDbLine
 10
-121.68557744
 20
-12.57168795
 30
0.0
 11
-121.62008707
 21
-12.69756369
 31
0.0
  0
LINE
  5
671
100
AcDbEntity
  8
レイヤー_1
  6
CONTINUOUS
 62
       3
100
AcDbLine
 10
-121.62008707
 20
-12.69756369
 30
0.0
 11
-121.54329334
 21
-12.81622123
 31
0.0
  0
LINE
  5
672
100
AcDbEntity
  8
レイヤー_1
  6
CONTINUOUS
 62
       3
100
AcDbLine
 10
-121.54329334
 20
-12.81622123
 30
0.0
 11
-121.45579615
 21
-12.92688523
 31
0.0
  0
LINE
  5
673
100
AcDbEntity
  8
レイヤー_1
  6
CONTINUOUS
 62
       3
100
AcDbLine
 10
-121.45579615
 20
-12.92688523
 30
0.0
 11
-121.35819541
 21
-13.02878034
 31
0.0
  0
LINE
  5
674
100
AcDbEntity
  8
レイヤー_1
  6
CONTINUOUS
 62
       3
100
AcDbLine
 10
-121.35819541
 20
-13.02878034
 30
0.0
 11
-121.251091
 21
-13.12113122
 31
0.0
  0
LINE
  5
675
100
AcDbEntity
  8
レイヤー_1
  6
CONTINUOUS
 62
       3
100
AcDbLine
 10
-121.251091
 20
-13.12113122
 30
0.0
 11
-121.13508284
 21
-13.20316254
 31
0.0
  0
LINE
  5
676
100
AcDbEntity
  8
レイヤー_1
  6
CONTINUOUS
 62
       3
100
AcDbLine
 10
-121.13508284
 20
-13.20316254
 30
0.0
 11
-121.01077083
 21
-13.27409895
 31
0.0
  0
LINE
  5
677
100
AcDbEntity
  8
レイヤー_1
  6
CONTINUOUS
 62
       3
100
AcDbLine
 10
-121.01077083
 20
-13.27409895
 30
0.0
 11
-120.87875487
 21
-13.33316511
 31
0.0
  0
LINE
  5
678
100
AcDbEntity
  8
レイヤー_1
  6
CONTINUOUS
 62
       3
100
AcDbLine
 10
-120.87875487
 20
-13.33316511
 30
0.0
 11
-120.73963487
 21
-13.37958568
 31
0.0
  0
LINE
  5
679
100
AcDbEntity
  8
レイヤー_1
  6
CONTINUOUS
 62
       3
100
AcDbLine
 10
-120.73963487
 20
-13.37958568
 30
0.0
 11
-120.59401072
 21
-13.41258531
 31
0.0
  0
LINE
  5
67A
100
AcDbEntity
  8
レイヤー_1
  6
CONTINUOUS
 62
       3
100
AcDbLine
 10
-120.59401072
 20
-13.41258531
 30
0.0
 11
-120.44248234
 21
-13.43138867
 31
0.0
  0
LINE
  5
67B
100
AcDbEntity
  8
レイヤー_1
  6
CONTINUOUS
 62
       3
100
AcDbLine
 10
-120.44248234
 20
-13.43138867
 30
0.0
 11
-120.28785555
 21
-13.43522445
 31
0.0
  0
LINE
  5
67C
100
AcDbEntity
  8
レイヤー_1
  6
CONTINUOUS
 62
       3
100
AcDbLine
 10
-120.28785555
 20
-13.43522445
 30
0.0
 11
-120.14005821
 21
-13.42380998
 31
0.0
  0
LINE
  5
67D
100
AcDbEntity
  8
レイヤー_1
  6
CONTINUOUS
 62
       3
100
AcDbLine
 10
-120.14005821
 20
-13.42380998
 30
0.0
 11
-119.99615586
 21
-13.39781157
 31
0.0
  0
LINE
  5
67E
100
AcDbEntity
  8
レイヤー_1
  6
CONTINUOUS
 62
       3
100
AcDbLine
 10
-119.99615586
 20
-13.39781157
 30
0.0
 11
-119.85692676
 21
-13.35800455
 31
0.0
  0
LINE
  5
67F
100
AcDbEntity
  8
レイヤー_1
  6
CONTINUOUS
 62
       3
100
AcDbLine
 10
-119.85692676
 20
-13.35800455
 30
0.0
 11
-119.72314916
 21
-13.30516427
 31
0.0
  0
LINE
  5
680
100
AcDbEntity
  8
レイヤー_1
  6
CONTINUOUS
 62
       3
100
AcDbLine
 10
-119.72314916
 20
-13.30516427
 30
0.0
 11
-119.59560135
 21
-13.24006607
 31
0.0
  0
LINE
  5
681
100
AcDbEntity
  8
レイヤー_1
  6
CONTINUOUS
 62
       3
100
AcDbLine
 10
-119.59560135
 20
-13.24006607
 30
0.0
 11
-119.47506157
 21
-13.16348529
 31
0.0
  0
LINE
  5
682
100
AcDbEntity
  8
レイヤー_1
  6
CONTINUOUS
 62
       3
100
AcDbLine
 10
-119.47506157
 20
-13.16348529
 30
0.0
 11
-119.36230811
 21
-13.07619727
 31
0.0
  0
LINE
  5
683
100
AcDbEntity
  8
レイヤー_1
  6
CONTINUOUS
 62
       3
100
AcDbLine
 10
-119.36230811
 20
-13.07619727
 30
0.0
 11
-119.25811921
 21
-12.97897735
 31
0.0
  0
LINE
  5
684
100
AcDbEntity
  8
レイヤー_1
  6
CONTINUOUS
 62
       3
100
AcDbLine
 10
-119.25811921
 20
-12.97897735
 30
0.0
 11
-119.16327315
 21
-12.87260088
 31
0.0
  0
LINE
  5
685
100
AcDbEntity
  8
レイヤー_1
  6
CONTINUOUS
 62
       3
100
AcDbLine
 10
-119.16327315
 20
-12.87260088
 30
0.0
 11
-119.0785482
 21
-12.7578432
 31
0.0
  0
LINE
  5
686
100
AcDbEntity
  8
レイヤー_1
  6
CONTINUOUS
 62
       3
100
AcDbLine
 10
-119.0785482
 20
-12.7578432
 30
0.0
 11
-119.00472261
 21
-12.63547964
 31
0.0
  0
LINE
  5
687
100
AcDbEntity
  8
レイヤー_1
  6
CONTINUOUS
 62
       3
100
AcDbLine
 10
-119.00472261
 20
-12.63547964
 30
0.0
 11
-118.94257466
 21
-12.50628554
 31
0.0
  0
LINE
  5
688
100
AcDbEntity
  8
レイヤー_1
  6
CONTINUOUS
 62
       3
100
AcDbLine
 10
-118.94257466
 20
-12.50628554
 30
0.0
 11
-118.8928826
 21
-12.37103626
 31
0.0
  0
LINE
  5
689
100
AcDbEntity
  8
レイヤー_1
  6
CONTINUOUS
 62
       3
100
AcDbLine
 10
-118.8928826
 20
-12.37103626
 30
0.0
 11
-118.85642471
 21
-12.23050713
 31
0.0
  0
LINE
  5
68A
100
AcDbEntity
  8
レイヤー_1
  6
CONTINUOUS
 62
       3
100
AcDbLine
 10
-118.85642471
 20
-12.23050713
 30
0.0
 11
-118.83397925
 21
-12.08547349
 31
0.0
  0
LINE
  5
68B
100
AcDbEntity
  8
レイヤー_1
  6
CONTINUOUS
 62
       3
100
AcDbLine
 10
-118.83397925
 20
-12.08547349
 30
0.0
 11
-118.82632448
 21
-11.93671068
 31
0.0
  0
LINE
  5
68C
100
AcDbEntity
  8
レイヤー_1
  6
CONTINUOUS
 62
       3
100
AcDbLine
 10
-106.70713125
 20
-11.93671068
 30
0.0
 11
-106.71478602
 21
-11.78132539
 31
0.0
  0
LINE
  5
68D
100
AcDbEntity
  8
レイヤー_1
  6
CONTINUOUS
 62
       3
100
AcDbLine
 10
-106.71478602
 20
-11.78132539
 30
0.0
 11
-106.73723148
 21
-11.63136518
 31
0.0
  0
LINE
  5
68E
100
AcDbEntity
  8
レイヤー_1
  6
CONTINUOUS
 62
       3
100
AcDbLine
 10
-106.73723148
 20
-11.63136518
 30
0.0
 11
-106.77368938
 21
-11.48743238
 31
0.0
  0
LINE
  5
68F
100
AcDbEntity
  8
レイヤー_1
  6
CONTINUOUS
 62
       3
100
AcDbLine
 10
-106.77368938
 20
-11.48743238
 30
0.0
 11
-106.82338143
 21
-11.35012934
 31
0.0
  0
LINE
  5
690
100
AcDbEntity
  8
レイヤー_1
  6
CONTINUOUS
 62
       3
100
AcDbLine
 10
-106.82338143
 20
-11.35012934
 30
0.0
 11
-106.88552938
 21
-11.22005838
 31
0.0
  0
LINE
  5
691
100
AcDbEntity
  8
レイヤー_1
  6
CONTINUOUS
 62
       3
100
AcDbLine
 10
-106.88552938
 20
-11.22005838
 30
0.0
 11
-106.95935497
 21
-11.09782186
 31
0.0
  0
LINE
  5
692
100
AcDbEntity
  8
レイヤー_1
  6
CONTINUOUS
 62
       3
100
AcDbLine
 10
-106.95935497
 20
-11.09782186
 30
0.0
 11
-107.04407993
 21
-10.9840221
 31
0.0
  0
LINE
  5
693
100
AcDbEntity
  8
レイヤー_1
  6
CONTINUOUS
 62
       3
100
AcDbLine
 10
-107.04407993
 20
-10.9840221
 30
0.0
 11
-107.13892598
 21
-10.87926146
 31
0.0
  0
LINE
  5
694
100
AcDbEntity
  8
レイヤー_1
  6
CONTINUOUS
 62
       3
100
AcDbLine
 10
-107.13892598
 20
-10.87926146
 30
0.0
 11
-107.24311488
 21
-10.78414226
 31
0.0
  0
LINE
  5
695
100
AcDbEntity
  8
レイヤー_1
  6
CONTINUOUS
 62
       3
100
AcDbLine
 10
-107.24311488
 20
-10.78414226
 30
0.0
 11
-107.35586835
 21
-10.69926686
 31
0.0
  0
LINE
  5
696
100
AcDbEntity
  8
レイヤー_1
  6
CONTINUOUS
 62
       3
100
AcDbLine
 10
-107.35586835
 20
-10.69926686
 30
0.0
 11
-107.47640812
 21
-10.62523758
 31
0.0
  0
LINE
  5
697
100
AcDbEntity
  8
レイヤー_1
  6
CONTINUOUS
 62
       3
100
AcDbLine
 10
-107.47640812
 20
-10.62523758
 30
0.0
 11
-107.60395594
 21
-10.56265676
 31
0.0
  0
LINE
  5
698
100
AcDbEntity
  8
レイヤー_1
  6
CONTINUOUS
 62
       3
100
AcDbLine
 10
-107.60395594
 20
-10.56265676
 30
0.0
 11
-107.73773353
 21
-10.51212675
 31
0.0
  0
LINE
  5
699
100
AcDbEntity
  8
レイヤー_1
  6
CONTINUOUS
 62
       3
100
AcDbLine
 10
-107.73773353
 20
-10.51212675
 30
0.0
 11
-107.87696264
 21
-10.47424989
 31
0.0
  0
LINE
  5
69A
100
AcDbEntity
  8
レイヤー_1
  6
CONTINUOUS
 62
       3
100
AcDbLine
 10
-107.87696264
 20
-10.47424989
 30
0.0
 11
-108.02086499
 21
-10.44962851
 31
0.0
  0
LINE
  5
69B
100
AcDbEntity
  8
レイヤー_1
  6
CONTINUOUS
 62
       3
100
AcDbLine
 10
-108.02086499
 20
-10.44962851
 30
0.0
 11
-108.16866232
 21
-10.43886496
 31
0.0
  0
LINE
  5
69C
100
AcDbEntity
  8
レイヤー_1
  6
CONTINUOUS
 62
       3
100
AcDbLine
 10
-108.16866232
 20
-10.43886496
 30
0.0
 11
-108.32328911
 21
-10.44247686
 31
0.0
  0
LINE
  5
69D
100
AcDbEntity
  8
レイヤー_1
  6
CONTINUOUS
 62
       3
100
AcDbLine
 10
-108.32328911
 20
-10.44247686
 30
0.0
 11
-108.4748175
 21
-10.46024462
 31
0.0
  0
LINE
  5
69E
100
AcDbEntity
  8
レイヤー_1
  6
CONTINUOUS
 62
       3
100
AcDbLine
 10
-108.4748175
 20
-10.46024462
 30
0.0
 11
-108.62044164
 21
-10.49156903
 31
0.0
  0
LINE
  5
69F
100
AcDbEntity
  8
レイヤー_1
  6
CONTINUOUS
 62
       3
100
AcDbLine
 10
-108.62044164
 20
-10.49156903
 30
0.0
 11
-108.75956165
 21
-10.53584776
 31
0.0
  0
LINE
  5
6A0
100
AcDbEntity
  8
レイヤー_1
  6
CONTINUOUS
 62
       3
100
AcDbLine
 10
-108.75956165
 20
-10.53584776
 30
0.0
 11
-108.89157761
 21
-10.59247846
 31
0.0
  0
LINE
  5
6A1
100
AcDbEntity
  8
レイヤー_1
  6
CONTINUOUS
 62
       3
100
AcDbLine
 10
-108.89157761
 20
-10.59247846
 30
0.0
 11
-109.01588962
 21
-10.6608588
 31
0.0
  0
LINE
  5
6A2
100
AcDbEntity
  8
レイヤー_1
  6
CONTINUOUS
 62
       3
100
AcDbLine
 10
-109.01588962
 20
-10.6608588
 30
0.0
 11
-109.13189777
 21
-10.74038644
 31
0.0
  0
LINE
  5
6A3
100
AcDbEntity
  8
レイヤー_1
  6
CONTINUOUS
 62
       3
100
AcDbLine
 10
-109.13189777
 20
-10.74038644
 30
0.0
 11
-109.23900218
 21
-10.83045903
 31
0.0
  0
LINE
  5
6A4
100
AcDbEntity
  8
レイヤー_1
  6
CONTINUOUS
 62
       3
100
AcDbLine
 10
-109.23900218
 20
-10.83045903
 30
0.0
 11
-109.33660293
 21
-10.93047425
 31
0.0
  0
LINE
  5
6A5
100
AcDbEntity
  8
レイヤー_1
  6
CONTINUOUS
 62
       3
100
AcDbLine
 10
-109.33660293
 20
-10.93047425
 30
0.0
 11
-109.42410012
 21
-11.03982974
 31
0.0
  0
LINE
  5
6A6
100
AcDbEntity
  8
レイヤー_1
  6
CONTINUOUS
 62
       3
100
AcDbLine
 10
-109.42410012
 20
-11.03982974
 30
0.0
 11
-109.50089385
 21
-11.15792317
 31
0.0
  0
LINE
  5
6A7
100
AcDbEntity
  8
レイヤー_1
  6
CONTINUOUS
 62
       3
100
AcDbLine
 10
-109.50089385
 20
-11.15792317
 30
0.0
 11
-109.56638421
 21
-11.2841522
 31
0.0
  0
LINE
  5
6A8
100
AcDbEntity
  8
レイヤー_1
  6
CONTINUOUS
 62
       3
100
AcDbLine
 10
-109.56638421
 20
-11.2841522
 30
0.0
 11
-109.61997131
 21
-11.4179145
 31
0.0
  0
LINE
  5
6A9
100
AcDbEntity
  8
レイヤー_1
  6
CONTINUOUS
 62
       3
100
AcDbLine
 10
-109.61997131
 20
-11.4179145
 30
0.0
 11
-109.66105523
 21
-11.55860771
 31
0.0
  0
LINE
  5
6AA
100
AcDbEntity
  8
レイヤー_1
  6
CONTINUOUS
 62
       3
100
AcDbLine
 10
-109.66105523
 20
-11.55860771
 30
0.0
 11
-109.68903609
 21
-11.70562951
 31
0.0
  0
LINE
  5
6AB
100
AcDbEntity
  8
レイヤー_1
  6
CONTINUOUS
 62
       3
100
AcDbLine
 10
-109.68903609
 20
-11.70562951
 30
0.0
 11
-109.70331397
 21
-11.85837755
 31
0.0
  0
LINE
  5
6AC
100
AcDbEntity
  8
レイヤー_1
  6
CONTINUOUS
 62
       3
100
AcDbLine
 10
-109.70331397
 20
-11.85837755
 30
0.0
 11
-109.70331397
 21
-12.01150977
 31
0.0
  0
LINE
  5
6AD
100
AcDbEntity
  8
レイヤー_1
  6
CONTINUOUS
 62
       3
100
AcDbLine
 10
-109.70331397
 20
-12.01150977
 30
0.0
 11
-109.68903609
 21
-12.15850491
 31
0.0
  0
LINE
  5
6AE
100
AcDbEntity
  8
レイヤー_1
  6
CONTINUOUS
 62
       3
100
AcDbLine
 10
-109.68903609
 20
-12.15850491
 30
0.0
 11
-109.66105523
 21
-12.30138322
 31
0.0
  0
LINE
  5
6AF
100
AcDbEntity
  8
レイヤー_1
  6
CONTINUOUS
 62
       3
100
AcDbLine
 10
-109.66105523
 20
-12.30138322
 30
0.0
 11
-109.61997131
 21
-12.43936934
 31
0.0
  0
LINE
  5
6B0
100
AcDbEntity
  8
レイヤー_1
  6
CONTINUOUS
 62
       3
100
AcDbLine
 10
-109.61997131
 20
-12.43936934
 30
0.0
 11
-109.56638421
 21
-12.57168795
 31
0.0
  0
LINE
  5
6B1
100
AcDbEntity
  8
レイヤー_1
  6
CONTINUOUS
 62
       3
100
AcDbLine
 10
-109.56638421
 20
-12.57168795
 30
0.0
 11
-109.50089385
 21
-12.69756369
 31
0.0
  0
LINE
  5
6B2
100
AcDbEntity
  8
レイヤー_1
  6
CONTINUOUS
 62
       3
100
AcDbLine
 10
-109.50089385
 20
-12.69756369
 30
0.0
 11
-109.42410012
 21
-12.81622123
 31
0.0
  0
LINE
  5
6B3
100
AcDbEntity
  8
レイヤー_1
  6
CONTINUOUS
 62
       3
100
AcDbLine
 10
-109.42410012
 20
-12.81622123
 30
0.0
 11
-109.33660293
 21
-12.92688523
 31
0.0
  0
LINE
  5
6B4
100
AcDbEntity
  8
レイヤー_1
  6
CONTINUOUS
 62
       3
100
AcDbLine
 10
-109.33660293
 20
-12.92688523
 30
0.0
 11
-109.23900218
 21
-13.02878034
 31
0.0
  0
LINE
  5
6B5
100
AcDbEntity
  8
レイヤー_1
  6
CONTINUOUS
 62
       3
100
AcDbLine
 10
-109.23900218
 20
-13.02878034
 30
0.0
 11
-109.13189777
 21
-13.12113122
 31
0.0
  0
LINE
  5
6B6
100
AcDbEntity
  8
レイヤー_1
  6
CONTINUOUS
 62
       3
100
AcDbLine
 10
-109.13189777
 20
-13.12113122
 30
0.0
 11
-109.01588962
 21
-13.20316254
 31
0.0
  0
LINE
  5
6B7
100
AcDbEntity
  8
レイヤー_1
  6
CONTINUOUS
 62
       3
100
AcDbLine
 10
-109.01588962
 20
-13.20316254
 30
0.0
 11
-108.89157761
 21
-13.27409895
 31
0.0
  0
LINE
  5
6B8
100
AcDbEntity
  8
レイヤー_1
  6
CONTINUOUS
 62
       3
100
AcDbLine
 10
-108.89157761
 20
-13.27409895
 30
0.0
 11
-108.75956165
 21
-13.33316511
 31
0.0
  0
LINE
  5
6B9
100
AcDbEntity
  8
レイヤー_1
  6
CONTINUOUS
 62
       3
100
AcDbLine
 10
-108.75956165
 20
-13.33316511
 30
0.0
 11
-108.62044164
 21
-13.37958568
 31
0.0
  0
LINE
  5
6BA
100
AcDbEntity
  8
レイヤー_1
  6
CONTINUOUS
 62
       3
100
AcDbLine
 10
-108.62044164
 20
-13.37958568
 30
0.0
 11
-108.4748175
 21
-13.41258531
 31
0.0
  0
LINE
  5
6BB
100
AcDbEntity
  8
レイヤー_1
  6
CONTINUOUS
 62
       3
100
AcDbLine
 10
-108.4748175
 20
-13.41258531
 30
0.0
 11
-108.32328911
 21
-13.43138867
 31
0.0
  0
LINE
  5
6BC
100
AcDbEntity
  8
レイヤー_1
  6
CONTINUOUS
 62
       3
100
AcDbLine
 10
-108.32328911
 20
-13.43138867
 30
0.0
 11
-108.16866232
 21
-13.43522445
 31
0.0
  0
LINE
  5
6BD
100
AcDbEntity
  8
レイヤー_1
  6
CONTINUOUS
 62
       3
100
AcDbLine
 10
-108.16866232
 20
-13.43522445
 30
0.0
 11
-108.02086499
 21
-13.42380998
 31
0.0
  0
LINE
  5
6BE
100
AcDbEntity
  8
レイヤー_1
  6
CONTINUOUS
 62
       3
100
AcDbLine
 10
-108.02086499
 20
-13.42380998
 30
0.0
 11
-107.87696264
 21
-13.39781157
 31
0.0
  0
LINE
  5
6BF
100
AcDbEntity
  8
レイヤー_1
  6
CONTINUOUS
 62
       3
100
AcDbLine
 10
-107.87696264
 20
-13.39781157
 30
0.0
 11
-107.73773353
 21
-13.35800455
 31
0.0
  0
LINE
  5
6C0
100
AcDbEntity
  8
レイヤー_1
  6
CONTINUOUS
 62
       3
100
AcDbLine
 10
-107.73773353
 20
-13.35800455
 30
0.0
 11
-107.60395594
 21
-13.30516427
 31
0.0
  0
LINE
  5
6C1
100
AcDbEntity
  8
レイヤー_1
  6
CONTINUOUS
 62
       3
100
AcDbLine
 10
-107.60395594
 20
-13.30516427
 30
0.0
 11
-107.47640812
 21
-13.24006607
 31
0.0
  0
LINE
  5
6C2
100
AcDbEntity
  8
レイヤー_1
  6
CONTINUOUS
 62
       3
100
AcDbLine
 10
-107.47640812
 20
-13.24006607
 30
0.0
 11
-107.35586835
 21
-13.16348529
 31
0.0
  0
LINE
  5
6C3
100
AcDbEntity
  8
レイヤー_1
  6
CONTINUOUS
 62
       3
100
AcDbLine
 10
-107.35586835
 20
-13.16348529
 30
0.0
 11
-107.24311488
 21
-13.07619727
 31
0.0
  0
LINE
  5
6C4
100
AcDbEntity
  8
レイヤー_1
  6
CONTINUOUS
 62
       3
100
AcDbLine
 10
-107.24311488
 20
-13.07619727
 30
0.0
 11
-107.13892598
 21
-12.97897735
 31
0.0
  0
LINE
  5
6C5
100
AcDbEntity
  8
レイヤー_1
  6
CONTINUOUS
 62
       3
100
AcDbLine
 10
-107.13892598
 20
-12.97897735
 30
0.0
 11
-107.04407993
 21
-12.87260088
 31
0.0
  0
LINE
  5
6C6
100
AcDbEntity
  8
レイヤー_1
  6
CONTINUOUS
 62
       3
100
AcDbLine
 10
-107.04407993
 20
-12.87260088
 30
0.0
 11
-106.95935497
 21
-12.7578432
 31
0.0
  0
LINE
  5
6C7
100
AcDbEntity
  8
レイヤー_1
  6
CONTINUOUS
 62
       3
100
AcDbLine
 10
-106.95935497
 20
-12.7578432
 30
0.0
 11
-106.88552938
 21
-12.63547964
 31
0.0
  0
LINE
  5
6C8
100
AcDbEntity
  8
レイヤー_1
  6
CONTINUOUS
 62
       3
100
AcDbLine
 10
-106.88552938
 20
-12.63547964
 30
0.0
 11
-106.82338143
 21
-12.50628554
 31
0.0
  0
LINE
  5
6C9
100
AcDbEntity
  8
レイヤー_1
  6
CONTINUOUS
 62
       3
100
AcDbLine
 10
-106.82338143
 20
-12.50628554
 30
0.0
 11
-106.77368938
 21
-12.37103626
 31
0.0
  0
LINE
  5
6CA
100
AcDbEntity
  8
レイヤー_1
  6
CONTINUOUS
 62
       3
100
AcDbLine
 10
-106.77368938
 20
-12.37103626
 30
0.0
 11
-106.73723148
 21
-12.23050713
 31
0.0
  0
LINE
  5
6CB
100
AcDbEntity
  8
レイヤー_1
  6
CONTINUOUS
 62
       3
100
AcDbLine
 10
-106.73723148
 20
-12.23050713
 30
0.0
 11
-106.71478602
 21
-12.08547349
 31
0.0
  0
LINE
  5
6CC
100
AcDbEntity
  8
レイヤー_1
  6
CONTINUOUS
 62
       3
100
AcDbLine
 10
-106.71478602
 20
-12.08547349
 30
0.0
 11
-106.70713125
 21
-11.93671068
 31
0.0
  0
LINE
  5
6CD
100
AcDbEntity
  8
レイヤー_1
  6
CONTINUOUS
 62
       3
100
AcDbLine
 10
-118.82632448
 20
-20.0308108
 30
0.0
 11
-118.83397925
 21
-19.87524792
 31
0.0
  0
LINE
  5
6CE
100
AcDbEntity
  8
レイヤー_1
  6
CONTINUOUS
 62
       3
100
AcDbLine
 10
-118.83397925
 20
-19.87524792
 30
0.0
 11
-118.85642471
 21
-19.72513935
 31
0.0
  0
LINE
  5
6CF
100
AcDbEntity
  8
レイヤー_1
  6
CONTINUOUS
 62
       3
100
AcDbLine
 10
-118.85642471
 20
-19.72513935
 30
0.0
 11
-118.8928826
 21
-19.581085
 31
0.0
  0
LINE
  5
6D0
100
AcDbEntity
  8
レイヤー_1
  6
CONTINUOUS
 62
       3
100
AcDbLine
 10
-118.8928826
 20
-19.581085
 30
0.0
 11
-118.94257466
 21
-19.44368477
 31
0.0
  0
LINE
  5
6D1
100
AcDbEntity
  8
レイヤー_1
  6
CONTINUOUS
 62
       3
100
AcDbLine
 10
-118.94257466
 20
-19.44368477
 30
0.0
 11
-119.00472261
 21
-19.31353855
 31
0.0
  0
LINE
  5
6D2
100
AcDbEntity
  8
レイヤー_1
  6
CONTINUOUS
 62
       3
100
AcDbLine
 10
-119.00472261
 20
-19.31353855
 30
0.0
 11
-119.0785482
 21
-19.19124627
 31
0.0
  0
LINE
  5
6D3
100
AcDbEntity
  8
レイヤー_1
  6
CONTINUOUS
 62
       3
100
AcDbLine
 10
-119.0785482
 20
-19.19124627
 30
0.0
 11
-119.16327315
 21
-19.07740781
 31
0.0
  0
LINE
  5
6D4
100
AcDbEntity
  8
レイヤー_1
  6
CONTINUOUS
 62
       3
100
AcDbLine
 10
-119.16327315
 20
-19.07740781
 30
0.0
 11
-119.25811921
 21
-18.97262307
 31
0.0
  0
LINE
  5
6D5
100
AcDbEntity
  8
レイヤー_1
  6
CONTINUOUS
 62
       3
100
AcDbLine
 10
-119.25811921
 20
-18.97262307
 30
0.0
 11
-119.36230811
 21
-18.87749197
 31
0.0
  0
LINE
  5
6D6
100
AcDbEntity
  8
レイヤー_1
  6
CONTINUOUS
 62
       3
100
AcDbLine
 10
-119.36230811
 20
-18.87749197
 30
0.0
 11
-119.47506157
 21
-18.79261441
 31
0.0
  0
LINE
  5
6D7
100
AcDbEntity
  8
レイヤー_1
  6
CONTINUOUS
 62
       3
100
AcDbLine
 10
-119.47506157
 20
-18.79261441
 30
0.0
 11
-119.59560135
 21
-18.71859028
 31
0.0
  0
LINE
  5
6D8
100
AcDbEntity
  8
レイヤー_1
  6
CONTINUOUS
 62
       3
100
AcDbLine
 10
-119.59560135
 20
-18.71859028
 30
0.0
 11
-119.72314916
 21
-18.65601949
 31
0.0
  0
LINE
  5
6D9
100
AcDbEntity
  8
レイヤー_1
  6
CONTINUOUS
 62
       3
100
AcDbLine
 10
-119.72314916
 20
-18.65601949
 30
0.0
 11
-119.85692676
 21
-18.60550195
 31
0.0
  0
LINE
  5
6DA
100
AcDbEntity
  8
レイヤー_1
  6
CONTINUOUS
 62
       3
100
AcDbLine
 10
-119.85692676
 20
-18.60550195
 30
0.0
 11
-119.99615586
 21
-18.56763755
 31
0.0
  0
LINE
  5
6DB
100
AcDbEntity
  8
レイヤー_1
  6
CONTINUOUS
 62
       3
100
AcDbLine
 10
-119.99615586
 20
-18.56763755
 30
0.0
 11
-120.14005821
 21
-18.54302619
 31
0.0
  0
LINE
  5
6DC
100
AcDbEntity
  8
レイヤー_1
  6
CONTINUOUS
 62
       3
100
AcDbLine
 10
-120.14005821
 20
-18.54302619
 30
0.0
 11
-120.28785555
 21
-18.53226779
 31
0.0
  0
LINE
  5
6DD
100
AcDbEntity
  8
レイヤー_1
  6
CONTINUOUS
 62
       3
100
AcDbLine
 10
-120.28785555
 20
-18.53226779
 30
0.0
 11
-120.44248234
 21
-18.53587788
 31
0.0
  0
LINE
  5
6DE
100
AcDbEntity
  8
レイヤー_1
  6
CONTINUOUS
 62
       3
100
AcDbLine
 10
-120.44248234
 20
-18.53587788
 30
0.0
 11
-120.59401072
 21
-18.55363774
 31
0.0
  0
LINE
  5
6DF
100
AcDbEntity
  8
レイヤー_1
  6
CONTINUOUS
 62
       3
100
AcDbLine
 10
-120.59401072
 20
-18.55363774
 30
0.0
 11
-120.73963487
 21
-18.58495061
 31
0.0
  0
LINE
  5
6E0
100
AcDbEntity
  8
レイヤー_1
  6
CONTINUOUS
 62
       3
100
AcDbLine
 10
-120.73963487
 20
-18.58495061
 30
0.0
 11
-120.87875487
 21
-18.62921657
 31
0.0
  0
LINE
  5
6E1
100
AcDbEntity
  8
レイヤー_1
  6
CONTINUOUS
 62
       3
100
AcDbLine
 10
-120.87875487
 20
-18.62921657
 30
0.0
 11
-121.01077083
 21
-18.68583573
 31
0.0
  0
LINE
  5
6E2
100
AcDbEntity
  8
レイヤー_1
  6
CONTINUOUS
 62
       3
100
AcDbLine
 10
-121.01077083
 20
-18.68583573
 30
0.0
 11
-121.13508284
 21
-18.75420817
 31
0.0
  0
LINE
  5
6E3
100
AcDbEntity
  8
レイヤー_1
  6
CONTINUOUS
 62
       3
100
AcDbLine
 10
-121.13508284
 20
-18.75420817
 30
0.0
 11
-121.251091
 21
-18.83373401
 31
0.0
  0
LINE
  5
6E4
100
AcDbEntity
  8
レイヤー_1
  6
CONTINUOUS
 62
       3
100
AcDbLine
 10
-121.251091
 20
-18.83373401
 30
0.0
 11
-121.35819541
 21
-18.92381333
 31
0.0
  0
LINE
  5
6E5
100
AcDbEntity
  8
レイヤー_1
  6
CONTINUOUS
 62
       3
100
AcDbLine
 10
-121.35819541
 20
-18.92381333
 30
0.0
 11
-121.45579615
 21
-19.02384623
 31
0.0
  0
LINE
  5
6E6
100
AcDbEntity
  8
レイヤー_1
  6
CONTINUOUS
 62
       3
100
AcDbLine
 10
-121.45579615
 20
-19.02384623
 30
0.0
 11
-121.54329334
 21
-19.13323281
 31
0.0
  0
LINE
  5
6E7
100
AcDbEntity
  8
レイヤー_1
  6
CONTINUOUS
 62
       3
100
AcDbLine
 10
-121.54329334
 20
-19.13323281
 30
0.0
 11
-121.62008707
 21
-19.25137318
 31
0.0
  0
LINE
  5
6E8
100
AcDbEntity
  8
レイヤー_1
  6
CONTINUOUS
 62
       3
100
AcDbLine
 10
-121.62008707
 20
-19.25137318
 30
0.0
 11
-121.68557744
 21
-19.37766741
 31
0.0
  0
LINE
  5
6E9
100
AcDbEntity
  8
レイヤー_1
  6
CONTINUOUS
 62
       3
100
AcDbLine
 10
-121.68557744
 20
-19.37766741
 30
0.0
 11
-121.73916453
 21
-19.51151562
 31
0.0
  0
LINE
  5
6EA
100
AcDbEntity
  8
レイヤー_1
  6
CONTINUOUS
 62
       3
100
AcDbLine
 10
-121.73916453
 20
-19.51151562
 30
0.0
 11
-121.78024846
 21
-19.6523179
 31
0.0
  0
LINE
  5
6EB
100
AcDbEntity
  8
レイヤー_1
  6
CONTINUOUS
 62
       3
100
AcDbLine
 10
-121.78024846
 20
-19.6523179
 30
0.0
 11
-121.80822932
 21
-19.79947435
 31
0.0
  0
LINE
  5
6EC
100
AcDbEntity
  8
レイヤー_1
  6
CONTINUOUS
 62
       3
100
AcDbLine
 10
-121.80822932
 20
-19.79947435
 30
0.0
 11
-121.8225072
 21
-19.95238507
 31
0.0
  0
LINE
  5
6ED
100
AcDbEntity
  8
レイヤー_1
  6
CONTINUOUS
 62
       3
100
AcDbLine
 10
-121.8225072
 20
-19.95238507
 30
0.0
 11
-121.8225072
 21
-20.10548706
 31
0.0
  0
LINE
  5
6EE
100
AcDbEntity
  8
レイヤー_1
  6
CONTINUOUS
 62
       3
100
AcDbLine
 10
-121.8225072
 20
-20.10548706
 30
0.0
 11
-121.80822932
 21
-20.25227024
 31
0.0
  0
LINE
  5
6EF
100
AcDbEntity
  8
レイヤー_1
  6
CONTINUOUS
 62
       3
100
AcDbLine
 10
-121.80822932
 20
-20.25227024
 30
0.0
 11
-121.78024846
 21
-20.39497824
 31
0.0
  0
LINE
  5
6F0
100
AcDbEntity
  8
レイヤー_1
  6
CONTINUOUS
 62
       3
100
AcDbLine
 10
-121.78024846
 20
-20.39497824
 30
0.0
 11
-121.73916453
 21
-20.53283183
 31
0.0
  0
LINE
  5
6F1
100
AcDbEntity
  8
レイヤー_1
  6
CONTINUOUS
 62
       3
100
AcDbLine
 10
-121.73916453
 20
-20.53283183
 30
0.0
 11
-121.68557744
 21
-20.66505177
 31
0.0
  0
LINE
  5
6F2
100
AcDbEntity
  8
レイヤー_1
  6
CONTINUOUS
 62
       3
100
AcDbLine
 10
-121.68557744
 20
-20.66505177
 30
0.0
 11
-121.62008707
 21
-20.79085882
 31
0.0
  0
LINE
  5
6F3
100
AcDbEntity
  8
レイヤー_1
  6
CONTINUOUS
 62
       3
100
AcDbLine
 10
-121.62008707
 20
-20.79085882
 30
0.0
 11
-121.54329334
 21
-20.90947374
 31
0.0
  0
LINE
  5
6F4
100
AcDbEntity
  8
レイヤー_1
  6
CONTINUOUS
 62
       3
100
AcDbLine
 10
-121.54329334
 20
-20.90947374
 30
0.0
 11
-121.45579615
 21
-21.02011729
 31
0.0
  0
LINE
  5
6F5
100
AcDbEntity
  8
レイヤー_1
  6
CONTINUOUS
 62
       3
100
AcDbLine
 10
-121.45579615
 20
-21.02011729
 30
0.0
 11
-121.35819541
 21
-21.12201023
 31
0.0
  0
LINE
  5
6F6
100
AcDbEntity
  8
レイヤー_1
  6
CONTINUOUS
 62
       3
100
AcDbLine
 10
-121.35819541
 20
-21.12201023
 30
0.0
 11
-121.251091
 21
-21.21437332
 31
0.0
  0
LINE
  5
6F7
100
AcDbEntity
  8
レイヤー_1
  6
CONTINUOUS
 62
       3
100
AcDbLine
 10
-121.251091
 20
-21.21437332
 30
0.0
 11
-121.13508284
 21
-21.29642732
 31
0.0
  0
LINE
  5
6F8
100
AcDbEntity
  8
レイヤー_1
  6
CONTINUOUS
 62
       3
100
AcDbLine
 10
-121.13508284
 20
-21.29642732
 30
0.0
 11
-121.01077083
 21
-21.36739299
 31
0.0
  0
LINE
  5
6F9
100
AcDbEntity
  8
レイヤー_1
  6
CONTINUOUS
 62
       3
100
AcDbLine
 10
-121.01077083
 20
-21.36739299
 30
0.0
 11
-120.87875487
 21
-21.42649109
 31
0.0
  0
LINE
  5
6FA
100
AcDbEntity
  8
レイヤー_1
  6
CONTINUOUS
 62
       3
100
AcDbLine
 10
-120.87875487
 20
-21.42649109
 30
0.0
 11
-120.73963487
 21
-21.47294237
 31
0.0
  0
LINE
  5
6FB
100
AcDbEntity
  8
レイヤー_1
  6
CONTINUOUS
 62
       3
100
AcDbLine
 10
-120.73963487
 20
-21.47294237
 30
0.0
 11
-120.59401072
 21
-21.50596761
 31
0.0
  0
LINE
  5
6FC
100
AcDbEntity
  8
レイヤー_1
  6
CONTINUOUS
 62
       3
100
AcDbLine
 10
-120.59401072
 20
-21.50596761
 30
0.0
 11
-120.44248234
 21
-21.52478756
 31
0.0
  0
LINE
  5
6FD
100
AcDbEntity
  8
レイヤー_1
  6
CONTINUOUS
 62
       3
100
AcDbLine
 10
-120.44248234
 20
-21.52478756
 30
0.0
 11
-120.28785555
 21
-21.52862704
 31
0.0
  0
LINE
  5
6FE
100
AcDbEntity
  8
レイヤー_1
  6
CONTINUOUS
 62
       3
100
AcDbLine
 10
-120.28785555
 20
-21.52862704
 30
0.0
 11
-120.14005821
 21
-21.51720195
 31
0.0
  0
LINE
  5
6FF
100
AcDbEntity
  8
レイヤー_1
  6
CONTINUOUS
 62
       3
100
AcDbLine
 10
-120.14005821
 20
-21.51720195
 30
0.0
 11
-119.99615586
 21
-21.49118195
 31
0.0
  0
LINE
  5
700
100
AcDbEntity
  8
レイヤー_1
  6
CONTINUOUS
 62
       3
100
AcDbLine
 10
-119.99615586
 20
-21.49118195
 30
0.0
 11
-119.85692676
 21
-21.45134628
 31
0.0
  0
LINE
  5
701
100
AcDbEntity
  8
レイヤー_1
  6
CONTINUOUS
 62
       3
100
AcDbLine
 10
-119.85692676
 20
-21.45134628
 30
0.0
 11
-119.72314916
 21
-21.39847419
 31
0.0
  0
LINE
  5
702
100
AcDbEntity
  8
レイヤー_1
  6
CONTINUOUS
 62
       3
100
AcDbLine
 10
-119.72314916
 20
-21.39847419
 30
0.0
 11
-119.59560135
 21
-21.3333449
 31
0.0
  0
LINE
  5
703
100
AcDbEntity
  8
レイヤー_1
  6
CONTINUOUS
 62
       3
100
AcDbLine
 10
-119.59560135
 20
-21.3333449
 30
0.0
 11
-119.47506157
 21
-21.25673766
 31
0.0
  0
LINE
  5
704
100
AcDbEntity
  8
レイヤー_1
  6
CONTINUOUS
 62
       3
100
AcDbLine
 10
-119.47506157
 20
-21.25673766
 30
0.0
 11
-119.36230811
 21
-21.16943171
 31
0.0
  0
LINE
  5
705
100
AcDbEntity
  8
レイヤー_1
  6
CONTINUOUS
 62
       3
100
AcDbLine
 10
-119.36230811
 20
-21.16943171
 30
0.0
 11
-119.25811921
 21
-21.07220629
 31
0.0
  0
LINE
  5
706
100
AcDbEntity
  8
レイヤー_1
  6
CONTINUOUS
 62
       3
100
AcDbLine
 10
-119.25811921
 20
-21.07220629
 30
0.0
 11
-119.16327315
 21
-20.96584064
 31
0.0
  0
LINE
  5
707
100
AcDbEntity
  8
レイヤー_1
  6
CONTINUOUS
 62
       3
100
AcDbLine
 10
-119.16327315
 20
-20.96584064
 30
0.0
 11
-119.0785482
 21
-20.851114
 31
0.0
  0
LINE
  5
708
100
AcDbEntity
  8
レイヤー_1
  6
CONTINUOUS
 62
       3
100
AcDbLine
 10
-119.0785482
 20
-20.851114
 30
0.0
 11
-119.00472261
 21
-20.72880561
 31
0.0
  0
LINE
  5
709
100
AcDbEntity
  8
レイヤー_1
  6
CONTINUOUS
 62
       3
100
AcDbLine
 10
-119.00472261
 20
-20.72880561
 30
0.0
 11
-118.94257466
 21
-20.59969471
 31
0.0
  0
LINE
  5
70A
100
AcDbEntity
  8
レイヤー_1
  6
CONTINUOUS
 62
       3
100
AcDbLine
 10
-118.94257466
 20
-20.59969471
 30
0.0
 11
-118.8928826
 21
-20.46456054
 31
0.0
  0
LINE
  5
70B
100
AcDbEntity
  8
レイヤー_1
  6
CONTINUOUS
 62
       3
100
AcDbLine
 10
-118.8928826
 20
-20.46456054
 30
0.0
 11
-118.85642471
 21
-20.32418234
 31
0.0
  0
LINE
  5
70C
100
AcDbEntity
  8
レイヤー_1
  6
CONTINUOUS
 62
       3
100
AcDbLine
 10
-118.85642471
 20
-20.32418234
 30
0.0
 11
-118.83397925
 21
-20.17933935
 31
0.0
  0
LINE
  5
70D
100
AcDbEntity
  8
レイヤー_1
  6
CONTINUOUS
 62
       3
100
AcDbLine
 10
-118.83397925
 20
-20.17933935
 30
0.0
 11
-118.82632448
 21
-20.0308108
 31
0.0
  0
LINE
  5
70E
100
AcDbEntity
  8
レイヤー_1
  6
CONTINUOUS
 62
       3
100
AcDbLine
 10
-106.70713125
 20
-20.0308108
 30
0.0
 11
-106.71478602
 21
-19.87524792
 31
0.0
  0
LINE
  5
70F
100
AcDbEntity
  8
レイヤー_1
  6
CONTINUOUS
 62
       3
100
AcDbLine
 10
-106.71478602
 20
-19.87524792
 30
0.0
 11
-106.73723148
 21
-19.72513935
 31
0.0
  0
LINE
  5
710
100
AcDbEntity
  8
レイヤー_1
  6
CONTINUOUS
 62
       3
100
AcDbLine
 10
-106.73723148
 20
-19.72513935
 30
0.0
 11
-106.77368938
 21
-19.581085
 31
0.0
  0
LINE
  5
711
100
AcDbEntity
  8
レイヤー_1
  6
CONTINUOUS
 62
       3
100
AcDbLine
 10
-106.77368938
 20
-19.581085
 30
0.0
 11
-106.82338143
 21
-19.44368477
 31
0.0
  0
LINE
  5
712
100
AcDbEntity
  8
レイヤー_1
  6
CONTINUOUS
 62
       3
100
AcDbLine
 10
-106.82338143
 20
-19.44368477
 30
0.0
 11
-106.88552938
 21
-19.31353855
 31
0.0
  0
LINE
  5
713
100
AcDbEntity
  8
レイヤー_1
  6
CONTINUOUS
 62
       3
100
AcDbLine
 10
-106.88552938
 20
-19.31353855
 30
0.0
 11
-106.95935497
 21
-19.19124627
 31
0.0
  0
LINE
  5
714
100
AcDbEntity
  8
レイヤー_1
  6
CONTINUOUS
 62
       3
100
AcDbLine
 10
-106.95935497
 20
-19.19124627
 30
0.0
 11
-107.04407993
 21
-19.07740781
 31
0.0
  0
LINE
  5
715
100
AcDbEntity
  8
レイヤー_1
  6
CONTINUOUS
 62
       3
100
AcDbLine
 10
-107.04407993
 20
-19.07740781
 30
0.0
 11
-107.13892598
 21
-18.97262307
 31
0.0
  0
LINE
  5
716
100
AcDbEntity
  8
レイヤー_1
  6
CONTINUOUS
 62
       3
100
AcDbLine
 10
-107.13892598
 20
-18.97262307
 30
0.0
 11
-107.24311488
 21
-18.87749197
 31
0.0
  0
LINE
  5
717
100
AcDbEntity
  8
レイヤー_1
  6
CONTINUOUS
 62
       3
100
AcDbLine
 10
-107.24311488
 20
-18.87749197
 30
0.0
 11
-107.35586835
 21
-18.79261441
 31
0.0
  0
LINE
  5
718
100
AcDbEntity
  8
レイヤー_1
  6
CONTINUOUS
 62
       3
100
AcDbLine
 10
-107.35586835
 20
-18.79261441
 30
0.0
 11
-107.47640812
 21
-18.71859028
 31
0.0
  0
LINE
  5
719
100
AcDbEntity
  8
レイヤー_1
  6
CONTINUOUS
 62
       3
100
AcDbLine
 10
-107.47640812
 20
-18.71859028
 30
0.0
 11
-107.60395594
 21
-18.65601949
 31
0.0
  0
LINE
  5
71A
100
AcDbEntity
  8
レイヤー_1
  6
CONTINUOUS
 62
       3
100
AcDbLine
 10
-107.60395594
 20
-18.65601949
 30
0.0
 11
-107.73773353
 21
-18.60550195
 31
0.0
  0
LINE
  5
71B
100
AcDbEntity
  8
レイヤー_1
  6
CONTINUOUS
 62
       3
100
AcDbLine
 10
-107.73773353
 20
-18.60550195
 30
0.0
 11
-107.87696264
 21
-18.56763755
 31
0.0
  0
LINE
  5
71C
100
AcDbEntity
  8
レイヤー_1
  6
CONTINUOUS
 62
       3
100
AcDbLine
 10
-107.87696264
 20
-18.56763755
 30
0.0
 11
-108.02086499
 21
-18.54302619
 31
0.0
  0
LINE
  5
71D
100
AcDbEntity
  8
レイヤー_1
  6
CONTINUOUS
 62
       3
100
AcDbLine
 10
-108.02086499
 20
-18.54302619
 30
0.0
 11
-108.16866232
 21
-18.53226779
 31
0.0
  0
LINE
  5
71E
100
AcDbEntity
  8
レイヤー_1
  6
CONTINUOUS
 62
       3
100
AcDbLine
 10
-108.16866232
 20
-18.53226779
 30
0.0
 11
-108.32328911
 21
-18.53587788
 31
0.0
  0
LINE
  5
71F
100
AcDbEntity
  8
レイヤー_1
  6
CONTINUOUS
 62
       3
100
AcDbLine
 10
-108.32328911
 20
-18.53587788
 30
0.0
 11
-108.4748175
 21
-18.55363774
 31
0.0
  0
LINE
  5
720
100
AcDbEntity
  8
レイヤー_1
  6
CONTINUOUS
 62
       3
100
AcDbLine
 10
-108.4748175
 20
-18.55363774
 30
0.0
 11
-108.62044164
 21
-18.58495061
 31
0.0
  0
LINE
  5
721
100
AcDbEntity
  8
レイヤー_1
  6
CONTINUOUS
 62
       3
100
AcDbLine
 10
-108.62044164
 20
-18.58495061
 30
0.0
 11
-108.75956165
 21
-18.62921657
 31
0.0
  0
LINE
  5
722
100
AcDbEntity
  8
レイヤー_1
  6
CONTINUOUS
 62
       3
100
AcDbLine
 10
-108.75956165
 20
-18.62921657
 30
0.0
 11
-108.89157761
 21
-18.68583573
 31
0.0
  0
LINE
  5
723
100
AcDbEntity
  8
レイヤー_1
  6
CONTINUOUS
 62
       3
100
AcDbLine
 10
-108.89157761
 20
-18.68583573
 30
0.0
 11
-109.01588962
 21
-18.75420817
 31
0.0
  0
LINE
  5
724
100
AcDbEntity
  8
レイヤー_1
  6
CONTINUOUS
 62
       3
100
AcDbLine
 10
-109.01588962
 20
-18.75420817
 30
0.0
 11
-109.13189777
 21
-18.83373401
 31
0.0
  0
LINE
  5
725
100
AcDbEntity
  8
レイヤー_1
  6
CONTINUOUS
 62
       3
100
AcDbLine
 10
-109.13189777
 20
-18.83373401
 30
0.0
 11
-109.23900218
 21
-18.92381333
 31
0.0
  0
LINE
  5
726
100
AcDbEntity
  8
レイヤー_1
  6
CONTINUOUS
 62
       3
100
AcDbLine
 10
-109.23900218
 20
-18.92381333
 30
0.0
 11
-109.33660293
 21
-19.02384623
 31
0.0
  0
LINE
  5
727
100
AcDbEntity
  8
レイヤー_1
  6
CONTINUOUS
 62
       3
100
AcDbLine
 10
-109.33660293
 20
-19.02384623
 30
0.0
 11
-109.42410012
 21
-19.13323281
 31
0.0
  0
LINE
  5
728
100
AcDbEntity
  8
レイヤー_1
  6
CONTINUOUS
 62
       3
100
AcDbLine
 10
-109.42410012
 20
-19.13323281
 30
0.0
 11
-109.50089385
 21
-19.25137318
 31
0.0
  0
LINE
  5
729
100
AcDbEntity
  8
レイヤー_1
  6
CONTINUOUS
 62
       3
100
AcDbLine
 10
-109.50089385
 20
-19.25137318
 30
0.0
 11
-109.56638421
 21
-19.37766741
 31
0.0
  0
LINE
  5
72A
100
AcDbEntity
  8
レイヤー_1
  6
CONTINUOUS
 62
       3
100
AcDbLine
 10
-109.56638421
 20
-19.37766741
 30
0.0
 11
-109.61997131
 21
-19.51151562
 31
0.0
  0
LINE
  5
72B
100
AcDbEntity
  8
レイヤー_1
  6
CONTINUOUS
 62
       3
100
AcDbLine
 10
-109.61997131
 20
-19.51151562
 30
0.0
 11
-109.66105523
 21
-19.6523179
 31
0.0
  0
LINE
  5
72C
100
AcDbEntity
  8
レイヤー_1
  6
CONTINUOUS
 62
       3
100
AcDbLine
 10
-109.66105523
 20
-19.6523179
 30
0.0
 11
-109.68903609
 21
-19.79947435
 31
0.0
  0
LINE
  5
72D
100
AcDbEntity
  8
レイヤー_1
  6
CONTINUOUS
 62
       3
100
AcDbLine
 10
-109.68903609
 20
-19.79947435
 30
0.0
 11
-109.70331397
 21
-19.95238507
 31
0.0
  0
LINE
  5
72E
100
AcDbEntity
  8
レイヤー_1
  6
CONTINUOUS
 62
       3
100
AcDbLine
 10
-109.70331397
 20
-19.95238507
 30
0.0
 11
-109.70331397
 21
-20.10548706
 31
0.0
  0
LINE
  5
72F
100
AcDbEntity
  8
レイヤー_1
  6
CONTINUOUS
 62
       3
100
AcDbLine
 10
-109.70331397
 20
-20.10548706
 30
0.0
 11
-109.68903609
 21
-20.25227024
 31
0.0
  0
LINE
  5
730
100
AcDbEntity
  8
レイヤー_1
  6
CONTINUOUS
 62
       3
100
AcDbLine
 10
-109.68903609
 20
-20.25227024
 30
0.0
 11
-109.66105523
 21
-20.39497824
 31
0.0
  0
LINE
  5
731
100
AcDbEntity
  8
レイヤー_1
  6
CONTINUOUS
 62
       3
100
AcDbLine
 10
-109.66105523
 20
-20.39497824
 30
0.0
 11
-109.61997131
 21
-20.53283183
 31
0.0
  0
LINE
  5
732
100
AcDbEntity
  8
レイヤー_1
  6
CONTINUOUS
 62
       3
100
AcDbLine
 10
-109.61997131
 20
-20.53283183
 30
0.0
 11
-109.56638421
 21
-20.66505177
 31
0.0
  0
LINE
  5
733
100
AcDbEntity
  8
レイヤー_1
  6
CONTINUOUS
 62
       3
100
AcDbLine
 10
-109.56638421
 20
-20.66505177
 30
0.0
 11
-109.50089385
 21
-20.79085882
 31
0.0
  0
LINE
  5
734
100
AcDbEntity
  8
レイヤー_1
  6
CONTINUOUS
 62
       3
100
AcDbLine
 10
-109.50089385
 20
-20.79085882
 30
0.0
 11
-109.42410012
 21
-20.90947374
 31
0.0
  0
LINE
  5
735
100
AcDbEntity
  8
レイヤー_1
  6
CONTINUOUS
 62
       3
100
AcDbLine
 10
-109.42410012
 20
-20.90947374
 30
0.0
 11
-109.33660293
 21
-21.02011729
 31
0.0
  0
LINE
  5
736
100
AcDbEntity
  8
レイヤー_1
  6
CONTINUOUS
 62
       3
100
AcDbLine
 10
-109.33660293
 20
-21.02011729
 30
0.0
 11
-109.23900218
 21
-21.12201023
 31
0.0
  0
LINE
  5
737
100
AcDbEntity
  8
レイヤー_1
  6
CONTINUOUS
 62
       3
100
AcDbLine
 10
-109.23900218
 20
-21.12201023
 30
0.0
 11
-109.13189777
 21
-21.21437332
 31
0.0
  0
LINE
  5
738
100
AcDbEntity
  8
レイヤー_1
  6
CONTINUOUS
 62
       3
100
AcDbLine
 10
-109.13189777
 20
-21.21437332
 30
0.0
 11
-109.01588962
 21
-21.29642732
 31
0.0
  0
LINE
  5
739
100
AcDbEntity
  8
レイヤー_1
  6
CONTINUOUS
 62
       3
100
AcDbLine
 10
-109.01588962
 20
-21.29642732
 30
0.0
 11
-108.89157761
 21
-21.36739299
 31
0.0
  0
LINE
  5
73A
100
AcDbEntity
  8
レイヤー_1
  6
CONTINUOUS
 62
       3
100
AcDbLine
 10
-108.89157761
 20
-21.36739299
 30
0.0
 11
-108.75956165
 21
-21.42649109
 31
0.0
  0
LINE
  5
73B
100
AcDbEntity
  8
レイヤー_1
  6
CONTINUOUS
 62
       3
100
AcDbLine
 10
-108.75956165
 20
-21.42649109
 30
0.0
 11
-108.62044164
 21
-21.47294237
 31
0.0
  0
LINE
  5
73C
100
AcDbEntity
  8
レイヤー_1
  6
CONTINUOUS
 62
       3
100
AcDbLine
 10
-108.62044164
 20
-21.47294237
 30
0.0
 11
-108.4748175
 21
-21.50596761
 31
0.0
  0
LINE
  5
73D
100
AcDbEntity
  8
レイヤー_1
  6
CONTINUOUS
 62
       3
100
AcDbLine
 10
-108.4748175
 20
-21.50596761
 30
0.0
 11
-108.32328911
 21
-21.52478756
 31
0.0
  0
LINE
  5
73E
100
AcDbEntity
  8
レイヤー_1
  6
CONTINUOUS
 62
       3
100
AcDbLine
 10
-108.32328911
 20
-21.52478756
 30
0.0
 11
-108.16866232
 21
-21.52862704
 31
0.0
  0
LINE
  5
73F
100
AcDbEntity
  8
レイヤー_1
  6
CONTINUOUS
 62
       3
100
AcDbLine
 10
-108.16866232
 20
-21.52862704
 30
0.0
 11
-108.02086499
 21
-21.51720195
 31
0.0
  0
LINE
  5
740
100
AcDbEntity
  8
レイヤー_1
  6
CONTINUOUS
 62
       3
100
AcDbLine
 10
-108.02086499
 20
-21.51720195
 30
0.0
 11
-107.87696264
 21
-21.49118195
 31
0.0
  0
LINE
  5
741
100
AcDbEntity
  8
レイヤー_1
  6
CONTINUOUS
 62
       3
100
AcDbLine
 10
-107.87696264
 20
-21.49118195
 30
0.0
 11
-107.73773353
 21
-21.45134628
 31
0.0
  0
LINE
  5
742
100
AcDbEntity
  8
レイヤー_1
  6
CONTINUOUS
 62
       3
100
AcDbLine
 10
-107.73773353
 20
-21.45134628
 30
0.0
 11
-107.60395594
 21
-21.39847419
 31
0.0
  0
LINE
  5
743
100
AcDbEntity
  8
レイヤー_1
  6
CONTINUOUS
 62
       3
100
AcDbLine
 10
-107.60395594
 20
-21.39847419
 30
0.0
 11
-107.47640812
 21
-21.3333449
 31
0.0
  0
LINE
  5
744
100
AcDbEntity
  8
レイヤー_1
  6
CONTINUOUS
 62
       3
100
AcDbLine
 10
-107.47640812
 20
-21.3333449
 30
0.0
 11
-107.35586835
 21
-21.25673766
 31
0.0
  0
LINE
  5
745
100
AcDbEntity
  8
レイヤー_1
  6
CONTINUOUS
 62
       3
100
AcDbLine
 10
-107.35586835
 20
-21.25673766
 30
0.0
 11
-107.24311488
 21
-21.16943171
 31
0.0
  0
LINE
  5
746
100
AcDbEntity
  8
レイヤー_1
  6
CONTINUOUS
 62
       3
100
AcDbLine
 10
-107.24311488
 20
-21.16943171
 30
0.0
 11
-107.13892598
 21
-21.07220629
 31
0.0
  0
LINE
  5
747
100
AcDbEntity
  8
レイヤー_1
  6
CONTINUOUS
 62
       3
100
AcDbLine
 10
-107.13892598
 20
-21.07220629
 30
0.0
 11
-107.04407993
 21
-20.96584064
 31
0.0
  0
LINE
  5
748
100
AcDbEntity
  8
レイヤー_1
  6
CONTINUOUS
 62
       3
100
AcDbLine
 10
-107.04407993
 20
-20.96584064
 30
0.0
 11
-106.95935497
 21
-20.851114
 31
0.0
  0
LINE
  5
749
100
AcDbEntity
  8
レイヤー_1
  6
CONTINUOUS
 62
       3
100
AcDbLine
 10
-106.95935497
 20
-20.851114
 30
0.0
 11
-106.88552938
 21
-20.72880561
 31
0.0
  0
LINE
  5
74A
100
AcDbEntity
  8
レイヤー_1
  6
CONTINUOUS
 62
       3
100
AcDbLine
 10
-106.88552938
 20
-20.72880561
 30
0.0
 11
-106.82338143
 21
-20.59969471
 31
0.0
  0
LINE
  5
74B
100
AcDbEntity
  8
レイヤー_1
  6
CONTINUOUS
 62
       3
100
AcDbLine
 10
-106.82338143
 20
-20.59969471
 30
0.0
 11
-106.77368938
 21
-20.46456054
 31
0.0
  0
LINE
  5
74C
100
AcDbEntity
  8
レイヤー_1
  6
CONTINUOUS
 62
       3
100
AcDbLine
 10
-106.77368938
 20
-20.46456054
 30
0.0
 11
-106.73723148
 21
-20.32418234
 31
0.0
  0
LINE
  5
74D
100
AcDbEntity
  8
レイヤー_1
  6
CONTINUOUS
 62
       3
100
AcDbLine
 10
-106.73723148
 20
-20.32418234
 30
0.0
 11
-106.71478602
 21
-20.17933935
 31
0.0
  0
LINE
  5
74E
100
AcDbEntity
  8
レイヤー_1
  6
CONTINUOUS
 62
       3
100
AcDbLine
 10
-106.71478602
 20
-20.17933935
 30
0.0
 11
-106.70713125
 21
-20.0308108
 31
0.0
  0
LINE
  5
74F
100
AcDbEntity
  8
レイヤー_1
  6
CONTINUOUS
 62
       3
100
AcDbLine
 10
-62.97423761
 20
-40.7187548
 30
0.0
 11
-62.4253582
 21
-40.67389341
 31
0.0
  0
LINE
  5
750
100
AcDbEntity
  8
レイヤー_1
  6
CONTINUOUS
 62
       3
100
AcDbLine
 10
-62.4253582
 20
-40.67389341
 30
0.0
 11
-61.64038292
 21
-40.59804794
 31
0.0
  0
LINE
  5
751
100
AcDbEntity
  8
レイヤー_1
  6
CONTINUOUS
 62
       3
100
AcDbLine
 10
-61.64038292
 20
-40.59804794
 30
0.0
 11
-60.85691196
 21
-40.51066018
 31
0.0
  0
LINE
  5
752
100
AcDbEntity
  8
レイヤー_1
  6
CONTINUOUS
 62
       3
100
AcDbLine
 10
-60.85691196
 20
-40.51066018
 30
0.0
 11
-60.07508777
 21
-40.41176384
 31
0.0
  0
LINE
  5
753
100
AcDbEntity
  8
レイヤー_1
  6
CONTINUOUS
 62
       3
100
AcDbLine
 10
-60.07508777
 20
-40.41176384
 30
0.0
 11
-59.2950528
 21
-40.30139263
 31
0.0
  0
LINE
  5
754
100
AcDbEntity
  8
レイヤー_1
  6
CONTINUOUS
 62
       3
100
AcDbLine
 10
-59.2950528
 20
-40.30139263
 30
0.0
 11
-58.51694953
 21
-40.17958028
 31
0.0
  0
LINE
  5
755
100
AcDbEntity
  8
レイヤー_1
  6
CONTINUOUS
 62
       3
100
AcDbLine
 10
-58.51694953
 20
-40.17958028
 30
0.0
 11
-57.74092041
 21
-40.04636051
 31
0.0
  0
LINE
  5
756
100
AcDbEntity
  8
レイヤー_1
  6
CONTINUOUS
 62
       3
100
AcDbLine
 10
-57.74092041
 20
-40.04636051
 30
0.0
 11
-56.96710789
 21
-39.90176704
 31
0.0
  0
LINE
  5
757
100
AcDbEntity
  8
レイヤー_1
  6
CONTINUOUS
 62
       3
100
AcDbLine
 10
-56.96710789
 20
-39.90176704
 30
0.0
 11
-56.19565444
 21
-39.74583359
 31
0.0
  0
LINE
  5
758
100
AcDbEntity
  8
レイヤー_1
  6
CONTINUOUS
 62
       3
100
AcDbLine
 10
-56.19565444
 20
-39.74583359
 30
0.0
 11
-55.42670251
 21
-39.57859387
 31
0.0
  0
LINE
  5
759
100
AcDbEntity
  8
レイヤー_1
  6
CONTINUOUS
 62
       3
100
AcDbLine
 10
-55.42670251
 20
-39.57859387
 30
0.0
 11
-54.66039457
 21
-39.40008161
 31
0.0
  0
LINE
  5
75A
100
AcDbEntity
  8
レイヤー_1
  6
CONTINUOUS
 62
       3
100
AcDbLine
 10
-54.66039457
 20
-39.40008161
 30
0.0
 11
-53.89687306
 21
-39.21033053
 31
0.0
  0
LINE
  5
75B
100
AcDbEntity
  8
レイヤー_1
  6
CONTINUOUS
 62
       3
100
AcDbLine
 10
-53.89687306
 20
-39.21033053
 30
0.0
 11
-53.13628046
 21
-39.00937434
 31
0.0
  0
LINE
  5
75C
100
AcDbEntity
  8
レイヤー_1
  6
CONTINUOUS
 62
       3
100
AcDbLine
 10
-53.13628046
 20
-39.00937434
 30
0.0
 11
-52.37875922
 21
-38.79724676
 31
0.0
  0
LINE
  5
75D
100
AcDbEntity
  8
レイヤー_1
  6
CONTINUOUS
 62
       3
100
AcDbLine
 10
-52.37875922
 20
-38.79724676
 30
0.0
 11
-51.6244518
 21
-38.57398153
 31
0.0
  0
LINE
  5
75E
100
AcDbEntity
  8
レイヤー_1
  6
CONTINUOUS
 62
       3
100
AcDbLine
 10
-51.53662398
 20
40.31526428
 30
0.0
 11
-52.28124277
 21
40.53049458
 31
0.0
  0
LINE
  5
75F
100
AcDbEntity
  8
レイヤー_1
  6
CONTINUOUS
 62
       3
100
AcDbLine
 10
-52.28124277
 20
40.53049458
 30
0.0
 11
-53.02894128
 21
40.73483972
 31
0.0
  0
LINE
  5
760
100
AcDbEntity
  8
レイヤー_1
  6
CONTINUOUS
 62
       3
100
AcDbLine
 10
-53.02894128
 20
40.73483972
 30
0.0
 11
-53.77958411
 21
40.92828323
 31
0.0
  0
LINE
  5
761
100
AcDbEntity
  8
レイヤー_1
  6
CONTINUOUS
 62
       3
100
AcDbLine
 10
-53.77958411
 20
40.92828323
 30
0.0
 11
-54.53303587
 21
41.11080865
 31
0.0
  0
LINE
  5
762
100
AcDbEntity
  8
レイヤー_1
  6
CONTINUOUS
 62
       3
100
AcDbLine
 10
-54.53303587
 20
41.11080865
 30
0.0
 11
-55.28916114
 21
41.2823995
 31
0.0
  0
LINE
  5
763
100
AcDbEntity
  8
レイヤー_1
  6
CONTINUOUS
 62
       3
100
AcDbLine
 10
-55.28916114
 20
41.2823995
 30
0.0
 11
-56.04782454
 21
41.44303933
 31
0.0
  0
LINE
  5
764
100
AcDbEntity
  8
レイヤー_1
  6
CONTINUOUS
 62
       3
100
AcDbLine
 10
-56.04782454
 20
41.44303933
 30
0.0
 11
-56.80889065
 21
41.59271165
 31
0.0
  0
LINE
  5
765
100
AcDbEntity
  8
レイヤー_1
  6
CONTINUOUS
 62
       3
100
AcDbLine
 10
-56.80889065
 20
41.59271165
 30
0.0
 11
-57.57222408
 21
41.73140001
 31
0.0
  0
LINE
  5
766
100
AcDbEntity
  8
レイヤー_1
  6
CONTINUOUS
 62
       3
100
AcDbLine
 10
-57.57222408
 20
41.73140001
 30
0.0
 11
-58.33768943
 21
41.85908793
 31
0.0
  0
LINE
  5
767
100
AcDbEntity
  8
レイヤー_1
  6
CONTINUOUS
 62
       3
100
AcDbLine
 10
-58.33768943
 20
41.85908793
 30
0.0
 11
-59.10515129
 21
41.97575895
 31
0.0
  0
LINE
  5
768
100
AcDbEntity
  8
レイヤー_1
  6
CONTINUOUS
 62
       3
100
AcDbLine
 10
-59.10515129
 20
41.97575895
 30
0.0
 11
-59.87447426
 21
42.0813966
 31
0.0
  0
LINE
  5
769
100
AcDbEntity
  8
レイヤー_1
  6
CONTINUOUS
 62
       3
100
AcDbLine
 10
-59.87447426
 20
42.0813966
 30
0.0
 11
-60.64552295
 21
42.17598442
 31
0.0
  0
LINE
  5
76A
100
AcDbEntity
  8
レイヤー_1
  6
CONTINUOUS
 62
       3
100
AcDbLine
 10
-60.64552295
 20
42.17598442
 30
0.0
 11
-61.41816195
 21
42.25950593
 31
0.0
  0
LINE
  5
76B
100
AcDbEntity
  8
レイヤー_1
  6
CONTINUOUS
 62
       3
100
AcDbLine
 10
-61.41816195
 20
42.25950593
 30
0.0
 11
-61.65047193
 21
42.2812452
 31
0.0
  0
LINE
  5
76C
100
AcDbEntity
  8
レイヤー_1
  6
CONTINUOUS
 62
       3
100
AcDbLine
 10
53.52600845
 20
-32.09285125
 30
0.0
 11
37.91805477
 21
-32.09285125
 31
0.0
  0
LINE
  5
76D
100
AcDbEntity
  8
レイヤー_1
  6
CONTINUOUS
 62
       3
100
AcDbLine
 10
99.4100633
 20
39.90714875
 30
0.0
 11
128.4100633
 21
39.90714875
 31
0.0
  0
LINE
  5
76E
100
AcDbEntity
  8
レイヤー_1
  6
CONTINUOUS
 62
       3
100
AcDbLine
 10
128.4100633
 20
-31.59285125
 30
0.0
 11
128.4100633
 21
39.90714875
 31
0.0
  0
LINE
  5
76F
100
AcDbEntity
  8
レイヤー_1
  6
CONTINUOUS
 62
       3
100
AcDbLine
 10
98.9100633
 20
-32.09285125
 30
0.0
 11
98.9100633
 21
39.40714875
 31
0.0
  0
LINE
  5
770
100
AcDbEntity
  8
レイヤー_1
  6
CONTINUOUS
 62
       3
100
AcDbLine
 10
98.9100633
 20
-32.09285125
 30
0.0
 11
127.9100633
 21
-32.09285125
 31
0.0
  0
LINE
  5
771
100
AcDbEntity
  8
レイヤー_1
  6
CONTINUOUS
 62
       3
100
AcDbLine
 10
53.52600845
 20
39.90714875
 30
0.0
 11
37.95348812
 21
39.90714875
 31
0.0
  0
LINE
  5
772
100
AcDbEntity
  8
レイヤー_1
  6
CONTINUOUS
 62
       3
100
AcDbLine
 10
-100.33398393
 20
42.2812452
 30
0.0
 11
-127.93398393
 21
42.2812452
 31
0.0
  0
LINE
  5
773
100
AcDbEntity
  8
レイヤー_1
  6
CONTINUOUS
 62
       3
100
AcDbLine
 10
-100.33398393
 20
-40.7187548
 30
0.0
 11
-127.93398393
 21
-40.7187548
 31
0.0
  0
LINE
  5
774
100
AcDbEntity
  8
レイヤー_1
  6
CONTINUOUS
 62
       3
100
AcDbLine
 10
-128.43398393
 20
41.7812452
 30
0.0
 11
-128.43398393
 21
-40.2187548
 31
0.0
  0
LINE
  5
775
100
AcDbEntity
  8
レイヤー_1
  6
CONTINUOUS
 62
       3
100
AcDbLine
 10
-99.83398393
 20
41.7812452
 30
0.0
 11
-99.83398393
 21
-40.2187548
 31
0.0
  0
LINE
  5
776
100
AcDbEntity
  8
レイヤー_1
  6
CONTINUOUS
 62
       3
100
AcDbLine
 10
-68.52504973
 20
-40.7187548
 30
0.0
 11
-62.97423761
 21
-40.7187548
 31
0.0
  0
LINE
  5
777
100
AcDbEntity
  8
レイヤー_1
  6
CONTINUOUS
 62
       3
100
AcDbLine
 10
-70.47399155
 20
42.2812452
 30
0.0
 11
-61.65047193
 21
42.2812452
 31
0.0
  0
LINE
  5
778
100
AcDbEntity
  8
レイヤー_1
  6
CONTINUOUS
 62
       3
100
AcDbLine
 10
-70.47399155
 20
42.2812452
 30
0.0
 11
-70.47399155
 21
-38.77012396
 31
0.0
  0
LINE
  5
779
100
AcDbEntity
  8
レイヤー_1
  6
CONTINUOUS
 62
       3
100
AcDbLine
 10
98.9100633
 20
39.40714875
 30
0.0
 11
99.4100633
 21
39.90714875
 31
0.0
  0
LINE
  5
77A
100
AcDbEntity
  8
レイヤー_1
  6
CONTINUOUS
 62
       3
100
AcDbLine
 10
127.9100633
 20
-32.09285125
 30
0.0
 11
128.4100633
 21
-31.59285125
 31
0.0
  0
LINE
  5
77B
100
AcDbEntity
  8
レイヤー_1
  6
CONTINUOUS
 62
       3
100
AcDbLine
 10
99.61737116
 20
-32.49190517
 30
0.0
 11
99.61737116
 21
-32.49260222
 31
0.0
  0
LINE
  5
77C
100
AcDbEntity
  8
レイヤー_1
  6
CONTINUOUS
 62
       3
100
AcDbLine
 10
106.95238801
 20
-32.09285125
 30
0.0
 11
106.95238801
 21
-13.2579617
 31
0.0
  0
LINE
  5
77D
100
AcDbEntity
  8
レイヤー_1
  6
CONTINUOUS
 62
       3
100
AcDbLine
 10
113.021569
 20
-32.49190517
 30
0.0
 11
113.021569
 21
-32.49260222
 31
0.0
  0
LINE
  5
77E
100
AcDbEntity
  8
レイヤー_1
  6
CONTINUOUS
 62
       3
100
AcDbLine
 10
114.28601076
 20
-32.09285125
 30
0.0
 11
114.28601076
 21
-13.2579617
 31
0.0
  0
LINE
  5
77F
100
AcDbEntity
  8
レイヤー_1
  6
CONTINUOUS
 62
       3
100
AcDbLine
 10
126.7600633
 20
-23.60724658
 30
0.0
 11
126.7600633
 21
-27.57845593
 31
0.0
  0
LINE
  5
780
100
AcDbEntity
  8
レイヤー_1
  6
CONTINUOUS
 62
       3
100
AcDbLine
 10
122.5600633
 20
-23.60724658
 30
0.0
 11
122.5600633
 21
-27.57845593
 31
0.0
  0
LINE
  5
781
100
AcDbEntity
  8
レイヤー_1
  6
CONTINUOUS
 62
       3
100
AcDbLine
 10
100.5600633
 20
31.86705147
 30
0.0
 11
100.5600633
 21
34.94724602
 31
0.0
  0
LINE
  5
782
100
AcDbEntity
  8
レイヤー_1
  6
CONTINUOUS
 62
       3
100
AcDbLine
 10
104.7600633
 20
31.86705147
 30
0.0
 11
104.7600633
 21
34.94724602
 31
0.0
  0
LINE
  5
783
100
AcDbEntity
  8
レイヤー_1
  6
CONTINUOUS
 62
       3
100
AcDbLine
 10
23.52600845
 20
40.30585416
 30
0.0
 11
23.52600845
 21
-38.57258743
 31
0.0
  0
ARC
  5
784
100
AcDbEntity
  8
レイヤー_1
  6
CONTINUOUS
 62
       3
100
AcDbCircle
 10
-127.93398393
 20
-40.2187548
 30
0.0
 40
0.5
100
AcDbArc
 50
180.0
 51
270.0
  0
ARC
  5
785
100
AcDbEntity
  8
レイヤー_1
  6
CONTINUOUS
 62
       3
100
AcDbCircle
 10
-100.33398393
 20
-40.2187548
 30
0.0
 40
0.5
100
AcDbArc
 50
270.0
 51
360.0
  0
ARC
  5
786
100
AcDbEntity
  8
レイヤー_1
  6
CONTINUOUS
 62
       3
100
AcDbCircle
 10
-100.33398393
 20
41.7812452
 30
0.0
 40
0.5
100
AcDbArc
 50
0.0
 51
90.0
  0
ARC
  5
787
100
AcDbEntity
  8
レイヤー_1
  6
CONTINUOUS
 62
       3
100
AcDbCircle
 10
-127.93398393
 20
41.7812452
 30
0.0
 40
0.5
100
AcDbArc
 50
90.0
 51
180.0
  0
ARC
  5
788
100
AcDbEntity
  8
レイヤー_1
  6
CONTINUOUS
 62
       3
100
AcDbCircle
 10
102.6600633
 20
33.40714875
 30
0.0
 40
2.60420806
100
AcDbArc
 50
216.25556359
 51
323.70871978
  0
ARC
  5
789
100
AcDbEntity
  8
レイヤー_1
  6
CONTINUOUS
 62
       3
100
AcDbCircle
 10
124.6600633
 20
-25.59285125
 30
0.0
 40
2.89009099
100
AcDbArc
 50
43.39615971
 51
136.60384029
  0
ARC
  5
78A
100
AcDbEntity
  8
レイヤー_1
  6
CONTINUOUS
 62
       3
100
AcDbCircle
 10
102.6600633
 20
33.40714875
 30
0.0
 40
2.60420806
100
AcDbArc
 50
36.25556359
 51
144.18808479
  0
ARC
  5
78B
100
AcDbEntity
  8
レイヤー_1
  6
CONTINUOUS
 62
       3
100
AcDbCircle
 10
124.6600633
 20
-25.59285125
 30
0.0
 40
2.89009099
100
AcDbArc
 50
223.39615971
 51
316.60384029
  0
LINE
  5
78C
100
AcDbEntity
  8
レイヤー_1
  6
CENTERX2
 62
       3
100
AcDbLine
 10
94.225022
 20
3.90714875
 30
0.0
 11
132.8490473
 21
3.90714875
 31
0.0
  0
LINE
  5
78D
100
AcDbEntity
  8
レイヤー_1
  6
CENTERX2
 62
       3
100
AcDbLine
 10
113.6600633
 20
-36.53825819
 30
0.0
 11
113.6600633
 21
44.35255569
 31
0.0
  0
LINE
  5
78E
100
AcDbEntity
  8
レイヤー_1
  6
CENTERX2
 62
       3
100
AcDbLine
 10
-82.46340083
 20
0.7812452
 30
0.0
 11
57.60704447
 21
0.7812452
 31
0.0
  0
LINE
  5
78F
100
AcDbEntity
  8
レイヤー_1
  6
CENTERX2
 62
       3
100
AcDbLine
 10
-96.10139333
 20
0.7812452
 30
0.0
 11
-132.8490473
 21
0.7812452
 31
0.0
  0
LINE
  5
790
100
AcDbEntity
  8
レイヤー_1
  6
CENTERX2
 62
       3
100
AcDbLine
 10
-114.13398393
 20
46.60475343
 30
0.0
 11
-114.13398393
 21
-46.60475343
 31
0.0
  0
LINE
  5
791
100
AcDbEntity
  8
レイヤー_1
  6
DASHED2
 62
       3
100
AcDbLine
 10
-70.47399155
 20
-5.81385713
 30
0.0
 11
-78.47399155
 21
-5.81385713
 31
0.0
  0
LINE
  5
792
100
AcDbEntity
  8
レイヤー_1
  6
DASHED2
 62
       3
100
AcDbLine
 10
-78.47399155
 20
1.28590663
 30
0.0
 11
-70.47399155
 21
1.28590663
 31
0.0
  0
LINE
  5
793
100
AcDbEntity
  8
レイヤー_1
  6
DASHED2
 62
       3
100
AcDbLine
 10
-78.47399155
 20
1.28590663
 30
0.0
 11
-78.47399155
 21
-5.81385713
 31
0.0
  0
POINT
  5
794
100
AcDbEntity
  8
レイヤー_1
  6
DASHED2
 62
       3
100
AcDbPoint
 10
-67.15882273
 20
0.7812452
 30
0.0
  0
TEXT
  5
795
100
AcDbEntity
  8
0
 62
       7
100
AcDbText
 10
119.20316742
 20
-99.74434389
 30
0.0
 40
5.0
  1
000
 41
0.8
 72
       5
 11
131.20316742
 21
-99.74434389
 31
0.0
100
AcDbText
  0
ENDSEC
  0
SECTION
  2
OBJECTS
  0
DICTIONARY
  5
19
100
AcDbDictionary
  3
ACAD_GROUP
350
1A
  3
ACAD_MLINESTYLE
350
1B
  0
DICTIONARY
  5
1A
102
{ACAD_REACTORS
330
19
102
}
100
AcDbDictionary
  0
DICTIONARY
  5
1B
102
{ACAD_REACTORS
330
19
102
}
100
AcDbDictionary
  3
STANDARD
350
1C
  0
MLINESTYLE
  5
1C
102
{ACAD_REACTORS
330
1B
102
}
100
AcDbMlineStyle
  2
STANDARD
 70
       0
  3

 62
       0
 51
90.0
 52
90.0
 71
       2
 49
0.5
 62
     256
  6
BYLAYER
 49
-0.5
 62
     256
  6
BYLAYER
  0
ENDSEC
  0
EOF
