  0
SECTION
  2
HEADER
  9
$ACADVER
  1
AC1009
  9
$INSBASE
 10
0.0
 20
0.0
 30
0.0
  9
$EXTMIN
 10
-278.7609977600000093
 20
-394.9248852399999805
 30
0.0
  9
$EXTMAX
 10
292.2369027400001187
 20
385.5113163899999904
 30
0.0
  9
$LIMMIN
 10
-308.0309025199999837
 20
-435.8977858299999752
  9
$LIMMAX
 10
308.0309025199999837
 20
426.4842169799999283
  9
$ORTHOMODE
 70
     0
  9
$REGENMODE
 70
     1
  9
$FILLMODE
 70
     1
  9
$QTEXTMODE
 70
     0
  9
$MIRRTEXT
 70
     1
  9
$DRAGMODE
 70
     2
  9
$LTSCALE
 40
0.2
  9
$OSMODE
 70
  1079
  9
$ATTMODE
 70
     1
  9
$TEXTSIZE
 40
9.5250000000000004
  9
$TRACEWID
 40
0.05
  9
$TEXTSTYLE
  7
STANDARD
  9
$CLAYER
  8
0
  9
$CELTYPE
  6
CONTINUOUS
  9
$CECOLOR
 62
   256
  9
$DIMSCALE
 40
1.0
  9
$DIMASZ
 40
0.18
  9
$DIMEXO
 40
0.0625
  9
$DIMDLI
 40
0.38
  9
$DIMRND
 40
0.0
  9
$DIMDLE
 40
0.0
  9
$DIMEXE
 40
0.18
  9
$DIMTP
 40
0.0
  9
$DIMTM
 40
0.0
  9
$DIMTXT
 40
0.18
  9
$DIMCEN
 40
0.09
  9
$DIMTSZ
 40
0.0
  9
$DIMTOL
 70
     0
  9
$DIMLIM
 70
     0
  9
$DIMTIH
 70
     1
  9
$DIMTOH
 70
     1
  9
$DIMSE1
 70
     0
  9
$DIMSE2
 70
     0
  9
$DIMTAD
 70
     0
  9
$DIMZIN
 70
     0
  9
$DIMBLK
  1

  9
$DIMASO
 70
     1
  9
$DIMSHO
 70
     1
  9
$DIMPOST
  1

  9
$DIMAPOST
  1

  9
$DIMALT
 70
     0
  9
$DIMALTD
 70
     2
  9
$DIMALTF
 40
25.3999999999999986
  9
$DIMLFAC
 40
1.0
  9
$DIMTOFL
 70
     0
  9
$DIMTVP
 40
0.0
  9
$DIMTIX
 70
     0
  9
$DIMSOXD
 70
     0
  9
$DIMSAH
 70
     0
  9
$DIMBLK1
  1

  9
$DIMBLK2
  1

  9
$DIMSTYLE
  2
STANDARD
  9
$DIMCLRD
 70
     0
  9
$DIMCLRE
 70
     0
  9
$DIMCLRT
 70
     0
  9
$DIMTFAC
 40
1.0
  9
$DIMGAP
 40
0.09
  9
$LUNITS
 70
     2
  9
$LUPREC
 70
     4
  9
$SKETCHINC
 40
0.1
  9
$FILLETRAD
 40
0.0
  9
$AUNITS
 70
     0
  9
$AUPREC
 70
     0
  9
$MENU
  1
acad
  9
$ELEVATION
 40
0.0
  9
$PELEVATION
 40
0.0
  9
$THICKNESS
 40
0.0
  9
$LIMCHECK
 70
     0
  9
$BLIPMODE
 70
     0
  9
$CHAMFERA
 40
0.0
  9
$CHAMFERB
 40
0.0
  9
$SKPOLY
 70
     0
  9
$TDCREATE
 40
2440588.749988425988704
  9
$TDUPDATE
 40
2458753.4696180559694767
  9
$TDINDWG
 40
0.0427199074
  9
$TDUSRTIMER
 40
0.0427199074
  9
$USRTIMER
 70
     1
  9
$ANGBASE
 50
0.0
  9
$ANGDIR
 70
     0
  9
$PDMODE
 70
     0
  9
$PDSIZE
 40
1.0
  9
$PLINEWID
 40
0.0
  9
$COORDS
 70
     1
  9
$SPLFRAME
 70
     0
  9
$SPLINETYPE
 70
     6
  9
$SPLINESEGS
 70
     8
  9
$ATTDIA
 70
     1
  9
$ATTREQ
 70
     1
  9
$HANDLING
 70
     1
  9
$HANDSEED
  5
6A2
  9
$SURFTAB1
 70
     6
  9
$SURFTAB2
 70
     6
  9
$SURFTYPE
 70
     6
  9
$SURFU
 70
     6
  9
$SURFV
 70
     6
  9
$UCSNAME
  2

  9
$UCSORG
 10
0.0
 20
0.0
 30
0.0
  9
$UCSXDIR
 10
1.0
 20
0.0
 30
0.0
  9
$UCSYDIR
 10
0.0
 20
1.0
 30
0.0
  9
$PUCSNAME
  2

  9
$PUCSORG
 10
0.0
 20
0.0
 30
0.0
  9
$PUCSXDIR
 10
1.0
 20
0.0
 30
0.0
  9
$PUCSYDIR
 10
0.0
 20
1.0
 30
0.0
  9
$USERI1
 70
     0
  9
$USERI2
 70
     0
  9
$USERI3
 70
     0
  9
$USERI4
 70
     0
  9
$USERI5
 70
     0
  9
$USERR1
 40
0.0
  9
$USERR2
 40
0.0
  9
$USERR3
 40
0.0
  9
$USERR4
 40
0.0
  9
$USERR5
 40
0.0
  9
$WORLDVIEW
 70
     1
  9
$SHADEDGE
 70
     3
  9
$SHADEDIF
 70
    70
  9
$TILEMODE
 70
     1
  9
$MAXACTVP
 70
    16
  9
$PLIMCHECK
 70
     0
  9
$PEXTMIN
 10
1.0000000000000000E+20
 20
1.0000000000000000E+20
 30
1.0000000000000000E+20
  9
$PEXTMAX
 10
-1.0000000000000000E+20
 20
-1.0000000000000000E+20
 30
-1.0000000000000000E+20
  9
$PLIMMIN
 10
0.0
 20
0.0
  9
$PLIMMAX
 10
12.0
 20
9.0
  9
$UNITMODE
 70
     0
  9
$VISRETAIN
 70
     0
  9
$PLINEGEN
 70
     1
  9
$PSLTSCALE
 70
     0
  0
ENDSEC
  0
SECTION
  2
TABLES
  0
TABLE
  2
VPORT
 70
     1
  0
VPORT
  2
*ACTIVE
 70
     0
 10
0.0
 20
0.0
 11
1.0
 21
1.0
 12
104.3490593912504067
 22
6.2551693256763201
 13
0.0
 23
0.0
 14
1.0
 24
1.0
 15
0.0
 25
0.0
 16
0.0
 26
0.0
 36
1.0
 17
0.0
 27
0.0
 37
0.0
 40
957.0530210092263133
 41
2.2158693115519248
 42
50.0
 43
0.0
 44
0.0
 50
0.0
 51
0.0
 71
     0
 72
   100
 73
     1
 74
     1
 75
     0
 76
     0
 77
     0
 78
     0
  0
ENDTAB
  0
TABLE
  2
LTYPE
 70
    30
  0
LTYPE
  2
CONTINUOUS
 70
     0
  3
Solid line
 72
    65
 73
     0
 40
0.0
  0
LTYPE
  2
HIDDENX2
 70
     0
  3
CADPAC LINETYPE
 72
    65
 73
     2
 40
45.8938596099999998
 49
34.4203947000000028
 49
-11.4734648999999997
  0
LTYPE
  2
HIDDEN
 70
     0
  3
CADPAC LINETYPE
 72
    65
 73
     2
 40
34.4203947000000028
 49
22.9469297999999995
 49
-11.4734648999999997
  0
LTYPE
  2
HIDDEN2
 70
     0
  3
CADPAC LINETYPE
 72
    65
 73
     2
 40
28.6836622500000011
 49
17.2101973500000014
 49
-11.4734648999999997
  0
LTYPE
  2
DASHED
 70
     0
  3
CADPAC LINETYPE
 72
    65
 73
     2
 40
34.4203947000000028
 49
22.9469297999999995
 49
-11.4734648999999997
  0
LTYPE
  2
DASHED2
 70
     0
  3
CADPAC LINETYPE
 72
    65
 73
     2
 40
25.815296029999999
 49
17.2101973500000014
 49
-8.6050986799999993
  0
LTYPE
  2
DASHEDX2
 70
     0
  3
CADPAC LINETYPE
 72
    65
 73
     2
 40
51.6305920599999908
 49
34.4203947000000028
 49
-17.2101973500000014
  0
LTYPE
  2
DOTX2
 70
     0
  3
CADPAC LINETYPE
 72
    65
 73
     2
 40
14.3418311299999992
 49
0.0
 49
-14.3418311299999992
  0
LTYPE
  2
DOT
 70
     0
  3
CADPAC LINETYPE
 72
    65
 73
     2
 40
11.4734648999999997
 49
0.0
 49
-11.4734648999999997
  0
LTYPE
  2
DOT2
 70
     0
  3
CADPAC LINETYPE
 72
    65
 73
     2
 40
8.6050986799999993
 49
0.0
 49
-8.6050986799999993
  0
LTYPE
  2
CENTERX2
 70
     0
  3
CADPAC LINETYPE
 72
    65
 73
     4
 40
68.8407894099999993
 49
28.6836622500000011
 49
-14.3418311299999992
 49
11.4734648999999997
 49
-14.3418311299999992
  0
LTYPE
  2
CENTER
 70
     0
  3
CADPAC LINETYPE
 72
    65
 73
     4
 40
52.7779385500000018
 49
22.9469297999999995
 49
-11.4734648999999997
 49
6.8840789400000002
 49
-11.4734648999999997
  0
LTYPE
  2
CENTER2
 70
     0
  3
CADPAC LINETYPE
 72
    65
 73
     4
 40
36.7150876800000106
 49
17.2101973500000014
 49
-8.6050986799999993
 49
2.2946929800000002
 49
-8.6050986799999993
  0
LTYPE
  2
DASHDOTX2
 70
     0
  3
CADPAC LINETYPE
 72
    65
 73
     4
 40
57.3673245100000031
 49
28.6836622500000011
 49
-14.3418311299999992
 49
0.0
 49
-14.3418311299999992
  0
LTYPE
  2
DASHDOT
 70
     0
  3
CADPAC LINETYPE
 72
    65
 73
     4
 40
45.8938596099999998
 49
22.9469297999999995
 49
-11.4734648999999997
 49
0.0
 49
-11.4734648999999997
  0
LTYPE
  2
DASHDOT2
 70
     0
  3
CADPAC LINETYPE
 72
    65
 73
     4
 40
34.4203947000000028
 49
17.2101973500000014
 49
-8.6050986799999993
 49
0.0
 49
-8.6050986799999993
  0
LTYPE
  2
DIVIDEX2
 70
     0
  3
CADPAC LINETYPE
 72
    65
 73
     6
 40
71.7091556299999979
 49
28.6836622500000011
 49
-14.3418311299999992
 49
0.0
 49
-14.3418311299999992
 49
0.0
 49
-14.3418311299999992
  0
LTYPE
  2
DIVIDE
 70
     0
  3
CADPAC LINETYPE
 72
    65
 73
     6
 40
57.3673245100000031
 49
22.9469297999999995
 49
-11.4734648999999997
 49
0.0
 49
-11.4734648999999997
 49
0.0
 49
-11.4734648999999997
  0
LTYPE
  2
DIVIDE2
 70
     0
  3
CADPAC LINETYPE
 72
    65
 73
     6
 40
43.0254933800000003
 49
17.2101973500000014
 49
-8.6050986799999993
 49
0.0
 49
-8.6050986799999993
 49
0.0
 49
-8.6050986799999993
  0
LTYPE
  2
BORDERX2
 70
     0
  3
CADPAC LINETYPE
 72
    65
 73
     6
 40
100.3928178900000034
 49
28.6836622500000011
 49
-14.3418311299999992
 49
28.6836622500000011
 49
-14.3418311299999992
 49
0.0
 49
-14.3418311299999992
  0
LTYPE
  2
BORDER
 70
     0
  3
CADPAC LINETYPE
 72
    65
 73
     6
 40
80.3142543099999955
 49
22.9469297999999995
 49
-11.4734648999999997
 49
22.9469297999999995
 49
-11.4734648999999997
 49
0.0
 49
-11.4734648999999997
  0
LTYPE
  2
BORDER2
 70
     0
  3
CADPAC LINETYPE
 72
    65
 73
     6
 40
60.2356907300000017
 49
17.2101973500000014
 49
-8.6050986799999993
 49
17.2101973500000014
 49
-8.6050986799999993
 49
0.0
 49
-8.6050986799999993
  0
LTYPE
  2
PHANTOMX2
 70
     0
  3
CADPAC LINETYPE
 72
    65
 73
     6
 40
86.0509867600000007
 49
28.6836622500000011
 49
-11.4734648999999997
 49
11.4734648999999997
 49
-11.4734648999999997
 49
11.4734648999999997
 49
-11.4734648999999997
  0
LTYPE
  2
PHANTOM
 70
     0
  3
CADPAC LINETYPE
 72
    65
 73
     6
 40
71.1354823900000071
 49
22.9469297999999995
 49
-11.4734648999999997
 49
6.8840789400000002
 49
-11.4734648999999997
 49
6.8840789400000002
 49
-11.4734648999999997
  0
LTYPE
  2
PHANTOM2
 70
     0
  3
CADPAC LINETYPE
 72
    65
 73
     6
 40
60.8093639800000005
 49
17.2101973500000014
 49
-11.4734648999999997
 49
4.5893859600000004
 49
-11.4734648999999997
 49
4.5893859600000004
 49
-11.4734648999999997
  0
LTYPE
  2
ACAD_ISO06W100
 70
     0
  3
CADPAC LINETYPE
 72
    65
 73
     8
 40
77.4458880800000031
 49
28.6836622500000011
 49
-14.3418311299999992
 49
0.0
 49
-11.4734648999999997
 49
0.0
 49
-11.4734648999999997
 49
0.0
 49
-11.4734648999999997
  0
LTYPE
  2
ACAD_ISO13W100
 70
     0
  3
CADPAC LINETYPE
 72
    65
 73
     8
 40
91.7877192100000059
 49
22.9469297999999995
 49
-11.4734648999999997
 49
22.9469297999999995
 49
-11.4734648999999997
 49
0.0
 49
-11.4734648999999997
 49
0.0
 49
-11.4734648999999997
  0
LTYPE
  2
ACAD_ISO14W100
 70
     0
  3
CADPAC LINETYPE
 72
    65
 73
     8
 40
68.8407894099999993
 49
22.9469297999999995
 49
-11.4734648999999997
 49
0.0
 49
-11.4734648999999997
 49
0.0
 49
-11.4734648999999997
 49
0.0
 49
-11.4734648999999997
  0
ENDTAB
  0
TABLE
  2
LAYER
 70
     5
  0
LAYER
  2
0
 70
     0
 62
     7
  6
CONTINUOUS
  0
LAYER
  2
SLD-0_1
 70
     0
 62
     7
  6
CONTINUOUS
  0
LAYER
  2
SLD-0_0
 70
     0
 62
     7
  6
CONTINUOUS
  0
LAYER
  2
SLD-0_2
 70
     0
 62
     7
  6
CONTINUOUS
  0
LAYER
  2
SLD-0
 70
     0
 62
     7
  6
CONTINUOUS
  0
ENDTAB
  0
TABLE
  2
STYLE
 70
     2
  0
STYLE
  2
STANDARD
 70
     0
 40
0.0
 41
1.0
 50
0.0
 71
     0
 42
9.5250000000000004
  3
txt.shx
  4
bigfont.shx
  0
STYLE
  2

 70
     1
 40
0.0
 41
1.0
 50
0.0
 71
     0
 42
0.2
  3
ltypeshp.shx
  4

  0
ENDTAB
  0
TABLE
  2
VIEW
 70
     1
  0
VIEW
  2
QQQQ
 70
     0
 40
862.3820028100000172
 10
0.0
 20
-4.706784429999999
 41
616.0618050499999754
 11
0.0
 21
0.0
 31
1.0
 12
100.0
 22
100.0
 32
0.0
 42
50.0
 43
0.0
 44
0.0
 50
0.0
 71
     0
  0
ENDTAB
  0
TABLE
  2
UCS
 70
     0
  0
ENDTAB
  0
TABLE
  2
APPID
 70
     4
  0
APPID
  2
ACAD
 70
     0
  0
APPID
  2
ACAD_NAV_VCDISPLAY
 70
     0
  0
APPID
  2
ACAD_EXEMPT_FROM_CAD_STANDARDS
 70
     0
  0
APPID
  2
ACAD_MLEADERVER
 70
     0
  0
ENDTAB
  0
TABLE
  2
DIMSTYLE
 70
     2
  0
DIMSTYLE
  2
STANDARD
 70
     0
  3

  4

  5

  6

  7

 40
1.0
 41
0.18
 42
0.0625
 43
0.38
 44
0.18
 45
0.0
 46
0.0
 47
0.0
 48
0.0
140
0.18
141
0.09
142
0.0
143
25.3999999999999986
144
1.0
145
0.0
146
1.0
147
0.09
 71
     0
 72
     0
 73
     1
 74
     1
 75
     0
 76
     0
 77
     0
 78
     0
170
     0
171
     2
172
     0
173
     0
174
     0
175
     0
176
     0
177
     0
178
     0
  0
ENDTAB
  0
ENDSEC
  0
SECTION
  2
BLOCKS
  0
BLOCK
  8
0
  2
$MODEL_SPACE
 70
     0
 10
0.0
 20
0.0
 30
0.0
  3
$MODEL_SPACE
  1

  0
ENDBLK
  5
E
  8
0
  0
BLOCK
 67
     1
  8
0
  2
$PAPER_SPACE
 70
     0
 10
0.0
 20
0.0
 30
0.0
  3
$PAPER_SPACE
  1

  0
ENDBLK
  5
10
 67
     1
  8
0
  0
ENDSEC
  0
SECTION
  2
ENTITIES
  0
LINE
  5
3D
  8
SLD-0_2
  6
CONTINUOUS
 62
     7
 10
-9.4589981600000002
 20
-175.1205748900000003
 30
0.0
 11
-12.4969409900000006
 21
-175.1205748900000003
 31
0.0
  0
LINE
  5
3E
  8
SLD-0_2
  6
CONTINUOUS
 62
     7
 10
-71.4784288799999956
 20
-318.4383549500000186
 30
0.0
 11
-71.4784288799999956
 21
-306.1872779299999934
 31
0.0
  0
LINE
  5
3F
  8
SLD-0_2
  6
CONTINUOUS
 62
     7
 10
27.4735910799999985
 20
-318.4383549500000186
 30
0.0
 11
27.4735910799999985
 21
-330.6874053099999742
 31
0.0
  0
LINE
  5
40
  8
SLD-0_2
  6
CONTINUOUS
 62
     7
 10
118.7983275999998938
 20
-330.6874053099999742
 30
0.0
 11
118.7983275999998938
 21
-318.4383549500000186
 31
0.0
  0
LINE
  5
41
  8
SLD-0_2
  6
CONTINUOUS
 62
     7
 10
161.2991275999999914
 20
-330.6874053099999742
 30
0.0
 11
161.2991275999999914
 21
-318.4383549500000186
 31
0.0
  0
LINE
  5
42
  8
SLD-0_2
  6
CONTINUOUS
 62
     7
 10
106.0507222399999989
 20
-318.4383549500000186
 30
0.0
 11
106.0507222399999989
 21
-306.1872779299999934
 31
0.0
  0
LINE
  5
43
  8
SLD-0_2
  6
CONTINUOUS
 62
     7
 10
191.0482689499999935
 20
-318.4383549500000186
 30
0.0
 11
191.0482689499999935
 21
-306.1872779299999934
 31
0.0
  0
LINE
  5
44
  8
SLD-0_2
  6
CONTINUOUS
 62
     7
 10
200.7477982400000087
 20
-306.1872779299999934
 30
0.0
 11
200.7477982400000087
 21
-318.4383549500000186
 31
0.0
  0
LINE
  5
45
  8
SLD-0_2
  6
CONTINUOUS
 62
     7
 10
208.0477782899999966
 20
-306.1872779299999934
 30
0.0
 11
213.7994005500000014
 21
-306.1872779299999934
 31
0.0
  0
LINE
  5
46
  8
SLD-0_2
  6
CONTINUOUS
 62
     7
 10
-12.4969409900000006
 20
-181.7507483299999933
 30
0.0
 11
-27.4951370900000001
 21
-181.7507483299999933
 31
0.0
  0
LINE
  5
47
  8
SLD-0_2
  6
CONTINUOUS
 62
     7
 10
53.1836263100000011
 20
-164.7684654800000033
 30
0.0
 11
53.1836263100000011
 21
-154.0191333900000075
 31
0.0
  0
LINE
  5
48
  8
SLD-0_2
  6
CONTINUOUS
 62
     7
 10
-50.1256832400000008
 20
-164.7684654800000033
 30
0.0
 11
-50.1256832400000008
 21
-154.0191333900000075
 31
0.0
  0
LINE
  5
49
  8
SLD-0_2
  6
CONTINUOUS
 62
     7
 10
-19.9965456999999986
 20
-154.0191333900000075
 30
0.0
 11
-19.9965456999999986
 21
-143.2687879800000132
 31
0.0
  0
LINE
  5
4A
  8
SLD-0_2
  6
CONTINUOUS
 62
     7
 10
-80.2588740599999966
 20
-154.0191333900000075
 30
0.0
 11
57.4861964500000013
 21
-154.0191333900000075
 31
0.0
  0
LINE
  5
4B
  8
SLD-0_2
  6
CONTINUOUS
 62
     7
 10
144.960304960000002
 20
-164.7684654800000033
 30
0.0
 11
144.960304960000002
 21
-154.0191333900000075
 31
0.0
  0
LINE
  5
4C
  8
SLD-0_2
  6
CONTINUOUS
 62
     7
 10
149.2649017399999991
 20
-154.0191333900000075
 30
0.0
 11
149.2649017399999991
 21
-143.2687879800000132
 31
0.0
  0
LINE
  5
4D
  8
SLD-0_2
  6
CONTINUOUS
 62
     7
 10
-11.0934914399999993
 20
-177.4112303100000076
 30
0.0
 11
-11.0824406799999995
 21
-177.8336535500000082
 31
0.0
  0
LINE
  5
4E
  8
SLD-0_2
  6
CONTINUOUS
 62
     7
 10
223.5198493999999982
 20
-86.2977576899999974
 30
0.0
 11
223.723957299999995
 21
-86.17608946
 31
0.0
  0
LINE
  5
4F
  8
SLD-0_2
  6
CONTINUOUS
 62
     7
 10
221.2755097600000056
 20
-81.8300111700000059
 30
0.0
 11
221.0654489700000056
 21
-81.9420734100000061
 31
0.0
  0
LINE
  5
50
  8
SLD-0_2
  6
CONTINUOUS
 62
     7
 10
-201.2390022399999907
 20
-344.768843870000012
 30
0.0
 11
-201.2390022399999907
 21
-346.768843870000012
 31
0.0
  0
LINE
  5
51
  8
SLD-0_2
  6
CONTINUOUS
 62
     7
 10
73.2484382100000033
 20
-314.4215419399999973
 30
0.0
 11
208.008258689999991
 21
-314.4215419399999973
 31
0.0
  0
LINE
  5
52
  8
SLD-0_2
  6
CONTINUOUS
 62
     7
 10
-41.7272608800000029
 20
-330.6874053099999742
 30
0.0
 11
-41.7272608800000029
 21
-318.4383549500000186
 31
0.0
  0
LINE
  5
53
  8
SLD-0_2
  6
CONTINUOUS
 62
     7
 10
35.97334575
 20
-318.4383549500000186
 30
0.0
 11
35.97334575
 21
-330.6874053099999742
 31
0.0
  0
LINE
  5
54
  8
SLD-0_2
  6
CONTINUOUS
 62
     7
 10
86.0011101799999835
 20
-318.4383549500000186
 30
0.0
 11
86.0011101799999835
 21
-330.6874053099999742
 31
0.0
  0
LINE
  5
55
  8
SLD-0_2
  6
CONTINUOUS
 62
     7
 10
110.3005995700000028
 20
-330.6874053099999742
 30
0.0
 11
110.3005995700000028
 21
-318.4383549500000186
 31
0.0
  0
LINE
  5
56
  8
SLD-0_2
  6
CONTINUOUS
 62
     7
 10
178.3006635899999992
 20
-330.6874053099999742
 30
0.0
 11
178.3006635899999992
 21
-318.4383549500000186
 31
0.0
  0
LINE
  5
57
  8
SLD-0_2
  6
CONTINUOUS
 62
     7
 10
186.7983916100000101
 20
-330.6874053099999742
 30
0.0
 11
186.7983916100000101
 21
-318.4383549500000186
 31
0.0
  0
LINE
  5
58
  8
SLD-0_2
  6
CONTINUOUS
 62
     7
 10
196.4979208999999969
 20
-318.4383549500000186
 30
0.0
 11
196.4979208999999969
 21
-330.6874053099999742
 31
0.0
  0
LINE
  5
59
  8
SLD-0_2
  6
CONTINUOUS
 62
     7
 10
205.0017288699999938
 20
-318.4383549500000186
 30
0.0
 11
205.0017288699999938
 21
-330.6874053099999742
 31
0.0
  0
LINE
  5
5A
  8
SLD-0_2
  6
CONTINUOUS
 62
     7
 10
140.0517675700000098
 20
-318.4383549500000186
 30
0.0
 11
140.0517675700000098
 21
-306.1872779299999934
 31
0.0
  0
LINE
  5
5B
  8
SLD-0_2
  6
CONTINUOUS
 62
     7
 10
77.4993288699999852
 20
-330.6874053099999742
 30
0.0
 11
71.7517599000000104
 21
-330.6874053099999742
 31
0.0
  0
LINE
  5
5C
  8
SLD-0_2
  6
CONTINUOUS
 62
     7
 10
-27.9957187300000001
 20
-154.3008372300000133
 30
0.0
 11
-21.7465547999999984
 21
-154.3008372300000133
 31
0.0
  0
LINE
  5
5D
  8
SLD-0_2
  6
CONTINUOUS
 62
     7
 10
-91.3000432200000063
 20
-333.7699343699999872
 30
0.0
 11
258.7609977600000093
 21
-333.7699343699999872
 31
0.0
  0
LINE
  5
5E
  8
SLD-0_2
  6
CONTINUOUS
 62
     7
 10
61.7907932299999914
 20
-154.0191333900000075
 30
0.0
 11
-75.9532639499999931
 21
-154.0191333900000075
 31
0.0
  0
LINE
  5
5F
  8
SLD-0_2
  6
CONTINUOUS
 62
     7
 10
-54.4323066700000027
 20
-154.0191333900000075
 30
0.0
 11
-54.4323066700000027
 21
-143.2687879800000132
 31
0.0
  0
LINE
  5
60
  8
SLD-0_2
  6
CONTINUOUS
 62
     7
 10
-71.648667169999996
 20
-154.0191333900000075
 30
0.0
 11
-71.648667169999996
 21
-143.2687879800000132
 31
0.0
  0
LINE
  5
61
  8
SLD-0_2
  6
CONTINUOUS
 62
     7
 10
110.5235306699999995
 20
-164.7684654800000033
 30
0.0
 11
110.5235306699999995
 21
-154.0191333900000075
 31
0.0
  0
LINE
  5
62
  8
SLD-0_2
  6
CONTINUOUS
 62
     7
 10
44.4710737699999967
 20
-330.6874053099999742
 30
0.0
 11
44.4710737699999967
 21
-318.4383549500000186
 31
0.0
  0
LINE
  5
63
  8
SLD-0_2
  6
CONTINUOUS
 62
     7
 10
-11.0783151600000007
 20
-178.2624291399999947
 30
0.0
 11
-11.0828483200000001
 21
-178.6884224899999936
 31
0.0
  0
LINE
  5
64
  8
SLD-0_2
  6
CONTINUOUS
 62
     7
 10
223.9149036100000103
 20
-86.036177219999999
 30
0.0
 11
224.0914924699999915
 21
-85.8792168399999838
 31
0.0
  0
LINE
  5
65
  8
SLD-0_2
  6
CONTINUOUS
 62
     7
 10
220.8679213700000048
 20
-82.0729620099999977
 30
0.0
 11
220.6841256499999986
 21
-82.2214782500000041
 31
0.0
  0
LINE
  5
66
  8
SLD-0_2
  6
CONTINUOUS
 62
     7
 10
220.9650436100000093
 20
-86.17608946
 30
0.0
 11
221.1689876400000117
 21
-86.2977576899999974
 31
0.0
  0
LINE
  5
67
  8
SLD-0_2
  6
CONTINUOUS
 62
     7
 10
221.1689876400000117
 20
-86.2977576899999974
 30
0.0
 11
221.3848655099999974
 21
-86.3999860699999971
 31
0.0
  0
LINE
  5
68
  8
SLD-0_2
  6
CONTINUOUS
 62
     7
 10
77.5003421899999836
 20
-326.4213148100000126
 30
0.0
 11
212.2621893200000045
 21
-326.4213148100000126
 31
0.0
  0
LINE
  5
69
  8
SLD-0_2
  6
CONTINUOUS
 62
     7
 10
61.7907932299999914
 20
-143.2687879800000132
 30
0.0
 11
61.7907932299999914
 21
-154.0191333900000075
 31
0.0
  0
LINE
  5
6A
  8
SLD-0_2
  6
CONTINUOUS
 62
     7
 10
-24.7267382200000014
 20
-330.6874053099999742
 30
0.0
 11
-24.7267382200000014
 21
-318.4383549500000186
 31
0.0
  0
LINE
  5
6B
  8
SLD-0_2
  6
CONTINUOUS
 62
     7
 10
44.4731004200000015
 20
-318.4383549500000186
 30
0.0
 11
44.4731004200000015
 21
-330.6874053099999742
 31
0.0
  0
LINE
  5
6C
  8
SLD-0_2
  6
CONTINUOUS
 62
     7
 10
23.2237137400000009
 20
-306.1872779299999934
 30
0.0
 11
23.2237137400000009
 21
-318.4383549500000186
 31
0.0
  0
LINE
  5
6D
  8
SLD-0_2
  6
CONTINUOUS
 62
     7
 10
-74.5275182700000016
 20
-318.4383549500000186
 30
0.0
 11
-74.5275182700000016
 21
-330.6874053099999742
 31
0.0
  0
LINE
  5
6E
  8
SLD-0_2
  6
CONTINUOUS
 62
     7
 10
102.9985928800000039
 20
-318.4383549500000186
 30
0.0
 11
102.9985928800000039
 21
-330.6874053099999742
 31
0.0
  0
LINE
  5
6F
  8
SLD-0_2
  6
CONTINUOUS
 62
     7
 10
98.7487155400000205
 20
-306.1872779299999934
 30
0.0
 11
98.7487155400000205
 21
-318.4383549500000186
 31
0.0
  0
LINE
  5
70
  8
SLD-0_2
  6
CONTINUOUS
 62
     7
 10
123.0502315800000019
 20
-318.4383549500000186
 30
0.0
 11
123.0502315800000019
 21
-306.1872779299999934
 31
0.0
  0
LINE
  5
71
  8
SLD-0_2
  6
CONTINUOUS
 62
     7
 10
165.5490049299999953
 20
-318.4383549500000186
 30
0.0
 11
165.5490049299999953
 21
-306.1872779299999934
 31
0.0
  0
LINE
  5
72
  8
SLD-0_2
  6
CONTINUOUS
 62
     7
 10
-11.9943326999999993
 20
-154.3008372300000133
 30
0.0
 11
-18.2455232800000005
 21
-154.3008372300000133
 31
0.0
  0
LINE
  5
73
  8
SLD-0_2
  6
CONTINUOUS
 62
     7
 10
-25.9944054899999983
 20
-159.2691606900000068
 30
0.0
 11
-27.9957187300000001
 21
-154.3008372300000133
 31
0.0
  0
LINE
  5
74
  8
SLD-0_2
  6
CONTINUOUS
 62
     7
 10
-80.2761005600000033
 20
-318.4383549500000186
 30
0.0
 11
56.0229578000000004
 21
-318.4383549500000186
 31
0.0
  0
LINE
  5
75
  8
SLD-0_2
  6
CONTINUOUS
 62
     7
 10
-11.0977736100000008
 20
-179.1024990200000104
 30
0.0
 11
-11.1248244599999992
 21
-179.4955241399999863
 31
0.0
  0
LINE
  5
76
  8
SLD-0_2
  6
CONTINUOUS
 62
     7
 10
224.2525280300000077
 20
-85.7064041900000007
 30
0.0
 11
224.3968144099999904
 21
-85.5189351300000169
 31
0.0
  0
LINE
  5
77
  8
SLD-0_2
  6
CONTINUOUS
 62
     7
 10
223.1916255499999977
 20
-81.7379739699999845
 30
0.0
 11
222.9598456100000021
 21
-81.6671604999999943
 31
0.0
  0
LINE
  5
78
  8
SLD-0_2
  6
CONTINUOUS
 62
     7
 10
222.9598456100000021
 20
-81.6671604999999943
 30
0.0
 11
222.7190895999999896
 21
-81.6187694799999832
 31
0.0
  0
LINE
  5
79
  8
SLD-0_2
  6
CONTINUOUS
 62
     7
 10
220.5152605099999903
 20
-82.3864234499999952
 30
0.0
 11
220.3625246500000117
 21
-82.5665988999999882
 31
0.0
  0
LINE
  5
7A
  8
SLD-0_2
  6
CONTINUOUS
 62
     7
 10
219.845677749999993
 20
-84.1533044800000027
 30
0.0
 11
219.8643550600000083
 21
-84.4035988800000041
 31
0.0
  0
LINE
  5
7B
  8
SLD-0_2
  6
CONTINUOUS
 62
     7
 10
220.4368015100000093
 20
-85.7064041900000007
 30
0.0
 11
220.5977518400000008
 21
-85.8792168399999838
 31
0.0
  0
LINE
  5
7C
  8
SLD-0_2
  6
CONTINUOUS
 62
     7
 10
222.0921151800000075
 20
-86.5780733600000048
 30
0.0
 11
222.3437414400000023
 21
-86.5905836400000055
 31
0.0
  0
LINE
  5
7D
  8
SLD-0_2
  6
CONTINUOUS
 62
     7
 10
278.7609977600000093
 20
-344.768843870000012
 30
0.0
 11
258.7609977600000093
 21
-344.768843870000012
 31
0.0
  0
LINE
  5
7E
  8
SLD-0_2
  6
CONTINUOUS
 62
     7
 10
73.2484382100000033
 20
-312.4942012899999781
 30
0.0
 11
208.008258689999991
 21
-312.4942012899999781
 31
0.0
  0
LINE
  5
7F
  8
SLD-0_2
  6
CONTINUOUS
 62
     7
 10
-27.4951370900000001
 20
-164.7684538700000019
 30
0.0
 11
-198.7390022399999054
 21
-164.7684538700000019
 31
0.0
  0
LINE
  5
80
  8
SLD-0_2
  6
CONTINUOUS
 62
     7
 10
213.833853529999999
 20
-154.0191333900000075
 30
0.0
 11
209.5292567500000018
 21
-154.0191333900000075
 31
0.0
  0
LINE
  5
81
  8
SLD-0_2
  6
CONTINUOUS
 62
     7
 10
1.9723004200000001
 20
-318.4383549500000186
 30
0.0
 11
1.9723004200000001
 21
-330.6874053099999742
 31
0.0
  0
LINE
  5
82
  8
SLD-0_2
  6
CONTINUOUS
 62
     7
 10
0.7725258000000002
 20
-330.6874053099999742
 30
0.0
 11
0.7725258000000002
 21
-318.4383549500000186
 31
0.0
  0
LINE
  5
83
  8
SLD-0_2
  6
CONTINUOUS
 62
     7
 10
52.9748817299999999
 20
-318.4383549500000186
 30
0.0
 11
52.9748817299999999
 21
-330.6874053099999742
 31
0.0
  0
LINE
  5
84
  8
SLD-0_2
  6
CONTINUOUS
 62
     7
 10
-37.477383549999999
 20
-318.4383549500000186
 30
0.0
 11
-37.477383549999999
 21
-306.1872779299999934
 31
0.0
  0
LINE
  5
85
  8
SLD-0_2
  6
CONTINUOUS
 62
     7
 10
-2.2785902400000002
 20
-306.1872779299999934
 30
0.0
 11
-2.2785902400000002
 21
-318.4383549500000186
 31
0.0
  0
LINE
  5
86
  8
SLD-0_2
  6
CONTINUOUS
 62
     7
 10
6.2221777500000002
 20
-306.1872779299999934
 30
0.0
 11
6.2221777500000002
 21
-318.4383549500000186
 31
0.0
  0
LINE
  5
87
  8
SLD-0_2
  6
CONTINUOUS
 62
     7
 10
48.7209511100000014
 20
-306.1872779299999934
 30
0.0
 11
48.7209511100000014
 21
-318.4383549500000186
 31
0.0
  0
LINE
  5
88
  8
SLD-0_2
  6
CONTINUOUS
 62
     7
 10
145.4993928799999878
 20
-318.4383549500000186
 30
0.0
 11
145.4993928799999878
 21
-330.6874053099999742
 31
0.0
  0
LINE
  5
89
  8
SLD-0_2
  6
CONTINUOUS
 62
     7
 10
115.7502515299999999
 20
-306.1872779299999934
 30
0.0
 11
115.7502515299999999
 21
-318.4383549500000186
 31
0.0
  0
LINE
  5
8A
  8
SLD-0_2
  6
CONTINUOUS
 62
     7
 10
124.2479795600000045
 20
-306.1872779299999934
 30
0.0
 11
124.2479795600000045
 21
-318.4383549500000186
 31
0.0
  0
LINE
  5
8B
  8
SLD-0_2
  6
CONTINUOUS
 62
     7
 10
182.5485142699999983
 20
-318.4383549500000186
 30
0.0
 11
182.5485142699999983
 21
-306.1872779299999934
 31
0.0
  0
LINE
  5
8C
  8
SLD-0_2
  6
CONTINUOUS
 62
     7
 10
10.1356318000000005
 20
-164.7684654800000033
 30
0.0
 11
10.1356318000000005
 21
-154.0191333900000075
 31
0.0
  0
LINE
  5
8D
  8
SLD-0_2
  6
CONTINUOUS
 62
     7
 10
188.0062728199999924
 20
-164.7684654800000033
 30
0.0
 11
188.0062728199999924
 21
-154.0191333900000075
 31
0.0
  0
LINE
  5
8E
  8
SLD-0_2
  6
CONTINUOUS
 62
     7
 10
-80.2761005600000033
 20
-306.1872779299999934
 30
0.0
 11
-80.2761005600000033
 21
-318.4383549500000186
 31
0.0
  0
LINE
  5
8F
  8
SLD-0_2
  6
CONTINUOUS
 62
     7
 10
-11.1657343000000004
 20
-179.8583632700000123
 30
0.0
 11
-11.2222365899999996
 21
-180.181881820000001
 31
0.0
  0
LINE
  5
90
  8
SLD-0_2
  6
CONTINUOUS
 62
     7
 10
-12.2130691500000008
 20
-180.9866835200000139
 30
0.0
 11
-12.2142238299999999
 21
-180.9806227299999932
 31
0.0
  0
LINE
  5
91
  8
SLD-0_2
  6
CONTINUOUS
 62
     7
 10
222.3437414400000023
 20
-86.5905836400000055
 30
0.0
 11
222.5957192900000052
 21
-86.5780733600000048
 31
0.0
  0
LINE
  5
92
  8
SLD-0_2
  6
CONTINUOUS
 62
     7
 10
224.5231557600000087
 20
-85.3180055199999856
 30
0.0
 11
224.6303562100000022
 21
-85.1048112299999957
 31
0.0
  0
LINE
  5
93
  8
SLD-0_2
  6
CONTINUOUS
 62
     7
 10
224.7526517500000125
 20
-83.4156293199999936
 30
0.0
 11
224.6764048899999864
 21
-83.1865198200000009
 31
0.0
  0
LINE
  5
94
  8
SLD-0_2
  6
CONTINUOUS
 62
     7
 10
223.8211503900000139
 20
-82.0729620099999977
 30
0.0
 11
223.6234738100000072
 21
-81.9420734100000061
 31
0.0
  0
LINE
  5
95
  8
SLD-0_2
  6
CONTINUOUS
 62
     7
 10
221.9689042800000038
 20
-81.6187694799999832
 30
0.0
 11
221.7284361199999978
 21
-81.6671604999999943
 31
0.0
  0
LINE
  5
96
  8
SLD-0_2
  6
CONTINUOUS
 62
     7
 10
221.4969050400000015
 20
-81.7379739699999845
 30
0.0
 11
221.2755097600000056
 21
-81.8300111700000059
 31
0.0
  0
LINE
  5
97
  8
SLD-0_2
  6
CONTINUOUS
 62
     7
 10
220.2271167700000092
 20
-82.7608059100000162
 30
0.0
 11
220.1102355600000067
 21
-82.9678457800000047
 31
0.0
  0
LINE
  5
98
  8
SLD-0_2
  6
CONTINUOUS
 62
     7
 10
220.0591170499999976
 20
-85.1048112299999957
 30
0.0
 11
220.1662854100000004
 21
-85.3180055199999856
 31
0.0
  0
LINE
  5
99
  8
SLD-0_2
  6
CONTINUOUS
 62
     7
 10
276.2609977600000093
 20
-69.7684538700000019
 30
0.0
 11
-198.7390022399999054
 21
-69.7684538700000019
 31
0.0
  0
LINE
  5
9A
  8
SLD-0_2
  6
CONTINUOUS
 62
     7
 10
-66.0267502699999937
 20
-318.4383549500000186
 30
0.0
 11
-66.0267502699999937
 21
-330.6874053099999742
 31
0.0
  0
LINE
  5
9B
  8
SLD-0_2
  6
CONTINUOUS
 62
     7
 10
-49.0262276099999923
 20
-318.4383549500000186
 30
0.0
 11
-49.0262276099999923
 21
-330.6874053099999742
 31
0.0
  0
LINE
  5
9C
  8
SLD-0_2
  6
CONTINUOUS
 62
     7
 10
17.7740617800000003
 20
-330.6874053099999742
 30
0.0
 11
17.7740617800000003
 21
-318.4383549500000186
 31
0.0
  0
LINE
  5
9D
  8
SLD-0_2
  6
CONTINUOUS
 62
     7
 10
-62.9786742000000075
 20
-318.4383549500000186
 30
0.0
 11
-62.9786742000000075
 21
-306.1872779299999934
 31
0.0
  0
LINE
  5
9E
  8
SLD-0_2
  6
CONTINUOUS
 62
     7
 10
-20.4788875300000015
 20
-318.4383549500000186
 30
0.0
 11
-20.4788875300000015
 21
-306.1872779299999934
 31
0.0
  0
LINE
  5
9F
  8
SLD-0_2
  6
CONTINUOUS
 62
     7
 10
56.0229578000000004
 20
-318.4383549500000186
 30
0.0
 11
56.0229578000000004
 21
-306.1872779299999934
 31
0.0
  0
LINE
  5
A0
  8
SLD-0_2
  6
CONTINUOUS
 62
     7
 10
60.272835139999998
 20
-318.4383549500000186
 30
0.0
 11
60.272835139999998
 21
-330.6874053099999742
 31
0.0
  0
LINE
  5
A1
  8
SLD-0_2
  6
CONTINUOUS
 62
     7
 10
153.9991475500000035
 20
-318.4383549500000186
 30
0.0
 11
153.9991475500000035
 21
-330.6874053099999742
 31
0.0
  0
LINE
  5
A2
  8
SLD-0_2
  6
CONTINUOUS
 62
     7
 10
-27.4951370900000001
 20
-181.7507483299999933
 30
0.0
 11
-27.4951370900000001
 21
-159.2691606900000068
 31
0.0
  0
LINE
  5
A3
  8
SLD-0_2
  6
CONTINUOUS
 62
     7
 10
-7.080728699999999
 20
-164.7684654800000033
 30
0.0
 11
-7.080728699999999
 21
-154.0191333900000075
 31
0.0
  0
LINE
  5
A4
  8
SLD-0_2
  6
CONTINUOUS
 62
     7
 10
170.7878856700000085
 20
-164.7684654800000033
 30
0.0
 11
170.7878856700000085
 21
-154.0191333900000075
 31
0.0
  0
LINE
  5
A5
  8
SLD-0_2
  6
CONTINUOUS
 62
     7
 10
192.3088429599999927
 20
-154.0191333900000075
 30
0.0
 11
192.3088429599999927
 21
-143.2687879800000132
 31
0.0
  0
LINE
  5
A6
  8
SLD-0_2
  6
CONTINUOUS
 62
     7
 10
213.7994005500000014
 20
-330.6874053099999742
 30
0.0
 11
213.7994005500000014
 21
-318.4383549500000186
 31
0.0
  0
LINE
  5
A7
  8
SLD-0_2
  6
CONTINUOUS
 62
     7
 10
-11.1722781799999993
 20
-175.9677525399999922
 30
0.0
 11
-11.1508608200000001
 21
-176.2734205300000099
 31
0.0
  0
LINE
  5
A8
  8
SLD-0_2
  6
CONTINUOUS
 62
     7
 10
-11.1508608200000001
 20
-176.2734205300000099
 30
0.0
 11
-11.1294349500000003
 21
-176.6219792199999858
 31
0.0
  0
LINE
  5
A9
  8
SLD-0_2
  6
CONTINUOUS
 62
     7
 10
-11.2960647499999993
 20
-180.4569452099999864
 30
0.0
 11
-11.3889522200000002
 21
-180.674418849999995
 31
0.0
  0
LINE
  5
AA
  8
SLD-0_2
  6
CONTINUOUS
 62
     7
 10
-11.9745304000000008
 20
-181.216381130000002
 30
0.0
 11
-12.0243926600000002
 21
-181.2165881699999943
 31
0.0
  0
LINE
  5
AB
  8
SLD-0_2
  6
CONTINUOUS
 62
     7
 10
-12.1917829100000006
 20
-181.0578560300000106
 30
0.0
 11
-12.20234445
 21
-181.0277676000000042
 31
0.0
  0
LINE
  5
AC
  8
SLD-0_2
  6
CONTINUOUS
 62
     7
 10
223.3037757900000031
 20
-86.3999860699999971
 30
0.0
 11
223.5198493999999982
 21
-86.2977576899999974
 31
0.0
  0
LINE
  5
AD
  8
SLD-0_2
  6
CONTINUOUS
 62
     7
 10
223.723957299999995
 20
-86.17608946
 30
0.0
 11
223.9149036100000103
 21
-86.036177219999999
 31
0.0
  0
LINE
  5
AE
  8
SLD-0_2
  6
CONTINUOUS
 62
     7
 10
224.7172199000000035
 20
-84.8805481199999861
 30
0.0
 11
224.7825509600000089
 21
-84.646412049999995
 31
0.0
  0
LINE
  5
AF
  8
SLD-0_2
  6
CONTINUOUS
 62
     7
 10
224.3268396100000075
 20
-82.5665988999999882
 30
0.0
 11
224.1740291600000035
 21
-82.3864234499999952
 31
0.0
  0
LINE
  5
B0
  8
SLD-0_2
  6
CONTINUOUS
 62
     7
 10
220.6841256499999986
 20
-82.2214782500000041
 30
0.0
 11
220.5152605099999903
 21
-82.3864234499999952
 31
0.0
  0
LINE
  5
B1
  8
SLD-0_2
  6
CONTINUOUS
 62
     7
 10
-12.4969409900000006
 20
-164.66307986999999
 30
0.0
 11
-9.4589981600000002
 21
-164.66307986999999
 31
0.0
  0
LINE
  5
B2
  8
SLD-0_2
  6
CONTINUOUS
 62
     7
 10
-67.2265248899999932
 20
-330.6874053099999742
 30
0.0
 11
-67.2265248899999932
 21
-318.4383549500000186
 31
0.0
  0
LINE
  5
B3
  8
SLD-0_2
  6
CONTINUOUS
 62
     7
 10
43.2733257999999879
 20
-330.6874053099999742
 30
0.0
 11
43.2733257999999879
 21
-318.4383549500000186
 31
0.0
  0
LINE
  5
B4
  8
SLD-0_2
  6
CONTINUOUS
 62
     7
 10
80.5514582299999944
 20
-318.4383549500000186
 30
0.0
 11
80.5514582299999944
 21
-306.1872779299999934
 31
0.0
  0
LINE
  5
B5
  8
SLD-0_2
  6
CONTINUOUS
 62
     7
 10
162.4989022199999908
 20
-318.4383549500000186
 30
0.0
 11
162.4989022199999908
 21
-330.6874053099999742
 31
0.0
  0
LINE
  5
B6
  8
SLD-0_2
  6
CONTINUOUS
 62
     7
 10
149.7472435699999949
 20
-306.1872779299999934
 30
0.0
 11
149.7472435699999949
 21
-318.4383549500000186
 31
0.0
  0
LINE
  5
B7
  8
SLD-0_2
  6
CONTINUOUS
 62
     7
 10
-89.3007566200000014
 20
-330.76847115999999
 30
0.0
 11
256.7460627400000135
 21
-330.76847115999999
 31
0.0
  0
LINE
  5
B8
  8
SLD-0_2
  6
CONTINUOUS
 62
     7
 10
-41.5175029899999899
 20
-164.7684654800000033
 30
0.0
 11
-41.5175029899999899
 21
-154.0191333900000075
 31
0.0
  0
LINE
  5
B9
  8
SLD-0_2
  6
CONTINUOUS
 62
     7
 10
153.5694985300000042
 20
-164.7684654800000033
 30
0.0
 11
153.5694985300000042
 21
-154.0191333900000075
 31
0.0
  0
LINE
  5
BA
  8
SLD-0_2
  6
CONTINUOUS
 62
     7
 10
175.0924824600000136
 20
-154.0191333900000075
 30
0.0
 11
175.0924824600000136
 21
-143.2687879800000132
 31
0.0
  0
LINE
  5
BB
  8
SLD-0_2
  6
CONTINUOUS
 62
     7
 10
-78.7794222499999961
 20
-314.4215419399999973
 30
0.0
 11
55.9803982299999987
 21
-314.4215419399999973
 31
0.0
  0
LINE
  5
BC
  8
SLD-0_2
  6
CONTINUOUS
 62
     7
 10
-78.7773955999999913
 20
-306.1872779299999934
 30
0.0
 11
-78.7773955999999913
 21
-318.4383549500000186
 31
0.0
  0
LINE
  5
BD
  8
SLD-0_2
  6
CONTINUOUS
 62
     7
 10
73.2494515300000018
 20
-306.1872779299999934
 30
0.0
 11
73.2494515300000018
 21
-318.4383549500000186
 31
0.0
  0
LINE
  5
BE
  8
SLD-0_2
  6
CONTINUOUS
 62
     7
 10
71.7517599000000104
 20
-318.4383549500000186
 30
0.0
 11
208.0477782899999966
 21
-318.4383549500000186
 31
0.0
  0
LINE
  5
BF
  8
SLD-0_2
  6
CONTINUOUS
 62
     7
 10
-11.2191448400000002
 20
-175.399438559999993
 30
0.0
 11
-11.20815363
 21
-175.5216269699999998
 31
0.0
  0
LINE
  5
C0
  8
SLD-0_2
  6
CONTINUOUS
 62
     7
 10
-11.0824406799999995
 20
-177.8336535500000082
 30
0.0
 11
-11.0783151600000007
 21
-178.2624291399999947
 31
0.0
  0
LINE
  5
C1
  8
SLD-0_2
  6
CONTINUOUS
 62
     7
 10
-11.0828483200000001
 20
-178.6884224899999936
 30
0.0
 11
-11.0977736100000008
 21
-179.1024990200000104
 31
0.0
  0
LINE
  5
C2
  8
SLD-0_2
  6
CONTINUOUS
 62
     7
 10
-11.4984599000000003
 20
-180.8306286799999896
 30
0.0
 11
-11.6013429200000004
 21
-180.9530329199999983
 31
0.0
  0
LINE
  5
C3
  8
SLD-0_2
  6
CONTINUOUS
 62
     7
 10
-12.1333525400000006
 20
-181.1566977599999859
 30
0.0
 11
-12.1577827099999993
 21
-181.1247885399999973
 31
0.0
  0
LINE
  5
C4
  8
SLD-0_2
  6
CONTINUOUS
 62
     7
 10
224.3968144099999904
 20
-85.5189351300000169
 30
0.0
 11
224.5231557600000087
 21
-85.3180055199999856
 31
0.0
  0
LINE
  5
C5
  8
SLD-0_2
  6
CONTINUOUS
 62
     7
 10
219.9368479400000069
 20
-83.4156293199999936
 30
0.0
 11
219.8827389299999879
 21
-83.6539755899999875
 31
0.0
  0
LINE
  5
C6
  8
SLD-0_2
  6
CONTINUOUS
 62
     7
 10
221.3848655099999974
 20
-86.3999860699999971
 30
0.0
 11
221.6114785199999915
 21
-86.4815787099999937
 31
0.0
  0
LINE
  5
C7
  8
SLD-0_2
  6
CONTINUOUS
 62
     7
 10
-75.9532639499999931
 20
-154.0191333900000075
 30
0.0
 11
-75.9532639499999931
 21
-164.7684654800000033
 31
0.0
  0
LINE
  5
C8
  8
SLD-0_2
  6
CONTINUOUS
 62
     7
 10
-32.0277315900000019
 20
-318.4383549500000186
 30
0.0
 11
-32.0277315900000019
 21
-330.6874053099999742
 31
0.0
  0
LINE
  5
C9
  8
SLD-0_2
  6
CONTINUOUS
 62
     7
 10
-44.7783769199999995
 20
-306.1872779299999934
 30
0.0
 11
-44.7783769199999995
 21
-318.4383549500000186
 31
0.0
  0
LINE
  5
CA
  8
SLD-0_2
  6
CONTINUOUS
 62
     7
 10
22.0219124700000002
 20
-318.4383549500000186
 30
0.0
 11
22.0219124700000002
 21
-306.1872779299999934
 31
0.0
  0
LINE
  5
CB
  8
SLD-0_2
  6
CONTINUOUS
 62
     7
 10
84.7993089099999935
 20
-330.6874053099999742
 30
0.0
 11
84.7993089099999935
 21
-318.4383549500000186
 31
0.0
  0
LINE
  5
CC
  8
SLD-0_2
  6
CONTINUOUS
 62
     7
 10
171.0006835400000114
 20
-318.4383549500000186
 30
0.0
 11
171.0006835400000114
 21
-330.6874053099999742
 31
0.0
  0
LINE
  5
CD
  8
SLD-0_2
  6
CONTINUOUS
 62
     7
 10
158.2510515300000122
 20
-306.1872779299999934
 30
0.0
 11
158.2510515300000122
 21
-318.4383549500000186
 31
0.0
  0
LINE
  5
CE
  8
SLD-0_2
  6
CONTINUOUS
 62
     7
 10
278.7609977600000093
 20
-346.768843870000012
 30
0.0
 11
-201.2390022399999907
 21
-346.768843870000012
 31
0.0
  0
LINE
  5
CF
  8
SLD-0_2
  6
CONTINUOUS
 62
     7
 10
-58.7338634899999974
 20
-164.7684654800000033
 30
0.0
 11
-58.7338634899999974
 21
-154.0191333900000075
 31
0.0
  0
LINE
  5
D0
  8
SLD-0_2
  6
CONTINUOUS
 62
     7
 10
136.3511113799999919
 20
-164.7684654800000033
 30
0.0
 11
136.3511113799999919
 21
-154.0191333900000075
 31
0.0
  0
LINE
  5
D1
  8
SLD-0_2
  6
CONTINUOUS
 62
     7
 10
157.8740953100000013
 20
-154.0191333900000075
 30
0.0
 11
157.8740953100000013
 21
-143.2687879800000132
 31
0.0
  0
LINE
  5
D2
  8
SLD-0_2
  6
CONTINUOUS
 62
     7
 10
89.0025733800000154
 20
-154.0191333900000075
 30
0.0
 11
89.0025733800000154
 21
-143.2687879800000132
 31
0.0
  0
LINE
  5
D3
  8
SLD-0_2
  6
CONTINUOUS
 62
     7
 10
61.7705267699999894
 20
-330.6874053099999742
 30
0.0
 11
61.7705267699999894
 21
-318.4383549500000186
 31
0.0
  0
LINE
  5
D4
  8
SLD-0_2
  6
CONTINUOUS
 62
     7
 10
52.972855090000003
 20
-330.6874053099999742
 30
0.0
 11
52.972855090000003
 21
-318.4383549500000186
 31
0.0
  0
LINE
  5
D5
  8
SLD-0_2
  6
CONTINUOUS
 62
     7
 10
56.0229578000000004
 20
-306.1872779299999934
 30
0.0
 11
-80.2761005600000033
 21
-306.1872779299999934
 31
0.0
  0
LINE
  5
D6
  8
SLD-0_2
  6
CONTINUOUS
 62
     7
 10
141.2474889000000076
 20
-318.4383549500000186
 30
0.0
 11
141.2474889000000076
 21
-306.1872779299999934
 31
0.0
  0
LINE
  5
D7
  8
SLD-0_2
  6
CONTINUOUS
 62
     7
 10
-11.2222365899999996
 20
-180.181881820000001
 30
0.0
 11
-11.2960647499999993
 21
-180.4569452099999864
 31
0.0
  0
LINE
  5
D8
  8
SLD-0_2
  6
CONTINUOUS
 62
     7
 10
224.8438317600000005
 20
-84.1533044800000027
 30
0.0
 11
224.8375579400000106
 21
-83.9003599299999934
 31
0.0
  0
LINE
  5
D9
  8
SLD-0_2
  6
CONTINUOUS
 62
     7
 10
222.7190895999999896
 20
-81.6187694799999832
 30
0.0
 11
222.4705534
 21
-81.5939995899999957
 31
0.0
  0
LINE
  5
DA
  8
SLD-0_2
  6
CONTINUOUS
 62
     7
 10
219.8519513800000027
 20
-83.9003599299999934
 30
0.0
 11
219.845677749999993
 21
-84.1533044800000027
 31
0.0
  0
LINE
  5
DB
  8
SLD-0_2
  6
CONTINUOUS
 62
     7
 10
57.4861964500000013
 20
-154.0191333900000075
 30
0.0
 11
57.4861964500000013
 21
-143.2687879800000132
 31
0.0
  0
LINE
  5
DC
  8
SLD-0_2
  6
CONTINUOUS
 62
     7
 10
-15.0272089199999996
 20
-318.4383549500000186
 30
0.0
 11
-15.0272089199999996
 21
-330.6874053099999742
 31
0.0
  0
LINE
  5
DD
  8
SLD-0_2
  6
CONTINUOUS
 62
     7
 10
-6.5264409299999988
 20
-318.4383549500000186
 30
0.0
 11
-6.5264409299999988
 21
-330.6874053099999742
 31
0.0
  0
LINE
  5
DE
  8
SLD-0_2
  6
CONTINUOUS
 62
     7
 10
10.4720550899999996
 20
-318.4383549500000186
 30
0.0
 11
10.4720550899999996
 21
-330.6874053099999742
 31
0.0
  0
LINE
  5
DF
  8
SLD-0_2
  6
CONTINUOUS
 62
     7
 10
-36.2776089199999987
 20
-306.1872779299999934
 30
0.0
 11
-36.2776089199999987
 21
-318.4383549500000186
 31
0.0
  0
LINE
  5
E0
  8
SLD-0_2
  6
CONTINUOUS
 62
     7
 10
30.5216671400000017
 20
-318.4383549500000186
 30
0.0
 11
30.5216671400000017
 21
-306.1872779299999934
 31
0.0
  0
LINE
  5
E1
  8
SLD-0_2
  6
CONTINUOUS
 62
     7
 10
93.2990635900000029
 20
-330.6874053099999742
 30
0.0
 11
93.2990635900000029
 21
-318.4383549500000186
 31
0.0
  0
LINE
  5
E2
  8
SLD-0_2
  6
CONTINUOUS
 62
     7
 10
128.4978568900000084
 20
-318.4383549500000186
 30
0.0
 11
128.4978568900000084
 21
-330.6874053099999742
 31
0.0
  0
LINE
  5
E3
  8
SLD-0_2
  6
CONTINUOUS
 62
     7
 10
127.3001089100000058
 20
-330.6874053099999742
 30
0.0
 11
127.3001089100000058
 21
-318.4383549500000186
 31
0.0
  0
LINE
  5
E4
  8
SLD-0_2
  6
CONTINUOUS
 62
     7
 10
179.4984115599999939
 20
-318.4383549500000186
 30
0.0
 11
179.4984115599999939
 21
-330.6874053099999742
 31
0.0
  0
LINE
  5
E5
  8
SLD-0_2
  6
CONTINUOUS
 62
     7
 10
166.7487795600000027
 20
-306.1872779299999934
 30
0.0
 11
166.7487795600000027
 21
-318.4383549500000186
 31
0.0
  0
LINE
  5
E6
  8
SLD-0_2
  6
CONTINUOUS
 62
     7
 10
44.5724060900000012
 20
-164.7684654800000033
 30
0.0
 11
44.5724060900000012
 21
-154.0191333900000075
 31
0.0
  0
LINE
  5
E7
  8
SLD-0_2
  6
CONTINUOUS
 62
     7
 10
35.963212519999999
 20
-164.7684654800000033
 30
0.0
 11
35.963212519999999
 21
-154.0191333900000075
 31
0.0
  0
LINE
  5
E8
  8
SLD-0_2
  6
CONTINUOUS
 62
     7
 10
61.7907932299999914
 20
-164.7684654800000033
 30
0.0
 11
61.7907932299999914
 21
-154.0191333900000075
 31
0.0
  0
LINE
  5
E9
  8
SLD-0_2
  6
CONTINUOUS
 62
     7
 10
57.4861964500000013
 20
-143.2687879800000132
 30
0.0
 11
-80.2588740599999966
 21
-143.2687879800000132
 31
0.0
  0
LINE
  5
EA
  8
SLD-0_2
  6
CONTINUOUS
 62
     7
 10
-80.2588740599999966
 20
-143.2687879800000132
 30
0.0
 11
-80.2588740599999966
 21
-154.0191333900000075
 31
0.0
  0
LINE
  5
EB
  8
SLD-0_2
  6
CONTINUOUS
 62
     7
 10
119.1347508900000065
 20
-164.7684654800000033
 30
0.0
 11
119.1347508900000065
 21
-154.0191333900000075
 31
0.0
  0
LINE
  5
EC
  8
SLD-0_2
  6
CONTINUOUS
 62
     7
 10
200.9200631799999996
 20
-154.0191333900000075
 30
0.0
 11
200.9200631799999996
 21
-143.2687879800000132
 31
0.0
  0
LINE
  5
ED
  8
SLD-0_2
  6
CONTINUOUS
 62
     7
 10
140.6557081699999969
 20
-154.0191333900000075
 30
0.0
 11
140.6557081699999969
 21
-143.2687879800000132
 31
0.0
  0
LINE
  5
EE
  8
SLD-0_2
  6
CONTINUOUS
 62
     7
 10
209.527230099999997
 20
-143.2687879800000132
 30
0.0
 11
71.7821595900000062
 21
-143.2687879800000132
 31
0.0
  0
LINE
  5
EF
  8
SLD-0_2
  6
CONTINUOUS
 62
     7
 10
213.7994005500000014
 20
-318.4383549500000186
 30
0.0
 11
77.4993288699999852
 21
-318.4383549500000186
 31
0.0
  0
LINE
  5
F0
  8
SLD-0_2
  6
CONTINUOUS
 62
     7
 10
-11.7773761599999993
 20
-181.1207045200000039
 30
0.0
 11
-11.8515178999999993
 21
-181.1709067300000129
 31
0.0
  0
LINE
  5
F1
  8
SLD-0_2
  6
CONTINUOUS
 62
     7
 10
222.5957192900000052
 20
-86.5780733600000048
 30
0.0
 11
222.8405148699999927
 21
-86.5413397599999996
 31
0.0
  0
LINE
  5
F2
  8
SLD-0_2
  6
CONTINUOUS
 62
     7
 10
224.8067680499999881
 20
-83.6539755899999875
 30
0.0
 11
224.7526517500000125
 21
-83.4156293199999936
 31
0.0
  0
LINE
  5
F3
  8
SLD-0_2
  6
CONTINUOUS
 62
     7
 10
219.8643550600000083
 20
-84.4035988800000041
 30
0.0
 11
219.9069531700000084
 21
-84.646412049999995
 31
0.0
  0
LINE
  5
F4
  8
SLD-0_2
  6
CONTINUOUS
 62
     7
 10
209.5292567500000018
 20
-154.0191333900000075
 30
0.0
 11
209.5292567500000018
 21
-143.2687879800000132
 31
0.0
  0
LINE
  5
F5
  8
SLD-0_2
  6
CONTINUOUS
 62
     7
 10
-27.7768409299999988
 20
-306.1872779299999934
 30
0.0
 11
-27.7768409299999988
 21
-318.4383549500000186
 31
0.0
  0
LINE
  5
F6
  8
SLD-0_2
  6
CONTINUOUS
 62
     7
 10
39.0214218099999997
 20
-318.4383549500000186
 30
0.0
 11
39.0214218099999997
 21
-306.1872779299999934
 31
0.0
  0
LINE
  5
F7
  8
SLD-0_2
  6
CONTINUOUS
 62
     7
 10
101.7988182600000044
 20
-330.6874053099999742
 30
0.0
 11
101.7988182600000044
 21
-318.4383549500000186
 31
0.0
  0
LINE
  5
F8
  8
SLD-0_2
  6
CONTINUOUS
 62
     7
 10
144.2996182599999884
 20
-330.6874053099999742
 30
0.0
 11
144.2996182599999884
 21
-318.4383549500000186
 31
0.0
  0
LINE
  5
F9
  8
SLD-0_2
  6
CONTINUOUS
 62
     7
 10
152.7993729300000041
 20
-330.6874053099999742
 30
0.0
 11
152.7993729300000041
 21
-318.4383549500000186
 31
0.0
  0
LINE
  5
FA
  8
SLD-0_2
  6
CONTINUOUS
 62
     7
 10
175.24853422999999
 20
-306.1872779299999934
 30
0.0
 11
175.24853422999999
 21
-318.4383549500000186
 31
0.0
  0
LINE
  5
FB
  8
SLD-0_2
  6
CONTINUOUS
 62
     7
 10
-21.7465547999999984
 20
-154.3008372300000133
 30
0.0
 11
-21.7465547999999984
 21
-159.2691606900000068
 31
0.0
  0
LINE
  5
FC
  8
SLD-0_2
  6
CONTINUOUS
 62
     7
 10
-27.4951370900000001
 20
-159.2691606900000068
 30
0.0
 11
-12.4969409900000006
 21
-159.2691606900000068
 31
0.0
  0
LINE
  5
FD
  8
SLD-0_2
  6
CONTINUOUS
 62
     7
 10
1.5274515500000001
 20
-164.7684654800000033
 30
0.0
 11
1.5274515500000001
 21
-154.0191333900000075
 31
0.0
  0
LINE
  5
FE
  8
SLD-0_2
  6
CONTINUOUS
 62
     7
 10
-32.9072960900000027
 20
-164.7684654800000033
 30
0.0
 11
-32.9072960900000027
 21
-154.0191333900000075
 31
0.0
  0
LINE
  5
FF
  8
SLD-0_2
  6
CONTINUOUS
 62
     7
 10
-2.7761319100000001
 20
-154.0191333900000075
 30
0.0
 11
-2.7761319100000001
 21
-143.2687879800000132
 31
0.0
  0
LINE
  5
100
  8
SLD-0_2
  6
CONTINUOUS
 62
     7
 10
-63.0384602700000016
 20
-154.0191333900000075
 30
0.0
 11
-63.0384602700000016
 21
-143.2687879800000132
 31
0.0
  0
LINE
  5
101
  8
SLD-0_2
  6
CONTINUOUS
 62
     7
 10
179.3970792499999902
 20
-164.7684654800000033
 30
0.0
 11
179.3970792499999902
 21
-154.0191333900000075
 31
0.0
  0
LINE
  5
102
  8
SLD-0_2
  6
CONTINUOUS
 62
     7
 10
162.1786920999998927
 20
-164.7684654800000033
 30
0.0
 11
162.1786920999998927
 21
-154.0191333900000075
 31
0.0
  0
LINE
  5
103
  8
SLD-0_2
  6
CONTINUOUS
 62
     7
 10
101.9143370999999973
 20
-164.7684654800000033
 30
0.0
 11
101.9143370999999973
 21
-154.0191333900000075
 31
0.0
  0
LINE
  5
104
  8
SLD-0_2
  6
CONTINUOUS
 62
     7
 10
166.4832888900000114
 20
-154.0191333900000075
 30
0.0
 11
166.4832888900000114
 21
-143.2687879800000132
 31
0.0
  0
LINE
  5
105
  8
SLD-0_2
  6
CONTINUOUS
 62
     7
 10
166.7467529099999979
 20
-318.4383549500000186
 30
0.0
 11
166.7467529099999979
 21
-306.1872779299999934
 31
0.0
  0
LINE
  5
106
  8
SLD-0_2
  6
CONTINUOUS
 62
     7
 10
-11.1294349500000003
 20
-176.6219792199999858
 30
0.0
 11
-11.1097340100000004
 21
-177.0042939999999874
 31
0.0
  0
LINE
  5
107
  8
SLD-0_2
  6
CONTINUOUS
 62
     7
 10
-11.9170707300000007
 20
-181.2019764599999974
 30
0.0
 11
-11.9745304000000008
 21
-181.216381130000002
 31
0.0
  0
LINE
  5
108
  8
SLD-0_2
  6
CONTINUOUS
 62
     7
 10
224.6764048899999864
 20
-83.1865198200000009
 30
0.0
 11
224.5792233399999986
 21
-82.9678457800000047
 31
0.0
  0
LINE
  5
109
  8
SLD-0_2
  6
CONTINUOUS
 62
     7
 10
219.9722734000000059
 20
-84.8805481199999861
 30
0.0
 11
220.0591170499999976
 21
-85.1048112299999957
 31
0.0
  0
LINE
  5
10A
  8
SLD-0_2
  6
CONTINUOUS
 62
     7
 10
-58.7277835499999981
 20
-330.6874053099999742
 30
0.0
 11
-58.7277835499999981
 21
-318.4383549500000186
 31
0.0
  0
LINE
  5
10B
  8
SLD-0_2
  6
CONTINUOUS
 62
     7
 10
-50.2280288799999965
 20
-330.6874053099999742
 30
0.0
 11
-50.2280288799999965
 21
-318.4383549500000186
 31
0.0
  0
LINE
  5
10C
  8
SLD-0_2
  6
CONTINUOUS
 62
     7
 10
-19.2770862600000008
 20
-306.1872779299999934
 30
0.0
 11
-19.2770862600000008
 21
-318.4383549500000186
 31
0.0
  0
LINE
  5
10D
  8
SLD-0_2
  6
CONTINUOUS
 62
     7
 10
47.5232031299999989
 20
-318.4383549500000186
 30
0.0
 11
47.5232031299999989
 21
-306.1872779299999934
 31
0.0
  0
LINE
  5
10E
  8
SLD-0_2
  6
CONTINUOUS
 62
     7
 10
-74.5275182700000016
 20
-330.6874053099999742
 30
0.0
 11
-80.2761005600000033
 21
-330.6874053099999742
 31
0.0
  0
LINE
  5
10F
  8
SLD-0_2
  6
CONTINUOUS
 62
     7
 10
-80.2761005600000033
 20
-330.6874053099999742
 30
0.0
 11
-80.2761005600000033
 21
-318.4383549500000186
 31
0.0
  0
LINE
  5
110
  8
SLD-0_2
  6
CONTINUOUS
 62
     7
 10
81.7492061999999891
 20
-306.1872779299999934
 30
0.0
 11
81.7492061999999891
 21
-318.4383549500000186
 31
0.0
  0
LINE
  5
111
  8
SLD-0_2
  6
CONTINUOUS
 62
     7
 10
169.7988822700000071
 20
-330.6874053099999742
 30
0.0
 11
169.7988822700000071
 21
-318.4383549500000186
 31
0.0
  0
LINE
  5
112
  8
SLD-0_2
  6
CONTINUOUS
 62
     7
 10
132.7497608699999887
 20
-306.1872779299999934
 30
0.0
 11
132.7497608699999887
 21
-318.4383549500000186
 31
0.0
  0
LINE
  5
113
  8
SLD-0_2
  6
CONTINUOUS
 62
     7
 10
131.5499862499999892
 20
-318.4383549500000186
 30
0.0
 11
131.5499862499999892
 21
-306.1872779299999934
 31
0.0
  0
LINE
  5
114
  8
SLD-0_2
  6
CONTINUOUS
 62
     7
 10
183.7523421900000073
 20
-306.1872779299999934
 30
0.0
 11
183.7523421900000073
 21
-318.4383549500000186
 31
0.0
  0
LINE
  5
115
  8
SLD-0_2
  6
CONTINUOUS
 62
     7
 10
208.0477782899999966
 20
-318.4383549500000186
 30
0.0
 11
208.0477782899999966
 21
-306.1872779299999934
 31
0.0
  0
LINE
  5
116
  8
SLD-0_2
  6
CONTINUOUS
 62
     7
 10
-18.2455232800000005
 20
-154.3008372300000133
 30
0.0
 11
-18.2455232800000005
 21
-159.2691606900000068
 31
0.0
  0
LINE
  5
117
  8
SLD-0_2
  6
CONTINUOUS
 62
     7
 10
-89.3007566200000014
 20
-333.7699343699999872
 30
0.0
 11
-89.3007566200000014
 21
-330.76847115999999
 31
0.0
  0
LINE
  5
118
  8
SLD-0_2
  6
CONTINUOUS
 62
     7
 10
256.7460627400000135
 20
-330.76847115999999
 30
0.0
 11
256.7460627400000135
 21
-333.7699343699999872
 31
0.0
  0
LINE
  5
119
  8
SLD-0_2
  6
CONTINUOUS
 62
     7
 10
-67.3450837000000035
 20
-164.7684654800000033
 30
0.0
 11
-67.3450837000000035
 21
-154.0191333900000075
 31
0.0
  0
LINE
  5
11A
  8
SLD-0_2
  6
CONTINUOUS
 62
     7
 10
48.8770028699999983
 20
-154.0191333900000075
 30
0.0
 11
48.8770028699999983
 21
-143.2687879800000132
 31
0.0
  0
LINE
  5
11B
  8
SLD-0_2
  6
CONTINUOUS
 62
     7
 10
-37.2139195199999975
 20
-154.0191333900000075
 30
0.0
 11
-37.2139195199999975
 21
-143.2687879800000132
 31
0.0
  0
LINE
  5
11C
  8
SLD-0_2
  6
CONTINUOUS
 62
     7
 10
127.7419178100000039
 20
-164.7684654800000033
 30
0.0
 11
127.7419178100000039
 21
-154.0191333900000075
 31
0.0
  0
LINE
  5
11D
  8
SLD-0_2
  6
CONTINUOUS
 62
     7
 10
114.8281274499999967
 20
-154.0191333900000075
 30
0.0
 11
114.8281274499999967
 21
-143.2687879800000132
 31
0.0
  0
LINE
  5
11E
  8
SLD-0_2
  6
CONTINUOUS
 62
     7
 10
-74.5275182700000016
 20
-324.7452782999999954
 30
0.0
 11
60.234328859999998
 21
-324.7452782999999954
 31
0.0
  0
LINE
  5
11F
  8
SLD-0_2
  6
CONTINUOUS
 62
     7
 10
192.248043569999993
 20
-318.4383549500000186
 30
0.0
 11
192.248043569999993
 21
-306.1872779299999934
 31
0.0
  0
LINE
  5
120
  8
SLD-0_2
  6
CONTINUOUS
 62
     7
 10
-12.0243926600000002
 20
-181.2165881699999943
 30
0.0
 11
-12.0671532599999995
 21
-181.2050649999999905
 31
0.0
  0
LINE
  5
121
  8
SLD-0_2
  6
CONTINUOUS
 62
     7
 10
224.4623029599999882
 20
-82.7608059100000162
 30
0.0
 11
224.3268396100000075
 21
-82.5665988999999882
 31
0.0
  0
LINE
  5
122
  8
SLD-0_2
  6
CONTINUOUS
 62
     7
 10
220.1662854100000004
 20
-85.3180055199999856
 30
0.0
 11
220.2925797999999986
 21
-85.5189351300000169
 31
0.0
  0
LINE
  5
123
  8
SLD-0_2
  6
CONTINUOUS
 62
     7
 10
258.7609977600000093
 20
-164.7684538700000019
 30
0.0
 11
258.7609977600000093
 21
-69.7684538700000019
 31
0.0
  0
LINE
  5
124
  8
SLD-0_2
  6
CONTINUOUS
 62
     7
 10
-91.3000432200000063
 20
-333.7699343699999872
 30
0.0
 11
-91.3000432200000063
 21
-346.768843870000012
 31
0.0
  0
LINE
  5
125
  8
SLD-0_2
  6
CONTINUOUS
 62
     7
 10
-80.2588740599999966
 20
-164.7684654800000033
 30
0.0
 11
-80.2588740599999966
 21
-154.0191333900000075
 31
0.0
  0
LINE
  5
126
  8
SLD-0_2
  6
CONTINUOUS
 62
     7
 10
-33.22649289000001
 20
-330.6874053099999742
 30
0.0
 11
-33.22649289000001
 21
-318.4383549500000186
 31
0.0
  0
LINE
  5
127
  8
SLD-0_2
  6
CONTINUOUS
 62
     7
 10
-10.7783449099999995
 20
-306.1872779299999934
 30
0.0
 11
-10.7783449099999995
 21
-318.4383549500000186
 31
0.0
  0
LINE
  5
128
  8
SLD-0_2
  6
CONTINUOUS
 62
     7
 10
5.0203764800000004
 20
-318.4383549500000186
 30
0.0
 11
5.0203764800000004
 21
-306.1872779299999934
 31
0.0
  0
LINE
  5
129
  8
SLD-0_2
  6
CONTINUOUS
 62
     7
 10
14.7219324199999999
 20
-306.1872779299999934
 30
0.0
 11
14.7219324199999999
 21
-318.4383549500000186
 31
0.0
  0
LINE
  5
12A
  8
SLD-0_2
  6
CONTINUOUS
 62
     7
 10
61.7705267699999894
 20
-306.1872779299999934
 30
0.0
 11
61.7705267699999894
 21
-318.4383549500000186
 31
0.0
  0
LINE
  5
12B
  8
SLD-0_2
  6
CONTINUOUS
 62
     7
 10
94.4988382100000024
 20
-318.4383549500000186
 30
0.0
 11
94.4988382100000024
 21
-330.6874053099999742
 31
0.0
  0
LINE
  5
12C
  8
SLD-0_2
  6
CONTINUOUS
 62
     7
 10
90.2509875199999954
 20
-306.1872779299999934
 30
0.0
 11
90.2509875199999954
 21
-318.4383549500000186
 31
0.0
  0
LINE
  5
12D
  8
SLD-0_2
  6
CONTINUOUS
 62
     7
 10
114.5504769100000004
 20
-318.4383549500000186
 30
0.0
 11
114.5504769100000004
 21
-306.1872779299999934
 31
0.0
  0
LINE
  5
12E
  8
SLD-0_2
  6
CONTINUOUS
 62
     7
 10
148.5494955899999923
 20
-318.4383549500000186
 30
0.0
 11
148.5494955899999923
 21
-306.1872779299999934
 31
0.0
  0
LINE
  5
12F
  8
SLD-0_2
  6
CONTINUOUS
 62
     7
 10
157.049250260000008
 20
-318.4383549500000186
 30
0.0
 11
157.049250260000008
 21
-306.1872779299999934
 31
0.0
  0
LINE
  5
130
  8
SLD-0_2
  6
CONTINUOUS
 62
     7
 10
192.2500702099999899
 20
-306.1872779299999934
 30
0.0
 11
192.2500702099999899
 21
-318.4383549500000186
 31
0.0
  0
LINE
  5
131
  8
SLD-0_2
  6
CONTINUOUS
 62
     7
 10
212.2976556200000005
 20
-318.4383549500000186
 30
0.0
 11
212.2976556200000005
 21
-330.6874053099999742
 31
0.0
  0
LINE
  5
132
  8
SLD-0_2
  6
CONTINUOUS
 62
     7
 10
213.8318268900000021
 20
-164.7684654800000033
 30
0.0
 11
213.8318268900000021
 21
-154.0191333900000075
 31
0.0
  0
LINE
  5
133
  8
SLD-0_2
  6
CONTINUOUS
 62
     7
 10
97.6097403100000065
 20
-154.0191333900000075
 30
0.0
 11
97.6097403100000065
 21
-143.2687879800000132
 31
0.0
  0
LINE
  5
134
  8
SLD-0_2
  6
CONTINUOUS
 62
     7
 10
208.0477782899999966
 20
-306.1872779299999934
 30
0.0
 11
71.7517599000000104
 21
-306.1872779299999934
 31
0.0
  0
LINE
  5
135
  8
SLD-0_2
  6
CONTINUOUS
 62
     7
 10
-12.1033079699999995
 20
-181.1842790599999944
 30
0.0
 11
-12.1333525400000006
 21
-181.1566977599999859
 31
0.0
  0
LINE
  5
136
  8
SLD-0_2
  6
CONTINUOUS
 62
     7
 10
224.1740291600000035
 20
-82.3864234499999952
 30
0.0
 11
224.0050674599999923
 21
-82.2214782500000041
 31
0.0
  0
LINE
  5
137
  8
SLD-0_2
  6
CONTINUOUS
 62
     7
 10
220.1102355600000067
 20
-82.9678457800000047
 30
0.0
 11
220.0130797200000075
 21
-83.1865198200000009
 31
0.0
  0
LINE
  5
138
  8
SLD-0_2
  6
CONTINUOUS
 62
     7
 10
220.0130797200000075
 20
-83.1865198200000009
 30
0.0
 11
219.9368479400000069
 21
-83.4156293199999936
 31
0.0
  0
LINE
  5
139
  8
SLD-0_2
  6
CONTINUOUS
 62
     7
 10
219.8827389299999879
 20
-83.6539755899999875
 30
0.0
 11
219.8519513800000027
 21
-83.9003599299999934
 31
0.0
  0
LINE
  5
13A
  8
SLD-0_2
  6
CONTINUOUS
 62
     7
 10
221.6114785199999915
 20
-86.4815787099999937
 30
0.0
 11
221.8476279799999986
 21
-86.5413397599999996
 31
0.0
  0
LINE
  5
13B
  8
SLD-0_2
  6
CONTINUOUS
 62
     7
 10
-201.2390022399999907
 20
-162.2684538700000019
 30
0.0
 11
-201.2390022399999907
 21
-148.2684538700000019
 31
0.0
  0
LINE
  5
13C
  8
SLD-0_2
  6
CONTINUOUS
 62
     7
 10
-198.7390022399999054
 20
-164.7684538700000019
 30
0.0
 11
-201.2390022399999907
 21
-162.2684538700000019
 31
0.0
  0
LINE
  5
13D
  8
SLD-0_2
  6
CONTINUOUS
 62
     7
 10
76.0887830300000019
 20
-154.0191333900000075
 30
0.0
 11
76.0887830300000019
 21
-164.7684654800000033
 31
0.0
  0
LINE
  5
13E
  8
SLD-0_2
  6
CONTINUOUS
 62
     7
 10
209.5292567500000018
 20
-143.2687879800000132
 30
0.0
 11
213.833853529999999
 21
-143.2687879800000132
 31
0.0
  0
LINE
  5
13F
  8
SLD-0_2
  6
CONTINUOUS
 62
     7
 10
-16.2259702200000007
 20
-330.6874053099999742
 30
0.0
 11
-16.2259702200000007
 21
-318.4383549500000186
 31
0.0
  0
LINE
  5
140
  8
SLD-0_2
  6
CONTINUOUS
 62
     7
 10
-53.278131590000001
 20
-306.1872779299999934
 30
0.0
 11
-53.278131590000001
 21
-318.4383549500000186
 31
0.0
  0
LINE
  5
141
  8
SLD-0_2
  6
CONTINUOUS
 62
     7
 10
-54.4779062100000004
 20
-318.4383549500000186
 30
0.0
 11
-54.4779062100000004
 21
-306.1872779299999934
 31
0.0
  0
LINE
  5
142
  8
SLD-0_2
  6
CONTINUOUS
 62
     7
 10
-45.9771382200000005
 20
-318.4383549500000186
 30
0.0
 11
-45.9771382200000005
 21
-306.1872779299999934
 31
0.0
  0
LINE
  5
143
  8
SLD-0_2
  6
CONTINUOUS
 62
     7
 10
31.7234684099999988
 20
-306.1872779299999934
 30
0.0
 11
31.7234684099999988
 21
-318.4383549500000186
 31
0.0
  0
LINE
  5
144
  8
SLD-0_2
  6
CONTINUOUS
 62
     7
 10
40.2211964399999928
 20
-306.1872779299999934
 30
0.0
 11
40.2211964399999928
 21
-318.4383549500000186
 31
0.0
  0
LINE
  5
145
  8
SLD-0_2
  6
CONTINUOUS
 62
     7
 10
111.4983475500000054
 20
-318.4383549500000186
 30
0.0
 11
111.4983475500000054
 21
-330.6874053099999742
 31
0.0
  0
LINE
  5
146
  8
SLD-0_2
  6
CONTINUOUS
 62
     7
 10
119.9981022200000069
 20
-318.4383549500000186
 30
0.0
 11
119.9981022200000069
 21
-330.6874053099999742
 31
0.0
  0
LINE
  5
147
  8
SLD-0_2
  6
CONTINUOUS
 62
     7
 10
136.9996382100000005
 20
-318.4383549500000186
 30
0.0
 11
136.9996382100000005
 21
-330.6874053099999742
 31
0.0
  0
LINE
  5
148
  8
SLD-0_2
  6
CONTINUOUS
 62
     7
 10
188.000192879999986
 20
-318.4383549500000186
 30
0.0
 11
188.000192879999986
 21
-330.6874053099999742
 31
0.0
  0
LINE
  5
149
  8
SLD-0_2
  6
CONTINUOUS
 62
     7
 10
107.2504968599999984
 20
-306.1872779299999934
 30
0.0
 11
107.2504968599999984
 21
-318.4383549500000186
 31
0.0
  0
LINE
  5
14A
  8
SLD-0_2
  6
CONTINUOUS
 62
     7
 10
174.048759600000011
 20
-318.4383549500000186
 30
0.0
 11
174.048759600000011
 21
-306.1872779299999934
 31
0.0
  0
LINE
  5
14B
  8
SLD-0_2
  6
CONTINUOUS
 62
     7
 10
27.3540189399999996
 20
-164.7684654800000033
 30
0.0
 11
27.3540189399999996
 21
-154.0191333900000075
 31
0.0
  0
LINE
  5
14C
  8
SLD-0_2
  6
CONTINUOUS
 62
     7
 10
23.0514487999999993
 20
-154.0191333900000075
 30
0.0
 11
23.0514487999999993
 21
-143.2687879800000132
 31
0.0
  0
LINE
  5
14D
  8
SLD-0_2
  6
CONTINUOUS
 62
     7
 10
205.222633309999992
 20
-164.7684654800000033
 30
0.0
 11
205.222633309999992
 21
-154.0191333900000075
 31
0.0
  0
LINE
  5
14E
  8
SLD-0_2
  6
CONTINUOUS
 62
     7
 10
80.393379809999999
 20
-154.0191333900000075
 30
0.0
 11
80.393379809999999
 21
-143.2687879800000132
 31
0.0
  0
LINE
  5
14F
  8
SLD-0_2
  6
CONTINUOUS
 62
     7
 10
-12.1577827099999993
 20
-181.1247885399999973
 30
0.0
 11
-12.1770942499999997
 21
-181.091018819999988
 31
0.0
  0
LINE
  5
150
  8
SLD-0_2
  6
CONTINUOUS
 62
     7
 10
224.7825509600000089
 20
-84.646412049999995
 30
0.0
 11
224.8251535400000023
 21
-84.4035988800000041
 31
0.0
  0
LINE
  5
151
  8
SLD-0_2
  6
CONTINUOUS
 62
     7
 10
224.8251535400000023
 20
-84.4035988800000041
 30
0.0
 11
224.8438317600000005
 21
-84.1533044800000027
 31
0.0
  0
LINE
  5
152
  8
SLD-0_2
  6
CONTINUOUS
 62
     7
 10
224.8375579400000106
 20
-83.9003599299999934
 30
0.0
 11
224.8067680499999881
 21
-83.6539755899999875
 31
0.0
  0
LINE
  5
153
  8
SLD-0_2
  6
CONTINUOUS
 62
     7
 10
222.4705534
 20
-81.5939995899999957
 30
0.0
 11
222.2171108500000116
 21
-81.5939995899999957
 31
0.0
  0
LINE
  5
154
  8
SLD-0_2
  6
CONTINUOUS
 62
     7
 10
219.9069531700000084
 20
-84.646412049999995
 30
0.0
 11
219.9722734000000059
 21
-84.8805481199999861
 31
0.0
  0
LINE
  5
155
  8
SLD-0_2
  6
CONTINUOUS
 62
     7
 10
220.774232110000014
 20
-86.036177219999999
 30
0.0
 11
220.9650436100000093
 21
-86.17608946
 31
0.0
  0
LINE
  5
156
  8
SLD-0_2
  6
CONTINUOUS
 62
     7
 10
258.7609977600000093
 20
-333.7699343699999872
 30
0.0
 11
258.7609977600000093
 21
-346.768843870000012
 31
0.0
  0
LINE
  5
157
  8
SLD-0_2
  6
CONTINUOUS
 62
     7
 10
77.5003421899999836
 20
-324.7452782999999954
 30
0.0
 11
212.2621893200000045
 21
-324.7452782999999954
 31
0.0
  0
LINE
  5
158
  8
SLD-0_2
  6
CONTINUOUS
 62
     7
 10
-70.2786542500000024
 20
-306.1872779299999934
 30
0.0
 11
-70.2786542500000024
 21
-318.4383549500000186
 31
0.0
  0
LINE
  5
159
  8
SLD-0_2
  6
CONTINUOUS
 62
     7
 10
9.2722804700000001
 20
-330.6874053099999742
 30
0.0
 11
9.2722804700000001
 21
-318.4383549500000186
 31
0.0
  0
LINE
  5
15A
  8
SLD-0_2
  6
CONTINUOUS
 62
     7
 10
-61.7788995800000009
 20
-306.1872779299999934
 30
0.0
 11
-61.7788995800000009
 21
-318.4383549500000186
 31
0.0
  0
LINE
  5
15B
  8
SLD-0_2
  6
CONTINUOUS
 62
     7
 10
-28.9766155500000018
 20
-318.4383549500000186
 30
0.0
 11
-28.9766155500000018
 21
-306.1872779299999934
 31
0.0
  0
LINE
  5
15C
  8
SLD-0_2
  6
CONTINUOUS
 62
     7
 10
56.0229578000000004
 20
-306.1872779299999934
 30
0.0
 11
61.7705267699999894
 21
-306.1872779299999934
 31
0.0
  0
LINE
  5
15D
  8
SLD-0_2
  6
CONTINUOUS
 62
     7
 10
199.5480236200000093
 20
-318.4383549500000186
 30
0.0
 11
199.5480236200000093
 21
-306.1872779299999934
 31
0.0
  0
LINE
  5
15E
  8
SLD-0_2
  6
CONTINUOUS
 62
     7
 10
-12.4969409900000006
 20
-159.2691606900000068
 30
0.0
 11
-12.4969409900000006
 21
-181.7507483299999933
 31
0.0
  0
LINE
  5
15F
  8
SLD-0_2
  6
CONTINUOUS
 62
     7
 10
5.8300216899999988
 20
-154.0191333900000075
 30
0.0
 11
5.8300216899999988
 21
-143.2687879800000132
 31
0.0
  0
LINE
  5
160
  8
SLD-0_2
  6
CONTINUOUS
 62
     7
 10
209.527230099999997
 20
-154.0191333900000075
 30
0.0
 11
209.527230099999997
 21
-143.2687879800000132
 31
0.0
  0
LINE
  5
161
  8
SLD-0_2
  6
CONTINUOUS
 62
     7
 10
-11.6013429200000004
 20
-180.9530329199999983
 30
0.0
 11
-11.6941497499999993
 21
-181.048902389999995
 31
0.0
  0
LINE
  5
162
  8
SLD-0_2
  6
CONTINUOUS
 62
     7
 10
-11.6941497499999993
 20
-181.048902389999995
 30
0.0
 11
-11.7773761599999993
 21
-181.1207045200000039
 31
0.0
  0
LINE
  5
163
  8
SLD-0_2
  6
CONTINUOUS
 62
     7
 10
-11.8515178999999993
 20
-181.1709067300000129
 30
0.0
 11
-11.9170707300000007
 21
-181.2019764599999974
 31
0.0
  0
LINE
  5
164
  8
SLD-0_2
  6
CONTINUOUS
 62
     7
 10
222.8405148699999927
 20
-86.5413397599999996
 30
0.0
 11
223.0769323300000053
 21
-86.4815787099999937
 31
0.0
  0
LINE
  5
165
  8
SLD-0_2
  6
CONTINUOUS
 62
     7
 10
224.5792233399999986
 20
-82.9678457800000047
 30
0.0
 11
224.4623029599999882
 21
-82.7608059100000162
 31
0.0
  0
LINE
  5
166
  8
SLD-0_2
  6
CONTINUOUS
 62
     7
 10
223.4132335699999885
 20
-81.8300111700000059
 30
0.0
 11
223.1916255499999977
 21
-81.7379739699999845
 31
0.0
  0
LINE
  5
167
  8
SLD-0_2
  6
CONTINUOUS
 62
     7
 10
221.0654489700000056
 20
-81.9420734100000061
 30
0.0
 11
220.8679213700000048
 21
-82.0729620099999977
 31
0.0
  0
LINE
  5
168
  8
SLD-0_2
  6
CONTINUOUS
 62
     7
 10
220.2925797999999986
 20
-85.5189351300000169
 30
0.0
 11
220.4368015100000093
 21
-85.7064041900000007
 31
0.0
  0
LINE
  5
169
  8
SLD-0_2
  6
CONTINUOUS
 62
     7
 10
220.5977518400000008
 20
-85.8792168399999838
 30
0.0
 11
220.774232110000014
 21
-86.036177219999999
 31
0.0
  0
LINE
  5
16A
  8
SLD-0_2
  6
CONTINUOUS
 62
     7
 10
-9.4589981600000002
 20
-164.66307986999999
 30
0.0
 11
-9.4589981600000002
 21
-175.1205748900000003
 31
0.0
  0
LINE
  5
16B
  8
SLD-0_2
  6
CONTINUOUS
 62
     7
 10
-7.7282422000000004
 20
-330.6874053099999742
 30
0.0
 11
-7.7282422000000004
 21
-318.4383549500000186
 31
0.0
  0
LINE
  5
16C
  8
SLD-0_2
  6
CONTINUOUS
 62
     7
 10
26.2738164500000018
 20
-330.6874053099999742
 30
0.0
 11
26.2738164500000018
 21
-318.4383549500000186
 31
0.0
  0
LINE
  5
16D
  8
SLD-0_2
  6
CONTINUOUS
 62
     7
 10
34.7735711199999997
 20
-330.6874053099999742
 30
0.0
 11
34.7735711199999997
 21
-318.4383549500000186
 31
0.0
  0
LINE
  5
16E
  8
SLD-0_2
  6
CONTINUOUS
 62
     7
 10
-11.9781195300000007
 20
-318.4383549500000186
 30
0.0
 11
-11.9781195300000007
 21
-306.1872779299999934
 31
0.0
  0
LINE
  5
16F
  8
SLD-0_2
  6
CONTINUOUS
 62
     7
 10
-3.477351539999999
 20
-318.4383549500000186
 30
0.0
 11
-3.477351539999999
 21
-306.1872779299999934
 31
0.0
  0
LINE
  5
170
  8
SLD-0_2
  6
CONTINUOUS
 62
     7
 10
195.3001729300000022
 20
-330.6874053099999742
 30
0.0
 11
195.3001729300000022
 21
-318.4383549500000186
 31
0.0
  0
LINE
  5
171
  8
SLD-0_2
  6
CONTINUOUS
 62
     7
 10
141.2515421900000092
 20
-306.1872779299999934
 30
0.0
 11
141.2515421900000092
 21
-318.4383549500000186
 31
0.0
  0
LINE
  5
172
  8
SLD-0_2
  6
CONTINUOUS
 62
     7
 10
213.7994005500000014
 20
-306.1872779299999934
 30
0.0
 11
213.7994005500000014
 21
-318.4383549500000186
 31
0.0
  0
LINE
  5
173
  8
SLD-0_2
  6
CONTINUOUS
 62
     7
 10
-11.3863388099999998
 20
-154.0191333900000075
 30
0.0
 11
-11.3863388099999998
 21
-143.2687879800000132
 31
0.0
  0
LINE
  5
174
  8
SLD-0_2
  6
CONTINUOUS
 62
     7
 10
71.7821595900000062
 20
-143.2687879800000132
 30
0.0
 11
71.7821595900000062
 21
-154.0191333900000075
 31
0.0
  0
LINE
  5
175
  8
SLD-0_2
  6
CONTINUOUS
 62
     7
 10
149.7492702099999917
 20
-318.4383549500000186
 30
0.0
 11
149.7492702099999917
 21
-306.1872779299999934
 31
0.0
  0
LINE
  5
176
  8
SLD-0_2
  6
CONTINUOUS
 62
     7
 10
158.2490248800000074
 20
-318.4383549500000186
 30
0.0
 11
158.2490248800000074
 21
-306.1872779299999934
 31
0.0
  0
LINE
  5
177
  8
SLD-0_2
  6
CONTINUOUS
 62
     7
 10
183.7503155400000026
 20
-318.4383549500000186
 30
0.0
 11
183.7503155400000026
 21
-306.1872779299999934
 31
0.0
  0
LINE
  5
178
  8
SLD-0_2
  6
CONTINUOUS
 62
     7
 10
-11.1097340100000004
 20
-177.0042939999999874
 30
0.0
 11
-11.0934914399999993
 21
-177.4112303100000076
 31
0.0
  0
LINE
  5
179
  8
SLD-0_2
  6
CONTINUOUS
 62
     7
 10
-12.0671532599999995
 20
-181.2050649999999905
 30
0.0
 11
-12.1033079699999995
 21
-181.1842790599999944
 31
0.0
  0
LINE
  5
17A
  8
SLD-0_2
  6
CONTINUOUS
 62
     7
 10
-12.2092746099999996
 20
-181.0032209500000135
 30
0.0
 11
-12.2130691500000008
 21
-180.9866835200000139
 31
0.0
  0
LINE
  5
17B
  8
SLD-0_2
  6
CONTINUOUS
 62
     7
 10
224.0914924699999915
 20
-85.8792168399999838
 30
0.0
 11
224.2525280300000077
 21
-85.7064041900000007
 31
0.0
  0
LINE
  5
17C
  8
SLD-0_2
  6
CONTINUOUS
 62
     7
 10
224.0050674599999923
 20
-82.2214782500000041
 30
0.0
 11
223.8211503900000139
 21
-82.0729620099999977
 31
0.0
  0
LINE
  5
17D
  8
SLD-0_2
  6
CONTINUOUS
 62
     7
 10
223.6234738100000072
 20
-81.9420734100000061
 30
0.0
 11
223.4132335699999885
 21
-81.8300111700000059
 31
0.0
  0
LINE
  5
17E
  8
SLD-0_2
  6
CONTINUOUS
 62
     7
 10
220.3625246500000117
 20
-82.5665988999999882
 30
0.0
 11
220.2271167700000092
 21
-82.7608059100000162
 31
0.0
  0
LINE
  5
17F
  8
SLD-0_2
  6
CONTINUOUS
 62
     7
 10
57.4861964500000013
 20
-143.2687879800000132
 30
0.0
 11
61.7907932299999914
 21
-143.2687879800000132
 31
0.0
  0
LINE
  5
180
  8
SLD-0_2
  6
CONTINUOUS
 62
     7
 10
-40.5254596099999915
 20
-318.4383549500000186
 30
0.0
 11
-40.5254596099999915
 21
-330.6874053099999742
 31
0.0
  0
LINE
  5
181
  8
SLD-0_2
  6
CONTINUOUS
 62
     7
 10
51.7730804699999965
 20
-330.6874053099999742
 30
0.0
 11
51.7730804699999965
 21
-318.4383549500000186
 31
0.0
  0
LINE
  5
182
  8
SLD-0_2
  6
CONTINUOUS
 62
     7
 10
13.52013116
 20
-318.4383549500000186
 30
0.0
 11
13.52013116
 21
-306.1872779299999934
 31
0.0
  0
LINE
  5
183
  8
SLD-0_2
  6
CONTINUOUS
 62
     7
 10
203.7999275999999895
 20
-330.6874053099999742
 30
0.0
 11
203.7999275999999895
 21
-318.4383549500000186
 31
0.0
  0
LINE
  5
184
  8
SLD-0_2
  6
CONTINUOUS
 62
     7
 10
77.4993288699999852
 20
-318.4383549500000186
 30
0.0
 11
77.4993288699999852
 21
-330.6874053099999742
 31
0.0
  0
LINE
  5
185
  8
SLD-0_2
  6
CONTINUOUS
 62
     7
 10
-28.6037126300000004
 20
-154.0191333900000075
 30
0.0
 11
-28.6037126300000004
 21
-143.2687879800000132
 31
0.0
  0
LINE
  5
186
  8
SLD-0_2
  6
CONTINUOUS
 62
     7
 10
132.0465145999999947
 20
-154.0191333900000075
 30
0.0
 11
132.0465145999999947
 21
-143.2687879800000132
 31
0.0
  0
LINE
  5
187
  8
SLD-0_2
  6
CONTINUOUS
 62
     7
 10
123.4393476700000036
 20
-154.0191333900000075
 30
0.0
 11
123.4393476700000036
 21
-143.2687879800000132
 31
0.0
  0
LINE
  5
188
  8
SLD-0_2
  6
CONTINUOUS
 62
     7
 10
106.2189338799999945
 20
-154.0191333900000075
 30
0.0
 11
106.2189338799999945
 21
-143.2687879800000132
 31
0.0
  0
LINE
  5
189
  8
SLD-0_2
  6
CONTINUOUS
 62
     7
 10
-74.5275182700000016
 20
-326.4213148100000126
 30
0.0
 11
60.234328859999998
 21
-326.4213148100000126
 31
0.0
  0
LINE
  5
18A
  8
SLD-0_2
  6
CONTINUOUS
 62
     7
 10
71.7517599000000104
 20
-306.1872779299999934
 30
0.0
 11
71.7517599000000104
 21
-318.4383549500000186
 31
0.0
  0
LINE
  5
18B
  8
SLD-0_2
  6
CONTINUOUS
 62
     7
 10
-11.1919535999999997
 20
-175.7141098300000124
 30
0.0
 11
-11.1722781799999993
 21
-175.9677525399999922
 31
0.0
  0
LINE
  5
18C
  8
SLD-0_2
  6
CONTINUOUS
 62
     7
 10
-11.1248244599999992
 20
-179.4955241399999863
 30
0.0
 11
-11.1657343000000004
 21
-179.8583632700000123
 31
0.0
  0
LINE
  5
18D
  8
SLD-0_2
  6
CONTINUOUS
 62
     7
 10
-12.1770942499999997
 20
-181.091018819999988
 30
0.0
 11
-12.1917829100000006
 21
-181.0578560300000106
 31
0.0
  0
LINE
  5
18E
  8
SLD-0_2
  6
CONTINUOUS
 62
     7
 10
-12.20234445
 20
-181.0277676000000042
 30
0.0
 11
-12.2092746099999996
 21
-181.0032209500000135
 31
0.0
  0
LINE
  5
18F
  8
SLD-0_2
  6
CONTINUOUS
 62
     7
 10
224.6303562100000022
 20
-85.1048112299999957
 30
0.0
 11
224.7172199000000035
 21
-84.8805481199999861
 31
0.0
  0
LINE
  5
190
  8
SLD-0_2
  6
CONTINUOUS
 62
     7
 10
221.8476279799999986
 20
-86.5413397599999996
 30
0.0
 11
222.0921151800000075
 21
-86.5780733600000048
 31
0.0
  0
LINE
  5
191
  8
SLD-0_2
  6
CONTINUOUS
 62
     7
 10
-23.5269635900000011
 20
-318.4383549500000186
 30
0.0
 11
-23.5269635900000011
 21
-330.6874053099999742
 31
0.0
  0
LINE
  5
192
  8
SLD-0_2
  6
CONTINUOUS
 62
     7
 10
89.0491862500000053
 20
-318.4383549500000186
 30
0.0
 11
89.0491862500000053
 21
-306.1872779299999934
 31
0.0
  0
LINE
  5
193
  8
SLD-0_2
  6
CONTINUOUS
 62
     7
 10
71.7517599000000104
 20
-330.6874053099999742
 30
0.0
 11
71.7517599000000104
 21
-318.4383549500000186
 31
0.0
  0
LINE
  5
194
  8
SLD-0_2
  6
CONTINUOUS
 62
     7
 10
-45.8220997700000012
 20
-154.0191333900000075
 30
0.0
 11
-45.8220997700000012
 21
-143.2687879800000132
 31
0.0
  0
LINE
  5
195
  8
SLD-0_2
  6
CONTINUOUS
 62
     7
 10
93.3071701700000062
 20
-164.7684654800000033
 30
0.0
 11
93.3071701700000062
 21
-154.0191333900000075
 31
0.0
  0
LINE
  5
196
  8
SLD-0_2
  6
CONTINUOUS
 62
     7
 10
84.6959499499999851
 20
-164.7684654800000033
 30
0.0
 11
84.6959499499999851
 21
-154.0191333900000075
 31
0.0
  0
LINE
  5
197
  8
SLD-0_2
  6
CONTINUOUS
 62
     7
 10
213.8318268900000021
 20
-154.0191333900000075
 30
0.0
 11
76.0887830300000019
 21
-154.0191333900000075
 31
0.0
  0
LINE
  5
198
  8
SLD-0_2
  6
CONTINUOUS
 62
     7
 10
71.7821595900000062
 20
-154.0191333900000075
 30
0.0
 11
209.527230099999997
 21
-154.0191333900000075
 31
0.0
  0
LINE
  5
199
  8
SLD-0_2
  6
CONTINUOUS
 62
     7
 10
-78.7794222499999961
 20
-312.4942012899999781
 30
0.0
 11
55.9803982299999987
 21
-312.4942012899999781
 31
0.0
  0
LINE
  5
19A
  8
SLD-0_2
  6
CONTINUOUS
 62
     7
 10
77.4993288699999852
 20
-330.6874053099999742
 30
0.0
 11
213.7994005500000014
 21
-330.6874053099999742
 31
0.0
  0
LINE
  5
19B
  8
SLD-0_2
  6
CONTINUOUS
 62
     7
 10
-11.2231937800000008
 20
-175.3566791799999862
 30
0.0
 11
-11.2191448400000002
 21
-175.399438559999993
 31
0.0
  0
LINE
  5
19C
  8
SLD-0_2
  6
CONTINUOUS
 62
     7
 10
-11.20815363
 20
-175.5216269699999998
 30
0.0
 11
-11.1919535999999997
 21
-175.7141098300000124
 31
0.0
  0
LINE
  5
19D
  8
SLD-0_2
  6
CONTINUOUS
 62
     7
 10
-11.3889522200000002
 20
-180.674418849999995
 30
0.0
 11
-11.4984599000000003
 21
-180.8306286799999896
 31
0.0
  0
LINE
  5
19E
  8
SLD-0_2
  6
CONTINUOUS
 62
     7
 10
222.2171108500000116
 20
-81.5939995899999957
 30
0.0
 11
221.9689042800000038
 21
-81.6187694799999832
 31
0.0
  0
LINE
  5
19F
  8
SLD-0_2
  6
CONTINUOUS
 62
     7
 10
-91.3000432200000063
 20
-344.768843870000012
 30
0.0
 11
-201.2390022399999907
 21
-344.768843870000012
 31
0.0
  0
LINE
  5
1A0
  8
SLD-0_2
  6
CONTINUOUS
 62
     7
 10
71.7821595900000062
 20
-164.7684654800000033
 30
0.0
 11
71.7821595900000062
 21
-154.0191333900000075
 31
0.0
  0
LINE
  5
1A1
  8
SLD-0_2
  6
CONTINUOUS
 62
     7
 10
213.833853529999999
 20
-143.2687879800000132
 30
0.0
 11
213.833853529999999
 21
-154.0191333900000075
 31
0.0
  0
LINE
  5
1A2
  8
SLD-0_2
  6
CONTINUOUS
 62
     7
 10
-57.5259822800000009
 20
-318.4383549500000186
 30
0.0
 11
-57.5259822800000009
 21
-330.6874053099999742
 31
0.0
  0
LINE
  5
1A3
  8
SLD-0_2
  6
CONTINUOUS
 62
     7
 10
18.9718097599999993
 20
-318.4383549500000186
 30
0.0
 11
18.9718097599999993
 21
-330.6874053099999742
 31
0.0
  0
LINE
  5
1A4
  8
SLD-0_2
  6
CONTINUOUS
 62
     7
 10
135.7998635900000011
 20
-330.6874053099999742
 30
0.0
 11
135.7998635900000011
 21
-318.4383549500000186
 31
0.0
  0
LINE
  5
1A5
  8
SLD-0_2
  6
CONTINUOUS
 62
     7
 10
97.5509675699999974
 20
-318.4383549500000186
 30
0.0
 11
97.5509675699999974
 21
-306.1872779299999934
 31
0.0
  0
LINE
  5
1A6
  8
SLD-0_2
  6
CONTINUOUS
 62
     7
 10
-13.9956459500000001
 20
-159.2691606900000068
 30
0.0
 11
-11.9943326999999993
 21
-154.3008372300000133
 31
0.0
  0
LINE
  5
1A7
  8
SLD-0_2
  6
CONTINUOUS
 62
     7
 10
18.7468520199999986
 20
-164.7684654800000033
 30
0.0
 11
18.7468520199999986
 21
-154.0191333900000075
 31
0.0
  0
LINE
  5
1A8
  8
SLD-0_2
  6
CONTINUOUS
 62
     7
 10
40.2678093000000032
 20
-154.0191333900000075
 30
0.0
 11
40.2678093000000032
 21
-143.2687879800000132
 31
0.0
  0
LINE
  5
1A9
  8
SLD-0_2
  6
CONTINUOUS
 62
     7
 10
31.6586157300000011
 20
-154.0191333900000075
 30
0.0
 11
31.6586157300000011
 21
-143.2687879800000132
 31
0.0
  0
LINE
  5
1AA
  8
SLD-0_2
  6
CONTINUOUS
 62
     7
 10
14.4402285799999994
 20
-154.0191333900000075
 30
0.0
 11
14.4402285799999994
 21
-143.2687879800000132
 31
0.0
  0
LINE
  5
1AB
  8
SLD-0_2
  6
CONTINUOUS
 62
     7
 10
196.6154663899999946
 20
-164.7684654800000033
 30
0.0
 11
196.6154663899999946
 21
-154.0191333900000075
 31
0.0
  0
LINE
  5
1AC
  8
SLD-0_2
  6
CONTINUOUS
 62
     7
 10
183.699649380000011
 20
-154.0191333900000075
 30
0.0
 11
183.699649380000011
 21
-143.2687879800000132
 31
0.0
  0
LINE
  5
1AD
  8
SLD-0_2
  6
CONTINUOUS
 62
     7
 10
-74.5275182700000016
 20
-330.6874053099999742
 30
0.0
 11
61.7705267699999894
 21
-330.6874053099999742
 31
0.0
  0
LINE
  5
1AE
  8
SLD-0_2
  6
CONTINUOUS
 62
     7
 10
61.7705267699999894
 20
-318.4383549500000186
 30
0.0
 11
-74.5275182700000016
 21
-318.4383549500000186
 31
0.0
  0
LINE
  5
1AF
  8
SLD-0_2
  6
CONTINUOUS
 62
     7
 10
124.2500062000000014
 20
-318.4383549500000186
 30
0.0
 11
124.2500062000000014
 21
-306.1872779299999934
 31
0.0
  0
LINE
  5
1B0
  8
SLD-0_2
  6
CONTINUOUS
 62
     7
 10
223.0769323300000053
 20
-86.4815787099999937
 30
0.0
 11
223.3037757900000031
 21
-86.3999860699999971
 31
0.0
  0
LINE
  5
1B1
  8
SLD-0_2
  6
CONTINUOUS
 62
     7
 10
221.7284361199999978
 20
-81.6671604999999943
 30
0.0
 11
221.4969050400000015
 21
-81.7379739699999845
 31
0.0
  0
LINE
  5
1B2
  8
SLD-0_2
  6
CONTINUOUS
 62
     7
 10
278.7609977600000093
 20
-344.768843870000012
 30
0.0
 11
278.7609977600000093
 21
-346.768843870000012
 31
0.0
  0
LINE
  5
1B3
  8
SLD-0_2
  6
PHANTOM
 62
     7
 10
-91.2270839499999937
 20
-164.7684654800000033
 30
0.0
 11
-91.2270839499999937
 21
-69.7684538700000019
 31
0.0
  0
LINE
  5
1B4
  8
SLD-0_2
  6
PHANTOM
 62
     7
 10
-181.2390022399999907
 20
-164.7684538700000019
 30
0.0
 11
-181.2390022399999907
 21
-69.7684538700000019
 31
0.0
  0
LINE
  5
1B5
  8
SLD-0_2
  6
PHANTOM
 62
     7
 10
-29.2390022400000014
 20
-140.7684538700000019
 30
0.0
 11
-47.2390022399999978
 21
-140.7684538700000019
 31
0.0
  0
LINE
  5
1B6
  8
SLD-0_2
  6
PHANTOM
 62
     7
 10
124.7609977599999951
 20
-140.7684538700000019
 30
0.0
 11
124.7609977599999951
 21
-92.7684538699999877
 31
0.0
  0
LINE
  5
1B7
  8
SLD-0_2
  6
PHANTOM
 62
     7
 10
-73.8668315599999943
 20
-261.4895933199999831
 30
0.0
 11
-73.8668315599999943
 21
-261.268843870000012
 31
0.0
  0
LINE
  5
1B8
  8
SLD-0_2
  6
PHANTOM
 62
     7
 10
-29.2390022400000014
 20
-92.7684538699999877
 30
0.0
 11
-47.2390022399999978
 21
-92.7684538699999877
 31
0.0
  0
LINE
  5
1B9
  8
SLD-0_2
  6
PHANTOM
 62
     7
 10
142.7609977600000093
 20
-140.7684538700000019
 30
0.0
 11
142.7609977600000093
 21
-92.7684538699999877
 31
0.0
  0
LINE
  5
1BA
  8
SLD-0_2
  6
PHANTOM
 62
     7
 10
85.7609977599999951
 20
-140.7684538700000019
 30
0.0
 11
85.7609977599999951
 21
-92.7684538699999877
 31
0.0
  0
LINE
  5
1BB
  8
SLD-0_2
  6
PHANTOM
 62
     7
 10
212.1331684399999915
 20
-261.4895933199999831
 30
0.0
 11
212.1331684399999915
 21
-261.268843870000012
 31
0.0
  0
LINE
  5
1BC
  8
SLD-0_2
  6
PHANTOM
 62
     7
 10
-10.2390022399999996
 20
-140.7684538700000019
 30
0.0
 11
-28.2390022400000014
 21
-140.7684538700000019
 31
0.0
  0
LINE
  5
1BD
  8
SLD-0_2
  6
PHANTOM
 62
     7
 10
86.7609977599999951
 20
-140.7684538700000019
 30
0.0
 11
86.7609977599999951
 21
-92.7684538699999877
 31
0.0
  0
LINE
  5
1BE
  8
SLD-0_2
  6
PHANTOM
 62
     7
 10
104.7609977599999951
 20
-140.7684538700000019
 30
0.0
 11
86.7609977599999951
 21
-140.7684538700000019
 31
0.0
  0
LINE
  5
1BF
  8
SLD-0_2
  6
PHANTOM
 62
     7
 10
143.7609977600000093
 20
-140.7684538700000019
 30
0.0
 11
143.7609977600000093
 21
-92.7684538699999877
 31
0.0
  0
LINE
  5
1C0
  8
SLD-0_2
  6
PHANTOM
 62
     7
 10
181.7609977600000093
 20
-140.7684538700000019
 30
0.0
 11
181.7609977600000093
 21
-92.7684538699999877
 31
0.0
  0
LINE
  5
1C1
  8
SLD-0_2
  6
PHANTOM
 62
     7
 10
218.7609977600000093
 20
-92.7684538699999877
 30
0.0
 11
200.7609977600000093
 21
-92.7684538699999877
 31
0.0
  0
LINE
  5
1C2
  8
SLD-0_2
  6
PHANTOM
 62
     7
 10
-67.2390022400000049
 20
-261.4688438700000006
 30
0.0
 11
-85.2390022400000049
 21
-261.4688438700000006
 31
0.0
  0
LINE
  5
1C3
  8
SLD-0_2
  6
PHANTOM
 62
     7
 10
215.9308219199999996
 20
-259.768843870000012
 30
0.0
 11
213.6331684399999915
 21
-259.768843870000012
 31
0.0
  0
LINE
  5
1C4
  8
SLD-0_2
  6
PHANTOM
 62
     7
 10
-67.2390022400000049
 20
-92.7684538699999877
 30
0.0
 11
-85.2390022400000049
 21
-92.7684538699999877
 31
0.0
  0
LINE
  5
1C5
  8
SLD-0_2
  6
PHANTOM
 62
     7
 10
-66.2390022400000049
 20
-140.7684538700000019
 30
0.0
 11
-66.2390022400000049
 21
-92.7684538699999877
 31
0.0
  0
LINE
  5
1C6
  8
SLD-0_2
  6
PHANTOM
 62
     7
 10
-10.2390022399999996
 20
-92.7684538699999877
 30
0.0
 11
-28.2390022400000014
 21
-92.7684538699999877
 31
0.0
  0
LINE
  5
1C7
  8
SLD-0_2
  6
PHANTOM
 62
     7
 10
27.7609977599999986
 20
-92.7684538699999877
 30
0.0
 11
9.7609977600000004
 21
-92.7684538699999877
 31
0.0
  0
LINE
  5
1C8
  8
SLD-0_2
  6
PHANTOM
 62
     7
 10
65.7609977599999951
 20
-140.7684538700000019
 30
0.0
 11
65.7609977599999951
 21
-92.7684538699999877
 31
0.0
  0
LINE
  5
1C9
  8
SLD-0_2
  6
PHANTOM
 62
     7
 10
123.7609977599999951
 20
-140.7684538700000019
 30
0.0
 11
105.7609977599999951
 21
-140.7684538700000019
 31
0.0
  0
LINE
  5
1CA
  8
SLD-0_2
  6
PHANTOM
 62
     7
 10
123.7609977599999951
 20
-92.7684538699999877
 30
0.0
 11
105.7609977599999951
 21
-92.7684538699999877
 31
0.0
  0
LINE
  5
1CB
  8
SLD-0_2
  6
PHANTOM
 62
     7
 10
161.7609977600000093
 20
-140.7684538700000019
 30
0.0
 11
161.7609977600000093
 21
-92.7684538699999877
 31
0.0
  0
LINE
  5
1CC
  8
SLD-0_2
  6
PHANTOM
 62
     7
 10
200.7609977600000093
 20
-140.7684538700000019
 30
0.0
 11
200.7609977600000093
 21
-92.7684538699999877
 31
0.0
  0
LINE
  5
1CD
  8
SLD-0_2
  6
PHANTOM
 62
     7
 10
-68.5691780800000004
 20
-261.4895933199999831
 30
0.0
 11
-68.5691780800000004
 21
-261.268843870000012
 31
0.0
  0
LINE
  5
1CE
  8
SLD-0_2
  6
PHANTOM
 62
     7
 10
-47.2390022399999978
 20
-140.7684538700000019
 30
0.0
 11
-47.2390022399999978
 21
-92.7684538699999877
 31
0.0
  0
LINE
  5
1CF
  8
SLD-0_2
  6
PHANTOM
 62
     7
 10
-29.2390022400000014
 20
-140.7684538700000019
 30
0.0
 11
-29.2390022400000014
 21
-92.7684538699999877
 31
0.0
  0
LINE
  5
1D0
  8
SLD-0_2
  6
PHANTOM
 62
     7
 10
8.7609977600000004
 20
-140.7684538700000019
 30
0.0
 11
-9.2390022399999996
 21
-140.7684538700000019
 31
0.0
  0
LINE
  5
1D1
  8
SLD-0_2
  6
PHANTOM
 62
     7
 10
46.7609977600000022
 20
-92.7684538699999877
 30
0.0
 11
28.7609977599999986
 21
-92.7684538699999877
 31
0.0
  0
LINE
  5
1D2
  8
SLD-0_2
  6
PHANTOM
 62
     7
 10
142.7609977600000093
 20
-92.7684538699999877
 30
0.0
 11
124.7609977599999951
 21
-92.7684538699999877
 31
0.0
  0
LINE
  5
1D3
  8
SLD-0_2
  6
PHANTOM
 62
     7
 10
218.7609977600000093
 20
-261.4688438700000006
 30
0.0
 11
200.7609977600000093
 21
-261.4688438700000006
 31
0.0
  0
LINE
  5
1D4
  8
SLD-0_2
  6
PHANTOM
 62
     7
 10
-10.2390022399999996
 20
-140.7684538700000019
 30
0.0
 11
-10.2390022399999996
 21
-92.7684538699999877
 31
0.0
  0
LINE
  5
1D5
  8
SLD-0_2
  6
PHANTOM
 62
     7
 10
180.7609977600000093
 20
-140.7684538700000019
 30
0.0
 11
162.7609977600000093
 21
-140.7684538700000019
 31
0.0
  0
LINE
  5
1D6
  8
SLD-0_2
  6
PHANTOM
 62
     7
 10
-67.2390022400000049
 20
-140.7684538700000019
 30
0.0
 11
-85.2390022400000049
 21
-140.7684538700000019
 31
0.0
  0
LINE
  5
1D7
  8
SLD-0_2
  6
PHANTOM
 62
     7
 10
9.7609977600000004
 20
-140.7684538700000019
 30
0.0
 11
9.7609977600000004
 21
-92.7684538699999877
 31
0.0
  0
LINE
  5
1D8
  8
SLD-0_2
  6
PHANTOM
 62
     7
 10
104.7609977599999951
 20
-140.7684538700000019
 30
0.0
 11
104.7609977599999951
 21
-92.7684538699999877
 31
0.0
  0
LINE
  5
1D9
  8
SLD-0_2
  6
PHANTOM
 62
     7
 10
180.7609977600000093
 20
-92.7684538699999877
 30
0.0
 11
162.7609977600000093
 21
-92.7684538699999877
 31
0.0
  0
LINE
  5
1DA
  8
SLD-0_2
  6
PHANTOM
 62
     7
 10
-48.2390022399999907
 20
-140.7684538700000019
 30
0.0
 11
-66.2390022400000049
 21
-140.7684538700000019
 31
0.0
  0
LINE
  5
1DB
  8
SLD-0_2
  6
PHANTOM
 62
     7
 10
27.7609977599999986
 20
-140.7684538700000019
 30
0.0
 11
27.7609977599999986
 21
-92.7684538699999877
 31
0.0
  0
LINE
  5
1DC
  8
SLD-0_2
  6
PHANTOM
 62
     7
 10
199.7609977600000093
 20
-140.7684538700000019
 30
0.0
 11
181.7609977600000093
 21
-140.7684538700000019
 31
0.0
  0
LINE
  5
1DD
  8
SLD-0_2
  6
PHANTOM
 62
     7
 10
28.7609977599999986
 20
-140.7684538700000019
 30
0.0
 11
28.7609977599999986
 21
-92.7684538699999877
 31
0.0
  0
LINE
  5
1DE
  8
SLD-0_2
  6
PHANTOM
 62
     7
 10
199.7609977600000093
 20
-92.7684538699999877
 30
0.0
 11
181.7609977600000093
 21
-92.7684538699999877
 31
0.0
  0
LINE
  5
1DF
  8
SLD-0_2
  6
PHANTOM
 62
     7
 10
46.7609977600000022
 20
-140.7684538700000019
 30
0.0
 11
46.7609977600000022
 21
-92.7684538699999877
 31
0.0
  0
LINE
  5
1E0
  8
SLD-0_2
  6
PHANTOM
 62
     7
 10
218.7609977600000093
 20
-140.7684538700000019
 30
0.0
 11
200.7609977600000093
 21
-140.7684538700000019
 31
0.0
  0
LINE
  5
1E1
  8
SLD-0_2
  6
PHANTOM
 62
     7
 10
217.4308219199999996
 20
-261.4895933199999831
 30
0.0
 11
217.4308219199999996
 21
-261.268843870000012
 31
0.0
  0
LINE
  5
1E2
  8
SLD-0_2
  6
PHANTOM
 62
     7
 10
218.7609977600000093
 20
-261.4688438700000006
 30
0.0
 11
218.7609977600000093
 21
-330.76847115999999
 31
0.0
  0
LINE
  5
1E3
  8
SLD-0_2
  6
PHANTOM
 62
     7
 10
47.7609977600000022
 20
-140.7684538700000019
 30
0.0
 11
47.7609977600000022
 21
-92.7684538699999877
 31
0.0
  0
LINE
  5
1E4
  8
SLD-0_2
  6
PHANTOM
 62
     7
 10
161.7609977600000093
 20
-92.7684538699999877
 30
0.0
 11
143.7609977600000093
 21
-92.7684538699999877
 31
0.0
  0
LINE
  5
1E5
  8
SLD-0_2
  6
PHANTOM
 62
     7
 10
162.7609977600000093
 20
-140.7684538700000019
 30
0.0
 11
162.7609977600000093
 21
-92.7684538699999877
 31
0.0
  0
LINE
  5
1E6
  8
SLD-0_2
  6
PHANTOM
 62
     7
 10
180.7609977600000093
 20
-140.7684538700000019
 30
0.0
 11
180.7609977600000093
 21
-92.7684538699999877
 31
0.0
  0
LINE
  5
1E7
  8
SLD-0_2
  6
PHANTOM
 62
     7
 10
-85.2390022400000049
 20
-140.7684538700000019
 30
0.0
 11
-85.2390022400000049
 21
-92.7684538699999877
 31
0.0
  0
LINE
  5
1E8
  8
SLD-0_2
  6
PHANTOM
 62
     7
 10
8.7609977600000004
 20
-140.7684538700000019
 30
0.0
 11
8.7609977600000004
 21
-92.7684538699999877
 31
0.0
  0
LINE
  5
1E9
  8
SLD-0_2
  6
PHANTOM
 62
     7
 10
8.7609977600000004
 20
-92.7684538699999877
 30
0.0
 11
-9.2390022399999996
 21
-92.7684538699999877
 31
0.0
  0
LINE
  5
1EA
  8
SLD-0_2
  6
PHANTOM
 62
     7
 10
27.7609977599999986
 20
-140.7684538700000019
 30
0.0
 11
9.7609977600000004
 21
-140.7684538700000019
 31
0.0
  0
LINE
  5
1EB
  8
SLD-0_2
  6
PHANTOM
 62
     7
 10
104.7609977599999951
 20
-92.7684538699999877
 30
0.0
 11
86.7609977599999951
 21
-92.7684538699999877
 31
0.0
  0
LINE
  5
1EC
  8
SLD-0_2
  6
PHANTOM
 62
     7
 10
199.7609977600000093
 20
-140.7684538700000019
 30
0.0
 11
199.7609977600000093
 21
-92.7684538699999877
 31
0.0
  0
LINE
  5
1ED
  8
SLD-0_2
  6
PHANTOM
 62
     7
 10
67.7609977599999951
 20
-140.7684538700000019
 30
0.0
 11
67.7609977599999951
 21
-92.7684538699999877
 31
0.0
  0
LINE
  5
1EE
  8
SLD-0_2
  6
PHANTOM
 62
     7
 10
-70.0691780800000004
 20
-259.768843870000012
 30
0.0
 11
-72.3668315599999943
 21
-259.768843870000012
 31
0.0
  0
LINE
  5
1EF
  8
SLD-0_2
  6
PHANTOM
 62
     7
 10
-48.2390022399999907
 20
-140.7684538700000019
 30
0.0
 11
-48.2390022399999907
 21
-92.7684538699999877
 31
0.0
  0
LINE
  5
1F0
  8
SLD-0_2
  6
PHANTOM
 62
     7
 10
46.7609977600000022
 20
-140.7684538700000019
 30
0.0
 11
28.7609977599999986
 21
-140.7684538700000019
 31
0.0
  0
LINE
  5
1F1
  8
SLD-0_2
  6
PHANTOM
 62
     7
 10
85.7609977599999951
 20
-92.7684538699999877
 30
0.0
 11
67.7609977599999951
 21
-92.7684538699999877
 31
0.0
  0
LINE
  5
1F2
  8
SLD-0_2
  6
PHANTOM
 62
     7
 10
142.7609977600000093
 20
-140.7684538700000019
 30
0.0
 11
124.7609977599999951
 21
-140.7684538700000019
 31
0.0
  0
LINE
  5
1F3
  8
SLD-0_2
  6
PHANTOM
 62
     7
 10
218.7609977600000093
 20
-140.7684538700000019
 30
0.0
 11
218.7609977600000093
 21
-92.7684538699999877
 31
0.0
  0
LINE
  5
1F4
  8
SLD-0_2
  6
PHANTOM
 62
     7
 10
85.7609977599999951
 20
-140.7684538700000019
 30
0.0
 11
67.7609977599999951
 21
-140.7684538700000019
 31
0.0
  0
LINE
  5
1F5
  8
SLD-0_2
  6
PHANTOM
 62
     7
 10
200.7609977600000093
 20
-261.4688438700000006
 30
0.0
 11
200.7609977600000093
 21
-306.1872779299999934
 31
0.0
  0
LINE
  5
1F6
  8
SLD-0_2
  6
PHANTOM
 62
     7
 10
-28.2390022400000014
 20
-140.7684538700000019
 30
0.0
 11
-28.2390022400000014
 21
-92.7684538699999877
 31
0.0
  0
LINE
  5
1F7
  8
SLD-0_2
  6
PHANTOM
 62
     7
 10
65.7609977599999951
 20
-140.7684538700000019
 30
0.0
 11
47.7609977600000022
 21
-140.7684538700000019
 31
0.0
  0
LINE
  5
1F8
  8
SLD-0_2
  6
PHANTOM
 62
     7
 10
65.7609977599999951
 20
-92.7684538699999877
 30
0.0
 11
47.7609977600000022
 21
-92.7684538699999877
 31
0.0
  0
LINE
  5
1F9
  8
SLD-0_2
  6
PHANTOM
 62
     7
 10
161.7609977600000093
 20
-140.7684538700000019
 30
0.0
 11
143.7609977600000093
 21
-140.7684538700000019
 31
0.0
  0
LINE
  5
1FA
  8
SLD-0_2
  6
PHANTOM
 62
     7
 10
-9.2390022399999996
 20
-140.7684538700000019
 30
0.0
 11
-9.2390022399999996
 21
-92.7684538699999877
 31
0.0
  0
LINE
  5
1FB
  8
SLD-0_2
  6
PHANTOM
 62
     7
 10
-67.2390022400000049
 20
-140.7684538700000019
 30
0.0
 11
-67.2390022400000049
 21
-92.7684538699999877
 31
0.0
  0
LINE
  5
1FC
  8
SLD-0_2
  6
PHANTOM
 62
     7
 10
105.7609977599999951
 20
-140.7684538700000019
 30
0.0
 11
105.7609977599999951
 21
-92.7684538699999877
 31
0.0
  0
LINE
  5
1FD
  8
SLD-0_2
  6
PHANTOM
 62
     7
 10
-85.2390022400000049
 20
-261.4688438700000006
 30
0.0
 11
-85.2390022400000049
 21
-330.76847115999999
 31
0.0
  0
LINE
  5
1FE
  8
SLD-0_2
  6
PHANTOM
 62
     7
 10
-48.2390022399999907
 20
-92.7684538699999877
 30
0.0
 11
-66.2390022400000049
 21
-92.7684538699999877
 31
0.0
  0
LINE
  5
1FF
  8
SLD-0_2
  6
PHANTOM
 62
     7
 10
123.7609977599999951
 20
-140.7684538700000019
 30
0.0
 11
123.7609977599999951
 21
-92.7684538699999877
 31
0.0
  0
LINE
  5
200
  8
SLD-0_2
  6
PHANTOM
 62
     7
 10
-67.2390022400000049
 20
-261.4688438700000006
 30
0.0
 11
-67.2390022400000049
 21
-306.1872779299999934
 31
0.0
  0
ARC
  5
201
  8
SLD-0_2
  6
PHANTOM
 62
     7
 10
-72.3668315599999943
 20
-261.268843870000012
 30
0.0
 40
1.5
 50
90.0
 51
180.0
  0
ARC
  5
202
  8
SLD-0_2
  6
PHANTOM
 62
     7
 10
-70.0691780800000004
 20
-261.268843870000012
 30
0.0
 40
1.5
 50
0.0
 51
90.0
  0
ARC
  5
203
  8
SLD-0_2
  6
PHANTOM
 62
     7
 10
215.9308219199999996
 20
-261.268843870000012
 30
0.0
 40
1.5
 50
0.0
 51
90.0
  0
ARC
  5
204
  8
SLD-0_2
  6
PHANTOM
 62
     7
 10
213.6331684399999915
 20
-261.268843870000012
 30
0.0
 40
1.5
 50
90.0
 51
180.0
  0
LINE
  5
205
  8
SLD-0_0
  6
CONTINUOUS
 62
     7
 10
84.6996205800000013
 20
-91.1867919900000032
 30
0.0
 11
84.6996205800000013
 21
-80.4335995299999951
 31
0.0
  0
LINE
  5
206
  8
SLD-0_0
  6
CONTINUOUS
 62
     7
 10
-76.0451027200000027
 20
-91.1867919900000032
 30
0.0
 11
-80.3498250099999893
 21
-91.1867919900000032
 31
0.0
  0
LINE
  5
207
  8
SLD-0_0
  6
CONTINUOUS
 62
     7
 10
18.6568736199999989
 20
-91.1867919900000032
 30
0.0
 11
18.6568736199999989
 21
-80.4335995299999951
 31
0.0
  0
LINE
  5
208
  8
SLD-0_0
  6
CONTINUOUS
 62
     7
 10
10.0493430900000007
 20
-91.1867919900000032
 30
0.0
 11
10.0493430900000007
 21
-80.4335995299999951
 31
0.0
  0
LINE
  5
209
  8
SLD-0_0
  6
CONTINUOUS
 62
     7
 10
22.9615959099999998
 20
-80.4335995299999951
 30
0.0
 11
22.9615959099999998
 21
-69.6861492599999934
 31
0.0
  0
LINE
  5
20A
  8
SLD-0_0
  6
CONTINUOUS
 62
     7
 10
-80.3498250099999893
 20
-69.6861492599999934
 30
0.0
 11
-80.3498250099999893
 21
-80.4335995299999951
 31
0.0
  0
LINE
  5
20B
  8
SLD-0_0
  6
CONTINUOUS
 62
     7
 10
140.6610103600000059
 20
-80.4335995299999951
 30
0.0
 11
140.6610103600000059
 21
-69.6861492599999934
 31
0.0
  0
LINE
  5
20C
  8
SLD-0_0
  6
CONTINUOUS
 62
     7
 10
61.7079246400000017
 20
-69.6861492599999934
 30
0.0
 11
61.7079246400000017
 21
-80.4335995299999951
 31
0.0
  0
LINE
  5
20D
  8
SLD-0_0
  6
CONTINUOUS
 62
     7
 10
-32.9978798100000006
 20
-91.1867919900000032
 30
0.0
 11
-32.9978798100000006
 21
-80.4335995299999951
 31
0.0
  0
LINE
  5
20E
  8
SLD-0_0
  6
CONTINUOUS
 62
     7
 10
61.7079246400000017
 20
-91.1867919900000032
 30
0.0
 11
61.7079246400000017
 21
-80.4335995299999951
 31
0.0
  0
LINE
  5
20F
  8
SLD-0_0
  6
CONTINUOUS
 62
     7
 10
61.7079246400000017
 20
-80.4335995299999951
 30
0.0
 11
-76.0451027200000027
 21
-80.4335995299999951
 31
0.0
  0
LINE
  5
210
  8
SLD-0_0
  6
CONTINUOUS
 62
     7
 10
162.1865358800000081
 20
-91.1867919900000032
 30
0.0
 11
162.1865358800000081
 21
-80.4335995299999951
 31
0.0
  0
LINE
  5
211
  8
SLD-0_0
  6
CONTINUOUS
 62
     7
 10
101.9185097400000046
 20
-91.1867919900000032
 30
0.0
 11
101.9185097400000046
 21
-80.4335995299999951
 31
0.0
  0
LINE
  5
212
  8
SLD-0_0
  6
CONTINUOUS
 62
     7
 10
106.2251460899999955
 20
-80.4335995299999951
 30
0.0
 11
106.2251460899999955
 21
-69.6861492599999934
 31
0.0
  0
LINE
  5
213
  8
SLD-0_0
  6
CONTINUOUS
 62
     7
 10
1.4370274199999991
 20
-91.1867919900000032
 30
0.0
 11
1.4370274199999991
 21
-80.4335995299999951
 31
0.0
  0
LINE
  5
214
  8
SLD-0_0
  6
CONTINUOUS
 62
     7
 10
40.1804850700000031
 20
-80.4335995299999951
 30
0.0
 11
40.1804850700000031
 21
-69.6861492599999934
 31
0.0
  0
LINE
  5
215
  8
SLD-0_0
  6
CONTINUOUS
 62
     7
 10
196.6243141999999864
 20
-91.1867919900000032
 30
0.0
 11
196.6243141999999864
 21
-80.4335995299999951
 31
0.0
  0
LINE
  5
216
  8
SLD-0_0
  6
CONTINUOUS
 62
     7
 10
179.403510979999993
 20
-91.1867919900000032
 30
0.0
 11
179.403510979999993
 21
-80.4335995299999951
 31
0.0
  0
LINE
  5
217
  8
SLD-0_0
  6
CONTINUOUS
 62
     7
 10
136.3582021299999951
 20
-91.1867919900000032
 30
0.0
 11
136.3582021299999951
 21
-80.4335995299999951
 31
0.0
  0
LINE
  5
218
  8
SLD-0_0
  6
CONTINUOUS
 62
     7
 10
213.8432033699999977
 20
-91.1867919900000032
 30
0.0
 11
213.8432033699999977
 21
-80.4335995299999951
 31
0.0
  0
LINE
  5
219
  8
SLD-0_0
  6
CONTINUOUS
 62
     7
 10
123.4421212000000025
 20
-80.4335995299999951
 30
0.0
 11
123.4421212000000025
 21
-69.6861492599999934
 31
0.0
  0
LINE
  5
21A
  8
SLD-0_0
  6
CONTINUOUS
 62
     7
 10
80.3929842299999962
 20
-80.4335995299999951
 30
0.0
 11
80.3929842299999962
 21
-69.6861492599999934
 31
0.0
  0
LINE
  5
21B
  8
SLD-0_0
  6
CONTINUOUS
 62
     7
 10
53.0965660000000028
 20
-91.1867919900000032
 30
0.0
 11
53.0965660000000028
 21
-80.4335995299999951
 31
0.0
  0
LINE
  5
21C
  8
SLD-0_0
  6
CONTINUOUS
 62
     7
 10
-63.1309358500000002
 20
-80.4335995299999951
 30
0.0
 11
-63.1309358500000002
 21
-69.6861492599999934
 31
0.0
  0
LINE
  5
21D
  8
SLD-0_0
  6
CONTINUOUS
 62
     7
 10
76.0920900600000039
 20
-80.4335995299999951
 30
0.0
 11
76.0920900600000039
 21
-91.1867919900000032
 31
0.0
  0
LINE
  5
21E
  8
SLD-0_0
  6
CONTINUOUS
 62
     7
 10
71.7854537099999988
 20
-69.6861492599999934
 30
0.0
 11
71.7854537099999988
 21
-80.4335995299999951
 31
0.0
  0
LINE
  5
21F
  8
SLD-0_0
  6
CONTINUOUS
 62
     7
 10
57.4012882899999894
 20
-80.4335995299999951
 30
0.0
 11
57.4012882899999894
 21
-69.6861492599999934
 31
0.0
  0
LINE
  5
220
  8
SLD-0_0
  6
CONTINUOUS
 62
     7
 10
-67.435658140000001
 20
-91.1867919900000032
 30
0.0
 11
-67.435658140000001
 21
-80.4335995299999951
 31
0.0
  0
LINE
  5
221
  8
SLD-0_0
  6
CONTINUOUS
 62
     7
 10
5.74270674
 20
-80.4335995299999951
 30
0.0
 11
5.74270674
 21
-69.6861492599999934
 31
0.0
  0
LINE
  5
222
  8
SLD-0_0
  6
CONTINUOUS
 62
     7
 10
110.52795433
 20
-91.1867919900000032
 30
0.0
 11
110.52795433
 21
-80.4335995299999951
 31
0.0
  0
LINE
  5
223
  8
SLD-0_0
  6
CONTINUOUS
 62
     7
 10
27.2682322600000013
 20
-91.1867919900000032
 30
0.0
 11
27.2682322600000013
 21
-80.4335995299999951
 31
0.0
  0
LINE
  5
224
  8
SLD-0_0
  6
CONTINUOUS
 62
     7
 10
-71.7413374599999969
 20
-80.4335995299999951
 30
0.0
 11
-71.7413374599999969
 21
-69.6861492599999934
 31
0.0
  0
LINE
  5
225
  8
SLD-0_0
  6
CONTINUOUS
 62
     7
 10
192.3176778499999955
 20
-80.4335995299999951
 30
0.0
 11
192.3176778499999955
 21
-69.6861492599999934
 31
0.0
  0
LINE
  5
226
  8
SLD-0_0
  6
CONTINUOUS
 62
     7
 10
-41.608281429999991
 20
-91.1867919900000032
 30
0.0
 11
-41.608281429999991
 21
-80.4335995299999951
 31
0.0
  0
LINE
  5
227
  8
SLD-0_0
  6
CONTINUOUS
 62
     7
 10
213.8432033699999977
 20
-69.6861492599999934
 30
0.0
 11
213.8432033699999977
 21
-80.4335995299999951
 31
0.0
  0
LINE
  5
228
  8
SLD-0_0
  6
CONTINUOUS
 62
     7
 10
166.4912581700000089
 20
-80.4335995299999951
 30
0.0
 11
166.4912581700000089
 21
-69.6861492599999934
 31
0.0
  0
LINE
  5
229
  8
SLD-0_0
  6
CONTINUOUS
 62
     7
 10
170.7959804600000098
 20
-91.1867919900000032
 30
0.0
 11
170.7959804600000098
 21
-80.4335995299999951
 31
0.0
  0
LINE
  5
22A
  8
SLD-0_0
  6
CONTINUOUS
 62
     7
 10
157.8818135900000073
 20
-80.4335995299999951
 30
0.0
 11
157.8818135900000073
 21
-69.6861492599999934
 31
0.0
  0
LINE
  5
22B
  8
SLD-0_0
  6
CONTINUOUS
 62
     7
 10
149.2723689999999976
 20
-80.4335995299999951
 30
0.0
 11
149.2723689999999976
 21
-69.6861492599999934
 31
0.0
  0
LINE
  5
22C
  8
SLD-0_0
  6
CONTINUOUS
 62
     7
 10
89.0062569300000064
 20
-80.4335995299999951
 30
0.0
 11
89.0062569300000064
 21
-69.6861492599999934
 31
0.0
  0
LINE
  5
22D
  8
SLD-0_0
  6
CONTINUOUS
 62
     7
 10
71.7854537099999988
 20
-80.4335995299999951
 30
0.0
 11
209.5384810799999968
 21
-80.4335995299999951
 31
0.0
  0
LINE
  5
22E
  8
SLD-0_0
  6
CONTINUOUS
 62
     7
 10
-7.1695460699999991
 20
-91.1867919900000032
 30
0.0
 11
-7.1695460699999991
 21
-80.4335995299999951
 31
0.0
  0
LINE
  5
22F
  8
SLD-0_0
  6
CONTINUOUS
 62
     7
 10
31.5729545499999986
 20
-80.4335995299999951
 30
0.0
 11
31.5729545499999986
 21
-69.6861492599999934
 31
0.0
  0
LINE
  5
230
  8
SLD-0_0
  6
CONTINUOUS
 62
     7
 10
-11.4771394499999992
 20
-80.4335995299999951
 30
0.0
 11
-11.4771394499999992
 21
-69.6861492599999934
 31
0.0
  0
LINE
  5
231
  8
SLD-0_0
  6
CONTINUOUS
 62
     7
 10
-28.696028609999999
 20
-80.4335995299999951
 30
0.0
 11
-28.696028609999999
 21
-69.6861492599999934
 31
0.0
  0
LINE
  5
232
  8
SLD-0_0
  6
CONTINUOUS
 62
     7
 10
-80.3498250099999893
 20
-80.4335995299999951
 30
0.0
 11
57.4012882899999894
 21
-80.4335995299999951
 31
0.0
  0
LINE
  5
233
  8
SLD-0_0
  6
CONTINUOUS
 62
     7
 10
127.7487575499999934
 20
-91.1867919900000032
 30
0.0
 11
127.7487575499999934
 21
-80.4335995299999951
 31
0.0
  0
LINE
  5
234
  8
SLD-0_0
  6
CONTINUOUS
 62
     7
 10
200.9252083700000071
 20
-80.4335995299999951
 30
0.0
 11
200.9252083700000071
 21
-69.6861492599999934
 31
0.0
  0
LINE
  5
235
  8
SLD-0_0
  6
CONTINUOUS
 62
     7
 10
-15.7799476799999994
 20
-91.1867919900000032
 30
0.0
 11
-15.7799476799999994
 21
-80.4335995299999951
 31
0.0
  0
LINE
  5
236
  8
SLD-0_0
  6
CONTINUOUS
 62
     7
 10
-50.2167689799999906
 20
-91.1867919900000032
 30
0.0
 11
-50.2167689799999906
 21
-80.4335995299999951
 31
0.0
  0
LINE
  5
237
  8
SLD-0_0
  6
CONTINUOUS
 62
     7
 10
-2.866737839999999
 20
-80.4335995299999951
 30
0.0
 11
-2.866737839999999
 21
-69.6861492599999934
 31
0.0
  0
LINE
  5
238
  8
SLD-0_0
  6
CONTINUOUS
 62
     7
 10
-45.9120466899999897
 20
-80.4335995299999951
 30
0.0
 11
-45.9120466899999897
 21
-69.6861492599999934
 31
0.0
  0
LINE
  5
239
  8
SLD-0_0
  6
CONTINUOUS
 62
     7
 10
-54.5224483000000006
 20
-80.4335995299999951
 30
0.0
 11
-54.5224483000000006
 21
-69.6861492599999934
 31
0.0
  0
LINE
  5
23A
  8
SLD-0_0
  6
CONTINUOUS
 62
     7
 10
-76.0451027200000027
 20
-80.4335995299999951
 30
0.0
 11
-76.0451027200000027
 21
-91.1867919900000032
 31
0.0
  0
LINE
  5
23B
  8
SLD-0_0
  6
CONTINUOUS
 62
     7
 10
93.3128932799999973
 20
-91.1867919900000032
 30
0.0
 11
93.3128932799999973
 21
-80.4335995299999951
 31
0.0
  0
LINE
  5
23C
  8
SLD-0_0
  6
CONTINUOUS
 62
     7
 10
-24.389392260000001
 20
-91.1867919900000032
 30
0.0
 11
-24.389392260000001
 21
-80.4335995299999951
 31
0.0
  0
LINE
  5
23D
  8
SLD-0_0
  6
CONTINUOUS
 62
     7
 10
209.5384810799999968
 20
-80.4335995299999951
 30
0.0
 11
209.5384810799999968
 21
-69.6861492599999934
 31
0.0
  0
LINE
  5
23E
  8
SLD-0_0
  6
CONTINUOUS
 62
     7
 10
119.139312970000006
 20
-91.1867919900000032
 30
0.0
 11
119.139312970000006
 21
-80.4335995299999951
 31
0.0
  0
LINE
  5
23F
  8
SLD-0_0
  6
CONTINUOUS
 62
     7
 10
213.8432033699999977
 20
-80.4335995299999951
 30
0.0
 11
76.0920900600000039
 21
-80.4335995299999951
 31
0.0
  0
LINE
  5
240
  8
SLD-0_0
  6
CONTINUOUS
 62
     7
 10
97.6137874500000038
 20
-80.4335995299999951
 30
0.0
 11
97.6137874500000038
 21
-69.6861492599999934
 31
0.0
  0
LINE
  5
241
  8
SLD-0_0
  6
CONTINUOUS
 62
     7
 10
-80.3498250099999893
 20
-91.1867919900000032
 30
0.0
 11
-80.3498250099999893
 21
-80.4335995299999951
 31
0.0
  0
LINE
  5
242
  8
SLD-0_0
  6
CONTINUOUS
 62
     7
 10
35.8776768399999995
 20
-91.1867919900000032
 30
0.0
 11
35.8776768399999995
 21
-80.4335995299999951
 31
0.0
  0
LINE
  5
243
  8
SLD-0_0
  6
CONTINUOUS
 62
     7
 10
48.7899296499999977
 20
-80.4335995299999951
 30
0.0
 11
48.7899296499999977
 21
-69.6861492599999934
 31
0.0
  0
LINE
  5
244
  8
SLD-0_0
  6
CONTINUOUS
 62
     7
 10
144.9676467099999968
 20
-91.1867919900000032
 30
0.0
 11
144.9676467099999968
 21
-80.4335995299999951
 31
0.0
  0
LINE
  5
245
  8
SLD-0_0
  6
CONTINUOUS
 62
     7
 10
175.0987886899999921
 20
-80.4335995299999951
 30
0.0
 11
175.0987886899999921
 21
-69.6861492599999934
 31
0.0
  0
LINE
  5
246
  8
SLD-0_0
  6
CONTINUOUS
 62
     7
 10
-76.0451027200000027
 20
-91.1867919900000032
 30
0.0
 11
61.7079246400000017
 21
-91.1867919900000032
 31
0.0
  0
LINE
  5
247
  8
SLD-0_0
  6
CONTINUOUS
 62
     7
 10
-37.3045161699999994
 20
-80.4335995299999951
 30
0.0
 11
-37.3045161699999994
 21
-69.6861492599999934
 31
0.0
  0
LINE
  5
248
  8
SLD-0_0
  6
CONTINUOUS
 62
     7
 10
71.7854537099999988
 20
-91.1867919900000032
 30
0.0
 11
71.7854537099999988
 21
-80.4335995299999951
 31
0.0
  0
LINE
  5
249
  8
SLD-0_0
  6
CONTINUOUS
 62
     7
 10
76.0920900600000039
 20
-91.1867919900000032
 30
0.0
 11
213.8432033699999977
 21
-91.1867919900000032
 31
0.0
  0
LINE
  5
24A
  8
SLD-0_0
  6
CONTINUOUS
 62
     7
 10
183.7082332699999938
 20
-80.4335995299999951
 30
0.0
 11
183.7082332699999938
 21
-69.6861492599999934
 31
0.0
  0
LINE
  5
24B
  8
SLD-0_0
  6
CONTINUOUS
 62
     7
 10
114.8345906800000051
 20
-80.4335995299999951
 30
0.0
 11
114.8345906800000051
 21
-69.6861492599999934
 31
0.0
  0
LINE
  5
24C
  8
SLD-0_0
  6
CONTINUOUS
 62
     7
 10
76.0920900600000039
 20
-91.1867919900000032
 30
0.0
 11
71.7854537099999988
 21
-91.1867919900000032
 31
0.0
  0
LINE
  5
24D
  8
SLD-0_0
  6
CONTINUOUS
 62
     7
 10
205.2337587799999881
 20
-91.1867919900000032
 30
0.0
 11
205.2337587799999881
 21
-80.4335995299999951
 31
0.0
  0
LINE
  5
24E
  8
SLD-0_0
  6
CONTINUOUS
 62
     7
 10
188.0129555599999946
 20
-91.1867919900000032
 30
0.0
 11
188.0129555599999946
 21
-80.4335995299999951
 31
0.0
  0
LINE
  5
24F
  8
SLD-0_0
  6
CONTINUOUS
 62
     7
 10
153.5770912899999985
 20
-91.1867919900000032
 30
0.0
 11
153.5770912899999985
 21
-80.4335995299999951
 31
0.0
  0
LINE
  5
250
  8
SLD-0_0
  6
CONTINUOUS
 62
     7
 10
132.0515657800000042
 20
-80.4335995299999951
 30
0.0
 11
132.0515657800000042
 21
-69.6861492599999934
 31
0.0
  0
LINE
  5
251
  8
SLD-0_0
  6
CONTINUOUS
 62
     7
 10
44.4890354799999912
 20
-91.1867919900000032
 30
0.0
 11
44.4890354799999912
 21
-80.4335995299999951
 31
0.0
  0
LINE
  5
252
  8
SLD-0_0
  6
CONTINUOUS
 62
     7
 10
-58.8271705900000015
 20
-91.1867919900000032
 30
0.0
 11
-58.8271705900000015
 21
-80.4335995299999951
 31
0.0
  0
LINE
  5
253
  8
SLD-0_0
  6
CONTINUOUS
 62
     7
 10
14.3540653799999998
 20
-80.4335995299999951
 30
0.0
 11
14.3540653799999998
 21
-69.6861492599999934
 31
0.0
  0
LINE
  5
254
  8
SLD-0_0
  6
CONTINUOUS
 62
     7
 10
-20.0856269999999988
 20
-80.4335995299999951
 30
0.0
 11
-20.0856269999999988
 21
-69.6861492599999934
 31
0.0
  0
LINE
  5
255
  8
SLD-0_0
  6
CONTINUOUS
 62
     7
 10
80.3929842299999962
 20
374.7638661199999888
 30
0.0
 11
80.3929842299999962
 21
385.5113163899999904
 31
0.0
  0
LINE
  5
256
  8
SLD-0_0
  6
CONTINUOUS
 62
     7
 10
-71.7413374599999969
 20
374.7638661199999888
 30
0.0
 11
-71.7413374599999969
 21
385.5113163899999904
 31
0.0
  0
LINE
  5
257
  8
SLD-0_0
  6
CONTINUOUS
 62
     7
 10
89.0062569300000064
 20
374.7638661199999888
 30
0.0
 11
89.0062569300000064
 21
385.5113163899999904
 31
0.0
  0
LINE
  5
258
  8
SLD-0_0
  6
CONTINUOUS
 62
     7
 10
-50.2167689799999906
 20
364.0106736500000011
 30
0.0
 11
-50.2167689799999906
 21
374.7638661199999888
 31
0.0
  0
LINE
  5
259
  8
SLD-0_0
  6
CONTINUOUS
 62
     7
 10
144.9676467099999968
 20
364.0106736500000011
 30
0.0
 11
144.9676467099999968
 21
374.7638661199999888
 31
0.0
  0
LINE
  5
25A
  8
SLD-0_0
  6
CONTINUOUS
 62
     7
 10
44.4890354799999912
 20
364.0106736500000011
 30
0.0
 11
44.4890354799999912
 21
374.7638661199999888
 31
0.0
  0
LINE
  5
25B
  8
SLD-0_0
  6
CONTINUOUS
 62
     7
 10
10.0493430900000007
 20
364.0106736500000011
 30
0.0
 11
10.0493430900000007
 21
374.7638661199999888
 31
0.0
  0
LINE
  5
25C
  8
SLD-0_0
  6
CONTINUOUS
 62
     7
 10
106.2251460899999955
 20
374.7638661199999888
 30
0.0
 11
106.2251460899999955
 21
385.5113163899999904
 31
0.0
  0
LINE
  5
25D
  8
SLD-0_0
  6
CONTINUOUS
 62
     7
 10
40.1804850700000031
 20
374.7638661199999888
 30
0.0
 11
40.1804850700000031
 21
385.5113163899999904
 31
0.0
  0
LINE
  5
25E
  8
SLD-0_0
  6
CONTINUOUS
 62
     7
 10
71.7854537099999988
 20
385.5113163899999904
 30
0.0
 11
71.7854537099999988
 21
374.7638661199999888
 31
0.0
  0
LINE
  5
25F
  8
SLD-0_0
  6
CONTINUOUS
 62
     7
 10
127.7487575499999934
 20
364.0106736500000011
 30
0.0
 11
127.7487575499999934
 21
374.7638661199999888
 31
0.0
  0
LINE
  5
260
  8
SLD-0_0
  6
CONTINUOUS
 62
     7
 10
-45.9120466899999897
 20
374.7638661199999888
 30
0.0
 11
-45.9120466899999897
 21
385.5113163899999904
 31
0.0
  0
LINE
  5
261
  8
SLD-0_0
  6
CONTINUOUS
 62
     7
 10
48.7899296499999977
 20
374.7638661199999888
 30
0.0
 11
48.7899296499999977
 21
385.5113163899999904
 31
0.0
  0
LINE
  5
262
  8
SLD-0_0
  6
CONTINUOUS
 62
     7
 10
114.8345906800000051
 20
374.7638661199999888
 30
0.0
 11
114.8345906800000051
 21
385.5113163899999904
 31
0.0
  0
LINE
  5
263
  8
SLD-0_0
  6
CONTINUOUS
 62
     7
 10
205.2337587799999881
 20
364.0106736500000011
 30
0.0
 11
205.2337587799999881
 21
374.7638661199999888
 31
0.0
  0
LINE
  5
264
  8
SLD-0_0
  6
CONTINUOUS
 62
     7
 10
-20.0856269999999988
 20
374.7638661199999888
 30
0.0
 11
-20.0856269999999988
 21
385.5113163899999904
 31
0.0
  0
LINE
  5
265
  8
SLD-0_0
  6
CONTINUOUS
 62
     7
 10
196.6243141999999864
 20
364.0106736500000011
 30
0.0
 11
196.6243141999999864
 21
374.7638661199999888
 31
0.0
  0
LINE
  5
266
  8
SLD-0_0
  6
CONTINUOUS
 62
     7
 10
53.0965660000000028
 20
364.0106736500000011
 30
0.0
 11
53.0965660000000028
 21
374.7638661199999888
 31
0.0
  0
LINE
  5
267
  8
SLD-0_0
  6
CONTINUOUS
 62
     7
 10
153.5770912899999985
 20
364.0106736500000011
 30
0.0
 11
153.5770912899999985
 21
374.7638661199999888
 31
0.0
  0
LINE
  5
268
  8
SLD-0_0
  6
CONTINUOUS
 62
     7
 10
14.3540653799999998
 20
374.7638661199999888
 30
0.0
 11
14.3540653799999998
 21
385.5113163899999904
 31
0.0
  0
LINE
  5
269
  8
SLD-0_0
  6
CONTINUOUS
 62
     7
 10
-76.0451027200000027
 20
364.0106736500000011
 30
0.0
 11
-80.3498250099999893
 21
364.0106736500000011
 31
0.0
  0
LINE
  5
26A
  8
SLD-0_0
  6
CONTINUOUS
 62
     7
 10
213.8432033699999977
 20
364.0106736500000011
 30
0.0
 11
213.8432033699999977
 21
374.7638661199999888
 31
0.0
  0
LINE
  5
26B
  8
SLD-0_0
  6
CONTINUOUS
 62
     7
 10
76.0920900600000039
 20
374.7638661199999888
 30
0.0
 11
76.0920900600000039
 21
364.0106736500000011
 31
0.0
  0
LINE
  5
26C
  8
SLD-0_0
  6
CONTINUOUS
 62
     7
 10
-7.1695460699999991
 20
364.0106736500000011
 30
0.0
 11
-7.1695460699999991
 21
374.7638661199999888
 31
0.0
  0
LINE
  5
26D
  8
SLD-0_0
  6
CONTINUOUS
 62
     7
 10
71.7854537099999988
 20
364.0106736500000011
 30
0.0
 11
71.7854537099999988
 21
374.7638661199999888
 31
0.0
  0
LINE
  5
26E
  8
SLD-0_0
  6
CONTINUOUS
 62
     7
 10
22.9615959099999998
 20
374.7638661199999888
 30
0.0
 11
22.9615959099999998
 21
385.5113163899999904
 31
0.0
  0
LINE
  5
26F
  8
SLD-0_0
  6
CONTINUOUS
 62
     7
 10
101.9185097400000046
 20
364.0106736500000011
 30
0.0
 11
101.9185097400000046
 21
374.7638661199999888
 31
0.0
  0
LINE
  5
270
  8
SLD-0_0
  6
CONTINUOUS
 62
     7
 10
149.2723689999999976
 20
374.7638661199999888
 30
0.0
 11
149.2723689999999976
 21
385.5113163899999904
 31
0.0
  0
LINE
  5
271
  8
SLD-0_0
  6
CONTINUOUS
 62
     7
 10
71.7854537099999988
 20
374.7638661199999888
 30
0.0
 11
209.5384810799999968
 21
374.7638661199999888
 31
0.0
  0
LINE
  5
272
  8
SLD-0_0
  6
CONTINUOUS
 62
     7
 10
-2.866737839999999
 20
374.7638661199999888
 30
0.0
 11
-2.866737839999999
 21
385.5113163899999904
 31
0.0
  0
LINE
  5
273
  8
SLD-0_0
  6
CONTINUOUS
 62
     7
 10
18.6568736199999989
 20
364.0106736500000011
 30
0.0
 11
18.6568736199999989
 21
374.7638661199999888
 31
0.0
  0
LINE
  5
274
  8
SLD-0_0
  6
CONTINUOUS
 62
     7
 10
-80.3498250099999893
 20
385.5113163899999904
 30
0.0
 11
-80.3498250099999893
 21
374.7638661199999888
 31
0.0
  0
LINE
  5
275
  8
SLD-0_0
  6
CONTINUOUS
 62
     7
 10
27.2682322600000013
 20
364.0106736500000011
 30
0.0
 11
27.2682322600000013
 21
374.7638661199999888
 31
0.0
  0
LINE
  5
276
  8
SLD-0_0
  6
CONTINUOUS
 62
     7
 10
213.8432033699999977
 20
385.5113163899999904
 30
0.0
 11
213.8432033699999977
 21
374.7638661199999888
 31
0.0
  0
LINE
  5
277
  8
SLD-0_0
  6
CONTINUOUS
 62
     7
 10
-37.3045161699999994
 20
374.7638661199999888
 30
0.0
 11
-37.3045161699999994
 21
385.5113163899999904
 31
0.0
  0
LINE
  5
278
  8
SLD-0_0
  6
CONTINUOUS
 62
     7
 10
-80.3498250099999893
 20
374.7638661199999888
 30
0.0
 11
57.4012882899999894
 21
374.7638661199999888
 31
0.0
  0
LINE
  5
279
  8
SLD-0_0
  6
CONTINUOUS
 62
     7
 10
209.5384810799999968
 20
374.7638661199999888
 30
0.0
 11
209.5384810799999968
 21
385.5113163899999904
 31
0.0
  0
LINE
  5
27A
  8
SLD-0_0
  6
CONTINUOUS
 62
     7
 10
213.8432033699999977
 20
374.7638661199999888
 30
0.0
 11
76.0920900600000039
 21
374.7638661199999888
 31
0.0
  0
LINE
  5
27B
  8
SLD-0_0
  6
CONTINUOUS
 62
     7
 10
97.6137874500000038
 20
374.7638661199999888
 30
0.0
 11
97.6137874500000038
 21
385.5113163899999904
 31
0.0
  0
LINE
  5
27C
  8
SLD-0_0
  6
CONTINUOUS
 62
     7
 10
175.0987886899999921
 20
374.7638661199999888
 30
0.0
 11
175.0987886899999921
 21
385.5113163899999904
 31
0.0
  0
LINE
  5
27D
  8
SLD-0_0
  6
CONTINUOUS
 62
     7
 10
188.0129555599999946
 20
364.0106736500000011
 30
0.0
 11
188.0129555599999946
 21
374.7638661199999888
 31
0.0
  0
LINE
  5
27E
  8
SLD-0_0
  6
CONTINUOUS
 62
     7
 10
-32.9978798100000006
 20
364.0106736500000011
 30
0.0
 11
-32.9978798100000006
 21
374.7638661199999888
 31
0.0
  0
LINE
  5
27F
  8
SLD-0_0
  6
CONTINUOUS
 62
     7
 10
170.7959804600000098
 20
364.0106736500000011
 30
0.0
 11
170.7959804600000098
 21
374.7638661199999888
 31
0.0
  0
LINE
  5
280
  8
SLD-0_0
  6
CONTINUOUS
 62
     7
 10
31.5729545499999986
 20
374.7638661199999888
 30
0.0
 11
31.5729545499999986
 21
385.5113163899999904
 31
0.0
  0
LINE
  5
281
  8
SLD-0_0
  6
CONTINUOUS
 62
     7
 10
61.7079246400000017
 20
374.7638661199999888
 30
0.0
 11
-76.0451027200000027
 21
374.7638661199999888
 31
0.0
  0
LINE
  5
282
  8
SLD-0_0
  6
CONTINUOUS
 62
     7
 10
5.74270674
 20
374.7638661199999888
 30
0.0
 11
5.74270674
 21
385.5113163899999904
 31
0.0
  0
LINE
  5
283
  8
SLD-0_0
  6
CONTINUOUS
 62
     7
 10
-58.8271705900000015
 20
364.0106736500000011
 30
0.0
 11
-58.8271705900000015
 21
374.7638661199999888
 31
0.0
  0
LINE
  5
284
  8
SLD-0_0
  6
CONTINUOUS
 62
     7
 10
123.4421212000000025
 20
374.7638661199999888
 30
0.0
 11
123.4421212000000025
 21
385.5113163899999904
 31
0.0
  0
LINE
  5
285
  8
SLD-0_0
  6
CONTINUOUS
 62
     7
 10
-15.7799476799999994
 20
364.0106736500000011
 30
0.0
 11
-15.7799476799999994
 21
374.7638661199999888
 31
0.0
  0
LINE
  5
286
  8
SLD-0_0
  6
CONTINUOUS
 62
     7
 10
35.8776768399999995
 20
364.0106736500000011
 30
0.0
 11
35.8776768399999995
 21
374.7638661199999888
 31
0.0
  0
LINE
  5
287
  8
SLD-0_0
  6
CONTINUOUS
 62
     7
 10
84.6996205800000013
 20
364.0106736500000011
 30
0.0
 11
84.6996205800000013
 21
374.7638661199999888
 31
0.0
  0
LINE
  5
288
  8
SLD-0_0
  6
CONTINUOUS
 62
     7
 10
61.7079246400000017
 20
385.5113163899999904
 30
0.0
 11
61.7079246400000017
 21
374.7638661199999888
 31
0.0
  0
LINE
  5
289
  8
SLD-0_0
  6
CONTINUOUS
 62
     7
 10
179.403510979999993
 20
364.0106736500000011
 30
0.0
 11
179.403510979999993
 21
374.7638661199999888
 31
0.0
  0
LINE
  5
28A
  8
SLD-0_0
  6
CONTINUOUS
 62
     7
 10
192.3176778499999955
 20
374.7638661199999888
 30
0.0
 11
192.3176778499999955
 21
385.5113163899999904
 31
0.0
  0
LINE
  5
28B
  8
SLD-0_0
  6
CONTINUOUS
 62
     7
 10
-54.5224483000000006
 20
374.7638661199999888
 30
0.0
 11
-54.5224483000000006
 21
385.5113163899999904
 31
0.0
  0
LINE
  5
28C
  8
SLD-0_0
  6
CONTINUOUS
 62
     7
 10
-80.3498250099999893
 20
364.0106736500000011
 30
0.0
 11
-80.3498250099999893
 21
374.7638661199999888
 31
0.0
  0
LINE
  5
28D
  8
SLD-0_0
  6
CONTINUOUS
 62
     7
 10
-76.0451027200000027
 20
364.0106736500000011
 30
0.0
 11
61.7079246400000017
 21
364.0106736500000011
 31
0.0
  0
LINE
  5
28E
  8
SLD-0_0
  6
CONTINUOUS
 62
     7
 10
183.7082332699999938
 20
374.7638661199999888
 30
0.0
 11
183.7082332699999938
 21
385.5113163899999904
 31
0.0
  0
LINE
  5
28F
  8
SLD-0_0
  6
CONTINUOUS
 62
     7
 10
132.0515657800000042
 20
374.7638661199999888
 30
0.0
 11
132.0515657800000042
 21
385.5113163899999904
 31
0.0
  0
LINE
  5
290
  8
SLD-0_0
  6
CONTINUOUS
 62
     7
 10
57.4012882899999894
 20
374.7638661199999888
 30
0.0
 11
57.4012882899999894
 21
385.5113163899999904
 31
0.0
  0
LINE
  5
291
  8
SLD-0_0
  6
CONTINUOUS
 62
     7
 10
110.52795433
 20
364.0106736500000011
 30
0.0
 11
110.52795433
 21
374.7638661199999888
 31
0.0
  0
LINE
  5
292
  8
SLD-0_0
  6
CONTINUOUS
 62
     7
 10
-41.608281429999991
 20
364.0106736500000011
 30
0.0
 11
-41.608281429999991
 21
374.7638661199999888
 31
0.0
  0
LINE
  5
293
  8
SLD-0_0
  6
CONTINUOUS
 62
     7
 10
166.4912581700000089
 20
374.7638661199999888
 30
0.0
 11
166.4912581700000089
 21
385.5113163899999904
 31
0.0
  0
LINE
  5
294
  8
SLD-0_0
  6
CONTINUOUS
 62
     7
 10
-76.0451027200000027
 20
374.7638661199999888
 30
0.0
 11
-76.0451027200000027
 21
364.0106736500000011
 31
0.0
  0
LINE
  5
295
  8
SLD-0_0
  6
CONTINUOUS
 62
     7
 10
93.3128932799999973
 20
364.0106736500000011
 30
0.0
 11
93.3128932799999973
 21
374.7638661199999888
 31
0.0
  0
LINE
  5
296
  8
SLD-0_0
  6
CONTINUOUS
 62
     7
 10
-24.389392260000001
 20
364.0106736500000011
 30
0.0
 11
-24.389392260000001
 21
374.7638661199999888
 31
0.0
  0
LINE
  5
297
  8
SLD-0_0
  6
CONTINUOUS
 62
     7
 10
140.6610103600000059
 20
374.7638661199999888
 30
0.0
 11
140.6610103600000059
 21
385.5113163899999904
 31
0.0
  0
LINE
  5
298
  8
SLD-0_0
  6
CONTINUOUS
 62
     7
 10
61.7079246400000017
 20
364.0106736500000011
 30
0.0
 11
61.7079246400000017
 21
374.7638661199999888
 31
0.0
  0
LINE
  5
299
  8
SLD-0_0
  6
CONTINUOUS
 62
     7
 10
1.4370274199999991
 20
364.0106736500000011
 30
0.0
 11
1.4370274199999991
 21
374.7638661199999888
 31
0.0
  0
LINE
  5
29A
  8
SLD-0_0
  6
CONTINUOUS
 62
     7
 10
-11.4771394499999992
 20
374.7638661199999888
 30
0.0
 11
-11.4771394499999992
 21
385.5113163899999904
 31
0.0
  0
LINE
  5
29B
  8
SLD-0_0
  6
CONTINUOUS
 62
     7
 10
-28.696028609999999
 20
374.7638661199999888
 30
0.0
 11
-28.696028609999999
 21
385.5113163899999904
 31
0.0
  0
LINE
  5
29C
  8
SLD-0_0
  6
CONTINUOUS
 62
     7
 10
119.139312970000006
 20
364.0106736500000011
 30
0.0
 11
119.139312970000006
 21
374.7638661199999888
 31
0.0
  0
LINE
  5
29D
  8
SLD-0_0
  6
CONTINUOUS
 62
     7
 10
76.0920900600000039
 20
364.0106736500000011
 30
0.0
 11
213.8432033699999977
 21
364.0106736500000011
 31
0.0
  0
LINE
  5
29E
  8
SLD-0_0
  6
CONTINUOUS
 62
     7
 10
76.0920900600000039
 20
364.0106736500000011
 30
0.0
 11
71.7854537099999988
 21
364.0106736500000011
 31
0.0
  0
LINE
  5
29F
  8
SLD-0_0
  6
CONTINUOUS
 62
     7
 10
162.1865358800000081
 20
364.0106736500000011
 30
0.0
 11
162.1865358800000081
 21
374.7638661199999888
 31
0.0
  0
LINE
  5
2A0
  8
SLD-0_0
  6
CONTINUOUS
 62
     7
 10
136.3582021299999951
 20
364.0106736500000011
 30
0.0
 11
136.3582021299999951
 21
374.7638661199999888
 31
0.0
  0
LINE
  5
2A1
  8
SLD-0_0
  6
CONTINUOUS
 62
     7
 10
-63.1309358500000002
 20
374.7638661199999888
 30
0.0
 11
-63.1309358500000002
 21
385.5113163899999904
 31
0.0
  0
LINE
  5
2A2
  8
SLD-0_0
  6
CONTINUOUS
 62
     7
 10
-67.435658140000001
 20
364.0106736500000011
 30
0.0
 11
-67.435658140000001
 21
374.7638661199999888
 31
0.0
  0
LINE
  5
2A3
  8
SLD-0_0
  6
CONTINUOUS
 62
     7
 10
157.8818135900000073
 20
374.7638661199999888
 30
0.0
 11
157.8818135900000073
 21
385.5113163899999904
 31
0.0
  0
LINE
  5
2A4
  8
SLD-0_0
  6
CONTINUOUS
 62
     7
 10
200.9252083700000071
 20
374.7638661199999888
 30
0.0
 11
200.9252083700000071
 21
385.5113163899999904
 31
0.0
  0
LINE
  5
2A5
  8
SLD-0_0
  6
CONTINUOUS
 62
     7
 10
-12.4969409900000006
 20
273.4467173099999968
 30
0.0
 11
-27.4951370900000001
 21
273.4467173099999968
 31
0.0
  0
LINE
  5
2A6
  8
SLD-0_0
  6
CONTINUOUS
 62
     7
 10
-11.9745304000000008
 20
273.9810845100000165
 30
0.0
 11
-12.0243926600000002
 21
273.9808774699999958
 31
0.0
  0
LINE
  5
2A7
  8
SLD-0_0
  6
CONTINUOUS
 62
     7
 10
-67.2265248899999932
 20
124.5100603300000017
 30
0.0
 11
-67.2265248899999932
 21
136.75911069
 31
0.0
  0
LINE
  5
2A8
  8
SLD-0_0
  6
CONTINUOUS
 62
     7
 10
-12.1333525400000006
 20
274.0407678899999837
 30
0.0
 11
-12.1577827099999993
 21
274.0726771000000213
 31
0.0
  0
LINE
  5
2A9
  8
SLD-0_0
  6
CONTINUOUS
 62
     7
 10
93.2990635900000029
 20
124.5100603300000017
 30
0.0
 11
93.2990635900000029
 21
136.75911069
 31
0.0
  0
LINE
  5
2AA
  8
SLD-0_0
  6
CONTINUOUS
 62
     7
 10
61.7907932299999914
 20
290.4290001699999948
 30
0.0
 11
61.7907932299999914
 21
301.1783322599999906
 31
0.0
  0
LINE
  5
2AB
  8
SLD-0_0
  6
CONTINUOUS
 62
     7
 10
175.24853422999999
 20
149.0101877099999967
 30
0.0
 11
175.24853422999999
 21
136.75911069
 31
0.0
  0
LINE
  5
2AC
  8
SLD-0_0
  6
CONTINUOUS
 62
     7
 10
-74.5275182700000016
 20
124.5100603300000017
 30
0.0
 11
-80.2761005600000033
 21
124.5100603300000017
 31
0.0
  0
LINE
  5
2AD
  8
SLD-0_0
  6
CONTINUOUS
 62
     7
 10
94.4988382100000024
 20
136.75911069
 30
0.0
 11
94.4988382100000024
 21
124.5100603300000017
 31
0.0
  0
LINE
  5
2AE
  8
SLD-0_0
  6
CONTINUOUS
 62
     7
 10
-12.1033079699999995
 20
274.0131865800000242
 30
0.0
 11
-12.1333525400000006
 21
274.0407678899999837
 31
0.0
  0
LINE
  5
2AF
  8
SLD-0_0
  6
CONTINUOUS
 62
     7
 10
119.9981022200000069
 20
136.75911069
 30
0.0
 11
119.9981022200000069
 21
124.5100603300000017
 31
0.0
  0
LINE
  5
2B0
  8
SLD-0_0
  6
CONTINUOUS
 62
     7
 10
-12.1577827099999993
 20
274.0726771000000213
 30
0.0
 11
-12.1770942499999997
 21
274.1064468199999737
 31
0.0
  0
LINE
  5
2B1
  8
SLD-0_0
  6
CONTINUOUS
 62
     7
 10
77.5003421899999836
 20
130.4521873399999947
 30
0.0
 11
212.2621893200000045
 21
130.4521873399999947
 31
0.0
  0
LINE
  5
2B2
  8
SLD-0_0
  6
CONTINUOUS
 62
     7
 10
-9.4589981600000002
 20
290.5343857699999717
 30
0.0
 11
-9.4589981600000002
 21
280.0768907500000182
 31
0.0
  0
LINE
  5
2B3
  8
SLD-0_0
  6
CONTINUOUS
 62
     7
 10
-7.7282422000000004
 20
124.5100603300000017
 30
0.0
 11
-7.7282422000000004
 21
136.75911069
 31
0.0
  0
LINE
  5
2B4
  8
SLD-0_0
  6
CONTINUOUS
 62
     7
 10
71.7517599000000104
 20
149.0101877099999967
 30
0.0
 11
71.7517599000000104
 21
136.75911069
 31
0.0
  0
LINE
  5
2B5
  8
SLD-0_0
  6
CONTINUOUS
 62
     7
 10
-57.5259822800000009
 20
136.75911069
 30
0.0
 11
-57.5259822800000009
 21
124.5100603300000017
 31
0.0
  0
LINE
  5
2B6
  8
SLD-0_0
  6
CONTINUOUS
 62
     7
 10
278.7609977600000093
 20
110.4286217700000066
 30
0.0
 11
278.7609977600000093
 21
108.4286217700000066
 31
0.0
  0
LINE
  5
2B7
  8
SLD-0_0
  6
CONTINUOUS
 62
     7
 10
-71.4784288799999956
 20
136.75911069
 30
0.0
 11
-71.4784288799999956
 21
149.0101877099999967
 31
0.0
  0
LINE
  5
2B8
  8
SLD-0_0
  6
CONTINUOUS
 62
     7
 10
110.3005995700000028
 20
124.5100603300000017
 30
0.0
 11
110.3005995700000028
 21
136.75911069
 31
0.0
  0
LINE
  5
2B9
  8
SLD-0_0
  6
CONTINUOUS
 62
     7
 10
115.7502515299999999
 20
149.0101877099999967
 30
0.0
 11
115.7502515299999999
 21
136.75911069
 31
0.0
  0
LINE
  5
2BA
  8
SLD-0_0
  6
CONTINUOUS
 62
     7
 10
-20.4788875300000015
 20
136.75911069
 30
0.0
 11
-20.4788875300000015
 21
149.0101877099999967
 31
0.0
  0
LINE
  5
2BB
  8
SLD-0_0
  6
CONTINUOUS
 62
     7
 10
-27.4951370900000001
 20
273.4467173099999968
 30
0.0
 11
-27.4951370900000001
 21
295.9283049599999913
 31
0.0
  0
LINE
  5
2BC
  8
SLD-0_0
  6
CONTINUOUS
 62
     7
 10
127.3001089100000058
 20
124.5100603300000017
 30
0.0
 11
127.3001089100000058
 21
136.75911069
 31
0.0
  0
LINE
  5
2BD
  8
SLD-0_0
  6
CONTINUOUS
 62
     7
 10
1.5274515500000001
 20
290.4290001699999948
 30
0.0
 11
1.5274515500000001
 21
301.1783322599999906
 31
0.0
  0
LINE
  5
2BE
  8
SLD-0_0
  6
CONTINUOUS
 62
     7
 10
208.0477782899999966
 20
136.75911069
 30
0.0
 11
208.0477782899999966
 21
149.0101877099999967
 31
0.0
  0
LINE
  5
2BF
  8
SLD-0_0
  6
CONTINUOUS
 62
     7
 10
48.8770028699999983
 20
301.1783322599999906
 30
0.0
 11
48.8770028699999983
 21
311.9286776600000053
 31
0.0
  0
LINE
  5
2C0
  8
SLD-0_0
  6
CONTINUOUS
 62
     7
 10
76.0887830300000019
 20
301.1783322599999906
 30
0.0
 11
76.0887830300000019
 21
290.4290001699999948
 31
0.0
  0
LINE
  5
2C1
  8
SLD-0_0
  6
CONTINUOUS
 62
     7
 10
-53.278131590000001
 20
149.0101877099999967
 30
0.0
 11
-53.278131590000001
 21
136.75911069
 31
0.0
  0
LINE
  5
2C2
  8
SLD-0_0
  6
CONTINUOUS
 62
     7
 10
158.2490248800000074
 20
136.75911069
 30
0.0
 11
158.2490248800000074
 21
149.0101877099999967
 31
0.0
  0
LINE
  5
2C3
  8
SLD-0_0
  6
CONTINUOUS
 62
     7
 10
13.52013116
 20
136.75911069
 30
0.0
 11
13.52013116
 21
149.0101877099999967
 31
0.0
  0
LINE
  5
2C4
  8
SLD-0_0
  6
CONTINUOUS
 62
     7
 10
-28.6037126300000004
 20
301.1783322599999906
 30
0.0
 11
-28.6037126300000004
 21
311.9286776600000053
 31
0.0
  0
LINE
  5
2C5
  8
SLD-0_0
  6
CONTINUOUS
 62
     7
 10
-12.1770942499999997
 20
274.1064468199999737
 30
0.0
 11
-12.1917829100000006
 21
274.1396096199999874
 31
0.0
  0
LINE
  5
2C6
  8
SLD-0_0
  6
CONTINUOUS
 62
     7
 10
213.8318268900000021
 20
301.1783322599999906
 30
0.0
 11
76.0887830300000019
 21
301.1783322599999906
 31
0.0
  0
LINE
  5
2C7
  8
SLD-0_0
  6
CONTINUOUS
 62
     7
 10
97.5509675699999974
 20
136.75911069
 30
0.0
 11
97.5509675699999974
 21
149.0101877099999967
 31
0.0
  0
LINE
  5
2C8
  8
SLD-0_0
  6
CONTINUOUS
 62
     7
 10
161.2991275999999914
 20
124.5100603300000017
 30
0.0
 11
161.2991275999999914
 21
136.75911069
 31
0.0
  0
LINE
  5
2C9
  8
SLD-0_0
  6
CONTINUOUS
 62
     7
 10
149.2649017399999991
 20
301.1783322599999906
 30
0.0
 11
149.2649017399999991
 21
311.9286776600000053
 31
0.0
  0
LINE
  5
2CA
  8
SLD-0_0
  6
CONTINUOUS
 62
     7
 10
-11.0934914399999993
 20
277.7862353300000109
 30
0.0
 11
-11.0824406799999995
 21
277.3638120900000104
 31
0.0
  0
LINE
  5
2CB
  8
SLD-0_0
  6
CONTINUOUS
 62
     7
 10
-11.0783151600000007
 20
276.9350365000000238
 30
0.0
 11
-11.0828483200000001
 21
276.509043150000025
 31
0.0
  0
LINE
  5
2CC
  8
SLD-0_0
  6
CONTINUOUS
 62
     7
 10
102.9985928800000039
 20
136.75911069
 30
0.0
 11
102.9985928800000039
 21
124.5100603300000017
 31
0.0
  0
LINE
  5
2CD
  8
SLD-0_0
  6
CONTINUOUS
 62
     7
 10
0.7725258000000002
 20
124.5100603300000017
 30
0.0
 11
0.7725258000000002
 21
136.75911069
 31
0.0
  0
LINE
  5
2CE
  8
SLD-0_0
  6
CONTINUOUS
 62
     7
 10
-12.1917829100000006
 20
274.1396096199999874
 30
0.0
 11
-12.20234445
 21
274.1696980400000143
 31
0.0
  0
LINE
  5
2CF
  8
SLD-0_0
  6
CONTINUOUS
 62
     7
 10
73.2494515300000018
 20
149.0101877099999967
 30
0.0
 11
73.2494515300000018
 21
136.75911069
 31
0.0
  0
LINE
  5
2D0
  8
SLD-0_0
  6
CONTINUOUS
 62
     7
 10
157.8740953100000013
 20
301.1783322599999906
 30
0.0
 11
157.8740953100000013
 21
311.9286776600000053
 31
0.0
  0
LINE
  5
2D1
  8
SLD-0_0
  6
CONTINUOUS
 62
     7
 10
89.0025733800000154
 20
301.1783322599999906
 30
0.0
 11
89.0025733800000154
 21
311.9286776600000053
 31
0.0
  0
LINE
  5
2D2
  8
SLD-0_0
  6
CONTINUOUS
 62
     7
 10
57.4861964500000013
 20
301.1783322599999906
 30
0.0
 11
57.4861964500000013
 21
311.9286776600000053
 31
0.0
  0
LINE
  5
2D3
  8
SLD-0_0
  6
CONTINUOUS
 62
     7
 10
-58.7277835499999981
 20
124.5100603300000017
 30
0.0
 11
-58.7277835499999981
 21
136.75911069
 31
0.0
  0
LINE
  5
2D4
  8
SLD-0_0
  6
CONTINUOUS
 62
     7
 10
-19.2770862600000008
 20
149.0101877099999967
 30
0.0
 11
-19.2770862600000008
 21
136.75911069
 31
0.0
  0
LINE
  5
2D5
  8
SLD-0_0
  6
CONTINUOUS
 62
     7
 10
-18.2455232800000005
 20
300.8966284100000053
 30
0.0
 11
-18.2455232800000005
 21
295.9283049599999913
 31
0.0
  0
LINE
  5
2D6
  8
SLD-0_0
  6
CONTINUOUS
 62
     7
 10
114.5504769100000004
 20
136.75911069
 30
0.0
 11
114.5504769100000004
 21
149.0101877099999967
 31
0.0
  0
LINE
  5
2D7
  8
SLD-0_0
  6
CONTINUOUS
 62
     7
 10
205.222633309999992
 20
290.4290001699999948
 30
0.0
 11
205.222633309999992
 21
301.1783322599999906
 31
0.0
  0
LINE
  5
2D8
  8
SLD-0_0
  6
CONTINUOUS
 62
     7
 10
195.3001729300000022
 20
124.5100603300000017
 30
0.0
 11
195.3001729300000022
 21
136.75911069
 31
0.0
  0
LINE
  5
2D9
  8
SLD-0_0
  6
CONTINUOUS
 62
     7
 10
57.4861964500000013
 20
311.9286776600000053
 30
0.0
 11
61.7907932299999914
 21
311.9286776600000053
 31
0.0
  0
LINE
  5
2DA
  8
SLD-0_0
  6
CONTINUOUS
 62
     7
 10
-91.3000432200000063
 20
110.4286217700000066
 30
0.0
 11
-201.2390022399999907
 21
110.4286217700000066
 31
0.0
  0
LINE
  5
2DB
  8
SLD-0_0
  6
CONTINUOUS
 62
     7
 10
53.1836263100000011
 20
290.4290001699999948
 30
0.0
 11
53.1836263100000011
 21
301.1783322599999906
 31
0.0
  0
LINE
  5
2DC
  8
SLD-0_0
  6
CONTINUOUS
 62
     7
 10
-71.648667169999996
 20
301.1783322599999906
 30
0.0
 11
-71.648667169999996
 21
311.9286776600000053
 31
0.0
  0
LINE
  5
2DD
  8
SLD-0_0
  6
CONTINUOUS
 62
     7
 10
61.7907932299999914
 20
311.9286776600000053
 30
0.0
 11
61.7907932299999914
 21
301.1783322599999906
 31
0.0
  0
LINE
  5
2DE
  8
SLD-0_0
  6
CONTINUOUS
 62
     7
 10
192.3088429599999927
 20
301.1783322599999906
 30
0.0
 11
192.3088429599999927
 21
311.9286776600000053
 31
0.0
  0
LINE
  5
2DF
  8
SLD-0_0
  6
CONTINUOUS
 62
     7
 10
149.7472435699999949
 20
149.0101877099999967
 30
0.0
 11
149.7472435699999949
 21
136.75911069
 31
0.0
  0
LINE
  5
2E0
  8
SLD-0_0
  6
CONTINUOUS
 62
     7
 10
-78.7794222499999961
 20
140.7759236999999928
 30
0.0
 11
55.9803982299999987
 21
140.7759236999999928
 31
0.0
  0
LINE
  5
2E1
  8
SLD-0_0
  6
CONTINUOUS
 62
     7
 10
84.7993089099999935
 20
124.5100603300000017
 30
0.0
 11
84.7993089099999935
 21
136.75911069
 31
0.0
  0
LINE
  5
2E2
  8
SLD-0_0
  6
CONTINUOUS
 62
     7
 10
-58.7338634899999974
 20
290.4290001699999948
 30
0.0
 11
-58.7338634899999974
 21
301.1783322599999906
 31
0.0
  0
LINE
  5
2E3
  8
SLD-0_0
  6
CONTINUOUS
 62
     7
 10
128.4978568900000084
 20
136.75911069
 30
0.0
 11
128.4978568900000084
 21
124.5100603300000017
 31
0.0
  0
LINE
  5
2E4
  8
SLD-0_0
  6
CONTINUOUS
 62
     7
 10
209.5292567500000018
 20
301.1783322599999906
 30
0.0
 11
209.5292567500000018
 21
311.9286776600000053
 31
0.0
  0
LINE
  5
2E5
  8
SLD-0_0
  6
CONTINUOUS
 62
     7
 10
-27.4951370900000001
 20
295.9283049599999913
 30
0.0
 11
-12.4969409900000006
 21
295.9283049599999913
 31
0.0
  0
LINE
  5
2E6
  8
SLD-0_0
  6
CONTINUOUS
 62
     7
 10
148.5494955899999923
 20
136.75911069
 30
0.0
 11
148.5494955899999923
 21
149.0101877099999967
 31
0.0
  0
LINE
  5
2E7
  8
SLD-0_0
  6
CONTINUOUS
 62
     7
 10
107.2504968599999984
 20
149.0101877099999967
 30
0.0
 11
107.2504968599999984
 21
136.75911069
 31
0.0
  0
LINE
  5
2E8
  8
SLD-0_0
  6
CONTINUOUS
 62
     7
 10
183.7503155400000026
 20
136.75911069
 30
0.0
 11
183.7503155400000026
 21
149.0101877099999967
 31
0.0
  0
LINE
  5
2E9
  8
SLD-0_0
  6
CONTINUOUS
 62
     7
 10
-12.2092746099999996
 20
274.194244690000005
 30
0.0
 11
-12.2130691500000008
 21
274.2107821299999841
 31
0.0
  0
LINE
  5
2EA
  8
SLD-0_0
  6
CONTINUOUS
 62
     7
 10
-78.7794222499999961
 20
142.703264350000012
 30
0.0
 11
55.9803982299999987
 21
142.703264350000012
 31
0.0
  0
LINE
  5
2EB
  8
SLD-0_0
  6
CONTINUOUS
 62
     7
 10
-50.1256832400000008
 20
290.4290001699999948
 30
0.0
 11
-50.1256832400000008
 21
301.1783322599999906
 31
0.0
  0
LINE
  5
2EC
  8
SLD-0_0
  6
CONTINUOUS
 62
     7
 10
-37.477383549999999
 20
136.75911069
 30
0.0
 11
-37.477383549999999
 21
149.0101877099999967
 31
0.0
  0
LINE
  5
2ED
  8
SLD-0_0
  6
CONTINUOUS
 62
     7
 10
170.7878856700000085
 20
290.4290001699999948
 30
0.0
 11
170.7878856700000085
 21
301.1783322599999906
 31
0.0
  0
LINE
  5
2EE
  8
SLD-0_0
  6
CONTINUOUS
 62
     7
 10
-11.7773761599999993
 20
274.0767611200000147
 30
0.0
 11
-11.8515178999999993
 21
274.0265589100000057
 31
0.0
  0
LINE
  5
2EF
  8
SLD-0_0
  6
CONTINUOUS
 62
     7
 10
-45.9771382200000005
 20
136.75911069
 30
0.0
 11
-45.9771382200000005
 21
149.0101877099999967
 31
0.0
  0
LINE
  5
2F0
  8
SLD-0_0
  6
CONTINUOUS
 62
     7
 10
31.7234684099999988
 20
149.0101877099999967
 30
0.0
 11
31.7234684099999988
 21
136.75911069
 31
0.0
  0
LINE
  5
2F1
  8
SLD-0_0
  6
CONTINUOUS
 62
     7
 10
136.9996382100000005
 20
136.75911069
 30
0.0
 11
136.9996382100000005
 21
124.5100603300000017
 31
0.0
  0
LINE
  5
2F2
  8
SLD-0_0
  6
CONTINUOUS
 62
     7
 10
-11.6941497499999993
 20
274.1485632499999952
 30
0.0
 11
-11.7773761599999993
 21
274.0767611200000147
 31
0.0
  0
LINE
  5
2F3
  8
SLD-0_0
  6
CONTINUOUS
 62
     7
 10
-11.3863388099999998
 20
301.1783322599999906
 30
0.0
 11
-11.3863388099999998
 21
311.9286776600000053
 31
0.0
  0
LINE
  5
2F4
  8
SLD-0_0
  6
CONTINUOUS
 62
     7
 10
-12.20234445
 20
274.1696980400000143
 30
0.0
 11
-12.2092746099999996
 21
274.194244690000005
 31
0.0
  0
LINE
  5
2F5
  8
SLD-0_0
  6
CONTINUOUS
 62
     7
 10
14.4402285799999994
 20
301.1783322599999906
 30
0.0
 11
14.4402285799999994
 21
311.9286776600000053
 31
0.0
  0
LINE
  5
2F6
  8
SLD-0_0
  6
CONTINUOUS
 62
     7
 10
27.4735910799999985
 20
136.75911069
 30
0.0
 11
27.4735910799999985
 21
124.5100603300000017
 31
0.0
  0
LINE
  5
2F7
  8
SLD-0_0
  6
CONTINUOUS
 62
     7
 10
-41.7272608800000029
 20
124.5100603300000017
 30
0.0
 11
-41.7272608800000029
 21
136.75911069
 31
0.0
  0
LINE
  5
2F8
  8
SLD-0_0
  6
CONTINUOUS
 62
     7
 10
165.5490049299999953
 20
136.75911069
 30
0.0
 11
165.5490049299999953
 21
149.0101877099999967
 31
0.0
  0
LINE
  5
2F9
  8
SLD-0_0
  6
CONTINUOUS
 62
     7
 10
213.833853529999999
 20
301.1783322599999906
 30
0.0
 11
209.5292567500000018
 21
301.1783322599999906
 31
0.0
  0
LINE
  5
2FA
  8
SLD-0_0
  6
CONTINUOUS
 62
     7
 10
52.9748817299999999
 20
136.75911069
 30
0.0
 11
52.9748817299999999
 21
124.5100603300000017
 31
0.0
  0
LINE
  5
2FB
  8
SLD-0_0
  6
CONTINUOUS
 62
     7
 10
43.2733257999999879
 20
124.5100603300000017
 30
0.0
 11
43.2733257999999879
 21
136.75911069
 31
0.0
  0
LINE
  5
2FC
  8
SLD-0_0
  6
CONTINUOUS
 62
     7
 10
-78.7773955999999913
 20
149.0101877099999967
 30
0.0
 11
-78.7773955999999913
 21
136.75911069
 31
0.0
  0
LINE
  5
2FD
  8
SLD-0_0
  6
CONTINUOUS
 62
     7
 10
136.3511113799999919
 20
290.4290001699999948
 30
0.0
 11
136.3511113799999919
 21
301.1783322599999906
 31
0.0
  0
LINE
  5
2FE
  8
SLD-0_0
  6
CONTINUOUS
 62
     7
 10
52.972855090000003
 20
124.5100603300000017
 30
0.0
 11
52.972855090000003
 21
136.75911069
 31
0.0
  0
LINE
  5
2FF
  8
SLD-0_0
  6
CONTINUOUS
 62
     7
 10
179.4984115599999939
 20
136.75911069
 30
0.0
 11
179.4984115599999939
 21
124.5100603300000017
 31
0.0
  0
LINE
  5
300
  8
SLD-0_0
  6
CONTINUOUS
 62
     7
 10
-80.2588740599999966
 20
311.9286776600000053
 30
0.0
 11
-80.2588740599999966
 21
301.1783322599999906
 31
0.0
  0
LINE
  5
301
  8
SLD-0_0
  6
CONTINUOUS
 62
     7
 10
-2.7761319100000001
 20
301.1783322599999906
 30
0.0
 11
-2.7761319100000001
 21
311.9286776600000053
 31
0.0
  0
LINE
  5
302
  8
SLD-0_0
  6
CONTINUOUS
 62
     7
 10
-63.0384602700000016
 20
301.1783322599999906
 30
0.0
 11
-63.0384602700000016
 21
311.9286776600000053
 31
0.0
  0
LINE
  5
303
  8
SLD-0_0
  6
CONTINUOUS
 62
     7
 10
179.3970792499999902
 20
290.4290001699999948
 30
0.0
 11
179.3970792499999902
 21
301.1783322599999906
 31
0.0
  0
LINE
  5
304
  8
SLD-0_0
  6
CONTINUOUS
 62
     7
 10
47.5232031299999989
 20
136.75911069
 30
0.0
 11
47.5232031299999989
 21
149.0101877099999967
 31
0.0
  0
LINE
  5
305
  8
SLD-0_0
  6
CONTINUOUS
 62
     7
 10
188.000192879999986
 20
136.75911069
 30
0.0
 11
188.000192879999986
 21
124.5100603300000017
 31
0.0
  0
LINE
  5
306
  8
SLD-0_0
  6
CONTINUOUS
 62
     7
 10
-11.8515178999999993
 20
274.0265589100000057
 30
0.0
 11
-11.9170707300000007
 21
273.9954891799999928
 31
0.0
  0
LINE
  5
307
  8
SLD-0_0
  6
CONTINUOUS
 62
     7
 10
77.4993288699999852
 20
136.75911069
 30
0.0
 11
77.4993288699999852
 21
124.5100603300000017
 31
0.0
  0
LINE
  5
308
  8
SLD-0_0
  6
CONTINUOUS
 62
     7
 10
-11.20815363
 20
279.6758386700000187
 30
0.0
 11
-11.1919535999999997
 21
279.4833558199999857
 31
0.0
  0
LINE
  5
309
  8
SLD-0_0
  6
CONTINUOUS
 62
     7
 10
-201.2390022399999907
 20
110.4286217700000066
 30
0.0
 11
-201.2390022399999907
 21
108.4286217700000066
 31
0.0
  0
LINE
  5
30A
  8
SLD-0_0
  6
CONTINUOUS
 62
     7
 10
178.3006635899999992
 20
124.5100603300000017
 30
0.0
 11
178.3006635899999992
 21
136.75911069
 31
0.0
  0
LINE
  5
30B
  8
SLD-0_0
  6
CONTINUOUS
 62
     7
 10
186.7983916100000101
 20
124.5100603300000017
 30
0.0
 11
186.7983916100000101
 21
136.75911069
 31
0.0
  0
LINE
  5
30C
  8
SLD-0_0
  6
CONTINUOUS
 62
     7
 10
77.5003421899999836
 20
128.776150830000006
 30
0.0
 11
212.2621893200000045
 21
128.776150830000006
 31
0.0
  0
LINE
  5
30D
  8
SLD-0_0
  6
CONTINUOUS
 62
     7
 10
278.7609977600000093
 20
110.4286217700000066
 30
0.0
 11
258.7609977600000093
 21
110.4286217700000066
 31
0.0
  0
LINE
  5
30E
  8
SLD-0_0
  6
CONTINUOUS
 62
     7
 10
-66.0267502699999937
 20
136.75911069
 30
0.0
 11
-66.0267502699999937
 21
124.5100603300000017
 31
0.0
  0
LINE
  5
30F
  8
SLD-0_0
  6
CONTINUOUS
 62
     7
 10
-75.9532639499999931
 20
301.1783322599999906
 30
0.0
 11
-75.9532639499999931
 21
290.4290001699999948
 31
0.0
  0
LINE
  5
310
  8
SLD-0_0
  6
CONTINUOUS
 62
     7
 10
22.0219124700000002
 20
136.75911069
 30
0.0
 11
22.0219124700000002
 21
149.0101877099999967
 31
0.0
  0
LINE
  5
311
  8
SLD-0_0
  6
CONTINUOUS
 62
     7
 10
256.7460627400000135
 20
124.4289944800000001
 30
0.0
 11
256.7460627400000135
 21
121.4275312700000029
 31
0.0
  0
LINE
  5
312
  8
SLD-0_0
  6
CONTINUOUS
 62
     7
 10
-37.2139195199999975
 20
301.1783322599999906
 30
0.0
 11
-37.2139195199999975
 21
311.9286776600000053
 31
0.0
  0
LINE
  5
313
  8
SLD-0_0
  6
CONTINUOUS
 62
     7
 10
192.248043569999993
 20
136.75911069
 30
0.0
 11
192.248043569999993
 21
149.0101877099999967
 31
0.0
  0
LINE
  5
314
  8
SLD-0_0
  6
CONTINUOUS
 62
     7
 10
-33.22649289000001
 20
124.5100603300000017
 30
0.0
 11
-33.22649289000001
 21
136.75911069
 31
0.0
  0
LINE
  5
315
  8
SLD-0_0
  6
CONTINUOUS
 62
     7
 10
212.2976556200000005
 20
136.75911069
 30
0.0
 11
212.2976556200000005
 21
124.5100603300000017
 31
0.0
  0
LINE
  5
316
  8
SLD-0_0
  6
CONTINUOUS
 62
     7
 10
-54.4779062100000004
 20
136.75911069
 30
0.0
 11
-54.4779062100000004
 21
149.0101877099999967
 31
0.0
  0
LINE
  5
317
  8
SLD-0_0
  6
CONTINUOUS
 62
     7
 10
40.2211964399999928
 20
149.0101877099999967
 30
0.0
 11
40.2211964399999928
 21
136.75911069
 31
0.0
  0
LINE
  5
318
  8
SLD-0_0
  6
CONTINUOUS
 62
     7
 10
-3.477351539999999
 20
136.75911069
 30
0.0
 11
-3.477351539999999
 21
149.0101877099999967
 31
0.0
  0
LINE
  5
319
  8
SLD-0_0
  6
CONTINUOUS
 62
     7
 10
71.7821595900000062
 20
311.9286776600000053
 30
0.0
 11
71.7821595900000062
 21
301.1783322599999906
 31
0.0
  0
LINE
  5
31A
  8
SLD-0_0
  6
CONTINUOUS
 62
     7
 10
89.0491862500000053
 20
136.75911069
 30
0.0
 11
89.0491862500000053
 21
149.0101877099999967
 31
0.0
  0
LINE
  5
31B
  8
SLD-0_0
  6
CONTINUOUS
 62
     7
 10
118.7983275999998938
 20
124.5100603300000017
 30
0.0
 11
118.7983275999998938
 21
136.75911069
 31
0.0
  0
LINE
  5
31C
  8
SLD-0_0
  6
CONTINUOUS
 62
     7
 10
205.0017288699999938
 20
136.75911069
 30
0.0
 11
205.0017288699999938
 21
124.5100603300000017
 31
0.0
  0
LINE
  5
31D
  8
SLD-0_0
  6
CONTINUOUS
 62
     7
 10
44.4710737699999967
 20
124.5100603300000017
 30
0.0
 11
44.4710737699999967
 21
136.75911069
 31
0.0
  0
LINE
  5
31E
  8
SLD-0_0
  6
CONTINUOUS
 62
     7
 10
44.4731004200000015
 20
136.75911069
 30
0.0
 11
44.4731004200000015
 21
124.5100603300000017
 31
0.0
  0
LINE
  5
31F
  8
SLD-0_0
  6
CONTINUOUS
 62
     7
 10
-49.0262276099999923
 20
136.75911069
 30
0.0
 11
-49.0262276099999923
 21
124.5100603300000017
 31
0.0
  0
LINE
  5
320
  8
SLD-0_0
  6
CONTINUOUS
 62
     7
 10
71.7517599000000104
 20
136.75911069
 30
0.0
 11
208.0477782899999966
 21
136.75911069
 31
0.0
  0
LINE
  5
321
  8
SLD-0_0
  6
CONTINUOUS
 62
     7
 10
-11.2191448400000002
 20
279.7980270799999971
 30
0.0
 11
-11.20815363
 21
279.6758386700000187
 31
0.0
  0
LINE
  5
322
  8
SLD-0_0
  6
CONTINUOUS
 62
     7
 10
171.0006835400000114
 20
136.75911069
 30
0.0
 11
171.0006835400000114
 21
124.5100603300000017
 31
0.0
  0
LINE
  5
323
  8
SLD-0_0
  6
CONTINUOUS
 62
     7
 10
-6.5264409299999988
 20
136.75911069
 30
0.0
 11
-6.5264409299999988
 21
124.5100603300000017
 31
0.0
  0
LINE
  5
324
  8
SLD-0_0
  6
CONTINUOUS
 62
     7
 10
-27.7768409299999988
 20
149.0101877099999967
 30
0.0
 11
-27.7768409299999988
 21
136.75911069
 31
0.0
  0
LINE
  5
325
  8
SLD-0_0
  6
CONTINUOUS
 62
     7
 10
144.2996182599999884
 20
124.5100603300000017
 30
0.0
 11
144.2996182599999884
 21
136.75911069
 31
0.0
  0
LINE
  5
326
  8
SLD-0_0
  6
CONTINUOUS
 62
     7
 10
-11.1294349500000003
 20
278.5754864200000043
 30
0.0
 11
-11.1097340100000004
 21
278.1931716400000028
 31
0.0
  0
LINE
  5
327
  8
SLD-0_0
  6
CONTINUOUS
 62
     7
 10
97.6097403100000065
 20
301.1783322599999906
 30
0.0
 11
97.6097403100000065
 21
311.9286776600000053
 31
0.0
  0
LINE
  5
328
  8
SLD-0_0
  6
CONTINUOUS
 62
     7
 10
174.048759600000011
 20
136.75911069
 30
0.0
 11
174.048759600000011
 21
149.0101877099999967
 31
0.0
  0
LINE
  5
329
  8
SLD-0_0
  6
CONTINUOUS
 62
     7
 10
-61.7788995800000009
 20
149.0101877099999967
 30
0.0
 11
-61.7788995800000009
 21
136.75911069
 31
0.0
  0
LINE
  5
32A
  8
SLD-0_0
  6
CONTINUOUS
 62
     7
 10
-11.1097340100000004
 20
278.1931716400000028
 30
0.0
 11
-11.0934914399999993
 21
277.7862353300000109
 31
0.0
  0
LINE
  5
32B
  8
SLD-0_0
  6
CONTINUOUS
 62
     7
 10
-45.8220997700000012
 20
301.1783322599999906
 30
0.0
 11
-45.8220997700000012
 21
311.9286776600000053
 31
0.0
  0
LINE
  5
32C
  8
SLD-0_0
  6
CONTINUOUS
 62
     7
 10
-13.9956459500000001
 20
295.9283049599999913
 30
0.0
 11
-11.9943326999999993
 21
300.8966284100000053
 31
0.0
  0
LINE
  5
32D
  8
SLD-0_0
  6
CONTINUOUS
 62
     7
 10
124.2500062000000014
 20
136.75911069
 30
0.0
 11
124.2500062000000014
 21
149.0101877099999967
 31
0.0
  0
LINE
  5
32E
  8
SLD-0_0
  6
CONTINUOUS
 62
     7
 10
-9.4589981600000002
 20
280.0768907500000182
 30
0.0
 11
-12.4969409900000006
 21
280.0768907500000182
 31
0.0
  0
LINE
  5
32F
  8
SLD-0_0
  6
CONTINUOUS
 62
     7
 10
191.0482689499999935
 20
136.75911069
 30
0.0
 11
191.0482689499999935
 21
149.0101877099999967
 31
0.0
  0
LINE
  5
330
  8
SLD-0_0
  6
CONTINUOUS
 62
     7
 10
-11.0977736100000008
 20
276.0949666299999876
 30
0.0
 11
-11.1248244599999992
 21
275.7019414999999753
 31
0.0
  0
LINE
  5
331
  8
SLD-0_0
  6
CONTINUOUS
 62
     7
 10
-2.2785902400000002
 20
149.0101877099999967
 30
0.0
 11
-2.2785902400000002
 21
136.75911069
 31
0.0
  0
LINE
  5
332
  8
SLD-0_0
  6
CONTINUOUS
 62
     7
 10
124.2479795600000045
 20
149.0101877099999967
 30
0.0
 11
124.2479795600000045
 21
136.75911069
 31
0.0
  0
LINE
  5
333
  8
SLD-0_0
  6
CONTINUOUS
 62
     7
 10
276.2609977600000093
 20
385.4290117699999882
 30
0.0
 11
-198.7390022399999054
 21
385.4290117699999882
 31
0.0
  0
LINE
  5
334
  8
SLD-0_0
  6
CONTINUOUS
 62
     7
 10
278.7609977600000093
 20
108.4286217700000066
 30
0.0
 11
-201.2390022399999907
 21
108.4286217700000066
 31
0.0
  0
LINE
  5
335
  8
SLD-0_0
  6
CONTINUOUS
 62
     7
 10
166.7467529099999979
 20
136.75911069
 30
0.0
 11
166.7467529099999979
 21
149.0101877099999967
 31
0.0
  0
LINE
  5
336
  8
SLD-0_0
  6
CONTINUOUS
 62
     7
 10
-67.3450837000000035
 20
290.4290001699999948
 30
0.0
 11
-67.3450837000000035
 21
301.1783322599999906
 31
0.0
  0
LINE
  5
337
  8
SLD-0_0
  6
CONTINUOUS
 62
     7
 10
-74.5275182700000016
 20
130.4521873399999947
 30
0.0
 11
60.234328859999998
 21
130.4521873399999947
 31
0.0
  0
LINE
  5
338
  8
SLD-0_0
  6
CONTINUOUS
 62
     7
 10
258.7609977600000093
 20
290.4290117699999882
 30
0.0
 11
258.7609977600000093
 21
385.4290117699999882
 31
0.0
  0
LINE
  5
339
  8
SLD-0_0
  6
CONTINUOUS
 62
     7
 10
111.4983475500000054
 20
136.75911069
 30
0.0
 11
111.4983475500000054
 21
124.5100603300000017
 31
0.0
  0
LINE
  5
33A
  8
SLD-0_0
  6
CONTINUOUS
 62
     7
 10
132.0465145999999947
 20
301.1783322599999906
 30
0.0
 11
132.0465145999999947
 21
311.9286776600000053
 31
0.0
  0
LINE
  5
33B
  8
SLD-0_0
  6
CONTINUOUS
 62
     7
 10
71.7821595900000062
 20
290.4290001699999948
 30
0.0
 11
71.7821595900000062
 21
301.1783322599999906
 31
0.0
  0
LINE
  5
33C
  8
SLD-0_0
  6
CONTINUOUS
 62
     7
 10
86.0011101799999835
 20
136.75911069
 30
0.0
 11
86.0011101799999835
 21
124.5100603300000017
 31
0.0
  0
LINE
  5
33D
  8
SLD-0_0
  6
CONTINUOUS
 62
     7
 10
110.5235306699999995
 20
290.4290001699999948
 30
0.0
 11
110.5235306699999995
 21
301.1783322599999906
 31
0.0
  0
LINE
  5
33E
  8
SLD-0_0
  6
CONTINUOUS
 62
     7
 10
-74.5275182700000016
 20
136.75911069
 30
0.0
 11
-74.5275182700000016
 21
124.5100603300000017
 31
0.0
  0
LINE
  5
33F
  8
SLD-0_0
  6
CONTINUOUS
 62
     7
 10
-11.9943326999999993
 20
300.8966284100000053
 30
0.0
 11
-18.2455232800000005
 21
300.8966284100000053
 31
0.0
  0
LINE
  5
340
  8
SLD-0_0
  6
CONTINUOUS
 62
     7
 10
48.7209511100000014
 20
149.0101877099999967
 30
0.0
 11
48.7209511100000014
 21
136.75911069
 31
0.0
  0
LINE
  5
341
  8
SLD-0_0
  6
CONTINUOUS
 62
     7
 10
60.272835139999998
 20
136.75911069
 30
0.0
 11
60.272835139999998
 21
124.5100603300000017
 31
0.0
  0
LINE
  5
342
  8
SLD-0_0
  6
CONTINUOUS
 62
     7
 10
80.5514582299999944
 20
136.75911069
 30
0.0
 11
80.5514582299999944
 21
149.0101877099999967
 31
0.0
  0
LINE
  5
343
  8
SLD-0_0
  6
CONTINUOUS
 62
     7
 10
-89.3007566200000014
 20
124.4289944800000001
 30
0.0
 11
256.7460627400000135
 21
124.4289944800000001
 31
0.0
  0
LINE
  5
344
  8
SLD-0_0
  6
CONTINUOUS
 62
     7
 10
-36.2776089199999987
 20
149.0101877099999967
 30
0.0
 11
-36.2776089199999987
 21
136.75911069
 31
0.0
  0
LINE
  5
345
  8
SLD-0_0
  6
CONTINUOUS
 62
     7
 10
209.527230099999997
 20
311.9286776600000053
 30
0.0
 11
71.7821595900000062
 21
311.9286776600000053
 31
0.0
  0
LINE
  5
346
  8
SLD-0_0
  6
CONTINUOUS
 62
     7
 10
81.7492061999999891
 20
149.0101877099999967
 30
0.0
 11
81.7492061999999891
 21
136.75911069
 31
0.0
  0
LINE
  5
347
  8
SLD-0_0
  6
CONTINUOUS
 62
     7
 10
-89.3007566200000014
 20
121.4275312700000029
 30
0.0
 11
-89.3007566200000014
 21
124.4289944800000001
 31
0.0
  0
LINE
  5
348
  8
SLD-0_0
  6
CONTINUOUS
 62
     7
 10
56.0229578000000004
 20
149.0101877099999967
 30
0.0
 11
61.7705267699999894
 21
149.0101877099999967
 31
0.0
  0
LINE
  5
349
  8
SLD-0_0
  6
CONTINUOUS
 62
     7
 10
199.5480236200000093
 20
136.75911069
 30
0.0
 11
199.5480236200000093
 21
149.0101877099999967
 31
0.0
  0
LINE
  5
34A
  8
SLD-0_0
  6
CONTINUOUS
 62
     7
 10
-23.5269635900000011
 20
136.75911069
 30
0.0
 11
-23.5269635900000011
 21
124.5100603300000017
 31
0.0
  0
LINE
  5
34B
  8
SLD-0_0
  6
CONTINUOUS
 62
     7
 10
77.4993288699999852
 20
124.5100603300000017
 30
0.0
 11
213.7994005500000014
 21
124.5100603300000017
 31
0.0
  0
LINE
  5
34C
  8
SLD-0_0
  6
CONTINUOUS
 62
     7
 10
200.7477982400000087
 20
149.0101877099999967
 30
0.0
 11
200.7477982400000087
 21
136.75911069
 31
0.0
  0
LINE
  5
34D
  8
SLD-0_0
  6
CONTINUOUS
 62
     7
 10
-19.9965456999999986
 20
301.1783322599999906
 30
0.0
 11
-19.9965456999999986
 21
311.9286776600000053
 31
0.0
  0
LINE
  5
34E
  8
SLD-0_0
  6
CONTINUOUS
 62
     7
 10
-91.3000432200000063
 20
121.4275312700000029
 30
0.0
 11
258.7609977600000093
 21
121.4275312700000029
 31
0.0
  0
LINE
  5
34F
  8
SLD-0_0
  6
CONTINUOUS
 62
     7
 10
-27.4951370900000001
 20
290.4290117699999882
 30
0.0
 11
-198.7390022399999054
 21
290.4290117699999882
 31
0.0
  0
LINE
  5
350
  8
SLD-0_0
  6
CONTINUOUS
 62
     7
 10
145.4993928799999878
 20
136.75911069
 30
0.0
 11
145.4993928799999878
 21
124.5100603300000017
 31
0.0
  0
LINE
  5
351
  8
SLD-0_0
  6
CONTINUOUS
 62
     7
 10
188.0062728199999924
 20
290.4290001699999948
 30
0.0
 11
188.0062728199999924
 21
301.1783322599999906
 31
0.0
  0
LINE
  5
352
  8
SLD-0_0
  6
CONTINUOUS
 62
     7
 10
-11.1722781799999993
 20
279.2297131000000263
 30
0.0
 11
-11.1508608200000001
 21
278.9240451100000087
 31
0.0
  0
LINE
  5
353
  8
SLD-0_0
  6
CONTINUOUS
 62
     7
 10
162.4989022199999908
 20
136.75911069
 30
0.0
 11
162.4989022199999908
 21
124.5100603300000017
 31
0.0
  0
LINE
  5
354
  8
SLD-0_0
  6
CONTINUOUS
 62
     7
 10
35.963212519999999
 20
290.4290001699999948
 30
0.0
 11
35.963212519999999
 21
301.1783322599999906
 31
0.0
  0
LINE
  5
355
  8
SLD-0_0
  6
CONTINUOUS
 62
     7
 10
119.1347508900000065
 20
290.4290001699999948
 30
0.0
 11
119.1347508900000065
 21
301.1783322599999906
 31
0.0
  0
LINE
  5
356
  8
SLD-0_0
  6
CONTINUOUS
 62
     7
 10
-32.9072960900000027
 20
290.4290001699999948
 30
0.0
 11
-32.9072960900000027
 21
301.1783322599999906
 31
0.0
  0
LINE
  5
357
  8
SLD-0_0
  6
CONTINUOUS
 62
     7
 10
61.7705267699999894
 20
149.0101877099999967
 30
0.0
 11
61.7705267699999894
 21
136.75911069
 31
0.0
  0
LINE
  5
358
  8
SLD-0_0
  6
CONTINUOUS
 62
     7
 10
-201.2390022399999907
 20
292.9290117699999882
 30
0.0
 11
-201.2390022399999907
 21
306.9290117699999882
 31
0.0
  0
LINE
  5
359
  8
SLD-0_0
  6
CONTINUOUS
 62
     7
 10
209.5292567500000018
 20
311.9286776600000053
 30
0.0
 11
213.833853529999999
 21
311.9286776600000053
 31
0.0
  0
LINE
  5
35A
  8
SLD-0_0
  6
CONTINUOUS
 62
     7
 10
80.393379809999999
 20
301.1783322599999906
 30
0.0
 11
80.393379809999999
 21
311.9286776600000053
 31
0.0
  0
LINE
  5
35B
  8
SLD-0_0
  6
CONTINUOUS
 62
     7
 10
9.2722804700000001
 20
124.5100603300000017
 30
0.0
 11
9.2722804700000001
 21
136.75911069
 31
0.0
  0
LINE
  5
35C
  8
SLD-0_0
  6
CONTINUOUS
 62
     7
 10
5.8300216899999988
 20
301.1783322599999906
 30
0.0
 11
5.8300216899999988
 21
311.9286776600000053
 31
0.0
  0
LINE
  5
35D
  8
SLD-0_0
  6
CONTINUOUS
 62
     7
 10
26.2738164500000018
 20
124.5100603300000017
 30
0.0
 11
26.2738164500000018
 21
136.75911069
 31
0.0
  0
LINE
  5
35E
  8
SLD-0_0
  6
CONTINUOUS
 62
     7
 10
141.2515421900000092
 20
149.0101877099999967
 30
0.0
 11
141.2515421900000092
 21
136.75911069
 31
0.0
  0
LINE
  5
35F
  8
SLD-0_0
  6
CONTINUOUS
 62
     7
 10
40.2678093000000032
 20
301.1783322599999906
 30
0.0
 11
40.2678093000000032
 21
311.9286776600000053
 31
0.0
  0
LINE
  5
360
  8
SLD-0_0
  6
CONTINUOUS
 62
     7
 10
35.97334575
 20
136.75911069
 30
0.0
 11
35.97334575
 21
124.5100603300000017
 31
0.0
  0
LINE
  5
361
  8
SLD-0_0
  6
CONTINUOUS
 62
     7
 10
-80.2761005600000033
 20
149.0101877099999967
 30
0.0
 11
-80.2761005600000033
 21
136.75911069
 31
0.0
  0
LINE
  5
362
  8
SLD-0_0
  6
CONTINUOUS
 62
     7
 10
-62.9786742000000075
 20
136.75911069
 30
0.0
 11
-62.9786742000000075
 21
149.0101877099999967
 31
0.0
  0
LINE
  5
363
  8
SLD-0_0
  6
CONTINUOUS
 62
     7
 10
153.9991475500000035
 20
136.75911069
 30
0.0
 11
153.9991475500000035
 21
124.5100603300000017
 31
0.0
  0
LINE
  5
364
  8
SLD-0_0
  6
CONTINUOUS
 62
     7
 10
213.7994005500000014
 20
124.5100603300000017
 30
0.0
 11
213.7994005500000014
 21
136.75911069
 31
0.0
  0
LINE
  5
365
  8
SLD-0_0
  6
CONTINUOUS
 62
     7
 10
175.0924824600000136
 20
301.1783322599999906
 30
0.0
 11
175.0924824600000136
 21
311.9286776600000053
 31
0.0
  0
LINE
  5
366
  8
SLD-0_0
  6
CONTINUOUS
 62
     7
 10
-11.0828483200000001
 20
276.509043150000025
 30
0.0
 11
-11.0977736100000008
 21
276.0949666299999876
 31
0.0
  0
LINE
  5
367
  8
SLD-0_0
  6
CONTINUOUS
 62
     7
 10
-32.0277315900000019
 20
136.75911069
 30
0.0
 11
-32.0277315900000019
 21
124.5100603300000017
 31
0.0
  0
LINE
  5
368
  8
SLD-0_0
  6
CONTINUOUS
 62
     7
 10
61.7705267699999894
 20
124.5100603300000017
 30
0.0
 11
61.7705267699999894
 21
136.75911069
 31
0.0
  0
LINE
  5
369
  8
SLD-0_0
  6
CONTINUOUS
 62
     7
 10
-11.2222365899999996
 20
275.0155838200000176
 30
0.0
 11
-11.2960647499999993
 21
274.7405204300000037
 31
0.0
  0
LINE
  5
36A
  8
SLD-0_0
  6
CONTINUOUS
 62
     7
 10
140.6557081699999969
 20
301.1783322599999906
 30
0.0
 11
140.6557081699999969
 21
311.9286776600000053
 31
0.0
  0
LINE
  5
36B
  8
SLD-0_0
  6
CONTINUOUS
 62
     7
 10
276.2609977600000093
 20
290.4290117699999882
 30
0.0
 11
278.7609977600000093
 21
292.9290117699999882
 31
0.0
  0
LINE
  5
36C
  8
SLD-0_0
  6
CONTINUOUS
 62
     7
 10
162.1786920999998927
 20
290.4290001699999948
 30
0.0
 11
162.1786920999998927
 21
301.1783322599999906
 31
0.0
  0
LINE
  5
36D
  8
SLD-0_0
  6
CONTINUOUS
 62
     7
 10
-11.9170707300000007
 20
273.9954891799999928
 30
0.0
 11
-11.9745304000000008
 21
273.9810845100000165
 31
0.0
  0
LINE
  5
36E
  8
SLD-0_0
  6
CONTINUOUS
 62
     7
 10
127.7419178100000039
 20
290.4290001699999948
 30
0.0
 11
127.7419178100000039
 21
301.1783322599999906
 31
0.0
  0
LINE
  5
36F
  8
SLD-0_0
  6
CONTINUOUS
 62
     7
 10
-70.2786542500000024
 20
149.0101877099999967
 30
0.0
 11
-70.2786542500000024
 21
136.75911069
 31
0.0
  0
LINE
  5
370
  8
SLD-0_0
  6
CONTINUOUS
 62
     7
 10
209.527230099999997
 20
301.1783322599999906
 30
0.0
 11
209.527230099999997
 21
311.9286776600000053
 31
0.0
  0
LINE
  5
371
  8
SLD-0_0
  6
CONTINUOUS
 62
     7
 10
-11.6013429200000004
 20
274.2444327200000203
 30
0.0
 11
-11.6941497499999993
 21
274.1485632499999952
 31
0.0
  0
LINE
  5
372
  8
SLD-0_0
  6
CONTINUOUS
 62
     7
 10
-40.5254596099999915
 20
136.75911069
 30
0.0
 11
-40.5254596099999915
 21
124.5100603300000017
 31
0.0
  0
LINE
  5
373
  8
SLD-0_0
  6
CONTINUOUS
 62
     7
 10
213.833853529999999
 20
311.9286776600000053
 30
0.0
 11
213.833853529999999
 21
301.1783322599999906
 31
0.0
  0
LINE
  5
374
  8
SLD-0_0
  6
CONTINUOUS
 62
     7
 10
73.2484382100000033
 20
140.7759236999999928
 30
0.0
 11
208.008258689999991
 21
140.7759236999999928
 31
0.0
  0
LINE
  5
375
  8
SLD-0_0
  6
CONTINUOUS
 62
     7
 10
61.7907932299999914
 20
301.1783322599999906
 30
0.0
 11
-75.9532639499999931
 21
301.1783322599999906
 31
0.0
  0
LINE
  5
376
  8
SLD-0_0
  6
CONTINUOUS
 62
     7
 10
-54.4323066700000027
 20
301.1783322599999906
 30
0.0
 11
-54.4323066700000027
 21
311.9286776600000053
 31
0.0
  0
LINE
  5
377
  8
SLD-0_0
  6
CONTINUOUS
 62
     7
 10
-24.7267382200000014
 20
124.5100603300000017
 30
0.0
 11
-24.7267382200000014
 21
136.75911069
 31
0.0
  0
LINE
  5
378
  8
SLD-0_0
  6
CONTINUOUS
 62
     7
 10
123.0502315800000019
 20
136.75911069
 30
0.0
 11
123.0502315800000019
 21
149.0101877099999967
 31
0.0
  0
LINE
  5
379
  8
SLD-0_0
  6
CONTINUOUS
 62
     7
 10
1.9723004200000001
 20
136.75911069
 30
0.0
 11
1.9723004200000001
 21
124.5100603300000017
 31
0.0
  0
LINE
  5
37A
  8
SLD-0_0
  6
CONTINUOUS
 62
     7
 10
-11.2960647499999993
 20
274.7405204300000037
 30
0.0
 11
-11.3889522200000002
 21
274.5230467900000235
 31
0.0
  0
LINE
  5
37B
  8
SLD-0_0
  6
CONTINUOUS
 62
     7
 10
10.4720550899999996
 20
136.75911069
 30
0.0
 11
10.4720550899999996
 21
124.5100603300000017
 31
0.0
  0
LINE
  5
37C
  8
SLD-0_0
  6
CONTINUOUS
 62
     7
 10
44.5724060900000012
 20
290.4290001699999948
 30
0.0
 11
44.5724060900000012
 21
301.1783322599999906
 31
0.0
  0
LINE
  5
37D
  8
SLD-0_0
  6
CONTINUOUS
 62
     7
 10
200.9200631799999996
 20
301.1783322599999906
 30
0.0
 11
200.9200631799999996
 21
311.9286776600000053
 31
0.0
  0
LINE
  5
37E
  8
SLD-0_0
  6
CONTINUOUS
 62
     7
 10
39.0214218099999997
 20
136.75911069
 30
0.0
 11
39.0214218099999997
 21
149.0101877099999967
 31
0.0
  0
LINE
  5
37F
  8
SLD-0_0
  6
CONTINUOUS
 62
     7
 10
152.7993729300000041
 20
124.5100603300000017
 30
0.0
 11
152.7993729300000041
 21
136.75911069
 31
0.0
  0
LINE
  5
380
  8
SLD-0_0
  6
CONTINUOUS
 62
     7
 10
169.7988822700000071
 20
124.5100603300000017
 30
0.0
 11
169.7988822700000071
 21
136.75911069
 31
0.0
  0
LINE
  5
381
  8
SLD-0_0
  6
CONTINUOUS
 62
     7
 10
132.7497608699999887
 20
149.0101877099999967
 30
0.0
 11
132.7497608699999887
 21
136.75911069
 31
0.0
  0
LINE
  5
382
  8
SLD-0_0
  6
CONTINUOUS
 62
     7
 10
278.7609977600000093
 20
292.9290117699999882
 30
0.0
 11
278.7609977600000093
 21
306.9290117699999882
 31
0.0
  0
LINE
  5
383
  8
SLD-0_0
  6
CONTINUOUS
 62
     7
 10
-91.3000432200000063
 20
121.4275312700000029
 30
0.0
 11
-91.3000432200000063
 21
108.4286217700000066
 31
0.0
  0
LINE
  5
384
  8
SLD-0_0
  6
CONTINUOUS
 62
     7
 10
-80.2588740599999966
 20
290.4290001699999948
 30
0.0
 11
-80.2588740599999966
 21
301.1783322599999906
 31
0.0
  0
LINE
  5
385
  8
SLD-0_0
  6
CONTINUOUS
 62
     7
 10
14.7219324199999999
 20
149.0101877099999967
 30
0.0
 11
14.7219324199999999
 21
136.75911069
 31
0.0
  0
LINE
  5
386
  8
SLD-0_0
  6
CONTINUOUS
 62
     7
 10
90.2509875199999954
 20
149.0101877099999967
 30
0.0
 11
90.2509875199999954
 21
136.75911069
 31
0.0
  0
LINE
  5
387
  8
SLD-0_0
  6
CONTINUOUS
 62
     7
 10
157.049250260000008
 20
136.75911069
 30
0.0
 11
157.049250260000008
 21
149.0101877099999967
 31
0.0
  0
LINE
  5
388
  8
SLD-0_0
  6
CONTINUOUS
 62
     7
 10
192.2500702099999899
 20
149.0101877099999967
 30
0.0
 11
192.2500702099999899
 21
136.75911069
 31
0.0
  0
LINE
  5
389
  8
SLD-0_0
  6
CONTINUOUS
 62
     7
 10
-28.9766155500000018
 20
136.75911069
 30
0.0
 11
-28.9766155500000018
 21
149.0101877099999967
 31
0.0
  0
LINE
  5
38A
  8
SLD-0_0
  6
CONTINUOUS
 62
     7
 10
203.7999275999999895
 20
124.5100603300000017
 30
0.0
 11
203.7999275999999895
 21
136.75911069
 31
0.0
  0
LINE
  5
38B
  8
SLD-0_0
  6
CONTINUOUS
 62
     7
 10
123.4393476700000036
 20
301.1783322599999906
 30
0.0
 11
123.4393476700000036
 21
311.9286776600000053
 31
0.0
  0
LINE
  5
38C
  8
SLD-0_0
  6
CONTINUOUS
 62
     7
 10
84.6959499499999851
 20
290.4290001699999948
 30
0.0
 11
84.6959499499999851
 21
301.1783322599999906
 31
0.0
  0
LINE
  5
38D
  8
SLD-0_0
  6
CONTINUOUS
 62
     7
 10
208.0477782899999966
 20
149.0101877099999967
 30
0.0
 11
213.7994005500000014
 21
149.0101877099999967
 31
0.0
  0
LINE
  5
38E
  8
SLD-0_0
  6
CONTINUOUS
 62
     7
 10
144.960304960000002
 20
290.4290001699999948
 30
0.0
 11
144.960304960000002
 21
301.1783322599999906
 31
0.0
  0
LINE
  5
38F
  8
SLD-0_0
  6
CONTINUOUS
 62
     7
 10
77.4993288699999852
 20
124.5100603300000017
 30
0.0
 11
71.7517599000000104
 21
124.5100603300000017
 31
0.0
  0
LINE
  5
390
  8
SLD-0_0
  6
CONTINUOUS
 62
     7
 10
-11.1657343000000004
 20
275.3391023799999857
 30
0.0
 11
-11.2222365899999996
 21
275.0155838200000176
 31
0.0
  0
LINE
  5
391
  8
SLD-0_0
  6
CONTINUOUS
 62
     7
 10
-12.2130691500000008
 20
274.2107821299999841
 30
0.0
 11
-12.2142238299999999
 21
274.2168429100000253
 31
0.0
  0
LINE
  5
392
  8
SLD-0_0
  6
CONTINUOUS
 62
     7
 10
56.0229578000000004
 20
136.75911069
 30
0.0
 11
56.0229578000000004
 21
149.0101877099999967
 31
0.0
  0
LINE
  5
393
  8
SLD-0_0
  6
CONTINUOUS
 62
     7
 10
153.5694985300000042
 20
290.4290001699999948
 30
0.0
 11
153.5694985300000042
 21
301.1783322599999906
 31
0.0
  0
LINE
  5
394
  8
SLD-0_0
  6
CONTINUOUS
 62
     7
 10
-11.4984599000000003
 20
274.3668369600000005
 30
0.0
 11
-11.6013429200000004
 21
274.2444327200000203
 31
0.0
  0
LINE
  5
395
  8
SLD-0_0
  6
CONTINUOUS
 62
     7
 10
141.2474889000000076
 20
136.75911069
 30
0.0
 11
141.2474889000000076
 21
149.0101877099999967
 31
0.0
  0
LINE
  5
396
  8
SLD-0_0
  6
CONTINUOUS
 62
     7
 10
166.7487795600000027
 20
149.0101877099999967
 30
0.0
 11
166.7487795600000027
 21
136.75911069
 31
0.0
  0
LINE
  5
397
  8
SLD-0_0
  6
CONTINUOUS
 62
     7
 10
57.4861964500000013
 20
311.9286776600000053
 30
0.0
 11
-80.2588740599999966
 21
311.9286776600000053
 31
0.0
  0
LINE
  5
398
  8
SLD-0_0
  6
CONTINUOUS
 62
     7
 10
213.7994005500000014
 20
136.75911069
 30
0.0
 11
77.4993288699999852
 21
136.75911069
 31
0.0
  0
LINE
  5
399
  8
SLD-0_0
  6
CONTINUOUS
 62
     7
 10
-50.2280288799999965
 20
124.5100603300000017
 30
0.0
 11
-50.2280288799999965
 21
136.75911069
 31
0.0
  0
LINE
  5
39A
  8
SLD-0_0
  6
CONTINUOUS
 62
     7
 10
-80.2761005600000033
 20
124.5100603300000017
 30
0.0
 11
-80.2761005600000033
 21
136.75911069
 31
0.0
  0
LINE
  5
39B
  8
SLD-0_0
  6
CONTINUOUS
 62
     7
 10
114.8281274499999967
 20
301.1783322599999906
 30
0.0
 11
114.8281274499999967
 21
311.9286776600000053
 31
0.0
  0
LINE
  5
39C
  8
SLD-0_0
  6
CONTINUOUS
 62
     7
 10
-12.0243926600000002
 20
273.9808774699999958
 30
0.0
 11
-12.0671532599999995
 21
273.992400640000028
 31
0.0
  0
LINE
  5
39D
  8
SLD-0_0
  6
CONTINUOUS
 62
     7
 10
5.0203764800000004
 20
136.75911069
 30
0.0
 11
5.0203764800000004
 21
149.0101877099999967
 31
0.0
  0
LINE
  5
39E
  8
SLD-0_0
  6
CONTINUOUS
 62
     7
 10
208.0477782899999966
 20
149.0101877099999967
 30
0.0
 11
71.7517599000000104
 21
149.0101877099999967
 31
0.0
  0
LINE
  5
39F
  8
SLD-0_0
  6
CONTINUOUS
 62
     7
 10
-198.7390022399999054
 20
290.4290117699999882
 30
0.0
 11
-201.2390022399999907
 21
292.9290117699999882
 31
0.0
  0
LINE
  5
3A0
  8
SLD-0_0
  6
CONTINUOUS
 62
     7
 10
258.7609977600000093
 20
121.4275312700000029
 30
0.0
 11
258.7609977600000093
 21
108.4286217700000066
 31
0.0
  0
LINE
  5
3A1
  8
SLD-0_0
  6
CONTINUOUS
 62
     7
 10
93.3071701700000062
 20
290.4290001699999948
 30
0.0
 11
93.3071701700000062
 21
301.1783322599999906
 31
0.0
  0
LINE
  5
3A2
  8
SLD-0_0
  6
CONTINUOUS
 62
     7
 10
-11.2231937800000008
 20
279.8407864600000039
 30
0.0
 11
-11.2191448400000002
 21
279.7980270799999971
 31
0.0
  0
LINE
  5
3A3
  8
SLD-0_0
  6
CONTINUOUS
 62
     7
 10
18.9718097599999993
 20
136.75911069
 30
0.0
 11
18.9718097599999993
 21
124.5100603300000017
 31
0.0
  0
LINE
  5
3A4
  8
SLD-0_0
  6
CONTINUOUS
 62
     7
 10
196.6154663899999946
 20
290.4290001699999948
 30
0.0
 11
196.6154663899999946
 21
301.1783322599999906
 31
0.0
  0
LINE
  5
3A5
  8
SLD-0_0
  6
CONTINUOUS
 62
     7
 10
61.7705267699999894
 20
136.75911069
 30
0.0
 11
-74.5275182700000016
 21
136.75911069
 31
0.0
  0
LINE
  5
3A6
  8
SLD-0_0
  6
CONTINUOUS
 62
     7
 10
140.0517675700000098
 20
136.75911069
 30
0.0
 11
140.0517675700000098
 21
149.0101877099999967
 31
0.0
  0
LINE
  5
3A7
  8
SLD-0_0
  6
CONTINUOUS
 62
     7
 10
17.7740617800000003
 20
124.5100603300000017
 30
0.0
 11
17.7740617800000003
 21
136.75911069
 31
0.0
  0
LINE
  5
3A8
  8
SLD-0_0
  6
CONTINUOUS
 62
     7
 10
-11.1508608200000001
 20
278.9240451100000087
 30
0.0
 11
-11.1294349500000003
 21
278.5754864200000043
 31
0.0
  0
LINE
  5
3A9
  8
SLD-0_0
  6
CONTINUOUS
 62
     7
 10
-11.0824406799999995
 20
277.3638120900000104
 30
0.0
 11
-11.0783151600000007
 21
276.9350365000000238
 31
0.0
  0
LINE
  5
3AA
  8
SLD-0_0
  6
CONTINUOUS
 62
     7
 10
56.0229578000000004
 20
149.0101877099999967
 30
0.0
 11
-80.2761005600000033
 21
149.0101877099999967
 31
0.0
  0
LINE
  5
3AB
  8
SLD-0_0
  6
CONTINUOUS
 62
     7
 10
183.7523421900000073
 20
149.0101877099999967
 30
0.0
 11
183.7523421900000073
 21
136.75911069
 31
0.0
  0
LINE
  5
3AC
  8
SLD-0_0
  6
CONTINUOUS
 62
     7
 10
-10.7783449099999995
 20
149.0101877099999967
 30
0.0
 11
-10.7783449099999995
 21
136.75911069
 31
0.0
  0
LINE
  5
3AD
  8
SLD-0_0
  6
CONTINUOUS
 62
     7
 10
-16.2259702200000007
 20
124.5100603300000017
 30
0.0
 11
-16.2259702200000007
 21
136.75911069
 31
0.0
  0
LINE
  5
3AE
  8
SLD-0_0
  6
CONTINUOUS
 62
     7
 10
27.3540189399999996
 20
290.4290001699999948
 30
0.0
 11
27.3540189399999996
 21
301.1783322599999906
 31
0.0
  0
LINE
  5
3AF
  8
SLD-0_0
  6
CONTINUOUS
 62
     7
 10
-11.9781195300000007
 20
136.75911069
 30
0.0
 11
-11.9781195300000007
 21
149.0101877099999967
 31
0.0
  0
LINE
  5
3B0
  8
SLD-0_0
  6
CONTINUOUS
 62
     7
 10
213.7994005500000014
 20
149.0101877099999967
 30
0.0
 11
213.7994005500000014
 21
136.75911069
 31
0.0
  0
LINE
  5
3B1
  8
SLD-0_0
  6
CONTINUOUS
 62
     7
 10
149.7492702099999917
 20
136.75911069
 30
0.0
 11
149.7492702099999917
 21
149.0101877099999967
 31
0.0
  0
LINE
  5
3B2
  8
SLD-0_0
  6
CONTINUOUS
 62
     7
 10
-12.0671532599999995
 20
273.992400640000028
 30
0.0
 11
-12.1033079699999995
 21
274.0131865800000242
 31
0.0
  0
LINE
  5
3B3
  8
SLD-0_0
  6
CONTINUOUS
 62
     7
 10
71.7517599000000104
 20
124.5100603300000017
 30
0.0
 11
71.7517599000000104
 21
136.75911069
 31
0.0
  0
LINE
  5
3B4
  8
SLD-0_0
  6
CONTINUOUS
 62
     7
 10
135.7998635900000011
 20
124.5100603300000017
 30
0.0
 11
135.7998635900000011
 21
136.75911069
 31
0.0
  0
LINE
  5
3B5
  8
SLD-0_0
  6
CONTINUOUS
 62
     7
 10
183.699649380000011
 20
301.1783322599999906
 30
0.0
 11
183.699649380000011
 21
311.9286776600000053
 31
0.0
  0
LINE
  5
3B6
  8
SLD-0_0
  6
CONTINUOUS
 62
     7
 10
-74.5275182700000016
 20
124.5100603300000017
 30
0.0
 11
61.7705267699999894
 21
124.5100603300000017
 31
0.0
  0
LINE
  5
3B7
  8
SLD-0_0
  6
CONTINUOUS
 62
     7
 10
106.0507222399999989
 20
136.75911069
 30
0.0
 11
106.0507222399999989
 21
149.0101877099999967
 31
0.0
  0
LINE
  5
3B8
  8
SLD-0_0
  6
CONTINUOUS
 62
     7
 10
-80.2588740599999966
 20
301.1783322599999906
 30
0.0
 11
57.4861964500000013
 21
301.1783322599999906
 31
0.0
  0
LINE
  5
3B9
  8
SLD-0_0
  6
CONTINUOUS
 62
     7
 10
-27.9957187300000001
 20
300.8966284100000053
 30
0.0
 11
-21.7465547999999984
 21
300.8966284100000053
 31
0.0
  0
LINE
  5
3BA
  8
SLD-0_0
  6
CONTINUOUS
 62
     7
 10
98.7487155400000205
 20
149.0101877099999967
 30
0.0
 11
98.7487155400000205
 21
136.75911069
 31
0.0
  0
LINE
  5
3BB
  8
SLD-0_0
  6
CONTINUOUS
 62
     7
 10
-25.9944054899999983
 20
295.9283049599999913
 30
0.0
 11
-27.9957187300000001
 21
300.8966284100000053
 31
0.0
  0
LINE
  5
3BC
  8
SLD-0_0
  6
CONTINUOUS
 62
     7
 10
-80.2761005600000033
 20
136.75911069
 30
0.0
 11
56.0229578000000004
 21
136.75911069
 31
0.0
  0
LINE
  5
3BD
  8
SLD-0_0
  6
CONTINUOUS
 62
     7
 10
182.5485142699999983
 20
136.75911069
 30
0.0
 11
182.5485142699999983
 21
149.0101877099999967
 31
0.0
  0
LINE
  5
3BE
  8
SLD-0_0
  6
CONTINUOUS
 62
     7
 10
-7.080728699999999
 20
290.4290001699999948
 30
0.0
 11
-7.080728699999999
 21
301.1783322599999906
 31
0.0
  0
LINE
  5
3BF
  8
SLD-0_0
  6
CONTINUOUS
 62
     7
 10
158.2510515300000122
 20
149.0101877099999967
 30
0.0
 11
158.2510515300000122
 21
136.75911069
 31
0.0
  0
LINE
  5
3C0
  8
SLD-0_0
  6
CONTINUOUS
 62
     7
 10
101.7988182600000044
 20
124.5100603300000017
 30
0.0
 11
101.7988182600000044
 21
136.75911069
 31
0.0
  0
LINE
  5
3C1
  8
SLD-0_0
  6
CONTINUOUS
 62
     7
 10
101.9143370999999973
 20
290.4290001699999948
 30
0.0
 11
101.9143370999999973
 21
301.1783322599999906
 31
0.0
  0
LINE
  5
3C2
  8
SLD-0_0
  6
CONTINUOUS
 62
     7
 10
166.4832888900000114
 20
301.1783322599999906
 30
0.0
 11
166.4832888900000114
 21
311.9286776600000053
 31
0.0
  0
LINE
  5
3C3
  8
SLD-0_0
  6
CONTINUOUS
 62
     7
 10
131.5499862499999892
 20
136.75911069
 30
0.0
 11
131.5499862499999892
 21
149.0101877099999967
 31
0.0
  0
LINE
  5
3C4
  8
SLD-0_0
  6
CONTINUOUS
 62
     7
 10
23.0514487999999993
 20
301.1783322599999906
 30
0.0
 11
23.0514487999999993
 21
311.9286776600000053
 31
0.0
  0
LINE
  5
3C5
  8
SLD-0_0
  6
CONTINUOUS
 62
     7
 10
-12.4969409900000006
 20
295.9283049599999913
 30
0.0
 11
-12.4969409900000006
 21
273.4467173099999968
 31
0.0
  0
LINE
  5
3C6
  8
SLD-0_0
  6
CONTINUOUS
 62
     7
 10
34.7735711199999997
 20
124.5100603300000017
 30
0.0
 11
34.7735711199999997
 21
136.75911069
 31
0.0
  0
LINE
  5
3C7
  8
SLD-0_0
  6
CONTINUOUS
 62
     7
 10
51.7730804699999965
 20
124.5100603300000017
 30
0.0
 11
51.7730804699999965
 21
136.75911069
 31
0.0
  0
LINE
  5
3C8
  8
SLD-0_0
  6
CONTINUOUS
 62
     7
 10
-11.1248244599999992
 20
275.7019414999999753
 30
0.0
 11
-11.1657343000000004
 21
275.3391023799999857
 31
0.0
  0
LINE
  5
3C9
  8
SLD-0_0
  6
CONTINUOUS
 62
     7
 10
71.7821595900000062
 20
301.1783322599999906
 30
0.0
 11
209.527230099999997
 21
301.1783322599999906
 31
0.0
  0
LINE
  5
3CA
  8
SLD-0_0
  6
CONTINUOUS
 62
     7
 10
-11.3889522200000002
 20
274.5230467900000235
 30
0.0
 11
-11.4984599000000003
 21
274.3668369600000005
 31
0.0
  0
LINE
  5
3CB
  8
SLD-0_0
  6
CONTINUOUS
 62
     7
 10
196.4979208999999969
 20
136.75911069
 30
0.0
 11
196.4979208999999969
 21
124.5100603300000017
 31
0.0
  0
LINE
  5
3CC
  8
SLD-0_0
  6
CONTINUOUS
 62
     7
 10
23.2237137400000009
 20
149.0101877099999967
 30
0.0
 11
23.2237137400000009
 21
136.75911069
 31
0.0
  0
LINE
  5
3CD
  8
SLD-0_0
  6
CONTINUOUS
 62
     7
 10
73.2484382100000033
 20
142.703264350000012
 30
0.0
 11
208.008258689999991
 21
142.703264350000012
 31
0.0
  0
LINE
  5
3CE
  8
SLD-0_0
  6
CONTINUOUS
 62
     7
 10
6.2221777500000002
 20
149.0101877099999967
 30
0.0
 11
6.2221777500000002
 21
136.75911069
 31
0.0
  0
LINE
  5
3CF
  8
SLD-0_0
  6
CONTINUOUS
 62
     7
 10
10.1356318000000005
 20
290.4290001699999948
 30
0.0
 11
10.1356318000000005
 21
301.1783322599999906
 31
0.0
  0
LINE
  5
3D0
  8
SLD-0_0
  6
CONTINUOUS
 62
     7
 10
-12.4969409900000006
 20
290.5343857699999717
 30
0.0
 11
-9.4589981600000002
 21
290.5343857699999717
 31
0.0
  0
LINE
  5
3D1
  8
SLD-0_0
  6
CONTINUOUS
 62
     7
 10
-41.5175029899999899
 20
290.4290001699999948
 30
0.0
 11
-41.5175029899999899
 21
301.1783322599999906
 31
0.0
  0
LINE
  5
3D2
  8
SLD-0_0
  6
CONTINUOUS
 62
     7
 10
-44.7783769199999995
 20
149.0101877099999967
 30
0.0
 11
-44.7783769199999995
 21
136.75911069
 31
0.0
  0
LINE
  5
3D3
  8
SLD-0_0
  6
CONTINUOUS
 62
     7
 10
-15.0272089199999996
 20
136.75911069
 30
0.0
 11
-15.0272089199999996
 21
124.5100603300000017
 31
0.0
  0
LINE
  5
3D4
  8
SLD-0_0
  6
CONTINUOUS
 62
     7
 10
30.5216671400000017
 20
136.75911069
 30
0.0
 11
30.5216671400000017
 21
149.0101877099999967
 31
0.0
  0
LINE
  5
3D5
  8
SLD-0_0
  6
CONTINUOUS
 62
     7
 10
-21.7465547999999984
 20
300.8966284100000053
 30
0.0
 11
-21.7465547999999984
 21
295.9283049599999913
 31
0.0
  0
LINE
  5
3D6
  8
SLD-0_0
  6
CONTINUOUS
 62
     7
 10
213.8318268900000021
 20
290.4290001699999948
 30
0.0
 11
213.8318268900000021
 21
301.1783322599999906
 31
0.0
  0
LINE
  5
3D7
  8
SLD-0_0
  6
CONTINUOUS
 62
     7
 10
106.2189338799999945
 20
301.1783322599999906
 30
0.0
 11
106.2189338799999945
 21
311.9286776600000053
 31
0.0
  0
LINE
  5
3D8
  8
SLD-0_0
  6
CONTINUOUS
 62
     7
 10
-74.5275182700000016
 20
128.776150830000006
 30
0.0
 11
60.234328859999998
 21
128.776150830000006
 31
0.0
  0
LINE
  5
3D9
  8
SLD-0_0
  6
CONTINUOUS
 62
     7
 10
-11.1919535999999997
 20
279.4833558199999857
 30
0.0
 11
-11.1722781799999993
 21
279.2297131000000263
 31
0.0
  0
LINE
  5
3DA
  8
SLD-0_0
  6
CONTINUOUS
 62
     7
 10
18.7468520199999986
 20
290.4290001699999948
 30
0.0
 11
18.7468520199999986
 21
301.1783322599999906
 31
0.0
  0
LINE
  5
3DB
  8
SLD-0_0
  6
CONTINUOUS
 62
     7
 10
31.6586157300000011
 20
301.1783322599999906
 30
0.0
 11
31.6586157300000011
 21
311.9286776600000053
 31
0.0
  0
LINE
  5
3DC
  8
SLD-0_0
  6
CONTINUOUS
 62
     7
 10
278.7609977600000093
 20
318.9290117699999882
 30
0.0
 11
278.7609977600000093
 21
356.9290117699999882
 31
0.0
  0
LINE
  5
3DD
  8
SLD-0_0
  6
CONTINUOUS
 62
     7
 10
-198.7390022399999054
 20
366.4290117699999882
 30
0.0
 11
-201.2390022399999907
 21
368.9290117699999882
 31
0.0
  0
LINE
  5
3DE
  8
SLD-0_0
  6
CONTINUOUS
 62
     7
 10
268.7609977600000093
 20
316.4290117699999882
 30
0.0
 11
276.2609977600000093
 21
316.4290117699999882
 31
0.0
  0
LINE
  5
3DF
  8
SLD-0_0
  6
CONTINUOUS
 62
     7
 10
278.7609977600000093
 20
382.9290117699999882
 30
0.0
 11
276.2609977600000093
 21
385.4290117699999882
 31
0.0
  0
LINE
  5
3E0
  8
SLD-0_0
  6
CONTINUOUS
 62
     7
 10
268.7609977600000093
 20
366.4290117699999882
 30
0.0
 11
276.2609977600000093
 21
366.4290117699999882
 31
0.0
  0
LINE
  5
3E1
  8
SLD-0_0
  6
CONTINUOUS
 62
     7
 10
-201.2390022399999907
 20
318.9290117699999882
 30
0.0
 11
-201.2390022399999907
 21
356.9290117699999882
 31
0.0
  0
LINE
  5
3E2
  8
SLD-0_0
  6
CONTINUOUS
 62
     7
 10
276.2609977600000093
 20
309.4290117699999882
 30
0.0
 11
278.7609977600000093
 21
306.9290117699999882
 31
0.0
  0
LINE
  5
3E3
  8
SLD-0_0
  6
CONTINUOUS
 62
     7
 10
276.2609977600000093
 20
290.4290117699999882
 30
0.0
 11
-9.4589981600000002
 21
290.4290117699999882
 31
0.0
  0
LINE
  5
3E4
  8
SLD-0_0
  6
CONTINUOUS
 62
     7
 10
276.2609977600000093
 20
316.4290117699999882
 30
0.0
 11
278.7609977600000093
 21
318.9290117699999882
 31
0.0
  0
LINE
  5
3E5
  8
SLD-0_0
  6
CONTINUOUS
 62
     7
 10
268.7609977600000093
 20
309.4290117699999882
 30
0.0
 11
276.2609977600000093
 21
309.4290117699999882
 31
0.0
  0
LINE
  5
3E6
  8
SLD-0_0
  6
CONTINUOUS
 62
     7
 10
-201.2390022399999907
 20
382.9290117699999882
 30
0.0
 11
-198.7390022399999054
 21
385.4290117699999882
 31
0.0
  0
LINE
  5
3E7
  8
SLD-0_0
  6
CONTINUOUS
 62
     7
 10
268.7609977600000093
 20
359.4290117699999882
 30
0.0
 11
276.2609977600000093
 21
359.4290117699999882
 31
0.0
  0
LINE
  5
3E8
  8
SLD-0_0
  6
CONTINUOUS
 62
     7
 10
-198.7390022399999054
 20
316.4290117699999882
 30
0.0
 11
-201.2390022399999907
 21
318.9290117699999882
 31
0.0
  0
LINE
  5
3E9
  8
SLD-0_0
  6
CONTINUOUS
 62
     7
 10
276.2609977600000093
 20
366.4290117699999882
 30
0.0
 11
278.7609977600000093
 21
368.9290117699999882
 31
0.0
  0
LINE
  5
3EA
  8
SLD-0_0
  6
CONTINUOUS
 62
     7
 10
-191.2390022399999907
 20
359.4290117699999882
 30
0.0
 11
-198.7390022399999054
 21
359.4290117699999882
 31
0.0
  0
LINE
  5
3EB
  8
SLD-0_0
  6
CONTINUOUS
 62
     7
 10
-191.2390022399999907
 20
366.4290117699999882
 30
0.0
 11
-198.7390022399999054
 21
366.4290117699999882
 31
0.0
  0
LINE
  5
3EC
  8
SLD-0_0
  6
CONTINUOUS
 62
     7
 10
-198.7390022399999054
 20
359.4290117699999882
 30
0.0
 11
-201.2390022399999907
 21
356.9290117699999882
 31
0.0
  0
LINE
  5
3ED
  8
SLD-0_0
  6
CONTINUOUS
 62
     7
 10
276.2609977600000093
 20
359.4290117699999882
 30
0.0
 11
278.7609977600000093
 21
356.9290117699999882
 31
0.0
  0
LINE
  5
3EE
  8
SLD-0_0
  6
CONTINUOUS
 62
     7
 10
-191.2390022399999907
 20
316.4290117699999882
 30
0.0
 11
-198.7390022399999054
 21
316.4290117699999882
 31
0.0
  0
LINE
  5
3EF
  8
SLD-0_0
  6
CONTINUOUS
 62
     7
 10
-198.7390022399999054
 20
309.4290117699999882
 30
0.0
 11
-201.2390022399999907
 21
306.9290117699999882
 31
0.0
  0
LINE
  5
3F0
  8
SLD-0_0
  6
CONTINUOUS
 62
     7
 10
278.7609977600000093
 20
368.9290117699999882
 30
0.0
 11
278.7609977600000093
 21
382.9290117699999882
 31
0.0
  0
LINE
  5
3F1
  8
SLD-0_0
  6
CONTINUOUS
 62
     7
 10
-191.2390022399999907
 20
309.4290117699999882
 30
0.0
 11
-198.7390022399999054
 21
309.4290117699999882
 31
0.0
  0
LINE
  5
3F2
  8
SLD-0_0
  6
CONTINUOUS
 62
     7
 10
-201.2390022399999907
 20
368.9290117699999882
 30
0.0
 11
-201.2390022399999907
 21
382.9290117699999882
 31
0.0
  0
ARC
  5
3F3
  8
SLD-0_0
  6
CONTINUOUS
 62
     7
 10
-191.2390022399999907
 20
312.9290117699999882
 30
0.0
 40
3.5
 50
270.0
 51
450.0
  0
ARC
  5
3F4
  8
SLD-0_0
  6
CONTINUOUS
 62
     7
 10
268.7609977600000093
 20
312.9290117699999882
 30
0.0
 40
3.5
 50
90.0
 51
270.0
  0
ARC
  5
3F5
  8
SLD-0_0
  6
CONTINUOUS
 62
     7
 10
-191.2390022399999907
 20
362.9290117699999882
 30
0.0
 40
3.5
 50
270.0
 51
450.0
  0
ARC
  5
3F6
  8
SLD-0_0
  6
CONTINUOUS
 62
     7
 10
268.7609977600000093
 20
362.9290117699999882
 30
0.0
 40
3.5
 50
90.0
 51
270.0
  0
LINE
  5
3F7
  8
SLD-0_0
  6
PHANTOM
 62
     7
 10
-181.2390022399999907
 20
290.4290117699999882
 30
0.0
 11
-181.2390022399999907
 21
385.4290117699999882
 31
0.0
  0
LINE
  5
3F8
  8
SLD-0_0
  6
PHANTOM
 62
     7
 10
-91.2270839499999937
 20
290.4290001699999948
 30
0.0
 11
-91.2270839499999937
 21
385.4290117699999882
 31
0.0
  0
LINE
  5
3F9
  8
SLD-0_0
  6
PHANTOM
 62
     7
 10
-120.4574038399999978
 20
-71.0722701600000022
 30
0.0
 11
-120.4574038399999978
 21
-81.8986148099999838
 31
0.0
  0
LINE
  5
3FA
  8
SLD-0_0
  6
PHANTOM
 62
     7
 10
-160.0003135400000076
 20
-81.8986148099999838
 30
0.0
 11
-159.105549179999997
 21
-81.8986148099999838
 31
0.0
  0
LINE
  5
3FB
  8
SLD-0_0
  6
PHANTOM
 62
     7
 10
-142.0047075299999904
 20
-71.0722701600000022
 30
0.0
 11
-142.9075784599999963
 21
-71.0722701600000022
 31
0.0
  0
LINE
  5
3FC
  8
SLD-0_0
  6
PHANTOM
 62
     7
 10
-139.3366276499999969
 20
-71.0722701600000022
 30
0.0
 11
-140.2283520299999964
 21
-71.0722701600000022
 31
0.0
  0
LINE
  5
3FD
  8
SLD-0_0
  6
PHANTOM
 62
     7
 10
-150.1153461000000107
 20
-71.0722701600000022
 30
0.0
 11
-150.1153461000000107
 21
-81.8986148099999838
 31
0.0
  0
LINE
  5
3FE
  8
SLD-0_0
  6
PHANTOM
 62
     7
 10
-122.233759340000006
 20
-81.8986148099999838
 30
0.0
 11
-122.233759340000006
 21
-71.0722701600000022
 31
0.0
  0
LINE
  5
3FF
  8
SLD-0_0
  6
PHANTOM
 62
     7
 10
-139.3366276499999969
 20
-81.8986148099999838
 30
0.0
 11
-139.3366276499999969
 21
-82.7913525099999958
 31
0.0
  0
LINE
  5
400
  8
SLD-0_0
  6
PHANTOM
 62
     7
 10
-112.346765259999998
 20
-71.0722701600000022
 30
0.0
 11
-113.2496361999999976
 21
-71.0722701600000022
 31
0.0
  0
LINE
  5
401
  8
SLD-0_0
  6
PHANTOM
 62
     7
 10
-142.9075784599999963
 20
-82.7913525099999958
 30
0.0
 11
-142.9075784599999963
 21
-81.8986148099999838
 31
0.0
  0
LINE
  5
402
  8
SLD-0_0
  6
PHANTOM
 62
     7
 10
-162.6795399700000075
 20
-71.0722701600000022
 30
0.0
 11
-162.6795399700000075
 21
-69.7914296900000011
 31
0.0
  0
LINE
  5
403
  8
SLD-0_0
  6
PHANTOM
 62
     7
 10
-132.118726769999995
 20
-81.8986148099999838
 30
0.0
 11
-132.118726769999995
 21
-71.0722701600000022
 31
0.0
  0
LINE
  5
404
  8
SLD-0_0
  6
PHANTOM
 62
     7
 10
-129.4496335700000031
 20
-81.8986148099999838
 30
0.0
 11
-129.4496335700000031
 21
-82.7913525099999958
 31
0.0
  0
LINE
  5
405
  8
SLD-0_0
  6
PHANTOM
 62
     7
 10
-129.4496335700000031
 20
-69.7914296900000011
 30
0.0
 11
-129.4496335700000031
 21
-71.0722701600000022
 31
0.0
  0
LINE
  5
406
  8
SLD-0_0
  6
PHANTOM
 62
     7
 10
-133.0236243500000057
 20
-71.0722701600000022
 30
0.0
 11
-133.0236243500000057
 21
-69.7914296900000011
 31
0.0
  0
LINE
  5
407
  8
SLD-0_0
  6
PHANTOM
 62
     7
 10
-123.1366302800000057
 20
-82.7913525099999958
 30
0.0
 11
-123.1366302800000057
 21
-81.8986148099999838
 31
0.0
  0
LINE
  5
408
  8
SLD-0_0
  6
PHANTOM
 62
     7
 10
-120.4574038399999978
 20
-81.8986148099999838
 30
0.0
 11
-119.5626394899999951
 21
-81.8986148099999838
 31
0.0
  0
LINE
  5
409
  8
SLD-0_0
  6
PHANTOM
 62
     7
 10
-159.105549179999997
 20
-81.8986148099999838
 30
0.0
 11
-159.105549179999997
 21
-82.7913525099999958
 31
0.0
  0
LINE
  5
40A
  8
SLD-0_0
  6
PHANTOM
 62
     7
 10
-162.6795399700000075
 20
-81.8986148099999838
 30
0.0
 11
-161.7766690400000016
 21
-81.8986148099999838
 31
0.0
  0
LINE
  5
40B
  8
SLD-0_0
  6
PHANTOM
 62
     7
 10
-109.6786853800000046
 20
-82.7913525099999958
 30
0.0
 11
-162.6795399700000075
 21
-82.7913525099999958
 31
0.0
  0
LINE
  5
40C
  8
SLD-0_0
  6
PHANTOM
 62
     7
 10
-161.7766690400000016
 20
-81.8986148099999838
 30
0.0
 11
-161.7766690400000016
 21
-71.0722701600000022
 31
0.0
  0
LINE
  5
40D
  8
SLD-0_0
  6
PHANTOM
 62
     7
 10
-142.9075784599999963
 20
-71.0722701600000022
 30
0.0
 11
-142.9075784599999963
 21
-69.7914296900000011
 31
0.0
  0
LINE
  5
40E
  8
SLD-0_0
  6
PHANTOM
 62
     7
 10
-112.346765259999998
 20
-81.8986148099999838
 30
0.0
 11
-112.346765259999998
 21
-71.0722701600000022
 31
0.0
  0
LINE
  5
40F
  8
SLD-0_0
  6
PHANTOM
 62
     7
 10
-140.2283520299999964
 20
-81.8986148099999838
 30
0.0
 11
-139.3366276499999969
 21
-81.8986148099999838
 31
0.0
  0
LINE
  5
410
  8
SLD-0_0
  6
PHANTOM
 62
     7
 10
-152.7925458900000137
 20
-82.7913525099999958
 30
0.0
 11
-152.7925458900000137
 21
-81.8986148099999838
 31
0.0
  0
LINE
  5
411
  8
SLD-0_0
  6
PHANTOM
 62
     7
 10
-130.342371270000001
 20
-71.0722701600000022
 30
0.0
 11
-130.342371270000001
 21
-81.8986148099999838
 31
0.0
  0
LINE
  5
412
  8
SLD-0_0
  6
PHANTOM
 62
     7
 10
-113.2496361999999976
 20
-81.8986148099999838
 30
0.0
 11
-112.346765259999998
 21
-81.8986148099999838
 31
0.0
  0
LINE
  5
413
  8
SLD-0_0
  6
PHANTOM
 62
     7
 10
-132.118726769999995
 20
-71.0722701600000022
 30
0.0
 11
-133.0236243500000057
 21
-71.0722701600000022
 31
0.0
  0
LINE
  5
414
  8
SLD-0_0
  6
PHANTOM
 62
     7
 10
-149.220581750000008
 20
-69.7914296900000011
 30
0.0
 11
-149.220581750000008
 21
-71.0722701600000022
 31
0.0
  0
LINE
  5
415
  8
SLD-0_0
  6
PHANTOM
 62
     7
 10
-152.7925458900000137
 20
-81.8986148099999838
 30
0.0
 11
-151.8917016000000046
 21
-81.8986148099999838
 31
0.0
  0
LINE
  5
416
  8
SLD-0_0
  6
PHANTOM
 62
     7
 10
-161.7766690400000016
 20
-71.0722701600000022
 30
0.0
 11
-162.6795399700000075
 21
-71.0722701600000022
 31
0.0
  0
LINE
  5
417
  8
SLD-0_0
  6
PHANTOM
 62
     7
 10
-119.5626394899999951
 20
-69.7914296900000011
 30
0.0
 11
-119.5626394899999951
 21
-71.0722701600000022
 31
0.0
  0
LINE
  5
418
  8
SLD-0_0
  6
PHANTOM
 62
     7
 10
-142.9075784599999963
 20
-81.8986148099999838
 30
0.0
 11
-142.0047075299999904
 21
-81.8986148099999838
 31
0.0
  0
LINE
  5
419
  8
SLD-0_0
  6
PHANTOM
 62
     7
 10
-122.233759340000006
 20
-71.0722701600000022
 30
0.0
 11
-123.1366302800000057
 21
-71.0722701600000022
 31
0.0
  0
LINE
  5
41A
  8
SLD-0_0
  6
PHANTOM
 62
     7
 10
-149.220581750000008
 20
-81.8986148099999838
 30
0.0
 11
-149.220581750000008
 21
-82.7913525099999958
 31
0.0
  0
LINE
  5
41B
  8
SLD-0_0
  6
PHANTOM
 62
     7
 10
-140.2283520299999964
 20
-71.0722701600000022
 30
0.0
 11
-140.2283520299999964
 21
-81.8986148099999838
 31
0.0
  0
LINE
  5
41C
  8
SLD-0_0
  6
PHANTOM
 62
     7
 10
-142.0047075299999904
 20
-81.8986148099999838
 30
0.0
 11
-142.0047075299999904
 21
-71.0722701600000022
 31
0.0
  0
LINE
  5
41D
  8
SLD-0_0
  6
PHANTOM
 62
     7
 10
-110.570409760000004
 20
-81.8986148099999838
 30
0.0
 11
-109.6786853800000046
 21
-81.8986148099999838
 31
0.0
  0
LINE
  5
41E
  8
SLD-0_0
  6
PHANTOM
 62
     7
 10
-109.6786853800000046
 20
-69.7914296900000011
 30
0.0
 11
-109.6786853800000046
 21
-71.0722701600000022
 31
0.0
  0
LINE
  5
41F
  8
SLD-0_0
  6
PHANTOM
 62
     7
 10
-110.570409760000004
 20
-71.0722701600000022
 30
0.0
 11
-110.570409760000004
 21
-81.8986148099999838
 31
0.0
  0
LINE
  5
420
  8
SLD-0_0
  6
PHANTOM
 62
     7
 10
-109.6786853800000046
 20
-81.8986148099999838
 30
0.0
 11
-109.6786853800000046
 21
-82.7913525099999958
 31
0.0
  0
LINE
  5
421
  8
SLD-0_0
  6
PHANTOM
 62
     7
 10
-123.1366302800000057
 20
-81.8986148099999838
 30
0.0
 11
-122.233759340000006
 21
-81.8986148099999838
 31
0.0
  0
LINE
  5
422
  8
SLD-0_0
  6
PHANTOM
 62
     7
 10
-150.1153461000000107
 20
-81.8986148099999838
 30
0.0
 11
-149.220581750000008
 21
-81.8986148099999838
 31
0.0
  0
LINE
  5
423
  8
SLD-0_0
  6
PHANTOM
 62
     7
 10
-139.3366276499999969
 20
-69.7914296900000011
 30
0.0
 11
-139.3366276499999969
 21
-71.0722701600000022
 31
0.0
  0
LINE
  5
424
  8
SLD-0_0
  6
PHANTOM
 62
     7
 10
-162.6795399700000075
 20
-82.7913525099999958
 30
0.0
 11
-162.6795399700000075
 21
-81.8986148099999838
 31
0.0
  0
LINE
  5
425
  8
SLD-0_0
  6
PHANTOM
 62
     7
 10
-149.220581750000008
 20
-71.0722701600000022
 30
0.0
 11
-150.1153461000000107
 21
-71.0722701600000022
 31
0.0
  0
LINE
  5
426
  8
SLD-0_0
  6
PHANTOM
 62
     7
 10
-130.342371270000001
 20
-81.8986148099999838
 30
0.0
 11
-129.4496335700000031
 21
-81.8986148099999838
 31
0.0
  0
LINE
  5
427
  8
SLD-0_0
  6
PHANTOM
 62
     7
 10
-162.6795399700000075
 20
-69.7914296900000011
 30
0.0
 11
-109.6786853800000046
 21
-69.7914296900000011
 31
0.0
  0
LINE
  5
428
  8
SLD-0_0
  6
PHANTOM
 62
     7
 10
-113.2496361999999976
 20
-71.0722701600000022
 30
0.0
 11
-113.2496361999999976
 21
-69.7914296900000011
 31
0.0
  0
LINE
  5
429
  8
SLD-0_0
  6
PHANTOM
 62
     7
 10
-159.105549179999997
 20
-71.0722701600000022
 30
0.0
 11
-160.0003135400000076
 21
-71.0722701600000022
 31
0.0
  0
LINE
  5
42A
  8
SLD-0_0
  6
PHANTOM
 62
     7
 10
-119.5626394899999951
 20
-71.0722701600000022
 30
0.0
 11
-120.4574038399999978
 21
-71.0722701600000022
 31
0.0
  0
LINE
  5
42B
  8
SLD-0_0
  6
PHANTOM
 62
     7
 10
-151.8917016000000046
 20
-71.0722701600000022
 30
0.0
 11
-152.7925458900000137
 21
-71.0722701600000022
 31
0.0
  0
LINE
  5
42C
  8
SLD-0_0
  6
PHANTOM
 62
     7
 10
-160.0003135400000076
 20
-71.0722701600000022
 30
0.0
 11
-160.0003135400000076
 21
-81.8986148099999838
 31
0.0
  0
LINE
  5
42D
  8
SLD-0_0
  6
PHANTOM
 62
     7
 10
-129.4496335700000031
 20
-71.0722701600000022
 30
0.0
 11
-130.342371270000001
 21
-71.0722701600000022
 31
0.0
  0
LINE
  5
42E
  8
SLD-0_0
  6
PHANTOM
 62
     7
 10
-123.1366302800000057
 20
-71.0722701600000022
 30
0.0
 11
-123.1366302800000057
 21
-69.7914296900000011
 31
0.0
  0
LINE
  5
42F
  8
SLD-0_0
  6
PHANTOM
 62
     7
 10
-151.8917016000000046
 20
-81.8986148099999838
 30
0.0
 11
-151.8917016000000046
 21
-71.0722701600000022
 31
0.0
  0
LINE
  5
430
  8
SLD-0_0
  6
PHANTOM
 62
     7
 10
-119.5626394899999951
 20
-81.8986148099999838
 30
0.0
 11
-119.5626394899999951
 21
-82.7913525099999958
 31
0.0
  0
LINE
  5
431
  8
SLD-0_0
  6
PHANTOM
 62
     7
 10
-159.105549179999997
 20
-69.7914296900000011
 30
0.0
 11
-159.105549179999997
 21
-71.0722701600000022
 31
0.0
  0
LINE
  5
432
  8
SLD-0_0
  6
PHANTOM
 62
     7
 10
-109.6786853800000046
 20
-71.0722701600000022
 30
0.0
 11
-110.570409760000004
 21
-71.0722701600000022
 31
0.0
  0
LINE
  5
433
  8
SLD-0_0
  6
PHANTOM
 62
     7
 10
-133.0236243500000057
 20
-81.8986148099999838
 30
0.0
 11
-132.118726769999995
 21
-81.8986148099999838
 31
0.0
  0
LINE
  5
434
  8
SLD-0_0
  6
PHANTOM
 62
     7
 10
-113.2496361999999976
 20
-82.7913525099999958
 30
0.0
 11
-113.2496361999999976
 21
-81.8986148099999838
 31
0.0
  0
LINE
  5
435
  8
SLD-0_0
  6
PHANTOM
 62
     7
 10
-133.0236243500000057
 20
-82.7913525099999958
 30
0.0
 11
-133.0236243500000057
 21
-81.8986148099999838
 31
0.0
  0
LINE
  5
436
  8
SLD-0_0
  6
PHANTOM
 62
     7
 10
-152.7925458900000137
 20
-71.0722701600000022
 30
0.0
 11
-152.7925458900000137
 21
-69.7914296900000011
 31
0.0
  0
LINE
  5
437
  8
SLD-0_0
  6
PHANTOM
 62
     7
 10
142.7609977600000093
 20
314.4290117699999882
 30
0.0
 11
142.7609977600000093
 21
362.4290117699999882
 31
0.0
  0
LINE
  5
438
  8
SLD-0_0
  6
PHANTOM
 62
     7
 10
-10.2390022399999996
 20
314.4290117699999882
 30
0.0
 11
-28.2390022400000014
 21
314.4290117699999882
 31
0.0
  0
LINE
  5
439
  8
SLD-0_0
  6
PHANTOM
 62
     7
 10
180.7609977600000093
 20
362.4290117699999882
 30
0.0
 11
162.7609977600000093
 21
362.4290117699999882
 31
0.0
  0
LINE
  5
43A
  8
SLD-0_0
  6
PHANTOM
 62
     7
 10
162.7609977600000093
 20
314.4290117699999882
 30
0.0
 11
162.7609977600000093
 21
362.4290117699999882
 31
0.0
  0
LINE
  5
43B
  8
SLD-0_0
  6
PHANTOM
 62
     7
 10
104.7609977599999951
 20
314.4290117699999882
 30
0.0
 11
86.7609977599999951
 21
314.4290117699999882
 31
0.0
  0
LINE
  5
43C
  8
SLD-0_0
  6
PHANTOM
 62
     7
 10
27.7609977599999986
 20
362.4290117699999882
 30
0.0
 11
9.7609977600000004
 21
362.4290117699999882
 31
0.0
  0
LINE
  5
43D
  8
SLD-0_0
  6
PHANTOM
 62
     7
 10
-10.2390022399999996
 20
314.4290117699999882
 30
0.0
 11
-10.2390022399999996
 21
362.4290117699999882
 31
0.0
  0
LINE
  5
43E
  8
SLD-0_0
  6
PHANTOM
 62
     7
 10
28.7609977599999986
 20
314.4290117699999882
 30
0.0
 11
28.7609977599999986
 21
362.4290117699999882
 31
0.0
  0
LINE
  5
43F
  8
SLD-0_0
  6
PHANTOM
 62
     7
 10
218.7609977600000093
 20
314.4290117699999882
 30
0.0
 11
200.7609977600000093
 21
314.4290117699999882
 31
0.0
  0
LINE
  5
440
  8
SLD-0_0
  6
PHANTOM
 62
     7
 10
161.7609977600000093
 20
362.4290117699999882
 30
0.0
 11
143.7609977600000093
 21
362.4290117699999882
 31
0.0
  0
LINE
  5
441
  8
SLD-0_0
  6
PHANTOM
 62
     7
 10
8.7609977600000004
 20
362.4290117699999882
 30
0.0
 11
-9.2390022399999996
 21
362.4290117699999882
 31
0.0
  0
LINE
  5
442
  8
SLD-0_0
  6
PHANTOM
 62
     7
 10
212.1331684399999915
 20
193.707872320000007
 30
0.0
 11
212.1331684399999915
 21
193.9286217700000066
 31
0.0
  0
LINE
  5
443
  8
SLD-0_0
  6
PHANTOM
 62
     7
 10
-68.5691780800000004
 20
193.707872320000007
 30
0.0
 11
-68.5691780800000004
 21
193.9286217700000066
 31
0.0
  0
LINE
  5
444
  8
SLD-0_0
  6
PHANTOM
 62
     7
 10
8.7609977600000004
 20
314.4290117699999882
 30
0.0
 11
-9.2390022399999996
 21
314.4290117699999882
 31
0.0
  0
LINE
  5
445
  8
SLD-0_0
  6
PHANTOM
 62
     7
 10
142.7609977600000093
 20
362.4290117699999882
 30
0.0
 11
124.7609977599999951
 21
362.4290117699999882
 31
0.0
  0
LINE
  5
446
  8
SLD-0_0
  6
PHANTOM
 62
     7
 10
47.7609977600000022
 20
314.4290117699999882
 30
0.0
 11
47.7609977600000022
 21
362.4290117699999882
 31
0.0
  0
LINE
  5
447
  8
SLD-0_0
  6
PHANTOM
 62
     7
 10
-70.0691780800000004
 20
195.4286217700000066
 30
0.0
 11
-72.3668315599999943
 21
195.4286217700000066
 31
0.0
  0
LINE
  5
448
  8
SLD-0_0
  6
CENTERX2
 62
     7
 10
-85.2390022400000049
 20
193.7286217699999895
 30
0.0
 11
-85.2390022400000049
 21
124.4289944800000001
 31
0.0
  0
LINE
  5
449
  8
SLD-0_0
  6
PHANTOM
 62
     7
 10
161.7609977600000093
 20
314.4290117699999882
 30
0.0
 11
161.7609977600000093
 21
362.4290117699999882
 31
0.0
  0
LINE
  5
44A
  8
SLD-0_0
  6
PHANTOM
 62
     7
 10
46.7609977600000022
 20
362.4290117699999882
 30
0.0
 11
28.7609977599999986
 21
362.4290117699999882
 31
0.0
  0
LINE
  5
44B
  8
SLD-0_0
  6
PHANTOM
 62
     7
 10
46.7609977600000022
 20
314.4290117699999882
 30
0.0
 11
28.7609977599999986
 21
314.4290117699999882
 31
0.0
  0
LINE
  5
44C
  8
SLD-0_0
  6
PHANTOM
 62
     7
 10
-9.2390022399999996
 20
314.4290117699999882
 30
0.0
 11
-9.2390022399999996
 21
362.4290117699999882
 31
0.0
  0
LINE
  5
44D
  8
SLD-0_0
  6
PHANTOM
 62
     7
 10
199.7609977600000093
 20
362.4290117699999882
 30
0.0
 11
181.7609977600000093
 21
362.4290117699999882
 31
0.0
  0
LINE
  5
44E
  8
SLD-0_0
  6
PHANTOM
 62
     7
 10
-67.2390022400000049
 20
362.4290117699999882
 30
0.0
 11
-85.2390022400000049
 21
362.4290117699999882
 31
0.0
  0
LINE
  5
44F
  8
SLD-0_0
  6
PHANTOM
 62
     7
 10
9.7609977600000004
 20
314.4290117699999882
 30
0.0
 11
9.7609977600000004
 21
362.4290117699999882
 31
0.0
  0
LINE
  5
450
  8
SLD-0_0
  6
PHANTOM
 62
     7
 10
27.7609977599999986
 20
314.4290117699999882
 30
0.0
 11
27.7609977599999986
 21
362.4290117699999882
 31
0.0
  0
LINE
  5
451
  8
SLD-0_0
  6
PHANTOM
 62
     7
 10
85.7609977599999951
 20
314.4290117699999882
 30
0.0
 11
67.7609977599999951
 21
314.4290117699999882
 31
0.0
  0
LINE
  5
452
  8
SLD-0_0
  6
PHANTOM
 62
     7
 10
199.7609977600000093
 20
314.4290117699999882
 30
0.0
 11
181.7609977600000093
 21
314.4290117699999882
 31
0.0
  0
LINE
  5
453
  8
SLD-0_0
  6
PHANTOM
 62
     7
 10
217.4308219199999996
 20
193.707872320000007
 30
0.0
 11
217.4308219199999996
 21
193.9286217700000066
 31
0.0
  0
LINE
  5
454
  8
SLD-0_0
  6
PHANTOM
 62
     7
 10
200.7609977600000093
 20
193.7286217699999895
 30
0.0
 11
200.7609977600000093
 21
149.0101877099999967
 31
0.0
  0
LINE
  5
455
  8
SLD-0_0
  6
PHANTOM
 62
     7
 10
-67.2390022400000049
 20
314.4290117699999882
 30
0.0
 11
-67.2390022400000049
 21
362.4290117699999882
 31
0.0
  0
LINE
  5
456
  8
SLD-0_0
  6
PHANTOM
 62
     7
 10
143.7609977600000093
 20
314.4290117699999882
 30
0.0
 11
143.7609977600000093
 21
362.4290117699999882
 31
0.0
  0
LINE
  5
457
  8
SLD-0_0
  6
PHANTOM
 62
     7
 10
-67.2390022400000049
 20
193.7286217699999895
 30
0.0
 11
-85.2390022400000049
 21
193.7286217699999895
 31
0.0
  0
LINE
  5
458
  8
SLD-0_0
  6
PHANTOM
 62
     7
 10
218.7609977600000093
 20
193.7286217699999895
 30
0.0
 11
200.7609977600000093
 21
193.7286217699999895
 31
0.0
  0
LINE
  5
459
  8
SLD-0_0
  6
PHANTOM
 62
     7
 10
-48.2390022399999907
 20
314.4290117699999882
 30
0.0
 11
-48.2390022399999907
 21
362.4290117699999882
 31
0.0
  0
LINE
  5
45A
  8
SLD-0_0
  6
PHANTOM
 62
     7
 10
-48.2390022399999907
 20
362.4290117699999882
 30
0.0
 11
-66.2390022400000049
 21
362.4290117699999882
 31
0.0
  0
LINE
  5
45B
  8
SLD-0_0
  6
PHANTOM
 62
     7
 10
-29.2390022400000014
 20
314.4290117699999882
 30
0.0
 11
-47.2390022399999978
 21
314.4290117699999882
 31
0.0
  0
LINE
  5
45C
  8
SLD-0_0
  6
PHANTOM
 62
     7
 10
86.7609977599999951
 20
314.4290117699999882
 30
0.0
 11
86.7609977599999951
 21
362.4290117699999882
 31
0.0
  0
LINE
  5
45D
  8
SLD-0_0
  6
PHANTOM
 62
     7
 10
65.7609977599999951
 20
314.4290117699999882
 30
0.0
 11
65.7609977599999951
 21
362.4290117699999882
 31
0.0
  0
LINE
  5
45E
  8
SLD-0_0
  6
PHANTOM
 62
     7
 10
104.7609977599999951
 20
362.4290117699999882
 30
0.0
 11
86.7609977599999951
 21
362.4290117699999882
 31
0.0
  0
LINE
  5
45F
  8
SLD-0_0
  6
PHANTOM
 62
     7
 10
199.7609977600000093
 20
314.4290117699999882
 30
0.0
 11
199.7609977600000093
 21
362.4290117699999882
 31
0.0
  0
LINE
  5
460
  8
SLD-0_0
  6
PHANTOM
 62
     7
 10
124.7609977599999951
 20
314.4290117699999882
 30
0.0
 11
124.7609977599999951
 21
362.4290117699999882
 31
0.0
  0
LINE
  5
461
  8
SLD-0_0
  6
PHANTOM
 62
     7
 10
123.7609977599999951
 20
362.4290117699999882
 30
0.0
 11
105.7609977599999951
 21
362.4290117699999882
 31
0.0
  0
LINE
  5
462
  8
SLD-0_0
  6
PHANTOM
 62
     7
 10
104.7609977599999951
 20
314.4290117699999882
 30
0.0
 11
104.7609977599999951
 21
362.4290117699999882
 31
0.0
  0
LINE
  5
463
  8
SLD-0_0
  6
PHANTOM
 62
     7
 10
-48.2390022399999907
 20
314.4290117699999882
 30
0.0
 11
-66.2390022400000049
 21
314.4290117699999882
 31
0.0
  0
LINE
  5
464
  8
SLD-0_0
  6
PHANTOM
 62
     7
 10
27.7609977599999986
 20
314.4290117699999882
 30
0.0
 11
9.7609977600000004
 21
314.4290117699999882
 31
0.0
  0
LINE
  5
465
  8
SLD-0_0
  6
PHANTOM
 62
     7
 10
85.7609977599999951
 20
362.4290117699999882
 30
0.0
 11
67.7609977599999951
 21
362.4290117699999882
 31
0.0
  0
LINE
  5
466
  8
SLD-0_0
  6
PHANTOM
 62
     7
 10
85.7609977599999951
 20
314.4290117699999882
 30
0.0
 11
85.7609977599999951
 21
362.4290117699999882
 31
0.0
  0
LINE
  5
467
  8
SLD-0_0
  6
PHANTOM
 62
     7
 10
181.7609977600000093
 20
314.4290117699999882
 30
0.0
 11
181.7609977600000093
 21
362.4290117699999882
 31
0.0
  0
LINE
  5
468
  8
SLD-0_0
  6
PHANTOM
 62
     7
 10
-10.2390022399999996
 20
362.4290117699999882
 30
0.0
 11
-28.2390022400000014
 21
362.4290117699999882
 31
0.0
  0
LINE
  5
469
  8
SLD-0_0
  6
PHANTOM
 62
     7
 10
218.7609977600000093
 20
314.4290117699999882
 30
0.0
 11
218.7609977600000093
 21
362.4290117699999882
 31
0.0
  0
LINE
  5
46A
  8
SLD-0_0
  6
PHANTOM
 62
     7
 10
65.7609977599999951
 20
314.4290117699999882
 30
0.0
 11
47.7609977600000022
 21
314.4290117699999882
 31
0.0
  0
LINE
  5
46B
  8
SLD-0_0
  6
PHANTOM
 62
     7
 10
-67.2390022400000049
 20
193.7286217699999895
 30
0.0
 11
-67.2390022400000049
 21
149.0101877099999967
 31
0.0
  0
LINE
  5
46C
  8
SLD-0_0
  6
PHANTOM
 62
     7
 10
180.7609977600000093
 20
314.4290117699999882
 30
0.0
 11
162.7609977600000093
 21
314.4290117699999882
 31
0.0
  0
LINE
  5
46D
  8
SLD-0_0
  6
PHANTOM
 62
     7
 10
-67.2390022400000049
 20
314.4290117699999882
 30
0.0
 11
-85.2390022400000049
 21
314.4290117699999882
 31
0.0
  0
LINE
  5
46E
  8
SLD-0_0
  6
PHANTOM
 62
     7
 10
105.7609977599999951
 20
314.4290117699999882
 30
0.0
 11
105.7609977599999951
 21
362.4290117699999882
 31
0.0
  0
LINE
  5
46F
  8
SLD-0_0
  6
PHANTOM
 62
     7
 10
200.7609977600000093
 20
314.4290117699999882
 30
0.0
 11
200.7609977600000093
 21
362.4290117699999882
 31
0.0
  0
LINE
  5
470
  8
SLD-0_0
  6
PHANTOM
 62
     7
 10
-29.2390022400000014
 20
314.4290117699999882
 30
0.0
 11
-29.2390022400000014
 21
362.4290117699999882
 31
0.0
  0
LINE
  5
471
  8
SLD-0_0
  6
PHANTOM
 62
     7
 10
218.7609977600000093
 20
193.7286217699999895
 30
0.0
 11
218.7609977600000093
 21
124.4289944800000001
 31
0.0
  0
LINE
  5
472
  8
SLD-0_0
  6
PHANTOM
 62
     7
 10
8.7609977600000004
 20
314.4290117699999882
 30
0.0
 11
8.7609977600000004
 21
362.4290117699999882
 31
0.0
  0
LINE
  5
473
  8
SLD-0_0
  6
PHANTOM
 62
     7
 10
123.7609977599999951
 20
314.4290117699999882
 30
0.0
 11
123.7609977599999951
 21
362.4290117699999882
 31
0.0
  0
LINE
  5
474
  8
SLD-0_0
  6
PHANTOM
 62
     7
 10
-73.8668315599999943
 20
193.707872320000007
 30
0.0
 11
-73.8668315599999943
 21
193.9286217700000066
 31
0.0
  0
LINE
  5
475
  8
SLD-0_0
  6
PHANTOM
 62
     7
 10
180.7609977600000093
 20
314.4290117699999882
 30
0.0
 11
180.7609977600000093
 21
362.4290117699999882
 31
0.0
  0
LINE
  5
476
  8
SLD-0_0
  6
PHANTOM
 62
     7
 10
-85.2390022400000049
 20
314.4290117699999882
 30
0.0
 11
-85.2390022400000049
 21
362.4290117699999882
 31
0.0
  0
LINE
  5
477
  8
SLD-0_0
  6
PHANTOM
 62
     7
 10
142.7609977600000093
 20
314.4290117699999882
 30
0.0
 11
124.7609977599999951
 21
314.4290117699999882
 31
0.0
  0
LINE
  5
478
  8
SLD-0_0
  6
PHANTOM
 62
     7
 10
-28.2390022400000014
 20
314.4290117699999882
 30
0.0
 11
-28.2390022400000014
 21
362.4290117699999882
 31
0.0
  0
LINE
  5
479
  8
SLD-0_0
  6
PHANTOM
 62
     7
 10
-29.2390022400000014
 20
362.4290117699999882
 30
0.0
 11
-47.2390022399999978
 21
362.4290117699999882
 31
0.0
  0
LINE
  5
47A
  8
SLD-0_0
  6
PHANTOM
 62
     7
 10
218.7609977600000093
 20
362.4290117699999882
 30
0.0
 11
200.7609977600000093
 21
362.4290117699999882
 31
0.0
  0
LINE
  5
47B
  8
SLD-0_0
  6
PHANTOM
 62
     7
 10
-47.2390022399999978
 20
314.4290117699999882
 30
0.0
 11
-47.2390022399999978
 21
362.4290117699999882
 31
0.0
  0
LINE
  5
47C
  8
SLD-0_0
  6
PHANTOM
 62
     7
 10
67.7609977599999951
 20
314.4290117699999882
 30
0.0
 11
67.7609977599999951
 21
362.4290117699999882
 31
0.0
  0
LINE
  5
47D
  8
SLD-0_0
  6
PHANTOM
 62
     7
 10
65.7609977599999951
 20
362.4290117699999882
 30
0.0
 11
47.7609977600000022
 21
362.4290117699999882
 31
0.0
  0
LINE
  5
47E
  8
SLD-0_0
  6
PHANTOM
 62
     7
 10
215.9308219199999996
 20
195.4286217700000066
 30
0.0
 11
213.6331684399999915
 21
195.4286217700000066
 31
0.0
  0
LINE
  5
47F
  8
SLD-0_0
  6
PHANTOM
 62
     7
 10
161.7609977600000093
 20
314.4290117699999882
 30
0.0
 11
143.7609977600000093
 21
314.4290117699999882
 31
0.0
  0
LINE
  5
480
  8
SLD-0_0
  6
PHANTOM
 62
     7
 10
-66.2390022400000049
 20
314.4290117699999882
 30
0.0
 11
-66.2390022400000049
 21
362.4290117699999882
 31
0.0
  0
LINE
  5
481
  8
SLD-0_0
  6
PHANTOM
 62
     7
 10
123.7609977599999951
 20
314.4290117699999882
 30
0.0
 11
105.7609977599999951
 21
314.4290117699999882
 31
0.0
  0
LINE
  5
482
  8
SLD-0_0
  6
PHANTOM
 62
     7
 10
46.7609977600000022
 20
314.4290117699999882
 30
0.0
 11
46.7609977600000022
 21
362.4290117699999882
 31
0.0
  0
ARC
  5
483
  8
SLD-0_0
  6
PHANTOM
 62
     7
 10
215.9308219199999996
 20
193.9286217700000066
 30
0.0
 40
1.5
 50
0.0
 51
90.0
  0
ARC
  5
484
  8
SLD-0_0
  6
PHANTOM
 62
     7
 10
213.6331684399999915
 20
193.9286217700000066
 30
0.0
 40
1.5
 50
90.0
 51
180.0
  0
ARC
  5
485
  8
SLD-0_0
  6
PHANTOM
 62
     7
 10
-70.0691780800000004
 20
193.9286217700000066
 30
0.0
 40
1.5
 50
0.0
 51
90.0
  0
ARC
  5
486
  8
SLD-0_0
  6
PHANTOM
 62
     7
 10
-72.3668315599999943
 20
193.9286217700000066
 30
0.0
 40
1.5
 50
90.0
 51
180.0
  0
LINE
  5
487
  8
SLD-0
  6
PHANTOM
 62
     7
 10
-145.669757379999993
 20
255.4286217700000066
 30
0.0
 11
-161.9661888800000042
 21
255.4286217700000066
 31
0.0
  0
LINE
  5
488
  8
SLD-0
  6
PHANTOM
 62
     7
 10
-145.7449664400000131
 20
349.7291740300000242
 30
0.0
 11
-145.7449664400000131
 21
307.2541912099999877
 31
0.0
  0
LINE
  5
489
  8
SLD-0
  6
PHANTOM
 62
     7
 10
-158.3433092600000123
 20
349.7291740300000242
 30
0.0
 11
-158.3433092600000123
 21
307.2541912099999877
 31
0.0
  0
LINE
  5
48A
  8
SLD-0
  6
PHANTOM
 62
     7
 10
-149.4512146799999925
 20
349.7291740300000242
 30
0.0
 11
-149.4512146799999925
 21
307.2541912099999877
 31
0.0
  0
LINE
  5
48B
  8
SLD-0
  6
PHANTOM
 62
     7
 10
-109.7441721299999955
 20
-306.768843870000012
 30
0.0
 11
-162.7413459900000134
 21
-306.768843870000012
 31
0.0
  0
LINE
  5
48C
  8
SLD-0
  6
PHANTOM
 62
     7
 10
-181.2390022399999907
 20
-323.8459483799999816
 30
0.0
 11
-181.2390022399999907
 21
-344.768843870000012
 31
0.0
  0
CIRCLE
  5
48D
  8
SLD-0
  6
PHANTOM
 62
     7
 10
-153.8938947700000028
 20
345.0811182400000234
 30
0.0
 40
3.360515739999999
  0
LINE
  5
48E
  8
SLD-0
  6
CONTINUOUS
 62
     7
 10
-201.2390022399999907
 20
-72.2684538700000019
 30
0.0
 11
-198.7390022399999054
 21
-69.7684538700000019
 31
0.0
  0
LINE
  5
48F
  8
SLD-0
  6
CONTINUOUS
 62
     7
 10
276.2609977600000093
 20
-164.7684538700000019
 30
0.0
 11
-9.4589981600000002
 21
-164.7684538700000019
 31
0.0
  0
LINE
  5
490
  8
SLD-0
  6
CONTINUOUS
 62
     7
 10
-191.2390022399999907
 20
-145.7684538700000019
 30
0.0
 11
-198.7390022399999054
 21
-145.7684538700000019
 31
0.0
  0
LINE
  5
491
  8
SLD-0
  6
CONTINUOUS
 62
     7
 10
-191.2390022399999907
 20
-138.7684538700000019
 30
0.0
 11
-198.7390022399999054
 21
-138.7684538700000019
 31
0.0
  0
LINE
  5
492
  8
SLD-0
  6
CONTINUOUS
 62
     7
 10
-201.2390022399999907
 20
-136.2684538700000019
 30
0.0
 11
-201.2390022399999907
 21
-98.2684538700000019
 31
0.0
  0
LINE
  5
493
  8
SLD-0
  6
CONTINUOUS
 62
     7
 10
-198.7390022399999054
 20
-145.7684538700000019
 30
0.0
 11
-201.2390022399999907
 21
-148.2684538700000019
 31
0.0
  0
LINE
  5
494
  8
SLD-0
  6
CONTINUOUS
 62
     7
 10
-198.7390022399999054
 20
-138.7684538700000019
 30
0.0
 11
-201.2390022399999907
 21
-136.2684538700000019
 31
0.0
  0
LINE
  5
495
  8
SLD-0
  6
CONTINUOUS
 62
     7
 10
-201.2390022399999907
 20
-86.2684538700000161
 30
0.0
 11
-201.2390022399999907
 21
-72.2684538700000019
 31
0.0
  0
LINE
  5
496
  8
SLD-0
  6
CONTINUOUS
 62
     7
 10
278.7609977600000093
 20
-86.2684538700000161
 30
0.0
 11
278.7609977600000093
 21
-72.2684538700000019
 31
0.0
  0
LINE
  5
497
  8
SLD-0
  6
CONTINUOUS
 62
     7
 10
268.7609977600000093
 20
-88.7684538700000161
 30
0.0
 11
276.2609977600000093
 21
-88.7684538700000161
 31
0.0
  0
LINE
  5
498
  8
SLD-0
  6
CONTINUOUS
 62
     7
 10
268.7609977600000093
 20
-95.7684538700000019
 30
0.0
 11
276.2609977600000093
 21
-95.7684538700000019
 31
0.0
  0
LINE
  5
499
  8
SLD-0
  6
CONTINUOUS
 62
     7
 10
276.2609977600000093
 20
-88.7684538700000161
 30
0.0
 11
278.7609977600000093
 21
-86.2684538700000161
 31
0.0
  0
LINE
  5
49A
  8
SLD-0
  6
CONTINUOUS
 62
     7
 10
276.2609977600000093
 20
-95.7684538700000019
 30
0.0
 11
278.7609977600000093
 21
-98.2684538700000019
 31
0.0
  0
LINE
  5
49B
  8
SLD-0
  6
CONTINUOUS
 62
     7
 10
276.2609977600000093
 20
-138.7684538700000019
 30
0.0
 11
278.7609977600000093
 21
-136.2684538700000019
 31
0.0
  0
LINE
  5
49C
  8
SLD-0
  6
CONTINUOUS
 62
     7
 10
276.2609977600000093
 20
-145.7684538700000019
 30
0.0
 11
278.7609977600000093
 21
-148.2684538700000019
 31
0.0
  0
LINE
  5
49D
  8
SLD-0
  6
CONTINUOUS
 62
     7
 10
278.7609977600000093
 20
-136.2684538700000019
 30
0.0
 11
278.7609977600000093
 21
-98.2684538700000019
 31
0.0
  0
LINE
  5
49E
  8
SLD-0
  6
CONTINUOUS
 62
     7
 10
268.7609977600000093
 20
-138.7684538700000019
 30
0.0
 11
276.2609977600000093
 21
-138.7684538700000019
 31
0.0
  0
LINE
  5
49F
  8
SLD-0
  6
CONTINUOUS
 62
     7
 10
268.7609977600000093
 20
-145.7684538700000019
 30
0.0
 11
276.2609977600000093
 21
-145.7684538700000019
 31
0.0
  0
LINE
  5
4A0
  8
SLD-0
  6
CONTINUOUS
 62
     7
 10
278.7609977600000093
 20
-72.2684538700000019
 30
0.0
 11
276.2609977600000093
 21
-69.7684538700000019
 31
0.0
  0
LINE
  5
4A1
  8
SLD-0
  6
CONTINUOUS
 62
     7
 10
-198.7390022399999054
 20
-95.7684538700000019
 30
0.0
 11
-201.2390022399999907
 21
-98.2684538700000019
 31
0.0
  0
LINE
  5
4A2
  8
SLD-0
  6
CONTINUOUS
 62
     7
 10
-198.7390022399999054
 20
-88.7684538700000161
 30
0.0
 11
-201.2390022399999907
 21
-86.2684538700000161
 31
0.0
  0
LINE
  5
4A3
  8
SLD-0
  6
CONTINUOUS
 62
     7
 10
-191.2390022399999907
 20
-95.7684538700000019
 30
0.0
 11
-198.7390022399999054
 21
-95.7684538700000019
 31
0.0
  0
LINE
  5
4A4
  8
SLD-0
  6
CONTINUOUS
 62
     7
 10
-191.2390022399999907
 20
-88.7684538700000161
 30
0.0
 11
-198.7390022399999054
 21
-88.7684538700000161
 31
0.0
  0
LINE
  5
4A5
  8
SLD-0
  6
CONTINUOUS
 62
     7
 10
276.2609977600000093
 20
-164.7684538700000019
 30
0.0
 11
278.7609977600000093
 21
-162.2684538700000019
 31
0.0
  0
LINE
  5
4A6
  8
SLD-0
  6
CONTINUOUS
 62
     7
 10
278.7609977600000093
 20
-162.2684538700000019
 30
0.0
 11
278.7609977600000093
 21
-148.2684538700000019
 31
0.0
  0
CIRCLE
  5
4A7
  8
SLD-0
  6
CONTINUOUS
 62
     7
 10
-155.9390663800000141
 20
-76.4208338400000002
 30
0.0
 40
3.25
  0
ARC
  5
4A8
  8
SLD-0
  6
CONTINUOUS
 62
     7
 10
-191.2390022399999907
 20
-142.2684538700000019
 30
0.0
 40
3.5
 50
270.0
 51
450.0
  0
ARC
  5
4A9
  8
SLD-0
  6
CONTINUOUS
 62
     7
 10
-191.2390022399999907
 20
-92.2684538700000019
 30
0.0
 40
3.5
 50
270.0
 51
450.0
  0
ARC
  5
4AA
  8
SLD-0
  6
CONTINUOUS
 62
     7
 10
268.7609977600000093
 20
-92.2684538700000019
 30
0.0
 40
3.5
 50
90.0
 51
270.0
  0
ARC
  5
4AB
  8
SLD-0
  6
CONTINUOUS
 62
     7
 10
268.7609977600000093
 20
-142.2684538700000019
 30
0.0
 40
3.5
 50
90.0
 51
270.0
  0
LINE
  5
4AC
  8
SLD-0_1
  6
PHANTOM
 62
     7
 10
-162.7413459900000134
 20
-323.7679793600000266
 30
0.0
 11
-162.7413459900000134
 21
-306.768843870000012
 31
0.0
  0
LINE
  5
4AD
  8
SLD-0_1
  6
PHANTOM
 62
     7
 10
-91.3063124600000009
 20
-323.8459483799999816
 30
0.0
 11
-91.3063124600000009
 21
-344.768843870000012
 31
0.0
  0
LINE
  5
4AE
  8
SLD-0_1
  6
PHANTOM
 62
     7
 10
-145.7449664400000131
 20
332.1462537099999963
 30
0.0
 11
-149.4512146799999925
 21
332.1462537099999963
 31
0.0
  0
LINE
  5
4AF
  8
SLD-0_1
  6
PHANTOM
 62
     7
 10
-181.2390022399999907
 20
-323.8459483799999816
 30
0.0
 11
-91.3063124600000009
 21
-323.8459483799999816
 31
0.0
  0
LINE
  5
4B0
  8
SLD-0_1
  6
PHANTOM
 62
     7
 10
-109.7441721299999955
 20
-306.768843870000012
 30
0.0
 11
-109.7441721299999955
 21
-323.7679793600000266
 31
0.0
  0
LINE
  5
4B1
  8
SLD-0_1
  6
PHANTOM
 62
     7
 10
-145.7449664400000131
 20
323.8461796999999933
 30
0.0
 11
-149.4512146799999925
 21
323.8461796999999933
 31
0.0
  0
LINE
  5
4B2
  8
SLD-0_1
  6
PHANTOM
 62
     7
 10
-149.4512146799999925
 20
324.8380181399999742
 30
0.0
 11
-145.7449664400000131
 21
324.8380181399999742
 31
0.0
  0
LINE
  5
4B3
  8
SLD-0_1
  6
PHANTOM
 62
     7
 10
-158.3433092600000123
 20
333.1353723199999877
 30
0.0
 11
-162.0477442600000018
 21
333.1353723199999877
 31
0.0
  0
LINE
  5
4B4
  8
SLD-0_1
  6
PHANTOM
 62
     7
 10
-162.0477442600000018
 20
340.4436078800000018
 30
0.0
 11
-158.3433092600000123
 21
340.4436078800000018
 31
0.0
  0
LINE
  5
4B5
  8
SLD-0_1
  6
PHANTOM
 62
     7
 10
-145.7449664400000131
 20
340.4436078800000018
 30
0.0
 11
-149.4512146799999925
 21
340.4436078800000018
 31
0.0
  0
LINE
  5
4B6
  8
SLD-0_1
  6
PHANTOM
 62
     7
 10
-158.3433092600000123
 20
324.8380181399999742
 30
0.0
 11
-162.0477442600000018
 21
324.8380181399999742
 31
0.0
  0
LINE
  5
4B7
  8
SLD-0_1
  6
PHANTOM
 62
     7
 10
-158.3433092600000123
 20
308.2424031900000045
 30
0.0
 11
-162.0477442600000018
 21
308.2424031900000045
 31
0.0
  0
LINE
  5
4B8
  8
SLD-0_1
  6
PHANTOM
 62
     7
 10
-162.0477442600000018
 20
348.7436819000000128
 30
0.0
 11
-158.3433092600000123
 21
348.7436819000000128
 31
0.0
  0
LINE
  5
4B9
  8
SLD-0_1
  6
PHANTOM
 62
     7
 10
-162.0477442600000018
 20
323.8461796999999933
 30
0.0
 11
-158.3433092600000123
 21
323.8461796999999933
 31
0.0
  0
LINE
  5
4BA
  8
SLD-0_1
  6
PHANTOM
 62
     7
 10
-158.3433092600000123
 20
316.5397573600000101
 30
0.0
 11
-162.0477442600000018
 21
316.5397573600000101
 31
0.0
  0
LINE
  5
4BB
  8
SLD-0_1
  6
PHANTOM
 62
     7
 10
-162.0477442600000018
 20
349.7291740300000242
 30
0.0
 11
-162.0477442600000018
 21
307.2541912099999877
 31
0.0
  0
LINE
  5
4BC
  8
SLD-0_1
  6
PHANTOM
 62
     7
 10
-149.4512146799999925
 20
316.5397573600000101
 30
0.0
 11
-145.7449664400000131
 21
316.5397573600000101
 31
0.0
  0
LINE
  5
4BD
  8
SLD-0_1
  6
PHANTOM
 62
     7
 10
-162.0477442600000018
 20
332.1462537099999963
 30
0.0
 11
-158.3433092600000123
 21
332.1462537099999963
 31
0.0
  0
LINE
  5
4BE
  8
SLD-0_1
  6
PHANTOM
 62
     7
 10
-169.4557076499999937
 20
379.3682805000000258
 30
0.0
 11
-169.4557076499999937
 21
296.3847660499999961
 31
0.0
  0
LINE
  5
4BF
  8
SLD-0_1
  6
PHANTOM
 62
     7
 10
-162.0477442600000018
 20
315.5497321500000112
 30
0.0
 11
-158.3433092600000123
 21
315.5497321500000112
 31
0.0
  0
LINE
  5
4C0
  8
SLD-0_1
  6
PHANTOM
 62
     7
 10
-135.8673797200000024
 20
379.3682805000000258
 30
0.0
 11
-169.4557076499999937
 21
379.3682805000000258
 31
0.0
  0
LINE
  5
4C2
  8
SLD-0_1
  6
PHANTOM
 62
     7
 10
-169.4557076499999937
 20
296.3847660499999961
 30
0.0
 11
-135.8673797200000024
 21
296.3847660499999961
 31
0.0
  0
LINE
  5
4C4
  8
SLD-0_1
  6
PHANTOM
 62
     7
 10
-149.4512146799999925
 20
333.1353723199999877
 30
0.0
 11
-145.7449664400000131
 21
333.1353723199999877
 31
0.0
  0
LINE
  5
4C5
  8
SLD-0_1
  6
PHANTOM
 62
     7
 10
-149.4512146799999925
 20
341.4318198600000187
 30
0.0
 11
-145.7449664400000131
 21
341.4318198600000187
 31
0.0
  0
LINE
  5
4C6
  8
SLD-0_1
  6
PHANTOM
 62
     7
 10
-145.7449664400000131
 20
348.7436819000000128
 30
0.0
 11
-149.4512146799999925
 21
348.7436819000000128
 31
0.0
  0
LINE
  5
4C7
  8
SLD-0_1
  6
PHANTOM
 62
     7
 10
-135.8673797200000024
 20
296.3847660499999961
 30
0.0
 11
-135.8673797200000024
 21
379.3682805000000258
 31
0.0
  0
LINE
  5
4C8
  8
SLD-0_1
  6
PHANTOM
 62
     7
 10
-158.3433092600000123
 20
341.4318198600000187
 30
0.0
 11
-162.0477442600000018
 21
341.4318198600000187
 31
0.0
  0
LINE
  5
4C9
  8
SLD-0_1
  6
PHANTOM
 62
     7
 10
-149.4512146799999925
 20
308.2424031900000045
 30
0.0
 11
-145.7449664400000131
 21
308.2424031900000045
 31
0.0
  0
LINE
  5
4CA
  8
SLD-0_1
  6
PHANTOM
 62
     7
 10
-145.7449664400000131
 20
315.5497321500000112
 30
0.0
 11
-149.4512146799999925
 21
315.5497321500000112
 31
0.0
  0
LINE
  5
4CB
  8
SLD-0_1
  6
PHANTOM
 62
     7
 10
-145.7449664400000131
 20
349.7291740300000242
 30
0.0
 11
-162.0477442600000018
 21
349.7291740300000242
 31
0.0
  0
LINE
  5
4CC
  8
SLD-0_1
  6
PHANTOM
 62
     7
 10
-135.7976103599999931
 20
109.7885505200000011
 30
0.0
 11
-135.7976103599999931
 21
239.9151235580351909
 31
0.0
  0
LINE
  5
4CD
  8
SLD-0_1
  6
PHANTOM
 62
     7
 10
-169.3505802399999993
 20
239.9151235580351909
 30
0.0
 11
-169.3505802399999993
 21
109.7885505200000011
 31
0.0
  0
LINE
  5
4CE
  8
SLD-0_1
  6
PHANTOM
 62
     7
 10
-145.669757379999993
 20
239.9151235580351909
 30
0.0
 11
-145.669757379999993
 21
255.4286217700000066
 31
0.0
  0
LINE
  5
4CF
  8
SLD-0_1
  6
PHANTOM
 62
     7
 10
-135.7976103599999931
 20
239.9151235580351909
 30
0.0
 11
-169.3505802399999993
 21
239.9151235580351909
 31
0.0
  0
LINE
  5
4D0
  8
SLD-0_1
  6
PHANTOM
 62
     7
 10
-161.9661888800000042
 20
255.4286217700000066
 30
0.0
 11
-161.9661888800000042
 21
239.9151235580351909
 31
0.0
  0
CIRCLE
  5
4D1
  8
SLD-0_1
  6
PHANTOM
 62
     7
 10
-153.8938947700000028
 20
336.7846706999999924
 30
0.0
 40
3.360515739999999
  0
CIRCLE
  5
4D2
  8
SLD-0_1
  6
PHANTOM
 62
     7
 10
-153.8938947700000028
 20
328.4873165299999869
 30
0.0
 40
3.360515739999999
  0
CIRCLE
  5
4D3
  8
SLD-0_1
  6
PHANTOM
 62
     7
 10
-153.8938947700000028
 20
320.1890557400000148
 30
0.0
 40
3.360515739999999
  0
CIRCLE
  5
4D4
  8
SLD-0_1
  6
PHANTOM
 62
     7
 10
-153.8938947700000028
 20
311.8917015700000093
 30
0.0
 40
3.360515739999999
  0
CIRCLE
  5
4D5
  8
SLD-0_1
  6
CONTINUOUS
 62
     7
 10
-146.0540989499999966
 20
-76.4208338400000002
 30
0.0
 40
3.25
  0
CIRCLE
  5
4D6
  8
SLD-0_1
  6
CONTINUOUS
 62
     7
 10
-136.170144850000014
 20
-76.4208338400000002
 30
0.0
 40
3.25
  0
CIRCLE
  5
4D7
  8
SLD-0_1
  6
CONTINUOUS
 62
     7
 10
-126.283150770000006
 20
-76.4208338400000002
 30
0.0
 40
3.25
  0
CIRCLE
  5
4D8
  8
SLD-0_1
  6
CONTINUOUS
 62
     7
 10
-116.396156689999998
 20
-76.4208338400000002
 30
0.0
 40
3.25
  0
TEXT
  5
4D9
  8
SLD-0
 62
     7
 10
263.6619027400000164
 20
-394.9248852399999805
 30
0.0
 40
9.5250000000000004
  1
001
 41
1.4999999999999989
 72
     5
 11
292.236902740000005
 21
-394.9248852399999805
 31
0.0
  0
TEXT
  5
4DA
  8
SLD-0
 62
     7
 10
-278.7609977600000093
 20
375.8748852499999771
 30
0.0
 40
9.5250000000000004
  1
-M2
 41
1.125
 72
     5
 11
-250.1859977599999922
 21
375.8748852499999771
 31
0.0
  0
TEXT
  5
4DB
  8
SLD-0
 62
     7
 10
-249.2487650699999904
 20
-75.7896749899999946
 30
0.0
 40
9.5250000000000004
  1
-R
 41
1.199999999999998
 72
     5
 11
-230.1987650700000074
 21
-75.7896749899999946
 31
0.0
  0
LINE
  5
567
  8
0
  6
PHANTOM
 10
-162.0477442600000018
 20
307.2541912099999877
 30
0.0
 11
-145.7449664400000131
 21
307.2541912099999877
 31
0.0
  0
ENDSEC
  0
EOF
