  0
SECTION
  2
HEADER
  9
$ACADVER
  1
AC1009
  9
$INSBASE
 10
0.0
 20
0.0
 30
0.0
  9
$EXTMIN
 10
-277.1645752300000254
 20
-389.9248852399999805
 30
0.0
  9
$EXTMAX
 10
293.8333252700001026
 20
380.3998852499998975
 30
0.0
  9
$LIMMIN
 10
-305.7992775000000165
 20
-430.3669356999999991
  9
$LIMMAX
 10
296.8930275499999993
 20
420.8419356999999081
  9
$ORTHOMODE
 70
     0
  9
$REGENMODE
 70
     1
  9
$FILLMODE
 70
     1
  9
$QTEXTMODE
 70
     0
  9
$MIRRTEXT
 70
     1
  9
$DRAGMODE
 70
     2
  9
$LTSCALE
 40
0.2
  9
$OSMODE
 70
  1079
  9
$ATTMODE
 70
     1
  9
$TEXTSIZE
 40
9.5250000000000004
  9
$TRACEWID
 40
0.05
  9
$TEXTSTYLE
  7
STANDARD
  9
$CLAYER
  8
0
  9
$CELTYPE
  6
CONTINUOUS
  9
$CECOLOR
 62
   256
  9
$DIMSCALE
 40
1.0
  9
$DIMASZ
 40
0.18
  9
$DIMEXO
 40
0.0625
  9
$DIMDLI
 40
0.38
  9
$DIMRND
 40
0.0
  9
$DIMDLE
 40
0.0
  9
$DIMEXE
 40
0.18
  9
$DIMTP
 40
0.0
  9
$DIMTM
 40
0.0
  9
$DIMTXT
 40
0.18
  9
$DIMCEN
 40
0.09
  9
$DIMTSZ
 40
0.0
  9
$DIMTOL
 70
     0
  9
$DIMLIM
 70
     0
  9
$DIMTIH
 70
     1
  9
$DIMTOH
 70
     1
  9
$DIMSE1
 70
     0
  9
$DIMSE2
 70
     0
  9
$DIMTAD
 70
     0
  9
$DIMZIN
 70
     0
  9
$DIMBLK
  1

  9
$DIMASO
 70
     1
  9
$DIMSHO
 70
     1
  9
$DIMPOST
  1

  9
$DIMAPOST
  1

  9
$DIMALT
 70
     0
  9
$DIMALTD
 70
     2
  9
$DIMALTF
 40
25.3999999999999986
  9
$DIMLFAC
 40
1.0
  9
$DIMTOFL
 70
     0
  9
$DIMTVP
 40
0.0
  9
$DIMTIX
 70
     0
  9
$DIMSOXD
 70
     0
  9
$DIMSAH
 70
     0
  9
$DIMBLK1
  1

  9
$DIMBLK2
  1

  9
$DIMSTYLE
  2
STANDARD
  9
$DIMCLRD
 70
     0
  9
$DIMCLRE
 70
     0
  9
$DIMCLRT
 70
     0
  9
$DIMTFAC
 40
1.0
  9
$DIMGAP
 40
0.09
  9
$LUNITS
 70
     2
  9
$LUPREC
 70
     4
  9
$SKETCHINC
 40
0.1
  9
$FILLETRAD
 40
0.0
  9
$AUNITS
 70
     0
  9
$AUPREC
 70
     0
  9
$MENU
  1
acad
  9
$ELEVATION
 40
0.0
  9
$PELEVATION
 40
0.0
  9
$THICKNESS
 40
0.0
  9
$LIMCHECK
 70
     0
  9
$BLIPMODE
 70
     0
  9
$CHAMFERA
 40
0.0
  9
$CHAMFERB
 40
0.0
  9
$SKPOLY
 70
     0
  9
$TDCREATE
 40
2440588.749988425988704
  9
$TDUPDATE
 40
2458754.4636805560439825
  9
$TDINDWG
 40
0.0018055556
  9
$TDUSRTIMER
 40
0.0018055556
  9
$USRTIMER
 70
     1
  9
$ANGBASE
 50
0.0
  9
$ANGDIR
 70
     0
  9
$PDMODE
 70
     0
  9
$PDSIZE
 40
1.0
  9
$PLINEWID
 40
0.0
  9
$COORDS
 70
     1
  9
$SPLFRAME
 70
     0
  9
$SPLINETYPE
 70
     6
  9
$SPLINESEGS
 70
     8
  9
$ATTDIA
 70
     1
  9
$ATTREQ
 70
     1
  9
$HANDLING
 70
     1
  9
$HANDSEED
  5
345
  9
$SURFTAB1
 70
     6
  9
$SURFTAB2
 70
     6
  9
$SURFTYPE
 70
     6
  9
$SURFU
 70
     6
  9
$SURFV
 70
     6
  9
$UCSNAME
  2

  9
$UCSORG
 10
0.0
 20
0.0
 30
0.0
  9
$UCSXDIR
 10
1.0
 20
0.0
 30
0.0
  9
$UCSYDIR
 10
0.0
 20
1.0
 30
0.0
  9
$PUCSNAME
  2

  9
$PUCSORG
 10
0.0
 20
0.0
 30
0.0
  9
$PUCSXDIR
 10
1.0
 20
0.0
 30
0.0
  9
$PUCSYDIR
 10
0.0
 20
1.0
 30
0.0
  9
$USERI1
 70
     0
  9
$USERI2
 70
     0
  9
$USERI3
 70
     0
  9
$USERI4
 70
     0
  9
$USERI5
 70
     0
  9
$USERR1
 40
0.0
  9
$USERR2
 40
0.0
  9
$USERR3
 40
0.0
  9
$USERR4
 40
0.0
  9
$USERR5
 40
0.0
  9
$WORLDVIEW
 70
     1
  9
$SHADEDGE
 70
     3
  9
$SHADEDIF
 70
    70
  9
$TILEMODE
 70
     1
  9
$MAXACTVP
 70
    16
  9
$PLIMCHECK
 70
     0
  9
$PEXTMIN
 10
1.0000000000000000E+20
 20
1.0000000000000000E+20
 30
1.0000000000000000E+20
  9
$PEXTMAX
 10
-1.0000000000000000E+20
 20
-1.0000000000000000E+20
 30
-1.0000000000000000E+20
  9
$PLIMMIN
 10
0.0
 20
0.0
  9
$PLIMMAX
 10
12.0
 20
9.0
  9
$UNITMODE
 70
     0
  9
$VISRETAIN
 70
     0
  9
$PLINEGEN
 70
     1
  9
$PSLTSCALE
 70
     0
  0
ENDSEC
  0
SECTION
  2
TABLES
  0
TABLE
  2
VPORT
 70
     1
  0
VPORT
  2
*ACTIVE
 70
     0
 10
0.0
 20
0.0
 11
1.0
 21
1.0
 12
35.9180587380046674
 22
-3.571675981479415
 13
0.0
 23
0.0
 14
1.0
 24
1.0
 15
0.0
 25
0.0
 16
0.0
 26
0.0
 36
1.0
 17
0.0
 27
0.0
 37
0.0
 40
861.0143452352357372
 41
2.2135355892648771
 42
50.0
 43
0.0
 44
0.0
 50
0.0
 51
0.0
 71
     0
 72
   100
 73
     1
 74
     1
 75
     0
 76
     0
 77
     0
 78
     0
  0
ENDTAB
  0
TABLE
  2
LTYPE
 70
    30
  0
LTYPE
  2
CONTINUOUS
 70
     0
  3
Solid line
 72
    65
 73
     0
 40
0.0
  0
LTYPE
  2
HIDDENX2
 70
     0
  3
CADPAC LINETYPE
 72
    65
 73
     2
 40
45.3057216699999898
 49
33.9792912599999966
 49
-11.3264304199999994
  0
LTYPE
  2
HIDDEN
 70
     0
  3
CADPAC LINETYPE
 72
    65
 73
     2
 40
33.9792912599999966
 49
22.6528608399999989
 49
-11.3264304199999994
  0
LTYPE
  2
HIDDEN2
 70
     0
  3
CADPAC LINETYPE
 72
    65
 73
     2
 40
28.3160760499999995
 49
16.9896456299999983
 49
-11.3264304199999994
  0
LTYPE
  2
DASHED
 70
     0
  3
CADPAC LINETYPE
 72
    65
 73
     2
 40
33.9792912599999966
 49
22.6528608399999989
 49
-11.3264304199999994
  0
LTYPE
  2
DASHED2
 70
     0
  3
CADPAC LINETYPE
 72
    65
 73
     2
 40
25.4844684400000006
 49
16.9896456299999983
 49
-8.4948228100000005
  0
LTYPE
  2
DASHEDX2
 70
     0
  3
CADPAC LINETYPE
 72
    65
 73
     2
 40
50.9689368800000011
 49
33.9792912599999966
 49
-16.9896456299999983
  0
LTYPE
  2
DOTX2
 70
     0
  3
CADPAC LINETYPE
 72
    65
 73
     2
 40
14.1580380199999993
 49
0.0
 49
-14.1580380199999993
  0
LTYPE
  2
DOT
 70
     0
  3
CADPAC LINETYPE
 72
    65
 73
     2
 40
11.3264304199999994
 49
0.0
 49
-11.3264304199999994
  0
LTYPE
  2
DOT2
 70
     0
  3
CADPAC LINETYPE
 72
    65
 73
     2
 40
8.4948228100000005
 49
0.0
 49
-8.4948228100000005
  0
LTYPE
  2
CENTERX2
 70
     0
  3
CADPAC LINETYPE
 72
    65
 73
     4
 40
67.9585825099999994
 49
28.3160760499999995
 49
-14.1580380199999993
 49
11.3264304199999994
 49
-14.1580380199999993
  0
LTYPE
  2
CENTER
 70
     0
  3
CADPAC LINETYPE
 72
    65
 73
     4
 40
52.1015799299999998
 49
22.6528608399999989
 49
-11.3264304199999994
 49
6.7958582500000002
 49
-11.3264304199999994
  0
LTYPE
  2
CENTER2
 70
     0
  3
CADPAC LINETYPE
 72
    65
 73
     4
 40
36.2445773399999993
 49
16.9896456299999983
 49
-8.4948228100000005
 49
2.2652860800000001
 49
-8.4948228100000005
  0
LTYPE
  2
DASHDOTX2
 70
     0
  3
CADPAC LINETYPE
 72
    65
 73
     4
 40
56.6321520899999982
 49
28.3160760499999995
 49
-14.1580380199999993
 49
0.0
 49
-14.1580380199999993
  0
LTYPE
  2
DASHDOT
 70
     0
  3
CADPAC LINETYPE
 72
    65
 73
     4
 40
45.3057216699999898
 49
22.6528608399999989
 49
-11.3264304199999994
 49
0.0
 49
-11.3264304199999994
  0
LTYPE
  2
DASHDOT2
 70
     0
  3
CADPAC LINETYPE
 72
    65
 73
     4
 40
33.9792912599999966
 49
16.9896456299999983
 49
-8.4948228100000005
 49
0.0
 49
-8.4948228100000005
  0
LTYPE
  2
DIVIDEX2
 70
     0
  3
CADPAC LINETYPE
 72
    65
 73
     6
 40
70.7901901200000054
 49
28.3160760499999995
 49
-14.1580380199999993
 49
0.0
 49
-14.1580380199999993
 49
0.0
 49
-14.1580380199999993
  0
LTYPE
  2
DIVIDE
 70
     0
  3
CADPAC LINETYPE
 72
    65
 73
     6
 40
56.6321520899999982
 49
22.6528608399999989
 49
-11.3264304199999994
 49
0.0
 49
-11.3264304199999994
 49
0.0
 49
-11.3264304199999994
  0
LTYPE
  2
DIVIDE2
 70
     0
  3
CADPAC LINETYPE
 72
    65
 73
     6
 40
42.4741140699999988
 49
16.9896456299999983
 49
-8.4948228100000005
 49
0.0
 49
-8.4948228100000005
 49
0.0
 49
-8.4948228100000005
  0
LTYPE
  2
BORDERX2
 70
     0
  3
CADPAC LINETYPE
 72
    65
 73
     6
 40
99.1062661600000041
 49
28.3160760499999995
 49
-14.1580380199999993
 49
28.3160760499999995
 49
-14.1580380199999993
 49
0.0
 49
-14.1580380199999993
  0
LTYPE
  2
BORDER
 70
     0
  3
CADPAC LINETYPE
 72
    65
 73
     6
 40
79.2850129299999935
 49
22.6528608399999989
 49
-11.3264304199999994
 49
22.6528608399999989
 49
-11.3264304199999994
 49
0.0
 49
-11.3264304199999994
  0
LTYPE
  2
BORDER2
 70
     0
  3
CADPAC LINETYPE
 72
    65
 73
     6
 40
59.4637596999999971
 49
16.9896456299999983
 49
-8.4948228100000005
 49
16.9896456299999983
 49
-8.4948228100000005
 49
0.0
 49
-8.4948228100000005
  0
LTYPE
  2
PHANTOMX2
 70
     0
  3
CADPAC LINETYPE
 72
    65
 73
     6
 40
84.9482281399999977
 49
28.3160760499999995
 49
-11.3264304199999994
 49
11.3264304199999994
 49
-11.3264304199999994
 49
11.3264304199999994
 49
-11.3264304199999994
  0
LTYPE
  2
PHANTOM
 70
     0
  3
CADPAC LINETYPE
 72
    65
 73
     6
 40
70.223868589999995
 49
22.6528608399999989
 49
-11.3264304199999994
 49
6.7958582500000002
 49
-11.3264304199999994
 49
6.7958582500000002
 49
-11.3264304199999994
  0
LTYPE
  2
PHANTOM2
 70
     0
  3
CADPAC LINETYPE
 72
    65
 73
     6
 40
60.0300812199999996
 49
16.9896456299999983
 49
-11.3264304199999994
 49
4.5305721700000001
 49
-11.3264304199999994
 49
4.5305721700000001
 49
-11.3264304199999994
  0
LTYPE
  2
ACAD_ISO06W100
 70
     0
  3
CADPAC LINETYPE
 72
    65
 73
     8
 40
76.4534053200000017
 49
28.3160760499999995
 49
-14.1580380199999993
 49
0.0
 49
-11.3264304199999994
 49
0.0
 49
-11.3264304199999994
 49
0.0
 49
-11.3264304199999994
  0
LTYPE
  2
ACAD_ISO13W100
 70
     0
  3
CADPAC LINETYPE
 72
    65
 73
     8
 40
90.6114433499999876
 49
22.6528608399999989
 49
-11.3264304199999994
 49
22.6528608399999989
 49
-11.3264304199999994
 49
0.0
 49
-11.3264304199999994
 49
0.0
 49
-11.3264304199999994
  0
LTYPE
  2
ACAD_ISO14W100
 70
     0
  3
CADPAC LINETYPE
 72
    65
 73
     8
 40
67.9585825099999994
 49
22.6528608399999989
 49
-11.3264304199999994
 49
0.0
 49
-11.3264304199999994
 49
0.0
 49
-11.3264304199999994
 49
0.0
 49
-11.3264304199999994
  0
ENDTAB
  0
TABLE
  2
LAYER
 70
     7
  0
LAYER
  2
0
 70
     0
 62
     7
  6
CONTINUOUS
  0
LAYER
  2
SLD-0_4
 70
     0
 62
     7
  6
CONTINUOUS
  0
LAYER
  2
SLD-0_3
 70
     0
 62
     7
  6
CONTINUOUS
  0
LAYER
  2
SLD-0_1
 70
     0
 62
     7
  6
CONTINUOUS
  0
LAYER
  2
SLD-0_0
 70
     0
 62
     7
  6
CONTINUOUS
  0
LAYER
  2
SLD-0_2
 70
     0
 62
     7
  6
CONTINUOUS
  0
LAYER
  2
SLD-0
 70
     0
 62
     7
  6
CONTINUOUS
  0
ENDTAB
  0
TABLE
  2
STYLE
 70
     1
  0
STYLE
  2
STANDARD
 70
     0
 40
0.0
 41
1.0
 50
0.0
 71
     0
 42
9.5250000000000004
  3
txt.shx
  4
bigfont.shx
  0
ENDTAB
  0
TABLE
  2
VIEW
 70
     1
  0
VIEW
  2
QQQQ
 70
     0
 40
851.208871390000013
 10
-4.4531249800000001
 20
-4.7625000000000002
 41
602.6923050499998453
 11
0.0
 21
0.0
 31
1.0
 12
100.0
 22
100.0
 32
0.0
 42
50.0
 43
0.0
 44
0.0
 50
0.0
 71
     0
  0
ENDTAB
  0
TABLE
  2
UCS
 70
     0
  0
ENDTAB
  0
TABLE
  2
APPID
 70
     4
  0
APPID
  2
ACAD
 70
     0
  0
APPID
  2
ACAD_EXEMPT_FROM_CAD_STANDARDS
 70
     0
  0
APPID
  2
ACAD_NAV_VCDISPLAY
 70
     0
  0
APPID
  2
ACAD_MLEADERVER
 70
     0
  0
ENDTAB
  0
TABLE
  2
DIMSTYLE
 70
     3
  0
DIMSTYLE
  2
STANDARD
 70
     0
  3

  4

  5

  6

  7

 40
1.0
 41
0.18
 42
0.0625
 43
0.38
 44
0.18
 45
0.0
 46
0.0
 47
0.0
 48
0.0
140
0.18
141
0.09
142
0.0
143
25.3999999999999986
144
1.0
145
0.0
146
1.0
147
0.09
 71
     0
 72
     0
 73
     1
 74
     1
 75
     0
 76
     0
 77
     0
 78
     0
170
     0
171
     2
172
     0
173
     0
174
     0
175
     0
176
     0
177
     0
178
     0
  0
DIMSTYLE
  2
ISO-25
 70
     0
  3

  4

  5

  6

  7

 40
1.0
 41
2.5
 42
0.625
 43
3.75
 44
1.25
 45
0.0
 46
0.0
 47
0.0
 48
0.0
140
2.5
141
2.5
142
0.0
143
0.0393700787
144
1.0
145
0.0
146
1.0
147
0.625
 71
     0
 72
     0
 73
     0
 74
     0
 75
     0
 76
     0
 77
     1
 78
     8
170
     0
171
     3
172
     1
173
     0
174
     0
175
     0
176
     0
177
     0
178
     0
  0
ENDTAB
  0
ENDSEC
  0
SECTION
  2
BLOCKS
  0
BLOCK
  8
0
  2
$MODEL_SPACE
 70
     0
 10
0.0
 20
0.0
 30
0.0
  3
$MODEL_SPACE
  1

  0
ENDBLK
  5
E
  8
0
  0
BLOCK
 67
     1
  8
0
  2
$PAPER_SPACE
 70
     0
 10
0.0
 20
0.0
 30
0.0
  3
$PAPER_SPACE
  1

  0
ENDBLK
  5
10
 67
     1
  8
0
  0
ENDSEC
  0
SECTION
  2
ENTITIES
  0
LINE
  5
3F
  8
SLD-0_4
  6
PHANTOM
 62
     7
 10
-175.3788632899999982
 20
-74.0087346400000001
 30
0.0
 11
-176.1082088400000032
 21
-74.0087346400000001
 31
0.0
  0
LINE
  5
40
  8
SLD-0_4
  6
PHANTOM
 62
     7
 10
-136.1885039400000039
 20
-64.5425567399999949
 30
0.0
 11
-136.1885039400000039
 21
-65.2642451300000062
 31
0.0
  0
LINE
  5
41
  8
SLD-0_4
  6
PHANTOM
 62
     7
 10
-136.1885039400000039
 20
-74.0087346400000001
 30
0.0
 11
-136.1885039400000039
 21
-75.0424527600000033
 31
0.0
  0
LINE
  5
42
  8
SLD-0_4
  6
PHANTOM
 62
     7
 10
-167.3953051599999924
 20
-74.0087346400000001
 30
0.0
 11
-168.1246507200000053
 21
-74.0087346400000001
 31
0.0
  0
LINE
  5
43
  8
SLD-0_4
  6
PHANTOM
 62
     7
 10
-141.2881799600000079
 20
-74.0087346400000001
 30
0.0
 11
-142.009868339999997
 21
-74.0087346400000001
 31
0.0
  0
LINE
  5
44
  8
SLD-0_4
  6
PHANTOM
 62
     7
 10
-149.9943836099999999
 20
-74.0087346400000001
 30
0.0
 11
-149.9943836099999999
 21
-65.2642451300000062
 31
0.0
  0
LINE
  5
45
  8
SLD-0_4
  6
PHANTOM
 62
     7
 10
-157.2562533500000086
 20
-75.0424527600000033
 30
0.0
 11
-157.2562533500000086
 21
-74.0087346400000001
 31
0.0
  0
LINE
  5
46
  8
SLD-0_4
  6
PHANTOM
 62
     7
 10
-165.2388543200000015
 20
-74.0087346400000001
 30
0.0
 11
-165.9605427099999986
 21
-74.0087346400000001
 31
0.0
  0
LINE
  5
47
  8
SLD-0_4
  6
PHANTOM
 62
     7
 10
-175.9742635300000018
 20
-301.6623896400000149
 30
0.0
 11
-175.9742635300000018
 21
-313.6650055000000066
 31
0.0
  0
LINE
  5
48
  8
SLD-0_4
  6
PHANTOM
 62
     7
 10
-129.6425797100000068
 20
-313.6650055000000066
 30
0.0
 11
-179.6425797100000068
 21
-313.6650055000000066
 31
0.0
  0
LINE
  5
49
  8
SLD-0_4
  6
PHANTOM
 62
     7
 10
-133.1907765900000129
 20
-313.6650055000000066
 30
0.0
 11
-133.1907765900000129
 21
-301.6623896400000149
 31
0.0
  0
LINE
  5
4A
  8
SLD-0_4
  6
PHANTOM
 62
     7
 10
-133.1907765900000129
 20
-301.6623896400000149
 30
0.0
 11
-175.9742635300000018
 21
-301.6623896400000149
 31
0.0
  0
LINE
  5
4B
  8
SLD-0_4
  6
PHANTOM
 62
     7
 10
-176.1082088400000032
 20
-65.2642451300000062
 30
0.0
 11
-175.3788632899999982
 21
-65.2642451300000062
 31
0.0
  0
LINE
  5
4C
  8
SLD-0_4
  6
PHANTOM
 62
     7
 10
-135.459158379999991
 20
-65.2642451300000062
 30
0.0
 11
-135.459158379999991
 21
-74.0087346400000001
 31
0.0
  0
LINE
  5
4D
  8
SLD-0_4
  6
PHANTOM
 62
     7
 10
-152.1565773300000046
 20
-65.2642451300000062
 30
0.0
 11
-151.4272317699999917
 21
-65.2642451300000062
 31
0.0
  0
LINE
  5
4E
  8
SLD-0_4
  6
PHANTOM
 62
     7
 10
-29.8352138999999994
 20
-148.5424239499999999
 30
0.0
 11
-29.8352138999999994
 21
-70.5424239499999999
 31
0.0
  0
LINE
  5
4F
  8
SLD-0_4
  6
PHANTOM
 62
     7
 10
-168.1246507200000053
 20
-74.0087346400000001
 30
0.0
 11
-168.1246507200000053
 21
-75.0424527600000033
 31
0.0
  0
LINE
  5
50
  8
SLD-0_4
  6
PHANTOM
 62
     7
 10
-0.4263222300000001
 20
-149.5680013099999996
 30
0.0
 11
-0.4263222300000001
 21
-156.4039409000000092
 31
0.0
  0
LINE
  5
51
  8
SLD-0_4
  6
PHANTOM
 62
     7
 10
-28.8352138999999994
 20
-69.5424239499999999
 30
0.0
 11
19.1647861000000006
 21
-69.5424239499999999
 31
0.0
  0
LINE
  5
52
  8
SLD-0_4
  6
PHANTOM
 62
     7
 10
-0.93169553
 20
-127.7458049800000026
 30
0.0
 11
-0.93169553
 21
-131.3561612000000025
 31
0.0
  0
LINE
  5
53
  8
SLD-0_4
  6
PHANTOM
 62
     7
 10
-12.4538238900000007
 20
-84.6474168900000024
 30
0.0
 11
-14.6227176300000004
 21
-84.6321025400000053
 31
0.0
  0
LINE
  5
54
  8
SLD-0_4
  6
PHANTOM
 62
     7
 10
4.0837516100000002
 20
-121.478410359999998
 30
0.0
 11
4.0837516100000002
 21
-117.7732966399999981
 31
0.0
  0
LINE
  5
55
  8
SLD-0_4
  6
PHANTOM
 62
     7
 10
-176.1082088400000032
 20
-75.0424527600000033
 30
0.0
 11
-133.3027075400000001
 21
-75.0424527600000033
 31
0.0
  0
LINE
  5
56
  8
SLD-0_4
  6
PHANTOM
 62
     7
 10
-12.4868147799999996
 20
-149.5424239499999999
 30
0.0
 11
-9.2473834499999992
 21
-156.4039409000000092
 31
0.0
  0
LINE
  5
57
  8
SLD-0_4
  6
PHANTOM
 62
     7
 10
-16.8337258200000015
 20
-86.5904240800000053
 30
0.0
 11
-16.8394687000000012
 21
-88.3190304700000013
 31
0.0
  0
LINE
  5
58
  8
SLD-0_4
  6
PHANTOM
 62
     7
 10
-167.3953051599999924
 20
-65.2642451300000062
 30
0.0
 11
-167.3953051599999924
 21
-74.0087346400000001
 31
0.0
  0
LINE
  5
59
  8
SLD-0_4
  6
PHANTOM
 62
     7
 10
4.0837516100000002
 20
-122.713129219999999
 30
0.0
 11
-3.3264758200000002
 21
-122.713129219999999
 31
0.0
  0
LINE
  5
5A
  8
SLD-0_4
  6
PHANTOM
 62
     7
 10
-0.4263222300000001
 20
-156.4039409000000092
 30
0.0
 11
3.1728739400000001
 21
-149.5424239499999999
 31
0.0
  0
LINE
  5
5B
  8
SLD-0_4
  6
PHANTOM
 62
     7
 10
-3.3264758200000002
 20
-132.5947086500000012
 30
0.0
 11
-3.3264758200000002
 21
-136.2998223600000074
 31
0.0
  0
LINE
  5
5C
  8
SLD-0_4
  6
PHANTOM
 62
     7
 10
-16.8394687000000012
 20
-77.537733430000003
 30
0.0
 11
-16.8337258200000015
 21
-79.2768684299999933
 31
0.0
  0
LINE
  5
5D
  8
SLD-0_4
  6
PHANTOM
 62
     7
 10
-176.1082088400000032
 20
-64.5425567399999949
 30
0.0
 11
-176.1082088400000032
 21
-65.2642451300000062
 31
0.0
  0
LINE
  5
5E
  8
SLD-0_4
  6
PHANTOM
 62
     7
 10
-176.1082088400000032
 20
-74.0087346400000001
 30
0.0
 11
-176.1082088400000032
 21
-75.0424527600000033
 31
0.0
  0
LINE
  5
5F
  8
SLD-0_4
  6
PHANTOM
 62
     7
 10
-136.1885039400000039
 20
-65.2642451300000062
 30
0.0
 11
-135.459158379999991
 21
-65.2642451300000062
 31
0.0
  0
LINE
  5
60
  8
SLD-0_4
  6
PHANTOM
 62
     7
 10
-165.2388543200000015
 20
-75.0424527600000033
 30
0.0
 11
-165.2388543200000015
 21
-74.0087346400000001
 31
0.0
  0
LINE
  5
61
  8
SLD-0_4
  6
PHANTOM
 62
     7
 10
17.1647861000000006
 20
-146.5424239499999999
 30
0.0
 11
17.1647861000000006
 21
-72.5424239499999999
 31
0.0
  0
LINE
  5
62
  8
SLD-0_4
  6
PHANTOM
 62
     7
 10
4.0837516100000002
 20
-117.7732966399999981
 30
0.0
 11
-3.3264758200000002
 21
-117.7732966399999981
 31
0.0
  0
LINE
  5
63
  8
SLD-0_4
  6
PHANTOM
 62
     7
 10
-0.93169553
 20
-122.7112149200000033
 30
0.0
 11
-0.93169553
 21
-126.4163286299999953
 31
0.0
  0
LINE
  5
64
  8
SLD-0_4
  6
PHANTOM
 62
     7
 10
-133.3027075400000001
 20
-74.0087346400000001
 30
0.0
 11
-134.0243959299999972
 21
-74.0087346400000001
 31
0.0
  0
LINE
  5
65
  8
SLD-0_4
  6
PHANTOM
 62
     7
 10
-0.93169553
 20
-117.7991396000000037
 30
0.0
 11
-0.93169553
 21
-121.478410359999998
 31
0.0
  0
LINE
  5
66
  8
SLD-0_4
  6
PHANTOM
 62
     7
 10
-11.6364208599999994
 20
-89.0933619099999845
 30
0.0
 11
-24.3990109599999982
 21
-89.0933619099999845
 31
0.0
  0
LINE
  5
67
  8
SLD-0_4
  6
PHANTOM
 62
     7
 10
-159.4107898899999896
 20
-65.2642451300000062
 30
0.0
 11
-159.4107898899999896
 21
-74.0087346400000001
 31
0.0
  0
LINE
  5
68
  8
SLD-0_4
  6
PHANTOM
 62
     7
 10
-168.1246507200000053
 20
-64.5425567399999949
 30
0.0
 11
-168.1246507200000053
 21
-65.2642451300000062
 31
0.0
  0
LINE
  5
69
  8
SLD-0_4
  6
PHANTOM
 62
     7
 10
-149.2726952200000028
 20
-65.2642451300000062
 30
0.0
 11
-149.2726952200000028
 21
-64.5425567399999949
 31
0.0
  0
LINE
  5
6A
  8
SLD-0_4
  6
PHANTOM
 62
     7
 10
-165.9605427099999986
 20
-74.0087346400000001
 30
0.0
 11
-165.9605427099999986
 21
-65.2642451300000062
 31
0.0
  0
LINE
  5
6B
  8
SLD-0_4
  6
PHANTOM
 62
     7
 10
-3.3264758200000002
 20
-117.7732966399999981
 30
0.0
 11
-3.3264758200000002
 21
-121.478410359999998
 31
0.0
  0
LINE
  5
6C
  8
SLD-0_4
  6
PHANTOM
 62
     7
 10
-12.4868147799999996
 20
-69.5424239499999999
 30
0.0
 11
-9.2473834499999992
 21
-62.6809069999999977
 31
0.0
  0
LINE
  5
6D
  8
SLD-0_4
  6
PHANTOM
 62
     7
 10
-0.4263222300000001
 20
-69.5168465900000001
 30
0.0
 11
-0.4263222300000001
 21
-62.6809069999999977
 31
0.0
  0
LINE
  5
6E
  8
SLD-0_4
  6
PHANTOM
 62
     7
 10
-135.459158379999991
 20
-74.0087346400000001
 30
0.0
 11
-136.1885039400000039
 21
-74.0087346400000001
 31
0.0
  0
LINE
  5
6F
  8
SLD-0_4
  6
PHANTOM
 62
     7
 10
-143.4427164999999889
 20
-65.2642451300000062
 30
0.0
 11
-143.4427164999999889
 21
-74.0087346400000001
 31
0.0
  0
LINE
  5
70
  8
SLD-0_4
  6
PHANTOM
 62
     7
 10
-149.9943836099999999
 20
-65.2642451300000062
 30
0.0
 11
-149.2726952200000028
 21
-65.2642451300000062
 31
0.0
  0
LINE
  5
71
  8
SLD-0_4
  6
PHANTOM
 62
     7
 10
4.0837516100000002
 20
-131.3580755099999919
 30
0.0
 11
4.0837516100000002
 21
-127.6548760700000003
 31
0.0
  0
LINE
  5
72
  8
SLD-0_4
  6
PHANTOM
 62
     7
 10
-5.9452283699999988
 20
-136.9506819099999859
 30
0.0
 11
9.8687444499999994
 21
-136.9506819099999859
 31
0.0
  0
LINE
  5
73
  8
SLD-0_4
  6
PHANTOM
 62
     7
 10
-3.3264758200000002
 20
-127.6548760700000003
 30
0.0
 11
-3.3264758200000002
 21
-131.3580755099999919
 31
0.0
  0
LINE
  5
74
  8
SLD-0_4
  6
PHANTOM
 62
     7
 10
-14.6227176300000004
 20
-81.1815897700000022
 30
0.0
 11
-12.4538238900000007
 21
-81.1815897700000022
 31
0.0
  0
LINE
  5
75
  8
SLD-0_4
  6
PHANTOM
 62
     7
 10
-175.3788632899999982
 20
-65.2642451300000062
 30
0.0
 11
-175.3788632899999982
 21
-74.0087346400000001
 31
0.0
  0
LINE
  5
76
  8
SLD-0_4
  6
PHANTOM
 62
     7
 10
-141.2881799600000079
 20
-75.0424527600000033
 30
0.0
 11
-141.2881799600000079
 21
-74.0087346400000001
 31
0.0
  0
LINE
  5
77
  8
SLD-0_4
  6
PHANTOM
 62
     7
 10
-173.9441008299999964
 20
-65.2642451300000062
 30
0.0
 11
-173.2224124500000073
 21
-65.2642451300000062
 31
0.0
  0
LINE
  5
78
  8
SLD-0_4
  6
PHANTOM
 62
     7
 10
-26.8352138999999994
 20
-72.5424239499999999
 30
0.0
 11
17.1647861000000006
 21
-72.5424239499999999
 31
0.0
  0
LINE
  5
79
  8
SLD-0_4
  6
PHANTOM
 62
     7
 10
-14.6322890999999995
 20
-86.5904240800000053
 30
0.0
 11
-16.8337258200000015
 21
-86.5904240800000053
 31
0.0
  0
LINE
  5
7A
  8
SLD-0_4
  6
PHANTOM
 62
     7
 10
-133.3027075400000001
 20
-75.0424527600000033
 30
0.0
 11
-133.3027075400000001
 21
-74.0087346400000001
 31
0.0
  0
LINE
  5
7B
  8
SLD-0_4
  6
PHANTOM
 62
     7
 10
-173.2224124500000073
 20
-65.2642451300000062
 30
0.0
 11
-173.2224124500000073
 21
-64.5425567399999949
 31
0.0
  0
LINE
  5
7C
  8
SLD-0_4
  6
PHANTOM
 62
     7
 10
-26.8352138999999994
 20
-146.5424239499999999
 30
0.0
 11
17.1647861000000006
 21
-146.5424239499999999
 31
0.0
  0
LINE
  5
7D
  8
SLD-0_4
  6
PHANTOM
 62
     7
 10
-9.2473834499999992
 20
-156.4039409000000092
 30
0.0
 11
-0.4263222300000001
 21
-156.4039409000000092
 31
0.0
  0
LINE
  5
7E
  8
SLD-0_4
  6
PHANTOM
 62
     7
 10
-3.3264758200000002
 20
-116.5385777799999971
 30
0.0
 11
4.0837516100000002
 21
-116.5385777799999971
 31
0.0
  0
LINE
  5
7F
  8
SLD-0_4
  6
PHANTOM
 62
     7
 10
-24.3588108100000014
 20
-88.3190304700000013
 30
0.0
 11
-24.3588108100000014
 21
-77.537733430000003
 31
0.0
  0
LINE
  5
80
  8
SLD-0_4
  6
PHANTOM
 62
     7
 10
9.8687444499999994
 20
-112.2161046399999975
 30
0.0
 11
-5.9452283699999988
 21
-112.2161046399999975
 31
0.0
  0
LINE
  5
81
  8
SLD-0_4
  6
PHANTOM
 62
     7
 10
-144.1720620600000018
 20
-64.5425567399999949
 30
0.0
 11
-144.1720620600000018
 21
-65.2642451300000062
 31
0.0
  0
LINE
  5
82
  8
SLD-0_4
  6
PHANTOM
 62
     7
 10
-152.1565773300000046
 20
-64.5425567399999949
 30
0.0
 11
-152.1565773300000046
 21
-65.2642451300000062
 31
0.0
  0
LINE
  5
83
  8
SLD-0_4
  6
PHANTOM
 62
     7
 10
-168.1246507200000053
 20
-65.2642451300000062
 30
0.0
 11
-167.3953051599999924
 21
-65.2642451300000062
 31
0.0
  0
LINE
  5
84
  8
SLD-0_4
  6
PHANTOM
 62
     7
 10
-165.9605427099999986
 20
-65.2642451300000062
 30
0.0
 11
-165.2388543200000015
 21
-65.2642451300000062
 31
0.0
  0
LINE
  5
85
  8
SLD-0_4
  6
PHANTOM
 62
     7
 10
-3.3264758200000002
 20
-126.4182429300000052
 30
0.0
 11
4.0837516100000002
 21
-126.4182429300000052
 31
0.0
  0
LINE
  5
86
  8
SLD-0_4
  6
PHANTOM
 62
     7
 10
20.1647861000000006
 20
-148.5424239499999999
 30
0.0
 11
20.1647861000000006
 21
-70.5424239499999999
 31
0.0
  0
LINE
  5
87
  8
SLD-0_4
  6
PHANTOM
 62
     7
 10
-24.3588108100000014
 20
-77.537733430000003
 30
0.0
 11
-16.8394687000000012
 21
-77.537733430000003
 31
0.0
  0
LINE
  5
88
  8
SLD-0_4
  6
PHANTOM
 62
     7
 10
-3.3264758200000002
 20
-121.478410359999998
 30
0.0
 11
4.0837516100000002
 21
-121.478410359999998
 31
0.0
  0
LINE
  5
89
  8
SLD-0_4
  6
PHANTOM
 62
     7
 10
-0.93169553
 20
-132.5947086500000012
 30
0.0
 11
-0.93169553
 21
-136.2979080700000054
 31
0.0
  0
LINE
  5
8A
  8
SLD-0_4
  6
PHANTOM
 62
     7
 10
-3.3264758200000002
 20
-122.713129219999999
 30
0.0
 11
-3.3264758200000002
 21
-126.4182429300000052
 31
0.0
  0
LINE
  5
8B
  8
SLD-0_4
  6
PHANTOM
 62
     7
 10
-9.2473834499999992
 20
-62.6809069999999977
 30
0.0
 11
-0.4263222300000001
 21
-62.6809069999999977
 31
0.0
  0
LINE
  5
8C
  8
SLD-0_4
  6
PHANTOM
 62
     7
 10
4.0837516100000002
 20
-126.4182429300000052
 30
0.0
 11
4.0837516100000002
 21
-122.713129219999999
 31
0.0
  0
LINE
  5
8D
  8
SLD-0_4
  6
PHANTOM
 62
     7
 10
-12.4538238900000007
 20
-81.1815897700000022
 30
0.0
 11
-12.4538238900000007
 21
-84.6474168900000024
 31
0.0
  0
LINE
  5
8E
  8
SLD-0_4
  6
PHANTOM
 62
     7
 10
-143.4427164999999889
 20
-74.0087346400000001
 30
0.0
 11
-144.1720620600000018
 21
-74.0087346400000001
 31
0.0
  0
LINE
  5
8F
  8
SLD-0_4
  6
PHANTOM
 62
     7
 10
-151.4272317699999917
 20
-65.2642451300000062
 30
0.0
 11
-151.4272317699999917
 21
-74.0087346400000001
 31
0.0
  0
LINE
  5
90
  8
SLD-0_4
  6
PHANTOM
 62
     7
 10
-142.009868339999997
 20
-65.2642451300000062
 30
0.0
 11
-141.2881799600000079
 21
-65.2642451300000062
 31
0.0
  0
LINE
  5
91
  8
SLD-0_4
  6
PHANTOM
 62
     7
 10
-165.2388543200000015
 20
-65.2642451300000062
 30
0.0
 11
-165.2388543200000015
 21
-64.5425567399999949
 31
0.0
  0
LINE
  5
92
  8
SLD-0_4
  6
PHANTOM
 62
     7
 10
-173.9441008299999964
 20
-74.0087346400000001
 30
0.0
 11
-173.9441008299999964
 21
-65.2642451300000062
 31
0.0
  0
LINE
  5
93
  8
SLD-0_4
  6
PHANTOM
 62
     7
 10
4.0837516100000002
 20
-116.5385777799999971
 30
0.0
 11
4.0837516100000002
 21
-112.8334640799999988
 31
0.0
  0
LINE
  5
94
  8
SLD-0_4
  6
PHANTOM
 62
     7
 10
4.0837516100000002
 20
-132.5947086500000012
 30
0.0
 11
-3.3264758200000002
 21
-132.5947086500000012
 31
0.0
  0
LINE
  5
95
  8
SLD-0_4
  6
PHANTOM
 62
     7
 10
-0.4263222300000001
 20
-62.6809069999999977
 30
0.0
 11
3.1728739400000001
 21
-69.5424239499999999
 31
0.0
  0
LINE
  5
96
  8
SLD-0_4
  6
PHANTOM
 62
     7
 10
-0.93169553
 20
-112.8889785599999982
 30
0.0
 11
-0.93169553
 21
-116.5366634899999951
 31
0.0
  0
LINE
  5
97
  8
SLD-0_4
  6
PHANTOM
 62
     7
 10
-26.8352138999999994
 20
-146.5424239499999999
 30
0.0
 11
-26.8352138999999994
 21
-72.5424239499999999
 31
0.0
  0
LINE
  5
98
  8
SLD-0_4
  6
PHANTOM
 62
     7
 10
-9.2473834499999992
 20
-62.6809069999999977
 30
0.0
 11
-9.2473834499999992
 21
-69.5424239499999999
 31
0.0
  0
LINE
  5
99
  8
SLD-0_4
  6
PHANTOM
 62
     7
 10
-16.8394687000000012
 20
-88.3190304700000013
 30
0.0
 11
-24.3588108100000014
 21
-88.3190304700000013
 31
0.0
  0
LINE
  5
9A
  8
SLD-0_4
  6
PHANTOM
 62
     7
 10
-5.9452283699999988
 20
-112.2161046399999975
 30
0.0
 11
-5.9452283699999988
 21
-136.9506819099999859
 31
0.0
  0
LINE
  5
9B
  8
SLD-0_4
  6
PHANTOM
 62
     7
 10
-133.3027075400000001
 20
-65.2642451300000062
 30
0.0
 11
-133.3027075400000001
 21
-64.5425567399999949
 31
0.0
  0
LINE
  5
9C
  8
SLD-0_4
  6
PHANTOM
 62
     7
 10
-144.1720620600000018
 20
-74.0087346400000001
 30
0.0
 11
-144.1720620600000018
 21
-75.0424527600000033
 31
0.0
  0
LINE
  5
9D
  8
SLD-0_4
  6
PHANTOM
 62
     7
 10
-160.1401354500000025
 20
-64.5425567399999949
 30
0.0
 11
-160.1401354500000025
 21
-65.2642451300000062
 31
0.0
  0
LINE
  5
9E
  8
SLD-0_4
  6
PHANTOM
 62
     7
 10
-142.009868339999997
 20
-74.0087346400000001
 30
0.0
 11
-142.009868339999997
 21
-65.2642451300000062
 31
0.0
  0
LINE
  5
9F
  8
SLD-0_4
  6
PHANTOM
 62
     7
 10
-149.2726952200000028
 20
-75.0424527600000033
 30
0.0
 11
-149.2726952200000028
 21
-74.0087346400000001
 31
0.0
  0
LINE
  5
A0
  8
SLD-0_4
  6
PHANTOM
 62
     7
 10
-157.9779417299999977
 20
-65.2642451300000062
 30
0.0
 11
-157.2562533500000086
 21
-65.2642451300000062
 31
0.0
  0
LINE
  5
A1
  8
SLD-0_4
  6
PHANTOM
 62
     7
 10
-173.2224124500000073
 20
-74.0087346400000001
 30
0.0
 11
-173.9441008299999964
 21
-74.0087346400000001
 31
0.0
  0
LINE
  5
A2
  8
SLD-0_4
  6
PHANTOM
 62
     7
 10
-134.0243959299999972
 20
-74.0087346400000001
 30
0.0
 11
-134.0243959299999972
 21
-65.2642451300000062
 31
0.0
  0
LINE
  5
A3
  8
SLD-0_4
  6
PHANTOM
 62
     7
 10
-159.4107898899999896
 20
-74.0087346400000001
 30
0.0
 11
-160.1401354500000025
 21
-74.0087346400000001
 31
0.0
  0
LINE
  5
A4
  8
SLD-0_4
  6
PHANTOM
 62
     7
 10
-149.2726952200000028
 20
-74.0087346400000001
 30
0.0
 11
-149.9943836099999999
 21
-74.0087346400000001
 31
0.0
  0
LINE
  5
A5
  8
SLD-0_4
  6
PHANTOM
 62
     7
 10
-24.3990109599999982
 20
-76.7729734600000029
 30
0.0
 11
-11.6364208599999994
 21
-76.7729734600000029
 31
0.0
  0
LINE
  5
A6
  8
SLD-0_4
  6
PHANTOM
 62
     7
 10
9.8687444499999994
 20
-136.9506819099999859
 30
0.0
 11
9.8687444499999994
 21
-112.2161046399999975
 31
0.0
  0
LINE
  5
A7
  8
SLD-0_4
  6
PHANTOM
 62
     7
 10
-3.3264758200000002
 20
-112.8334640799999988
 30
0.0
 11
-3.3264758200000002
 21
-116.5385777799999971
 31
0.0
  0
LINE
  5
A8
  8
SLD-0_4
  6
PHANTOM
 62
     7
 10
-3.3264758200000002
 20
-136.2998223600000074
 30
0.0
 11
4.0837516100000002
 21
-136.2998223600000074
 31
0.0
  0
LINE
  5
A9
  8
SLD-0_4
  6
PHANTOM
 62
     7
 10
-16.8337258200000015
 20
-79.2768684299999933
 30
0.0
 11
-14.6322890999999995
 21
-79.2768684299999933
 31
0.0
  0
LINE
  5
AA
  8
SLD-0_4
  6
PHANTOM
 62
     7
 10
-151.4272317699999917
 20
-74.0087346400000001
 30
0.0
 11
-152.1565773300000046
 21
-74.0087346400000001
 31
0.0
  0
LINE
  5
AB
  8
SLD-0_4
  6
PHANTOM
 62
     7
 10
-160.1401354500000025
 20
-65.2642451300000062
 30
0.0
 11
-159.4107898899999896
 21
-65.2642451300000062
 31
0.0
  0
LINE
  5
AC
  8
SLD-0_4
  6
PHANTOM
 62
     7
 10
-141.2881799600000079
 20
-65.2642451300000062
 30
0.0
 11
-141.2881799600000079
 21
-64.5425567399999949
 31
0.0
  0
LINE
  5
AD
  8
SLD-0_4
  6
PHANTOM
 62
     7
 10
-24.3990109599999982
 20
-89.0933619099999845
 30
0.0
 11
-24.3990109599999982
 21
-76.7729734600000029
 31
0.0
  0
LINE
  5
AE
  8
SLD-0_4
  6
PHANTOM
 62
     7
 10
4.0837516100000002
 20
-127.6548760700000003
 30
0.0
 11
-3.3264758200000002
 21
-127.6548760700000003
 31
0.0
  0
LINE
  5
AF
  8
SLD-0_4
  6
PHANTOM
 62
     7
 10
-14.6322890999999995
 20
-79.2768684299999933
 30
0.0
 11
-14.6227176300000004
 21
-81.1815897700000022
 31
0.0
  0
LINE
  5
B0
  8
SLD-0_4
  6
PHANTOM
 62
     7
 10
-133.3027075400000001
 20
-64.5425567399999949
 30
0.0
 11
-176.1082088400000032
 21
-64.5425567399999949
 31
0.0
  0
LINE
  5
B1
  8
SLD-0_4
  6
PHANTOM
 62
     7
 10
-160.1401354500000025
 20
-74.0087346400000001
 30
0.0
 11
-160.1401354500000025
 21
-75.0424527600000033
 31
0.0
  0
LINE
  5
B2
  8
SLD-0_4
  6
PHANTOM
 62
     7
 10
-157.2562533500000086
 20
-74.0087346400000001
 30
0.0
 11
-157.9779417299999977
 21
-74.0087346400000001
 31
0.0
  0
LINE
  5
B3
  8
SLD-0_4
  6
PHANTOM
 62
     7
 10
-157.9779417299999977
 20
-74.0087346400000001
 30
0.0
 11
-157.9779417299999977
 21
-65.2642451300000062
 31
0.0
  0
LINE
  5
B4
  8
SLD-0_4
  6
PHANTOM
 62
     7
 10
-173.2224124500000073
 20
-75.0424527600000033
 30
0.0
 11
-173.2224124500000073
 21
-74.0087346400000001
 31
0.0
  0
LINE
  5
B5
  8
SLD-0_4
  6
PHANTOM
 62
     7
 10
-11.6364208599999994
 20
-76.7729734600000029
 30
0.0
 11
-11.6364208599999994
 21
-89.0933619099999845
 31
0.0
  0
LINE
  5
B6
  8
SLD-0_4
  6
PHANTOM
 62
     7
 10
-28.8352138999999994
 20
-149.5424239499999999
 30
0.0
 11
19.1647861000000006
 21
-149.5424239499999999
 31
0.0
  0
LINE
  5
B7
  8
SLD-0_4
  6
PHANTOM
 62
     7
 10
-9.2473834499999992
 20
-156.4039409000000092
 30
0.0
 11
-9.2473834499999992
 21
-149.5424239499999999
 31
0.0
  0
LINE
  5
B8
  8
SLD-0_4
  6
PHANTOM
 62
     7
 10
-3.3264758200000002
 20
-131.3580755099999919
 30
0.0
 11
4.0837516100000002
 21
-131.3580755099999919
 31
0.0
  0
LINE
  5
B9
  8
SLD-0_4
  6
PHANTOM
 62
     7
 10
4.0837516100000002
 20
-136.2998223600000074
 30
0.0
 11
4.0837516100000002
 21
-132.5947086500000012
 31
0.0
  0
LINE
  5
BA
  8
SLD-0_4
  6
PHANTOM
 62
     7
 10
-14.6227176300000004
 20
-84.6321025400000053
 30
0.0
 11
-14.6322890999999995
 21
-86.5904240800000053
 31
0.0
  0
LINE
  5
BB
  8
SLD-0_4
  6
PHANTOM
 62
     7
 10
4.0837516100000002
 20
-112.8334640799999988
 30
0.0
 11
-3.3264758200000002
 21
-112.8334640799999988
 31
0.0
  0
LINE
  5
BC
  8
SLD-0_4
  6
PHANTOM
 62
     7
 10
-152.1565773300000046
 20
-74.0087346400000001
 30
0.0
 11
-152.1565773300000046
 21
-75.0424527600000033
 31
0.0
  0
LINE
  5
BD
  8
SLD-0_4
  6
PHANTOM
 62
     7
 10
-157.2562533500000086
 20
-65.2642451300000062
 30
0.0
 11
-157.2562533500000086
 21
-64.5425567399999949
 31
0.0
  0
LINE
  5
BE
  8
SLD-0_4
  6
PHANTOM
 62
     7
 10
-21.1648658800000007
 20
-234.5721034700000018
 30
0.0
 11
-24.2358476699999983
 21
-234.5721034700000018
 31
0.0
  0
LINE
  5
BF
  8
SLD-0_4
  6
PHANTOM
 62
     7
 10
-134.0243959299999972
 20
-65.2642451300000062
 30
0.0
 11
-133.3027075400000001
 21
-65.2642451300000062
 31
0.0
  0
LINE
  5
C0
  8
SLD-0_4
  6
PHANTOM
 62
     7
 10
-144.1720620600000018
 20
-65.2642451300000062
 30
0.0
 11
-143.4427164999999889
 21
-65.2642451300000062
 31
0.0
  0
LINE
  5
C1
  8
SLD-0_4
  6
PHANTOM
 62
     7
 10
-29.4936472599999995
 20
-235.0133816100000104
 30
0.0
 11
-29.5435731000000104
 21
-235.095927549999999
 31
0.0
  0
LINE
  5
C2
  8
SLD-0_4
  6
PHANTOM
 62
     7
 10
-17.5312614700000005
 20
-234.5721034700000018
 30
0.0
 11
-21.1648658800000007
 21
-234.5721034700000018
 31
0.0
  0
LINE
  5
C3
  8
SLD-0_4
  6
PHANTOM
 62
     7
 10
17.2810130400000013
 20
-234.5721034700000018
 30
0.0
 11
14.9133095200000003
 21
-234.5721034700000018
 31
0.0
  0
LINE
  5
C4
  8
SLD-0_4
  6
PHANTOM
 62
     7
 10
8.2087233200000007
 20
-234.5721034700000018
 30
0.0
 11
4.1531519499999989
 21
-234.5721034700000018
 31
0.0
  0
LINE
  5
C5
  8
SLD-0_4
  6
PHANTOM
 62
     7
 10
-26.603551190000001
 20
-234.5721034700000018
 30
0.0
 11
-28.1273207800000016
 21
-234.5721034700000018
 31
0.0
  0
LINE
  5
C6
  8
SLD-0_4
  6
PHANTOM
 62
     7
 10
-28.6665007900000006
 20
-234.5721034700000018
 30
0.0
 11
-28.7685555899999983
 21
-234.5772691699999939
 31
0.0
  0
LINE
  5
C7
  8
SLD-0_4
  6
PHANTOM
 62
     7
 10
19.9026482400000013
 20
-234.7430101900000068
 30
0.0
 11
19.8204257199999994
 21
-234.6928801100000044
 31
0.0
  0
LINE
  5
C8
  8
SLD-0_4
  6
PHANTOM
 62
     7
 10
20.3361864899999993
 20
-235.4708653499999969
 30
0.0
 11
20.3211455500000007
 21
-235.3714216699999895
 31
0.0
  0
LINE
  5
C9
  8
SLD-0_4
  6
PHANTOM
 62
     7
 10
18.8047826299999983
 20
-234.5721034700000018
 30
0.0
 11
17.2810130400000013
 21
-234.5721034700000018
 31
0.0
  0
LINE
  5
CA
  8
SLD-0_4
  6
PHANTOM
 62
     7
 10
20.3211455500000007
 20
-235.3714216699999895
 30
0.0
 11
20.2966771000000001
 21
-235.2754495099999872
 31
0.0
  0
LINE
  5
CB
  8
SLD-0_4
  6
PHANTOM
 62
     7
 10
20.0500973999999985
 20
-234.8652295599999889
 30
0.0
 11
19.9793690400000017
 21
-234.8006273199999896
 31
0.0
  0
LINE
  5
CC
  8
SLD-0_4
  6
PHANTOM
 62
     7
 10
19.7331922000000013
 20
-234.6507390300000111
 30
0.0
 11
19.6414384099999992
 21
-234.6170888899999909
 31
0.0
  0
LINE
  5
CD
  8
SLD-0_4
  6
PHANTOM
 62
     7
 10
19.9793690400000017
 20
-234.8006273199999896
 30
0.0
 11
19.9026482400000013
 21
-234.7430101900000068
 31
0.0
  0
LINE
  5
CE
  8
SLD-0_4
  6
PHANTOM
 62
     7
 10
-5.9572453000000003
 20
-224.54281395000001
 30
0.0
 11
-5.9572453000000003
 21
-234.5816749399999992
 31
0.0
  0
LINE
  5
CF
  8
SLD-0_4
  6
PHANTOM
 62
     7
 10
-24.2358476699999983
 20
-234.5721034700000018
 30
0.0
 11
-26.603551190000001
 21
-234.5721034700000018
 31
0.0
  0
LINE
  5
D0
  8
SLD-0_4
  6
PHANTOM
 62
     7
 10
20.1716138600000008
 20
-235.0133816100000104
 30
0.0
 11
20.1143425799999989
 21
-234.9363149700000122
 31
0.0
  0
LINE
  5
D1
  8
SLD-0_4
  6
PHANTOM
 62
     7
 10
-28.8676436099999982
 20
-234.5924316200000135
 30
0.0
 11
-28.9632657100000017
 21
-234.6170888899999909
 31
0.0
  0
LINE
  5
D2
  8
SLD-0_4
  6
PHANTOM
 62
     7
 10
20.2214205299999996
 20
-235.095927549999999
 30
0.0
 11
20.1716138600000008
 21
-235.0133816100000104
 31
0.0
  0
LINE
  5
D3
  8
SLD-0_4
  6
PHANTOM
 62
     7
 10
11.8423277299999992
 20
-234.5721034700000018
 30
0.0
 11
8.2087233200000007
 21
-234.5721034700000018
 31
0.0
  0
LINE
  5
D4
  8
SLD-0_4
  6
PHANTOM
 62
     7
 10
-0.18373074
 20
-234.5721034700000018
 30
0.0
 11
-4.6612690700000003
 21
-234.5721034700000018
 31
0.0
  0
LINE
  5
D5
  8
SLD-0_4
  6
PHANTOM
 62
     7
 10
19.5456550699999987
 20
-234.5924316200000135
 30
0.0
 11
19.4463329000000016
 21
-234.5772691699999939
 31
0.0
  0
LINE
  5
D6
  8
SLD-0_4
  6
PHANTOM
 62
     7
 10
9.8567275199999997
 20
-234.5816749399999992
 30
0.0
 11
9.8567275199999997
 21
-224.54281395000001
 31
0.0
  0
LINE
  5
D7
  8
SLD-0_4
  6
PHANTOM
 62
     7
 10
-29.4362624100000012
 20
-234.9363149700000122
 30
0.0
 11
-29.4936472599999995
 21
-235.0133816100000104
 31
0.0
  0
LINE
  5
D8
  8
SLD-0_4
  6
PHANTOM
 62
     7
 10
-13.4756900900000005
 20
-234.5721034700000018
 30
0.0
 11
-17.5312614700000005
 21
-234.5721034700000018
 31
0.0
  0
LINE
  5
D9
  8
SLD-0_4
  6
PHANTOM
 62
     7
 10
-28.7685555899999983
 20
-234.5772691699999939
 30
0.0
 11
-28.8676436099999982
 21
-234.5924316200000135
 31
0.0
  0
LINE
  5
DA
  8
SLD-0_4
  6
PHANTOM
 62
     7
 10
19.6414384099999992
 20
-234.6170888899999909
 30
0.0
 11
19.5456550699999987
 21
-234.5924316200000135
 31
0.0
  0
LINE
  5
DB
  8
SLD-0_4
  6
PHANTOM
 62
     7
 10
-29.0549227600000002
 20
-234.6507390300000111
 30
0.0
 11
-29.1421156199999984
 21
-234.6928801100000044
 31
0.0
  0
LINE
  5
DC
  8
SLD-0_4
  6
PHANTOM
 62
     7
 10
-29.5855408000000004
 20
-235.1834508299999982
 30
0.0
 11
-29.6190512000000012
 21
-235.2754495099999872
 31
0.0
  0
LINE
  5
DD
  8
SLD-0_4
  6
PHANTOM
 62
     7
 10
14.9133095200000003
 20
-234.5721034700000018
 30
0.0
 11
11.8423277299999992
 21
-234.5721034700000018
 31
0.0
  0
LINE
  5
DE
  8
SLD-0_4
  6
PHANTOM
 62
     7
 10
20.2966771000000001
 20
-235.2754495099999872
 30
0.0
 11
20.2632718499999989
 21
-235.1834508299999982
 31
0.0
  0
LINE
  5
DF
  8
SLD-0_4
  6
PHANTOM
 62
     7
 10
20.2632718499999989
 20
-235.1834508299999982
 30
0.0
 11
20.2214205299999996
 21
-235.095927549999999
 31
0.0
  0
LINE
  5
E0
  8
SLD-0_4
  6
PHANTOM
 62
     7
 10
-9.1388074100000001
 20
-234.5721034700000018
 30
0.0
 11
-13.4756900900000005
 21
-234.5721034700000018
 31
0.0
  0
LINE
  5
E1
  8
SLD-0_4
  6
PHANTOM
 62
     7
 10
-29.2243451500000013
 20
-234.7430101900000068
 30
0.0
 11
-29.3011122200000003
 21
-234.8006273199999896
 31
0.0
  0
LINE
  5
E2
  8
SLD-0_4
  6
PHANTOM
 62
     7
 10
19.4463329000000016
 20
-234.5772691699999939
 30
0.0
 11
19.3439626400000009
 21
-234.5721034700000018
 31
0.0
  0
LINE
  5
E3
  8
SLD-0_4
  6
PHANTOM
 62
     7
 10
-29.3719176799999993
 20
-234.8652295599999889
 30
0.0
 11
-29.4362624100000012
 21
-234.9363149700000122
 31
0.0
  0
LINE
  5
E4
  8
SLD-0_4
  6
PHANTOM
 62
     7
 10
-28.1273207800000016
 20
-234.5721034700000018
 30
0.0
 11
-28.6665007900000006
 21
-234.5721034700000018
 31
0.0
  0
LINE
  5
E5
  8
SLD-0_4
  6
PHANTOM
 62
     7
 10
-29.1421156199999984
 20
-234.6928801100000044
 30
0.0
 11
-29.2243451500000013
 21
-234.7430101900000068
 31
0.0
  0
LINE
  5
E6
  8
SLD-0_4
  6
PHANTOM
 62
     7
 10
-29.3011122200000003
 20
-234.8006273199999896
 30
0.0
 11
-29.3719176799999993
 21
-234.8652295599999889
 31
0.0
  0
LINE
  5
E7
  8
SLD-0_4
  6
PHANTOM
 62
     7
 10
-5.9572453000000003
 20
-224.54281395000001
 30
0.0
 11
9.8567275199999997
 21
-224.54281395000001
 31
0.0
  0
LINE
  5
E8
  8
SLD-0_4
  6
PHANTOM
 62
     7
 10
20.1143425799999989
 20
-234.9363149700000122
 30
0.0
 11
20.0500973999999985
 21
-234.8652295599999889
 31
0.0
  0
LINE
  5
E9
  8
SLD-0_4
  6
PHANTOM
 62
     7
 10
-29.5435731000000104
 20
-235.095927549999999
 30
0.0
 11
-29.5855408000000004
 21
-235.1834508299999982
 31
0.0
  0
LINE
  5
EA
  8
SLD-0_4
  6
PHANTOM
 62
     7
 10
-29.6190512000000012
 20
-235.2754495099999872
 30
0.0
 11
-29.6436051899999988
 21
-235.3714216699999895
 31
0.0
  0
LINE
  5
EB
  8
SLD-0_4
  6
PHANTOM
 62
     7
 10
-28.9632657100000017
 20
-234.6170888899999909
 30
0.0
 11
-29.0549227600000002
 21
-234.6507390300000111
 31
0.0
  0
LINE
  5
EC
  8
SLD-0_4
  6
PHANTOM
 62
     7
 10
19.3439626400000009
 20
-234.5721034700000018
 30
0.0
 11
18.8047826299999983
 21
-234.5721034700000018
 31
0.0
  0
LINE
  5
ED
  8
SLD-0_4
  6
PHANTOM
 62
     7
 10
-4.6612690700000003
 20
-234.5721034700000018
 30
0.0
 11
-9.1388074100000001
 21
-234.5721034700000018
 31
0.0
  0
LINE
  5
EE
  8
SLD-0_4
  6
PHANTOM
 62
     7
 10
4.1531519499999989
 20
-234.5721034700000018
 30
0.0
 11
-0.18373074
 21
-234.5721034700000018
 31
0.0
  0
LINE
  5
EF
  8
SLD-0_4
  6
PHANTOM
 62
     7
 10
-29.6587036099999999
 20
-235.4708653499999969
 30
0.0
 11
-29.6638473400000002
 21
-235.5732786099999885
 31
0.0
  0
LINE
  5
F0
  8
SLD-0_4
  6
PHANTOM
 62
     7
 10
20.3413091900000005
 20
-235.5732786099999885
 30
0.0
 11
20.3361864899999993
 21
-235.4708653499999969
 31
0.0
  0
LINE
  5
F1
  8
SLD-0_4
  6
PHANTOM
 62
     7
 10
-29.6638473400000002
 20
-235.5732786099999885
 30
0.0
 11
-29.6638473400000002
 21
-340.5424412400000165
 31
0.0
  0
LINE
  5
F2
  8
SLD-0_4
  6
PHANTOM
 62
     7
 10
-29.6436051899999988
 20
-235.3714216699999895
 30
0.0
 11
-29.6587036099999999
 21
-235.4708653499999969
 31
0.0
  0
LINE
  5
F3
  8
SLD-0_4
  6
PHANTOM
 62
     7
 10
-5.9572453000000003
 20
-234.5816749399999992
 30
0.0
 11
9.8567275199999997
 21
-234.5816749399999992
 31
0.0
  0
LINE
  5
F4
  8
SLD-0_4
  6
PHANTOM
 62
     7
 10
20.3413091900000005
 20
-340.5424412400000165
 30
0.0
 11
20.3413091900000005
 21
-235.5732786099999885
 31
0.0
  0
LINE
  5
F5
  8
SLD-0_4
  6
PHANTOM
 62
     7
 10
19.8204257199999994
 20
-234.6928801100000044
 30
0.0
 11
19.7331922000000013
 21
-234.6507390300000111
 31
0.0
  0
LINE
  5
F6
  8
SLD-0_4
  6
PHANTOM
 62
     7
 10
-129.6306614199999956
 20
-159.5424239499999999
 30
0.0
 11
-129.6306614199999956
 21
-59.5424239499999999
 31
0.0
  0
CIRCLE
  5
F7
  8
SLD-0_4
  6
PHANTOM
 62
     7
 10
-162.683547190000013
 20
-69.6943418500000007
 30
0.0
 40
2.6164181399999991
  0
CIRCLE
  5
F8
  8
SLD-0_4
  6
PHANTOM
 62
     7
 10
-154.6999890699999867
 20
-69.6943418500000007
 30
0.0
 40
2.6164181399999991
  0
CIRCLE
  5
F9
  8
SLD-0_4
  6
PHANTOM
 62
     7
 10
-146.7154738000000123
 20
-69.6943418500000007
 30
0.0
 40
2.6164181399999991
  0
CIRCLE
  5
FA
  8
SLD-0_4
  6
PHANTOM
 62
     7
 10
-138.731915679999986
 20
-69.6943418500000007
 30
0.0
 40
2.6164181399999991
  0
ARC
  5
FB
  8
SLD-0_4
  6
PHANTOM
 62
     7
 10
19.1647861000000006
 20
-148.5424239499999999
 30
0.0
 40
1.0
 50
270.0
 51
360.0
  0
CIRCLE
  5
FC
  8
SLD-0_4
  6
PHANTOM
 62
     7
 10
-4.8352139000000003
 20
-152.984988340000001
 30
0.0
 40
2.50017756
  0
ARC
  5
FD
  8
SLD-0_4
  6
PHANTOM
 62
     7
 10
19.1647861000000006
 20
-70.5424239499999999
 30
0.0
 40
1.0
 50
0.0
 51
90.0
  0
ARC
  5
FE
  8
SLD-0_4
  6
PHANTOM
 62
     7
 10
-28.8352138999999994
 20
-148.5424239499999999
 30
0.0
 40
1.0
 50
180.0
 51
270.0
  0
CIRCLE
  5
FF
  8
SLD-0_4
  6
PHANTOM
 62
     7
 10
-4.8352139000000003
 20
-66.0998595700000067
 30
0.0
 40
2.50017756
  0
ARC
  5
100
  8
SLD-0_4
  6
PHANTOM
 62
     7
 10
-28.8352138999999994
 20
-70.5424239499999999
 30
0.0
 40
1.0
 50
90.0
 51
180.0
  0
LINE
  5
101
  8
SLD-0_4
  6
CONTINUOUS
 62
     7
 10
47.8574202900000003
 20
-138.0424239499999999
 30
0.0
 11
50.3574202900000003
 21
-140.5424239499999999
 31
0.0
  0
LINE
  5
102
  8
SLD-0_4
  6
CONTINUOUS
 62
     7
 10
47.8574202900000003
 20
-159.5424239499999999
 30
0.0
 11
-197.1425797100000068
 21
-159.5424239499999999
 31
0.0
  0
LINE
  5
103
  8
SLD-0_4
  6
CONTINUOUS
 62
     7
 10
50.3574202900000003
 20
-157.0424239499999999
 30
0.0
 11
50.3574202900000003
 21
-140.5424239499999999
 31
0.0
  0
LINE
  5
104
  8
SLD-0_4
  6
CONTINUOUS
 62
     7
 10
50.3574202900000003
 20
-128.5424239499999999
 30
0.0
 11
50.3574202900000003
 21
-90.5424239500000141
 31
0.0
  0
LINE
  5
105
  8
SLD-0_4
  6
CONTINUOUS
 62
     7
 10
-197.1425797100000068
 20
-138.0424239499999999
 30
0.0
 11
-199.6425797100000068
 21
-140.5424239499999999
 31
0.0
  0
LINE
  5
106
  8
SLD-0_4
  6
CONTINUOUS
 62
     7
 10
40.3574202900000003
 20
-81.0424239499999857
 30
0.0
 11
47.8574202900000003
 21
-81.0424239499999857
 31
0.0
  0
LINE
  5
107
  8
SLD-0_4
  6
CONTINUOUS
 62
     7
 10
47.8574202900000003
 20
-88.0424239500000141
 30
0.0
 11
50.3574202900000003
 21
-90.5424239500000141
 31
0.0
  0
LINE
  5
108
  8
SLD-0_4
  6
CONTINUOUS
 62
     7
 10
-197.1425797100000068
 20
-81.0424239499999857
 30
0.0
 11
-199.6425797100000068
 21
-78.5424239499999857
 31
0.0
  0
LINE
  5
109
  8
SLD-0_4
  6
CONTINUOUS
 62
     7
 10
-197.1425797100000068
 20
-131.0424239499999999
 30
0.0
 11
-199.6425797100000068
 21
-128.5424239499999999
 31
0.0
  0
LINE
  5
10A
  8
SLD-0_4
  6
CONTINUOUS
 62
     7
 10
-197.1425797100000068
 20
-159.5424239499999999
 30
0.0
 11
-199.6425797100000068
 21
-157.0424239499999999
 31
0.0
  0
LINE
  5
10B
  8
SLD-0_4
  6
CONTINUOUS
 62
     7
 10
40.3574202900000003
 20
-88.0424239500000141
 30
0.0
 11
47.8574202900000003
 21
-88.0424239500000141
 31
0.0
  0
LINE
  5
10C
  8
SLD-0_4
  6
CONTINUOUS
 62
     7
 10
40.3574202900000003
 20
-131.0424239499999999
 30
0.0
 11
47.8574202900000003
 21
-131.0424239499999999
 31
0.0
  0
LINE
  5
10D
  8
SLD-0_4
  6
CONTINUOUS
 62
     7
 10
47.8574202900000003
 20
-131.0424239499999999
 30
0.0
 11
50.3574202900000003
 21
-128.5424239499999999
 31
0.0
  0
LINE
  5
10E
  8
SLD-0_4
  6
CONTINUOUS
 62
     7
 10
-199.6425797100000068
 20
-128.5424239499999999
 30
0.0
 11
-199.6425797100000068
 21
-90.5424239500000141
 31
0.0
  0
LINE
  5
10F
  8
SLD-0_4
  6
CONTINUOUS
 62
     7
 10
50.3574202900000003
 20
-78.5424239499999857
 30
0.0
 11
50.3574202900000003
 21
-62.0424239499999999
 31
0.0
  0
LINE
  5
110
  8
SLD-0_4
  6
CONTINUOUS
 62
     7
 10
30.3574202900000003
 20
-159.5424239499999999
 30
0.0
 11
30.3574202900000003
 21
-59.5424239499999999
 31
0.0
  0
LINE
  5
111
  8
SLD-0_4
  6
CONTINUOUS
 62
     7
 10
40.3574202900000003
 20
-138.0424239499999999
 30
0.0
 11
47.8574202900000003
 21
-138.0424239499999999
 31
0.0
  0
LINE
  5
112
  8
SLD-0_4
  6
CONTINUOUS
 62
     7
 10
-189.6425797100000068
 20
-88.0424239500000141
 30
0.0
 11
-197.1425797100000068
 21
-88.0424239500000141
 31
0.0
  0
LINE
  5
113
  8
SLD-0_4
  6
CONTINUOUS
 62
     7
 10
-189.6425797100000068
 20
-131.0424239499999999
 30
0.0
 11
-197.1425797100000068
 21
-131.0424239499999999
 31
0.0
  0
LINE
  5
114
  8
SLD-0_4
  6
CONTINUOUS
 62
     7
 10
-199.6425797100000068
 20
-62.0424239499999999
 30
0.0
 11
-197.1425797100000068
 21
-59.5424239499999999
 31
0.0
  0
LINE
  5
115
  8
SLD-0_4
  6
CONTINUOUS
 62
     7
 10
-199.6425797100000068
 20
-157.0424239499999999
 30
0.0
 11
-199.6425797100000068
 21
-140.5424239499999999
 31
0.0
  0
LINE
  5
116
  8
SLD-0_4
  6
CONTINUOUS
 62
     7
 10
47.8574202900000003
 20
-159.5424239499999999
 30
0.0
 11
50.3574202900000003
 21
-157.0424239499999999
 31
0.0
  0
LINE
  5
117
  8
SLD-0_4
  6
CONTINUOUS
 62
     7
 10
-189.6425797100000068
 20
-81.0424239499999857
 30
0.0
 11
-197.1425797100000068
 21
-81.0424239499999857
 31
0.0
  0
LINE
  5
118
  8
SLD-0_4
  6
CONTINUOUS
 62
     7
 10
-197.1425797100000068
 20
-88.0424239500000141
 30
0.0
 11
-199.6425797100000068
 21
-90.5424239500000141
 31
0.0
  0
LINE
  5
119
  8
SLD-0_4
  6
CONTINUOUS
 62
     7
 10
47.8574202900000003
 20
-59.5424239499999999
 30
0.0
 11
-197.1425797100000068
 21
-59.5424239499999999
 31
0.0
  0
LINE
  5
11A
  8
SLD-0_4
  6
CONTINUOUS
 62
     7
 10
50.3574202900000003
 20
-62.0424239499999999
 30
0.0
 11
47.8574202900000003
 21
-59.5424239499999999
 31
0.0
  0
LINE
  5
11B
  8
SLD-0_4
  6
CONTINUOUS
 62
     7
 10
-189.6425797100000068
 20
-138.0424239499999999
 30
0.0
 11
-197.1425797100000068
 21
-138.0424239499999999
 31
0.0
  0
LINE
  5
11C
  8
SLD-0_4
  6
CONTINUOUS
 62
     7
 10
47.8574202900000003
 20
-81.0424239499999857
 30
0.0
 11
50.3574202900000003
 21
-78.5424239499999857
 31
0.0
  0
LINE
  5
11D
  8
SLD-0_4
  6
CONTINUOUS
 62
     7
 10
-199.6425797100000068
 20
-78.5424239499999857
 30
0.0
 11
-199.6425797100000068
 21
-62.0424239499999999
 31
0.0
  0
LINE
  5
11E
  8
SLD-0_4
  6
CONTINUOUS
 62
     7
 10
-129.7036206900000082
 20
-343.5439044500000136
 30
0.0
 11
30.3574202900000003
 21
-343.5439044500000136
 31
0.0
  0
LINE
  5
11F
  8
SLD-0_4
  6
CONTINUOUS
 62
     7
 10
-127.7043340900000032
 20
-343.5439044500000136
 30
0.0
 11
-127.7043340900000032
 21
-340.5424412400000165
 31
0.0
  0
LINE
  5
120
  8
SLD-0_4
  6
CONTINUOUS
 62
     7
 10
28.342485270000001
 20
-340.5424412400000165
 30
0.0
 11
28.342485270000001
 21
-343.5439044500000136
 31
0.0
  0
LINE
  5
121
  8
SLD-0_4
  6
CONTINUOUS
 62
     7
 10
-127.7043340900000032
 20
-340.5424412400000165
 30
0.0
 11
28.342485270000001
 21
-340.5424412400000165
 31
0.0
  0
LINE
  5
122
  8
SLD-0_4
  6
CONTINUOUS
 62
     7
 10
30.3574202900000003
 20
-343.5439044500000136
 30
0.0
 11
30.3574202900000003
 21
-356.5428139499999816
 31
0.0
  0
LINE
  5
123
  8
SLD-0_4
  6
CONTINUOUS
 62
     7
 10
50.3574202900000003
 20
-354.5428139499999816
 30
0.0
 11
50.3574202900000003
 21
-356.5428139499999816
 31
0.0
  0
LINE
  5
124
  8
SLD-0_4
  6
CONTINUOUS
 62
     7
 10
50.3574202900000003
 20
-354.5428139499999816
 30
0.0
 11
30.3574202900000003
 21
-354.5428139499999816
 31
0.0
  0
LINE
  5
125
  8
SLD-0_4
  6
CONTINUOUS
 62
     7
 10
-129.7036206900000082
 20
-343.5439044500000136
 30
0.0
 11
-129.7036206900000082
 21
-356.5428139499999816
 31
0.0
  0
ARC
  5
126
  8
SLD-0_4
  6
CONTINUOUS
 62
     7
 10
40.3574202900000003
 20
-84.5424239499999857
 30
0.0
 40
3.5
 50
90.0
 51
270.0
  0
ARC
  5
127
  8
SLD-0_4
  6
CONTINUOUS
 62
     7
 10
-189.6425797100000068
 20
-84.5424239499999857
 30
0.0
 40
3.5
 50
270.0
 51
450.0
  0
ARC
  5
128
  8
SLD-0_4
  6
CONTINUOUS
 62
     7
 10
40.3574202900000003
 20
-134.5424239499999999
 30
0.0
 40
3.5
 50
90.0
 51
270.0
  0
ARC
  5
129
  8
SLD-0_4
  6
CONTINUOUS
 62
     7
 10
-189.6425797100000068
 20
-134.5424239499999999
 30
0.0
 40
3.5
 50
270.0
 51
450.0
  0
LINE
  5
12A
  8
0
  6
PHANTOM
 62
     7
 10
-66.6425797100000068
 20
-139.5424239499999999
 30
0.0
 11
-66.6425797100000068
 21
-91.5424239499999999
 31
0.0
  0
LINE
  5
12B
  8
0
  6
PHANTOM
 62
     7
 10
-105.6425797100000068
 20
-91.5424239499999999
 30
0.0
 11
-123.6425797100000068
 21
-91.5424239499999999
 31
0.0
  0
LINE
  5
12C
  8
0
  6
PHANTOM
 62
     7
 10
-67.6425797100000068
 20
-139.5424239499999999
 30
0.0
 11
-85.6425797100000068
 21
-139.5424239499999999
 31
0.0
  0
LINE
  5
12D
  8
0
  6
PHANTOM
 62
     7
 10
-67.6425797100000068
 20
-139.5424239499999999
 30
0.0
 11
-67.6425797100000068
 21
-91.5424239499999999
 31
0.0
  0
LINE
  5
12E
  8
0
  6
PHANTOM
 62
     7
 10
-67.6425797100000068
 20
-91.5424239499999999
 30
0.0
 11
-85.6425797100000068
 21
-91.5424239499999999
 31
0.0
  0
LINE
  5
12F
  8
0
  6
PHANTOM
 62
     7
 10
-48.6425797099999997
 20
-139.5424239499999999
 30
0.0
 11
-66.6425797100000068
 21
-139.5424239499999999
 31
0.0
  0
LINE
  5
130
  8
0
  6
PHANTOM
 62
     7
 10
-105.6425797100000068
 20
-139.5424239499999999
 30
0.0
 11
-105.6425797100000068
 21
-91.5424239499999999
 31
0.0
  0
LINE
  5
131
  8
0
  6
PHANTOM
 62
     7
 10
-86.6425797100000068
 20
-139.5424239499999999
 30
0.0
 11
-104.6425797100000068
 21
-139.5424239499999999
 31
0.0
  0
LINE
  5
132
  8
0
  6
PHANTOM
 62
     7
 10
-85.6425797100000068
 20
-139.5424239499999999
 30
0.0
 11
-85.6425797100000068
 21
-91.5424239499999999
 31
0.0
  0
LINE
  5
133
  8
0
  6
PHANTOM
 62
     7
 10
-86.6425797100000068
 20
-139.5424239499999999
 30
0.0
 11
-86.6425797100000068
 21
-91.5424239499999999
 31
0.0
  0
LINE
  5
134
  8
0
  6
PHANTOM
 62
     7
 10
-48.6425797099999997
 20
-91.5424239499999999
 30
0.0
 11
-66.6425797100000068
 21
-91.5424239499999999
 31
0.0
  0
LINE
  5
135
  8
0
  6
PHANTOM
 62
     7
 10
-66.6425797100000068
 20
288.1550416900000187
 30
0.0
 11
-66.6425797100000068
 21
336.1550416900000187
 31
0.0
  0
LINE
  5
136
  8
0
  6
PHANTOM
 62
     7
 10
-85.6425797100000068
 20
288.1550416900000187
 30
0.0
 11
-85.6425797100000068
 21
336.1550416900000187
 31
0.0
  0
LINE
  5
137
  8
0
  6
PHANTOM
 62
     7
 10
-123.6425797100000068
 20
-139.5424239499999999
 30
0.0
 11
-123.6425797100000068
 21
-91.5424239499999999
 31
0.0
  0
LINE
  5
138
  8
0
  6
PHANTOM
 62
     7
 10
-104.6425797100000068
 20
-139.5424239499999999
 30
0.0
 11
-104.6425797100000068
 21
-91.5424239499999999
 31
0.0
  0
LINE
  5
139
  8
0
  6
PHANTOM
 62
     7
 10
-48.6425797099999997
 20
-139.5424239499999999
 30
0.0
 11
-48.6425797099999997
 21
-91.5424239499999999
 31
0.0
  0
LINE
  5
13A
  8
0
  6
PHANTOM
 62
     7
 10
-86.6425797100000068
 20
-91.5424239499999999
 30
0.0
 11
-104.6425797100000068
 21
-91.5424239499999999
 31
0.0
  0
LINE
  5
13B
  8
0
  6
PHANTOM
 62
     7
 10
-105.6425797100000068
 20
-139.5424239499999999
 30
0.0
 11
-123.6425797100000068
 21
-139.5424239499999999
 31
0.0
  0
LINE
  5
13C
  8
0
  6
PHANTOM
 62
     7
 10
-55.2704090300000033
 20
-271.2635634100000175
 30
0.0
 11
-55.2704090300000033
 21
-271.0428139599999895
 31
0.0
  0
LINE
  5
13D
  8
0
  6
PHANTOM
 62
     7
 10
-106.9727555500000022
 20
-271.2635634100000175
 30
0.0
 11
-106.9727555500000022
 21
-271.0428139599999895
 31
0.0
  0
LINE
  5
13E
  8
0
  6
PHANTOM
 62
     7
 10
-123.6425797100000068
 20
-271.242813950000027
 30
0.0
 11
-123.6425797100000068
 21
-340.5424412400000165
 31
0.0
  0
LINE
  5
13F
  8
0
  6
PHANTOM
 62
     7
 10
-66.6425797100000068
 20
-271.242813950000027
 30
0.0
 11
-66.6425797100000068
 21
-340.5424412400000165
 31
0.0
  0
LINE
  5
140
  8
0
  6
PHANTOM
 62
     7
 10
-48.6425797099999997
 20
-271.242813950000027
 30
0.0
 11
-66.6425797100000068
 21
-271.242813950000027
 31
0.0
  0
LINE
  5
141
  8
0
  6
PHANTOM
 62
     7
 10
-48.6425797099999997
 20
-271.242813950000027
 30
0.0
 11
-48.6425797099999997
 21
-340.5424412400000165
 31
0.0
  0
LINE
  5
142
  8
0
  6
PHANTOM
 62
     7
 10
-51.4727555500000022
 20
-269.5428139599999895
 30
0.0
 11
-53.7704090300000104
 21
-269.5428139599999895
 31
0.0
  0
LINE
  5
143
  8
0
  6
PHANTOM
 62
     7
 10
-108.4727555500000022
 20
-269.5428139599999895
 30
0.0
 11
-110.7704090299999962
 21
-269.5428139599999895
 31
0.0
  0
LINE
  5
144
  8
0
  6
PHANTOM
 62
     7
 10
-49.9727555500000022
 20
-271.2635634100000175
 30
0.0
 11
-49.9727555500000022
 21
-271.0428139599999895
 31
0.0
  0
LINE
  5
145
  8
0
  6
PHANTOM
 62
     7
 10
-105.6425797100000068
 20
-271.242813950000027
 30
0.0
 11
-123.6425797100000068
 21
-271.242813950000027
 31
0.0
  0
LINE
  5
146
  8
0
  6
PHANTOM
 62
     7
 10
-105.6425797100000068
 20
-271.242813950000027
 30
0.0
 11
-105.6425797100000068
 21
-340.5424412400000165
 31
0.0
  0
LINE
  5
147
  8
0
  6
PHANTOM
 62
     7
 10
-112.2704090299999962
 20
-271.2635634100000175
 30
0.0
 11
-112.2704090299999962
 21
-271.0428139599999895
 31
0.0
  0
LINE
  5
148
  8
0
  6
PHANTOM
 62
     7
 10
-105.6425797100000068
 20
336.1550416900000187
 30
0.0
 11
-123.6425797100000068
 21
336.1550416900000187
 31
0.0
  0
LINE
  5
149
  8
0
  6
PHANTOM
 62
     7
 10
-86.6425797100000068
 20
288.1550416900000187
 30
0.0
 11
-86.6425797100000068
 21
336.1550416900000187
 31
0.0
  0
LINE
  5
14A
  8
0
  6
PHANTOM
 62
     7
 10
-67.6425797100000068
 20
288.1550416900000187
 30
0.0
 11
-85.6425797100000068
 21
288.1550416900000187
 31
0.0
  0
LINE
  5
14B
  8
0
  6
PHANTOM
 62
     7
 10
-48.6425797099999997
 20
336.1550416900000187
 30
0.0
 11
-66.6425797100000068
 21
336.1550416900000187
 31
0.0
  0
LINE
  5
14C
  8
0
  6
PHANTOM
 62
     7
 10
-67.6425797100000068
 20
288.1550416900000187
 30
0.0
 11
-67.6425797100000068
 21
336.1550416900000187
 31
0.0
  0
LINE
  5
14D
  8
0
  6
PHANTOM
 62
     7
 10
-123.6425797100000068
 20
288.1550416900000187
 30
0.0
 11
-123.6425797100000068
 21
336.1550416900000187
 31
0.0
  0
LINE
  5
14E
  8
0
  6
PHANTOM
 62
     7
 10
-67.6425797100000068
 20
336.1550416900000187
 30
0.0
 11
-85.6425797100000068
 21
336.1550416900000187
 31
0.0
  0
LINE
  5
14F
  8
0
  6
PHANTOM
 62
     7
 10
-104.6425797100000068
 20
288.1550416900000187
 30
0.0
 11
-104.6425797100000068
 21
336.1550416900000187
 31
0.0
  0
LINE
  5
150
  8
0
  6
PHANTOM
 62
     7
 10
-48.6425797099999997
 20
288.1550416900000187
 30
0.0
 11
-66.6425797100000068
 21
288.1550416900000187
 31
0.0
  0
LINE
  5
151
  8
0
  6
PHANTOM
 62
     7
 10
-48.6425797099999997
 20
288.1550416900000187
 30
0.0
 11
-48.6425797099999997
 21
336.1550416900000187
 31
0.0
  0
LINE
  5
152
  8
0
  6
PHANTOM
 62
     7
 10
-105.6425797100000068
 20
288.1550416900000187
 30
0.0
 11
-105.6425797100000068
 21
336.1550416900000187
 31
0.0
  0
LINE
  5
153
  8
0
  6
PHANTOM
 62
     7
 10
-86.6425797100000068
 20
336.1550416900000187
 30
0.0
 11
-104.6425797100000068
 21
336.1550416900000187
 31
0.0
  0
LINE
  5
154
  8
0
  6
PHANTOM
 62
     7
 10
-86.6425797100000068
 20
288.1550416900000187
 30
0.0
 11
-104.6425797100000068
 21
288.1550416900000187
 31
0.0
  0
LINE
  5
155
  8
0
  6
PHANTOM
 62
     7
 10
-105.6425797100000068
 20
288.1550416900000187
 30
0.0
 11
-123.6425797100000068
 21
288.1550416900000187
 31
0.0
  0
ARC
  5
156
  8
0
  6
PHANTOM
 62
     7
 10
-53.7704090300000104
 20
-271.0428139599999895
 30
0.0
 40
1.5
 50
90.0
 51
180.0
  0
ARC
  5
157
  8
0
  6
PHANTOM
 62
     7
 10
-110.7704090299999962
 20
-271.0428139599999895
 30
0.0
 40
1.5
 50
90.0
 51
180.0
  0
ARC
  5
158
  8
0
  6
PHANTOM
 62
     7
 10
-51.4727555500000022
 20
-271.0428139599999895
 30
0.0
 40
1.5
 50
0.0
 51
90.0
  0
ARC
  5
159
  8
0
  6
PHANTOM
 62
     7
 10
-108.4727555500000022
 20
-271.0428139599999895
 30
0.0
 40
1.5
 50
0.0
 51
90.0
  0
LINE
  5
15A
  8
0
  6
CONTINUOUS
 62
     7
 10
-76.6298994999999934
 20
-70.2841213399999845
 30
0.0
 11
-76.6298994999999934
 21
-59.5366710600000104
 31
0.0
  0
LINE
  5
15B
  8
0
  6
CONTINUOUS
 62
     7
 10
-115.3724001199999947
 20
-70.2841213399999845
 30
0.0
 11
-115.3724001199999947
 21
-81.0373137899999989
 31
0.0
  0
LINE
  5
15C
  8
0
  6
CONTINUOUS
 62
     7
 10
-46.4968434699999875
 20
-81.0373137899999989
 30
0.0
 11
-46.4968434699999875
 21
-59.5424239499999999
 31
0.0
  0
LINE
  5
15D
  8
0
  6
CONTINUOUS
 62
     7
 10
-59.4129243999999872
 20
-70.2841213399999845
 30
0.0
 11
-59.4129243999999872
 21
-59.5366710600000104
 31
0.0
  0
LINE
  5
15E
  8
0
  6
CONTINUOUS
 62
     7
 10
-63.715732629999998
 20
-81.0373137899999989
 30
0.0
 11
-63.715732629999998
 21
-70.2841213399999845
 31
0.0
  0
LINE
  5
15F
  8
0
  6
CONTINUOUS
 62
     7
 10
-55.1062880500000034
 20
-81.0373137899999989
 30
0.0
 11
-55.1062880500000034
 21
-70.2841213399999845
 31
0.0
  0
LINE
  5
160
  8
0
  6
CONTINUOUS
 62
     7
 10
-111.0715059500000024
 20
-70.2841213399999845
 30
0.0
 11
-111.0715059500000024
 21
-59.5366710600000104
 31
0.0
  0
LINE
  5
161
  8
0
  6
CONTINUOUS
 62
     7
 10
-98.1515969000000155
 20
-81.0373137899999989
 30
0.0
 11
-98.1515969000000155
 21
-70.2841213399999845
 31
0.0
  0
LINE
  5
162
  8
0
  6
CONTINUOUS
 62
     7
 10
-119.6790364699999998
 20
-81.0373137899999989
 30
0.0
 11
-119.6790364699999998
 21
-70.2841213399999845
 31
0.0
  0
LINE
  5
163
  8
0
  6
CONTINUOUS
 62
     7
 10
-102.4582332500000064
 20
-70.2841213399999845
 30
0.0
 11
-102.4582332500000064
 21
-59.5366710600000104
 31
0.0
  0
LINE
  5
164
  8
0
  6
CONTINUOUS
 62
     7
 10
-72.3251772100000068
 20
-81.0373137899999989
 30
0.0
 11
-72.3251772100000068
 21
-70.2841213399999845
 31
0.0
  0
LINE
  5
165
  8
0
  6
CONTINUOUS
 62
     7
 10
-85.239344090000003
 20
-70.2841213399999845
 30
0.0
 11
-85.239344090000003
 21
-59.5366710600000104
 31
0.0
  0
LINE
  5
166
  8
0
  6
CONTINUOUS
 62
     7
 10
-68.022368979999996
 20
-70.2841213399999845
 30
0.0
 11
-68.022368979999996
 21
-59.5366710600000104
 31
0.0
  0
LINE
  5
167
  8
0
  6
CONTINUOUS
 62
     7
 10
-119.6790364699999998
 20
-59.5366710600000104
 30
0.0
 11
-119.6790364699999998
 21
-70.2841213399999845
 31
0.0
  0
LINE
  5
168
  8
0
  6
CONTINUOUS
 62
     7
 10
-50.8034798199999997
 20
-70.2841213399999845
 30
0.0
 11
-50.8034798199999997
 21
-59.5366710600000104
 31
0.0
  0
LINE
  5
169
  8
0
  6
CONTINUOUS
 62
     7
 10
-80.9365358499999985
 20
-81.0373137899999989
 30
0.0
 11
-80.9365358499999985
 21
-70.2841213399999845
 31
0.0
  0
LINE
  5
16A
  8
0
  6
CONTINUOUS
 62
     7
 10
-46.4968434699999875
 20
-70.2841213399999845
 30
0.0
 11
-119.6790364699999998
 21
-70.2841213399999845
 31
0.0
  0
LINE
  5
16B
  8
0
  6
CONTINUOUS
 62
     7
 10
-93.8507027299999947
 20
-70.2841213399999845
 30
0.0
 11
-93.8507027299999947
 21
-59.5366710600000104
 31
0.0
  0
LINE
  5
16C
  8
0
  6
CONTINUOUS
 62
     7
 10
-46.4968434699999875
 20
-81.0373137899999989
 30
0.0
 11
-119.6790364699999998
 21
-81.0373137899999989
 31
0.0
  0
LINE
  5
16D
  8
0
  6
CONTINUOUS
 62
     7
 10
-106.7648695999999973
 20
-81.0373137899999989
 30
0.0
 11
-106.7648695999999973
 21
-70.2841213399999845
 31
0.0
  0
LINE
  5
16E
  8
0
  6
CONTINUOUS
 62
     7
 10
-89.5459804399999939
 20
-81.0373137899999989
 30
0.0
 11
-89.5459804399999939
 21
-70.2841213399999845
 31
0.0
  0
LINE
  5
16F
  8
0
  6
CONTINUOUS
 62
     7
 10
-76.6298994999999934
 20
357.4133443000000057
 30
0.0
 11
-76.6298994999999934
 21
368.1607945800000152
 31
0.0
  0
LINE
  5
170
  8
0
  6
CONTINUOUS
 62
     7
 10
-85.239344090000003
 20
357.4133443000000057
 30
0.0
 11
-85.239344090000003
 21
368.1607945800000152
 31
0.0
  0
LINE
  5
171
  8
0
  6
CONTINUOUS
 62
     7
 10
-115.3724001199999947
 20
357.4133443000000057
 30
0.0
 11
-115.3724001199999947
 21
346.660151849999977
 31
0.0
  0
LINE
  5
172
  8
0
  6
CONTINUOUS
 62
     7
 10
-68.022368979999996
 20
357.4133443000000057
 30
0.0
 11
-68.022368979999996
 21
368.1607945800000152
 31
0.0
  0
LINE
  5
173
  8
0
  6
CONTINUOUS
 62
     7
 10
-46.4968434699999875
 20
346.660151849999977
 30
0.0
 11
-46.4968434699999875
 21
368.1550416900000187
 31
0.0
  0
LINE
  5
174
  8
0
  6
CONTINUOUS
 62
     7
 10
-119.6790364699999998
 20
368.1607945800000152
 30
0.0
 11
-119.6790364699999998
 21
357.4133443000000057
 31
0.0
  0
LINE
  5
175
  8
0
  6
CONTINUOUS
 62
     7
 10
-59.4129243999999872
 20
357.4133443000000057
 30
0.0
 11
-59.4129243999999872
 21
368.1607945800000152
 31
0.0
  0
LINE
  5
176
  8
0
  6
CONTINUOUS
 62
     7
 10
-50.8034798199999997
 20
357.4133443000000057
 30
0.0
 11
-50.8034798199999997
 21
368.1607945800000152
 31
0.0
  0
LINE
  5
177
  8
0
  6
CONTINUOUS
 62
     7
 10
-63.715732629999998
 20
346.660151849999977
 30
0.0
 11
-63.715732629999998
 21
357.4133443000000057
 31
0.0
  0
LINE
  5
178
  8
0
  6
CONTINUOUS
 62
     7
 10
-80.9365358499999985
 20
346.660151849999977
 30
0.0
 11
-80.9365358499999985
 21
357.4133443000000057
 31
0.0
  0
LINE
  5
179
  8
0
  6
CONTINUOUS
 62
     7
 10
-55.1062880500000034
 20
346.660151849999977
 30
0.0
 11
-55.1062880500000034
 21
357.4133443000000057
 31
0.0
  0
LINE
  5
17A
  8
0
  6
CONTINUOUS
 62
     7
 10
-46.4968434699999875
 20
357.4133443000000057
 30
0.0
 11
-119.6790364699999998
 21
357.4133443000000057
 31
0.0
  0
LINE
  5
17B
  8
0
  6
CONTINUOUS
 62
     7
 10
-111.0715059500000024
 20
357.4133443000000057
 30
0.0
 11
-111.0715059500000024
 21
368.1607945800000152
 31
0.0
  0
LINE
  5
17C
  8
0
  6
CONTINUOUS
 62
     7
 10
-93.8507027299999947
 20
357.4133443000000057
 30
0.0
 11
-93.8507027299999947
 21
368.1607945800000152
 31
0.0
  0
LINE
  5
17D
  8
0
  6
CONTINUOUS
 62
     7
 10
-98.1515969000000155
 20
346.660151849999977
 30
0.0
 11
-98.1515969000000155
 21
357.4133443000000057
 31
0.0
  0
LINE
  5
17E
  8
0
  6
CONTINUOUS
 62
     7
 10
-46.4968434699999875
 20
346.660151849999977
 30
0.0
 11
-119.6790364699999998
 21
346.660151849999977
 31
0.0
  0
LINE
  5
17F
  8
0
  6
CONTINUOUS
 62
     7
 10
-119.6790364699999998
 20
346.660151849999977
 30
0.0
 11
-119.6790364699999998
 21
357.4133443000000057
 31
0.0
  0
LINE
  5
180
  8
0
  6
CONTINUOUS
 62
     7
 10
-106.7648695999999973
 20
346.660151849999977
 30
0.0
 11
-106.7648695999999973
 21
357.4133443000000057
 31
0.0
  0
LINE
  5
181
  8
0
  6
CONTINUOUS
 62
     7
 10
-102.4582332500000064
 20
357.4133443000000057
 30
0.0
 11
-102.4582332500000064
 21
368.1607945800000152
 31
0.0
  0
LINE
  5
182
  8
0
  6
CONTINUOUS
 62
     7
 10
-89.5459804399999939
 20
346.660151849999977
 30
0.0
 11
-89.5459804399999939
 21
357.4133443000000057
 31
0.0
  0
LINE
  5
183
  8
0
  6
CONTINUOUS
 62
     7
 10
-72.3251772100000068
 20
346.660151849999977
 30
0.0
 11
-72.3251772100000068
 21
357.4133443000000057
 31
0.0
  0
LINE
  5
184
  8
SLD-0_2
  6
CONTINUOUS
 62
     7
 10
-199.6425797100000068
 20
-354.5428139499999816
 30
0.0
 11
-199.6425797100000068
 21
-356.5428139499999816
 31
0.0
  0
LINE
  5
185
  8
SLD-0_2
  6
CONTINUOUS
 62
     7
 10
50.3574202900000003
 20
-356.5428139499999816
 30
0.0
 11
-199.6425797100000068
 21
-356.5428139499999816
 31
0.0
  0
LINE
  5
186
  8
SLD-0_2
  6
CONTINUOUS
 62
     7
 10
-129.7036206900000082
 20
-354.5428139499999816
 30
0.0
 11
-199.6425797100000068
 21
-354.5428139499999816
 31
0.0
  0
LINE
  5
187
  8
SLD-0_2
  6
PHANTOM
 62
     7
 10
-179.6425797100000068
 20
-159.5424239499999999
 30
0.0
 11
-179.6425797100000068
 21
-59.5424239499999999
 31
0.0
  0
LINE
  5
188
  8
SLD-0
  6
PHANTOM
 62
     7
 10
-179.6425797100000068
 20
-313.6650055000000066
 30
0.0
 11
-179.6425797100000068
 21
-354.5428139499999816
 31
0.0
  0
LINE
  5
189
  8
SLD-0
  6
PHANTOM
 62
     7
 10
-129.6425797100000068
 20
-313.6650055000000066
 30
0.0
 11
-129.6425797100000068
 21
-343.5439044500000136
 31
0.0
  0
LINE
  5
18A
  8
SLD-0
  6
PHANTOM
 62
     7
 10
-26.8352138999999994
 20
355.1550416900000187
 30
0.0
 11
17.1647861000000006
 21
355.1550416900000187
 31
0.0
  0
LINE
  5
18B
  8
SLD-0
  6
PHANTOM
 62
     7
 10
-28.8352138999999994
 20
278.1550416900000187
 30
0.0
 11
19.1647861000000006
 21
278.1550416900000187
 31
0.0
  0
LINE
  5
18C
  8
SLD-0
  6
PHANTOM
 62
     7
 10
-28.8352138999999994
 20
358.1550416900000187
 30
0.0
 11
19.1647861000000006
 21
358.1550416900000187
 31
0.0
  0
LINE
  5
18D
  8
SLD-0
  6
PHANTOM
 62
     7
 10
17.1647861000000006
 20
281.1550416900000187
 30
0.0
 11
17.1647861000000006
 21
355.1550416900000187
 31
0.0
  0
LINE
  5
18E
  8
SLD-0
  6
PHANTOM
 62
     7
 10
20.1647861000000006
 20
279.1550416900000187
 30
0.0
 11
20.1647861000000006
 21
357.1550416900000187
 31
0.0
  0
LINE
  5
18F
  8
SLD-0
  6
PHANTOM
 62
     7
 10
-29.8352138999999994
 20
279.1550416900000187
 30
0.0
 11
-29.8352138999999994
 21
357.1550416900000187
 31
0.0
  0
LINE
  5
190
  8
SLD-0
  6
PHANTOM
 62
     7
 10
-26.8352138999999994
 20
281.1550416900000187
 30
0.0
 11
17.1647861000000006
 21
281.1550416900000187
 31
0.0
  0
LINE
  5
191
  8
SLD-0
  6
PHANTOM
 62
     7
 10
-26.8352138999999994
 20
281.1550416900000187
 30
0.0
 11
-26.8352138999999994
 21
355.1550416900000187
 31
0.0
  0
LINE
  5
192
  8
SLD-0
  6
PHANTOM
 62
     7
 10
-5.9572453000000003
 20
200.6546516800000006
 30
0.0
 11
9.8567275199999997
 21
200.6546516800000006
 31
0.0
  0
LINE
  5
193
  8
SLD-0
  6
PHANTOM
 62
     7
 10
-9.2473834499999992
 20
271.2935247300000015
 30
0.0
 11
-0.4263222300000001
 21
271.2935247300000015
 31
0.0
  0
LINE
  5
194
  8
SLD-0
  6
PHANTOM
 62
     7
 10
-0.4263222300000001
 20
278.1294643300000189
 30
0.0
 11
-0.4263222300000001
 21
271.2935247300000015
 31
0.0
  0
LINE
  5
195
  8
SLD-0
  6
PHANTOM
 62
     7
 10
-0.4263222300000001
 20
271.2935247300000015
 30
0.0
 11
3.1728739400000001
 21
278.1550416900000187
 31
0.0
  0
LINE
  5
196
  8
SLD-0
  6
PHANTOM
 62
     7
 10
-9.2473834499999992
 20
271.2935247300000015
 30
0.0
 11
-9.2473834499999992
 21
278.1550416900000187
 31
0.0
  0
LINE
  5
197
  8
SLD-0
  6
PHANTOM
 62
     7
 10
-12.4868147799999996
 20
278.1550416900000187
 30
0.0
 11
-9.2473834499999992
 21
271.2935247300000015
 31
0.0
  0
LINE
  5
199
  8
SLD-0
  6
PHANTOM
 62
     7
 10
-144.1485439100000008
 20
329.9552039299999819
 30
0.0
 11
-144.1485439100000008
 21
287.4802211300000181
 31
0.0
  0
LINE
  5
19A
  8
SLD-0
  6
PHANTOM
 62
     7
 10
-156.7468867299999999
 20
329.9552039299999819
 30
0.0
 11
-156.7468867299999999
 21
287.4802211300000181
 31
0.0
  0
LINE
  5
19B
  8
SLD-0
  6
PHANTOM
 62
     7
 10
-147.8547921500000086
 20
329.9552039299999819
 30
0.0
 11
-147.8547921500000086
 21
287.4802211300000181
 31
0.0
  0
CIRCLE
  5
19C
  8
SLD-0
  6
PHANTOM
 62
     7
 10
-170.6680624599999874
 20
-69.6943418500000007
 30
0.0
 40
2.6164181399999991
  0
CIRCLE
  5
19D
  8
SLD-0
  6
PHANTOM
 62
     7
 10
-4.8352139000000003
 20
361.5976060699999834
 30
0.0
 40
2.50017756
  0
ARC
  5
19E
  8
SLD-0
  6
PHANTOM
 62
     7
 10
19.1647861000000006
 20
357.1550416900000187
 30
0.0
 40
1.0
 50
0.0
 51
90.0
  0
ARC
  5
19F
  8
SLD-0
  6
PHANTOM
 62
     7
 10
19.1647861000000006
 20
279.1550416900000187
 30
0.0
 40
1.0
 50
270.0
 51
360.0
  0
ARC
  5
1A0
  8
SLD-0
  6
PHANTOM
 62
     7
 10
-28.8352138999999994
 20
279.1550416900000187
 30
0.0
 40
1.0
 50
180.0
 51
270.0
  0
ARC
  5
1A1
  8
SLD-0
  6
PHANTOM
 62
     7
 10
-28.8352138999999994
 20
357.1550416900000187
 30
0.0
 40
1.0
 50
90.0
 51
180.0
  0
CIRCLE
  5
1A2
  8
SLD-0
  6
PHANTOM
 62
     7
 10
-4.8352139000000003
 20
274.7124772899999812
 30
0.0
 40
2.50017756
  0
CIRCLE
  5
1A3
  8
SLD-0
  6
PHANTOM
 62
     7
 10
-152.2974722399999905
 20
325.307148159999997
 30
0.0
 40
3.360515739999999
  0
LINE
  5
1A4
  8
SLD-0
  6
CONTINUOUS
 62
     7
 10
-199.6425797100000068
 20
68.6546516899999943
 30
0.0
 11
50.3574202900000003
 21
68.6546516899999943
 31
0.0
  0
LINE
  5
1A5
  8
SLD-0
  6
CONTINUOUS
 62
     7
 10
50.3574202900000003
 20
365.6550416900000187
 30
0.0
 11
47.8574202900000003
 21
368.1550416900000187
 31
0.0
  0
LINE
  5
1A6
  8
SLD-0
  6
CONTINUOUS
 62
     7
 10
-199.6425797100000068
 20
365.6550416900000187
 30
0.0
 11
-197.1425797100000068
 21
368.1550416900000187
 31
0.0
  0
LINE
  5
1A7
  8
SLD-0
  6
CONTINUOUS
 62
     7
 10
47.8574202900000003
 20
268.1550416900000187
 30
0.0
 11
50.3574202900000003
 21
270.6550416900000187
 31
0.0
  0
LINE
  5
1A8
  8
SLD-0
  6
CONTINUOUS
 62
     7
 10
-197.1425797100000068
 20
268.1550416900000187
 30
0.0
 11
-199.6425797100000068
 21
270.6550416900000187
 31
0.0
  0
LINE
  5
1A9
  8
SLD-0_0
  6
CONTINUOUS
 62
     7
 10
50.3574202900000003
 20
70.6546516899999943
 30
0.0
 11
50.3574202900000003
 21
68.6546516899999943
 31
0.0
  0
LINE
  5
1AA
  8
SLD-0_0
  6
CONTINUOUS
 62
     7
 10
-129.7036206900000082
 20
70.6546516899999943
 30
0.0
 11
-199.6425797100000068
 21
70.6546516899999943
 31
0.0
  0
LINE
  5
1AB
  8
SLD-0_0
  6
CONTINUOUS
 62
     7
 10
-199.6425797100000068
 20
70.6546516899999943
 30
0.0
 11
-199.6425797100000068
 21
68.6546516899999943
 31
0.0
  0
LINE
  5
1AC
  8
SLD-0_0
  6
CONTINUOUS
 62
     7
 10
50.3574202900000003
 20
70.6546516899999943
 30
0.0
 11
30.3574202900000003
 21
70.6546516899999943
 31
0.0
  0
LINE
  5
1AD
  8
SLD-0_0
  6
CONTINUOUS
 62
     7
 10
28.342485270000001
 20
84.6550243999999878
 30
0.0
 11
28.342485270000001
 21
81.6535611900000049
 31
0.0
  0
LINE
  5
1AE
  8
SLD-0_0
  6
CONTINUOUS
 62
     7
 10
47.8574202900000003
 20
368.1550416900000187
 30
0.0
 11
-197.1425797100000068
 21
368.1550416900000187
 31
0.0
  0
LINE
  5
1AF
  8
SLD-0_0
  6
CONTINUOUS
 62
     7
 10
30.3574202900000003
 20
268.1550416900000187
 30
0.0
 11
30.3574202900000003
 21
368.1550416900000187
 31
0.0
  0
LINE
  5
1B0
  8
SLD-0_0
  6
CONTINUOUS
 62
     7
 10
-127.7043340900000032
 20
84.6550243999999878
 30
0.0
 11
28.342485270000001
 21
84.6550243999999878
 31
0.0
  0
LINE
  5
1B1
  8
SLD-0_0
  6
CONTINUOUS
 62
     7
 10
-127.7043340900000032
 20
81.6535611900000049
 30
0.0
 11
-127.7043340900000032
 21
84.6550243999999878
 31
0.0
  0
LINE
  5
1B2
  8
SLD-0_0
  6
CONTINUOUS
 62
     7
 10
-129.7036206900000082
 20
81.6535611900000049
 30
0.0
 11
30.3574202900000003
 21
81.6535611900000049
 31
0.0
  0
LINE
  5
1B3
  8
SLD-0_0
  6
CONTINUOUS
 62
     7
 10
-199.6425797100000068
 20
270.6550416900000187
 30
0.0
 11
-199.6425797100000068
 21
287.1550416900000187
 31
0.0
  0
LINE
  5
1B4
  8
SLD-0_0
  6
CONTINUOUS
 62
     7
 10
50.3574202900000003
 20
270.6550416900000187
 30
0.0
 11
50.3574202900000003
 21
287.1550416900000187
 31
0.0
  0
LINE
  5
1B5
  8
SLD-0_0
  6
CONTINUOUS
 62
     7
 10
-129.7036206900000082
 20
81.6535611900000049
 30
0.0
 11
-129.7036206900000082
 21
68.6546516899999943
 31
0.0
  0
LINE
  5
1B6
  8
SLD-0_0
  6
CONTINUOUS
 62
     7
 10
30.3574202900000003
 20
81.6535611900000049
 30
0.0
 11
30.3574202900000003
 21
68.6546516899999943
 31
0.0
  0
LINE
  5
1B7
  8
SLD-0_0
  6
CONTINUOUS
 62
     7
 10
50.3574202900000003
 20
299.1550416900000187
 30
0.0
 11
50.3574202900000003
 21
337.1550416900000187
 31
0.0
  0
LINE
  5
1B8
  8
SLD-0_0
  6
CONTINUOUS
 62
     7
 10
-197.1425797100000068
 20
346.6550416900000187
 30
0.0
 11
-199.6425797100000068
 21
349.1550416900000187
 31
0.0
  0
LINE
  5
1B9
  8
SLD-0_0
  6
CONTINUOUS
 62
     7
 10
40.3574202900000003
 20
296.6550416900000187
 30
0.0
 11
47.8574202900000003
 21
296.6550416900000187
 31
0.0
  0
LINE
  5
1BA
  8
SLD-0_0
  6
CONTINUOUS
 62
     7
 10
40.3574202900000003
 20
346.6550416900000187
 30
0.0
 11
47.8574202900000003
 21
346.6550416900000187
 31
0.0
  0
LINE
  5
1BB
  8
SLD-0_0
  6
CONTINUOUS
 62
     7
 10
-199.6425797100000068
 20
299.1550416900000187
 30
0.0
 11
-199.6425797100000068
 21
337.1550416900000187
 31
0.0
  0
LINE
  5
1BC
  8
SLD-0_0
  6
CONTINUOUS
 62
     7
 10
47.8574202900000003
 20
289.6550416900000187
 30
0.0
 11
50.3574202900000003
 21
287.1550416900000187
 31
0.0
  0
LINE
  5
1BD
  8
SLD-0_0
  6
CONTINUOUS
 62
     7
 10
47.8574202900000003
 20
268.1550416900000187
 30
0.0
 11
-197.1425797100000068
 21
268.1550416900000187
 31
0.0
  0
LINE
  5
1BE
  8
SLD-0_0
  6
CONTINUOUS
 62
     7
 10
47.8574202900000003
 20
296.6550416900000187
 30
0.0
 11
50.3574202900000003
 21
299.1550416900000187
 31
0.0
  0
LINE
  5
1BF
  8
SLD-0_0
  6
CONTINUOUS
 62
     7
 10
40.3574202900000003
 20
289.6550416900000187
 30
0.0
 11
47.8574202900000003
 21
289.6550416900000187
 31
0.0
  0
LINE
  5
1C0
  8
SLD-0_0
  6
CONTINUOUS
 62
     7
 10
40.3574202900000003
 20
339.6550416900000187
 30
0.0
 11
47.8574202900000003
 21
339.6550416900000187
 31
0.0
  0
LINE
  5
1C1
  8
SLD-0_0
  6
CONTINUOUS
 62
     7
 10
-197.1425797100000068
 20
296.6550416900000187
 30
0.0
 11
-199.6425797100000068
 21
299.1550416900000187
 31
0.0
  0
LINE
  5
1C2
  8
SLD-0_0
  6
CONTINUOUS
 62
     7
 10
47.8574202900000003
 20
346.6550416900000187
 30
0.0
 11
50.3574202900000003
 21
349.1550416900000187
 31
0.0
  0
LINE
  5
1C3
  8
SLD-0_0
  6
CONTINUOUS
 62
     7
 10
-189.6425797100000068
 20
339.6550416900000187
 30
0.0
 11
-197.1425797100000068
 21
339.6550416900000187
 31
0.0
  0
LINE
  5
1C4
  8
SLD-0_0
  6
CONTINUOUS
 62
     7
 10
-189.6425797100000068
 20
346.6550416900000187
 30
0.0
 11
-197.1425797100000068
 21
346.6550416900000187
 31
0.0
  0
LINE
  5
1C5
  8
SLD-0_0
  6
CONTINUOUS
 62
     7
 10
-197.1425797100000068
 20
339.6550416900000187
 30
0.0
 11
-199.6425797100000068
 21
337.1550416900000187
 31
0.0
  0
LINE
  5
1C6
  8
SLD-0_0
  6
CONTINUOUS
 62
     7
 10
47.8574202900000003
 20
339.6550416900000187
 30
0.0
 11
50.3574202900000003
 21
337.1550416900000187
 31
0.0
  0
LINE
  5
1C7
  8
SLD-0_0
  6
CONTINUOUS
 62
     7
 10
-189.6425797100000068
 20
296.6550416900000187
 30
0.0
 11
-197.1425797100000068
 21
296.6550416900000187
 31
0.0
  0
LINE
  5
1C8
  8
SLD-0_0
  6
CONTINUOUS
 62
     7
 10
-197.1425797100000068
 20
289.6550416900000187
 30
0.0
 11
-199.6425797100000068
 21
287.1550416900000187
 31
0.0
  0
LINE
  5
1C9
  8
SLD-0_0
  6
CONTINUOUS
 62
     7
 10
50.3574202900000003
 20
349.1550416900000187
 30
0.0
 11
50.3574202900000003
 21
365.6550416900000187
 31
0.0
  0
LINE
  5
1CA
  8
SLD-0_0
  6
CONTINUOUS
 62
     7
 10
-189.6425797100000068
 20
289.6550416900000187
 30
0.0
 11
-197.1425797100000068
 21
289.6550416900000187
 31
0.0
  0
LINE
  5
1CB
  8
SLD-0_0
  6
CONTINUOUS
 62
     7
 10
-199.6425797100000068
 20
349.1550416900000187
 30
0.0
 11
-199.6425797100000068
 21
365.6550416900000187
 31
0.0
  0
ARC
  5
1CC
  8
SLD-0_0
  6
CONTINUOUS
 62
     7
 10
-189.6425797100000068
 20
293.1550416900000187
 30
0.0
 40
3.5
 50
270.0
 51
450.0
  0
ARC
  5
1CD
  8
SLD-0_0
  6
CONTINUOUS
 62
     7
 10
40.3574202900000003
 20
293.1550416900000187
 30
0.0
 40
3.5
 50
90.0
 51
270.0
  0
ARC
  5
1CE
  8
SLD-0_0
  6
CONTINUOUS
 62
     7
 10
-189.6425797100000068
 20
343.1550416900000187
 30
0.0
 40
3.5
 50
270.0
 51
450.0
  0
ARC
  5
1CF
  8
SLD-0_0
  6
CONTINUOUS
 62
     7
 10
40.3574202900000003
 20
343.1550416900000187
 30
0.0
 40
3.5
 50
90.0
 51
270.0
  0
LINE
  5
1D0
  8
SLD-0_0
  6
PHANTOM
 62
     7
 10
-179.6425797100000068
 20
268.1550416900000187
 30
0.0
 11
-179.6425797100000068
 21
368.1550416900000187
 31
0.0
  0
LINE
  5
1D1
  8
SLD-0_0
  6
PHANTOM
 62
     7
 10
-129.6306614199999956
 20
268.1550416900000187
 30
0.0
 11
-129.6306614199999956
 21
368.1550416900000187
 31
0.0
  0
LINE
  5
1D2
  8
SLD-0_0
  6
PHANTOM
 62
     7
 10
-55.2704090300000033
 20
153.9339022300000011
 30
0.0
 11
-55.2704090300000033
 21
154.1546516800000006
 31
0.0
  0
LINE
  5
1D3
  8
SLD-0_0
  6
PHANTOM
 62
     7
 10
-106.9727555500000022
 20
153.9339022300000011
 30
0.0
 11
-106.9727555500000022
 21
154.1546516800000006
 31
0.0
  0
LINE
  5
1D4
  8
SLD-0_0
  6
PHANTOM
 62
     7
 10
-108.4727555500000022
 20
155.6546516800000006
 30
0.0
 11
-110.7704090299999962
 21
155.6546516800000006
 31
0.0
  0
LINE
  5
1D5
  8
SLD-0_0
  6
PHANTOM
 62
     7
 10
-123.6425797100000068
 20
153.9546516899999915
 30
0.0
 11
-123.6425797100000068
 21
84.6550243999999878
 31
0.0
  0
LINE
  5
1D6
  8
SLD-0_0
  6
PHANTOM
 62
     7
 10
-49.9727555500000022
 20
153.9339022300000011
 30
0.0
 11
-49.9727555500000022
 21
154.1546516800000006
 31
0.0
  0
LINE
  5
1D7
  8
SLD-0_0
  6
PHANTOM
 62
     7
 10
-66.6425797100000068
 20
153.9546516899999915
 30
0.0
 11
-66.6425797100000068
 21
84.6550243999999878
 31
0.0
  0
LINE
  5
1D8
  8
SLD-0_0
  6
PHANTOM
 62
     7
 10
-105.6425797100000068
 20
153.9546516899999915
 30
0.0
 11
-123.6425797100000068
 21
153.9546516899999915
 31
0.0
  0
LINE
  5
1D9
  8
SLD-0_0
  6
PHANTOM
 62
     7
 10
-48.6425797099999997
 20
153.9546516899999915
 30
0.0
 11
-66.6425797100000068
 21
153.9546516899999915
 31
0.0
  0
LINE
  5
1DA
  8
SLD-0_0
  6
PHANTOM
 62
     7
 10
-105.6425797100000068
 20
153.9546516899999915
 30
0.0
 11
-105.6425797100000068
 21
84.6550243999999878
 31
0.0
  0
LINE
  5
1DB
  8
SLD-0_0
  6
PHANTOM
 62
     7
 10
-48.6425797099999997
 20
153.9546516899999915
 30
0.0
 11
-48.6425797099999997
 21
84.6550243999999878
 31
0.0
  0
LINE
  5
1DC
  8
SLD-0_0
  6
PHANTOM
 62
     7
 10
-112.2704090299999962
 20
153.9339022300000011
 30
0.0
 11
-112.2704090299999962
 21
154.1546516800000006
 31
0.0
  0
LINE
  5
1DD
  8
SLD-0_0
  6
PHANTOM
 62
     7
 10
-51.4727555500000022
 20
155.6546516800000006
 30
0.0
 11
-53.7704090300000104
 21
155.6546516800000006
 31
0.0
  0
ARC
  5
1DE
  8
SLD-0_0
  6
PHANTOM
 62
     7
 10
-51.4727555500000022
 20
154.1546516800000006
 30
0.0
 40
1.5
 50
0.0
 51
90.0
  0
ARC
  5
1DF
  8
SLD-0_0
  6
PHANTOM
 62
     7
 10
-53.7704090300000104
 20
154.1546516800000006
 30
0.0
 40
1.5
 50
90.0
 51
180.0
  0
ARC
  5
1E0
  8
SLD-0_0
  6
PHANTOM
 62
     7
 10
-108.4727555500000022
 20
154.1546516800000006
 30
0.0
 40
1.5
 50
0.0
 51
90.0
  0
ARC
  5
1E1
  8
SLD-0_0
  6
PHANTOM
 62
     7
 10
-110.7704090299999962
 20
154.1546516800000006
 30
0.0
 40
1.5
 50
90.0
 51
180.0
  0
LINE
  5
1E2
  8
SLD-0_3
  6
PHANTOM
 62
     7
 10
-24.3990109599999982
 20
350.9244921900000236
 30
0.0
 11
-11.6364208599999994
 21
350.9244921900000236
 31
0.0
  0
LINE
  5
1E3
  8
SLD-0_3
  6
PHANTOM
 62
     7
 10
-11.6364208599999994
 20
350.9244921900000236
 30
0.0
 11
-11.6364208599999994
 21
338.6041037300000198
 31
0.0
  0
LINE
  5
1E4
  8
SLD-0_3
  6
PHANTOM
 62
     7
 10
4.0837516100000002
 20
304.9843364299999848
 30
0.0
 11
-3.3264758200000002
 21
304.9843364299999848
 31
0.0
  0
LINE
  5
1E5
  8
SLD-0_3
  6
PHANTOM
 62
     7
 10
4.0837516100000002
 20
311.1588878499999851
 30
0.0
 11
4.0837516100000002
 21
314.8640015700000276
 31
0.0
  0
LINE
  5
1E6
  8
SLD-0_3
  6
PHANTOM
 62
     7
 10
-3.3264758200000002
 20
296.3393901399999777
 30
0.0
 11
4.0837516100000002
 21
296.3393901399999777
 31
0.0
  0
LINE
  5
1E7
  8
SLD-0_3
  6
PHANTOM
 62
     7
 10
4.0837516100000002
 20
309.9241690000000062
 30
0.0
 11
-3.3264758200000002
 21
309.9241690000000062
 31
0.0
  0
LINE
  5
1E8
  8
SLD-0_3
  6
PHANTOM
 62
     7
 10
-5.9572453000000003
 20
200.6546516800000006
 30
0.0
 11
-5.9572453000000003
 21
190.6157906900000114
 31
0.0
  0
LINE
  5
1E9
  8
SLD-0_3
  6
PHANTOM
 62
     7
 10
-13.4756900900000005
 20
190.6253621699999883
 30
0.0
 11
-17.5312614700000005
 21
190.6253621699999883
 31
0.0
  0
LINE
  5
1EA
  8
SLD-0_3
  6
PHANTOM
 62
     7
 10
-29.6587036099999999
 20
189.7266002899999933
 30
0.0
 11
-29.6638473400000002
 21
189.6241870300000016
 31
0.0
  0
LINE
  5
1EB
  8
SLD-0_3
  6
PHANTOM
 62
     7
 10
19.9026482400000013
 20
190.4544554400000038
 30
0.0
 11
19.8204257199999994
 21
190.5045855300000142
 31
0.0
  0
LINE
  5
1EC
  8
SLD-0_3
  6
PHANTOM
 62
     7
 10
-24.2358476699999983
 20
190.6253621699999883
 30
0.0
 11
-26.603551190000001
 21
190.6253621699999883
 31
0.0
  0
LINE
  5
1ED
  8
SLD-0_3
  6
PHANTOM
 62
     7
 10
-29.6190512000000012
 20
189.9220161300000029
 30
0.0
 11
-29.6436051899999988
 21
189.8260439700000006
 31
0.0
  0
LINE
  5
1EE
  8
SLD-0_3
  6
PHANTOM
 62
     7
 10
-5.9572453000000003
 20
190.6157906900000114
 30
0.0
 11
9.8567275199999997
 21
190.6157906900000114
 31
0.0
  0
LINE
  5
1EF
  8
SLD-0_3
  6
PHANTOM
 62
     7
 10
20.3361864899999993
 20
189.7266002899999933
 30
0.0
 11
20.3211455500000007
 21
189.8260439700000006
 31
0.0
  0
LINE
  5
1F0
  8
SLD-0_3
  6
PHANTOM
 62
     7
 10
8.2087233200000007
 20
190.6253621699999883
 30
0.0
 11
4.1531519499999989
 21
190.6253621699999883
 31
0.0
  0
LINE
  5
1F1
  8
SLD-0_3
  6
PHANTOM
 62
     7
 10
-0.18373074
 20
190.6253621699999883
 30
0.0
 11
-4.6612690700000003
 21
190.6253621699999883
 31
0.0
  0
LINE
  5
1F2
  8
SLD-0_3
  6
PHANTOM
 62
     7
 10
-21.1648658800000007
 20
190.6253621699999883
 30
0.0
 11
-24.2358476699999983
 21
190.6253621699999883
 31
0.0
  0
LINE
  5
1F3
  8
SLD-0_3
  6
PHANTOM
 62
     7
 10
-29.0549227600000002
 20
190.5467265999999995
 30
0.0
 11
-29.1421156199999984
 21
190.5045855300000142
 31
0.0
  0
LINE
  5
1F4
  8
SLD-0_3
  6
PHANTOM
 62
     7
 10
-29.5855408000000004
 20
190.0140148000000124
 30
0.0
 11
-29.6190512000000012
 21
189.9220161300000029
 31
0.0
  0
LINE
  5
1F5
  8
SLD-0_3
  6
PHANTOM
 62
     7
 10
9.8567275199999997
 20
190.6157906900000114
 30
0.0
 11
9.8567275199999997
 21
200.6546516800000006
 31
0.0
  0
LINE
  5
1F6
  8
SLD-0_3
  6
PHANTOM
 62
     7
 10
20.3413091900000005
 20
189.6241870300000016
 30
0.0
 11
20.3361864899999993
 21
189.7266002899999933
 31
0.0
  0
LINE
  5
1F7
  8
SLD-0_3
  6
PHANTOM
 62
     7
 10
20.1716138600000008
 20
190.1840840300000082
 30
0.0
 11
20.1143425799999989
 21
190.2611506700000064
 31
0.0
  0
LINE
  5
1F8
  8
SLD-0_3
  6
PHANTOM
 62
     7
 10
20.1143425799999989
 20
190.2611506700000064
 30
0.0
 11
20.0500973999999985
 21
190.3322360800000013
 31
0.0
  0
LINE
  5
1F9
  8
SLD-0_3
  6
PHANTOM
 62
     7
 10
-29.6638473400000002
 20
189.6241870300000016
 30
0.0
 11
-29.6638473400000002
 21
84.6550243999999878
 31
0.0
  0
LINE
  5
1FA
  8
SLD-0_3
  6
PHANTOM
 62
     7
 10
18.8047826299999983
 20
190.6253621699999883
 30
0.0
 11
17.2810130400000013
 21
190.6253621699999883
 31
0.0
  0
LINE
  5
1FB
  8
SLD-0_3
  6
PHANTOM
 62
     7
 10
-26.603551190000001
 20
190.6253621699999883
 30
0.0
 11
-28.1273207800000016
 21
190.6253621699999883
 31
0.0
  0
LINE
  5
1FC
  8
SLD-0_3
  6
PHANTOM
 62
     7
 10
-28.7685555899999983
 20
190.6201964699999962
 30
0.0
 11
-28.8676436099999982
 21
190.6050340099999971
 31
0.0
  0
LINE
  5
1FD
  8
SLD-0_3
  6
PHANTOM
 62
     7
 10
-29.3719176799999993
 20
190.3322360800000013
 30
0.0
 11
-29.4362624100000012
 21
190.2611506700000064
 31
0.0
  0
LINE
  5
1FE
  8
SLD-0_3
  6
PHANTOM
 62
     7
 10
20.3211455500000007
 20
189.8260439700000006
 30
0.0
 11
20.2966771000000001
 21
189.9220161300000029
 31
0.0
  0
LINE
  5
1FF
  8
SLD-0_3
  6
PHANTOM
 62
     7
 10
-28.1273207800000016
 20
190.6253621699999883
 30
0.0
 11
-28.6665007900000006
 21
190.6253621699999883
 31
0.0
  0
LINE
  5
200
  8
SLD-0_3
  6
PHANTOM
 62
     7
 10
20.2632718499999989
 20
190.0140148000000124
 30
0.0
 11
20.2214205299999996
 21
190.1015380899999911
 31
0.0
  0
LINE
  5
201
  8
SLD-0_3
  6
PHANTOM
 62
     7
 10
-4.6612690700000003
 20
190.6253621699999883
 30
0.0
 11
-9.1388074100000001
 21
190.6253621699999883
 31
0.0
  0
LINE
  5
202
  8
SLD-0_3
  6
PHANTOM
 62
     7
 10
-9.1388074100000001
 20
190.6253621699999883
 30
0.0
 11
-13.4756900900000005
 21
190.6253621699999883
 31
0.0
  0
LINE
  5
203
  8
SLD-0_3
  6
PHANTOM
 62
     7
 10
-29.1421156199999984
 20
190.5045855300000142
 30
0.0
 11
-29.2243451500000013
 21
190.4544554400000038
 31
0.0
  0
LINE
  5
204
  8
SLD-0_3
  6
PHANTOM
 62
     7
 10
-29.2243451500000013
 20
190.4544554400000038
 30
0.0
 11
-29.3011122200000003
 21
190.3968383200000005
 31
0.0
  0
LINE
  5
205
  8
SLD-0_3
  6
PHANTOM
 62
     7
 10
14.9133095200000003
 20
190.6253621699999883
 30
0.0
 11
11.8423277299999992
 21
190.6253621699999883
 31
0.0
  0
LINE
  5
206
  8
SLD-0_3
  6
PHANTOM
 62
     7
 10
-28.8676436099999982
 20
190.6050340099999971
 30
0.0
 11
-28.9632657100000017
 21
190.5803767499999992
 31
0.0
  0
LINE
  5
207
  8
SLD-0_3
  6
PHANTOM
 62
     7
 10
-29.3011122200000003
 20
190.3968383200000005
 30
0.0
 11
-29.3719176799999993
 21
190.3322360800000013
 31
0.0
  0
LINE
  5
208
  8
SLD-0_3
  6
PHANTOM
 62
     7
 10
-12.4868147799999996
 20
358.1550416900000187
 30
0.0
 11
-9.2473834499999992
 21
365.0165586400000279
 31
0.0
  0
LINE
  5
209
  8
SLD-0_3
  6
PHANTOM
 62
     7
 10
-16.8337258200000015
 20
341.1070415699999785
 30
0.0
 11
-16.8394687000000012
 21
339.3784351699999888
 31
0.0
  0
LINE
  5
20A
  8
SLD-0_3
  6
PHANTOM
 62
     7
 10
-24.3588108100000014
 20
350.1597322200000235
 30
0.0
 11
-16.8394687000000012
 21
350.1597322200000235
 31
0.0
  0
LINE
  5
20B
  8
SLD-0_3
  6
PHANTOM
 62
     7
 10
9.8687444499999994
 20
290.7467837199999963
 30
0.0
 11
9.8687444499999994
 21
315.4813609999999926
 31
0.0
  0
LINE
  5
20C
  8
SLD-0_3
  6
PHANTOM
 62
     7
 10
-0.93169553
 20
299.9516606600000159
 30
0.0
 11
-0.93169553
 21
296.3413044299999797
 31
0.0
  0
LINE
  5
20D
  8
SLD-0_3
  6
PHANTOM
 62
     7
 10
4.0837516100000002
 20
296.3393901399999777
 30
0.0
 11
4.0837516100000002
 21
300.0425895700000183
 31
0.0
  0
LINE
  5
20E
  8
SLD-0_3
  6
PHANTOM
 62
     7
 10
-3.3264758200000002
 20
306.2190552899999716
 30
0.0
 11
4.0837516100000002
 21
306.2190552899999716
 31
0.0
  0
LINE
  5
20F
  8
SLD-0_3
  6
PHANTOM
 62
     7
 10
4.0837516100000002
 20
291.3976432800000111
 30
0.0
 11
4.0837516100000002
 21
295.1027569899999889
 31
0.0
  0
LINE
  5
210
  8
SLD-0_3
  6
PHANTOM
 62
     7
 10
-5.9452283699999988
 20
290.7467837199999963
 30
0.0
 11
9.8687444499999994
 21
290.7467837199999963
 31
0.0
  0
LINE
  5
211
  8
SLD-0_3
  6
PHANTOM
 62
     7
 10
-3.3264758200000002
 20
314.8640015700000276
 30
0.0
 11
-3.3264758200000002
 21
311.1588878499999851
 31
0.0
  0
LINE
  5
212
  8
SLD-0_3
  6
PHANTOM
 62
     7
 10
-12.4538238900000007
 20
343.0500487599999815
 30
0.0
 11
-14.6227176300000004
 21
343.0653631000000132
 31
0.0
  0
LINE
  5
213
  8
SLD-0_3
  6
PHANTOM
 62
     7
 10
-3.3264758200000002
 20
291.3976432800000111
 30
0.0
 11
4.0837516100000002
 21
291.3976432800000111
 31
0.0
  0
LINE
  5
214
  8
SLD-0_3
  6
PHANTOM
 62
     7
 10
-0.93169553
 20
304.9862507099999789
 30
0.0
 11
-0.93169553
 21
301.2811370000000011
 31
0.0
  0
LINE
  5
215
  8
SLD-0_3
  6
PHANTOM
 62
     7
 10
-3.3264758200000002
 20
311.1588878499999851
 30
0.0
 11
4.0837516100000002
 21
311.1588878499999851
 31
0.0
  0
LINE
  5
216
  8
SLD-0_3
  6
PHANTOM
 62
     7
 10
4.0837516100000002
 20
295.1027569899999889
 30
0.0
 11
-3.3264758200000002
 21
295.1027569899999889
 31
0.0
  0
LINE
  5
217
  8
SLD-0_3
  6
PHANTOM
 62
     7
 10
-3.3264758200000002
 20
301.2792227099999991
 30
0.0
 11
4.0837516100000002
 21
301.2792227099999991
 31
0.0
  0
LINE
  5
218
  8
SLD-0_3
  6
PHANTOM
 62
     7
 10
-9.2473834499999992
 20
365.0165586400000279
 30
0.0
 11
-9.2473834499999992
 21
358.1550416900000187
 31
0.0
  0
LINE
  5
219
  8
SLD-0_3
  6
PHANTOM
 62
     7
 10
-16.8394687000000012
 20
339.3784351699999888
 30
0.0
 11
-24.3588108100000014
 21
339.3784351699999888
 31
0.0
  0
LINE
  5
21A
  8
SLD-0_3
  6
PHANTOM
 62
     7
 10
-24.3990109599999982
 20
338.6041037300000198
 30
0.0
 11
-24.3990109599999982
 21
350.9244921900000236
 31
0.0
  0
LINE
  5
21B
  8
SLD-0_3
  6
PHANTOM
 62
     7
 10
-0.93169553
 20
295.1027569899999889
 30
0.0
 11
-0.93169553
 21
291.3995575600000052
 31
0.0
  0
LINE
  5
21C
  8
SLD-0_3
  6
PHANTOM
 62
     7
 10
-0.93169553
 20
309.8983260399999722
 30
0.0
 11
-0.93169553
 21
306.2190552899999716
 31
0.0
  0
LINE
  5
21D
  8
SLD-0_3
  6
PHANTOM
 62
     7
 10
-0.4263222300000001
 20
365.0165586400000279
 30
0.0
 11
3.1728739400000001
 21
358.1550416900000187
 31
0.0
  0
LINE
  5
21E
  8
SLD-0_3
  6
PHANTOM
 62
     7
 10
-14.6227176300000004
 20
343.0653631000000132
 30
0.0
 11
-14.6322890999999995
 21
341.1070415699999785
 31
0.0
  0
LINE
  5
21F
  8
SLD-0_3
  6
PHANTOM
 62
     7
 10
4.0837516100000002
 20
300.0425895700000183
 30
0.0
 11
-3.3264758200000002
 21
300.0425895700000183
 31
0.0
  0
LINE
  5
220
  8
SLD-0_3
  6
PHANTOM
 62
     7
 10
-0.4263222300000001
 20
358.1806190500000184
 30
0.0
 11
-0.4263222300000001
 21
365.0165586400000279
 31
0.0
  0
LINE
  5
221
  8
SLD-0_3
  6
PHANTOM
 62
     7
 10
-3.3264758200000002
 20
304.9843364299999848
 30
0.0
 11
-3.3264758200000002
 21
301.2792227099999991
 31
0.0
  0
LINE
  5
222
  8
SLD-0_3
  6
PHANTOM
 62
     7
 10
4.0837516100000002
 20
306.2190552899999716
 30
0.0
 11
4.0837516100000002
 21
309.9241690000000062
 31
0.0
  0
LINE
  5
223
  8
SLD-0_3
  6
PHANTOM
 62
     7
 10
-11.6364208599999994
 20
338.6041037300000198
 30
0.0
 11
-24.3990109599999982
 21
338.6041037300000198
 31
0.0
  0
LINE
  5
224
  8
SLD-0_3
  6
PHANTOM
 62
     7
 10
-3.3264758200000002
 20
295.1027569899999889
 30
0.0
 11
-3.3264758200000002
 21
291.3976432800000111
 31
0.0
  0
LINE
  5
225
  8
SLD-0_3
  6
PHANTOM
 62
     7
 10
-3.3264758200000002
 20
300.0425895700000183
 30
0.0
 11
-3.3264758200000002
 21
296.3393901399999777
 31
0.0
  0
LINE
  5
226
  8
SLD-0_3
  6
PHANTOM
 62
     7
 10
-3.3264758200000002
 20
309.9241690000000062
 30
0.0
 11
-3.3264758200000002
 21
306.2190552899999716
 31
0.0
  0
LINE
  5
227
  8
SLD-0_3
  6
PHANTOM
 62
     7
 10
-14.6227176300000004
 20
346.5158758599999942
 30
0.0
 11
-12.4538238900000007
 21
346.5158758599999942
 31
0.0
  0
LINE
  5
228
  8
SLD-0_3
  6
PHANTOM
 62
     7
 10
-5.9452283699999988
 20
315.4813609999999926
 30
0.0
 11
-5.9452283699999988
 21
290.7467837199999963
 31
0.0
  0
LINE
  5
229
  8
SLD-0_3
  6
PHANTOM
 62
     7
 10
-0.93169553
 20
314.8084870800000203
 30
0.0
 11
-0.93169553
 21
311.160802149999995
 31
0.0
  0
LINE
  5
22A
  8
SLD-0_3
  6
PHANTOM
 62
     7
 10
-9.2473834499999992
 20
365.0165586400000279
 30
0.0
 11
-0.4263222300000001
 21
365.0165586400000279
 31
0.0
  0
LINE
  5
22B
  8
SLD-0_3
  6
PHANTOM
 62
     7
 10
-16.8337258200000015
 20
348.4205972099999826
 30
0.0
 11
-14.6322890999999995
 21
348.4205972099999826
 31
0.0
  0
LINE
  5
22C
  8
SLD-0_3
  6
PHANTOM
 62
     7
 10
-14.6322890999999995
 20
348.4205972099999826
 30
0.0
 11
-14.6227176300000004
 21
346.5158758599999942
 31
0.0
  0
LINE
  5
22D
  8
SLD-0_3
  6
PHANTOM
 62
     7
 10
-14.6322890999999995
 20
341.1070415699999785
 30
0.0
 11
-16.8337258200000015
 21
341.1070415699999785
 31
0.0
  0
LINE
  5
22E
  8
SLD-0_3
  6
PHANTOM
 62
     7
 10
4.0837516100000002
 20
301.2792227099999991
 30
0.0
 11
4.0837516100000002
 21
304.9843364299999848
 31
0.0
  0
LINE
  5
22F
  8
SLD-0_3
  6
PHANTOM
 62
     7
 10
-16.8394687000000012
 20
350.1597322200000235
 30
0.0
 11
-16.8337258200000015
 21
348.4205972099999826
 31
0.0
  0
LINE
  5
230
  8
SLD-0_3
  6
PHANTOM
 62
     7
 10
-12.4538238900000007
 20
346.5158758599999942
 30
0.0
 11
-12.4538238900000007
 21
343.0500487599999815
 31
0.0
  0
LINE
  5
231
  8
SLD-0_3
  6
PHANTOM
 62
     7
 10
-24.3588108100000014
 20
339.3784351699999888
 30
0.0
 11
-24.3588108100000014
 21
350.1597322200000235
 31
0.0
  0
LINE
  5
232
  8
SLD-0_3
  6
PHANTOM
 62
     7
 10
9.8687444499999994
 20
315.4813609999999926
 30
0.0
 11
-5.9452283699999988
 21
315.4813609999999926
 31
0.0
  0
LINE
  5
233
  8
SLD-0_3
  6
PHANTOM
 62
     7
 10
4.0837516100000002
 20
314.8640015700000276
 30
0.0
 11
-3.3264758200000002
 21
314.8640015700000276
 31
0.0
  0
LINE
  5
234
  8
SLD-0_3
  6
PHANTOM
 62
     7
 10
-29.5435731000000104
 20
190.1015380899999911
 30
0.0
 11
-29.5855408000000004
 21
190.0140148000000124
 31
0.0
  0
LINE
  5
235
  8
SLD-0_3
  6
PHANTOM
 62
     7
 10
20.0500973999999985
 20
190.3322360800000013
 30
0.0
 11
19.9793690400000017
 21
190.3968383200000005
 31
0.0
  0
LINE
  5
236
  8
SLD-0_3
  6
PHANTOM
 62
     7
 10
19.7331922000000013
 20
190.5467265999999995
 30
0.0
 11
19.6414384099999992
 21
190.5803767499999992
 31
0.0
  0
LINE
  5
237
  8
SLD-0_3
  6
PHANTOM
 62
     7
 10
4.1531519499999989
 20
190.6253621699999883
 30
0.0
 11
-0.18373074
 21
190.6253621699999883
 31
0.0
  0
LINE
  5
238
  8
SLD-0_3
  6
PHANTOM
 62
     7
 10
20.3413091900000005
 20
84.6550243999999878
 30
0.0
 11
20.3413091900000005
 21
189.6241870300000016
 31
0.0
  0
LINE
  5
239
  8
SLD-0_3
  6
PHANTOM
 62
     7
 10
19.4463329000000016
 20
190.6201964699999962
 30
0.0
 11
19.3439626400000009
 21
190.6253621699999883
 31
0.0
  0
LINE
  5
23A
  8
SLD-0_3
  6
PHANTOM
 62
     7
 10
-29.4362624100000012
 20
190.2611506700000064
 30
0.0
 11
-29.4936472599999995
 21
190.1840840300000082
 31
0.0
  0
LINE
  5
23B
  8
SLD-0_3
  6
PHANTOM
 62
     7
 10
-29.4936472599999995
 20
190.1840840300000082
 30
0.0
 11
-29.5435731000000104
 21
190.1015380899999911
 31
0.0
  0
LINE
  5
23C
  8
SLD-0_3
  6
PHANTOM
 62
     7
 10
20.2214205299999996
 20
190.1015380899999911
 30
0.0
 11
20.1716138600000008
 21
190.1840840300000082
 31
0.0
  0
LINE
  5
23D
  8
SLD-0_3
  6
PHANTOM
 62
     7
 10
19.6414384099999992
 20
190.5803767499999992
 30
0.0
 11
19.5456550699999987
 21
190.6050340099999971
 31
0.0
  0
LINE
  5
23E
  8
SLD-0_3
  6
PHANTOM
 62
     7
 10
19.5456550699999987
 20
190.6050340099999971
 30
0.0
 11
19.4463329000000016
 21
190.6201964699999962
 31
0.0
  0
LINE
  5
23F
  8
SLD-0_3
  6
PHANTOM
 62
     7
 10
-29.6436051899999988
 20
189.8260439700000006
 30
0.0
 11
-29.6587036099999999
 21
189.7266002899999933
 31
0.0
  0
LINE
  5
240
  8
SLD-0_3
  6
PHANTOM
 62
     7
 10
11.8423277299999992
 20
190.6253621699999883
 30
0.0
 11
8.2087233200000007
 21
190.6253621699999883
 31
0.0
  0
LINE
  5
241
  8
SLD-0_3
  6
PHANTOM
 62
     7
 10
-28.9632657100000017
 20
190.5803767499999992
 30
0.0
 11
-29.0549227600000002
 21
190.5467265999999995
 31
0.0
  0
LINE
  5
242
  8
SLD-0_3
  6
PHANTOM
 62
     7
 10
19.9793690400000017
 20
190.3968383200000005
 30
0.0
 11
19.9026482400000013
 21
190.4544554400000038
 31
0.0
  0
LINE
  5
243
  8
SLD-0_3
  6
PHANTOM
 62
     7
 10
-28.6665007900000006
 20
190.6253621699999883
 30
0.0
 11
-28.7685555899999983
 21
190.6201964699999962
 31
0.0
  0
LINE
  5
244
  8
SLD-0_3
  6
PHANTOM
 62
     7
 10
20.2966771000000001
 20
189.9220161300000029
 30
0.0
 11
20.2632718499999989
 21
190.0140148000000124
 31
0.0
  0
LINE
  5
245
  8
SLD-0_3
  6
PHANTOM
 62
     7
 10
19.8204257199999994
 20
190.5045855300000142
 30
0.0
 11
19.7331922000000013
 21
190.5467265999999995
 31
0.0
  0
LINE
  5
246
  8
SLD-0_3
  6
PHANTOM
 62
     7
 10
19.3439626400000009
 20
190.6253621699999883
 30
0.0
 11
18.8047826299999983
 21
190.6253621699999883
 31
0.0
  0
LINE
  5
247
  8
SLD-0_3
  6
PHANTOM
 62
     7
 10
-17.5312614700000005
 20
190.6253621699999883
 30
0.0
 11
-21.1648658800000007
 21
190.6253621699999883
 31
0.0
  0
LINE
  5
248
  8
SLD-0_3
  6
PHANTOM
 62
     7
 10
17.2810130400000013
 20
190.6253621699999883
 30
0.0
 11
14.9133095200000003
 21
190.6253621699999883
 31
0.0
  0
LINE
  5
249
  8
SLD-0_1
  6
PHANTOM
 62
     7
 10
-144.1485439100000008
 20
312.3722836300000267
 30
0.0
 11
-147.8547921500000086
 21
312.3722836300000267
 31
0.0
  0
LINE
  5
24A
  8
SLD-0_1
  6
PHANTOM
 62
     7
 10
-144.1485439100000008
 20
304.0722096200000237
 30
0.0
 11
-147.8547921500000086
 21
304.0722096200000237
 31
0.0
  0
LINE
  5
24B
  8
SLD-0_1
  6
PHANTOM
 62
     7
 10
-147.8547921500000086
 20
305.0640480600000046
 30
0.0
 11
-144.1485439100000008
 21
305.0640480600000046
 31
0.0
  0
LINE
  5
24C
  8
SLD-0_1
  6
PHANTOM
 62
     7
 10
-156.7468867299999999
 20
313.3614022400000181
 30
0.0
 11
-160.4513217299999894
 21
313.3614022400000181
 31
0.0
  0
LINE
  5
24D
  8
SLD-0_1
  6
PHANTOM
 62
     7
 10
-160.4513217299999894
 20
320.6696377900000243
 30
0.0
 11
-156.7468867299999999
 21
320.6696377900000243
 31
0.0
  0
LINE
  5
24E
  8
SLD-0_1
  6
PHANTOM
 62
     7
 10
-144.1485439100000008
 20
320.6696377900000243
 30
0.0
 11
-147.8547921500000086
 21
320.6696377900000243
 31
0.0
  0
LINE
  5
24F
  8
SLD-0_1
  6
PHANTOM
 62
     7
 10
-156.7468867299999999
 20
305.0640480600000046
 30
0.0
 11
-160.4513217299999894
 21
305.0640480600000046
 31
0.0
  0
LINE
  5
250
  8
SLD-0_1
  6
PHANTOM
 62
     7
 10
-156.7468867299999999
 20
288.4684331099999781
 30
0.0
 11
-160.4513217299999894
 21
288.4684331099999781
 31
0.0
  0
LINE
  5
251
  8
SLD-0_1
  6
PHANTOM
 62
     7
 10
-160.4513217299999894
 20
328.9697118099999784
 30
0.0
 11
-156.7468867299999999
 21
328.9697118099999784
 31
0.0
  0
LINE
  5
252
  8
SLD-0_1
  6
PHANTOM
 62
     7
 10
-160.4513217299999894
 20
304.0722096200000237
 30
0.0
 11
-156.7468867299999999
 21
304.0722096200000237
 31
0.0
  0
LINE
  5
253
  8
SLD-0_1
  6
PHANTOM
 62
     7
 10
-156.7468867299999999
 20
296.7657872699999757
 30
0.0
 11
-160.4513217299999894
 21
296.7657872699999757
 31
0.0
  0
LINE
  5
254
  8
SLD-0_1
  6
PHANTOM
 62
     7
 10
-160.4513217299999894
 20
329.9552039299999819
 30
0.0
 11
-160.4513217299999894
 21
287.4802211300000181
 31
0.0
  0
LINE
  5
255
  8
SLD-0_1
  6
PHANTOM
 62
     7
 10
-147.8547921500000086
 20
296.7657872699999757
 30
0.0
 11
-144.1485439100000008
 21
296.7657872699999757
 31
0.0
  0
LINE
  5
256
  8
SLD-0_1
  6
PHANTOM
 62
     7
 10
-160.4513217299999894
 20
312.3722836300000267
 30
0.0
 11
-156.7468867299999999
 21
312.3722836300000267
 31
0.0
  0
LINE
  5
257
  8
SLD-0_1
  6
PHANTOM
 62
     7
 10
-167.8592851200000098
 20
359.5943103999999835
 30
0.0
 11
-167.8592851200000098
 21
276.6107959700000265
 31
0.0
  0
LINE
  5
258
  8
SLD-0_1
  6
PHANTOM
 62
     7
 10
-160.4513217299999894
 20
295.7757620599999768
 30
0.0
 11
-156.7468867299999999
 21
295.7757620599999768
 31
0.0
  0
LINE
  5
259
  8
SLD-0_1
  6
PHANTOM
 62
     7
 10
-134.2709571899999901
 20
359.5943103999999835
 30
0.0
 11
-167.8592851200000098
 21
359.5943103999999835
 31
0.0
  0
LINE
  5
25B
  8
SLD-0_1
  6
PHANTOM
 62
     7
 10
-167.8592851200000098
 20
276.6107959700000265
 30
0.0
 11
-134.2709571899999901
 21
276.6107959700000265
 31
0.0
  0
LINE
  5
25D
  8
SLD-0_1
  6
PHANTOM
 62
     7
 10
-147.8547921500000086
 20
313.3614022400000181
 30
0.0
 11
-144.1485439100000008
 21
313.3614022400000181
 31
0.0
  0
LINE
  5
25E
  8
SLD-0_1
  6
PHANTOM
 62
     7
 10
-147.8547921500000086
 20
321.6578497799999923
 30
0.0
 11
-144.1485439100000008
 21
321.6578497799999923
 31
0.0
  0
LINE
  5
25F
  8
SLD-0_1
  6
PHANTOM
 62
     7
 10
-144.1485439100000008
 20
328.9697118099999784
 30
0.0
 11
-147.8547921500000086
 21
328.9697118099999784
 31
0.0
  0
LINE
  5
260
  8
SLD-0_1
  6
PHANTOM
 62
     7
 10
-134.2709571899999901
 20
276.6107959700000265
 30
0.0
 11
-134.2709571899999901
 21
359.5943103999999835
 31
0.0
  0
LINE
  5
261
  8
SLD-0_1
  6
PHANTOM
 62
     7
 10
-156.7468867299999999
 20
321.6578497799999923
 30
0.0
 11
-160.4513217299999894
 21
321.6578497799999923
 31
0.0
  0
LINE
  5
262
  8
SLD-0_1
  6
PHANTOM
 62
     7
 10
-147.8547921500000086
 20
288.4684331099999781
 30
0.0
 11
-144.1485439100000008
 21
288.4684331099999781
 31
0.0
  0
LINE
  5
263
  8
SLD-0_1
  6
PHANTOM
 62
     7
 10
-144.1485439100000008
 20
295.7757620599999768
 30
0.0
 11
-147.8547921500000086
 21
295.7757620599999768
 31
0.0
  0
LINE
  5
264
  8
SLD-0_1
  6
PHANTOM
 62
     7
 10
-144.1485439100000008
 20
329.9552039299999819
 30
0.0
 11
-160.4513217299999894
 21
329.9552039299999819
 31
0.0
  0
CIRCLE
  5
26A
  8
SLD-0_1
  6
PHANTOM
 62
     7
 10
-152.2974722399999905
 20
317.0107006200000228
 30
0.0
 40
3.360515739999999
  0
CIRCLE
  5
26B
  8
SLD-0_1
  6
PHANTOM
 62
     7
 10
-152.2974722399999905
 20
308.7133464500000173
 30
0.0
 40
3.360515739999999
  0
CIRCLE
  5
26C
  8
SLD-0_1
  6
PHANTOM
 62
     7
 10
-152.2974722399999905
 20
300.4150856499999804
 30
0.0
 40
3.360515739999999
  0
CIRCLE
  5
26D
  8
SLD-0_1
  6
PHANTOM
 62
     7
 10
-152.2974722399999905
 20
292.1177314899999828
 30
0.0
 40
3.360515739999999
  0
TEXT
  5
26E
  8
SLD-0
 62
     7
 10
265.2583252700000003
 20
-389.9248852399999805
 30
0.0
 40
9.5250000000000004
  1
001
 41
1.4999999999999989
 72
     5
 11
293.8333252699999889
 21
-389.9248852399999805
 31
0.0
  0
TEXT
  5
26F
  8
SLD-0
 62
     7
 10
-277.1645752300000254
 20
370.8748852499999771
 30
0.0
 40
9.5250000000000004
  1
-M2
 41
1.125
 72
     5
 11
-248.5895752300000083
 21
370.8748852499999771
 31
0.0
  0
TEXT
  5
270
  8
SLD-0
 62
     7
 10
-247.6523425400000065
 20
-50.7896749900000017
 30
0.0
 40
9.5250000000000004
  1
-R
 41
1.2
 72
     5
 11
-228.6023425399999951
 21
-50.7896749900000017
 31
0.0
  0
LINE
  5
2D1
  8
0
  6
CONTINUOUS
 10
-160.4513217299999894
 20
287.4802211300000181
 30
0.0
 11
-144.1485439100000008
 21
287.4802211300000181
 31
0.0
  0
LINE
  5
2DE
  8
SLD-0
  6
PHANTOM
 62
     7
 10
-144.0733336721889088
 20
222.6546508043601875
 30
0.0
 11
-160.3697651721886928
 21
222.6546508043601875
 31
0.0
  0
LINE
  5
2DF
  8
SLD-0_1
  6
PHANTOM
 62
     7
 10
-134.201186652188909
 20
70.6546513402745546
 30
0.0
 11
-134.201186652188909
 21
207.1411525923954002
 31
0.0
  0
LINE
  5
2E0
  8
SLD-0_1
  6
PHANTOM
 62
     7
 10
-167.7541565321886878
 20
207.1411525923954002
 30
0.0
 11
-167.7541565321886878
 21
70.6546513402745546
 31
0.0
  0
LINE
  5
2E1
  8
SLD-0_1
  6
PHANTOM
 62
     7
 10
-144.0733336721889088
 20
207.1411525923954002
 30
0.0
 11
-144.0733336721889088
 21
222.6546508043601875
 31
0.0
  0
LINE
  5
2E2
  8
SLD-0_1
  6
PHANTOM
 62
     7
 10
-134.201186652188909
 20
207.1411525923954002
 30
0.0
 11
-167.7541565321886878
 21
207.1411525923954002
 31
0.0
  0
LINE
  5
2E3
  8
SLD-0_1
  6
PHANTOM
 62
     7
 10
-160.3697651721886928
 20
222.6546508043601875
 30
0.0
 11
-160.3697651721886928
 21
207.1411525923954002
 31
0.0
  0
ENDSEC
  0
EOF
