  0
SECTION
  2
HEADER
  9
$ACADVER
  1
AC1009
  9
$INSBASE
 10
0.0
 20
0.0
 30
0.0
  9
$EXTMIN
 10
-278.7609977600000093
 20
-389.9248852399999805
 30
0.0
  9
$EXTMAX
 10
292.2369027400001187
 20
380.3998852499998975
 30
0.0
  9
$LIMMIN
 10
-308.0309025199999837
 20
-430.3669356999999991
  9
$LIMMAX
 10
308.0309025199999837
 20
420.8419356999999081
  9
$ORTHOMODE
 70
     0
  9
$REGENMODE
 70
     1
  9
$FILLMODE
 70
     1
  9
$QTEXTMODE
 70
     0
  9
$MIRRTEXT
 70
     1
  9
$DRAGMODE
 70
     2
  9
$LTSCALE
 40
0.2
  9
$OSMODE
 70
  1079
  9
$ATTMODE
 70
     1
  9
$TEXTSIZE
 40
9.5250000000000004
  9
$TRACEWID
 40
0.05
  9
$TEXTSTYLE
  7
STANDARD
  9
$CLAYER
  8
0
  9
$CELTYPE
  6
CONTINUOUS
  9
$CECOLOR
 62
   256
  9
$DIMSCALE
 40
1.0
  9
$DIMASZ
 40
0.18
  9
$DIMEXO
 40
0.0625
  9
$DIMDLI
 40
0.38
  9
$DIMRND
 40
0.0
  9
$DIMDLE
 40
0.0
  9
$DIMEXE
 40
0.18
  9
$DIMTP
 40
0.0
  9
$DIMTM
 40
0.0
  9
$DIMTXT
 40
0.18
  9
$DIMCEN
 40
0.09
  9
$DIMTSZ
 40
0.0
  9
$DIMTOL
 70
     0
  9
$DIMLIM
 70
     0
  9
$DIMTIH
 70
     1
  9
$DIMTOH
 70
     1
  9
$DIMSE1
 70
     0
  9
$DIMSE2
 70
     0
  9
$DIMTAD
 70
     0
  9
$DIMZIN
 70
     0
  9
$DIMBLK
  1

  9
$DIMASO
 70
     1
  9
$DIMSHO
 70
     1
  9
$DIMPOST
  1

  9
$DIMAPOST
  1

  9
$DIMALT
 70
     0
  9
$DIMALTD
 70
     2
  9
$DIMALTF
 40
25.3999999999999986
  9
$DIMLFAC
 40
1.0
  9
$DIMTOFL
 70
     0
  9
$DIMTVP
 40
0.0
  9
$DIMTIX
 70
     0
  9
$DIMSOXD
 70
     0
  9
$DIMSAH
 70
     0
  9
$DIMBLK1
  1

  9
$DIMBLK2
  1

  9
$DIMSTYLE
  2
STANDARD
  9
$DIMCLRD
 70
     0
  9
$DIMCLRE
 70
     0
  9
$DIMCLRT
 70
     0
  9
$DIMTFAC
 40
1.0
  9
$DIMGAP
 40
0.09
  9
$LUNITS
 70
     2
  9
$LUPREC
 70
     4
  9
$SKETCHINC
 40
0.1
  9
$FILLETRAD
 40
0.0
  9
$AUNITS
 70
     0
  9
$AUPREC
 70
     0
  9
$MENU
  1
acad
  9
$ELEVATION
 40
0.0
  9
$PELEVATION
 40
0.0
  9
$THICKNESS
 40
0.0
  9
$LIMCHECK
 70
     0
  9
$BLIPMODE
 70
     0
  9
$CHAMFERA
 40
0.0
  9
$CHAMFERB
 40
0.0
  9
$SKPOLY
 70
     0
  9
$TDCREATE
 40
2440588.749988425988704
  9
$TDUPDATE
 40
2458753.5912152780219913
  9
$TDINDWG
 40
0.0093287037
  9
$TDUSRTIMER
 40
0.0093287037
  9
$USRTIMER
 70
     1
  9
$ANGBASE
 50
0.0
  9
$ANGDIR
 70
     0
  9
$PDMODE
 70
     0
  9
$PDSIZE
 40
1.0
  9
$PLINEWID
 40
0.0
  9
$COORDS
 70
     1
  9
$SPLFRAME
 70
     0
  9
$SPLINETYPE
 70
     6
  9
$SPLINESEGS
 70
     8
  9
$ATTDIA
 70
     1
  9
$ATTREQ
 70
     1
  9
$HANDLING
 70
     1
  9
$HANDSEED
  5
660
  9
$SURFTAB1
 70
     6
  9
$SURFTAB2
 70
     6
  9
$SURFTYPE
 70
     6
  9
$SURFU
 70
     6
  9
$SURFV
 70
     6
  9
$UCSNAME
  2

  9
$UCSORG
 10
0.0
 20
0.0
 30
0.0
  9
$UCSXDIR
 10
1.0
 20
0.0
 30
0.0
  9
$UCSYDIR
 10
0.0
 20
1.0
 30
0.0
  9
$PUCSNAME
  2

  9
$PUCSORG
 10
0.0
 20
0.0
 30
0.0
  9
$PUCSXDIR
 10
1.0
 20
0.0
 30
0.0
  9
$PUCSYDIR
 10
0.0
 20
1.0
 30
0.0
  9
$USERI1
 70
     0
  9
$USERI2
 70
     0
  9
$USERI3
 70
     0
  9
$USERI4
 70
     0
  9
$USERI5
 70
     0
  9
$USERR1
 40
0.0
  9
$USERR2
 40
0.0
  9
$USERR3
 40
0.0
  9
$USERR4
 40
0.0
  9
$USERR5
 40
0.0
  9
$WORLDVIEW
 70
     1
  9
$SHADEDGE
 70
     3
  9
$SHADEDIF
 70
    70
  9
$TILEMODE
 70
     1
  9
$MAXACTVP
 70
    16
  9
$PLIMCHECK
 70
     0
  9
$PEXTMIN
 10
1.0000000000000000E+20
 20
1.0000000000000000E+20
 30
1.0000000000000000E+20
  9
$PEXTMAX
 10
-1.0000000000000000E+20
 20
-1.0000000000000000E+20
 30
-1.0000000000000000E+20
  9
$PLIMMIN
 10
0.0
 20
0.0
  9
$PLIMMAX
 10
12.0
 20
9.0
  9
$UNITMODE
 70
     0
  9
$VISRETAIN
 70
     0
  9
$PLINEGEN
 70
     1
  9
$PSLTSCALE
 70
     0
  0
ENDSEC
  0
SECTION
  2
TABLES
  0
TABLE
  2
VPORT
 70
     1
  0
VPORT
  2
*ACTIVE
 70
     0
 10
0.0
 20
0.0
 11
1.0
 21
1.0
 12
83.9827788501513623
 22
-5.204651339283032
 13
0.0
 23
0.0
 14
1.0
 24
1.0
 15
0.0
 25
0.0
 16
0.0
 26
0.0
 36
1.0
 17
0.0
 27
0.0
 37
0.0
 40
864.8698467505139433
 41
2.2135355892648771
 42
50.0
 43
0.0
 44
0.0
 50
0.0
 51
0.0
 71
     0
 72
   100
 73
     1
 74
     1
 75
     0
 76
     0
 77
     0
 78
     0
  0
ENDTAB
  0
TABLE
  2
LTYPE
 70
    30
  0
LTYPE
  2
CONTINUOUS
 70
     0
  3
Solid line
 72
    65
 73
     0
 40
0.0
  0
LTYPE
  2
HIDDENX2
 70
     0
  3
CADPAC LINETYPE
 72
    65
 73
     2
 40
45.3057216699999898
 49
33.9792912599999966
 49
-11.3264304199999994
  0
LTYPE
  2
HIDDEN
 70
     0
  3
CADPAC LINETYPE
 72
    65
 73
     2
 40
33.9792912599999966
 49
22.6528608399999989
 49
-11.3264304199999994
  0
LTYPE
  2
HIDDEN2
 70
     0
  3
CADPAC LINETYPE
 72
    65
 73
     2
 40
28.3160760499999995
 49
16.9896456299999983
 49
-11.3264304199999994
  0
LTYPE
  2
DASHED
 70
     0
  3
CADPAC LINETYPE
 72
    65
 73
     2
 40
33.9792912599999966
 49
22.6528608399999989
 49
-11.3264304199999994
  0
LTYPE
  2
DASHED2
 70
     0
  3
CADPAC LINETYPE
 72
    65
 73
     2
 40
25.4844684400000006
 49
16.9896456299999983
 49
-8.4948228100000005
  0
LTYPE
  2
DASHEDX2
 70
     0
  3
CADPAC LINETYPE
 72
    65
 73
     2
 40
50.9689368800000011
 49
33.9792912599999966
 49
-16.9896456299999983
  0
LTYPE
  2
DOTX2
 70
     0
  3
CADPAC LINETYPE
 72
    65
 73
     2
 40
14.1580380199999993
 49
0.0
 49
-14.1580380199999993
  0
LTYPE
  2
DOT
 70
     0
  3
CADPAC LINETYPE
 72
    65
 73
     2
 40
11.3264304199999994
 49
0.0
 49
-11.3264304199999994
  0
LTYPE
  2
DOT2
 70
     0
  3
CADPAC LINETYPE
 72
    65
 73
     2
 40
8.4948228100000005
 49
0.0
 49
-8.4948228100000005
  0
LTYPE
  2
CENTERX2
 70
     0
  3
CADPAC LINETYPE
 72
    65
 73
     4
 40
67.9585825099999994
 49
28.3160760499999995
 49
-14.1580380199999993
 49
11.3264304199999994
 49
-14.1580380199999993
  0
LTYPE
  2
CENTER
 70
     0
  3
CADPAC LINETYPE
 72
    65
 73
     4
 40
52.1015799299999998
 49
22.6528608399999989
 49
-11.3264304199999994
 49
6.7958582500000002
 49
-11.3264304199999994
  0
LTYPE
  2
CENTER2
 70
     0
  3
CADPAC LINETYPE
 72
    65
 73
     4
 40
36.2445773399999993
 49
16.9896456299999983
 49
-8.4948228100000005
 49
2.2652860800000001
 49
-8.4948228100000005
  0
LTYPE
  2
DASHDOTX2
 70
     0
  3
CADPAC LINETYPE
 72
    65
 73
     4
 40
56.6321520899999982
 49
28.3160760499999995
 49
-14.1580380199999993
 49
0.0
 49
-14.1580380199999993
  0
LTYPE
  2
DASHDOT
 70
     0
  3
CADPAC LINETYPE
 72
    65
 73
     4
 40
45.3057216699999898
 49
22.6528608399999989
 49
-11.3264304199999994
 49
0.0
 49
-11.3264304199999994
  0
LTYPE
  2
DASHDOT2
 70
     0
  3
CADPAC LINETYPE
 72
    65
 73
     4
 40
33.9792912599999966
 49
16.9896456299999983
 49
-8.4948228100000005
 49
0.0
 49
-8.4948228100000005
  0
LTYPE
  2
DIVIDEX2
 70
     0
  3
CADPAC LINETYPE
 72
    65
 73
     6
 40
70.7901901200000054
 49
28.3160760499999995
 49
-14.1580380199999993
 49
0.0
 49
-14.1580380199999993
 49
0.0
 49
-14.1580380199999993
  0
LTYPE
  2
DIVIDE
 70
     0
  3
CADPAC LINETYPE
 72
    65
 73
     6
 40
56.6321520899999982
 49
22.6528608399999989
 49
-11.3264304199999994
 49
0.0
 49
-11.3264304199999994
 49
0.0
 49
-11.3264304199999994
  0
LTYPE
  2
DIVIDE2
 70
     0
  3
CADPAC LINETYPE
 72
    65
 73
     6
 40
42.4741140699999988
 49
16.9896456299999983
 49
-8.4948228100000005
 49
0.0
 49
-8.4948228100000005
 49
0.0
 49
-8.4948228100000005
  0
LTYPE
  2
BORDERX2
 70
     0
  3
CADPAC LINETYPE
 72
    65
 73
     6
 40
99.1062661600000041
 49
28.3160760499999995
 49
-14.1580380199999993
 49
28.3160760499999995
 49
-14.1580380199999993
 49
0.0
 49
-14.1580380199999993
  0
LTYPE
  2
BORDER
 70
     0
  3
CADPAC LINETYPE
 72
    65
 73
     6
 40
79.2850129299999935
 49
22.6528608399999989
 49
-11.3264304199999994
 49
22.6528608399999989
 49
-11.3264304199999994
 49
0.0
 49
-11.3264304199999994
  0
LTYPE
  2
BORDER2
 70
     0
  3
CADPAC LINETYPE
 72
    65
 73
     6
 40
59.4637596999999971
 49
16.9896456299999983
 49
-8.4948228100000005
 49
16.9896456299999983
 49
-8.4948228100000005
 49
0.0
 49
-8.4948228100000005
  0
LTYPE
  2
PHANTOMX2
 70
     0
  3
CADPAC LINETYPE
 72
    65
 73
     6
 40
84.9482281399999977
 49
28.3160760499999995
 49
-11.3264304199999994
 49
11.3264304199999994
 49
-11.3264304199999994
 49
11.3264304199999994
 49
-11.3264304199999994
  0
LTYPE
  2
PHANTOM
 70
     0
  3
CADPAC LINETYPE
 72
    65
 73
     6
 40
70.223868589999995
 49
22.6528608399999989
 49
-11.3264304199999994
 49
6.7958582500000002
 49
-11.3264304199999994
 49
6.7958582500000002
 49
-11.3264304199999994
  0
LTYPE
  2
PHANTOM2
 70
     0
  3
CADPAC LINETYPE
 72
    65
 73
     6
 40
60.0300812199999996
 49
16.9896456299999983
 49
-11.3264304199999994
 49
4.5305721700000001
 49
-11.3264304199999994
 49
4.5305721700000001
 49
-11.3264304199999994
  0
LTYPE
  2
ACAD_ISO06W100
 70
     0
  3
CADPAC LINETYPE
 72
    65
 73
     8
 40
76.4534053200000017
 49
28.3160760499999995
 49
-14.1580380199999993
 49
0.0
 49
-11.3264304199999994
 49
0.0
 49
-11.3264304199999994
 49
0.0
 49
-11.3264304199999994
  0
LTYPE
  2
ACAD_ISO13W100
 70
     0
  3
CADPAC LINETYPE
 72
    65
 73
     8
 40
90.6114433499999876
 49
22.6528608399999989
 49
-11.3264304199999994
 49
22.6528608399999989
 49
-11.3264304199999994
 49
0.0
 49
-11.3264304199999994
 49
0.0
 49
-11.3264304199999994
  0
LTYPE
  2
ACAD_ISO14W100
 70
     0
  3
CADPAC LINETYPE
 72
    65
 73
     8
 40
67.9585825099999994
 49
22.6528608399999989
 49
-11.3264304199999994
 49
0.0
 49
-11.3264304199999994
 49
0.0
 49
-11.3264304199999994
 49
0.0
 49
-11.3264304199999994
  0
ENDTAB
  0
TABLE
  2
LAYER
 70
     7
  0
LAYER
  2
0
 70
     0
 62
     7
  6
CONTINUOUS
  0
LAYER
  2
SLD-0_4
 70
     0
 62
     7
  6
CONTINUOUS
  0
LAYER
  2
SLD-0_3
 70
     0
 62
     7
  6
CONTINUOUS
  0
LAYER
  2
SLD-0_1
 70
     0
 62
     7
  6
CONTINUOUS
  0
LAYER
  2
SLD-0_0
 70
     0
 62
     7
  6
CONTINUOUS
  0
LAYER
  2
SLD-0_2
 70
     0
 62
     7
  6
CONTINUOUS
  0
LAYER
  2
SLD-0
 70
     0
 62
     7
  6
CONTINUOUS
  0
ENDTAB
  0
TABLE
  2
STYLE
 70
     1
  0
STYLE
  2
STANDARD
 70
     0
 40
0.0
 41
1.0
 50
0.0
 71
     0
 42
9.5250000000000004
  3
txt.shx
  4
bigfont.shx
  0
ENDTAB
  0
TABLE
  2
VIEW
 70
     1
  0
VIEW
  2
QQQQ
 70
     0
 40
851.208871390000013
 10
0.0
 20
-4.7625000000000002
 41
616.0618050499999754
 11
0.0
 21
0.0
 31
1.0
 12
100.0
 22
100.0
 32
0.0
 42
50.0
 43
0.0
 44
0.0
 50
0.0
 71
     0
  0
ENDTAB
  0
TABLE
  2
UCS
 70
     0
  0
ENDTAB
  0
TABLE
  2
APPID
 70
     4
  0
APPID
  2
ACAD
 70
     0
  0
APPID
  2
ACAD_EXEMPT_FROM_CAD_STANDARDS
 70
     0
  0
APPID
  2
ACAD_NAV_VCDISPLAY
 70
     0
  0
APPID
  2
ACAD_MLEADERVER
 70
     0
  0
ENDTAB
  0
TABLE
  2
DIMSTYLE
 70
     2
  0
DIMSTYLE
  2
STANDARD
 70
     0
  3

  4

  5

  6

  7

 40
1.0
 41
0.18
 42
0.0625
 43
0.38
 44
0.18
 45
0.0
 46
0.0
 47
0.0
 48
0.0
140
0.18
141
0.09
142
0.0
143
25.3999999999999986
144
1.0
145
0.0
146
1.0
147
0.09
 71
     0
 72
     0
 73
     1
 74
     1
 75
     0
 76
     0
 77
     0
 78
     0
170
     0
171
     2
172
     0
173
     0
174
     0
175
     0
176
     0
177
     0
178
     0
  0
ENDTAB
  0
ENDSEC
  0
SECTION
  2
BLOCKS
  0
BLOCK
  8
0
  2
$MODEL_SPACE
 70
     0
 10
0.0
 20
0.0
 30
0.0
  3
$MODEL_SPACE
  1

  0
ENDBLK
  5
E
  8
0
  0
BLOCK
 67
     1
  8
0
  2
$PAPER_SPACE
 70
     0
 10
0.0
 20
0.0
 30
0.0
  3
$PAPER_SPACE
  1

  0
ENDBLK
  5
10
 67
     1
  8
0
  0
ENDSEC
  0
SECTION
  2
ENTITIES
  0
LINE
  5
3F
  8
SLD-0_4
  6
PHANTOM
 62
     7
 10
-176.9752858200000105
 20
-66.6217496000000011
 30
0.0
 11
-177.7046313699999871
 21
-66.6217496000000011
 31
0.0
  0
LINE
  5
40
  8
SLD-0_4
  6
PHANTOM
 62
     7
 10
-137.7849264699999878
 20
-57.155571700000003
 30
0.0
 11
-137.7849264699999878
 21
-57.87726009
 31
0.0
  0
LINE
  5
41
  8
SLD-0_4
  6
PHANTOM
 62
     7
 10
-137.7849264699999878
 20
-66.6217496000000011
 30
0.0
 11
-137.7849264699999878
 21
-67.6554677200000043
 31
0.0
  0
LINE
  5
42
  8
SLD-0_4
  6
PHANTOM
 62
     7
 10
-168.9917276900000047
 20
-66.6217496000000011
 30
0.0
 11
-169.7210732499999892
 21
-66.6217496000000011
 31
0.0
  0
LINE
  5
43
  8
SLD-0_4
  6
PHANTOM
 62
     7
 10
-142.8846024899999918
 20
-66.6217496000000011
 30
0.0
 11
-143.6062908700000094
 21
-66.6217496000000011
 31
0.0
  0
LINE
  5
44
  8
SLD-0_4
  6
PHANTOM
 62
     7
 10
-151.5908061400000122
 20
-66.6217496000000011
 30
0.0
 11
-151.5908061400000122
 21
-57.87726009
 31
0.0
  0
LINE
  5
45
  8
SLD-0_4
  6
PHANTOM
 62
     7
 10
-158.8526758799999925
 20
-67.6554677200000043
 30
0.0
 11
-158.8526758799999925
 21
-66.6217496000000011
 31
0.0
  0
LINE
  5
46
  8
SLD-0_4
  6
PHANTOM
 62
     7
 10
-166.8352768500000138
 20
-66.6217496000000011
 30
0.0
 11
-167.5569652400000109
 21
-66.6217496000000011
 31
0.0
  0
LINE
  5
47
  8
SLD-0_4
  6
PHANTOM
 62
     7
 10
-177.5706860600000141
 20
-294.2754046000000017
 30
0.0
 11
-177.5706860600000141
 21
-306.2780204599999934
 31
0.0
  0
LINE
  5
48
  8
SLD-0_4
  6
PHANTOM
 62
     7
 10
-131.2390022399999907
 20
-306.2780204599999934
 30
0.0
 11
-181.2390022399999907
 21
-306.2780204599999934
 31
0.0
  0
LINE
  5
49
  8
SLD-0_4
  6
PHANTOM
 62
     7
 10
-134.7871991199999968
 20
-306.2780204599999934
 30
0.0
 11
-134.7871991199999968
 21
-294.2754046000000017
 31
0.0
  0
LINE
  5
4A
  8
SLD-0_4
  6
PHANTOM
 62
     7
 10
-134.7871991199999968
 20
-294.2754046000000017
 30
0.0
 11
-177.5706860600000141
 21
-294.2754046000000017
 31
0.0
  0
LINE
  5
4B
  8
SLD-0_4
  6
PHANTOM
 62
     7
 10
-177.7046313699999871
 20
-57.87726009
 30
0.0
 11
-176.9752858200000105
 21
-57.87726009
 31
0.0
  0
LINE
  5
4C
  8
SLD-0_4
  6
PHANTOM
 62
     7
 10
-137.0555809100000033
 20
-57.87726009
 30
0.0
 11
-137.0555809100000033
 21
-66.6217496000000011
 31
0.0
  0
LINE
  5
4D
  8
SLD-0_4
  6
PHANTOM
 62
     7
 10
-153.7529998599999885
 20
-57.87726009
 30
0.0
 11
-153.023654300000004
 21
-57.87726009
 31
0.0
  0
LINE
  5
4E
  8
SLD-0_4
  6
PHANTOM
 62
     7
 10
198.5683635700000025
 20
-141.1554389099999867
 30
0.0
 11
198.5683635700000025
 21
-63.1554389100000009
 31
0.0
  0
LINE
  5
4F
  8
SLD-0_4
  6
PHANTOM
 62
     7
 10
-169.7210732499999892
 20
-66.6217496000000011
 30
0.0
 11
-169.7210732499999892
 21
-67.6554677200000043
 31
0.0
  0
LINE
  5
50
  8
SLD-0_4
  6
PHANTOM
 62
     7
 10
227.9772552400000052
 20
-142.1810162699999864
 30
0.0
 11
227.9772552400000052
 21
-149.0169558599999959
 31
0.0
  0
LINE
  5
51
  8
SLD-0_4
  6
PHANTOM
 62
     7
 10
199.5683635700000025
 20
-62.1554389100000009
 30
0.0
 11
247.5683635700000025
 21
-62.1554389100000009
 31
0.0
  0
LINE
  5
52
  8
SLD-0_4
  6
PHANTOM
 62
     7
 10
227.4718819400000029
 20
-120.3588199400000036
 30
0.0
 11
227.4718819400000029
 21
-123.9691761600000035
 31
0.0
  0
LINE
  5
53
  8
SLD-0_4
  6
PHANTOM
 62
     7
 10
215.9497535799999923
 20
-77.2604318399999954
 30
0.0
 11
213.7808598400000051
 21
-77.2451175000000063
 31
0.0
  0
LINE
  5
54
  8
SLD-0_4
  6
PHANTOM
 62
     7
 10
232.487329079999995
 20
-114.091425319999999
 30
0.0
 11
232.487329079999995
 21
-110.3863115999999991
 31
0.0
  0
LINE
  5
55
  8
SLD-0_4
  6
PHANTOM
 62
     7
 10
-177.7046313699999871
 20
-67.6554677200000043
 30
0.0
 11
-134.8991300700000124
 21
-67.6554677200000043
 31
0.0
  0
LINE
  5
56
  8
SLD-0_4
  6
PHANTOM
 62
     7
 10
215.916762690000013
 20
-142.1554389099999867
 30
0.0
 11
219.1561940199999867
 21
-149.0169558599999959
 31
0.0
  0
LINE
  5
57
  8
SLD-0_4
  6
PHANTOM
 62
     7
 10
211.5698516500000039
 20
-79.2034390299999984
 30
0.0
 11
211.56410876999999
 21
-80.9320454300000023
 31
0.0
  0
LINE
  5
58
  8
SLD-0_4
  6
PHANTOM
 62
     7
 10
-168.9917276900000047
 20
-57.87726009
 30
0.0
 11
-168.9917276900000047
 21
-66.6217496000000011
 31
0.0
  0
LINE
  5
59
  8
SLD-0_4
  6
PHANTOM
 62
     7
 10
232.487329079999995
 20
-115.3261441700000063
 30
0.0
 11
225.077101650000003
 21
-115.3261441700000063
 31
0.0
  0
LINE
  5
5A
  8
SLD-0_4
  6
PHANTOM
 62
     7
 10
227.9772552400000052
 20
-149.0169558599999959
 30
0.0
 11
231.5764514100000042
 21
-142.1554389099999867
 31
0.0
  0
LINE
  5
5B
  8
SLD-0_4
  6
PHANTOM
 62
     7
 10
225.077101650000003
 20
-125.2077236100000022
 30
0.0
 11
225.077101650000003
 21
-128.9128373199999942
 31
0.0
  0
LINE
  5
5C
  8
SLD-0_4
  6
PHANTOM
 62
     7
 10
211.56410876999999
 20
-70.150748390000004
 30
0.0
 11
211.5698516500000039
 21
-71.8898833899999943
 31
0.0
  0
LINE
  5
5D
  8
SLD-0_4
  6
PHANTOM
 62
     7
 10
-177.7046313699999871
 20
-57.155571700000003
 30
0.0
 11
-177.7046313699999871
 21
-57.87726009
 31
0.0
  0
LINE
  5
5E
  8
SLD-0_4
  6
PHANTOM
 62
     7
 10
-177.7046313699999871
 20
-66.6217496000000011
 30
0.0
 11
-177.7046313699999871
 21
-67.6554677200000043
 31
0.0
  0
LINE
  5
5F
  8
SLD-0_4
  6
PHANTOM
 62
     7
 10
-137.7849264699999878
 20
-57.87726009
 30
0.0
 11
-137.0555809100000033
 21
-57.87726009
 31
0.0
  0
LINE
  5
60
  8
SLD-0_4
  6
PHANTOM
 62
     7
 10
-166.8352768500000138
 20
-67.6554677200000043
 30
0.0
 11
-166.8352768500000138
 21
-66.6217496000000011
 31
0.0
  0
LINE
  5
61
  8
SLD-0_4
  6
PHANTOM
 62
     7
 10
245.5683635700000025
 20
-139.1554389099999867
 30
0.0
 11
245.5683635700000025
 21
-65.1554389100000009
 31
0.0
  0
LINE
  5
62
  8
SLD-0_4
  6
PHANTOM
 62
     7
 10
232.487329079999995
 20
-110.3863115999999991
 30
0.0
 11
225.077101650000003
 21
-110.3863115999999991
 31
0.0
  0
LINE
  5
63
  8
SLD-0_4
  6
PHANTOM
 62
     7
 10
227.4718819400000029
 20
-115.3242298800000043
 30
0.0
 11
227.4718819400000029
 21
-119.0293435899999963
 31
0.0
  0
LINE
  5
64
  8
SLD-0_4
  6
PHANTOM
 62
     7
 10
-134.8991300700000124
 20
-66.6217496000000011
 30
0.0
 11
-135.6208184600000095
 21
-66.6217496000000011
 31
0.0
  0
LINE
  5
65
  8
SLD-0_4
  6
PHANTOM
 62
     7
 10
227.4718819400000029
 20
-110.4121545499999968
 30
0.0
 11
227.4718819400000029
 21
-114.091425319999999
 31
0.0
  0
LINE
  5
66
  8
SLD-0_4
  6
PHANTOM
 62
     7
 10
216.7671566100000007
 20
-81.7063768700000139
 30
0.0
 11
204.0045665099999894
 21
-81.7063768700000139
 31
0.0
  0
LINE
  5
67
  8
SLD-0_4
  6
PHANTOM
 62
     7
 10
-161.0072124200000019
 20
-57.87726009
 30
0.0
 11
-161.0072124200000019
 21
-66.6217496000000011
 31
0.0
  0
LINE
  5
68
  8
SLD-0_4
  6
PHANTOM
 62
     7
 10
-169.7210732499999892
 20
-57.155571700000003
 30
0.0
 11
-169.7210732499999892
 21
-57.87726009
 31
0.0
  0
LINE
  5
69
  8
SLD-0_4
  6
PHANTOM
 62
     7
 10
-150.8691177499999867
 20
-57.87726009
 30
0.0
 11
-150.8691177499999867
 21
-57.155571700000003
 31
0.0
  0
LINE
  5
6A
  8
SLD-0_4
  6
PHANTOM
 62
     7
 10
-167.5569652400000109
 20
-66.6217496000000011
 30
0.0
 11
-167.5569652400000109
 21
-57.87726009
 31
0.0
  0
LINE
  5
6B
  8
SLD-0_4
  6
PHANTOM
 62
     7
 10
225.077101650000003
 20
-110.3863115999999991
 30
0.0
 11
225.077101650000003
 21
-114.091425319999999
 31
0.0
  0
LINE
  5
6C
  8
SLD-0_4
  6
PHANTOM
 62
     7
 10
215.916762690000013
 20
-62.1554389100000009
 30
0.0
 11
219.1561940199999867
 21
-55.2939219599999916
 31
0.0
  0
LINE
  5
6D
  8
SLD-0_4
  6
PHANTOM
 62
     7
 10
227.9772552400000052
 20
-62.1298615500000011
 30
0.0
 11
227.9772552400000052
 21
-55.2939219599999916
 31
0.0
  0
LINE
  5
6E
  8
SLD-0_4
  6
PHANTOM
 62
     7
 10
-137.0555809100000033
 20
-66.6217496000000011
 30
0.0
 11
-137.7849264699999878
 21
-66.6217496000000011
 31
0.0
  0
LINE
  5
6F
  8
SLD-0_4
  6
PHANTOM
 62
     7
 10
-145.0391390300000012
 20
-57.87726009
 30
0.0
 11
-145.0391390300000012
 21
-66.6217496000000011
 31
0.0
  0
LINE
  5
70
  8
SLD-0_4
  6
PHANTOM
 62
     7
 10
-151.5908061400000122
 20
-57.87726009
 30
0.0
 11
-150.8691177499999867
 21
-57.87726009
 31
0.0
  0
LINE
  5
71
  8
SLD-0_4
  6
PHANTOM
 62
     7
 10
232.487329079999995
 20
-123.9710904599999992
 30
0.0
 11
232.487329079999995
 21
-120.2678910300000013
 31
0.0
  0
LINE
  5
72
  8
SLD-0_4
  6
PHANTOM
 62
     7
 10
222.4583490999999924
 20
-129.5636968700000011
 30
0.0
 11
238.272321919999996
 21
-129.5636968700000011
 31
0.0
  0
LINE
  5
73
  8
SLD-0_4
  6
PHANTOM
 62
     7
 10
225.077101650000003
 20
-120.2678910300000013
 30
0.0
 11
225.077101650000003
 21
-123.9710904599999992
 31
0.0
  0
LINE
  5
74
  8
SLD-0_4
  6
PHANTOM
 62
     7
 10
213.7808598400000051
 20
-73.7946047300000032
 30
0.0
 11
215.9497535799999923
 21
-73.7946047300000032
 31
0.0
  0
LINE
  5
75
  8
SLD-0_4
  6
PHANTOM
 62
     7
 10
-176.9752858200000105
 20
-57.87726009
 30
0.0
 11
-176.9752858200000105
 21
-66.6217496000000011
 31
0.0
  0
LINE
  5
76
  8
SLD-0_4
  6
PHANTOM
 62
     7
 10
-142.8846024899999918
 20
-67.6554677200000043
 30
0.0
 11
-142.8846024899999918
 21
-66.6217496000000011
 31
0.0
  0
LINE
  5
77
  8
SLD-0_4
  6
PHANTOM
 62
     7
 10
-175.5405233600000088
 20
-57.87726009
 30
0.0
 11
-174.8188349799999912
 21
-57.87726009
 31
0.0
  0
LINE
  5
78
  8
SLD-0_4
  6
PHANTOM
 62
     7
 10
201.5683635700000025
 20
-65.1554389100000009
 30
0.0
 11
245.5683635700000025
 21
-65.1554389100000009
 31
0.0
  0
LINE
  5
79
  8
SLD-0_4
  6
PHANTOM
 62
     7
 10
213.7712883700000077
 20
-79.2034390299999984
 30
0.0
 11
211.5698516500000039
 21
-79.2034390299999984
 31
0.0
  0
LINE
  5
7A
  8
SLD-0_4
  6
PHANTOM
 62
     7
 10
-134.8991300700000124
 20
-67.6554677200000043
 30
0.0
 11
-134.8991300700000124
 21
-66.6217496000000011
 31
0.0
  0
LINE
  5
7B
  8
SLD-0_4
  6
PHANTOM
 62
     7
 10
-174.8188349799999912
 20
-57.87726009
 30
0.0
 11
-174.8188349799999912
 21
-57.155571700000003
 31
0.0
  0
LINE
  5
7C
  8
SLD-0_4
  6
PHANTOM
 62
     7
 10
201.5683635700000025
 20
-139.1554389099999867
 30
0.0
 11
245.5683635700000025
 21
-139.1554389099999867
 31
0.0
  0
LINE
  5
7D
  8
SLD-0_4
  6
PHANTOM
 62
     7
 10
219.1561940199999867
 20
-149.0169558599999959
 30
0.0
 11
227.9772552400000052
 21
-149.0169558599999959
 31
0.0
  0
LINE
  5
7E
  8
SLD-0_4
  6
PHANTOM
 62
     7
 10
225.077101650000003
 20
-109.1515927399999981
 30
0.0
 11
232.487329079999995
 21
-109.1515927399999981
 31
0.0
  0
LINE
  5
7F
  8
SLD-0_4
  6
PHANTOM
 62
     7
 10
204.0447666599999934
 20
-80.9320454300000023
 30
0.0
 11
204.0447666599999934
 21
-70.150748390000004
 31
0.0
  0
LINE
  5
80
  8
SLD-0_4
  6
PHANTOM
 62
     7
 10
238.272321919999996
 20
-104.8291195999999985
 30
0.0
 11
222.4583490999999924
 21
-104.8291195999999985
 31
0.0
  0
LINE
  5
81
  8
SLD-0_4
  6
PHANTOM
 62
     7
 10
-145.7684845900000141
 20
-57.155571700000003
 30
0.0
 11
-145.7684845900000141
 21
-57.87726009
 31
0.0
  0
LINE
  5
82
  8
SLD-0_4
  6
PHANTOM
 62
     7
 10
-153.7529998599999885
 20
-57.155571700000003
 30
0.0
 11
-153.7529998599999885
 21
-57.87726009
 31
0.0
  0
LINE
  5
83
  8
SLD-0_4
  6
PHANTOM
 62
     7
 10
-169.7210732499999892
 20
-57.87726009
 30
0.0
 11
-168.9917276900000047
 21
-57.87726009
 31
0.0
  0
LINE
  5
84
  8
SLD-0_4
  6
PHANTOM
 62
     7
 10
-167.5569652400000109
 20
-57.87726009
 30
0.0
 11
-166.8352768500000138
 21
-57.87726009
 31
0.0
  0
LINE
  5
85
  8
SLD-0_4
  6
PHANTOM
 62
     7
 10
225.077101650000003
 20
-119.0312578900000062
 30
0.0
 11
232.487329079999995
 21
-119.0312578900000062
 31
0.0
  0
LINE
  5
86
  8
SLD-0_4
  6
PHANTOM
 62
     7
 10
248.5683635700000025
 20
-141.1554389099999867
 30
0.0
 11
248.5683635700000025
 21
-63.1554389100000009
 31
0.0
  0
LINE
  5
87
  8
SLD-0_4
  6
PHANTOM
 62
     7
 10
204.0447666599999934
 20
-70.150748390000004
 30
0.0
 11
211.56410876999999
 21
-70.150748390000004
 31
0.0
  0
LINE
  5
88
  8
SLD-0_4
  6
PHANTOM
 62
     7
 10
225.077101650000003
 20
-114.091425319999999
 30
0.0
 11
232.487329079999995
 21
-114.091425319999999
 31
0.0
  0
LINE
  5
89
  8
SLD-0_4
  6
PHANTOM
 62
     7
 10
227.4718819400000029
 20
-125.2077236100000022
 30
0.0
 11
227.4718819400000029
 21
-128.9109230299999922
 31
0.0
  0
LINE
  5
8A
  8
SLD-0_4
  6
PHANTOM
 62
     7
 10
225.077101650000003
 20
-115.3261441700000063
 30
0.0
 11
225.077101650000003
 21
-119.0312578900000062
 31
0.0
  0
LINE
  5
8B
  8
SLD-0_4
  6
PHANTOM
 62
     7
 10
219.1561940199999867
 20
-55.2939219599999916
 30
0.0
 11
227.9772552400000052
 21
-55.2939219599999916
 31
0.0
  0
LINE
  5
8C
  8
SLD-0_4
  6
PHANTOM
 62
     7
 10
232.487329079999995
 20
-119.0312578900000062
 30
0.0
 11
232.487329079999995
 21
-115.3261441700000063
 31
0.0
  0
LINE
  5
8D
  8
SLD-0_4
  6
PHANTOM
 62
     7
 10
215.9497535799999923
 20
-73.7946047300000032
 30
0.0
 11
215.9497535799999923
 21
-77.2604318399999954
 31
0.0
  0
LINE
  5
8E
  8
SLD-0_4
  6
PHANTOM
 62
     7
 10
-145.0391390300000012
 20
-66.6217496000000011
 30
0.0
 11
-145.7684845900000141
 21
-66.6217496000000011
 31
0.0
  0
LINE
  5
8F
  8
SLD-0_4
  6
PHANTOM
 62
     7
 10
-153.023654300000004
 20
-57.87726009
 30
0.0
 11
-153.023654300000004
 21
-66.6217496000000011
 31
0.0
  0
LINE
  5
90
  8
SLD-0_4
  6
PHANTOM
 62
     7
 10
-143.6062908700000094
 20
-57.87726009
 30
0.0
 11
-142.8846024899999918
 21
-57.87726009
 31
0.0
  0
LINE
  5
91
  8
SLD-0_4
  6
PHANTOM
 62
     7
 10
-166.8352768500000138
 20
-57.87726009
 30
0.0
 11
-166.8352768500000138
 21
-57.155571700000003
 31
0.0
  0
LINE
  5
92
  8
SLD-0_4
  6
PHANTOM
 62
     7
 10
-175.5405233600000088
 20
-66.6217496000000011
 30
0.0
 11
-175.5405233600000088
 21
-57.87726009
 31
0.0
  0
LINE
  5
93
  8
SLD-0_4
  6
PHANTOM
 62
     7
 10
232.487329079999995
 20
-109.1515927399999981
 30
0.0
 11
232.487329079999995
 21
-105.4464790399999998
 31
0.0
  0
LINE
  5
94
  8
SLD-0_4
  6
PHANTOM
 62
     7
 10
232.487329079999995
 20
-125.2077236100000022
 30
0.0
 11
225.077101650000003
 21
-125.2077236100000022
 31
0.0
  0
LINE
  5
95
  8
SLD-0_4
  6
PHANTOM
 62
     7
 10
227.9772552400000052
 20
-55.2939219599999916
 30
0.0
 11
231.5764514100000042
 21
-62.1554389100000009
 31
0.0
  0
LINE
  5
96
  8
SLD-0_4
  6
PHANTOM
 62
     7
 10
227.4718819400000029
 20
-105.5019935199999992
 30
0.0
 11
227.4718819400000029
 21
-109.1496784499999961
 31
0.0
  0
LINE
  5
97
  8
SLD-0_4
  6
PHANTOM
 62
     7
 10
201.5683635700000025
 20
-139.1554389099999867
 30
0.0
 11
201.5683635700000025
 21
-65.1554389100000009
 31
0.0
  0
LINE
  5
98
  8
SLD-0_4
  6
PHANTOM
 62
     7
 10
219.1561940199999867
 20
-55.2939219599999916
 30
0.0
 11
219.1561940199999867
 21
-62.1554389100000009
 31
0.0
  0
LINE
  5
99
  8
SLD-0_4
  6
PHANTOM
 62
     7
 10
211.56410876999999
 20
-80.9320454300000023
 30
0.0
 11
204.0447666599999934
 21
-80.9320454300000023
 31
0.0
  0
LINE
  5
9A
  8
SLD-0_4
  6
PHANTOM
 62
     7
 10
222.4583490999999924
 20
-104.8291195999999985
 30
0.0
 11
222.4583490999999924
 21
-129.5636968700000011
 31
0.0
  0
LINE
  5
9B
  8
SLD-0_4
  6
PHANTOM
 62
     7
 10
-134.8991300700000124
 20
-57.87726009
 30
0.0
 11
-134.8991300700000124
 21
-57.155571700000003
 31
0.0
  0
LINE
  5
9C
  8
SLD-0_4
  6
PHANTOM
 62
     7
 10
-145.7684845900000141
 20
-66.6217496000000011
 30
0.0
 11
-145.7684845900000141
 21
-67.6554677200000043
 31
0.0
  0
LINE
  5
9D
  8
SLD-0_4
  6
PHANTOM
 62
     7
 10
-161.7365579799999864
 20
-57.155571700000003
 30
0.0
 11
-161.7365579799999864
 21
-57.87726009
 31
0.0
  0
LINE
  5
9E
  8
SLD-0_4
  6
PHANTOM
 62
     7
 10
-143.6062908700000094
 20
-66.6217496000000011
 30
0.0
 11
-143.6062908700000094
 21
-57.87726009
 31
0.0
  0
LINE
  5
9F
  8
SLD-0_4
  6
PHANTOM
 62
     7
 10
-150.8691177499999867
 20
-67.6554677200000043
 30
0.0
 11
-150.8691177499999867
 21
-66.6217496000000011
 31
0.0
  0
LINE
  5
A0
  8
SLD-0_4
  6
PHANTOM
 62
     7
 10
-159.5743642600000101
 20
-57.87726009
 30
0.0
 11
-158.8526758799999925
 21
-57.87726009
 31
0.0
  0
LINE
  5
A1
  8
SLD-0_4
  6
PHANTOM
 62
     7
 10
-174.8188349799999912
 20
-66.6217496000000011
 30
0.0
 11
-175.5405233600000088
 21
-66.6217496000000011
 31
0.0
  0
LINE
  5
A2
  8
SLD-0_4
  6
PHANTOM
 62
     7
 10
-135.6208184600000095
 20
-66.6217496000000011
 30
0.0
 11
-135.6208184600000095
 21
-57.87726009
 31
0.0
  0
LINE
  5
A3
  8
SLD-0_4
  6
PHANTOM
 62
     7
 10
-161.0072124200000019
 20
-66.6217496000000011
 30
0.0
 11
-161.7365579799999864
 21
-66.6217496000000011
 31
0.0
  0
LINE
  5
A4
  8
SLD-0_4
  6
PHANTOM
 62
     7
 10
-150.8691177499999867
 20
-66.6217496000000011
 30
0.0
 11
-151.5908061400000122
 21
-66.6217496000000011
 31
0.0
  0
LINE
  5
A5
  8
SLD-0_4
  6
PHANTOM
 62
     7
 10
204.0045665099999894
 20
-69.3859884200000039
 30
0.0
 11
216.7671566100000007
 21
-69.3859884200000039
 31
0.0
  0
LINE
  5
A6
  8
SLD-0_4
  6
PHANTOM
 62
     7
 10
238.272321919999996
 20
-129.5636968700000011
 30
0.0
 11
238.272321919999996
 21
-104.8291195999999985
 31
0.0
  0
LINE
  5
A7
  8
SLD-0_4
  6
PHANTOM
 62
     7
 10
225.077101650000003
 20
-105.4464790399999998
 30
0.0
 11
225.077101650000003
 21
-109.1515927399999981
 31
0.0
  0
LINE
  5
A8
  8
SLD-0_4
  6
PHANTOM
 62
     7
 10
225.077101650000003
 20
-128.9128373199999942
 30
0.0
 11
232.487329079999995
 21
-128.9128373199999942
 31
0.0
  0
LINE
  5
A9
  8
SLD-0_4
  6
PHANTOM
 62
     7
 10
211.5698516500000039
 20
-71.8898833899999943
 30
0.0
 11
213.7712883700000077
 21
-71.8898833899999943
 31
0.0
  0
LINE
  5
AA
  8
SLD-0_4
  6
PHANTOM
 62
     7
 10
-153.023654300000004
 20
-66.6217496000000011
 30
0.0
 11
-153.7529998599999885
 21
-66.6217496000000011
 31
0.0
  0
LINE
  5
AB
  8
SLD-0_4
  6
PHANTOM
 62
     7
 10
-161.7365579799999864
 20
-57.87726009
 30
0.0
 11
-161.0072124200000019
 21
-57.87726009
 31
0.0
  0
LINE
  5
AC
  8
SLD-0_4
  6
PHANTOM
 62
     7
 10
-142.8846024899999918
 20
-57.87726009
 30
0.0
 11
-142.8846024899999918
 21
-57.155571700000003
 31
0.0
  0
LINE
  5
AD
  8
SLD-0_4
  6
PHANTOM
 62
     7
 10
204.0045665099999894
 20
-81.7063768700000139
 30
0.0
 11
204.0045665099999894
 21
-69.3859884200000039
 31
0.0
  0
LINE
  5
AE
  8
SLD-0_4
  6
PHANTOM
 62
     7
 10
232.487329079999995
 20
-120.2678910300000013
 30
0.0
 11
225.077101650000003
 21
-120.2678910300000013
 31
0.0
  0
LINE
  5
AF
  8
SLD-0_4
  6
PHANTOM
 62
     7
 10
213.7712883700000077
 20
-71.8898833899999943
 30
0.0
 11
213.7808598400000051
 21
-73.7946047300000032
 31
0.0
  0
LINE
  5
B0
  8
SLD-0_4
  6
PHANTOM
 62
     7
 10
-134.8991300700000124
 20
-57.155571700000003
 30
0.0
 11
-177.7046313699999871
 21
-57.155571700000003
 31
0.0
  0
LINE
  5
B1
  8
SLD-0_4
  6
PHANTOM
 62
     7
 10
-161.7365579799999864
 20
-66.6217496000000011
 30
0.0
 11
-161.7365579799999864
 21
-67.6554677200000043
 31
0.0
  0
LINE
  5
B2
  8
SLD-0_4
  6
PHANTOM
 62
     7
 10
-158.8526758799999925
 20
-66.6217496000000011
 30
0.0
 11
-159.5743642600000101
 21
-66.6217496000000011
 31
0.0
  0
LINE
  5
B3
  8
SLD-0_4
  6
PHANTOM
 62
     7
 10
-159.5743642600000101
 20
-66.6217496000000011
 30
0.0
 11
-159.5743642600000101
 21
-57.87726009
 31
0.0
  0
LINE
  5
B4
  8
SLD-0_4
  6
PHANTOM
 62
     7
 10
-174.8188349799999912
 20
-67.6554677200000043
 30
0.0
 11
-174.8188349799999912
 21
-66.6217496000000011
 31
0.0
  0
LINE
  5
B5
  8
SLD-0_4
  6
PHANTOM
 62
     7
 10
216.7671566100000007
 20
-69.3859884200000039
 30
0.0
 11
216.7671566100000007
 21
-81.7063768700000139
 31
0.0
  0
LINE
  5
B6
  8
SLD-0_4
  6
PHANTOM
 62
     7
 10
199.5683635700000025
 20
-142.1554389099999867
 30
0.0
 11
247.5683635700000025
 21
-142.1554389099999867
 31
0.0
  0
LINE
  5
B7
  8
SLD-0_4
  6
PHANTOM
 62
     7
 10
219.1561940199999867
 20
-149.0169558599999959
 30
0.0
 11
219.1561940199999867
 21
-142.1554389099999867
 31
0.0
  0
LINE
  5
B8
  8
SLD-0_4
  6
PHANTOM
 62
     7
 10
225.077101650000003
 20
-123.9710904599999992
 30
0.0
 11
232.487329079999995
 21
-123.9710904599999992
 31
0.0
  0
LINE
  5
B9
  8
SLD-0_4
  6
PHANTOM
 62
     7
 10
232.487329079999995
 20
-128.9128373199999942
 30
0.0
 11
232.487329079999995
 21
-125.2077236100000022
 31
0.0
  0
LINE
  5
BA
  8
SLD-0_4
  6
PHANTOM
 62
     7
 10
213.7808598400000051
 20
-77.2451175000000063
 30
0.0
 11
213.7712883700000077
 21
-79.2034390299999984
 31
0.0
  0
LINE
  5
BB
  8
SLD-0_4
  6
PHANTOM
 62
     7
 10
232.487329079999995
 20
-105.4464790399999998
 30
0.0
 11
225.077101650000003
 21
-105.4464790399999998
 31
0.0
  0
LINE
  5
BC
  8
SLD-0_4
  6
PHANTOM
 62
     7
 10
-153.7529998599999885
 20
-66.6217496000000011
 30
0.0
 11
-153.7529998599999885
 21
-67.6554677200000043
 31
0.0
  0
LINE
  5
BD
  8
SLD-0_4
  6
PHANTOM
 62
     7
 10
-158.8526758799999925
 20
-57.87726009
 30
0.0
 11
-158.8526758799999925
 21
-57.155571700000003
 31
0.0
  0
LINE
  5
BE
  8
SLD-0_4
  6
PHANTOM
 62
     7
 10
207.2387115900000083
 20
-227.1851184299999886
 30
0.0
 11
204.1677297999999894
 21
-227.1851184299999886
 31
0.0
  0
LINE
  5
BF
  8
SLD-0_4
  6
PHANTOM
 62
     7
 10
-135.6208184600000095
 20
-57.87726009
 30
0.0
 11
-134.8991300700000124
 21
-57.87726009
 31
0.0
  0
LINE
  5
C0
  8
SLD-0_4
  6
PHANTOM
 62
     7
 10
-145.7684845900000141
 20
-57.87726009
 30
0.0
 11
-145.0391390300000012
 21
-57.87726009
 31
0.0
  0
LINE
  5
C1
  8
SLD-0_4
  6
PHANTOM
 62
     7
 10
198.9099302099999989
 20
-227.6263965699999972
 30
0.0
 11
198.8600043700000128
 21
-227.7089425100000142
 31
0.0
  0
LINE
  5
C2
  8
SLD-0_4
  6
PHANTOM
 62
     7
 10
210.8723160000000121
 20
-227.1851184299999886
 30
0.0
 11
207.2387115900000083
 21
-227.1851184299999886
 31
0.0
  0
LINE
  5
C3
  8
SLD-0_4
  6
PHANTOM
 62
     7
 10
245.6845905099999925
 20
-227.1851184299999886
 30
0.0
 11
243.3168869900000004
 21
-227.1851184299999886
 31
0.0
  0
LINE
  5
C4
  8
SLD-0_4
  6
PHANTOM
 62
     7
 10
236.6123007900000061
 20
-227.1851184299999886
 30
0.0
 11
232.5567294200000106
 21
-227.1851184299999886
 31
0.0
  0
LINE
  5
C5
  8
SLD-0_4
  6
PHANTOM
 62
     7
 10
201.8000262799999973
 20
-227.1851184299999886
 30
0.0
 11
200.2762566899999968
 21
-227.1851184299999886
 31
0.0
  0
LINE
  5
C6
  8
SLD-0_4
  6
PHANTOM
 62
     7
 10
199.7370766800000013
 20
-227.1851184299999886
 30
0.0
 11
199.6350218800000107
 21
-227.1902841300000091
 31
0.0
  0
LINE
  5
C7
  8
SLD-0_4
  6
PHANTOM
 62
     7
 10
248.3062257100000068
 20
-227.3560251499999936
 30
0.0
 11
248.2240031899999906
 21
-227.3058950699999912
 31
0.0
  0
LINE
  5
C8
  8
SLD-0_4
  6
PHANTOM
 62
     7
 10
248.7397639600000048
 20
-228.0838803100000121
 30
0.0
 11
248.724723019999999
 21
-227.9844366300000047
 31
0.0
  0
LINE
  5
C9
  8
SLD-0_4
  6
PHANTOM
 62
     7
 10
247.2083600999999931
 20
-227.1851184299999886
 30
0.0
 11
245.6845905099999925
 21
-227.1851184299999886
 31
0.0
  0
LINE
  5
CA
  8
SLD-0_4
  6
PHANTOM
 62
     7
 10
248.724723019999999
 20
-227.9844366300000047
 30
0.0
 11
248.7002545699999985
 21
-227.8884644700000024
 31
0.0
  0
LINE
  5
CB
  8
SLD-0_4
  6
PHANTOM
 62
     7
 10
248.4536748699999862
 20
-227.4782445200000041
 30
0.0
 11
248.3829465100000107
 21
-227.4136422800000048
 31
0.0
  0
LINE
  5
CC
  8
SLD-0_4
  6
PHANTOM
 62
     7
 10
248.1367696700000067
 20
-227.2637539899999979
 30
0.0
 11
248.045015879999994
 21
-227.2301038500000061
 31
0.0
  0
LINE
  5
CD
  8
SLD-0_4
  6
PHANTOM
 62
     7
 10
248.3829465100000107
 20
-227.4136422800000048
 30
0.0
 11
248.3062257100000068
 21
-227.3560251499999936
 31
0.0
  0
LINE
  5
CE
  8
SLD-0_4
  6
PHANTOM
 62
     7
 10
222.4463321700000051
 20
-217.1558289099999968
 30
0.0
 11
222.4463321700000051
 21
-227.194689899999986
 31
0.0
  0
LINE
  5
CF
  8
SLD-0_4
  6
PHANTOM
 62
     7
 10
204.1677297999999894
 20
-227.1851184299999886
 30
0.0
 11
201.8000262799999973
 21
-227.1851184299999886
 31
0.0
  0
LINE
  5
D0
  8
SLD-0_4
  6
PHANTOM
 62
     7
 10
248.5751913299999956
 20
-227.6263965699999972
 30
0.0
 11
248.5179200499999865
 21
-227.549329929999999
 31
0.0
  0
LINE
  5
D1
  8
SLD-0_4
  6
PHANTOM
 62
     7
 10
199.5359338600000001
 20
-227.2054465800000003
 30
0.0
 11
199.440311759999986
 21
-227.2301038500000061
 31
0.0
  0
LINE
  5
D2
  8
SLD-0_4
  6
PHANTOM
 62
     7
 10
248.624998000000005
 20
-227.7089425100000142
 30
0.0
 11
248.5751913299999956
 21
-227.6263965699999972
 31
0.0
  0
LINE
  5
D3
  8
SLD-0_4
  6
PHANTOM
 62
     7
 10
240.2459052000000099
 20
-227.1851184299999886
 30
0.0
 11
236.6123007900000061
 21
-227.1851184299999886
 31
0.0
  0
LINE
  5
D4
  8
SLD-0_4
  6
PHANTOM
 62
     7
 10
228.2198467300000004
 20
-227.1851184299999886
 30
0.0
 11
223.7423084000000131
 21
-227.1851184299999886
 31
0.0
  0
LINE
  5
D5
  8
SLD-0_4
  6
PHANTOM
 62
     7
 10
247.949232539999997
 20
-227.2054465800000003
 30
0.0
 11
247.8499103700000035
 21
-227.1902841300000091
 31
0.0
  0
LINE
  5
D6
  8
SLD-0_4
  6
PHANTOM
 62
     7
 10
238.2603049900000087
 20
-227.194689899999986
 30
0.0
 11
238.2603049900000087
 21
-217.1558289099999968
 31
0.0
  0
LINE
  5
D7
  8
SLD-0_4
  6
PHANTOM
 62
     7
 10
198.9673150600000042
 20
-227.549329929999999
 30
0.0
 11
198.9099302099999989
 21
-227.6263965699999972
 31
0.0
  0
LINE
  5
D8
  8
SLD-0_4
  6
PHANTOM
 62
     7
 10
214.9278873799999872
 20
-227.1851184299999886
 30
0.0
 11
210.8723160000000121
 21
-227.1851184299999886
 31
0.0
  0
LINE
  5
D9
  8
SLD-0_4
  6
PHANTOM
 62
     7
 10
199.6350218800000107
 20
-227.1902841300000091
 30
0.0
 11
199.5359338600000001
 21
-227.2054465800000003
 31
0.0
  0
LINE
  5
DA
  8
SLD-0_4
  6
PHANTOM
 62
     7
 10
248.045015879999994
 20
-227.2301038500000061
 30
0.0
 11
247.949232539999997
 21
-227.2054465800000003
 31
0.0
  0
LINE
  5
DB
  8
SLD-0_4
  6
PHANTOM
 62
     7
 10
199.3486547100000053
 20
-227.2637539899999979
 30
0.0
 11
199.2614618499999892
 21
-227.3058950699999912
 31
0.0
  0
LINE
  5
DC
  8
SLD-0_4
  6
PHANTOM
 62
     7
 10
198.8180366699999979
 20
-227.7964657900000134
 30
0.0
 11
198.7845262699999864
 21
-227.8884644700000024
 31
0.0
  0
LINE
  5
DD
  8
SLD-0_4
  6
PHANTOM
 62
     7
 10
243.3168869900000004
 20
-227.1851184299999886
 30
0.0
 11
240.2459052000000099
 21
-227.1851184299999886
 31
0.0
  0
LINE
  5
DE
  8
SLD-0_4
  6
PHANTOM
 62
     7
 10
248.7002545699999985
 20
-227.8884644700000024
 30
0.0
 11
248.6668493200000114
 21
-227.7964657900000134
 31
0.0
  0
LINE
  5
DF
  8
SLD-0_4
  6
PHANTOM
 62
     7
 10
248.6668493200000114
 20
-227.7964657900000134
 30
0.0
 11
248.624998000000005
 21
-227.7089425100000142
 31
0.0
  0
LINE
  5
E0
  8
SLD-0_4
  6
PHANTOM
 62
     7
 10
219.2647700599999894
 20
-227.1851184299999886
 30
0.0
 11
214.9278873799999872
 21
-227.1851184299999886
 31
0.0
  0
LINE
  5
E1
  8
SLD-0_4
  6
PHANTOM
 62
     7
 10
199.1792323200000112
 20
-227.3560251499999936
 30
0.0
 11
199.1024652499999945
 21
-227.4136422800000048
 31
0.0
  0
LINE
  5
E2
  8
SLD-0_4
  6
PHANTOM
 62
     7
 10
247.8499103700000035
 20
-227.1902841300000091
 30
0.0
 11
247.7475401099999885
 21
-227.1851184299999886
 31
0.0
  0
LINE
  5
E3
  8
SLD-0_4
  6
PHANTOM
 62
     7
 10
199.031659789999992
 20
-227.4782445200000041
 30
0.0
 11
198.9673150600000042
 21
-227.549329929999999
 31
0.0
  0
LINE
  5
E4
  8
SLD-0_4
  6
PHANTOM
 62
     7
 10
200.2762566899999968
 20
-227.1851184299999886
 30
0.0
 11
199.7370766800000013
 21
-227.1851184299999886
 31
0.0
  0
LINE
  5
E5
  8
SLD-0_4
  6
PHANTOM
 62
     7
 10
199.2614618499999892
 20
-227.3058950699999912
 30
0.0
 11
199.1792323200000112
 21
-227.3560251499999936
 31
0.0
  0
LINE
  5
E6
  8
SLD-0_4
  6
PHANTOM
 62
     7
 10
199.1024652499999945
 20
-227.4136422800000048
 30
0.0
 11
199.031659789999992
 21
-227.4782445200000041
 31
0.0
  0
LINE
  5
E7
  8
SLD-0_4
  6
PHANTOM
 62
     7
 10
222.4463321700000051
 20
-217.1558289099999968
 30
0.0
 11
238.2603049900000087
 21
-217.1558289099999968
 31
0.0
  0
LINE
  5
E8
  8
SLD-0_4
  6
PHANTOM
 62
     7
 10
248.5179200499999865
 20
-227.549329929999999
 30
0.0
 11
248.4536748699999862
 21
-227.4782445200000041
 31
0.0
  0
LINE
  5
E9
  8
SLD-0_4
  6
PHANTOM
 62
     7
 10
198.8600043700000128
 20
-227.7089425100000142
 30
0.0
 11
198.8180366699999979
 21
-227.7964657900000134
 31
0.0
  0
LINE
  5
EA
  8
SLD-0_4
  6
PHANTOM
 62
     7
 10
198.7845262699999864
 20
-227.8884644700000024
 30
0.0
 11
198.7599722799999995
 21
-227.9844366300000047
 31
0.0
  0
LINE
  5
EB
  8
SLD-0_4
  6
PHANTOM
 62
     7
 10
199.440311759999986
 20
-227.2301038500000061
 30
0.0
 11
199.3486547100000053
 21
-227.2637539899999979
 31
0.0
  0
LINE
  5
EC
  8
SLD-0_4
  6
PHANTOM
 62
     7
 10
247.7475401099999885
 20
-227.1851184299999886
 30
0.0
 11
247.2083600999999931
 21
-227.1851184299999886
 31
0.0
  0
LINE
  5
ED
  8
SLD-0_4
  6
PHANTOM
 62
     7
 10
223.7423084000000131
 20
-227.1851184299999886
 30
0.0
 11
219.2647700599999894
 21
-227.1851184299999886
 31
0.0
  0
LINE
  5
EE
  8
SLD-0_4
  6
PHANTOM
 62
     7
 10
232.5567294200000106
 20
-227.1851184299999886
 30
0.0
 11
228.2198467300000004
 21
-227.1851184299999886
 31
0.0
  0
LINE
  5
EF
  8
SLD-0_4
  6
PHANTOM
 62
     7
 10
198.7448738600000127
 20
-228.0838803100000121
 30
0.0
 11
198.7397301299999981
 21
-228.1862935700000037
 31
0.0
  0
LINE
  5
F0
  8
SLD-0_4
  6
PHANTOM
 62
     7
 10
248.7448866599999917
 20
-228.1862935700000037
 30
0.0
 11
248.7397639600000048
 21
-228.0838803100000121
 31
0.0
  0
LINE
  5
F1
  8
SLD-0_4
  6
PHANTOM
 62
     7
 10
198.7397301299999981
 20
-228.1862935700000037
 30
0.0
 11
198.7397301299999981
 21
-333.1554562000000033
 31
0.0
  0
LINE
  5
F2
  8
SLD-0_4
  6
PHANTOM
 62
     7
 10
198.7599722799999995
 20
-227.9844366300000047
 30
0.0
 11
198.7448738600000127
 21
-228.0838803100000121
 31
0.0
  0
LINE
  5
F3
  8
SLD-0_4
  6
PHANTOM
 62
     7
 10
222.4463321700000051
 20
-227.194689899999986
 30
0.0
 11
238.2603049900000087
 21
-227.194689899999986
 31
0.0
  0
LINE
  5
F4
  8
SLD-0_4
  6
PHANTOM
 62
     7
 10
248.7448866599999917
 20
-333.1554562000000033
 30
0.0
 11
248.7448866599999917
 21
-228.1862935700000037
 31
0.0
  0
LINE
  5
F5
  8
SLD-0_4
  6
PHANTOM
 62
     7
 10
248.2240031899999906
 20
-227.3058950699999912
 30
0.0
 11
248.1367696700000067
 21
-227.2637539899999979
 31
0.0
  0
LINE
  5
F6
  8
SLD-0_4
  6
PHANTOM
 62
     7
 10
-131.2270839500000079
 20
-152.1554389099999867
 30
0.0
 11
-131.2270839500000079
 21
-52.1554389100000009
 31
0.0
  0
LINE
  5
F7
  8
SLD-0_4
  6
PHANTOM
 62
     7
 10
159.7609977600000093
 20
-74.1554389100000009
 30
0.0
 11
141.7609977600000093
 21
-74.1554389100000009
 31
0.0
  0
LINE
  5
F8
  8
SLD-0_4
  6
PHANTOM
 62
     7
 10
-50.2390022399999978
 20
-122.1554389100000009
 30
0.0
 11
-68.2390022400000049
 21
-122.1554389100000009
 31
0.0
  0
LINE
  5
F9
  8
SLD-0_4
  6
PHANTOM
 62
     7
 10
64.7609977599999951
 20
-74.1554389100000009
 30
0.0
 11
46.7609977600000022
 21
-74.1554389100000009
 31
0.0
  0
LINE
  5
FA
  8
SLD-0_4
  6
PHANTOM
 62
     7
 10
141.7609977600000093
 20
-122.1554389100000009
 30
0.0
 11
141.7609977600000093
 21
-74.1554389100000009
 31
0.0
  0
LINE
  5
FB
  8
SLD-0_4
  6
PHANTOM
 62
     7
 10
-50.2390022399999978
 20
-74.1554389100000009
 30
0.0
 11
-68.2390022400000049
 21
-74.1554389100000009
 31
0.0
  0
LINE
  5
FC
  8
SLD-0_4
  6
PHANTOM
 62
     7
 10
-87.2390022400000049
 20
-122.1554389100000009
 30
0.0
 11
-87.2390022400000049
 21
-74.1554389100000009
 31
0.0
  0
LINE
  5
FD
  8
SLD-0_4
  6
PHANTOM
 62
     7
 10
83.7609977599999951
 20
-122.1554389100000009
 30
0.0
 11
65.7609977599999951
 21
-122.1554389100000009
 31
0.0
  0
LINE
  5
FE
  8
SLD-0_4
  6
PHANTOM
 62
     7
 10
121.7609977599999951
 20
-122.1554389100000009
 30
0.0
 11
121.7609977599999951
 21
-74.1554389100000009
 31
0.0
  0
LINE
  5
FF
  8
SLD-0_4
  6
PHANTOM
 62
     7
 10
-49.2390022399999978
 20
-122.1554389100000009
 30
0.0
 11
-49.2390022399999978
 21
-74.1554389100000009
 31
0.0
  0
LINE
  5
100
  8
SLD-0_4
  6
PHANTOM
 62
     7
 10
-30.2390022400000014
 20
-122.1554389100000009
 30
0.0
 11
-30.2390022400000014
 21
-74.1554389100000009
 31
0.0
  0
LINE
  5
101
  8
SLD-0_4
  6
PHANTOM
 62
     7
 10
-88.2390022400000049
 20
-122.1554389100000009
 30
0.0
 11
-106.2390022400000049
 21
-122.1554389100000009
 31
0.0
  0
LINE
  5
102
  8
SLD-0_4
  6
PHANTOM
 62
     7
 10
-69.2390022400000049
 20
-74.1554389100000009
 30
0.0
 11
-87.2390022400000049
 21
-74.1554389100000009
 31
0.0
  0
LINE
  5
103
  8
SLD-0_4
  6
PHANTOM
 62
     7
 10
-50.2390022399999978
 20
-122.1554389100000009
 30
0.0
 11
-50.2390022399999978
 21
-74.1554389100000009
 31
0.0
  0
LINE
  5
104
  8
SLD-0_4
  6
PHANTOM
 62
     7
 10
-68.2390022400000049
 20
-122.1554389100000009
 30
0.0
 11
-68.2390022400000049
 21
-74.1554389100000009
 31
0.0
  0
LINE
  5
105
  8
SLD-0_4
  6
PHANTOM
 62
     7
 10
-31.2390022400000014
 20
-74.1554389100000009
 30
0.0
 11
-49.2390022399999978
 21
-74.1554389100000009
 31
0.0
  0
LINE
  5
106
  8
SLD-0_4
  6
PHANTOM
 62
     7
 10
-107.2390022400000049
 20
-74.1554389100000009
 30
0.0
 11
-125.2390022400000049
 21
-74.1554389100000009
 31
0.0
  0
LINE
  5
107
  8
SLD-0_4
  6
PHANTOM
 62
     7
 10
159.7609977600000093
 20
-122.1554389100000009
 30
0.0
 11
141.7609977600000093
 21
-122.1554389100000009
 31
0.0
  0
LINE
  5
108
  8
SLD-0_4
  6
PHANTOM
 62
     7
 10
103.7609977599999951
 20
-122.1554389100000009
 30
0.0
 11
103.7609977599999951
 21
-74.1554389100000009
 31
0.0
  0
LINE
  5
109
  8
SLD-0_4
  6
PHANTOM
 62
     7
 10
-69.2390022400000049
 20
-122.1554389100000009
 30
0.0
 11
-69.2390022400000049
 21
-74.1554389100000009
 31
0.0
  0
LINE
  5
10A
  8
SLD-0_4
  6
PHANTOM
 62
     7
 10
27.7609977599999986
 20
-122.1554389100000009
 30
0.0
 11
27.7609977599999986
 21
-74.1554389100000009
 31
0.0
  0
LINE
  5
10B
  8
SLD-0_4
  6
PHANTOM
 62
     7
 10
122.7609977599999951
 20
-122.1554389100000009
 30
0.0
 11
122.7609977599999951
 21
-74.1554389100000009
 31
0.0
  0
LINE
  5
10C
  8
SLD-0_4
  6
PHANTOM
 62
     7
 10
178.7609977600000093
 20
-122.1554389100000009
 30
0.0
 11
160.7609977600000093
 21
-122.1554389100000009
 31
0.0
  0
LINE
  5
10D
  8
SLD-0_4
  6
PHANTOM
 62
     7
 10
121.7609977599999951
 20
-74.1554389100000009
 30
0.0
 11
103.7609977599999951
 21
-74.1554389100000009
 31
0.0
  0
LINE
  5
10E
  8
SLD-0_4
  6
PHANTOM
 62
     7
 10
-107.2390022400000049
 20
-122.1554389100000009
 30
0.0
 11
-107.2390022400000049
 21
-74.1554389100000009
 31
0.0
  0
LINE
  5
10F
  8
SLD-0_4
  6
PHANTOM
 62
     7
 10
-12.2390022399999996
 20
-122.1554389100000009
 30
0.0
 11
-30.2390022400000014
 21
-122.1554389100000009
 31
0.0
  0
LINE
  5
110
  8
SLD-0_4
  6
PHANTOM
 62
     7
 10
178.7609977600000093
 20
-122.1554389100000009
 30
0.0
 11
178.7609977600000093
 21
-74.1554389100000009
 31
0.0
  0
LINE
  5
111
  8
SLD-0_4
  6
PHANTOM
 62
     7
 10
65.7609977599999951
 20
-122.1554389100000009
 30
0.0
 11
65.7609977599999951
 21
-74.1554389100000009
 31
0.0
  0
LINE
  5
112
  8
SLD-0_4
  6
PHANTOM
 62
     7
 10
160.7609977600000093
 20
-122.1554389100000009
 30
0.0
 11
160.7609977600000093
 21
-74.1554389100000009
 31
0.0
  0
LINE
  5
113
  8
SLD-0_4
  6
PHANTOM
 62
     7
 10
-106.2390022400000049
 20
-122.1554389100000009
 30
0.0
 11
-106.2390022400000049
 21
-74.1554389100000009
 31
0.0
  0
LINE
  5
114
  8
SLD-0_4
  6
PHANTOM
 62
     7
 10
-88.2390022400000049
 20
-74.1554389100000009
 30
0.0
 11
-106.2390022400000049
 21
-74.1554389100000009
 31
0.0
  0
LINE
  5
115
  8
SLD-0_4
  6
PHANTOM
 62
     7
 10
178.7609977600000093
 20
-74.1554389100000009
 30
0.0
 11
160.7609977600000093
 21
-74.1554389100000009
 31
0.0
  0
LINE
  5
116
  8
SLD-0_4
  6
PHANTOM
 62
     7
 10
6.7609977600000004
 20
-122.1554389100000009
 30
0.0
 11
6.7609977600000004
 21
-74.1554389100000009
 31
0.0
  0
LINE
  5
117
  8
SLD-0_4
  6
PHANTOM
 62
     7
 10
140.7609977600000093
 20
-74.1554389100000009
 30
0.0
 11
122.7609977599999951
 21
-74.1554389100000009
 31
0.0
  0
LINE
  5
118
  8
SLD-0_4
  6
PHANTOM
 62
     7
 10
102.7609977599999951
 20
-74.1554389100000009
 30
0.0
 11
84.7609977599999951
 21
-74.1554389100000009
 31
0.0
  0
LINE
  5
119
  8
SLD-0_4
  6
PHANTOM
 62
     7
 10
84.7609977599999951
 20
-122.1554389100000009
 30
0.0
 11
84.7609977599999951
 21
-74.1554389100000009
 31
0.0
  0
LINE
  5
11A
  8
SLD-0_4
  6
PHANTOM
 62
     7
 10
-107.2390022400000049
 20
-122.1554389100000009
 30
0.0
 11
-125.2390022400000049
 21
-122.1554389100000009
 31
0.0
  0
LINE
  5
11B
  8
SLD-0_4
  6
PHANTOM
 62
     7
 10
140.7609977600000093
 20
-122.1554389100000009
 30
0.0
 11
140.7609977600000093
 21
-74.1554389100000009
 31
0.0
  0
LINE
  5
11C
  8
SLD-0_4
  6
PHANTOM
 62
     7
 10
-125.2390022400000049
 20
-122.1554389100000009
 30
0.0
 11
-125.2390022400000049
 21
-74.1554389100000009
 31
0.0
  0
LINE
  5
11D
  8
SLD-0_4
  6
PHANTOM
 62
     7
 10
64.7609977599999951
 20
-122.1554389100000009
 30
0.0
 11
46.7609977600000022
 21
-122.1554389100000009
 31
0.0
  0
LINE
  5
11E
  8
SLD-0_4
  6
PHANTOM
 62
     7
 10
25.7609977599999986
 20
-122.1554389100000009
 30
0.0
 11
25.7609977599999986
 21
-74.1554389100000009
 31
0.0
  0
LINE
  5
11F
  8
SLD-0_4
  6
PHANTOM
 62
     7
 10
159.7609977600000093
 20
-122.1554389100000009
 30
0.0
 11
159.7609977600000093
 21
-74.1554389100000009
 31
0.0
  0
LINE
  5
120
  8
SLD-0_4
  6
PHANTOM
 62
     7
 10
83.7609977599999951
 20
-122.1554389100000009
 30
0.0
 11
83.7609977599999951
 21
-74.1554389100000009
 31
0.0
  0
LINE
  5
121
  8
SLD-0_4
  6
PHANTOM
 62
     7
 10
25.7609977599999986
 20
-74.1554389100000009
 30
0.0
 11
7.7609977600000004
 21
-74.1554389100000009
 31
0.0
  0
LINE
  5
122
  8
SLD-0_4
  6
PHANTOM
 62
     7
 10
-88.2390022400000049
 20
-122.1554389100000009
 30
0.0
 11
-88.2390022400000049
 21
-74.1554389100000009
 31
0.0
  0
LINE
  5
123
  8
SLD-0_4
  6
PHANTOM
 62
     7
 10
45.7609977600000022
 20
-122.1554389100000009
 30
0.0
 11
45.7609977600000022
 21
-74.1554389100000009
 31
0.0
  0
LINE
  5
124
  8
SLD-0_4
  6
PHANTOM
 62
     7
 10
7.7609977600000004
 20
-122.1554389100000009
 30
0.0
 11
7.7609977600000004
 21
-74.1554389100000009
 31
0.0
  0
LINE
  5
125
  8
SLD-0_4
  6
PHANTOM
 62
     7
 10
6.7609977600000004
 20
-74.1554389100000009
 30
0.0
 11
-11.2390022399999996
 21
-74.1554389100000009
 31
0.0
  0
LINE
  5
126
  8
SLD-0_4
  6
PHANTOM
 62
     7
 10
-12.2390022399999996
 20
-122.1554389100000009
 30
0.0
 11
-12.2390022399999996
 21
-74.1554389100000009
 31
0.0
  0
LINE
  5
127
  8
SLD-0_4
  6
PHANTOM
 62
     7
 10
45.7609977600000022
 20
-122.1554389100000009
 30
0.0
 11
27.7609977599999986
 21
-122.1554389100000009
 31
0.0
  0
LINE
  5
128
  8
SLD-0_4
  6
PHANTOM
 62
     7
 10
46.7609977600000022
 20
-122.1554389100000009
 30
0.0
 11
46.7609977600000022
 21
-74.1554389100000009
 31
0.0
  0
LINE
  5
129
  8
SLD-0_4
  6
PHANTOM
 62
     7
 10
25.7609977599999986
 20
-122.1554389100000009
 30
0.0
 11
7.7609977600000004
 21
-122.1554389100000009
 31
0.0
  0
LINE
  5
12A
  8
SLD-0_4
  6
PHANTOM
 62
     7
 10
102.7609977599999951
 20
-122.1554389100000009
 30
0.0
 11
102.7609977599999951
 21
-74.1554389100000009
 31
0.0
  0
LINE
  5
12B
  8
SLD-0_4
  6
PHANTOM
 62
     7
 10
-11.2390022399999996
 20
-122.1554389100000009
 30
0.0
 11
-11.2390022399999996
 21
-74.1554389100000009
 31
0.0
  0
LINE
  5
12C
  8
SLD-0_4
  6
PHANTOM
 62
     7
 10
-31.2390022400000014
 20
-122.1554389100000009
 30
0.0
 11
-49.2390022399999978
 21
-122.1554389100000009
 31
0.0
  0
LINE
  5
12D
  8
SLD-0_4
  6
PHANTOM
 62
     7
 10
83.7609977599999951
 20
-74.1554389100000009
 30
0.0
 11
65.7609977599999951
 21
-74.1554389100000009
 31
0.0
  0
LINE
  5
12E
  8
SLD-0_4
  6
PHANTOM
 62
     7
 10
-31.2390022400000014
 20
-122.1554389100000009
 30
0.0
 11
-31.2390022400000014
 21
-74.1554389100000009
 31
0.0
  0
LINE
  5
12F
  8
SLD-0_4
  6
PHANTOM
 62
     7
 10
-12.2390022399999996
 20
-74.1554389100000009
 30
0.0
 11
-30.2390022400000014
 21
-74.1554389100000009
 31
0.0
  0
LINE
  5
130
  8
SLD-0_4
  6
PHANTOM
 62
     7
 10
6.7609977600000004
 20
-122.1554389100000009
 30
0.0
 11
-11.2390022399999996
 21
-122.1554389100000009
 31
0.0
  0
LINE
  5
131
  8
SLD-0_4
  6
PHANTOM
 62
     7
 10
140.7609977600000093
 20
-122.1554389100000009
 30
0.0
 11
122.7609977599999951
 21
-122.1554389100000009
 31
0.0
  0
LINE
  5
132
  8
SLD-0_4
  6
PHANTOM
 62
     7
 10
102.7609977599999951
 20
-122.1554389100000009
 30
0.0
 11
84.7609977599999951
 21
-122.1554389100000009
 31
0.0
  0
LINE
  5
133
  8
SLD-0_4
  6
PHANTOM
 62
     7
 10
121.7609977599999951
 20
-122.1554389100000009
 30
0.0
 11
103.7609977599999951
 21
-122.1554389100000009
 31
0.0
  0
LINE
  5
134
  8
SLD-0_4
  6
PHANTOM
 62
     7
 10
64.7609977599999951
 20
-122.1554389100000009
 30
0.0
 11
64.7609977599999951
 21
-74.1554389100000009
 31
0.0
  0
LINE
  5
135
  8
SLD-0_4
  6
PHANTOM
 62
     7
 10
-69.2390022400000049
 20
-122.1554389100000009
 30
0.0
 11
-87.2390022400000049
 21
-122.1554389100000009
 31
0.0
  0
LINE
  5
136
  8
SLD-0_4
  6
PHANTOM
 62
     7
 10
45.7609977600000022
 20
-74.1554389100000009
 30
0.0
 11
27.7609977599999986
 21
-74.1554389100000009
 31
0.0
  0
LINE
  5
137
  8
SLD-0_4
  6
PHANTOM
 62
     7
 10
175.9308219199999996
 20
-262.1558289100000252
 30
0.0
 11
173.6331684399999915
 21
-262.1558289100000252
 31
0.0
  0
LINE
  5
138
  8
SLD-0_4
  6
PHANTOM
 62
     7
 10
-125.2390022400000049
 20
-263.8558289100000138
 30
0.0
 11
-125.2390022400000049
 21
-333.1554562000000033
 31
0.0
  0
LINE
  5
139
  8
SLD-0_4
  6
PHANTOM
 62
     7
 10
-107.2390022400000049
 20
-263.8558289100000138
 30
0.0
 11
-107.2390022400000049
 21
-308.5742629700000066
 31
0.0
  0
LINE
  5
13A
  8
SLD-0_4
  6
PHANTOM
 62
     7
 10
178.7609977600000093
 20
-263.8558289100000138
 30
0.0
 11
160.7609977600000093
 21
-263.8558289100000138
 31
0.0
  0
LINE
  5
13B
  8
SLD-0_4
  6
PHANTOM
 62
     7
 10
-113.8668315599999943
 20
-263.8765783700000043
 30
0.0
 11
-113.8668315599999943
 21
-263.6558289100000252
 31
0.0
  0
LINE
  5
13C
  8
SLD-0_4
  6
PHANTOM
 62
     7
 10
172.1331684399999915
 20
-263.8765783700000043
 30
0.0
 11
172.1331684399999915
 21
-263.6558289100000252
 31
0.0
  0
LINE
  5
13D
  8
SLD-0_4
  6
PHANTOM
 62
     7
 10
-108.5691780800000004
 20
-263.8765783700000043
 30
0.0
 11
-108.5691780800000004
 21
-263.6558289100000252
 31
0.0
  0
LINE
  5
13E
  8
SLD-0_4
  6
PHANTOM
 62
     7
 10
-107.2390022400000049
 20
-263.8558289100000138
 30
0.0
 11
-125.2390022400000049
 21
-263.8558289100000138
 31
0.0
  0
LINE
  5
13F
  8
SLD-0_4
  6
PHANTOM
 62
     7
 10
177.4308219199999996
 20
-263.8765783700000043
 30
0.0
 11
177.4308219199999996
 21
-263.6558289100000252
 31
0.0
  0
LINE
  5
140
  8
SLD-0_4
  6
PHANTOM
 62
     7
 10
178.7609977600000093
 20
-263.8558289100000138
 30
0.0
 11
178.7609977600000093
 21
-333.1554562000000033
 31
0.0
  0
LINE
  5
141
  8
SLD-0_4
  6
PHANTOM
 62
     7
 10
160.7609977600000093
 20
-263.8558289100000138
 30
0.0
 11
160.7609977600000093
 21
-308.5742629700000066
 31
0.0
  0
LINE
  5
142
  8
SLD-0_4
  6
PHANTOM
 62
     7
 10
-110.0691780800000004
 20
-262.1558289100000252
 30
0.0
 11
-112.3668315599999943
 21
-262.1558289100000252
 31
0.0
  0
CIRCLE
  5
143
  8
SLD-0_4
  6
PHANTOM
 62
     7
 10
-164.2799697199999969
 20
-62.3073568100000017
 30
0.0
 40
2.6164181399999991
  0
CIRCLE
  5
144
  8
SLD-0_4
  6
PHANTOM
 62
     7
 10
-156.296411599999999
 20
-62.3073568100000017
 30
0.0
 40
2.6164181399999991
  0
CIRCLE
  5
145
  8
SLD-0_4
  6
PHANTOM
 62
     7
 10
-148.3118963299999962
 20
-62.3073568100000017
 30
0.0
 40
2.6164181399999991
  0
CIRCLE
  5
146
  8
SLD-0_4
  6
PHANTOM
 62
     7
 10
-140.3283382099999983
 20
-62.3073568100000017
 30
0.0
 40
2.6164181399999991
  0
ARC
  5
147
  8
SLD-0_4
  6
PHANTOM
 62
     7
 10
247.5683635700000025
 20
-141.1554389099999867
 30
0.0
 40
1.0
 50
270.0
 51
360.0
  0
CIRCLE
  5
148
  8
SLD-0_4
  6
PHANTOM
 62
     7
 10
223.5683635700000025
 20
-145.5980032999999878
 30
0.0
 40
2.50017756
  0
ARC
  5
149
  8
SLD-0_4
  6
PHANTOM
 62
     7
 10
247.5683635700000025
 20
-63.1554389100000009
 30
0.0
 40
1.0
 50
0.0
 51
90.0
  0
ARC
  5
14A
  8
SLD-0_4
  6
PHANTOM
 62
     7
 10
199.5683635700000025
 20
-141.1554389099999867
 30
0.0
 40
1.0
 50
180.0
 51
270.0
  0
CIRCLE
  5
14B
  8
SLD-0_4
  6
PHANTOM
 62
     7
 10
223.5683635700000025
 20
-58.7128745300000006
 30
0.0
 40
2.50017756
  0
ARC
  5
14C
  8
SLD-0_4
  6
PHANTOM
 62
     7
 10
199.5683635700000025
 20
-63.1554389100000009
 30
0.0
 40
1.0
 50
90.0
 51
180.0
  0
ARC
  5
14D
  8
SLD-0_4
  6
PHANTOM
 62
     7
 10
175.9308219199999996
 20
-263.6558289100000252
 30
0.0
 40
1.5
 50
0.0
 51
90.0
  0
ARC
  5
14E
  8
SLD-0_4
  6
PHANTOM
 62
     7
 10
-110.0691780800000004
 20
-263.6558289100000252
 30
0.0
 40
1.5
 50
0.0
 51
90.0
  0
ARC
  5
14F
  8
SLD-0_4
  6
PHANTOM
 62
     7
 10
173.6331684399999915
 20
-263.6558289100000252
 30
0.0
 40
1.5
 50
90.0
 51
180.0
  0
ARC
  5
150
  8
SLD-0_4
  6
PHANTOM
 62
     7
 10
-112.3668315599999943
 20
-263.6558289100000252
 30
0.0
 40
1.5
 50
90.0
 51
180.0
  0
LINE
  5
151
  8
SLD-0_4
  6
CONTINUOUS
 62
     7
 10
-51.974530399999999
 20
-168.6033661699999016
 30
0.0
 11
-52.0243926599999895
 21
-168.603573219999987
 31
0.0
  0
LINE
  5
152
  8
SLD-0_4
  6
CONTINUOUS
 62
     7
 10
-52.1033079700000101
 20
-168.5712641000000076
 30
0.0
 11
-52.1333525399999971
 21
-168.5436827899999912
 31
0.0
  0
LINE
  5
153
  8
SLD-0_4
  6
CONTINUOUS
 62
     7
 10
-68.603712630000004
 20
-141.4061184299999923
 30
0.0
 11
-68.603712630000004
 21
-130.655773019999998
 31
0.0
  0
LINE
  5
154
  8
SLD-0_4
  6
CONTINUOUS
 62
     7
 10
165.222633309999992
 20
-152.155450519999988
 30
0.0
 11
165.222633309999992
 21
-141.4061184299999923
 31
0.0
  0
LINE
  5
155
  8
SLD-0_4
  6
CONTINUOUS
 62
     7
 10
152.3088429599999927
 20
-141.4061184299999923
 30
0.0
 11
152.3088429599999927
 21
-130.655773019999998
 31
0.0
  0
LINE
  5
156
  8
SLD-0_4
  6
CONTINUOUS
 62
     7
 10
-51.2081536299999982
 20
-162.908612010000013
 30
0.0
 11
-51.1919535999999979
 21
-163.1010948599999892
 31
0.0
  0
LINE
  5
157
  8
SLD-0_4
  6
CONTINUOUS
 62
     7
 10
-59.9965456999999986
 20
-141.4061184299999923
 30
0.0
 11
-59.9965456999999986
 21
-130.655773019999998
 31
0.0
  0
LINE
  5
158
  8
SLD-0_4
  6
CONTINUOUS
 62
     7
 10
0.2678093
 20
-141.4061184299999923
 30
0.0
 11
0.2678093
 21
-130.655773019999998
 31
0.0
  0
LINE
  5
159
  8
SLD-0_4
  6
CONTINUOUS
 62
     7
 10
100.6557081699999969
 20
-141.4061184299999923
 30
0.0
 11
100.6557081699999969
 21
-130.655773019999998
 31
0.0
  0
LINE
  5
15A
  8
SLD-0_4
  6
CONTINUOUS
 62
     7
 10
-51.4984599000000003
 20
-168.2176137200000028
 30
0.0
 11
-51.6013429200000004
 21
-168.3400179600000115
 31
0.0
  0
LINE
  5
15B
  8
SLD-0_4
  6
CONTINUOUS
 62
     7
 10
-51.1919535999999979
 20
-163.1010948599999892
 30
0.0
 11
-51.1722781799999922
 21
-163.3547375800000054
 31
0.0
  0
LINE
  5
15C
  8
SLD-0_4
  6
CONTINUOUS
 62
     7
 10
276.2609977600000093
 20
-130.6554389099999867
 30
0.0
 11
278.7609977600000093
 21
-133.1554389099999867
 31
0.0
  0
LINE
  5
15D
  8
SLD-0_4
  6
CONTINUOUS
 62
     7
 10
276.2609977600000093
 20
-152.1554389099999867
 30
0.0
 11
-49.4589981600000002
 21
-152.1554389099999867
 31
0.0
  0
LINE
  5
15E
  8
SLD-0_4
  6
CONTINUOUS
 62
     7
 10
-67.4951370900000001
 20
-146.6561457299999915
 30
0.0
 11
-52.4969409899999988
 21
-146.6561457299999915
 31
0.0
  0
LINE
  5
15F
  8
SLD-0_4
  6
CONTINUOUS
 62
     7
 10
-51.7773761600000029
 20
-168.5076895599999887
 30
0.0
 11
-51.8515178999999904
 21
-168.5578917699999977
 31
0.0
  0
LINE
  5
160
  8
SLD-0_4
  6
CONTINUOUS
 62
     7
 10
-51.1294349499999896
 20
-164.0089642599999991
 30
0.0
 11
-51.1097340099999897
 21
-164.3912790400000006
 31
0.0
  0
LINE
  5
161
  8
SLD-0_4
  6
CONTINUOUS
 62
     7
 10
-67.4951370900000001
 20
-152.1554389099999867
 30
0.0
 11
-198.7390022399999054
 21
-152.1554389099999867
 31
0.0
  0
LINE
  5
162
  8
SLD-0_4
  6
CONTINUOUS
 62
     7
 10
148.0062728199999924
 20
-152.155450519999988
 30
0.0
 11
148.0062728199999924
 21
-141.4061184299999923
 31
0.0
  0
LINE
  5
163
  8
SLD-0_4
  6
CONTINUOUS
 62
     7
 10
-72.9072960900000027
 20
-152.155450519999988
 30
0.0
 11
-72.9072960900000027
 21
-141.4061184299999923
 31
0.0
  0
LINE
  5
164
  8
SLD-0_4
  6
CONTINUOUS
 62
     7
 10
278.7609977600000093
 20
-149.6554389099999867
 30
0.0
 11
278.7609977600000093
 21
-133.1554389099999867
 31
0.0
  0
LINE
  5
165
  8
SLD-0_4
  6
CONTINUOUS
 62
     7
 10
143.699649380000011
 20
-141.4061184299999923
 30
0.0
 11
143.699649380000011
 21
-130.655773019999998
 31
0.0
  0
LINE
  5
166
  8
SLD-0_4
  6
CONTINUOUS
 62
     7
 10
61.9143370999999973
 20
-152.155450519999988
 30
0.0
 11
61.9143370999999973
 21
-141.4061184299999923
 31
0.0
  0
LINE
  5
167
  8
SLD-0_4
  6
CONTINUOUS
 62
     7
 10
126.4832888899999972
 20
-141.4061184299999923
 30
0.0
 11
126.4832888899999972
 21
-130.655773019999998
 31
0.0
  0
LINE
  5
168
  8
SLD-0_4
  6
CONTINUOUS
 62
     7
 10
94.0193093500000145
 20
-52.1496860199999901
 30
0.0
 11
94.0193093500000145
 21
-64.4700744900000018
 31
0.0
  0
LINE
  5
169
  8
SLD-0_4
  6
CONTINUOUS
 62
     7
 10
-52.4969409899999988
 20
-169.137733379999986
 30
0.0
 11
-67.4951370900000001
 21
-169.137733379999986
 31
0.0
  0
LINE
  5
16A
  8
SLD-0_4
  6
CONTINUOUS
 62
     7
 10
173.8318268900000021
 20
-141.4061184299999923
 30
0.0
 11
36.0887830300000019
 21
-141.4061184299999923
 31
0.0
  0
LINE
  5
16B
  8
SLD-0_4
  6
CONTINUOUS
 62
     7
 10
-25.5597714200000006
 20
-141.4061184299999923
 30
0.0
 11
-25.5597714200000006
 21
-130.655773019999998
 31
0.0
  0
LINE
  5
16C
  8
SLD-0_4
  6
CONTINUOUS
 62
     7
 10
173.833853529999999
 20
-141.4061184299999923
 30
0.0
 11
169.5292567500000018
 21
-141.4061184299999923
 31
0.0
  0
LINE
  5
16D
  8
SLD-0_4
  6
CONTINUOUS
 62
     7
 10
-85.8220997699999941
 20
-141.4061184299999923
 30
0.0
 11
-85.8220997699999941
 21
-130.655773019999998
 31
0.0
  0
LINE
  5
16E
  8
SLD-0_4
  6
CONTINUOUS
 62
     7
 10
-52.0243926599999895
 20
-168.603573219999987
 30
0.0
 11
-52.0671532599999978
 21
-168.5920500400000037
 31
0.0
  0
LINE
  5
16F
  8
SLD-0_4
  6
CONTINUOUS
 62
     7
 10
-16.94855119999999
 20
-141.4061184299999923
 30
0.0
 11
-16.94855119999999
 21
-130.655773019999998
 31
0.0
  0
LINE
  5
170
  8
SLD-0_4
  6
CONTINUOUS
 62
     7
 10
-81.517502989999997
 20
-152.155450519999988
 30
0.0
 11
-81.517502989999997
 21
-141.4061184299999923
 31
0.0
  0
LINE
  5
171
  8
SLD-0_4
  6
CONTINUOUS
 62
     7
 10
278.7609977600000093
 20
-121.1554389100000009
 30
0.0
 11
278.7609977600000093
 21
-83.1554389100000009
 31
0.0
  0
LINE
  5
172
  8
SLD-0_4
  6
CONTINUOUS
 62
     7
 10
49.0966002099999983
 20
-52.1496860199999901
 30
0.0
 11
49.0966002099999983
 21
-64.4700744900000018
 31
0.0
  0
LINE
  5
173
  8
SLD-0_4
  6
CONTINUOUS
 62
     7
 10
-198.7390022399999054
 20
-130.6554389099999867
 30
0.0
 11
-201.2390022399999907
 21
-133.1554389099999867
 31
0.0
  0
LINE
  5
174
  8
SLD-0_4
  6
CONTINUOUS
 62
     7
 10
-51.2191448399999985
 20
-162.7864236100000142
 30
0.0
 11
-51.2081536299999982
 21
-162.908612010000013
 31
0.0
  0
LINE
  5
175
  8
SLD-0_4
  6
CONTINUOUS
 62
     7
 10
40.393379809999999
 20
-141.4061184299999923
 30
0.0
 11
40.393379809999999
 21
-130.655773019999998
 31
0.0
  0
LINE
  5
176
  8
SLD-0_4
  6
CONTINUOUS
 62
     7
 10
-12.6459810600000004
 20
-152.155450519999988
 30
0.0
 11
-12.6459810600000004
 21
-141.4061184299999923
 31
0.0
  0
LINE
  5
177
  8
SLD-0_4
  6
CONTINUOUS
 62
     7
 10
268.7609977600000093
 20
-73.6554389100000009
 30
0.0
 11
276.2609977600000093
 21
-73.6554389100000009
 31
0.0
  0
LINE
  5
178
  8
SLD-0_4
  6
CONTINUOUS
 62
     7
 10
276.2609977600000093
 20
-80.6554389100000009
 30
0.0
 11
278.7609977600000093
 21
-83.1554389100000009
 31
0.0
  0
LINE
  5
179
  8
SLD-0_4
  6
CONTINUOUS
 62
     7
 10
22.4802731199999997
 20
-64.4700744900000018
 30
0.0
 11
-121.2754589999999979
 21
-64.4700744900000018
 31
0.0
  0
LINE
  5
17A
  8
SLD-0_4
  6
CONTINUOUS
 62
     7
 10
156.9133993000000089
 20
-52.1496860199999901
 30
0.0
 11
156.9133993000000089
 21
-64.4700744900000018
 31
0.0
  0
LINE
  5
17B
  8
SLD-0_4
  6
CONTINUOUS
 62
     7
 10
4.5127208999999997
 20
-52.1496860199999901
 30
0.0
 11
4.5127208999999997
 21
-64.4700744900000018
 31
0.0
  0
LINE
  5
17C
  8
SLD-0_4
  6
CONTINUOUS
 62
     7
 10
174.8828658099999984
 20
-52.1496860199999901
 30
0.0
 11
174.8828658099999984
 21
-64.4700744900000018
 31
0.0
  0
LINE
  5
17D
  8
SLD-0_4
  6
CONTINUOUS
 62
     7
 10
-198.7390022399999054
 20
-73.6554389100000009
 30
0.0
 11
-201.2390022399999907
 21
-71.1554389100000009
 31
0.0
  0
LINE
  5
17E
  8
SLD-0_4
  6
CONTINUOUS
 62
     7
 10
-198.7390022399999054
 20
-123.6554389100000009
 30
0.0
 11
-201.2390022399999907
 21
-121.1554389100000009
 31
0.0
  0
LINE
  5
17F
  8
SLD-0_4
  6
CONTINUOUS
 62
     7
 10
-198.7390022399999054
 20
-152.1554389099999867
 30
0.0
 11
-201.2390022399999907
 21
-149.6554389099999867
 31
0.0
  0
LINE
  5
180
  8
SLD-0_4
  6
CONTINUOUS
 62
     7
 10
117.8740953100000013
 20
-141.4061184299999923
 30
0.0
 11
117.8740953100000013
 21
-130.655773019999998
 31
0.0
  0
LINE
  5
181
  8
SLD-0_4
  6
CONTINUOUS
 62
     7
 10
31.7821595899999991
 20
-152.155450519999988
 30
0.0
 11
31.7821595899999991
 21
-141.4061184299999923
 31
0.0
  0
LINE
  5
182
  8
SLD-0_4
  6
CONTINUOUS
 62
     7
 10
4.5724060900000003
 20
-152.155450519999988
 30
0.0
 11
4.5724060900000003
 21
-141.4061184299999923
 31
0.0
  0
LINE
  5
183
  8
SLD-0_4
  6
CONTINUOUS
 62
     7
 10
-21.2531479800000014
 20
-152.155450519999988
 30
0.0
 11
-21.2531479800000014
 21
-141.4061184299999923
 31
0.0
  0
LINE
  5
184
  8
SLD-0_4
  6
CONTINUOUS
 62
     7
 10
268.7609977600000093
 20
-80.6554389100000009
 30
0.0
 11
276.2609977600000093
 21
-80.6554389100000009
 31
0.0
  0
LINE
  5
185
  8
SLD-0_4
  6
CONTINUOUS
 62
     7
 10
129.9582423800000015
 20
-52.1496860199999901
 30
0.0
 11
129.9582423800000015
 21
-64.4700744900000018
 31
0.0
  0
LINE
  5
186
  8
SLD-0_4
  6
CONTINUOUS
 62
     7
 10
22.4802731199999997
 20
-52.1496860199999901
 30
0.0
 11
22.4802731199999997
 21
-64.4700744900000018
 31
0.0
  0
LINE
  5
187
  8
SLD-0_4
  6
CONTINUOUS
 62
     7
 10
-49.4589981600000002
 20
-152.0500649100000032
 30
0.0
 11
-49.4589981600000002
 21
-162.5075599300000135
 31
0.0
  0
LINE
  5
188
  8
SLD-0_4
  6
CONTINUOUS
 62
     7
 10
169.5292567500000018
 20
-141.4061184299999923
 30
0.0
 11
169.5292567500000018
 21
-130.655773019999998
 31
0.0
  0
LINE
  5
189
  8
SLD-0_4
  6
CONTINUOUS
 62
     7
 10
-52.2092746100000014
 20
-168.3902059899999983
 30
0.0
 11
-52.2130691500000026
 21
-168.3736685499999908
 31
0.0
  0
LINE
  5
18A
  8
SLD-0_4
  6
CONTINUOUS
 62
     7
 10
-52.2023444499999982
 20
-168.414752639999989
 30
0.0
 11
-52.2092746100000014
 21
-168.3902059899999983
 31
0.0
  0
LINE
  5
18B
  8
SLD-0_4
  6
CONTINUOUS
 62
     7
 10
-120.2588740599999966
 20
-130.655773019999998
 30
0.0
 11
-120.2588740599999966
 21
-141.4061184299999923
 31
0.0
  0
LINE
  5
18C
  8
SLD-0_4
  6
CONTINUOUS
 62
     7
 10
57.6097403099999923
 20
-141.4061184299999923
 30
0.0
 11
57.6097403099999923
 21
-130.655773019999998
 31
0.0
  0
LINE
  5
18D
  8
SLD-0_4
  6
CONTINUOUS
 62
     7
 10
-49.4589981600000002
 20
-162.5075599300000135
 30
0.0
 11
-52.4969409899999988
 21
-162.5075599300000135
 31
0.0
  0
LINE
  5
18E
  8
SLD-0_4
  6
CONTINUOUS
 62
     7
 10
87.7419178100000039
 20
-152.155450519999988
 30
0.0
 11
87.7419178100000039
 21
-141.4061184299999923
 31
0.0
  0
LINE
  5
18F
  8
SLD-0_4
  6
CONTINUOUS
 62
     7
 10
21.7907932299999985
 20
-141.4061184299999923
 30
0.0
 11
-115.9532639499999931
 21
-141.4061184299999923
 31
0.0
  0
LINE
  5
190
  8
SLD-0_4
  6
CONTINUOUS
 62
     7
 10
-120.2588740599999966
 20
-152.155450519999988
 30
0.0
 11
-120.2588740599999966
 21
-141.4061184299999923
 31
0.0
  0
LINE
  5
191
  8
SLD-0_4
  6
CONTINUOUS
 62
     7
 10
83.4393476700000036
 20
-141.4061184299999923
 30
0.0
 11
83.4393476700000036
 21
-130.655773019999998
 31
0.0
  0
LINE
  5
192
  8
SLD-0_4
  6
CONTINUOUS
 62
     7
 10
-51.1657342999999898
 20
-167.2453482999999892
 30
0.0
 11
-51.2222365900000014
 21
-167.5688668600000142
 31
0.0
  0
LINE
  5
193
  8
SLD-0_4
  6
CONTINUOUS
 62
     7
 10
268.7609977600000093
 20
-123.6554389100000009
 30
0.0
 11
276.2609977600000093
 21
-123.6554389100000009
 31
0.0
  0
LINE
  5
194
  8
SLD-0_4
  6
CONTINUOUS
 62
     7
 10
276.2609977600000093
 20
-123.6554389100000009
 30
0.0
 11
278.7609977600000093
 21
-121.1554389100000009
 31
0.0
  0
LINE
  5
195
  8
SLD-0_4
  6
CONTINUOUS
 62
     7
 10
-103.3059924800000005
 20
-52.1496860199999901
 30
0.0
 11
-103.3059924800000005
 21
-64.4700744900000018
 31
0.0
  0
LINE
  5
196
  8
SLD-0_4
  6
CONTINUOUS
 62
     7
 10
147.927708889999991
 20
-52.1496860199999901
 30
0.0
 11
147.927708889999991
 21
-64.4700744900000018
 31
0.0
  0
LINE
  5
197
  8
SLD-0_4
  6
CONTINUOUS
 62
     7
 10
36.0887830300000019
 20
-141.4061184299999923
 30
0.0
 11
36.0887830300000019
 21
-152.155450519999988
 31
0.0
  0
LINE
  5
198
  8
SLD-0_4
  6
CONTINUOUS
 62
     7
 10
109.2649017399999991
 20
-141.4061184299999923
 30
0.0
 11
109.2649017399999991
 21
-130.655773019999998
 31
0.0
  0
LINE
  5
199
  8
SLD-0_4
  6
CONTINUOUS
 62
     7
 10
-111.648667169999996
 20
-141.4061184299999923
 30
0.0
 11
-111.648667169999996
 21
-130.655773019999998
 31
0.0
  0
LINE
  5
19A
  8
SLD-0_4
  6
CONTINUOUS
 62
     7
 10
21.7907932299999985
 20
-130.655773019999998
 30
0.0
 11
21.7907932299999985
 21
-141.4061184299999923
 31
0.0
  0
LINE
  5
19B
  8
SLD-0_4
  6
CONTINUOUS
 62
     7
 10
-51.386338809999998
 20
-141.4061184299999923
 30
0.0
 11
-51.386338809999998
 21
-130.655773019999998
 31
0.0
  0
LINE
  5
19C
  8
SLD-0_4
  6
CONTINUOUS
 62
     7
 10
-29.8643682000000013
 20
-152.155450519999988
 30
0.0
 11
-29.8643682000000013
 21
-141.4061184299999923
 31
0.0
  0
LINE
  5
19D
  8
SLD-0_4
  6
CONTINUOUS
 62
     7
 10
-52.4969409899999988
 20
-152.0500649100000032
 30
0.0
 11
-49.4589981600000002
 21
-152.0500649100000032
 31
0.0
  0
LINE
  5
19E
  8
SLD-0_4
  6
CONTINUOUS
 62
     7
 10
-61.7465547999999984
 20
-141.6878222699999981
 30
0.0
 11
-61.7465547999999984
 21
-146.6561457299999915
 31
0.0
  0
LINE
  5
19F
  8
SLD-0_4
  6
CONTINUOUS
 62
     7
 10
173.8318268900000021
 20
-152.155450519999988
 30
0.0
 11
173.8318268900000021
 21
-141.4061184299999923
 31
0.0
  0
LINE
  5
1A0
  8
SLD-0_4
  6
CONTINUOUS
 62
     7
 10
58.0784620299999972
 20
-52.1496860199999901
 30
0.0
 11
58.0784620299999972
 21
-64.4700744900000018
 31
0.0
  0
LINE
  5
1A1
  8
SLD-0_4
  6
CONTINUOUS
 62
     7
 10
-201.2390022399999907
 20
-121.1554389100000009
 30
0.0
 11
-201.2390022399999907
 21
-83.1554389100000009
 31
0.0
  0
LINE
  5
1A2
  8
SLD-0_4
  6
CONTINUOUS
 62
     7
 10
17.4861964500000013
 20
-141.4061184299999923
 30
0.0
 11
17.4861964500000013
 21
-130.655773019999998
 31
0.0
  0
LINE
  5
1A3
  8
SLD-0_4
  6
CONTINUOUS
 62
     7
 10
-98.7338634900000045
 20
-152.155450519999988
 30
0.0
 11
-98.7338634900000045
 21
-141.4061184299999923
 31
0.0
  0
LINE
  5
1A4
  8
SLD-0_4
  6
CONTINUOUS
 62
     7
 10
-90.1256832400000008
 20
-152.155450519999988
 30
0.0
 11
-90.1256832400000008
 21
-141.4061184299999923
 31
0.0
  0
LINE
  5
1A5
  8
SLD-0_4
  6
CONTINUOUS
 62
     7
 10
70.5235306699999995
 20
-152.155450519999988
 30
0.0
 11
70.5235306699999995
 21
-141.4061184299999923
 31
0.0
  0
LINE
  5
1A6
  8
SLD-0_4
  6
CONTINUOUS
 62
     7
 10
-4.0367874800000001
 20
-152.155450519999988
 30
0.0
 11
-4.0367874800000001
 21
-141.4061184299999923
 31
0.0
  0
LINE
  5
1A7
  8
SLD-0_4
  6
CONTINUOUS
 62
     7
 10
-34.1699783099999976
 20
-141.4061184299999923
 30
0.0
 11
-34.1699783099999976
 21
-130.655773019999998
 31
0.0
  0
LINE
  5
1A8
  8
SLD-0_4
  6
CONTINUOUS
 62
     7
 10
-51.2222365900000014
 20
-167.5688668600000142
 30
0.0
 11
-51.2960647499999993
 21
-167.8439302499999997
 31
0.0
  0
LINE
  5
1A9
  8
SLD-0_4
  6
CONTINUOUS
 62
     7
 10
31.7821595899999991
 20
-141.4061184299999923
 30
0.0
 11
169.527230099999997
 21
-141.4061184299999923
 31
0.0
  0
LINE
  5
1AA
  8
SLD-0_4
  6
CONTINUOUS
 62
     7
 10
278.7609977600000093
 20
-71.1554389100000009
 30
0.0
 11
278.7609977600000093
 21
-54.6554389100000009
 31
0.0
  0
LINE
  5
1AB
  8
SLD-0_4
  6
CONTINUOUS
 62
     7
 10
-103.0384602700000016
 20
-141.4061184299999923
 30
0.0
 11
-103.0384602700000016
 21
-130.655773019999998
 31
0.0
  0
LINE
  5
1AC
  8
SLD-0_4
  6
CONTINUOUS
 62
     7
 10
-52.2130691500000026
 20
-168.3736685499999908
 30
0.0
 11
-52.2142238300000017
 21
-168.3676077700000064
 31
0.0
  0
LINE
  5
1AD
  8
SLD-0_4
  6
CONTINUOUS
 62
     7
 10
53.3071701699999991
 20
-152.155450519999988
 30
0.0
 11
53.3071701699999991
 21
-141.4061184299999923
 31
0.0
  0
LINE
  5
1AE
  8
SLD-0_4
  6
CONTINUOUS
 62
     7
 10
40.1109098100000026
 20
-52.1496860199999901
 30
0.0
 11
40.1109098100000026
 21
-64.4700744900000018
 31
0.0
  0
LINE
  5
1AF
  8
SLD-0_4
  6
CONTINUOUS
 62
     7
 10
174.8828658099999984
 20
-64.4700744900000018
 30
0.0
 11
31.1252193999999989
 21
-64.4700744900000018
 31
0.0
  0
LINE
  5
1B0
  8
SLD-0_4
  6
CONTINUOUS
 62
     7
 10
76.0498428399999966
 20
-52.1496860199999901
 30
0.0
 11
76.0498428399999966
 21
-64.4700744900000018
 31
0.0
  0
LINE
  5
1B1
  8
SLD-0_4
  6
CONTINUOUS
 62
     7
 10
-52.1770942500000032
 20
-168.4780038600000012
 30
0.0
 11
-52.1917829100000006
 21
-168.4448410599999875
 31
0.0
  0
LINE
  5
1B2
  8
SLD-0_4
  6
CONTINUOUS
 62
     7
 10
31.7821595899999991
 20
-130.655773019999998
 30
0.0
 11
31.7821595899999991
 21
-141.4061184299999923
 31
0.0
  0
LINE
  5
1B3
  8
SLD-0_4
  6
CONTINUOUS
 62
     7
 10
169.5292567500000018
 20
-130.655773019999998
 30
0.0
 11
173.833853529999999
 21
-130.655773019999998
 31
0.0
  0
LINE
  5
1B4
  8
SLD-0_4
  6
CONTINUOUS
 62
     7
 10
122.1786921000000063
 20
-152.155450519999988
 30
0.0
 11
122.1786921000000063
 21
-141.4061184299999923
 31
0.0
  0
LINE
  5
1B5
  8
SLD-0_4
  6
CONTINUOUS
 62
     7
 10
113.5694985300000042
 20
-152.155450519999988
 30
0.0
 11
113.5694985300000042
 21
-141.4061184299999923
 31
0.0
  0
LINE
  5
1B6
  8
SLD-0_4
  6
CONTINUOUS
 62
     7
 10
-51.0824406799999977
 20
-165.220638589999993
 30
0.0
 11
-51.0783151600000025
 21
-165.6494141800000079
 31
0.0
  0
LINE
  5
1B7
  8
SLD-0_4
  6
CONTINUOUS
 62
     7
 10
-51.1248244599999992
 20
-166.8825091799999996
 30
0.0
 11
-51.1657342999999898
 21
-167.2453482999999892
 31
0.0
  0
LINE
  5
1B8
  8
SLD-0_4
  6
CONTINUOUS
 62
     7
 10
-67.3670594499999993
 20
-52.1496860199999901
 30
0.0
 11
-67.3670594499999993
 21
-64.4700744900000018
 31
0.0
  0
LINE
  5
1B9
  8
SLD-0_4
  6
CONTINUOUS
 62
     7
 10
-31.4262121299999997
 20
-52.1496860199999901
 30
0.0
 11
-31.4262121299999997
 21
-64.4700744900000018
 31
0.0
  0
LINE
  5
1BA
  8
SLD-0_4
  6
CONTINUOUS
 62
     7
 10
-112.2916828900000041
 20
-52.1496860199999901
 30
0.0
 11
-112.2916828900000041
 21
-64.4700744900000018
 31
0.0
  0
LINE
  5
1BB
  8
SLD-0_4
  6
CONTINUOUS
 62
     7
 10
17.4861964500000013
 20
-130.655773019999998
 30
0.0
 11
21.7907932299999985
 21
-130.655773019999998
 31
0.0
  0
LINE
  5
1BC
  8
SLD-0_4
  6
CONTINUOUS
 62
     7
 10
130.7878856700000085
 20
-152.155450519999988
 30
0.0
 11
130.7878856700000085
 21
-141.4061184299999923
 31
0.0
  0
LINE
  5
1BD
  8
SLD-0_4
  6
CONTINUOUS
 62
     7
 10
-51.8515178999999904
 20
-168.5578917699999977
 30
0.0
 11
-51.9170707299999918
 21
-168.5889615099999901
 31
0.0
  0
LINE
  5
1BE
  8
SLD-0_4
  6
CONTINUOUS
 62
     7
 10
258.7609977600000093
 20
-152.1554389099999867
 30
0.0
 11
258.7609977600000093
 21
-52.1554389100000009
 31
0.0
  0
LINE
  5
1BF
  8
SLD-0_4
  6
CONTINUOUS
 62
     7
 10
-94.4323066699999885
 20
-141.4061184299999923
 30
0.0
 11
-94.4323066699999885
 21
-130.655773019999998
 31
0.0
  0
LINE
  5
1C0
  8
SLD-0_4
  6
CONTINUOUS
 62
     7
 10
66.2189338799999945
 20
-141.4061184299999923
 30
0.0
 11
66.2189338799999945
 21
-130.655773019999998
 31
0.0
  0
LINE
  5
1C1
  8
SLD-0_4
  6
CONTINUOUS
 62
     7
 10
268.7609977600000093
 20
-130.6554389099999867
 30
0.0
 11
276.2609977600000093
 21
-130.6554389099999867
 31
0.0
  0
LINE
  5
1C2
  8
SLD-0_4
  6
CONTINUOUS
 62
     7
 10
13.4945827200000004
 20
-52.1496860199999901
 30
0.0
 11
13.4945827200000004
 21
-64.4700744900000018
 31
0.0
  0
LINE
  5
1C3
  8
SLD-0_4
  6
CONTINUOUS
 62
     7
 10
-22.4424360199999988
 20
-52.1496860199999901
 30
0.0
 11
-22.4424360199999988
 21
-64.4700744900000018
 31
0.0
  0
LINE
  5
1C4
  8
SLD-0_4
  6
CONTINUOUS
 62
     7
 10
111.9887758699999978
 20
-52.1496860199999901
 30
0.0
 11
111.9887758699999978
 21
-64.4700744900000018
 31
0.0
  0
LINE
  5
1C5
  8
SLD-0_4
  6
CONTINUOUS
 62
     7
 10
85.0355332400000066
 20
-52.1496860199999901
 30
0.0
 11
85.0355332400000066
 21
-64.4700744900000018
 31
0.0
  0
LINE
  5
1C6
  8
SLD-0_4
  6
CONTINUOUS
 62
     7
 10
-13.4586599099999997
 20
-52.1496860199999901
 30
0.0
 11
-13.4586599099999997
 21
-64.4700744900000018
 31
0.0
  0
LINE
  5
1C7
  8
SLD-0_4
  6
CONTINUOUS
 62
     7
 10
138.9420184900000095
 20
-52.1496860199999901
 30
0.0
 11
138.9420184900000095
 21
-64.4700744900000018
 31
0.0
  0
LINE
  5
1C8
  8
SLD-0_4
  6
CONTINUOUS
 62
     7
 10
-51.0934914400000011
 20
-164.7982153499999924
 30
0.0
 11
-51.0824406799999977
 21
-165.220638589999993
 31
0.0
  0
LINE
  5
1C9
  8
SLD-0_4
  6
CONTINUOUS
 62
     7
 10
-58.2455232800000005
 20
-141.6878222699999981
 30
0.0
 11
-58.2455232800000005
 21
-146.6561457299999915
 31
0.0
  0
LINE
  5
1CA
  8
SLD-0_4
  6
CONTINUOUS
 62
     7
 10
-51.6013429200000004
 20
-168.3400179600000115
 30
0.0
 11
-51.6941497500000011
 21
-168.4358874399999877
 31
0.0
  0
LINE
  5
1CB
  8
SLD-0_4
  6
CONTINUOUS
 62
     7
 10
-120.2588740599999966
 20
-141.4061184299999923
 30
0.0
 11
17.4861964500000013
 21
-141.4061184299999923
 31
0.0
  0
LINE
  5
1CC
  8
SLD-0_4
  6
CONTINUOUS
 62
     7
 10
-49.3975929400000027
 20
-52.1496860199999901
 30
0.0
 11
-49.3975929400000027
 21
-64.4700744900000018
 31
0.0
  0
LINE
  5
1CD
  8
SLD-0_4
  6
CONTINUOUS
 62
     7
 10
120.9744662699999935
 20
-52.1496860199999901
 30
0.0
 11
120.9744662699999935
 21
-64.4700744900000018
 31
0.0
  0
LINE
  5
1CE
  8
SLD-0_4
  6
CONTINUOUS
 62
     7
 10
-76.352749860000003
 20
-52.1496860199999901
 30
0.0
 11
-76.352749860000003
 21
-64.4700744900000018
 31
0.0
  0
LINE
  5
1CF
  8
SLD-0_4
  6
CONTINUOUS
 62
     7
 10
-4.4729695100000004
 20
-52.1496860199999901
 30
0.0
 11
-4.4729695100000004
 21
-64.4700744900000018
 31
0.0
  0
LINE
  5
1D0
  8
SLD-0_4
  6
CONTINUOUS
 62
     7
 10
-94.3203020800000047
 20
-52.1496860199999901
 30
0.0
 11
-94.3203020800000047
 21
-64.4700744900000018
 31
0.0
  0
LINE
  5
1D1
  8
SLD-0_4
  6
CONTINUOUS
 62
     7
 10
-191.2390022399999907
 20
-80.6554389100000009
 30
0.0
 11
-198.7390022399999054
 21
-80.6554389100000009
 31
0.0
  0
LINE
  5
1D2
  8
SLD-0_4
  6
CONTINUOUS
 62
     7
 10
-191.2390022399999907
 20
-123.6554389100000009
 30
0.0
 11
-198.7390022399999054
 21
-123.6554389100000009
 31
0.0
  0
LINE
  5
1D3
  8
SLD-0_4
  6
CONTINUOUS
 62
     7
 10
-201.2390022399999907
 20
-54.6554389100000009
 30
0.0
 11
-198.7390022399999054
 21
-52.1554389100000009
 31
0.0
  0
LINE
  5
1D4
  8
SLD-0_4
  6
CONTINUOUS
 62
     7
 10
-77.2139195200000046
 20
-141.4061184299999923
 30
0.0
 11
-77.2139195200000046
 21
-130.655773019999998
 31
0.0
  0
LINE
  5
1D5
  8
SLD-0_4
  6
CONTINUOUS
 62
     7
 10
-51.1097340099999897
 20
-164.3912790400000006
 30
0.0
 11
-51.0934914400000011
 21
-164.7982153499999924
 31
0.0
  0
LINE
  5
1D6
  8
SLD-0_4
  6
CONTINUOUS
 62
     7
 10
-51.0977736099999902
 20
-166.4894840499999873
 30
0.0
 11
-51.1248244599999992
 21
-166.8825091799999996
 31
0.0
  0
LINE
  5
1D7
  8
SLD-0_4
  6
CONTINUOUS
 62
     7
 10
169.527230099999997
 20
-130.655773019999998
 30
0.0
 11
31.7821595899999991
 21
-130.655773019999998
 31
0.0
  0
LINE
  5
1D8
  8
SLD-0_4
  6
CONTINUOUS
 62
     7
 10
-51.0828483199999894
 20
-166.0754075300000068
 30
0.0
 11
-51.0977736099999902
 21
-166.4894840499999873
 31
0.0
  0
LINE
  5
1D9
  8
SLD-0_4
  6
CONTINUOUS
 62
     7
 10
44.6959499499999993
 20
-152.155450519999988
 30
0.0
 11
44.6959499499999993
 21
-141.4061184299999923
 31
0.0
  0
LINE
  5
1DA
  8
SLD-0_4
  6
CONTINUOUS
 62
     7
 10
156.6154663899999946
 20
-152.155450519999988
 30
0.0
 11
156.6154663899999946
 21
-141.4061184299999923
 31
0.0
  0
LINE
  5
1DB
  8
SLD-0_4
  6
CONTINUOUS
 62
     7
 10
-47.0807287000000017
 20
-152.155450519999988
 30
0.0
 11
-47.0807287000000017
 21
-141.4061184299999923
 31
0.0
  0
LINE
  5
1DC
  8
SLD-0_4
  6
CONTINUOUS
 62
     7
 10
-52.4969409899999988
 20
-146.6561457299999915
 30
0.0
 11
-52.4969409899999988
 21
-169.137733379999986
 31
0.0
  0
LINE
  5
1DD
  8
SLD-0_4
  6
CONTINUOUS
 62
     7
 10
103.0030854599999941
 20
-52.1496860199999901
 30
0.0
 11
103.0030854599999941
 21
-64.4700744900000018
 31
0.0
  0
LINE
  5
1DE
  8
SLD-0_4
  6
CONTINUOUS
 62
     7
 10
-201.2390022399999907
 20
-149.6554389099999867
 30
0.0
 11
-201.2390022399999907
 21
-133.1554389099999867
 31
0.0
  0
LINE
  5
1DF
  8
SLD-0_4
  6
CONTINUOUS
 62
     7
 10
-52.1577827099999993
 20
-168.5117735800000105
 30
0.0
 11
-52.1770942500000032
 21
-168.4780038600000012
 31
0.0
  0
LINE
  5
1E0
  8
SLD-0_4
  6
CONTINUOUS
 62
     7
 10
139.3970792499999902
 20
-152.155450519999988
 30
0.0
 11
139.3970792499999902
 21
-141.4061184299999923
 31
0.0
  0
LINE
  5
1E1
  8
SLD-0_4
  6
CONTINUOUS
 62
     7
 10
79.1347508900000065
 20
-152.155450519999988
 30
0.0
 11
79.1347508900000065
 21
-141.4061184299999923
 31
0.0
  0
LINE
  5
1E2
  8
SLD-0_4
  6
CONTINUOUS
 62
     7
 10
-51.2960647499999993
 20
-167.8439302499999997
 30
0.0
 11
-51.3889522200000002
 21
-168.0614038900000082
 31
0.0
  0
LINE
  5
1E3
  8
SLD-0_4
  6
CONTINUOUS
 62
     7
 10
17.4861964500000013
 20
-130.655773019999998
 30
0.0
 11
-120.2588740599999966
 21
-130.655773019999998
 31
0.0
  0
LINE
  5
1E4
  8
SLD-0_4
  6
CONTINUOUS
 62
     7
 10
-51.2231937800000026
 20
-162.7436642199999994
 30
0.0
 11
-51.2191448399999985
 21
-162.7864236100000142
 31
0.0
  0
LINE
  5
1E5
  8
SLD-0_4
  6
CONTINUOUS
 62
     7
 10
-85.3365259699999967
 20
-52.1496860199999901
 30
0.0
 11
-85.3365259699999967
 21
-64.4700744900000018
 31
0.0
  0
LINE
  5
1E6
  8
SLD-0_4
  6
CONTINUOUS
 62
     7
 10
276.2609977600000093
 20
-152.1554389099999867
 30
0.0
 11
278.7609977600000093
 21
-149.6554389099999867
 31
0.0
  0
LINE
  5
1E7
  8
SLD-0_4
  6
CONTINUOUS
 62
     7
 10
-191.2390022399999907
 20
-73.6554389100000009
 30
0.0
 11
-198.7390022399999054
 21
-73.6554389100000009
 31
0.0
  0
LINE
  5
1E8
  8
SLD-0_4
  6
CONTINUOUS
 62
     7
 10
-198.7390022399999054
 20
-80.6554389100000009
 30
0.0
 11
-201.2390022399999907
 21
-83.1554389100000009
 31
0.0
  0
LINE
  5
1E9
  8
SLD-0_4
  6
CONTINUOUS
 62
     7
 10
8.8770028700000001
 20
-141.4061184299999923
 30
0.0
 11
8.8770028700000001
 21
-130.655773019999998
 31
0.0
  0
LINE
  5
1EA
  8
SLD-0_4
  6
CONTINUOUS
 62
     7
 10
-52.1917829100000006
 20
-168.4448410599999875
 30
0.0
 11
-52.2023444499999982
 21
-168.414752639999989
 31
0.0
  0
LINE
  5
1EB
  8
SLD-0_4
  6
CONTINUOUS
 62
     7
 10
276.2609977600000093
 20
-52.1554389100000009
 30
0.0
 11
-198.7390022399999054
 21
-52.1554389100000009
 31
0.0
  0
LINE
  5
1EC
  8
SLD-0_4
  6
CONTINUOUS
 62
     7
 10
-51.1722781799999922
 20
-163.3547375800000054
 30
0.0
 11
-51.1508608199999983
 21
-163.6604055699999947
 31
0.0
  0
LINE
  5
1ED
  8
SLD-0_4
  6
CONTINUOUS
 62
     7
 10
74.8281274499999967
 20
-141.4061184299999923
 30
0.0
 11
74.8281274499999967
 21
-130.655773019999998
 31
0.0
  0
LINE
  5
1EE
  8
SLD-0_4
  6
CONTINUOUS
 62
     7
 10
-52.0671532599999978
 20
-168.5920500400000037
 30
0.0
 11
-52.1033079700000101
 21
-168.5712641000000076
 31
0.0
  0
LINE
  5
1EF
  8
SLD-0_4
  6
CONTINUOUS
 62
     7
 10
-65.9944054900000054
 20
-146.6561457299999915
 30
0.0
 11
-67.995718729999993
 21
-141.6878222699999981
 31
0.0
  0
LINE
  5
1F0
  8
SLD-0_4
  6
CONTINUOUS
 62
     7
 10
-51.3889522200000002
 20
-168.0614038900000082
 30
0.0
 11
-51.4984599000000003
 21
-168.2176137200000028
 31
0.0
  0
LINE
  5
1F1
  8
SLD-0_4
  6
CONTINUOUS
 62
     7
 10
67.0641524299999929
 20
-52.1496860199999901
 30
0.0
 11
67.0641524299999929
 21
-64.4700744900000018
 31
0.0
  0
LINE
  5
1F2
  8
SLD-0_4
  6
CONTINUOUS
 62
     7
 10
31.1252193999999989
 20
-64.4700744900000018
 30
0.0
 11
31.1252193999999989
 21
-52.1496860199999901
 31
0.0
  0
LINE
  5
1F3
  8
SLD-0_4
  6
CONTINUOUS
 62
     7
 10
-40.4138168300000018
 20
-52.1496860199999901
 30
0.0
 11
-40.4138168300000018
 21
-64.4700744900000018
 31
0.0
  0
LINE
  5
1F4
  8
SLD-0_4
  6
CONTINUOUS
 62
     7
 10
278.7609977600000093
 20
-54.6554389100000009
 30
0.0
 11
276.2609977600000093
 21
-52.1554389100000009
 31
0.0
  0
LINE
  5
1F5
  8
SLD-0_4
  6
CONTINUOUS
 62
     7
 10
-191.2390022399999907
 20
-130.6554389099999867
 30
0.0
 11
-198.7390022399999054
 21
-130.6554389099999867
 31
0.0
  0
LINE
  5
1F6
  8
SLD-0_4
  6
CONTINUOUS
 62
     7
 10
-67.4951370900000001
 20
-169.137733379999986
 30
0.0
 11
-67.4951370900000001
 21
-146.6561457299999915
 31
0.0
  0
LINE
  5
1F7
  8
SLD-0_4
  6
CONTINUOUS
 62
     7
 10
-51.0783151600000025
 20
-165.6494141800000079
 30
0.0
 11
-51.0828483199999894
 21
-166.0754075300000068
 31
0.0
  0
LINE
  5
1F8
  8
SLD-0_4
  6
CONTINUOUS
 62
     7
 10
49.0025733800000012
 20
-141.4061184299999923
 30
0.0
 11
49.0025733800000012
 21
-130.655773019999998
 31
0.0
  0
LINE
  5
1F9
  8
SLD-0_4
  6
CONTINUOUS
 62
     7
 10
-42.7761319099999895
 20
-141.4061184299999923
 30
0.0
 11
-42.7761319099999895
 21
-130.655773019999998
 31
0.0
  0
LINE
  5
1FA
  8
SLD-0_4
  6
CONTINUOUS
 62
     7
 10
-51.9943327000000011
 20
-141.6878222699999981
 30
0.0
 11
-58.2455232800000005
 21
-141.6878222699999981
 31
0.0
  0
LINE
  5
1FB
  8
SLD-0_4
  6
CONTINUOUS
 62
     7
 10
-51.9170707299999918
 20
-168.5889615099999901
 30
0.0
 11
-51.974530399999999
 21
-168.6033661699999016
 31
0.0
  0
LINE
  5
1FC
  8
SLD-0_4
  6
CONTINUOUS
 62
     7
 10
169.527230099999997
 20
-141.4061184299999923
 30
0.0
 11
169.527230099999997
 21
-130.655773019999998
 31
0.0
  0
LINE
  5
1FD
  8
SLD-0_4
  6
CONTINUOUS
 62
     7
 10
104.960304960000002
 20
-152.155450519999988
 30
0.0
 11
104.960304960000002
 21
-141.4061184299999923
 31
0.0
  0
LINE
  5
1FE
  8
SLD-0_4
  6
CONTINUOUS
 62
     7
 10
-67.995718729999993
 20
-141.6878222699999981
 30
0.0
 11
-61.7465547999999984
 21
-141.6878222699999981
 31
0.0
  0
LINE
  5
1FF
  8
SLD-0_4
  6
CONTINUOUS
 62
     7
 10
-8.3413842700000007
 20
-141.4061184299999923
 30
0.0
 11
-8.3413842700000007
 21
-130.655773019999998
 31
0.0
  0
LINE
  5
200
  8
SLD-0_4
  6
CONTINUOUS
 62
     7
 10
-58.3813690500000035
 20
-52.1496860199999901
 30
0.0
 11
-58.3813690500000035
 21
-64.4700744900000018
 31
0.0
  0
LINE
  5
201
  8
SLD-0_4
  6
CONTINUOUS
 62
     7
 10
165.8990896999999904
 20
-52.1496860199999901
 30
0.0
 11
165.8990896999999904
 21
-64.4700744900000018
 31
0.0
  0
LINE
  5
202
  8
SLD-0_4
  6
CONTINUOUS
 62
     7
 10
-52.1333525399999971
 20
-168.5436827899999912
 30
0.0
 11
-52.1577827099999993
 21
-168.5117735800000105
 31
0.0
  0
LINE
  5
203
  8
SLD-0_4
  6
CONTINUOUS
 62
     7
 10
21.7907932299999985
 20
-152.155450519999988
 30
0.0
 11
21.7907932299999985
 21
-141.4061184299999923
 31
0.0
  0
LINE
  5
204
  8
SLD-0_4
  6
CONTINUOUS
 62
     7
 10
-38.4725484499999979
 20
-152.155450519999988
 30
0.0
 11
-38.4725484499999979
 21
-141.4061184299999923
 31
0.0
  0
LINE
  5
205
  8
SLD-0_4
  6
CONTINUOUS
 62
     7
 10
13.1836263099999993
 20
-152.155450519999988
 30
0.0
 11
13.1836263099999993
 21
-141.4061184299999923
 31
0.0
  0
LINE
  5
206
  8
SLD-0_4
  6
CONTINUOUS
 62
     7
 10
-51.6941497500000011
 20
-168.4358874399999877
 30
0.0
 11
-51.7773761600000029
 21
-168.5076895599999887
 31
0.0
  0
LINE
  5
207
  8
SLD-0_4
  6
CONTINUOUS
 62
     7
 10
96.3511113800000061
 20
-152.155450519999988
 30
0.0
 11
96.3511113800000061
 21
-141.4061184299999923
 31
0.0
  0
LINE
  5
208
  8
SLD-0_4
  6
CONTINUOUS
 62
     7
 10
-115.9532639499999931
 20
-141.4061184299999923
 30
0.0
 11
-115.9532639499999931
 21
-152.155450519999988
 31
0.0
  0
LINE
  5
209
  8
SLD-0_4
  6
CONTINUOUS
 62
     7
 10
-53.9956459499999966
 20
-146.6561457299999915
 30
0.0
 11
-51.9943327000000011
 21
-141.6878222699999981
 31
0.0
  0
LINE
  5
20A
  8
SLD-0_4
  6
CONTINUOUS
 62
     7
 10
-107.3450837000000035
 20
-152.155450519999988
 30
0.0
 11
-107.3450837000000035
 21
-141.4061184299999923
 31
0.0
  0
LINE
  5
20B
  8
SLD-0_4
  6
CONTINUOUS
 62
     7
 10
92.0465145999999947
 20
-141.4061184299999923
 30
0.0
 11
92.0465145999999947
 21
-130.655773019999998
 31
0.0
  0
LINE
  5
20C
  8
SLD-0_4
  6
CONTINUOUS
 62
     7
 10
135.0924824600000136
 20
-141.4061184299999923
 30
0.0
 11
135.0924824600000136
 21
-130.655773019999998
 31
0.0
  0
LINE
  5
20D
  8
SLD-0_4
  6
CONTINUOUS
 62
     7
 10
173.833853529999999
 20
-130.655773019999998
 30
0.0
 11
173.833853529999999
 21
-141.4061184299999923
 31
0.0
  0
LINE
  5
20E
  8
SLD-0_4
  6
CONTINUOUS
 62
     7
 10
160.9200631799999996
 20
-141.4061184299999923
 30
0.0
 11
160.9200631799999996
 21
-130.655773019999998
 31
0.0
  0
LINE
  5
20F
  8
SLD-0_4
  6
CONTINUOUS
 62
     7
 10
-51.1508608199999983
 20
-163.6604055699999947
 30
0.0
 11
-51.1294349499999896
 21
-164.0089642599999991
 31
0.0
  0
LINE
  5
210
  8
SLD-0_4
  6
CONTINUOUS
 62
     7
 10
276.2609977600000093
 20
-73.6554389100000009
 30
0.0
 11
278.7609977600000093
 21
-71.1554389100000009
 31
0.0
  0
LINE
  5
211
  8
SLD-0_4
  6
CONTINUOUS
 62
     7
 10
-121.2754589999999979
 20
-64.4700744900000018
 30
0.0
 11
-121.2754589999999979
 21
-52.1496860199999901
 31
0.0
  0
LINE
  5
212
  8
SLD-0_4
  6
CONTINUOUS
 62
     7
 10
-201.2390022399999907
 20
-71.1554389100000009
 30
0.0
 11
-201.2390022399999907
 21
-54.6554389100000009
 31
0.0
  0
LINE
  5
213
  8
SLD-0_4
  6
CONTINUOUS
 62
     7
 10
135.24853422999999
 20
-308.5742629700000066
 30
0.0
 11
135.24853422999999
 21
-320.8253399899999749
 31
0.0
  0
LINE
  5
214
  8
SLD-0_4
  6
CONTINUOUS
 62
     7
 10
139.4984115599999939
 20
-320.8253399899999749
 30
0.0
 11
139.4984115599999939
 21
-333.0743903599999953
 31
0.0
  0
LINE
  5
215
  8
SLD-0_4
  6
CONTINUOUS
 62
     7
 10
138.3006635899999992
 20
-333.0743903599999953
 30
0.0
 11
138.3006635899999992
 21
-320.8253399899999749
 31
0.0
  0
LINE
  5
216
  8
SLD-0_4
  6
CONTINUOUS
 62
     7
 10
78.7983275999999933
 20
-333.0743903599999953
 30
0.0
 11
78.7983275999999933
 21
-320.8253399899999749
 31
0.0
  0
LINE
  5
217
  8
SLD-0_4
  6
CONTINUOUS
 62
     7
 10
104.2996182600000026
 20
-333.0743903599999953
 30
0.0
 11
104.2996182600000026
 21
-320.8253399899999749
 31
0.0
  0
LINE
  5
218
  8
SLD-0_4
  6
CONTINUOUS
 62
     7
 10
-76.2776089200000058
 20
-308.5742629700000066
 30
0.0
 11
-76.2776089200000058
 21
-320.8253399899999749
 31
0.0
  0
LINE
  5
219
  8
SLD-0_4
  6
CONTINUOUS
 62
     7
 10
-131.3000432199999921
 20
-336.1569194100000004
 30
0.0
 11
258.7609977600000093
 21
-336.1569194100000004
 31
0.0
  0
LINE
  5
21A
  8
SLD-0_4
  6
CONTINUOUS
 62
     7
 10
112.7993729300000041
 20
-333.0743903599999953
 30
0.0
 11
112.7993729300000041
 21
-320.8253399899999749
 31
0.0
  0
LINE
  5
21B
  8
SLD-0_4
  6
CONTINUOUS
 62
     7
 10
152.2500702099999899
 20
-308.5742629700000066
 30
0.0
 11
152.2500702099999899
 21
-320.8253399899999749
 31
0.0
  0
LINE
  5
21C
  8
SLD-0_4
  6
CONTINUOUS
 62
     7
 10
37.4993288699999994
 20
-333.0743903599999953
 30
0.0
 11
31.7517598999999997
 21
-333.0743903599999953
 31
0.0
  0
LINE
  5
21D
  8
SLD-0_4
  6
CONTINUOUS
 62
     7
 10
168.0477782899999966
 20
-308.5742629700000066
 30
0.0
 11
31.7517598999999997
 21
-308.5742629700000066
 31
0.0
  0
LINE
  5
21E
  8
SLD-0_4
  6
CONTINUOUS
 62
     7
 10
37.5003421899999978
 20
-327.1322633400000086
 30
0.0
 11
172.2621893200000045
 21
-327.1322633400000086
 31
0.0
  0
LINE
  5
21F
  8
SLD-0_4
  6
CONTINUOUS
 62
     7
 10
87.3001089100000058
 20
-333.0743903599999953
 30
0.0
 11
87.3001089100000058
 21
-320.8253399899999749
 31
0.0
  0
LINE
  5
220
  8
SLD-0_4
  6
CONTINUOUS
 62
     7
 10
-26.4798688400000017
 20
-320.8253399899999749
 30
0.0
 11
-26.4798688400000017
 21
-308.5742629700000066
 31
0.0
  0
LINE
  5
221
  8
SLD-0_4
  6
CONTINUOUS
 62
     7
 10
-59.2770862599999973
 20
-308.5742629700000066
 30
0.0
 11
-59.2770862599999973
 21
-320.8253399899999749
 31
0.0
  0
LINE
  5
222
  8
SLD-0_4
  6
CONTINUOUS
 62
     7
 10
152.248043569999993
 20
-320.8253399899999749
 30
0.0
 11
152.248043569999993
 21
-308.5742629700000066
 31
0.0
  0
LINE
  5
223
  8
SLD-0_4
  6
CONTINUOUS
 62
     7
 10
-120.2761005600000033
 20
-308.5742629700000066
 30
0.0
 11
-120.2761005600000033
 21
-320.8253399899999749
 31
0.0
  0
LINE
  5
224
  8
SLD-0_4
  6
CONTINUOUS
 62
     7
 10
113.9991475500000035
 20
-320.8253399899999749
 30
0.0
 11
113.9991475500000035
 21
-333.0743903599999953
 31
0.0
  0
LINE
  5
225
  8
SLD-0_4
  6
CONTINUOUS
 62
     7
 10
-29.5279449099999987
 20
-320.8253399899999749
 30
0.0
 11
-29.5279449099999987
 21
-333.0743903599999953
 31
0.0
  0
LINE
  5
226
  8
SLD-0_4
  6
CONTINUOUS
 62
     7
 10
-0.9785781899999999
 20
-320.8253399899999749
 30
0.0
 11
-0.9785781899999999
 21
-308.5742629700000066
 31
0.0
  0
LINE
  5
227
  8
SLD-0_4
  6
CONTINUOUS
 62
     7
 10
173.7994005500000014
 20
-308.5742629700000066
 30
0.0
 11
173.7994005500000014
 21
-320.8253399899999749
 31
0.0
  0
LINE
  5
228
  8
SLD-0_4
  6
CONTINUOUS
 62
     7
 10
-114.5275182700000016
 20
-333.0743903599999953
 30
0.0
 11
21.77052677
 21
-333.0743903599999953
 31
0.0
  0
LINE
  5
229
  8
SLD-0_4
  6
CONTINUOUS
 62
     7
 10
61.7988182599999902
 20
-333.0743903599999953
 30
0.0
 11
61.7988182599999902
 21
-320.8253399899999749
 31
0.0
  0
LINE
  5
22A
  8
SLD-0_4
  6
CONTINUOUS
 62
     7
 10
109.7472435699999949
 20
-308.5742629700000066
 30
0.0
 11
109.7472435699999949
 21
-320.8253399899999749
 31
0.0
  0
LINE
  5
22B
  8
SLD-0_4
  6
CONTINUOUS
 62
     7
 10
-118.7794222499999961
 20
-316.8085269800000106
 30
0.0
 11
15.9803982300000005
 21
-316.8085269800000106
 31
0.0
  0
LINE
  5
22C
  8
SLD-0_4
  6
CONTINUOUS
 62
     7
 10
3.273325799999999
 20
-333.0743903599999953
 30
0.0
 11
3.273325799999999
 21
-320.8253399899999749
 31
0.0
  0
LINE
  5
22D
  8
SLD-0_4
  6
CONTINUOUS
 62
     7
 10
41.7492062000000033
 20
-308.5742629700000066
 30
0.0
 11
41.7492062000000033
 21
-320.8253399899999749
 31
0.0
  0
LINE
  5
22E
  8
SLD-0_4
  6
CONTINUOUS
 62
     7
 10
-129.3007566199999872
 20
-336.1569194100000004
 30
0.0
 11
-129.3007566199999872
 21
-333.1554562000000033
 31
0.0
  0
LINE
  5
22F
  8
SLD-0_4
  6
CONTINUOUS
 62
     7
 10
-64.7267382200000014
 20
-333.0743903599999953
 30
0.0
 11
-64.7267382200000014
 21
-320.8253399899999749
 31
0.0
  0
LINE
  5
230
  8
SLD-0_4
  6
CONTINUOUS
 62
     7
 10
156.4979208999999969
 20
-320.8253399899999749
 30
0.0
 11
156.4979208999999969
 21
-333.0743903599999953
 31
0.0
  0
LINE
  5
231
  8
SLD-0_4
  6
CONTINUOUS
 62
     7
 10
-60.4788875300000015
 20
-320.8253399899999749
 30
0.0
 11
-60.4788875300000015
 21
-308.5742629700000066
 31
0.0
  0
LINE
  5
232
  8
SLD-0_4
  6
CONTINUOUS
 62
     7
 10
-17.9780875299999998
 20
-320.8253399899999749
 30
0.0
 11
-17.9780875299999998
 21
-308.5742629700000066
 31
0.0
  0
LINE
  5
233
  8
SLD-0_4
  6
CONTINUOUS
 62
     7
 10
256.7460627400000135
 20
-333.1554562000000033
 30
0.0
 11
256.7460627400000135
 21
-336.1569194100000004
 31
0.0
  0
LINE
  5
234
  8
SLD-0_4
  6
CONTINUOUS
 62
     7
 10
-89.0262276100000065
 20
-320.8253399899999749
 30
0.0
 11
-89.0262276100000065
 21
-333.0743903599999953
 31
0.0
  0
LINE
  5
235
  8
SLD-0_4
  6
CONTINUOUS
 62
     7
 10
-101.7788995800000009
 20
-308.5742629700000066
 30
0.0
 11
-101.7788995800000009
 21
-320.8253399899999749
 31
0.0
  0
LINE
  5
236
  8
SLD-0_4
  6
CONTINUOUS
 62
     7
 10
126.7467529099999979
 20
-320.8253399899999749
 30
0.0
 11
126.7467529099999979
 21
-308.5742629700000066
 31
0.0
  0
LINE
  5
237
  8
SLD-0_4
  6
CONTINUOUS
 62
     7
 10
20.2728351400000015
 20
-320.8253399899999749
 30
0.0
 11
20.2728351400000015
 21
-333.0743903599999953
 31
0.0
  0
LINE
  5
238
  8
SLD-0_4
  6
CONTINUOUS
 62
     7
 10
-5.2264288800000003
 20
-333.0743903599999953
 30
0.0
 11
-5.2264288800000003
 21
-320.8253399899999749
 31
0.0
  0
LINE
  5
239
  8
SLD-0_4
  6
CONTINUOUS
 62
     7
 10
-39.2274742000000032
 20
-333.0743903599999953
 30
0.0
 11
-39.2274742000000032
 21
-320.8253399899999749
 31
0.0
  0
LINE
  5
23A
  8
SLD-0_4
  6
CONTINUOUS
 62
     7
 10
-77.477383549999999
 20
-320.8253399899999749
 30
0.0
 11
-77.477383549999999
 21
-308.5742629700000066
 31
0.0
  0
LINE
  5
23B
  8
SLD-0_4
  6
CONTINUOUS
 62
     7
 10
-85.9771382200000147
 20
-320.8253399899999749
 30
0.0
 11
-85.9771382200000147
 21
-308.5742629700000066
 31
0.0
  0
LINE
  5
23C
  8
SLD-0_4
  6
CONTINUOUS
 62
     7
 10
-94.4779062100000147
 20
-320.8253399899999749
 30
0.0
 11
-94.4779062100000147
 21
-308.5742629700000066
 31
0.0
  0
LINE
  5
23D
  8
SLD-0_4
  6
CONTINUOUS
 62
     7
 10
159.5480236200000093
 20
-320.8253399899999749
 30
0.0
 11
159.5480236200000093
 21
-308.5742629700000066
 31
0.0
  0
LINE
  5
23E
  8
SLD-0_4
  6
CONTINUOUS
 62
     7
 10
-72.0277315900000019
 20
-320.8253399899999749
 30
0.0
 11
-72.0277315900000019
 21
-333.0743903599999953
 31
0.0
  0
LINE
  5
23F
  8
SLD-0_4
  6
CONTINUOUS
 62
     7
 10
-22.2259382199999997
 20
-333.0743903599999953
 30
0.0
 11
-22.2259382199999997
 21
-320.8253399899999749
 31
0.0
  0
LINE
  5
240
  8
SLD-0_4
  6
CONTINUOUS
 62
     7
 10
142.5485142699999983
 20
-320.8253399899999749
 30
0.0
 11
142.5485142699999983
 21
-308.5742629700000066
 31
0.0
  0
LINE
  5
241
  8
SLD-0_4
  6
CONTINUOUS
 62
     7
 10
79.9981022200000069
 20
-320.8253399899999749
 30
0.0
 11
79.9981022200000069
 21
-333.0743903599999953
 31
0.0
  0
LINE
  5
242
  8
SLD-0_4
  6
CONTINUOUS
 62
     7
 10
31.7517598999999997
 20
-308.5742629700000066
 30
0.0
 11
31.7517598999999997
 21
-320.8253399899999749
 31
0.0
  0
LINE
  5
243
  8
SLD-0_4
  6
CONTINUOUS
 62
     7
 10
-111.4784288799999956
 20
-320.8253399899999749
 30
0.0
 11
-111.4784288799999956
 21
-308.5742629700000066
 31
0.0
  0
LINE
  5
244
  8
SLD-0_4
  6
CONTINUOUS
 62
     7
 10
168.0477782899999966
 20
-320.8253399899999749
 30
0.0
 11
168.0477782899999966
 21
-308.5742629700000066
 31
0.0
  0
LINE
  5
245
  8
SLD-0_4
  6
CONTINUOUS
 62
     7
 10
57.5509675699999974
 20
-320.8253399899999749
 30
0.0
 11
57.5509675699999974
 21
-308.5742629700000066
 31
0.0
  0
LINE
  5
246
  8
SLD-0_4
  6
CONTINUOUS
 62
     7
 10
74.5504769100000004
 20
-320.8253399899999749
 30
0.0
 11
74.5504769100000004
 21
-308.5742629700000066
 31
0.0
  0
LINE
  5
247
  8
SLD-0_4
  6
CONTINUOUS
 62
     7
 10
88.4978568899999942
 20
-320.8253399899999749
 30
0.0
 11
88.4978568899999942
 21
-333.0743903599999953
 31
0.0
  0
LINE
  5
248
  8
SLD-0_4
  6
CONTINUOUS
 62
     7
 10
12.9728550899999995
 20
-333.0743903599999953
 30
0.0
 11
12.9728550899999995
 21
-320.8253399899999749
 31
0.0
  0
LINE
  5
249
  8
SLD-0_4
  6
CONTINUOUS
 62
     7
 10
-67.7768409300000059
 20
-308.5742629700000066
 30
0.0
 11
-67.7768409300000059
 21
-320.8253399899999749
 31
0.0
  0
LINE
  5
24A
  8
SLD-0_4
  6
CONTINUOUS
 62
     7
 10
-114.5275182700000016
 20
-320.8253399899999749
 30
0.0
 11
-114.5275182700000016
 21
-333.0743903599999953
 31
0.0
  0
LINE
  5
24B
  8
SLD-0_4
  6
CONTINUOUS
 62
     7
 10
-129.3007566199999872
 20
-333.1554562000000033
 30
0.0
 11
256.7460627400000135
 21
-333.1554562000000033
 31
0.0
  0
LINE
  5
24C
  8
SLD-0_4
  6
CONTINUOUS
 62
     7
 10
-63.5269635900000011
 20
-320.8253399899999749
 30
0.0
 11
-63.5269635900000011
 21
-333.0743903599999953
 31
0.0
  0
LINE
  5
24D
  8
SLD-0_4
  6
CONTINUOUS
 62
     7
 10
37.4993288699999994
 20
-333.0743903599999953
 30
0.0
 11
173.7994005500000014
 21
-333.0743903599999953
 31
0.0
  0
LINE
  5
24E
  8
SLD-0_4
  6
CONTINUOUS
 62
     7
 10
50.2509875200000025
 20
-308.5742629700000066
 30
0.0
 11
50.2509875200000025
 21
-320.8253399899999749
 31
0.0
  0
LINE
  5
24F
  8
SLD-0_4
  6
CONTINUOUS
 62
     7
 10
173.7994005500000014
 20
-320.8253399899999749
 30
0.0
 11
37.4993288699999994
 21
-320.8253399899999749
 31
0.0
  0
LINE
  5
250
  8
SLD-0_4
  6
CONTINUOUS
 62
     7
 10
-34.979623519999997
 20
-320.8253399899999749
 30
0.0
 11
-34.979623519999997
 21
-308.5742629700000066
 31
0.0
  0
LINE
  5
251
  8
SLD-0_4
  6
CONTINUOUS
 62
     7
 10
100.0517675699999955
 20
-320.8253399899999749
 30
0.0
 11
100.0517675699999955
 21
-308.5742629700000066
 31
0.0
  0
LINE
  5
252
  8
SLD-0_4
  6
CONTINUOUS
 62
     7
 10
-9.4783328600000001
 20
-320.8253399899999749
 30
0.0
 11
-9.4783328600000001
 21
-308.5742629700000066
 31
0.0
  0
LINE
  5
253
  8
SLD-0_4
  6
CONTINUOUS
 62
     7
 10
-107.2265248899999932
 20
-333.0743903599999953
 30
0.0
 11
-107.2265248899999932
 21
-320.8253399899999749
 31
0.0
  0
LINE
  5
254
  8
SLD-0_4
  6
CONTINUOUS
 62
     7
 10
53.2990635900000029
 20
-333.0743903599999953
 30
0.0
 11
53.2990635900000029
 21
-320.8253399899999749
 31
0.0
  0
LINE
  5
255
  8
SLD-0_4
  6
CONTINUOUS
 62
     7
 10
121.2991276000000056
 20
-333.0743903599999953
 30
0.0
 11
121.2991276000000056
 21
-320.8253399899999749
 31
0.0
  0
LINE
  5
256
  8
SLD-0_4
  6
CONTINUOUS
 62
     7
 10
108.5494955900000065
 20
-320.8253399899999749
 30
0.0
 11
108.5494955900000065
 21
-308.5742629700000066
 31
0.0
  0
LINE
  5
257
  8
SLD-0_4
  6
CONTINUOUS
 62
     7
 10
37.5003421899999978
 20
-328.8082998500000258
 30
0.0
 11
172.2621893200000045
 21
-328.8082998500000258
 31
0.0
  0
LINE
  5
258
  8
SLD-0_4
  6
CONTINUOUS
 62
     7
 10
-42.2785902399999927
 20
-308.5742629700000066
 30
0.0
 11
-42.2785902399999927
 21
-320.8253399899999749
 31
0.0
  0
LINE
  5
259
  8
SLD-0_4
  6
CONTINUOUS
 62
     7
 10
21.77052677
 20
-308.5742629700000066
 30
0.0
 11
21.77052677
 21
-320.8253399899999749
 31
0.0
  0
LINE
  5
25A
  8
SLD-0_4
  6
CONTINUOUS
 62
     7
 10
-80.5254596099999844
 20
-320.8253399899999749
 30
0.0
 11
-80.5254596099999844
 21
-333.0743903599999953
 31
0.0
  0
LINE
  5
25B
  8
SLD-0_4
  6
CONTINUOUS
 62
     7
 10
109.7492702100000059
 20
-320.8253399899999749
 30
0.0
 11
109.7492702100000059
 21
-308.5742629700000066
 31
0.0
  0
LINE
  5
25C
  8
SLD-0_4
  6
CONTINUOUS
 62
     7
 10
31.7517598999999997
 20
-333.0743903599999953
 30
0.0
 11
31.7517598999999997
 21
-320.8253399899999749
 31
0.0
  0
LINE
  5
25D
  8
SLD-0_4
  6
CONTINUOUS
 62
     7
 10
91.5499862500000035
 20
-320.8253399899999749
 30
0.0
 11
91.5499862500000035
 21
-308.5742629700000066
 31
0.0
  0
LINE
  5
25E
  8
SLD-0_4
  6
CONTINUOUS
 62
     7
 10
-16.7762862599999991
 20
-308.5742629700000066
 30
0.0
 11
-16.7762862599999991
 21
-320.8253399899999749
 31
0.0
  0
LINE
  5
25F
  8
SLD-0_4
  6
CONTINUOUS
 62
     7
 10
54.4988382100000024
 20
-320.8253399899999749
 30
0.0
 11
54.4988382100000024
 21
-333.0743903599999953
 31
0.0
  0
LINE
  5
260
  8
SLD-0_4
  6
CONTINUOUS
 62
     7
 10
-47.7282421999999968
 20
-333.0743903599999953
 30
0.0
 11
-47.7282421999999968
 21
-320.8253399899999749
 31
0.0
  0
LINE
  5
261
  8
SLD-0_4
  6
CONTINUOUS
 62
     7
 10
-97.5259822799999938
 20
-320.8253399899999749
 30
0.0
 11
-97.5259822799999938
 21
-333.0743903599999953
 31
0.0
  0
LINE
  5
262
  8
SLD-0_4
  6
CONTINUOUS
 62
     7
 10
172.2976556200000005
 20
-320.8253399899999749
 30
0.0
 11
172.2976556200000005
 21
-333.0743903599999953
 31
0.0
  0
LINE
  5
263
  8
SLD-0_4
  6
CONTINUOUS
 62
     7
 10
131.0006835400000114
 20
-320.8253399899999749
 30
0.0
 11
131.0006835400000114
 21
-333.0743903599999953
 31
0.0
  0
LINE
  5
264
  8
SLD-0_4
  6
CONTINUOUS
 62
     7
 10
71.4983475500000054
 20
-320.8253399899999749
 30
0.0
 11
71.4983475500000054
 21
-333.0743903599999953
 31
0.0
  0
LINE
  5
265
  8
SLD-0_4
  6
CONTINUOUS
 62
     7
 10
33.2484382100000033
 20
-316.8085269800000106
 30
0.0
 11
168.008258689999991
 21
-316.8085269800000106
 31
0.0
  0
LINE
  5
266
  8
SLD-0_4
  6
CONTINUOUS
 62
     7
 10
143.7523421900000073
 20
-308.5742629700000066
 30
0.0
 11
143.7523421900000073
 21
-320.8253399899999749
 31
0.0
  0
LINE
  5
267
  8
SLD-0_4
  6
CONTINUOUS
 62
     7
 10
-51.9781195300000007
 20
-320.8253399899999749
 30
0.0
 11
-51.9781195300000007
 21
-308.5742629700000066
 31
0.0
  0
LINE
  5
268
  8
SLD-0_4
  6
CONTINUOUS
 62
     7
 10
-118.7794222499999961
 20
-314.8811863299999914
 30
0.0
 11
15.9803982300000005
 21
-314.8811863299999914
 31
0.0
  0
LINE
  5
269
  8
SLD-0_4
  6
CONTINUOUS
 62
     7
 10
31.7517598999999997
 20
-320.8253399899999749
 30
0.0
 11
168.0477782899999966
 21
-320.8253399899999749
 31
0.0
  0
LINE
  5
26A
  8
SLD-0_4
  6
CONTINUOUS
 62
     7
 10
-114.5275182700000016
 20
-327.1322633400000086
 30
0.0
 11
20.2343288600000015
 21
-327.1322633400000086
 31
0.0
  0
LINE
  5
26B
  8
SLD-0_4
  6
CONTINUOUS
 62
     7
 10
129.7988822700000071
 20
-333.0743903599999953
 30
0.0
 11
129.7988822700000071
 21
-320.8253399899999749
 31
0.0
  0
LINE
  5
26C
  8
SLD-0_4
  6
CONTINUOUS
 62
     7
 10
168.0477782899999966
 20
-308.5742629700000066
 30
0.0
 11
173.7994005500000014
 21
-308.5742629700000066
 31
0.0
  0
LINE
  5
26D
  8
SLD-0_4
  6
CONTINUOUS
 62
     7
 10
16.0229578000000004
 20
-320.8253399899999749
 30
0.0
 11
16.0229578000000004
 21
-308.5742629700000066
 31
0.0
  0
LINE
  5
26E
  8
SLD-0_4
  6
CONTINUOUS
 62
     7
 10
258.7609977600000093
 20
-336.1569194100000004
 30
0.0
 11
258.7609977600000093
 21
-349.1558289100000252
 31
0.0
  0
LINE
  5
26F
  8
SLD-0_4
  6
CONTINUOUS
 62
     7
 10
96.9996382100000005
 20
-320.8253399899999749
 30
0.0
 11
96.9996382100000005
 21
-333.0743903599999953
 31
0.0
  0
LINE
  5
270
  8
SLD-0_4
  6
CONTINUOUS
 62
     7
 10
-12.5264089199999997
 20
-320.8253399899999749
 30
0.0
 11
-12.5264089199999997
 21
-333.0743903599999953
 31
0.0
  0
LINE
  5
271
  8
SLD-0_4
  6
CONTINUOUS
 62
     7
 10
-81.7272608800000029
 20
-333.0743903599999953
 30
0.0
 11
-81.7272608800000029
 21
-320.8253399899999749
 31
0.0
  0
LINE
  5
272
  8
SLD-0_4
  6
CONTINUOUS
 62
     7
 10
148.000192879999986
 20
-320.8253399899999749
 30
0.0
 11
148.000192879999986
 21
-333.0743903599999953
 31
0.0
  0
LINE
  5
273
  8
SLD-0_4
  6
CONTINUOUS
 62
     7
 10
0.22119644
 20
-308.5742629700000066
 30
0.0
 11
0.22119644
 21
-320.8253399899999749
 31
0.0
  0
LINE
  5
274
  8
SLD-0_4
  6
CONTINUOUS
 62
     7
 10
84.2500062000000014
 20
-320.8253399899999749
 30
0.0
 11
84.2500062000000014
 21
-308.5742629700000066
 31
0.0
  0
LINE
  5
275
  8
SLD-0_4
  6
CONTINUOUS
 62
     7
 10
8.7209511099999997
 20
-308.5742629700000066
 30
0.0
 11
8.7209511099999997
 21
-320.8253399899999749
 31
0.0
  0
LINE
  5
276
  8
SLD-0_4
  6
CONTINUOUS
 62
     7
 10
105.499392880000002
 20
-320.8253399899999749
 30
0.0
 11
105.499392880000002
 21
-333.0743903599999953
 31
0.0
  0
LINE
  5
277
  8
SLD-0_4
  6
CONTINUOUS
 62
     7
 10
-102.9786742000000004
 20
-320.8253399899999749
 30
0.0
 11
-102.9786742000000004
 21
-308.5742629700000066
 31
0.0
  0
LINE
  5
278
  8
SLD-0_4
  6
CONTINUOUS
 62
     7
 10
-38.0276995799999966
 20
-320.8253399899999749
 30
0.0
 11
-38.0276995799999966
 21
-333.0743903599999953
 31
0.0
  0
LINE
  5
279
  8
SLD-0_4
  6
CONTINUOUS
 62
     7
 10
163.7999275999999895
 20
-333.0743903599999953
 30
0.0
 11
163.7999275999999895
 21
-320.8253399899999749
 31
0.0
  0
LINE
  5
27A
  8
SLD-0_4
  6
CONTINUOUS
 62
     7
 10
-90.2280288799999965
 20
-333.0743903599999953
 30
0.0
 11
-90.2280288799999965
 21
-320.8253399899999749
 31
0.0
  0
LINE
  5
27B
  8
SLD-0_4
  6
CONTINUOUS
 62
     7
 10
-120.2761005600000033
 20
-333.0743903599999953
 30
0.0
 11
-120.2761005600000033
 21
-320.8253399899999749
 31
0.0
  0
LINE
  5
27C
  8
SLD-0_4
  6
CONTINUOUS
 62
     7
 10
-55.0272089199999996
 20
-320.8253399899999749
 30
0.0
 11
-55.0272089199999996
 21
-333.0743903599999953
 31
0.0
  0
LINE
  5
27D
  8
SLD-0_4
  6
CONTINUOUS
 62
     7
 10
278.7609977600000093
 20
-347.1558289100000252
 30
0.0
 11
278.7609977600000093
 21
-349.1558289100000252
 31
0.0
  0
LINE
  5
27E
  8
SLD-0_4
  6
CONTINUOUS
 62
     7
 10
125.5490049299999953
 20
-320.8253399899999749
 30
0.0
 11
125.5490049299999953
 21
-308.5742629700000066
 31
0.0
  0
LINE
  5
27F
  8
SLD-0_4
  6
CONTINUOUS
 62
     7
 10
7.5232031299999989
 20
-320.8253399899999749
 30
0.0
 11
7.5232031299999989
 21
-308.5742629700000066
 31
0.0
  0
LINE
  5
280
  8
SLD-0_4
  6
CONTINUOUS
 62
     7
 10
4.4710737700000003
 20
-333.0743903599999953
 30
0.0
 11
4.4710737700000003
 21
-320.8253399899999749
 31
0.0
  0
LINE
  5
281
  8
SLD-0_4
  6
CONTINUOUS
 62
     7
 10
40.5514582300000015
 20
-320.8253399899999749
 30
0.0
 11
40.5514582300000015
 21
-308.5742629700000066
 31
0.0
  0
LINE
  5
282
  8
SLD-0_4
  6
CONTINUOUS
 62
     7
 10
-68.9766155500000053
 20
-320.8253399899999749
 30
0.0
 11
-68.9766155500000053
 21
-308.5742629700000066
 31
0.0
  0
LINE
  5
283
  8
SLD-0_4
  6
CONTINUOUS
 62
     7
 10
-50.7783449100000013
 20
-308.5742629700000066
 30
0.0
 11
-50.7783449100000013
 21
-320.8253399899999749
 31
0.0
  0
LINE
  5
284
  8
SLD-0_4
  6
CONTINUOUS
 62
     7
 10
95.7998635900000153
 20
-333.0743903599999953
 30
0.0
 11
95.7998635900000153
 21
-320.8253399899999749
 31
0.0
  0
LINE
  5
285
  8
SLD-0_4
  6
CONTINUOUS
 62
     7
 10
66.0507222399999989
 20
-320.8253399899999749
 30
0.0
 11
66.0507222399999989
 21
-308.5742629700000066
 31
0.0
  0
LINE
  5
286
  8
SLD-0_4
  6
CONTINUOUS
 62
     7
 10
-93.2781315899999868
 20
-308.5742629700000066
 30
0.0
 11
-93.2781315899999868
 21
-320.8253399899999749
 31
0.0
  0
LINE
  5
287
  8
SLD-0_4
  6
CONTINUOUS
 62
     7
 10
-30.7277195300000017
 20
-333.0743903599999953
 30
0.0
 11
-30.7277195300000017
 21
-320.8253399899999749
 31
0.0
  0
LINE
  5
288
  8
SLD-0_4
  6
CONTINUOUS
 62
     7
 10
-110.2786542500000024
 20
-308.5742629700000066
 30
0.0
 11
-110.2786542500000024
 21
-320.8253399899999749
 31
0.0
  0
LINE
  5
289
  8
SLD-0_4
  6
CONTINUOUS
 62
     7
 10
101.2474888999999934
 20
-320.8253399899999749
 30
0.0
 11
101.2474888999999934
 21
-308.5742629700000066
 31
0.0
  0
LINE
  5
28A
  8
SLD-0_4
  6
CONTINUOUS
 62
     7
 10
-33.7778222499999998
 20
-308.5742629700000066
 30
0.0
 11
-33.7778222499999998
 21
-320.8253399899999749
 31
0.0
  0
LINE
  5
28B
  8
SLD-0_4
  6
CONTINUOUS
 62
     7
 10
67.2504968599999984
 20
-308.5742629700000066
 30
0.0
 11
67.2504968599999984
 21
-320.8253399899999749
 31
0.0
  0
LINE
  5
28C
  8
SLD-0_4
  6
CONTINUOUS
 62
     7
 10
12.9748817299999999
 20
-320.8253399899999749
 30
0.0
 11
12.9748817299999999
 21
-333.0743903599999953
 31
0.0
  0
LINE
  5
28D
  8
SLD-0_4
  6
CONTINUOUS
 62
     7
 10
-118.7773956000000055
 20
-308.5742629700000066
 30
0.0
 11
-118.7773956000000055
 21
-320.8253399899999749
 31
0.0
  0
LINE
  5
28E
  8
SLD-0_4
  6
CONTINUOUS
 62
     7
 10
46.0011101799999906
 20
-320.8253399899999749
 30
0.0
 11
46.0011101799999906
 21
-333.0743903599999953
 31
0.0
  0
LINE
  5
28F
  8
SLD-0_4
  6
CONTINUOUS
 62
     7
 10
-4.0266542499999991
 20
-320.8253399899999749
 30
0.0
 11
-4.0266542499999991
 21
-333.0743903599999953
 31
0.0
  0
LINE
  5
290
  8
SLD-0_4
  6
CONTINUOUS
 62
     7
 10
83.0502315800000019
 20
-320.8253399899999749
 30
0.0
 11
83.0502315800000019
 21
-308.5742629700000066
 31
0.0
  0
LINE
  5
291
  8
SLD-0_4
  6
CONTINUOUS
 62
     7
 10
117.0492502599999938
 20
-320.8253399899999749
 30
0.0
 11
117.0492502599999938
 21
-308.5742629700000066
 31
0.0
  0
LINE
  5
292
  8
SLD-0_4
  6
CONTINUOUS
 62
     7
 10
-21.0281902400000007
 20
-320.8253399899999749
 30
0.0
 11
-21.0281902400000007
 21
-333.0743903599999953
 31
0.0
  0
LINE
  5
293
  8
SLD-0_4
  6
CONTINUOUS
 62
     7
 10
16.0229578000000004
 20
-308.5742629700000066
 30
0.0
 11
-120.2761005600000033
 21
-308.5742629700000066
 31
0.0
  0
LINE
  5
294
  8
SLD-0_4
  6
CONTINUOUS
 62
     7
 10
-56.2259702200000007
 20
-333.0743903599999953
 30
0.0
 11
-56.2259702200000007
 21
-320.8253399899999749
 31
0.0
  0
LINE
  5
295
  8
SLD-0_4
  6
CONTINUOUS
 62
     7
 10
58.7487155399999992
 20
-308.5742629700000066
 30
0.0
 11
58.7487155399999992
 21
-320.8253399899999749
 31
0.0
  0
LINE
  5
296
  8
SLD-0_4
  6
CONTINUOUS
 62
     7
 10
-8.2765315899999994
 20
-308.5742629700000066
 30
0.0
 11
-8.2765315899999994
 21
-320.8253399899999749
 31
0.0
  0
LINE
  5
297
  8
SLD-0_4
  6
CONTINUOUS
 62
     7
 10
-106.0267502699999937
 20
-320.8253399899999749
 30
0.0
 11
-106.0267502699999937
 21
-333.0743903599999953
 31
0.0
  0
LINE
  5
298
  8
SLD-0_4
  6
CONTINUOUS
 62
     7
 10
151.0482689499999935
 20
-320.8253399899999749
 30
0.0
 11
151.0482689499999935
 21
-308.5742629700000066
 31
0.0
  0
LINE
  5
299
  8
SLD-0_4
  6
CONTINUOUS
 62
     7
 10
16.0229578000000004
 20
-308.5742629700000066
 30
0.0
 11
21.77052677
 21
-308.5742629700000066
 31
0.0
  0
LINE
  5
29A
  8
SLD-0_4
  6
CONTINUOUS
 62
     7
 10
21.77052677
 20
-333.0743903599999953
 30
0.0
 11
21.77052677
 21
-320.8253399899999749
 31
0.0
  0
LINE
  5
29B
  8
SLD-0_4
  6
CONTINUOUS
 62
     7
 10
21.77052677
 20
-320.8253399899999749
 30
0.0
 11
-114.5275182700000016
 21
-320.8253399899999749
 31
0.0
  0
LINE
  5
29C
  8
SLD-0_4
  6
CONTINUOUS
 62
     7
 10
33.2494515300000018
 20
-308.5742629700000066
 30
0.0
 11
33.2494515300000018
 21
-320.8253399899999749
 31
0.0
  0
LINE
  5
29D
  8
SLD-0_4
  6
CONTINUOUS
 62
     7
 10
143.7503155400000026
 20
-320.8253399899999749
 30
0.0
 11
143.7503155400000026
 21
-308.5742629700000066
 31
0.0
  0
LINE
  5
29E
  8
SLD-0_4
  6
CONTINUOUS
 62
     7
 10
-73.2264928900000029
 20
-333.0743903599999953
 30
0.0
 11
-73.2264928900000029
 21
-320.8253399899999749
 31
0.0
  0
LINE
  5
29F
  8
SLD-0_4
  6
CONTINUOUS
 62
     7
 10
-43.4773515400000008
 20
-320.8253399899999749
 30
0.0
 11
-43.4773515400000008
 21
-308.5742629700000066
 31
0.0
  0
LINE
  5
2A0
  8
SLD-0_4
  6
CONTINUOUS
 62
     7
 10
84.2479795600000045
 20
-308.5742629700000066
 30
0.0
 11
84.2479795600000045
 21
-320.8253399899999749
 31
0.0
  0
LINE
  5
2A1
  8
SLD-0_4
  6
CONTINUOUS
 62
     7
 10
160.7477982400000087
 20
-308.5742629700000066
 30
0.0
 11
160.7477982400000087
 21
-320.8253399899999749
 31
0.0
  0
LINE
  5
2A2
  8
SLD-0_4
  6
CONTINUOUS
 62
     7
 10
101.251542189999995
 20
-308.5742629700000066
 30
0.0
 11
101.251542189999995
 21
-320.8253399899999749
 31
0.0
  0
LINE
  5
2A3
  8
SLD-0_4
  6
CONTINUOUS
 62
     7
 10
173.7994005500000014
 20
-333.0743903599999953
 30
0.0
 11
173.7994005500000014
 21
-320.8253399899999749
 31
0.0
  0
LINE
  5
2A4
  8
SLD-0_4
  6
CONTINUOUS
 62
     7
 10
-120.2761005600000033
 20
-320.8253399899999749
 30
0.0
 11
16.0229578000000004
 21
-320.8253399899999749
 31
0.0
  0
LINE
  5
2A5
  8
SLD-0_4
  6
CONTINUOUS
 62
     7
 10
118.251051529999998
 20
-308.5742629700000066
 30
0.0
 11
118.251051529999998
 21
-320.8253399899999749
 31
0.0
  0
LINE
  5
2A6
  8
SLD-0_4
  6
CONTINUOUS
 62
     7
 10
70.3005995700000028
 20
-333.0743903599999953
 30
0.0
 11
70.3005995700000028
 21
-320.8253399899999749
 31
0.0
  0
LINE
  5
2A7
  8
SLD-0_4
  6
CONTINUOUS
 62
     7
 10
118.2490248799999932
 20
-320.8253399899999749
 30
0.0
 11
118.2490248799999932
 21
-308.5742629700000066
 31
0.0
  0
LINE
  5
2A8
  8
SLD-0_4
  6
CONTINUOUS
 62
     7
 10
62.9985928799999968
 20
-320.8253399899999749
 30
0.0
 11
62.9985928799999968
 21
-333.0743903599999953
 31
0.0
  0
LINE
  5
2A9
  8
SLD-0_4
  6
CONTINUOUS
 62
     7
 10
-98.7277835500000123
 20
-333.0743903599999953
 30
0.0
 11
-98.7277835500000123
 21
-320.8253399899999749
 31
0.0
  0
LINE
  5
2AA
  8
SLD-0_4
  6
CONTINUOUS
 62
     7
 10
278.7609977600000093
 20
-347.1558289100000252
 30
0.0
 11
258.7609977600000093
 21
-347.1558289100000252
 31
0.0
  0
LINE
  5
2AB
  8
SLD-0_4
  6
CONTINUOUS
 62
     7
 10
4.4731004199999989
 20
-320.8253399899999749
 30
0.0
 11
4.4731004199999989
 21
-333.0743903599999953
 31
0.0
  0
LINE
  5
2AC
  8
SLD-0_4
  6
CONTINUOUS
 62
     7
 10
-46.5264409299999997
 20
-320.8253399899999749
 30
0.0
 11
-46.5264409299999997
 21
-333.0743903599999953
 31
0.0
  0
LINE
  5
2AD
  8
SLD-0_4
  6
CONTINUOUS
 62
     7
 10
122.4989022200000051
 20
-320.8253399899999749
 30
0.0
 11
122.4989022200000051
 21
-333.0743903599999953
 31
0.0
  0
LINE
  5
2AE
  8
SLD-0_4
  6
CONTINUOUS
 62
     7
 10
-13.72618355
 20
-333.0743903599999953
 30
0.0
 11
-13.72618355
 21
-320.8253399899999749
 31
0.0
  0
LINE
  5
2AF
  8
SLD-0_4
  6
CONTINUOUS
 62
     7
 10
-131.3000432199999921
 20
-336.1569194100000004
 30
0.0
 11
-131.3000432199999921
 21
-349.1558289100000252
 31
0.0
  0
LINE
  5
2B0
  8
SLD-0_4
  6
CONTINUOUS
 62
     7
 10
-25.2780675799999983
 20
-308.5742629700000066
 30
0.0
 11
-25.2780675799999983
 21
-320.8253399899999749
 31
0.0
  0
LINE
  5
2B1
  8
SLD-0_4
  6
CONTINUOUS
 62
     7
 10
126.7487795600000027
 20
-308.5742629700000066
 30
0.0
 11
126.7487795600000027
 21
-320.8253399899999749
 31
0.0
  0
LINE
  5
2B2
  8
SLD-0_4
  6
CONTINUOUS
 62
     7
 10
-84.7783769199999853
 20
-308.5742629700000066
 30
0.0
 11
-84.7783769199999853
 21
-320.8253399899999749
 31
0.0
  0
LINE
  5
2B3
  8
SLD-0_4
  6
CONTINUOUS
 62
     7
 10
-114.5275182700000016
 20
-328.8082998500000258
 30
0.0
 11
20.2343288600000015
 21
-328.8082998500000258
 31
0.0
  0
LINE
  5
2B4
  8
SLD-0_4
  6
CONTINUOUS
 62
     7
 10
-114.5275182700000016
 20
-333.0743903599999953
 30
0.0
 11
-120.2761005600000033
 21
-333.0743903599999953
 31
0.0
  0
LINE
  5
2B5
  8
SLD-0_4
  6
CONTINUOUS
 62
     7
 10
75.7502515299999999
 20
-308.5742629700000066
 30
0.0
 11
75.7502515299999999
 21
-320.8253399899999749
 31
0.0
  0
LINE
  5
2B6
  8
SLD-0_4
  6
CONTINUOUS
 62
     7
 10
155.3001729300000022
 20
-333.0743903599999953
 30
0.0
 11
155.3001729300000022
 21
-320.8253399899999749
 31
0.0
  0
LINE
  5
2B7
  8
SLD-0_4
  6
CONTINUOUS
 62
     7
 10
44.7993089100000006
 20
-333.0743903599999953
 30
0.0
 11
44.7993089100000006
 21
-320.8253399899999749
 31
0.0
  0
LINE
  5
2B8
  8
SLD-0_4
  6
CONTINUOUS
 62
     7
 10
37.4993288699999994
 20
-320.8253399899999749
 30
0.0
 11
37.4993288699999994
 21
-333.0743903599999953
 31
0.0
  0
LINE
  5
2B9
  8
SLD-0_4
  6
CONTINUOUS
 62
     7
 10
146.7983916100000101
 20
-333.0743903599999953
 30
0.0
 11
146.7983916100000101
 21
-320.8253399899999749
 31
0.0
  0
LINE
  5
2BA
  8
SLD-0_4
  6
CONTINUOUS
 62
     7
 10
49.0491862499999982
 20
-320.8253399899999749
 30
0.0
 11
49.0491862499999982
 21
-308.5742629700000066
 31
0.0
  0
LINE
  5
2BB
  8
SLD-0_4
  6
CONTINUOUS
 62
     7
 10
165.0017288699999938
 20
-320.8253399899999749
 30
0.0
 11
165.0017288699999938
 21
-333.0743903599999953
 31
0.0
  0
LINE
  5
2BC
  8
SLD-0_4
  6
CONTINUOUS
 62
     7
 10
134.048759600000011
 20
-320.8253399899999749
 30
0.0
 11
134.048759600000011
 21
-308.5742629700000066
 31
0.0
  0
LINE
  5
2BD
  8
SLD-0_4
  6
CONTINUOUS
 62
     7
 10
92.7497608700000029
 20
-308.5742629700000066
 30
0.0
 11
92.7497608700000029
 21
-320.8253399899999749
 31
0.0
  0
LINE
  5
2BE
  8
SLD-0_4
  6
CONTINUOUS
 62
     7
 10
11.77308047
 20
-333.0743903599999953
 30
0.0
 11
11.77308047
 21
-320.8253399899999749
 31
0.0
  0
LINE
  5
2BF
  8
SLD-0_4
  6
CONTINUOUS
 62
     7
 10
33.2484382100000033
 20
-314.8811863299999914
 30
0.0
 11
168.008258689999991
 21
-314.8811863299999914
 31
0.0
  0
ARC
  5
2C0
  8
SLD-0_4
  6
CONTINUOUS
 62
     7
 10
268.7609977600000093
 20
-77.1554389100000009
 30
0.0
 40
3.5
 50
90.0
 51
270.0
  0
ARC
  5
2C1
  8
SLD-0_4
  6
CONTINUOUS
 62
     7
 10
-191.2390022399999907
 20
-77.1554389100000009
 30
0.0
 40
3.5
 50
270.0
 51
450.0
  0
ARC
  5
2C2
  8
SLD-0_4
  6
CONTINUOUS
 62
     7
 10
268.7609977600000093
 20
-127.1554389100000009
 30
0.0
 40
3.5
 50
90.0
 51
270.0
  0
ARC
  5
2C3
  8
SLD-0_4
  6
CONTINUOUS
 62
     7
 10
-191.2390022399999907
 20
-127.1554389100000009
 30
0.0
 40
3.5
 50
270.0
 51
450.0
  0
LINE
  5
2C4
  8
SLD-0_2
  6
CONTINUOUS
 62
     7
 10
-201.2390022399999907
 20
-347.1558289100000252
 30
0.0
 11
-201.2390022399999907
 21
-349.1558289100000252
 31
0.0
  0
LINE
  5
2C5
  8
SLD-0_2
  6
CONTINUOUS
 62
     7
 10
278.7609977600000093
 20
-349.1558289100000252
 30
0.0
 11
-201.2390022399999907
 21
-349.1558289100000252
 31
0.0
  0
LINE
  5
2C6
  8
SLD-0_2
  6
CONTINUOUS
 62
     7
 10
-131.3000432199999921
 20
-347.1558289100000252
 30
0.0
 11
-201.2390022399999907
 21
-347.1558289100000252
 31
0.0
  0
LINE
  5
2C7
  8
SLD-0_2
  6
PHANTOM
 62
     7
 10
-181.2390022399999907
 20
-152.1554389099999867
 30
0.0
 11
-181.2390022399999907
 21
-52.1554389100000009
 31
0.0
  0
LINE
  5
2C8
  8
SLD-0
  6
PHANTOM
 62
     7
 10
-181.2390022399999907
 20
-306.2780204599999934
 30
0.0
 11
-181.2390022399999907
 21
-347.1558289100000252
 31
0.0
  0
LINE
  5
2C9
  8
SLD-0
  6
PHANTOM
 62
     7
 10
-131.2390022399999907
 20
-306.2780204599999934
 30
0.0
 11
-131.2390022399999907
 21
-336.1569194100000004
 31
0.0
  0
LINE
  5
2CA
  8
SLD-0
  6
PHANTOM
 62
     7
 10
201.5683635700000025
 20
362.542026729999975
 30
0.0
 11
245.5683635700000025
 21
362.542026729999975
 31
0.0
  0
LINE
  5
2CB
  8
SLD-0
  6
PHANTOM
 62
     7
 10
199.5683635700000025
 20
285.542026729999975
 30
0.0
 11
247.5683635700000025
 21
285.542026729999975
 31
0.0
  0
LINE
  5
2CC
  8
SLD-0
  6
PHANTOM
 62
     7
 10
199.5683635700000025
 20
365.542026729999975
 30
0.0
 11
247.5683635700000025
 21
365.542026729999975
 31
0.0
  0
LINE
  5
2CD
  8
SLD-0
  6
PHANTOM
 62
     7
 10
245.5683635700000025
 20
288.542026729999975
 30
0.0
 11
245.5683635700000025
 21
362.542026729999975
 31
0.0
  0
LINE
  5
2CE
  8
SLD-0
  6
PHANTOM
 62
     7
 10
248.5683635700000025
 20
286.542026729999975
 30
0.0
 11
248.5683635700000025
 21
364.542026729999975
 31
0.0
  0
LINE
  5
2CF
  8
SLD-0
  6
PHANTOM
 62
     7
 10
198.5683635700000025
 20
286.542026729999975
 30
0.0
 11
198.5683635700000025
 21
364.542026729999975
 31
0.0
  0
LINE
  5
2D0
  8
SLD-0
  6
PHANTOM
 62
     7
 10
201.5683635700000025
 20
288.542026729999975
 30
0.0
 11
245.5683635700000025
 21
288.542026729999975
 31
0.0
  0
LINE
  5
2D1
  8
SLD-0
  6
PHANTOM
 62
     7
 10
201.5683635700000025
 20
288.542026729999975
 30
0.0
 11
201.5683635700000025
 21
362.542026729999975
 31
0.0
  0
LINE
  5
2D2
  8
SLD-0
  6
PHANTOM
 62
     7
 10
222.4463321700000051
 20
208.0416367200000138
 30
0.0
 11
238.2603049900000087
 21
208.0416367200000138
 31
0.0
  0
LINE
  5
2D3
  8
SLD-0
  6
PHANTOM
 62
     7
 10
219.1561940199999867
 20
278.6805097800000226
 30
0.0
 11
227.9772552400000052
 21
278.6805097800000226
 31
0.0
  0
LINE
  5
2D4
  8
SLD-0
  6
PHANTOM
 62
     7
 10
227.9772552400000052
 20
285.5164493699999753
 30
0.0
 11
227.9772552400000052
 21
278.6805097800000226
 31
0.0
  0
LINE
  5
2D5
  8
SLD-0
  6
PHANTOM
 62
     7
 10
227.9772552400000052
 20
278.6805097800000226
 30
0.0
 11
231.5764514100000042
 21
285.542026729999975
 31
0.0
  0
LINE
  5
2D6
  8
SLD-0
  6
PHANTOM
 62
     7
 10
219.1561940199999867
 20
278.6805097800000226
 30
0.0
 11
219.1561940199999867
 21
285.542026729999975
 31
0.0
  0
LINE
  5
2D7
  8
SLD-0
  6
PHANTOM
 62
     7
 10
215.916762690000013
 20
285.542026729999975
 30
0.0
 11
219.1561940199999867
 21
278.6805097800000226
 31
0.0
  0
LINE
  5
2D9
  8
SLD-0
  6
PHANTOM
 62
     7
 10
-145.7449664400000131
 20
337.3421889800000031
 30
0.0
 11
-145.7449664400000131
 21
294.8672061699999745
 31
0.0
  0
LINE
  5
2DA
  8
SLD-0
  6
PHANTOM
 62
     7
 10
-158.3433092600000123
 20
337.3421889800000031
 30
0.0
 11
-158.3433092600000123
 21
294.8672061699999745
 31
0.0
  0
LINE
  5
2DB
  8
SLD-0
  6
PHANTOM
 62
     7
 10
-149.4512146799999925
 20
337.3421889800000031
 30
0.0
 11
-149.4512146799999925
 21
294.8672061699999745
 31
0.0
  0
CIRCLE
  5
2DC
  8
SLD-0
  6
PHANTOM
 62
     7
 10
-172.2644849899999997
 20
-62.3073568100000017
 30
0.0
 40
2.6164181399999991
  0
CIRCLE
  5
2DD
  8
SLD-0
  6
PHANTOM
 62
     7
 10
223.5683635700000025
 20
368.9845911099999967
 30
0.0
 40
2.50017756
  0
ARC
  5
2DE
  8
SLD-0
  6
PHANTOM
 62
     7
 10
247.5683635700000025
 20
364.542026729999975
 30
0.0
 40
1.0
 50
0.0
 51
90.0
  0
ARC
  5
2DF
  8
SLD-0
  6
PHANTOM
 62
     7
 10
247.5683635700000025
 20
286.542026729999975
 30
0.0
 40
1.0
 50
270.0
 51
360.0
  0
ARC
  5
2E0
  8
SLD-0
  6
PHANTOM
 62
     7
 10
199.5683635700000025
 20
286.542026729999975
 30
0.0
 40
1.0
 50
180.0
 51
270.0
  0
ARC
  5
2E1
  8
SLD-0
  6
PHANTOM
 62
     7
 10
199.5683635700000025
 20
364.542026729999975
 30
0.0
 40
1.0
 50
90.0
 51
180.0
  0
CIRCLE
  5
2E2
  8
SLD-0
  6
PHANTOM
 62
     7
 10
223.5683635700000025
 20
282.0994623400000023
 30
0.0
 40
2.50017756
  0
CIRCLE
  5
2E3
  8
SLD-0
  6
PHANTOM
 62
     7
 10
-153.8938947700000028
 20
332.6941332000000102
 30
0.0
 40
3.360515739999999
  0
LINE
  5
2E4
  8
SLD-0
  6
CONTINUOUS
 62
     7
 10
-201.2390022399999907
 20
76.0416367299999933
 30
0.0
 11
278.7609977600000093
 21
76.0416367299999933
 31
0.0
  0
LINE
  5
2E5
  8
SLD-0
  6
CONTINUOUS
 62
     7
 10
278.7609977600000093
 20
373.042026729999975
 30
0.0
 11
276.2609977600000093
 21
375.542026729999975
 31
0.0
  0
LINE
  5
2E6
  8
SLD-0
  6
CONTINUOUS
 62
     7
 10
-201.2390022399999907
 20
373.042026729999975
 30
0.0
 11
-198.7390022399999054
 21
375.542026729999975
 31
0.0
  0
LINE
  5
2E7
  8
SLD-0
  6
CONTINUOUS
 62
     7
 10
276.2609977600000093
 20
275.542026729999975
 30
0.0
 11
278.7609977600000093
 21
278.042026729999975
 31
0.0
  0
LINE
  5
2E8
  8
SLD-0
  6
CONTINUOUS
 62
     7
 10
-198.7390022399999054
 20
275.542026729999975
 30
0.0
 11
-201.2390022399999907
 21
278.042026729999975
 31
0.0
  0
LINE
  5
2E9
  8
SLD-0_0
  6
CONTINUOUS
 62
     7
 10
-52.4969409899999988
 20
258.5597322699999836
 30
0.0
 11
-67.4951370900000001
 21
258.5597322699999836
 31
0.0
  0
LINE
  5
2EA
  8
SLD-0_0
  6
CONTINUOUS
 62
     7
 10
-51.974530399999999
 20
259.0940994599999954
 30
0.0
 11
-52.0243926599999895
 21
259.0938924299999826
 31
0.0
  0
LINE
  5
2EB
  8
SLD-0_0
  6
CONTINUOUS
 62
     7
 10
-107.2265248899999932
 20
92.1230752900000027
 30
0.0
 11
-107.2265248899999932
 21
104.372125650000001
 31
0.0
  0
LINE
  5
2EC
  8
SLD-0_0
  6
CONTINUOUS
 62
     7
 10
-52.1333525399999971
 20
259.1537828500000273
 30
0.0
 11
-52.1577827099999993
 21
259.1856920500000001
 31
0.0
  0
LINE
  5
2ED
  8
SLD-0_0
  6
CONTINUOUS
 62
     7
 10
53.2990635900000029
 20
92.1230752900000027
 30
0.0
 11
53.2990635900000029
 21
104.372125650000001
 31
0.0
  0
LINE
  5
2EE
  8
SLD-0_0
  6
CONTINUOUS
 62
     7
 10
21.7907932299999985
 20
275.5420151299999816
 30
0.0
 11
21.7907932299999985
 21
286.2913472199999774
 31
0.0
  0
LINE
  5
2EF
  8
SLD-0_0
  6
CONTINUOUS
 62
     7
 10
135.24853422999999
 20
116.623202660000004
 30
0.0
 11
135.24853422999999
 21
104.372125650000001
 31
0.0
  0
LINE
  5
2F0
  8
SLD-0_0
  6
CONTINUOUS
 62
     7
 10
-114.5275182700000016
 20
92.1230752900000027
 30
0.0
 11
-120.2761005600000033
 21
92.1230752900000027
 31
0.0
  0
LINE
  5
2F1
  8
SLD-0_0
  6
CONTINUOUS
 62
     7
 10
54.4988382100000024
 20
104.372125650000001
 30
0.0
 11
54.4988382100000024
 21
92.1230752900000027
 31
0.0
  0
LINE
  5
2F2
  8
SLD-0_0
  6
CONTINUOUS
 62
     7
 10
-52.1033079700000101
 20
259.1262015400000109
 30
0.0
 11
-52.1333525399999971
 21
259.1537828500000273
 31
0.0
  0
LINE
  5
2F3
  8
SLD-0_0
  6
CONTINUOUS
 62
     7
 10
79.9981022200000069
 20
104.372125650000001
 30
0.0
 11
79.9981022200000069
 21
92.1230752900000027
 31
0.0
  0
LINE
  5
2F4
  8
SLD-0_0
  6
CONTINUOUS
 62
     7
 10
-52.1577827099999993
 20
259.1856920500000001
 30
0.0
 11
-52.1770942500000032
 21
259.2194617800000174
 31
0.0
  0
LINE
  5
2F5
  8
SLD-0_0
  6
CONTINUOUS
 62
     7
 10
37.5003421899999978
 20
98.0652022999999957
 30
0.0
 11
172.2621893200000045
 21
98.0652022999999957
 31
0.0
  0
LINE
  5
2F6
  8
SLD-0_0
  6
CONTINUOUS
 62
     7
 10
-49.4589981600000002
 20
275.6474007300000153
 30
0.0
 11
-49.4589981600000002
 21
265.1899056999999971
 31
0.0
  0
LINE
  5
2F7
  8
SLD-0_0
  6
CONTINUOUS
 62
     7
 10
-47.7282421999999968
 20
92.1230752900000027
 30
0.0
 11
-47.7282421999999968
 21
104.372125650000001
 31
0.0
  0
LINE
  5
2F8
  8
SLD-0_0
  6
CONTINUOUS
 62
     7
 10
31.7517598999999997
 20
116.623202660000004
 30
0.0
 11
31.7517598999999997
 21
104.372125650000001
 31
0.0
  0
LINE
  5
2F9
  8
SLD-0_0
  6
CONTINUOUS
 62
     7
 10
-97.5259822799999938
 20
104.372125650000001
 30
0.0
 11
-97.5259822799999938
 21
92.1230752900000027
 31
0.0
  0
LINE
  5
2FA
  8
SLD-0_0
  6
CONTINUOUS
 62
     7
 10
278.7609977600000093
 20
78.0416367299999933
 30
0.0
 11
278.7609977600000093
 21
76.0416367299999933
 31
0.0
  0
LINE
  5
2FB
  8
SLD-0_0
  6
CONTINUOUS
 62
     7
 10
-111.4784288799999956
 20
104.372125650000001
 30
0.0
 11
-111.4784288799999956
 21
116.623202660000004
 31
0.0
  0
LINE
  5
2FC
  8
SLD-0_0
  6
CONTINUOUS
 62
     7
 10
70.3005995700000028
 20
92.1230752900000027
 30
0.0
 11
70.3005995700000028
 21
104.372125650000001
 31
0.0
  0
LINE
  5
2FD
  8
SLD-0_0
  6
CONTINUOUS
 62
     7
 10
75.7502515299999999
 20
116.623202660000004
 30
0.0
 11
75.7502515299999999
 21
104.372125650000001
 31
0.0
  0
LINE
  5
2FE
  8
SLD-0_0
  6
CONTINUOUS
 62
     7
 10
-60.4788875300000015
 20
104.372125650000001
 30
0.0
 11
-60.4788875300000015
 21
116.623202660000004
 31
0.0
  0
LINE
  5
2FF
  8
SLD-0_0
  6
CONTINUOUS
 62
     7
 10
-67.4951370900000001
 20
258.5597322699999836
 30
0.0
 11
-67.4951370900000001
 21
281.0413199199999781
 31
0.0
  0
LINE
  5
300
  8
SLD-0_0
  6
CONTINUOUS
 62
     7
 10
87.3001089100000058
 20
92.1230752900000027
 30
0.0
 11
87.3001089100000058
 21
104.372125650000001
 31
0.0
  0
LINE
  5
301
  8
SLD-0_0
  6
CONTINUOUS
 62
     7
 10
-38.4725484499999979
 20
275.5420151299999816
 30
0.0
 11
-38.4725484499999979
 21
286.2913472199999774
 31
0.0
  0
LINE
  5
302
  8
SLD-0_0
  6
CONTINUOUS
 62
     7
 10
168.0477782899999966
 20
104.372125650000001
 30
0.0
 11
168.0477782899999966
 21
116.623202660000004
 31
0.0
  0
LINE
  5
303
  8
SLD-0_0
  6
CONTINUOUS
 62
     7
 10
8.8770028700000001
 20
286.2913472199999774
 30
0.0
 11
8.8770028700000001
 21
297.0416926099999841
 31
0.0
  0
LINE
  5
304
  8
SLD-0_0
  6
CONTINUOUS
 62
     7
 10
36.0887830300000019
 20
286.2913472199999774
 30
0.0
 11
36.0887830300000019
 21
275.5420151299999816
 31
0.0
  0
LINE
  5
305
  8
SLD-0_0
  6
CONTINUOUS
 62
     7
 10
-93.2781315899999868
 20
116.623202660000004
 30
0.0
 11
-93.2781315899999868
 21
104.372125650000001
 31
0.0
  0
LINE
  5
306
  8
SLD-0_0
  6
CONTINUOUS
 62
     7
 10
118.2490248799999932
 20
104.372125650000001
 30
0.0
 11
118.2490248799999932
 21
116.623202660000004
 31
0.0
  0
LINE
  5
307
  8
SLD-0_0
  6
CONTINUOUS
 62
     7
 10
-26.4798688400000017
 20
104.372125650000001
 30
0.0
 11
-26.4798688400000017
 21
116.623202660000004
 31
0.0
  0
LINE
  5
308
  8
SLD-0_0
  6
CONTINUOUS
 62
     7
 10
-68.603712630000004
 20
286.2913472199999774
 30
0.0
 11
-68.603712630000004
 21
297.0416926099999841
 31
0.0
  0
LINE
  5
309
  8
SLD-0_0
  6
CONTINUOUS
 62
     7
 10
-52.1770942500000032
 20
259.2194617800000174
 30
0.0
 11
-52.1917829100000006
 21
259.2526245799999742
 31
0.0
  0
LINE
  5
30A
  8
SLD-0_0
  6
CONTINUOUS
 62
     7
 10
173.8318268900000021
 20
286.2913472199999774
 30
0.0
 11
36.0887830300000019
 21
286.2913472199999774
 31
0.0
  0
LINE
  5
30B
  8
SLD-0_0
  6
CONTINUOUS
 62
     7
 10
57.5509675699999974
 20
104.372125650000001
 30
0.0
 11
57.5509675699999974
 21
116.623202660000004
 31
0.0
  0
LINE
  5
30C
  8
SLD-0_0
  6
CONTINUOUS
 62
     7
 10
121.2991276000000056
 20
92.1230752900000027
 30
0.0
 11
121.2991276000000056
 21
104.372125650000001
 31
0.0
  0
LINE
  5
30D
  8
SLD-0_0
  6
CONTINUOUS
 62
     7
 10
109.2649017399999991
 20
286.2913472199999774
 30
0.0
 11
109.2649017399999991
 21
297.0416926099999841
 31
0.0
  0
LINE
  5
30E
  8
SLD-0_0
  6
CONTINUOUS
 62
     7
 10
-51.0934914400000011
 20
262.8992502799999897
 30
0.0
 11
-51.0824406799999977
 21
262.4768270499999971
 31
0.0
  0
LINE
  5
30F
  8
SLD-0_0
  6
CONTINUOUS
 62
     7
 10
-51.0783151600000025
 20
262.0480514600000106
 30
0.0
 11
-51.0828483199999894
 21
261.6220581100000118
 31
0.0
  0
LINE
  5
310
  8
SLD-0_0
  6
CONTINUOUS
 62
     7
 10
62.9985928799999968
 20
104.372125650000001
 30
0.0
 11
62.9985928799999968
 21
92.1230752900000027
 31
0.0
  0
LINE
  5
311
  8
SLD-0_0
  6
CONTINUOUS
 62
     7
 10
-39.2274742000000032
 20
92.1230752900000027
 30
0.0
 11
-39.2274742000000032
 21
104.372125650000001
 31
0.0
  0
LINE
  5
312
  8
SLD-0_0
  6
CONTINUOUS
 62
     7
 10
-52.1917829100000006
 20
259.2526245799999742
 30
0.0
 11
-52.2023444499999982
 21
259.2827129899999932
 31
0.0
  0
LINE
  5
313
  8
SLD-0_0
  6
CONTINUOUS
 62
     7
 10
33.2494515300000018
 20
116.623202660000004
 30
0.0
 11
33.2494515300000018
 21
104.372125650000001
 31
0.0
  0
LINE
  5
314
  8
SLD-0_0
  6
CONTINUOUS
 62
     7
 10
117.8740953100000013
 20
286.2913472199999774
 30
0.0
 11
117.8740953100000013
 21
297.0416926099999841
 31
0.0
  0
LINE
  5
315
  8
SLD-0_0
  6
CONTINUOUS
 62
     7
 10
49.0025733800000012
 20
286.2913472199999774
 30
0.0
 11
49.0025733800000012
 21
297.0416926099999841
 31
0.0
  0
LINE
  5
316
  8
SLD-0_0
  6
CONTINUOUS
 62
     7
 10
17.4861964500000013
 20
286.2913472199999774
 30
0.0
 11
17.4861964500000013
 21
297.0416926099999841
 31
0.0
  0
LINE
  5
317
  8
SLD-0_0
  6
CONTINUOUS
 62
     7
 10
-98.7277835500000123
 20
92.1230752900000027
 30
0.0
 11
-98.7277835500000123
 21
104.372125650000001
 31
0.0
  0
LINE
  5
318
  8
SLD-0_0
  6
CONTINUOUS
 62
     7
 10
-59.2770862599999973
 20
116.623202660000004
 30
0.0
 11
-59.2770862599999973
 21
104.372125650000001
 31
0.0
  0
LINE
  5
319
  8
SLD-0_0
  6
CONTINUOUS
 62
     7
 10
-58.2455232800000005
 20
286.0096433599999841
 30
0.0
 11
-58.2455232800000005
 21
281.0413199199999781
 31
0.0
  0
LINE
  5
31A
  8
SLD-0_0
  6
CONTINUOUS
 62
     7
 10
74.5504769100000004
 20
104.372125650000001
 30
0.0
 11
74.5504769100000004
 21
116.623202660000004
 31
0.0
  0
LINE
  5
31B
  8
SLD-0_0
  6
CONTINUOUS
 62
     7
 10
165.222633309999992
 20
275.5420151299999816
 30
0.0
 11
165.222633309999992
 21
286.2913472199999774
 31
0.0
  0
LINE
  5
31C
  8
SLD-0_0
  6
CONTINUOUS
 62
     7
 10
155.3001729300000022
 20
92.1230752900000027
 30
0.0
 11
155.3001729300000022
 21
104.372125650000001
 31
0.0
  0
LINE
  5
31D
  8
SLD-0_0
  6
CONTINUOUS
 62
     7
 10
17.4861964500000013
 20
297.0416926099999841
 30
0.0
 11
21.7907932299999985
 21
297.0416926099999841
 31
0.0
  0
LINE
  5
31E
  8
SLD-0_0
  6
CONTINUOUS
 62
     7
 10
-131.3000432199999921
 20
78.0416367299999933
 30
0.0
 11
-201.2390022399999907
 21
78.0416367299999933
 31
0.0
  0
LINE
  5
31F
  8
SLD-0_0
  6
CONTINUOUS
 62
     7
 10
13.1836263099999993
 20
275.5420151299999816
 30
0.0
 11
13.1836263099999993
 21
286.2913472199999774
 31
0.0
  0
LINE
  5
320
  8
SLD-0_0
  6
CONTINUOUS
 62
     7
 10
-111.648667169999996
 20
286.2913472199999774
 30
0.0
 11
-111.648667169999996
 21
297.0416926099999841
 31
0.0
  0
LINE
  5
321
  8
SLD-0_0
  6
CONTINUOUS
 62
     7
 10
21.7907932299999985
 20
297.0416926099999841
 30
0.0
 11
21.7907932299999985
 21
286.2913472199999774
 31
0.0
  0
LINE
  5
322
  8
SLD-0_0
  6
CONTINUOUS
 62
     7
 10
152.3088429599999927
 20
286.2913472199999774
 30
0.0
 11
152.3088429599999927
 21
297.0416926099999841
 31
0.0
  0
LINE
  5
323
  8
SLD-0_0
  6
CONTINUOUS
 62
     7
 10
109.7472435699999949
 20
116.623202660000004
 30
0.0
 11
109.7472435699999949
 21
104.372125650000001
 31
0.0
  0
LINE
  5
324
  8
SLD-0_0
  6
CONTINUOUS
 62
     7
 10
-118.7794222499999961
 20
108.3889386599999938
 30
0.0
 11
15.9803982300000005
 21
108.3889386599999938
 31
0.0
  0
LINE
  5
325
  8
SLD-0_0
  6
CONTINUOUS
 62
     7
 10
44.7993089100000006
 20
92.1230752900000027
 30
0.0
 11
44.7993089100000006
 21
104.372125650000001
 31
0.0
  0
LINE
  5
326
  8
SLD-0_0
  6
CONTINUOUS
 62
     7
 10
-98.7338634900000045
 20
275.5420151299999816
 30
0.0
 11
-98.7338634900000045
 21
286.2913472199999774
 31
0.0
  0
LINE
  5
327
  8
SLD-0_0
  6
CONTINUOUS
 62
     7
 10
88.4978568899999942
 20
104.372125650000001
 30
0.0
 11
88.4978568899999942
 21
92.1230752900000027
 31
0.0
  0
LINE
  5
328
  8
SLD-0_0
  6
CONTINUOUS
 62
     7
 10
169.5292567500000018
 20
286.2913472199999774
 30
0.0
 11
169.5292567500000018
 21
297.0416926099999841
 31
0.0
  0
LINE
  5
329
  8
SLD-0_0
  6
CONTINUOUS
 62
     7
 10
-67.4951370900000001
 20
281.0413199199999781
 30
0.0
 11
-52.4969409899999988
 21
281.0413199199999781
 31
0.0
  0
LINE
  5
32A
  8
SLD-0_0
  6
CONTINUOUS
 62
     7
 10
108.5494955900000065
 20
104.372125650000001
 30
0.0
 11
108.5494955900000065
 21
116.623202660000004
 31
0.0
  0
LINE
  5
32B
  8
SLD-0_0
  6
CONTINUOUS
 62
     7
 10
67.2504968599999984
 20
116.623202660000004
 30
0.0
 11
67.2504968599999984
 21
104.372125650000001
 31
0.0
  0
LINE
  5
32C
  8
SLD-0_0
  6
CONTINUOUS
 62
     7
 10
143.7503155400000026
 20
104.372125650000001
 30
0.0
 11
143.7503155400000026
 21
116.623202660000004
 31
0.0
  0
LINE
  5
32D
  8
SLD-0_0
  6
CONTINUOUS
 62
     7
 10
-52.2092746100000014
 20
259.3072596499999918
 30
0.0
 11
-52.2130691500000026
 21
259.3237970900000278
 31
0.0
  0
LINE
  5
32E
  8
SLD-0_0
  6
CONTINUOUS
 62
     7
 10
-118.7794222499999961
 20
110.3162793099999988
 30
0.0
 11
15.9803982300000005
 21
110.3162793099999988
 31
0.0
  0
LINE
  5
32F
  8
SLD-0_0
  6
CONTINUOUS
 62
     7
 10
-90.1256832400000008
 20
275.5420151299999816
 30
0.0
 11
-90.1256832400000008
 21
286.2913472199999774
 31
0.0
  0
LINE
  5
330
  8
SLD-0_0
  6
CONTINUOUS
 62
     7
 10
-77.477383549999999
 20
104.372125650000001
 30
0.0
 11
-77.477383549999999
 21
116.623202660000004
 31
0.0
  0
LINE
  5
331
  8
SLD-0_0
  6
CONTINUOUS
 62
     7
 10
130.7878856700000085
 20
275.5420151299999816
 30
0.0
 11
130.7878856700000085
 21
286.2913472199999774
 31
0.0
  0
LINE
  5
332
  8
SLD-0_0
  6
CONTINUOUS
 62
     7
 10
-51.7773761600000029
 20
259.1897760800000015
 30
0.0
 11
-51.8515178999999904
 21
259.1395738599999845
 31
0.0
  0
LINE
  5
333
  8
SLD-0_0
  6
CONTINUOUS
 62
     7
 10
-85.9771382200000147
 20
104.372125650000001
 30
0.0
 11
-85.9771382200000147
 21
116.623202660000004
 31
0.0
  0
LINE
  5
334
  8
SLD-0_0
  6
CONTINUOUS
 62
     7
 10
-8.2765315899999994
 20
116.623202660000004
 30
0.0
 11
-8.2765315899999994
 21
104.372125650000001
 31
0.0
  0
LINE
  5
335
  8
SLD-0_0
  6
CONTINUOUS
 62
     7
 10
96.9996382100000005
 20
104.372125650000001
 30
0.0
 11
96.9996382100000005
 21
92.1230752900000027
 31
0.0
  0
LINE
  5
336
  8
SLD-0_0
  6
CONTINUOUS
 62
     7
 10
-51.6941497500000011
 20
259.2615782099999819
 30
0.0
 11
-51.7773761600000029
 21
259.1897760800000015
 31
0.0
  0
LINE
  5
337
  8
SLD-0_0
  6
CONTINUOUS
 62
     7
 10
-51.386338809999998
 20
286.2913472199999774
 30
0.0
 11
-51.386338809999998
 21
297.0416926099999841
 31
0.0
  0
LINE
  5
338
  8
SLD-0_0
  6
CONTINUOUS
 62
     7
 10
-52.2023444499999982
 20
259.2827129899999932
 30
0.0
 11
-52.2092746100000014
 21
259.3072596499999918
 31
0.0
  0
LINE
  5
339
  8
SLD-0_0
  6
CONTINUOUS
 62
     7
 10
-25.5597714200000006
 20
286.2913472199999774
 30
0.0
 11
-25.5597714200000006
 21
297.0416926099999841
 31
0.0
  0
LINE
  5
33A
  8
SLD-0_0
  6
CONTINUOUS
 62
     7
 10
-12.5264089199999997
 20
104.372125650000001
 30
0.0
 11
-12.5264089199999997
 21
92.1230752900000027
 31
0.0
  0
LINE
  5
33B
  8
SLD-0_0
  6
CONTINUOUS
 62
     7
 10
-81.7272608800000029
 20
92.1230752900000027
 30
0.0
 11
-81.7272608800000029
 21
104.372125650000001
 31
0.0
  0
LINE
  5
33C
  8
SLD-0_0
  6
CONTINUOUS
 62
     7
 10
125.5490049299999953
 20
104.372125650000001
 30
0.0
 11
125.5490049299999953
 21
116.623202660000004
 31
0.0
  0
LINE
  5
33D
  8
SLD-0_0
  6
CONTINUOUS
 62
     7
 10
173.833853529999999
 20
286.2913472199999774
 30
0.0
 11
169.5292567500000018
 21
286.2913472199999774
 31
0.0
  0
LINE
  5
33E
  8
SLD-0_0
  6
CONTINUOUS
 62
     7
 10
12.9748817299999999
 20
104.372125650000001
 30
0.0
 11
12.9748817299999999
 21
92.1230752900000027
 31
0.0
  0
LINE
  5
33F
  8
SLD-0_0
  6
CONTINUOUS
 62
     7
 10
3.273325799999999
 20
92.1230752900000027
 30
0.0
 11
3.273325799999999
 21
104.372125650000001
 31
0.0
  0
LINE
  5
340
  8
SLD-0_0
  6
CONTINUOUS
 62
     7
 10
-118.7773956000000055
 20
116.623202660000004
 30
0.0
 11
-118.7773956000000055
 21
104.372125650000001
 31
0.0
  0
LINE
  5
341
  8
SLD-0_0
  6
CONTINUOUS
 62
     7
 10
96.3511113800000061
 20
275.5420151299999816
 30
0.0
 11
96.3511113800000061
 21
286.2913472199999774
 31
0.0
  0
LINE
  5
342
  8
SLD-0_0
  6
CONTINUOUS
 62
     7
 10
12.9728550899999995
 20
92.1230752900000027
 30
0.0
 11
12.9728550899999995
 21
104.372125650000001
 31
0.0
  0
LINE
  5
343
  8
SLD-0_0
  6
CONTINUOUS
 62
     7
 10
139.4984115599999939
 20
104.372125650000001
 30
0.0
 11
139.4984115599999939
 21
92.1230752900000027
 31
0.0
  0
LINE
  5
344
  8
SLD-0_0
  6
CONTINUOUS
 62
     7
 10
-120.2588740599999966
 20
297.0416926099999841
 30
0.0
 11
-120.2588740599999966
 21
286.2913472199999774
 31
0.0
  0
LINE
  5
345
  8
SLD-0_0
  6
CONTINUOUS
 62
     7
 10
-42.7761319099999895
 20
286.2913472199999774
 30
0.0
 11
-42.7761319099999895
 21
297.0416926099999841
 31
0.0
  0
LINE
  5
346
  8
SLD-0_0
  6
CONTINUOUS
 62
     7
 10
-103.0384602700000016
 20
286.2913472199999774
 30
0.0
 11
-103.0384602700000016
 21
297.0416926099999841
 31
0.0
  0
LINE
  5
347
  8
SLD-0_0
  6
CONTINUOUS
 62
     7
 10
139.3970792499999902
 20
275.5420151299999816
 30
0.0
 11
139.3970792499999902
 21
286.2913472199999774
 31
0.0
  0
LINE
  5
348
  8
SLD-0_0
  6
CONTINUOUS
 62
     7
 10
7.5232031299999989
 20
104.372125650000001
 30
0.0
 11
7.5232031299999989
 21
116.623202660000004
 31
0.0
  0
LINE
  5
349
  8
SLD-0_0
  6
CONTINUOUS
 62
     7
 10
148.000192879999986
 20
104.372125650000001
 30
0.0
 11
148.000192879999986
 21
92.1230752900000027
 31
0.0
  0
LINE
  5
34A
  8
SLD-0_0
  6
CONTINUOUS
 62
     7
 10
-51.8515178999999904
 20
259.1395738599999845
 30
0.0
 11
-51.9170707299999918
 21
259.1085041399999795
 31
0.0
  0
LINE
  5
34B
  8
SLD-0_0
  6
CONTINUOUS
 62
     7
 10
37.4993288699999994
 20
104.372125650000001
 30
0.0
 11
37.4993288699999994
 21
92.1230752900000027
 31
0.0
  0
LINE
  5
34C
  8
SLD-0_0
  6
CONTINUOUS
 62
     7
 10
-51.2081536299999982
 20
264.7888536199999976
 30
0.0
 11
-51.1919535999999979
 21
264.5963707799999725
 31
0.0
  0
LINE
  5
34D
  8
SLD-0_0
  6
CONTINUOUS
 62
     7
 10
-201.2390022399999907
 20
78.0416367299999933
 30
0.0
 11
-201.2390022399999907
 21
76.0416367299999933
 31
0.0
  0
LINE
  5
34E
  8
SLD-0_0
  6
CONTINUOUS
 62
     7
 10
138.3006635899999992
 20
92.1230752900000027
 30
0.0
 11
138.3006635899999992
 21
104.372125650000001
 31
0.0
  0
LINE
  5
34F
  8
SLD-0_0
  6
CONTINUOUS
 62
     7
 10
146.7983916100000101
 20
92.1230752900000027
 30
0.0
 11
146.7983916100000101
 21
104.372125650000001
 31
0.0
  0
LINE
  5
350
  8
SLD-0_0
  6
CONTINUOUS
 62
     7
 10
37.5003421899999978
 20
96.389165790000007
 30
0.0
 11
172.2621893200000045
 21
96.389165790000007
 31
0.0
  0
LINE
  5
351
  8
SLD-0_0
  6
CONTINUOUS
 62
     7
 10
278.7609977600000093
 20
78.0416367299999933
 30
0.0
 11
258.7609977600000093
 21
78.0416367299999933
 31
0.0
  0
LINE
  5
352
  8
SLD-0_0
  6
CONTINUOUS
 62
     7
 10
-106.0267502699999937
 20
104.372125650000001
 30
0.0
 11
-106.0267502699999937
 21
92.1230752900000027
 31
0.0
  0
LINE
  5
353
  8
SLD-0_0
  6
CONTINUOUS
 62
     7
 10
-115.9532639499999931
 20
286.2913472199999774
 30
0.0
 11
-115.9532639499999931
 21
275.5420151299999816
 31
0.0
  0
LINE
  5
354
  8
SLD-0_0
  6
CONTINUOUS
 62
     7
 10
-17.9780875299999998
 20
104.372125650000001
 30
0.0
 11
-17.9780875299999998
 21
116.623202660000004
 31
0.0
  0
LINE
  5
355
  8
SLD-0_0
  6
CONTINUOUS
 62
     7
 10
256.7460627400000135
 20
92.0420094400000011
 30
0.0
 11
256.7460627400000135
 21
89.0405462300000039
 31
0.0
  0
LINE
  5
356
  8
SLD-0_0
  6
CONTINUOUS
 62
     7
 10
-77.2139195200000046
 20
286.2913472199999774
 30
0.0
 11
-77.2139195200000046
 21
297.0416926099999841
 31
0.0
  0
LINE
  5
357
  8
SLD-0_0
  6
CONTINUOUS
 62
     7
 10
152.248043569999993
 20
104.372125650000001
 30
0.0
 11
152.248043569999993
 21
116.623202660000004
 31
0.0
  0
LINE
  5
358
  8
SLD-0_0
  6
CONTINUOUS
 62
     7
 10
-73.2264928900000029
 20
92.1230752900000027
 30
0.0
 11
-73.2264928900000029
 21
104.372125650000001
 31
0.0
  0
LINE
  5
359
  8
SLD-0_0
  6
CONTINUOUS
 62
     7
 10
172.2976556200000005
 20
104.372125650000001
 30
0.0
 11
172.2976556200000005
 21
92.1230752900000027
 31
0.0
  0
LINE
  5
35A
  8
SLD-0_0
  6
CONTINUOUS
 62
     7
 10
-94.4779062100000147
 20
104.372125650000001
 30
0.0
 11
-94.4779062100000147
 21
116.623202660000004
 31
0.0
  0
LINE
  5
35B
  8
SLD-0_0
  6
CONTINUOUS
 62
     7
 10
0.22119644
 20
116.623202660000004
 30
0.0
 11
0.22119644
 21
104.372125650000001
 31
0.0
  0
LINE
  5
35C
  8
SLD-0_0
  6
CONTINUOUS
 62
     7
 10
-43.4773515400000008
 20
104.372125650000001
 30
0.0
 11
-43.4773515400000008
 21
116.623202660000004
 31
0.0
  0
LINE
  5
35D
  8
SLD-0_0
  6
CONTINUOUS
 62
     7
 10
31.7821595899999991
 20
297.0416926099999841
 30
0.0
 11
31.7821595899999991
 21
286.2913472199999774
 31
0.0
  0
LINE
  5
35E
  8
SLD-0_0
  6
CONTINUOUS
 62
     7
 10
49.0491862499999982
 20
104.372125650000001
 30
0.0
 11
49.0491862499999982
 21
116.623202660000004
 31
0.0
  0
LINE
  5
35F
  8
SLD-0_0
  6
CONTINUOUS
 62
     7
 10
78.7983275999999933
 20
92.1230752900000027
 30
0.0
 11
78.7983275999999933
 21
104.372125650000001
 31
0.0
  0
LINE
  5
360
  8
SLD-0_0
  6
CONTINUOUS
 62
     7
 10
165.0017288699999938
 20
104.372125650000001
 30
0.0
 11
165.0017288699999938
 21
92.1230752900000027
 31
0.0
  0
LINE
  5
361
  8
SLD-0_0
  6
CONTINUOUS
 62
     7
 10
4.4710737700000003
 20
92.1230752900000027
 30
0.0
 11
4.4710737700000003
 21
104.372125650000001
 31
0.0
  0
LINE
  5
362
  8
SLD-0_0
  6
CONTINUOUS
 62
     7
 10
4.4731004199999989
 20
104.372125650000001
 30
0.0
 11
4.4731004199999989
 21
92.1230752900000027
 31
0.0
  0
LINE
  5
363
  8
SLD-0_0
  6
CONTINUOUS
 62
     7
 10
-89.0262276100000065
 20
104.372125650000001
 30
0.0
 11
-89.0262276100000065
 21
92.1230752900000027
 31
0.0
  0
LINE
  5
364
  8
SLD-0_0
  6
CONTINUOUS
 62
     7
 10
31.7517598999999997
 20
104.372125650000001
 30
0.0
 11
168.0477782899999966
 21
104.372125650000001
 31
0.0
  0
LINE
  5
365
  8
SLD-0_0
  6
CONTINUOUS
 62
     7
 10
-51.2191448399999985
 20
264.9110420399999839
 30
0.0
 11
-51.2081536299999982
 21
264.7888536199999976
 31
0.0
  0
LINE
  5
366
  8
SLD-0_0
  6
CONTINUOUS
 62
     7
 10
131.0006835400000114
 20
104.372125650000001
 30
0.0
 11
131.0006835400000114
 21
92.1230752900000027
 31
0.0
  0
LINE
  5
367
  8
SLD-0_0
  6
CONTINUOUS
 62
     7
 10
-46.5264409299999997
 20
104.372125650000001
 30
0.0
 11
-46.5264409299999997
 21
92.1230752900000027
 31
0.0
  0
LINE
  5
368
  8
SLD-0_0
  6
CONTINUOUS
 62
     7
 10
-67.7768409300000059
 20
116.623202660000004
 30
0.0
 11
-67.7768409300000059
 21
104.372125650000001
 31
0.0
  0
LINE
  5
369
  8
SLD-0_0
  6
CONTINUOUS
 62
     7
 10
104.2996182600000026
 20
92.1230752900000027
 30
0.0
 11
104.2996182600000026
 21
104.372125650000001
 31
0.0
  0
LINE
  5
36A
  8
SLD-0_0
  6
CONTINUOUS
 62
     7
 10
-51.1294349499999896
 20
263.6885013699999831
 30
0.0
 11
-51.1097340099999897
 21
263.3061865899999816
 31
0.0
  0
LINE
  5
36B
  8
SLD-0_0
  6
CONTINUOUS
 62
     7
 10
57.6097403099999923
 20
286.2913472199999774
 30
0.0
 11
57.6097403099999923
 21
297.0416926099999841
 31
0.0
  0
LINE
  5
36C
  8
SLD-0_0
  6
CONTINUOUS
 62
     7
 10
134.048759600000011
 20
104.372125650000001
 30
0.0
 11
134.048759600000011
 21
116.623202660000004
 31
0.0
  0
LINE
  5
36D
  8
SLD-0_0
  6
CONTINUOUS
 62
     7
 10
-101.7788995800000009
 20
116.623202660000004
 30
0.0
 11
-101.7788995800000009
 21
104.372125650000001
 31
0.0
  0
LINE
  5
36E
  8
SLD-0_0
  6
CONTINUOUS
 62
     7
 10
-51.1097340099999897
 20
263.3061865899999816
 30
0.0
 11
-51.0934914400000011
 21
262.8992502799999897
 31
0.0
  0
LINE
  5
36F
  8
SLD-0_0
  6
CONTINUOUS
 62
     7
 10
-85.8220997699999941
 20
286.2913472199999774
 30
0.0
 11
-85.8220997699999941
 21
297.0416926099999841
 31
0.0
  0
LINE
  5
370
  8
SLD-0_0
  6
CONTINUOUS
 62
     7
 10
-53.9956459499999966
 20
281.0413199199999781
 30
0.0
 11
-51.9943327000000011
 21
286.0096433599999841
 31
0.0
  0
LINE
  5
371
  8
SLD-0_0
  6
CONTINUOUS
 62
     7
 10
84.2500062000000014
 20
104.372125650000001
 30
0.0
 11
84.2500062000000014
 21
116.623202660000004
 31
0.0
  0
LINE
  5
372
  8
SLD-0_0
  6
CONTINUOUS
 62
     7
 10
-49.4589981600000002
 20
265.1899056999999971
 30
0.0
 11
-52.4969409899999988
 21
265.1899056999999971
 31
0.0
  0
LINE
  5
373
  8
SLD-0_0
  6
CONTINUOUS
 62
     7
 10
151.0482689499999935
 20
104.372125650000001
 30
0.0
 11
151.0482689499999935
 21
116.623202660000004
 31
0.0
  0
LINE
  5
374
  8
SLD-0_0
  6
CONTINUOUS
 62
     7
 10
-51.0977736099999902
 20
261.2079815899999744
 30
0.0
 11
-51.1248244599999992
 21
260.814956460000019
 31
0.0
  0
LINE
  5
375
  8
SLD-0_0
  6
CONTINUOUS
 62
     7
 10
-42.2785902399999927
 20
116.623202660000004
 30
0.0
 11
-42.2785902399999927
 21
104.372125650000001
 31
0.0
  0
LINE
  5
376
  8
SLD-0_0
  6
CONTINUOUS
 62
     7
 10
84.2479795600000045
 20
116.623202660000004
 30
0.0
 11
84.2479795600000045
 21
104.372125650000001
 31
0.0
  0
LINE
  5
377
  8
SLD-0_0
  6
CONTINUOUS
 62
     7
 10
276.2609977600000093
 20
375.542026729999975
 30
0.0
 11
-198.7390022399999054
 21
375.542026729999975
 31
0.0
  0
LINE
  5
378
  8
SLD-0_0
  6
CONTINUOUS
 62
     7
 10
126.7467529099999979
 20
104.372125650000001
 30
0.0
 11
126.7467529099999979
 21
116.623202660000004
 31
0.0
  0
LINE
  5
379
  8
SLD-0_0
  6
CONTINUOUS
 62
     7
 10
-107.3450837000000035
 20
275.5420151299999816
 30
0.0
 11
-107.3450837000000035
 21
286.2913472199999774
 31
0.0
  0
LINE
  5
37A
  8
SLD-0_0
  6
CONTINUOUS
 62
     7
 10
-114.5275182700000016
 20
98.0652022999999957
 30
0.0
 11
20.2343288600000015
 21
98.0652022999999957
 31
0.0
  0
LINE
  5
37B
  8
SLD-0_0
  6
CONTINUOUS
 62
     7
 10
258.7609977600000093
 20
275.542026729999975
 30
0.0
 11
258.7609977600000093
 21
375.542026729999975
 31
0.0
  0
LINE
  5
37C
  8
SLD-0_0
  6
CONTINUOUS
 62
     7
 10
71.4983475500000054
 20
104.372125650000001
 30
0.0
 11
71.4983475500000054
 21
92.1230752900000027
 31
0.0
  0
LINE
  5
37D
  8
SLD-0_0
  6
CONTINUOUS
 62
     7
 10
92.0465145999999947
 20
286.2913472199999774
 30
0.0
 11
92.0465145999999947
 21
297.0416926099999841
 31
0.0
  0
LINE
  5
37E
  8
SLD-0_0
  6
CONTINUOUS
 62
     7
 10
31.7821595899999991
 20
275.5420151299999816
 30
0.0
 11
31.7821595899999991
 21
286.2913472199999774
 31
0.0
  0
LINE
  5
37F
  8
SLD-0_0
  6
CONTINUOUS
 62
     7
 10
46.0011101799999906
 20
104.372125650000001
 30
0.0
 11
46.0011101799999906
 21
92.1230752900000027
 31
0.0
  0
LINE
  5
380
  8
SLD-0_0
  6
CONTINUOUS
 62
     7
 10
70.5235306699999995
 20
275.5420151299999816
 30
0.0
 11
70.5235306699999995
 21
286.2913472199999774
 31
0.0
  0
LINE
  5
381
  8
SLD-0_0
  6
CONTINUOUS
 62
     7
 10
-114.5275182700000016
 20
104.372125650000001
 30
0.0
 11
-114.5275182700000016
 21
92.1230752900000027
 31
0.0
  0
LINE
  5
382
  8
SLD-0_0
  6
CONTINUOUS
 62
     7
 10
-51.9943327000000011
 20
286.0096433599999841
 30
0.0
 11
-58.2455232800000005
 21
286.0096433599999841
 31
0.0
  0
LINE
  5
383
  8
SLD-0_0
  6
CONTINUOUS
 62
     7
 10
8.7209511099999997
 20
116.623202660000004
 30
0.0
 11
8.7209511099999997
 21
104.372125650000001
 31
0.0
  0
LINE
  5
384
  8
SLD-0_0
  6
CONTINUOUS
 62
     7
 10
20.2728351400000015
 20
104.372125650000001
 30
0.0
 11
20.2728351400000015
 21
92.1230752900000027
 31
0.0
  0
LINE
  5
385
  8
SLD-0_0
  6
CONTINUOUS
 62
     7
 10
40.5514582300000015
 20
104.372125650000001
 30
0.0
 11
40.5514582300000015
 21
116.623202660000004
 31
0.0
  0
LINE
  5
386
  8
SLD-0_0
  6
CONTINUOUS
 62
     7
 10
-129.3007566199999872
 20
92.0420094400000011
 30
0.0
 11
256.7460627400000135
 21
92.0420094400000011
 31
0.0
  0
LINE
  5
387
  8
SLD-0_0
  6
CONTINUOUS
 62
     7
 10
-76.2776089200000058
 20
116.623202660000004
 30
0.0
 11
-76.2776089200000058
 21
104.372125650000001
 31
0.0
  0
LINE
  5
388
  8
SLD-0_0
  6
CONTINUOUS
 62
     7
 10
169.527230099999997
 20
297.0416926099999841
 30
0.0
 11
31.7821595899999991
 21
297.0416926099999841
 31
0.0
  0
LINE
  5
389
  8
SLD-0_0
  6
CONTINUOUS
 62
     7
 10
41.7492062000000033
 20
116.623202660000004
 30
0.0
 11
41.7492062000000033
 21
104.372125650000001
 31
0.0
  0
LINE
  5
38A
  8
SLD-0_0
  6
CONTINUOUS
 62
     7
 10
-129.3007566199999872
 20
89.0405462300000039
 30
0.0
 11
-129.3007566199999872
 21
92.0420094400000011
 31
0.0
  0
LINE
  5
38B
  8
SLD-0_0
  6
CONTINUOUS
 62
     7
 10
16.0229578000000004
 20
116.623202660000004
 30
0.0
 11
21.77052677
 21
116.623202660000004
 31
0.0
  0
LINE
  5
38C
  8
SLD-0_0
  6
CONTINUOUS
 62
     7
 10
159.5480236200000093
 20
104.372125650000001
 30
0.0
 11
159.5480236200000093
 21
116.623202660000004
 31
0.0
  0
LINE
  5
38D
  8
SLD-0_0
  6
CONTINUOUS
 62
     7
 10
-63.5269635900000011
 20
104.372125650000001
 30
0.0
 11
-63.5269635900000011
 21
92.1230752900000027
 31
0.0
  0
LINE
  5
38E
  8
SLD-0_0
  6
CONTINUOUS
 62
     7
 10
37.4993288699999994
 20
92.1230752900000027
 30
0.0
 11
173.7994005500000014
 21
92.1230752900000027
 31
0.0
  0
LINE
  5
38F
  8
SLD-0_0
  6
CONTINUOUS
 62
     7
 10
160.7477982400000087
 20
116.623202660000004
 30
0.0
 11
160.7477982400000087
 21
104.372125650000001
 31
0.0
  0
LINE
  5
390
  8
SLD-0_0
  6
CONTINUOUS
 62
     7
 10
-59.9965456999999986
 20
286.2913472199999774
 30
0.0
 11
-59.9965456999999986
 21
297.0416926099999841
 31
0.0
  0
LINE
  5
391
  8
SLD-0_0
  6
CONTINUOUS
 62
     7
 10
-131.3000432199999921
 20
89.0405462300000039
 30
0.0
 11
258.7609977600000093
 21
89.0405462300000039
 31
0.0
  0
LINE
  5
392
  8
SLD-0_0
  6
CONTINUOUS
 62
     7
 10
-67.4951370900000001
 20
275.542026729999975
 30
0.0
 11
-198.7390022399999054
 21
275.542026729999975
 31
0.0
  0
LINE
  5
393
  8
SLD-0_0
  6
CONTINUOUS
 62
     7
 10
105.499392880000002
 20
104.372125650000001
 30
0.0
 11
105.499392880000002
 21
92.1230752900000027
 31
0.0
  0
LINE
  5
394
  8
SLD-0_0
  6
CONTINUOUS
 62
     7
 10
148.0062728199999924
 20
275.5420151299999816
 30
0.0
 11
148.0062728199999924
 21
286.2913472199999774
 31
0.0
  0
LINE
  5
395
  8
SLD-0_0
  6
CONTINUOUS
 62
     7
 10
-51.1722781799999922
 20
264.3427280600000131
 30
0.0
 11
-51.1508608199999983
 21
264.0370600599999875
 31
0.0
  0
LINE
  5
396
  8
SLD-0_0
  6
CONTINUOUS
 62
     7
 10
122.4989022200000051
 20
104.372125650000001
 30
0.0
 11
122.4989022200000051
 21
92.1230752900000027
 31
0.0
  0
LINE
  5
397
  8
SLD-0_0
  6
CONTINUOUS
 62
     7
 10
-4.0367874800000001
 20
275.5420151299999816
 30
0.0
 11
-4.0367874800000001
 21
286.2913472199999774
 31
0.0
  0
LINE
  5
398
  8
SLD-0_0
  6
CONTINUOUS
 62
     7
 10
79.1347508900000065
 20
275.5420151299999816
 30
0.0
 11
79.1347508900000065
 21
286.2913472199999774
 31
0.0
  0
LINE
  5
399
  8
SLD-0_0
  6
CONTINUOUS
 62
     7
 10
-72.9072960900000027
 20
275.5420151299999816
 30
0.0
 11
-72.9072960900000027
 21
286.2913472199999774
 31
0.0
  0
LINE
  5
39A
  8
SLD-0_0
  6
CONTINUOUS
 62
     7
 10
21.77052677
 20
116.623202660000004
 30
0.0
 11
21.77052677
 21
104.372125650000001
 31
0.0
  0
LINE
  5
39B
  8
SLD-0_0
  6
CONTINUOUS
 62
     7
 10
-201.2390022399999907
 20
278.042026729999975
 30
0.0
 11
-201.2390022399999907
 21
294.542026729999975
 31
0.0
  0
LINE
  5
39C
  8
SLD-0_0
  6
CONTINUOUS
 62
     7
 10
169.5292567500000018
 20
297.0416926099999841
 30
0.0
 11
173.833853529999999
 21
297.0416926099999841
 31
0.0
  0
LINE
  5
39D
  8
SLD-0_0
  6
CONTINUOUS
 62
     7
 10
40.393379809999999
 20
286.2913472199999774
 30
0.0
 11
40.393379809999999
 21
297.0416926099999841
 31
0.0
  0
LINE
  5
39E
  8
SLD-0_0
  6
CONTINUOUS
 62
     7
 10
-30.7277195300000017
 20
92.1230752900000027
 30
0.0
 11
-30.7277195300000017
 21
104.372125650000001
 31
0.0
  0
LINE
  5
39F
  8
SLD-0_0
  6
CONTINUOUS
 62
     7
 10
-34.1699783099999976
 20
286.2913472199999774
 30
0.0
 11
-34.1699783099999976
 21
297.0416926099999841
 31
0.0
  0
LINE
  5
3A0
  8
SLD-0_0
  6
CONTINUOUS
 62
     7
 10
-13.72618355
 20
92.1230752900000027
 30
0.0
 11
-13.72618355
 21
104.372125650000001
 31
0.0
  0
LINE
  5
3A1
  8
SLD-0_0
  6
CONTINUOUS
 62
     7
 10
101.251542189999995
 20
116.623202660000004
 30
0.0
 11
101.251542189999995
 21
104.372125650000001
 31
0.0
  0
LINE
  5
3A2
  8
SLD-0_0
  6
CONTINUOUS
 62
     7
 10
0.2678093
 20
286.2913472199999774
 30
0.0
 11
0.2678093
 21
297.0416926099999841
 31
0.0
  0
LINE
  5
3A3
  8
SLD-0_0
  6
CONTINUOUS
 62
     7
 10
-4.0266542499999991
 20
104.372125650000001
 30
0.0
 11
-4.0266542499999991
 21
92.1230752900000027
 31
0.0
  0
LINE
  5
3A4
  8
SLD-0_0
  6
CONTINUOUS
 62
     7
 10
-120.2761005600000033
 20
116.623202660000004
 30
0.0
 11
-120.2761005600000033
 21
104.372125650000001
 31
0.0
  0
LINE
  5
3A5
  8
SLD-0_0
  6
CONTINUOUS
 62
     7
 10
-102.9786742000000004
 20
104.372125650000001
 30
0.0
 11
-102.9786742000000004
 21
116.623202660000004
 31
0.0
  0
LINE
  5
3A6
  8
SLD-0_0
  6
CONTINUOUS
 62
     7
 10
113.9991475500000035
 20
104.372125650000001
 30
0.0
 11
113.9991475500000035
 21
92.1230752900000027
 31
0.0
  0
LINE
  5
3A7
  8
SLD-0_0
  6
CONTINUOUS
 62
     7
 10
173.7994005500000014
 20
92.1230752900000027
 30
0.0
 11
173.7994005500000014
 21
104.372125650000001
 31
0.0
  0
LINE
  5
3A8
  8
SLD-0_0
  6
CONTINUOUS
 62
     7
 10
135.0924824600000136
 20
286.2913472199999774
 30
0.0
 11
135.0924824600000136
 21
297.0416926099999841
 31
0.0
  0
LINE
  5
3A9
  8
SLD-0_0
  6
CONTINUOUS
 62
     7
 10
-51.0828483199999894
 20
261.6220581100000118
 30
0.0
 11
-51.0977736099999902
 21
261.2079815899999744
 31
0.0
  0
LINE
  5
3AA
  8
SLD-0_0
  6
CONTINUOUS
 62
     7
 10
-72.0277315900000019
 20
104.372125650000001
 30
0.0
 11
-72.0277315900000019
 21
92.1230752900000027
 31
0.0
  0
LINE
  5
3AB
  8
SLD-0_0
  6
CONTINUOUS
 62
     7
 10
21.77052677
 20
92.1230752900000027
 30
0.0
 11
21.77052677
 21
104.372125650000001
 31
0.0
  0
LINE
  5
3AC
  8
SLD-0_0
  6
CONTINUOUS
 62
     7
 10
-51.2222365900000014
 20
260.1285987699999964
 30
0.0
 11
-51.2960647499999993
 21
259.8535353799999825
 31
0.0
  0
LINE
  5
3AD
  8
SLD-0_0
  6
CONTINUOUS
 62
     7
 10
100.6557081699999969
 20
286.2913472199999774
 30
0.0
 11
100.6557081699999969
 21
297.0416926099999841
 31
0.0
  0
LINE
  5
3AE
  8
SLD-0_0
  6
CONTINUOUS
 62
     7
 10
122.1786921000000063
 20
275.5420151299999816
 30
0.0
 11
122.1786921000000063
 21
286.2913472199999774
 31
0.0
  0
LINE
  5
3AF
  8
SLD-0_0
  6
CONTINUOUS
 62
     7
 10
-51.9170707299999918
 20
259.1085041399999795
 30
0.0
 11
-51.974530399999999
 21
259.0940994599999954
 31
0.0
  0
LINE
  5
3B0
  8
SLD-0_0
  6
CONTINUOUS
 62
     7
 10
87.7419178100000039
 20
275.5420151299999816
 30
0.0
 11
87.7419178100000039
 21
286.2913472199999774
 31
0.0
  0
LINE
  5
3B1
  8
SLD-0_0
  6
CONTINUOUS
 62
     7
 10
-110.2786542500000024
 20
116.623202660000004
 30
0.0
 11
-110.2786542500000024
 21
104.372125650000001
 31
0.0
  0
LINE
  5
3B2
  8
SLD-0_0
  6
CONTINUOUS
 62
     7
 10
169.527230099999997
 20
286.2913472199999774
 30
0.0
 11
169.527230099999997
 21
297.0416926099999841
 31
0.0
  0
LINE
  5
3B3
  8
SLD-0_0
  6
CONTINUOUS
 62
     7
 10
-51.6013429200000004
 20
259.3574476699999991
 30
0.0
 11
-51.6941497500000011
 21
259.2615782099999819
 31
0.0
  0
LINE
  5
3B4
  8
SLD-0_0
  6
CONTINUOUS
 62
     7
 10
-80.5254596099999844
 20
104.372125650000001
 30
0.0
 11
-80.5254596099999844
 21
92.1230752900000027
 31
0.0
  0
LINE
  5
3B5
  8
SLD-0_0
  6
CONTINUOUS
 62
     7
 10
173.833853529999999
 20
297.0416926099999841
 30
0.0
 11
173.833853529999999
 21
286.2913472199999774
 31
0.0
  0
LINE
  5
3B6
  8
SLD-0_0
  6
CONTINUOUS
 62
     7
 10
33.2484382100000033
 20
108.3889386599999938
 30
0.0
 11
168.008258689999991
 21
108.3889386599999938
 31
0.0
  0
LINE
  5
3B7
  8
SLD-0_0
  6
CONTINUOUS
 62
     7
 10
21.7907932299999985
 20
286.2913472199999774
 30
0.0
 11
-115.9532639499999931
 21
286.2913472199999774
 31
0.0
  0
LINE
  5
3B8
  8
SLD-0_0
  6
CONTINUOUS
 62
     7
 10
-94.4323066699999885
 20
286.2913472199999774
 30
0.0
 11
-94.4323066699999885
 21
297.0416926099999841
 31
0.0
  0
LINE
  5
3B9
  8
SLD-0_0
  6
CONTINUOUS
 62
     7
 10
-64.7267382200000014
 20
92.1230752900000027
 30
0.0
 11
-64.7267382200000014
 21
104.372125650000001
 31
0.0
  0
LINE
  5
3BA
  8
SLD-0_0
  6
CONTINUOUS
 62
     7
 10
83.0502315800000019
 20
104.372125650000001
 30
0.0
 11
83.0502315800000019
 21
116.623202660000004
 31
0.0
  0
LINE
  5
3BB
  8
SLD-0_0
  6
CONTINUOUS
 62
     7
 10
-38.0276995799999966
 20
104.372125650000001
 30
0.0
 11
-38.0276995799999966
 21
92.1230752900000027
 31
0.0
  0
LINE
  5
3BC
  8
SLD-0_0
  6
CONTINUOUS
 62
     7
 10
-51.2960647499999993
 20
259.8535353799999825
 30
0.0
 11
-51.3889522200000002
 21
259.6360617400000024
 31
0.0
  0
LINE
  5
3BD
  8
SLD-0_0
  6
CONTINUOUS
 62
     7
 10
-29.5279449099999987
 20
104.372125650000001
 30
0.0
 11
-29.5279449099999987
 21
92.1230752900000027
 31
0.0
  0
LINE
  5
3BE
  8
SLD-0_0
  6
CONTINUOUS
 62
     7
 10
4.5724060900000003
 20
275.5420151299999816
 30
0.0
 11
4.5724060900000003
 21
286.2913472199999774
 31
0.0
  0
LINE
  5
3BF
  8
SLD-0_0
  6
CONTINUOUS
 62
     7
 10
160.9200631799999996
 20
286.2913472199999774
 30
0.0
 11
160.9200631799999996
 21
297.0416926099999841
 31
0.0
  0
LINE
  5
3C0
  8
SLD-0_0
  6
CONTINUOUS
 62
     7
 10
-0.9785781899999999
 20
104.372125650000001
 30
0.0
 11
-0.9785781899999999
 21
116.623202660000004
 31
0.0
  0
LINE
  5
3C1
  8
SLD-0_0
  6
CONTINUOUS
 62
     7
 10
112.7993729300000041
 20
92.1230752900000027
 30
0.0
 11
112.7993729300000041
 21
104.372125650000001
 31
0.0
  0
LINE
  5
3C2
  8
SLD-0_0
  6
CONTINUOUS
 62
     7
 10
129.7988822700000071
 20
92.1230752900000027
 30
0.0
 11
129.7988822700000071
 21
104.372125650000001
 31
0.0
  0
LINE
  5
3C3
  8
SLD-0_0
  6
CONTINUOUS
 62
     7
 10
92.7497608700000029
 20
116.623202660000004
 30
0.0
 11
92.7497608700000029
 21
104.372125650000001
 31
0.0
  0
LINE
  5
3C4
  8
SLD-0_0
  6
CONTINUOUS
 62
     7
 10
278.7609977600000093
 20
278.042026729999975
 30
0.0
 11
278.7609977600000093
 21
294.542026729999975
 31
0.0
  0
LINE
  5
3C5
  8
SLD-0_0
  6
CONTINUOUS
 62
     7
 10
-131.3000432199999921
 20
89.0405462300000039
 30
0.0
 11
-131.3000432199999921
 21
76.0416367299999933
 31
0.0
  0
LINE
  5
3C6
  8
SLD-0_0
  6
CONTINUOUS
 62
     7
 10
-120.2588740599999966
 20
275.5420151299999816
 30
0.0
 11
-120.2588740599999966
 21
286.2913472199999774
 31
0.0
  0
LINE
  5
3C7
  8
SLD-0_0
  6
CONTINUOUS
 62
     7
 10
-25.2780675799999983
 20
116.623202660000004
 30
0.0
 11
-25.2780675799999983
 21
104.372125650000001
 31
0.0
  0
LINE
  5
3C8
  8
SLD-0_0
  6
CONTINUOUS
 62
     7
 10
50.2509875200000025
 20
116.623202660000004
 30
0.0
 11
50.2509875200000025
 21
104.372125650000001
 31
0.0
  0
LINE
  5
3C9
  8
SLD-0_0
  6
CONTINUOUS
 62
     7
 10
117.0492502599999938
 20
104.372125650000001
 30
0.0
 11
117.0492502599999938
 21
116.623202660000004
 31
0.0
  0
LINE
  5
3CA
  8
SLD-0_0
  6
CONTINUOUS
 62
     7
 10
152.2500702099999899
 20
116.623202660000004
 30
0.0
 11
152.2500702099999899
 21
104.372125650000001
 31
0.0
  0
LINE
  5
3CB
  8
SLD-0_0
  6
CONTINUOUS
 62
     7
 10
-68.9766155500000053
 20
104.372125650000001
 30
0.0
 11
-68.9766155500000053
 21
116.623202660000004
 31
0.0
  0
LINE
  5
3CC
  8
SLD-0_0
  6
CONTINUOUS
 62
     7
 10
163.7999275999999895
 20
92.1230752900000027
 30
0.0
 11
163.7999275999999895
 21
104.372125650000001
 31
0.0
  0
LINE
  5
3CD
  8
SLD-0_0
  6
CONTINUOUS
 62
     7
 10
83.4393476700000036
 20
286.2913472199999774
 30
0.0
 11
83.4393476700000036
 21
297.0416926099999841
 31
0.0
  0
LINE
  5
3CE
  8
SLD-0_0
  6
CONTINUOUS
 62
     7
 10
44.6959499499999993
 20
275.5420151299999816
 30
0.0
 11
44.6959499499999993
 21
286.2913472199999774
 31
0.0
  0
LINE
  5
3CF
  8
SLD-0_0
  6
CONTINUOUS
 62
     7
 10
168.0477782899999966
 20
116.623202660000004
 30
0.0
 11
173.7994005500000014
 21
116.623202660000004
 31
0.0
  0
LINE
  5
3D0
  8
SLD-0_0
  6
CONTINUOUS
 62
     7
 10
104.960304960000002
 20
275.5420151299999816
 30
0.0
 11
104.960304960000002
 21
286.2913472199999774
 31
0.0
  0
LINE
  5
3D1
  8
SLD-0_0
  6
CONTINUOUS
 62
     7
 10
37.4993288699999994
 20
92.1230752900000027
 30
0.0
 11
31.7517598999999997
 21
92.1230752900000027
 31
0.0
  0
LINE
  5
3D2
  8
SLD-0_0
  6
CONTINUOUS
 62
     7
 10
-51.1657342999999898
 20
260.4521173399999725
 30
0.0
 11
-51.2222365900000014
 21
260.1285987699999964
 31
0.0
  0
LINE
  5
3D3
  8
SLD-0_0
  6
CONTINUOUS
 62
     7
 10
-52.2130691500000026
 20
259.3237970900000278
 30
0.0
 11
-52.2142238300000017
 21
259.3298578600000042
 31
0.0
  0
LINE
  5
3D4
  8
SLD-0_0
  6
CONTINUOUS
 62
     7
 10
16.0229578000000004
 20
104.372125650000001
 30
0.0
 11
16.0229578000000004
 21
116.623202660000004
 31
0.0
  0
LINE
  5
3D5
  8
SLD-0_0
  6
CONTINUOUS
 62
     7
 10
113.5694985300000042
 20
275.5420151299999816
 30
0.0
 11
113.5694985300000042
 21
286.2913472199999774
 31
0.0
  0
LINE
  5
3D6
  8
SLD-0_0
  6
CONTINUOUS
 62
     7
 10
-51.4984599000000003
 20
259.4798519199999873
 30
0.0
 11
-51.6013429200000004
 21
259.3574476699999991
 31
0.0
  0
LINE
  5
3D7
  8
SLD-0_0
  6
CONTINUOUS
 62
     7
 10
101.2474888999999934
 20
104.372125650000001
 30
0.0
 11
101.2474888999999934
 21
116.623202660000004
 31
0.0
  0
LINE
  5
3D8
  8
SLD-0_0
  6
CONTINUOUS
 62
     7
 10
126.7487795600000027
 20
116.623202660000004
 30
0.0
 11
126.7487795600000027
 21
104.372125650000001
 31
0.0
  0
LINE
  5
3D9
  8
SLD-0_0
  6
CONTINUOUS
 62
     7
 10
17.4861964500000013
 20
297.0416926099999841
 30
0.0
 11
-120.2588740599999966
 21
297.0416926099999841
 31
0.0
  0
LINE
  5
3DA
  8
SLD-0_0
  6
CONTINUOUS
 62
     7
 10
173.7994005500000014
 20
104.372125650000001
 30
0.0
 11
37.4993288699999994
 21
104.372125650000001
 31
0.0
  0
LINE
  5
3DB
  8
SLD-0_0
  6
CONTINUOUS
 62
     7
 10
-90.2280288799999965
 20
92.1230752900000027
 30
0.0
 11
-90.2280288799999965
 21
104.372125650000001
 31
0.0
  0
LINE
  5
3DC
  8
SLD-0_0
  6
CONTINUOUS
 62
     7
 10
-120.2761005600000033
 20
92.1230752900000027
 30
0.0
 11
-120.2761005600000033
 21
104.372125650000001
 31
0.0
  0
LINE
  5
3DD
  8
SLD-0_0
  6
CONTINUOUS
 62
     7
 10
74.8281274499999967
 20
286.2913472199999774
 30
0.0
 11
74.8281274499999967
 21
297.0416926099999841
 31
0.0
  0
LINE
  5
3DE
  8
SLD-0_0
  6
CONTINUOUS
 62
     7
 10
-52.0243926599999895
 20
259.0938924299999826
 30
0.0
 11
-52.0671532599999978
 21
259.1054156000000148
 31
0.0
  0
LINE
  5
3DF
  8
SLD-0_0
  6
CONTINUOUS
 62
     7
 10
-34.979623519999997
 20
104.372125650000001
 30
0.0
 11
-34.979623519999997
 21
116.623202660000004
 31
0.0
  0
LINE
  5
3E0
  8
SLD-0_0
  6
CONTINUOUS
 62
     7
 10
168.0477782899999966
 20
116.623202660000004
 30
0.0
 11
31.7517598999999997
 21
116.623202660000004
 31
0.0
  0
LINE
  5
3E1
  8
SLD-0_0
  6
CONTINUOUS
 62
     7
 10
258.7609977600000093
 20
89.0405462300000039
 30
0.0
 11
258.7609977600000093
 21
76.0416367299999933
 31
0.0
  0
LINE
  5
3E2
  8
SLD-0_0
  6
CONTINUOUS
 62
     7
 10
53.3071701699999991
 20
275.5420151299999816
 30
0.0
 11
53.3071701699999991
 21
286.2913472199999774
 31
0.0
  0
LINE
  5
3E3
  8
SLD-0_0
  6
CONTINUOUS
 62
     7
 10
-51.2231937800000026
 20
264.9538014199999907
 30
0.0
 11
-51.2191448399999985
 21
264.9110420399999839
 31
0.0
  0
LINE
  5
3E4
  8
SLD-0_0
  6
CONTINUOUS
 62
     7
 10
-21.0281902400000007
 20
104.372125650000001
 30
0.0
 11
-21.0281902400000007
 21
92.1230752900000027
 31
0.0
  0
LINE
  5
3E5
  8
SLD-0_0
  6
CONTINUOUS
 62
     7
 10
156.6154663899999946
 20
275.5420151299999816
 30
0.0
 11
156.6154663899999946
 21
286.2913472199999774
 31
0.0
  0
LINE
  5
3E6
  8
SLD-0_0
  6
CONTINUOUS
 62
     7
 10
21.77052677
 20
104.372125650000001
 30
0.0
 11
-114.5275182700000016
 21
104.372125650000001
 31
0.0
  0
LINE
  5
3E7
  8
SLD-0_0
  6
CONTINUOUS
 62
     7
 10
100.0517675699999955
 20
104.372125650000001
 30
0.0
 11
100.0517675699999955
 21
116.623202660000004
 31
0.0
  0
LINE
  5
3E8
  8
SLD-0_0
  6
CONTINUOUS
 62
     7
 10
-22.2259382199999997
 20
92.1230752900000027
 30
0.0
 11
-22.2259382199999997
 21
104.372125650000001
 31
0.0
  0
LINE
  5
3E9
  8
SLD-0_0
  6
CONTINUOUS
 62
     7
 10
-51.1508608199999983
 20
264.0370600599999875
 30
0.0
 11
-51.1294349499999896
 21
263.6885013699999831
 31
0.0
  0
LINE
  5
3EA
  8
SLD-0_0
  6
CONTINUOUS
 62
     7
 10
-51.0824406799999977
 20
262.4768270499999971
 30
0.0
 11
-51.0783151600000025
 21
262.0480514600000106
 31
0.0
  0
LINE
  5
3EB
  8
SLD-0_0
  6
CONTINUOUS
 62
     7
 10
16.0229578000000004
 20
116.623202660000004
 30
0.0
 11
-120.2761005600000033
 21
116.623202660000004
 31
0.0
  0
LINE
  5
3EC
  8
SLD-0_0
  6
CONTINUOUS
 62
     7
 10
143.7523421900000073
 20
116.623202660000004
 30
0.0
 11
143.7523421900000073
 21
104.372125650000001
 31
0.0
  0
LINE
  5
3ED
  8
SLD-0_0
  6
CONTINUOUS
 62
     7
 10
-50.7783449100000013
 20
116.623202660000004
 30
0.0
 11
-50.7783449100000013
 21
104.372125650000001
 31
0.0
  0
LINE
  5
3EE
  8
SLD-0_0
  6
CONTINUOUS
 62
     7
 10
-56.2259702200000007
 20
92.1230752900000027
 30
0.0
 11
-56.2259702200000007
 21
104.372125650000001
 31
0.0
  0
LINE
  5
3EF
  8
SLD-0_0
  6
CONTINUOUS
 62
     7
 10
-12.6459810600000004
 20
275.5420151299999816
 30
0.0
 11
-12.6459810600000004
 21
286.2913472199999774
 31
0.0
  0
LINE
  5
3F0
  8
SLD-0_0
  6
CONTINUOUS
 62
     7
 10
-51.9781195300000007
 20
104.372125650000001
 30
0.0
 11
-51.9781195300000007
 21
116.623202660000004
 31
0.0
  0
LINE
  5
3F1
  8
SLD-0_0
  6
CONTINUOUS
 62
     7
 10
173.7994005500000014
 20
116.623202660000004
 30
0.0
 11
173.7994005500000014
 21
104.372125650000001
 31
0.0
  0
LINE
  5
3F2
  8
SLD-0_0
  6
CONTINUOUS
 62
     7
 10
109.7492702100000059
 20
104.372125650000001
 30
0.0
 11
109.7492702100000059
 21
116.623202660000004
 31
0.0
  0
LINE
  5
3F3
  8
SLD-0_0
  6
CONTINUOUS
 62
     7
 10
-52.0671532599999978
 20
259.1054156000000148
 30
0.0
 11
-52.1033079700000101
 21
259.1262015400000109
 31
0.0
  0
LINE
  5
3F4
  8
SLD-0_0
  6
CONTINUOUS
 62
     7
 10
31.7517598999999997
 20
92.1230752900000027
 30
0.0
 11
31.7517598999999997
 21
104.372125650000001
 31
0.0
  0
LINE
  5
3F5
  8
SLD-0_0
  6
CONTINUOUS
 62
     7
 10
95.7998635900000153
 20
92.1230752900000027
 30
0.0
 11
95.7998635900000153
 21
104.372125650000001
 31
0.0
  0
LINE
  5
3F6
  8
SLD-0_0
  6
CONTINUOUS
 62
     7
 10
143.699649380000011
 20
286.2913472199999774
 30
0.0
 11
143.699649380000011
 21
297.0416926099999841
 31
0.0
  0
LINE
  5
3F7
  8
SLD-0_0
  6
CONTINUOUS
 62
     7
 10
-114.5275182700000016
 20
92.1230752900000027
 30
0.0
 11
21.77052677
 21
92.1230752900000027
 31
0.0
  0
LINE
  5
3F8
  8
SLD-0_0
  6
CONTINUOUS
 62
     7
 10
66.0507222399999989
 20
104.372125650000001
 30
0.0
 11
66.0507222399999989
 21
116.623202660000004
 31
0.0
  0
LINE
  5
3F9
  8
SLD-0_0
  6
CONTINUOUS
 62
     7
 10
-120.2588740599999966
 20
286.2913472199999774
 30
0.0
 11
17.4861964500000013
 21
286.2913472199999774
 31
0.0
  0
LINE
  5
3FA
  8
SLD-0_0
  6
CONTINUOUS
 62
     7
 10
-67.995718729999993
 20
286.0096433599999841
 30
0.0
 11
-61.7465547999999984
 21
286.0096433599999841
 31
0.0
  0
LINE
  5
3FB
  8
SLD-0_0
  6
CONTINUOUS
 62
     7
 10
58.7487155399999992
 20
116.623202660000004
 30
0.0
 11
58.7487155399999992
 21
104.372125650000001
 31
0.0
  0
LINE
  5
3FC
  8
SLD-0_0
  6
CONTINUOUS
 62
     7
 10
-65.9944054900000054
 20
281.0413199199999781
 30
0.0
 11
-67.995718729999993
 21
286.0096433599999841
 31
0.0
  0
LINE
  5
3FD
  8
SLD-0_0
  6
CONTINUOUS
 62
     7
 10
-120.2761005600000033
 20
104.372125650000001
 30
0.0
 11
16.0229578000000004
 21
104.372125650000001
 31
0.0
  0
LINE
  5
3FE
  8
SLD-0_0
  6
CONTINUOUS
 62
     7
 10
142.5485142699999983
 20
104.372125650000001
 30
0.0
 11
142.5485142699999983
 21
116.623202660000004
 31
0.0
  0
LINE
  5
3FF
  8
SLD-0_0
  6
CONTINUOUS
 62
     7
 10
-47.0807287000000017
 20
275.5420151299999816
 30
0.0
 11
-47.0807287000000017
 21
286.2913472199999774
 31
0.0
  0
LINE
  5
400
  8
SLD-0_0
  6
CONTINUOUS
 62
     7
 10
118.251051529999998
 20
116.623202660000004
 30
0.0
 11
118.251051529999998
 21
104.372125650000001
 31
0.0
  0
LINE
  5
401
  8
SLD-0_0
  6
CONTINUOUS
 62
     7
 10
61.7988182599999902
 20
92.1230752900000027
 30
0.0
 11
61.7988182599999902
 21
104.372125650000001
 31
0.0
  0
LINE
  5
402
  8
SLD-0_0
  6
CONTINUOUS
 62
     7
 10
61.9143370999999973
 20
275.5420151299999816
 30
0.0
 11
61.9143370999999973
 21
286.2913472199999774
 31
0.0
  0
LINE
  5
403
  8
SLD-0_0
  6
CONTINUOUS
 62
     7
 10
126.4832888899999972
 20
286.2913472199999774
 30
0.0
 11
126.4832888899999972
 21
297.0416926099999841
 31
0.0
  0
LINE
  5
404
  8
SLD-0_0
  6
CONTINUOUS
 62
     7
 10
91.5499862500000035
 20
104.372125650000001
 30
0.0
 11
91.5499862500000035
 21
116.623202660000004
 31
0.0
  0
LINE
  5
405
  8
SLD-0_0
  6
CONTINUOUS
 62
     7
 10
-16.94855119999999
 20
286.2913472199999774
 30
0.0
 11
-16.94855119999999
 21
297.0416926099999841
 31
0.0
  0
LINE
  5
406
  8
SLD-0_0
  6
CONTINUOUS
 62
     7
 10
-52.4969409899999988
 20
281.0413199199999781
 30
0.0
 11
-52.4969409899999988
 21
258.5597322699999836
 31
0.0
  0
LINE
  5
407
  8
SLD-0_0
  6
CONTINUOUS
 62
     7
 10
-5.2264288800000003
 20
92.1230752900000027
 30
0.0
 11
-5.2264288800000003
 21
104.372125650000001
 31
0.0
  0
LINE
  5
408
  8
SLD-0_0
  6
CONTINUOUS
 62
     7
 10
11.77308047
 20
92.1230752900000027
 30
0.0
 11
11.77308047
 21
104.372125650000001
 31
0.0
  0
LINE
  5
409
  8
SLD-0_0
  6
CONTINUOUS
 62
     7
 10
-51.1248244599999992
 20
260.814956460000019
 30
0.0
 11
-51.1657342999999898
 21
260.4521173399999725
 31
0.0
  0
LINE
  5
40A
  8
SLD-0_0
  6
CONTINUOUS
 62
     7
 10
31.7821595899999991
 20
286.2913472199999774
 30
0.0
 11
169.527230099999997
 21
286.2913472199999774
 31
0.0
  0
LINE
  5
40B
  8
SLD-0_0
  6
CONTINUOUS
 62
     7
 10
-51.3889522200000002
 20
259.6360617400000024
 30
0.0
 11
-51.4984599000000003
 21
259.4798519199999873
 31
0.0
  0
LINE
  5
40C
  8
SLD-0_0
  6
CONTINUOUS
 62
     7
 10
156.4979208999999969
 20
104.372125650000001
 30
0.0
 11
156.4979208999999969
 21
92.1230752900000027
 31
0.0
  0
LINE
  5
40D
  8
SLD-0_0
  6
CONTINUOUS
 62
     7
 10
-16.7762862599999991
 20
116.623202660000004
 30
0.0
 11
-16.7762862599999991
 21
104.372125650000001
 31
0.0
  0
LINE
  5
40E
  8
SLD-0_0
  6
CONTINUOUS
 62
     7
 10
33.2484382100000033
 20
110.3162793099999988
 30
0.0
 11
168.008258689999991
 21
110.3162793099999988
 31
0.0
  0
LINE
  5
40F
  8
SLD-0_0
  6
CONTINUOUS
 62
     7
 10
-33.7778222499999998
 20
116.623202660000004
 30
0.0
 11
-33.7778222499999998
 21
104.372125650000001
 31
0.0
  0
LINE
  5
410
  8
SLD-0_0
  6
CONTINUOUS
 62
     7
 10
-29.8643682000000013
 20
275.5420151299999816
 30
0.0
 11
-29.8643682000000013
 21
286.2913472199999774
 31
0.0
  0
LINE
  5
411
  8
SLD-0_0
  6
CONTINUOUS
 62
     7
 10
-52.4969409899999988
 20
275.6474007300000153
 30
0.0
 11
-49.4589981600000002
 21
275.6474007300000153
 31
0.0
  0
LINE
  5
412
  8
SLD-0_0
  6
CONTINUOUS
 62
     7
 10
-81.517502989999997
 20
275.5420151299999816
 30
0.0
 11
-81.517502989999997
 21
286.2913472199999774
 31
0.0
  0
LINE
  5
413
  8
SLD-0_0
  6
CONTINUOUS
 62
     7
 10
-84.7783769199999853
 20
116.623202660000004
 30
0.0
 11
-84.7783769199999853
 21
104.372125650000001
 31
0.0
  0
LINE
  5
414
  8
SLD-0_0
  6
CONTINUOUS
 62
     7
 10
-55.0272089199999996
 20
104.372125650000001
 30
0.0
 11
-55.0272089199999996
 21
92.1230752900000027
 31
0.0
  0
LINE
  5
415
  8
SLD-0_0
  6
CONTINUOUS
 62
     7
 10
-9.4783328600000001
 20
104.372125650000001
 30
0.0
 11
-9.4783328600000001
 21
116.623202660000004
 31
0.0
  0
LINE
  5
416
  8
SLD-0_0
  6
CONTINUOUS
 62
     7
 10
-61.7465547999999984
 20
286.0096433599999841
 30
0.0
 11
-61.7465547999999984
 21
281.0413199199999781
 31
0.0
  0
LINE
  5
417
  8
SLD-0_0
  6
CONTINUOUS
 62
     7
 10
173.8318268900000021
 20
275.5420151299999816
 30
0.0
 11
173.8318268900000021
 21
286.2913472199999774
 31
0.0
  0
LINE
  5
418
  8
SLD-0_0
  6
CONTINUOUS
 62
     7
 10
66.2189338799999945
 20
286.2913472199999774
 30
0.0
 11
66.2189338799999945
 21
297.0416926099999841
 31
0.0
  0
LINE
  5
419
  8
SLD-0_0
  6
CONTINUOUS
 62
     7
 10
-114.5275182700000016
 20
96.389165790000007
 30
0.0
 11
20.2343288600000015
 21
96.389165790000007
 31
0.0
  0
LINE
  5
41A
  8
SLD-0_0
  6
CONTINUOUS
 62
     7
 10
-51.1919535999999979
 20
264.5963707799999725
 30
0.0
 11
-51.1722781799999922
 21
264.3427280600000131
 31
0.0
  0
LINE
  5
41B
  8
SLD-0_0
  6
CONTINUOUS
 62
     7
 10
-21.2531479800000014
 20
275.5420151299999816
 30
0.0
 11
-21.2531479800000014
 21
286.2913472199999774
 31
0.0
  0
LINE
  5
41C
  8
SLD-0_0
  6
CONTINUOUS
 62
     7
 10
-8.3413842700000007
 20
286.2913472199999774
 30
0.0
 11
-8.3413842700000007
 21
297.0416926099999841
 31
0.0
  0
LINE
  5
41D
  8
SLD-0_0
  6
CONTINUOUS
 62
     7
 10
278.7609977600000093
 20
306.542026729999975
 30
0.0
 11
278.7609977600000093
 21
344.542026729999975
 31
0.0
  0
LINE
  5
41E
  8
SLD-0_0
  6
CONTINUOUS
 62
     7
 10
-198.7390022399999054
 20
354.042026729999975
 30
0.0
 11
-201.2390022399999907
 21
356.542026729999975
 31
0.0
  0
LINE
  5
41F
  8
SLD-0_0
  6
CONTINUOUS
 62
     7
 10
268.7609977600000093
 20
304.042026729999975
 30
0.0
 11
276.2609977600000093
 21
304.042026729999975
 31
0.0
  0
LINE
  5
420
  8
SLD-0_0
  6
CONTINUOUS
 62
     7
 10
268.7609977600000093
 20
354.042026729999975
 30
0.0
 11
276.2609977600000093
 21
354.042026729999975
 31
0.0
  0
LINE
  5
421
  8
SLD-0_0
  6
CONTINUOUS
 62
     7
 10
-201.2390022399999907
 20
306.542026729999975
 30
0.0
 11
-201.2390022399999907
 21
344.542026729999975
 31
0.0
  0
LINE
  5
422
  8
SLD-0_0
  6
CONTINUOUS
 62
     7
 10
276.2609977600000093
 20
297.042026729999975
 30
0.0
 11
278.7609977600000093
 21
294.542026729999975
 31
0.0
  0
LINE
  5
423
  8
SLD-0_0
  6
CONTINUOUS
 62
     7
 10
276.2609977600000093
 20
275.542026729999975
 30
0.0
 11
-49.4589981600000002
 21
275.542026729999975
 31
0.0
  0
LINE
  5
424
  8
SLD-0_0
  6
CONTINUOUS
 62
     7
 10
276.2609977600000093
 20
304.042026729999975
 30
0.0
 11
278.7609977600000093
 21
306.542026729999975
 31
0.0
  0
LINE
  5
425
  8
SLD-0_0
  6
CONTINUOUS
 62
     7
 10
268.7609977600000093
 20
297.042026729999975
 30
0.0
 11
276.2609977600000093
 21
297.042026729999975
 31
0.0
  0
LINE
  5
426
  8
SLD-0_0
  6
CONTINUOUS
 62
     7
 10
268.7609977600000093
 20
347.042026729999975
 30
0.0
 11
276.2609977600000093
 21
347.042026729999975
 31
0.0
  0
LINE
  5
427
  8
SLD-0_0
  6
CONTINUOUS
 62
     7
 10
-198.7390022399999054
 20
304.042026729999975
 30
0.0
 11
-201.2390022399999907
 21
306.542026729999975
 31
0.0
  0
LINE
  5
428
  8
SLD-0_0
  6
CONTINUOUS
 62
     7
 10
276.2609977600000093
 20
354.042026729999975
 30
0.0
 11
278.7609977600000093
 21
356.542026729999975
 31
0.0
  0
LINE
  5
429
  8
SLD-0_0
  6
CONTINUOUS
 62
     7
 10
-191.2390022399999907
 20
347.042026729999975
 30
0.0
 11
-198.7390022399999054
 21
347.042026729999975
 31
0.0
  0
LINE
  5
42A
  8
SLD-0_0
  6
CONTINUOUS
 62
     7
 10
-191.2390022399999907
 20
354.042026729999975
 30
0.0
 11
-198.7390022399999054
 21
354.042026729999975
 31
0.0
  0
LINE
  5
42B
  8
SLD-0_0
  6
CONTINUOUS
 62
     7
 10
-198.7390022399999054
 20
347.042026729999975
 30
0.0
 11
-201.2390022399999907
 21
344.542026729999975
 31
0.0
  0
LINE
  5
42C
  8
SLD-0_0
  6
CONTINUOUS
 62
     7
 10
276.2609977600000093
 20
347.042026729999975
 30
0.0
 11
278.7609977600000093
 21
344.542026729999975
 31
0.0
  0
LINE
  5
42D
  8
SLD-0_0
  6
CONTINUOUS
 62
     7
 10
-191.2390022399999907
 20
304.042026729999975
 30
0.0
 11
-198.7390022399999054
 21
304.042026729999975
 31
0.0
  0
LINE
  5
42E
  8
SLD-0_0
  6
CONTINUOUS
 62
     7
 10
-198.7390022399999054
 20
297.042026729999975
 30
0.0
 11
-201.2390022399999907
 21
294.542026729999975
 31
0.0
  0
LINE
  5
42F
  8
SLD-0_0
  6
CONTINUOUS
 62
     7
 10
278.7609977600000093
 20
356.542026729999975
 30
0.0
 11
278.7609977600000093
 21
373.042026729999975
 31
0.0
  0
LINE
  5
430
  8
SLD-0_0
  6
CONTINUOUS
 62
     7
 10
-191.2390022399999907
 20
297.042026729999975
 30
0.0
 11
-198.7390022399999054
 21
297.042026729999975
 31
0.0
  0
LINE
  5
431
  8
SLD-0_0
  6
CONTINUOUS
 62
     7
 10
-201.2390022399999907
 20
356.542026729999975
 30
0.0
 11
-201.2390022399999907
 21
373.042026729999975
 31
0.0
  0
ARC
  5
432
  8
SLD-0_0
  6
CONTINUOUS
 62
     7
 10
-191.2390022399999907
 20
300.542026729999975
 30
0.0
 40
3.5
 50
270.0
 51
450.0
  0
ARC
  5
433
  8
SLD-0_0
  6
CONTINUOUS
 62
     7
 10
268.7609977600000093
 20
300.542026729999975
 30
0.0
 40
3.5
 50
90.0
 51
270.0
  0
ARC
  5
434
  8
SLD-0_0
  6
CONTINUOUS
 62
     7
 10
-191.2390022399999907
 20
350.542026729999975
 30
0.0
 40
3.5
 50
270.0
 51
450.0
  0
ARC
  5
435
  8
SLD-0_0
  6
CONTINUOUS
 62
     7
 10
268.7609977600000093
 20
350.542026729999975
 30
0.0
 40
3.5
 50
90.0
 51
270.0
  0
LINE
  5
436
  8
SLD-0_0
  6
PHANTOM
 62
     7
 10
-181.2390022399999907
 20
275.542026729999975
 30
0.0
 11
-181.2390022399999907
 21
375.542026729999975
 31
0.0
  0
LINE
  5
437
  8
SLD-0_0
  6
PHANTOM
 62
     7
 10
-131.2270839500000079
 20
275.542026729999975
 30
0.0
 11
-131.2270839500000079
 21
375.542026729999975
 31
0.0
  0
LINE
  5
438
  8
SLD-0_0
  6
PHANTOM
 62
     7
 10
102.7609977599999951
 20
305.542026729999975
 30
0.0
 11
102.7609977599999951
 21
353.542026729999975
 31
0.0
  0
LINE
  5
439
  8
SLD-0_0
  6
PHANTOM
 62
     7
 10
-50.2390022399999978
 20
305.542026729999975
 30
0.0
 11
-68.2390022400000049
 21
305.542026729999975
 31
0.0
  0
LINE
  5
43A
  8
SLD-0_0
  6
PHANTOM
 62
     7
 10
140.7609977600000093
 20
353.542026729999975
 30
0.0
 11
122.7609977599999951
 21
353.542026729999975
 31
0.0
  0
LINE
  5
43B
  8
SLD-0_0
  6
PHANTOM
 62
     7
 10
122.7609977599999951
 20
305.542026729999975
 30
0.0
 11
122.7609977599999951
 21
353.542026729999975
 31
0.0
  0
LINE
  5
43C
  8
SLD-0_0
  6
PHANTOM
 62
     7
 10
64.7609977599999951
 20
305.542026729999975
 30
0.0
 11
46.7609977600000022
 21
305.542026729999975
 31
0.0
  0
LINE
  5
43D
  8
SLD-0_0
  6
PHANTOM
 62
     7
 10
-12.2390022399999996
 20
353.542026729999975
 30
0.0
 11
-30.2390022400000014
 21
353.542026729999975
 31
0.0
  0
LINE
  5
43E
  8
SLD-0_0
  6
PHANTOM
 62
     7
 10
-50.2390022399999978
 20
305.542026729999975
 30
0.0
 11
-50.2390022399999978
 21
353.542026729999975
 31
0.0
  0
LINE
  5
43F
  8
SLD-0_0
  6
PHANTOM
 62
     7
 10
-11.2390022399999996
 20
305.542026729999975
 30
0.0
 11
-11.2390022399999996
 21
353.542026729999975
 31
0.0
  0
LINE
  5
440
  8
SLD-0_0
  6
PHANTOM
 62
     7
 10
178.7609977600000093
 20
305.542026729999975
 30
0.0
 11
160.7609977600000093
 21
305.542026729999975
 31
0.0
  0
LINE
  5
441
  8
SLD-0_0
  6
PHANTOM
 62
     7
 10
121.7609977599999951
 20
353.542026729999975
 30
0.0
 11
103.7609977599999951
 21
353.542026729999975
 31
0.0
  0
LINE
  5
442
  8
SLD-0_0
  6
PHANTOM
 62
     7
 10
-31.2390022400000014
 20
353.542026729999975
 30
0.0
 11
-49.2390022399999978
 21
353.542026729999975
 31
0.0
  0
LINE
  5
443
  8
SLD-0_0
  6
PHANTOM
 62
     7
 10
172.1331684399999915
 20
161.3208872799999938
 30
0.0
 11
172.1331684399999915
 21
161.5416367200000138
 31
0.0
  0
LINE
  5
444
  8
SLD-0_0
  6
PHANTOM
 62
     7
 10
-108.5691780800000004
 20
161.3208872799999938
 30
0.0
 11
-108.5691780800000004
 21
161.5416367200000138
 31
0.0
  0
LINE
  5
445
  8
SLD-0_0
  6
PHANTOM
 62
     7
 10
-31.2390022400000014
 20
305.542026729999975
 30
0.0
 11
-49.2390022399999978
 21
305.542026729999975
 31
0.0
  0
LINE
  5
446
  8
SLD-0_0
  6
PHANTOM
 62
     7
 10
102.7609977599999951
 20
353.542026729999975
 30
0.0
 11
84.7609977599999951
 21
353.542026729999975
 31
0.0
  0
LINE
  5
447
  8
SLD-0_0
  6
PHANTOM
 62
     7
 10
7.7609977600000004
 20
305.542026729999975
 30
0.0
 11
7.7609977600000004
 21
353.542026729999975
 31
0.0
  0
LINE
  5
448
  8
SLD-0_0
  6
PHANTOM
 62
     7
 10
-110.0691780800000004
 20
163.0416367200000138
 30
0.0
 11
-112.3668315599999943
 21
163.0416367200000138
 31
0.0
  0
LINE
  5
449
  8
SLD-0_0
  6
PHANTOM
 62
     7
 10
-125.2390022400000049
 20
161.3416367300000047
 30
0.0
 11
-125.2390022400000049
 21
92.0420094400000011
 31
0.0
  0
LINE
  5
44A
  8
SLD-0_0
  6
PHANTOM
 62
     7
 10
121.7609977599999951
 20
305.542026729999975
 30
0.0
 11
121.7609977599999951
 21
353.542026729999975
 31
0.0
  0
LINE
  5
44B
  8
SLD-0_0
  6
PHANTOM
 62
     7
 10
6.7609977600000004
 20
353.542026729999975
 30
0.0
 11
-11.2390022399999996
 21
353.542026729999975
 31
0.0
  0
LINE
  5
44C
  8
SLD-0_0
  6
PHANTOM
 62
     7
 10
6.7609977600000004
 20
305.542026729999975
 30
0.0
 11
-11.2390022399999996
 21
305.542026729999975
 31
0.0
  0
LINE
  5
44D
  8
SLD-0_0
  6
PHANTOM
 62
     7
 10
-49.2390022399999978
 20
305.542026729999975
 30
0.0
 11
-49.2390022399999978
 21
353.542026729999975
 31
0.0
  0
LINE
  5
44E
  8
SLD-0_0
  6
PHANTOM
 62
     7
 10
159.7609977600000093
 20
353.542026729999975
 30
0.0
 11
141.7609977600000093
 21
353.542026729999975
 31
0.0
  0
LINE
  5
44F
  8
SLD-0_0
  6
PHANTOM
 62
     7
 10
-107.2390022400000049
 20
353.542026729999975
 30
0.0
 11
-125.2390022400000049
 21
353.542026729999975
 31
0.0
  0
LINE
  5
450
  8
SLD-0_0
  6
PHANTOM
 62
     7
 10
-30.2390022400000014
 20
305.542026729999975
 30
0.0
 11
-30.2390022400000014
 21
353.542026729999975
 31
0.0
  0
LINE
  5
451
  8
SLD-0_0
  6
PHANTOM
 62
     7
 10
-12.2390022399999996
 20
305.542026729999975
 30
0.0
 11
-12.2390022399999996
 21
353.542026729999975
 31
0.0
  0
LINE
  5
452
  8
SLD-0_0
  6
PHANTOM
 62
     7
 10
45.7609977600000022
 20
305.542026729999975
 30
0.0
 11
27.7609977599999986
 21
305.542026729999975
 31
0.0
  0
LINE
  5
453
  8
SLD-0_0
  6
PHANTOM
 62
     7
 10
159.7609977600000093
 20
305.542026729999975
 30
0.0
 11
141.7609977600000093
 21
305.542026729999975
 31
0.0
  0
LINE
  5
454
  8
SLD-0_0
  6
PHANTOM
 62
     7
 10
177.4308219199999996
 20
161.3208872799999938
 30
0.0
 11
177.4308219199999996
 21
161.5416367200000138
 31
0.0
  0
LINE
  5
455
  8
SLD-0_0
  6
PHANTOM
 62
     7
 10
160.7609977600000093
 20
161.3416367300000047
 30
0.0
 11
160.7609977600000093
 21
116.623202660000004
 31
0.0
  0
LINE
  5
456
  8
SLD-0_0
  6
PHANTOM
 62
     7
 10
-107.2390022400000049
 20
305.542026729999975
 30
0.0
 11
-107.2390022400000049
 21
353.542026729999975
 31
0.0
  0
LINE
  5
457
  8
SLD-0_0
  6
PHANTOM
 62
     7
 10
103.7609977599999951
 20
305.542026729999975
 30
0.0
 11
103.7609977599999951
 21
353.542026729999975
 31
0.0
  0
LINE
  5
458
  8
SLD-0_0
  6
PHANTOM
 62
     7
 10
-107.2390022400000049
 20
161.3416367300000047
 30
0.0
 11
-125.2390022400000049
 21
161.3416367300000047
 31
0.0
  0
LINE
  5
459
  8
SLD-0_0
  6
PHANTOM
 62
     7
 10
178.7609977600000093
 20
161.3416367300000047
 30
0.0
 11
160.7609977600000093
 21
161.3416367300000047
 31
0.0
  0
LINE
  5
45A
  8
SLD-0_0
  6
PHANTOM
 62
     7
 10
-88.2390022400000049
 20
305.542026729999975
 30
0.0
 11
-88.2390022400000049
 21
353.542026729999975
 31
0.0
  0
LINE
  5
45B
  8
SLD-0_0
  6
PHANTOM
 62
     7
 10
-88.2390022400000049
 20
353.542026729999975
 30
0.0
 11
-106.2390022400000049
 21
353.542026729999975
 31
0.0
  0
LINE
  5
45C
  8
SLD-0_0
  6
PHANTOM
 62
     7
 10
-69.2390022400000049
 20
305.542026729999975
 30
0.0
 11
-87.2390022400000049
 21
305.542026729999975
 31
0.0
  0
LINE
  5
45D
  8
SLD-0_0
  6
PHANTOM
 62
     7
 10
46.7609977600000022
 20
305.542026729999975
 30
0.0
 11
46.7609977600000022
 21
353.542026729999975
 31
0.0
  0
LINE
  5
45E
  8
SLD-0_0
  6
PHANTOM
 62
     7
 10
25.7609977599999986
 20
305.542026729999975
 30
0.0
 11
25.7609977599999986
 21
353.542026729999975
 31
0.0
  0
LINE
  5
45F
  8
SLD-0_0
  6
PHANTOM
 62
     7
 10
64.7609977599999951
 20
353.542026729999975
 30
0.0
 11
46.7609977600000022
 21
353.542026729999975
 31
0.0
  0
LINE
  5
460
  8
SLD-0_0
  6
PHANTOM
 62
     7
 10
159.7609977600000093
 20
305.542026729999975
 30
0.0
 11
159.7609977600000093
 21
353.542026729999975
 31
0.0
  0
LINE
  5
461
  8
SLD-0_0
  6
PHANTOM
 62
     7
 10
84.7609977599999951
 20
305.542026729999975
 30
0.0
 11
84.7609977599999951
 21
353.542026729999975
 31
0.0
  0
LINE
  5
462
  8
SLD-0_0
  6
PHANTOM
 62
     7
 10
83.7609977599999951
 20
353.542026729999975
 30
0.0
 11
65.7609977599999951
 21
353.542026729999975
 31
0.0
  0
LINE
  5
463
  8
SLD-0_0
  6
PHANTOM
 62
     7
 10
64.7609977599999951
 20
305.542026729999975
 30
0.0
 11
64.7609977599999951
 21
353.542026729999975
 31
0.0
  0
LINE
  5
464
  8
SLD-0_0
  6
PHANTOM
 62
     7
 10
-88.2390022400000049
 20
305.542026729999975
 30
0.0
 11
-106.2390022400000049
 21
305.542026729999975
 31
0.0
  0
LINE
  5
465
  8
SLD-0_0
  6
PHANTOM
 62
     7
 10
-12.2390022399999996
 20
305.542026729999975
 30
0.0
 11
-30.2390022400000014
 21
305.542026729999975
 31
0.0
  0
LINE
  5
466
  8
SLD-0_0
  6
PHANTOM
 62
     7
 10
45.7609977600000022
 20
353.542026729999975
 30
0.0
 11
27.7609977599999986
 21
353.542026729999975
 31
0.0
  0
LINE
  5
467
  8
SLD-0_0
  6
PHANTOM
 62
     7
 10
45.7609977600000022
 20
305.542026729999975
 30
0.0
 11
45.7609977600000022
 21
353.542026729999975
 31
0.0
  0
LINE
  5
468
  8
SLD-0_0
  6
PHANTOM
 62
     7
 10
141.7609977600000093
 20
305.542026729999975
 30
0.0
 11
141.7609977600000093
 21
353.542026729999975
 31
0.0
  0
LINE
  5
469
  8
SLD-0_0
  6
PHANTOM
 62
     7
 10
-50.2390022399999978
 20
353.542026729999975
 30
0.0
 11
-68.2390022400000049
 21
353.542026729999975
 31
0.0
  0
LINE
  5
46A
  8
SLD-0_0
  6
PHANTOM
 62
     7
 10
178.7609977600000093
 20
305.542026729999975
 30
0.0
 11
178.7609977600000093
 21
353.542026729999975
 31
0.0
  0
LINE
  5
46B
  8
SLD-0_0
  6
PHANTOM
 62
     7
 10
25.7609977599999986
 20
305.542026729999975
 30
0.0
 11
7.7609977600000004
 21
305.542026729999975
 31
0.0
  0
LINE
  5
46C
  8
SLD-0_0
  6
PHANTOM
 62
     7
 10
-107.2390022400000049
 20
161.3416367300000047
 30
0.0
 11
-107.2390022400000049
 21
116.623202660000004
 31
0.0
  0
LINE
  5
46D
  8
SLD-0_0
  6
PHANTOM
 62
     7
 10
140.7609977600000093
 20
305.542026729999975
 30
0.0
 11
122.7609977599999951
 21
305.542026729999975
 31
0.0
  0
LINE
  5
46E
  8
SLD-0_0
  6
PHANTOM
 62
     7
 10
-107.2390022400000049
 20
305.542026729999975
 30
0.0
 11
-125.2390022400000049
 21
305.542026729999975
 31
0.0
  0
LINE
  5
46F
  8
SLD-0_0
  6
PHANTOM
 62
     7
 10
65.7609977599999951
 20
305.542026729999975
 30
0.0
 11
65.7609977599999951
 21
353.542026729999975
 31
0.0
  0
LINE
  5
470
  8
SLD-0_0
  6
PHANTOM
 62
     7
 10
160.7609977600000093
 20
305.542026729999975
 30
0.0
 11
160.7609977600000093
 21
353.542026729999975
 31
0.0
  0
LINE
  5
471
  8
SLD-0_0
  6
PHANTOM
 62
     7
 10
-69.2390022400000049
 20
305.542026729999975
 30
0.0
 11
-69.2390022400000049
 21
353.542026729999975
 31
0.0
  0
LINE
  5
472
  8
SLD-0_0
  6
PHANTOM
 62
     7
 10
178.7609977600000093
 20
161.3416367300000047
 30
0.0
 11
178.7609977600000093
 21
92.0420094400000011
 31
0.0
  0
LINE
  5
473
  8
SLD-0_0
  6
PHANTOM
 62
     7
 10
-31.2390022400000014
 20
305.542026729999975
 30
0.0
 11
-31.2390022400000014
 21
353.542026729999975
 31
0.0
  0
LINE
  5
474
  8
SLD-0_0
  6
PHANTOM
 62
     7
 10
83.7609977599999951
 20
305.542026729999975
 30
0.0
 11
83.7609977599999951
 21
353.542026729999975
 31
0.0
  0
LINE
  5
475
  8
SLD-0_0
  6
PHANTOM
 62
     7
 10
-113.8668315599999943
 20
161.3208872799999938
 30
0.0
 11
-113.8668315599999943
 21
161.5416367200000138
 31
0.0
  0
LINE
  5
476
  8
SLD-0_0
  6
PHANTOM
 62
     7
 10
140.7609977600000093
 20
305.542026729999975
 30
0.0
 11
140.7609977600000093
 21
353.542026729999975
 31
0.0
  0
LINE
  5
477
  8
SLD-0_0
  6
PHANTOM
 62
     7
 10
-125.2390022400000049
 20
305.542026729999975
 30
0.0
 11
-125.2390022400000049
 21
353.542026729999975
 31
0.0
  0
LINE
  5
478
  8
SLD-0_0
  6
PHANTOM
 62
     7
 10
102.7609977599999951
 20
305.542026729999975
 30
0.0
 11
84.7609977599999951
 21
305.542026729999975
 31
0.0
  0
LINE
  5
479
  8
SLD-0_0
  6
PHANTOM
 62
     7
 10
-68.2390022400000049
 20
305.542026729999975
 30
0.0
 11
-68.2390022400000049
 21
353.542026729999975
 31
0.0
  0
LINE
  5
47A
  8
SLD-0_0
  6
PHANTOM
 62
     7
 10
-69.2390022400000049
 20
353.542026729999975
 30
0.0
 11
-87.2390022400000049
 21
353.542026729999975
 31
0.0
  0
LINE
  5
47B
  8
SLD-0_0
  6
PHANTOM
 62
     7
 10
178.7609977600000093
 20
353.542026729999975
 30
0.0
 11
160.7609977600000093
 21
353.542026729999975
 31
0.0
  0
LINE
  5
47C
  8
SLD-0_0
  6
PHANTOM
 62
     7
 10
-87.2390022400000049
 20
305.542026729999975
 30
0.0
 11
-87.2390022400000049
 21
353.542026729999975
 31
0.0
  0
LINE
  5
47D
  8
SLD-0_0
  6
PHANTOM
 62
     7
 10
27.7609977599999986
 20
305.542026729999975
 30
0.0
 11
27.7609977599999986
 21
353.542026729999975
 31
0.0
  0
LINE
  5
47E
  8
SLD-0_0
  6
PHANTOM
 62
     7
 10
25.7609977599999986
 20
353.542026729999975
 30
0.0
 11
7.7609977600000004
 21
353.542026729999975
 31
0.0
  0
LINE
  5
47F
  8
SLD-0_0
  6
PHANTOM
 62
     7
 10
175.9308219199999996
 20
163.0416367200000138
 30
0.0
 11
173.6331684399999915
 21
163.0416367200000138
 31
0.0
  0
LINE
  5
480
  8
SLD-0_0
  6
PHANTOM
 62
     7
 10
121.7609977599999951
 20
305.542026729999975
 30
0.0
 11
103.7609977599999951
 21
305.542026729999975
 31
0.0
  0
LINE
  5
481
  8
SLD-0_0
  6
PHANTOM
 62
     7
 10
-106.2390022400000049
 20
305.542026729999975
 30
0.0
 11
-106.2390022400000049
 21
353.542026729999975
 31
0.0
  0
LINE
  5
482
  8
SLD-0_0
  6
PHANTOM
 62
     7
 10
83.7609977599999951
 20
305.542026729999975
 30
0.0
 11
65.7609977599999951
 21
305.542026729999975
 31
0.0
  0
LINE
  5
483
  8
SLD-0_0
  6
PHANTOM
 62
     7
 10
6.7609977600000004
 20
305.542026729999975
 30
0.0
 11
6.7609977600000004
 21
353.542026729999975
 31
0.0
  0
ARC
  5
484
  8
SLD-0_0
  6
PHANTOM
 62
     7
 10
175.9308219199999996
 20
161.5416367200000138
 30
0.0
 40
1.5
 50
0.0
 51
90.0
  0
ARC
  5
485
  8
SLD-0_0
  6
PHANTOM
 62
     7
 10
173.6331684399999915
 20
161.5416367200000138
 30
0.0
 40
1.5
 50
90.0
 51
180.0
  0
ARC
  5
486
  8
SLD-0_0
  6
PHANTOM
 62
     7
 10
-110.0691780800000004
 20
161.5416367200000138
 30
0.0
 40
1.5
 50
0.0
 51
90.0
  0
ARC
  5
487
  8
SLD-0_0
  6
PHANTOM
 62
     7
 10
-112.3668315599999943
 20
161.5416367200000138
 30
0.0
 40
1.5
 50
90.0
 51
180.0
  0
LINE
  5
488
  8
SLD-0_3
  6
CONTINUOUS
 62
     7
 10
13.4945827200000004
 20
375.5477796199999716
 30
0.0
 11
13.4945827200000004
 21
363.2273911500000168
 31
0.0
  0
LINE
  5
489
  8
SLD-0_3
  6
CONTINUOUS
 62
     7
 10
-22.4424360199999988
 20
375.5477796199999716
 30
0.0
 11
-22.4424360199999988
 21
363.2273911500000168
 31
0.0
  0
LINE
  5
48A
  8
SLD-0_3
  6
CONTINUOUS
 62
     7
 10
-103.3059924800000005
 20
375.5477796199999716
 30
0.0
 11
-103.3059924800000005
 21
363.2273911500000168
 31
0.0
  0
LINE
  5
48B
  8
SLD-0_3
  6
CONTINUOUS
 62
     7
 10
-49.3975929400000027
 20
375.5477796199999716
 30
0.0
 11
-49.3975929400000027
 21
363.2273911500000168
 31
0.0
  0
LINE
  5
48C
  8
SLD-0_3
  6
CONTINUOUS
 62
     7
 10
-58.3813690500000035
 20
375.5477796199999716
 30
0.0
 11
-58.3813690500000035
 21
363.2273911500000168
 31
0.0
  0
LINE
  5
48D
  8
SLD-0_3
  6
CONTINUOUS
 62
     7
 10
22.4802731199999997
 20
363.2273911500000168
 30
0.0
 11
-121.2754589999999979
 21
363.2273911500000168
 31
0.0
  0
LINE
  5
48E
  8
SLD-0_3
  6
CONTINUOUS
 62
     7
 10
-67.3670594499999993
 20
375.5477796199999716
 30
0.0
 11
-67.3670594499999993
 21
363.2273911500000168
 31
0.0
  0
LINE
  5
48F
  8
SLD-0_3
  6
CONTINUOUS
 62
     7
 10
129.9582423800000015
 20
375.5477796199999716
 30
0.0
 11
129.9582423800000015
 21
363.2273911500000168
 31
0.0
  0
LINE
  5
490
  8
SLD-0_3
  6
CONTINUOUS
 62
     7
 10
120.9744662699999935
 20
375.5477796199999716
 30
0.0
 11
120.9744662699999935
 21
363.2273911500000168
 31
0.0
  0
LINE
  5
491
  8
SLD-0_3
  6
CONTINUOUS
 62
     7
 10
49.0966002099999983
 20
375.5477796199999716
 30
0.0
 11
49.0966002099999983
 21
363.2273911500000168
 31
0.0
  0
LINE
  5
492
  8
SLD-0_3
  6
CONTINUOUS
 62
     7
 10
111.9887758699999978
 20
375.5477796199999716
 30
0.0
 11
111.9887758699999978
 21
363.2273911500000168
 31
0.0
  0
LINE
  5
493
  8
SLD-0_3
  6
CONTINUOUS
 62
     7
 10
85.0355332400000066
 20
375.5477796199999716
 30
0.0
 11
85.0355332400000066
 21
363.2273911500000168
 31
0.0
  0
LINE
  5
494
  8
SLD-0_3
  6
CONTINUOUS
 62
     7
 10
67.0641524299999929
 20
375.5477796199999716
 30
0.0
 11
67.0641524299999929
 21
363.2273911500000168
 31
0.0
  0
LINE
  5
495
  8
SLD-0_3
  6
CONTINUOUS
 62
     7
 10
-13.4586599099999997
 20
375.5477796199999716
 30
0.0
 11
-13.4586599099999997
 21
363.2273911500000168
 31
0.0
  0
LINE
  5
496
  8
SLD-0_3
  6
CONTINUOUS
 62
     7
 10
-76.352749860000003
 20
375.5477796199999716
 30
0.0
 11
-76.352749860000003
 21
363.2273911500000168
 31
0.0
  0
LINE
  5
497
  8
SLD-0_3
  6
CONTINUOUS
 62
     7
 10
138.9420184900000095
 20
375.5477796199999716
 30
0.0
 11
138.9420184900000095
 21
363.2273911500000168
 31
0.0
  0
LINE
  5
498
  8
SLD-0_3
  6
CONTINUOUS
 62
     7
 10
-31.4262121299999997
 20
375.5477796199999716
 30
0.0
 11
-31.4262121299999997
 21
363.2273911500000168
 31
0.0
  0
LINE
  5
499
  8
SLD-0_3
  6
CONTINUOUS
 62
     7
 10
58.0784620299999972
 20
375.5477796199999716
 30
0.0
 11
58.0784620299999972
 21
363.2273911500000168
 31
0.0
  0
LINE
  5
49A
  8
SLD-0_3
  6
CONTINUOUS
 62
     7
 10
31.1252193999999989
 20
363.2273911500000168
 30
0.0
 11
31.1252193999999989
 21
375.5477796199999716
 31
0.0
  0
LINE
  5
49B
  8
SLD-0_3
  6
CONTINUOUS
 62
     7
 10
-4.4729695100000004
 20
375.5477796199999716
 30
0.0
 11
-4.4729695100000004
 21
363.2273911500000168
 31
0.0
  0
LINE
  5
49C
  8
SLD-0_3
  6
CONTINUOUS
 62
     7
 10
165.8990896999999904
 20
375.5477796199999716
 30
0.0
 11
165.8990896999999904
 21
363.2273911500000168
 31
0.0
  0
LINE
  5
49D
  8
SLD-0_3
  6
CONTINUOUS
 62
     7
 10
147.927708889999991
 20
375.5477796199999716
 30
0.0
 11
147.927708889999991
 21
363.2273911500000168
 31
0.0
  0
LINE
  5
49E
  8
SLD-0_3
  6
CONTINUOUS
 62
     7
 10
-112.2916828900000041
 20
375.5477796199999716
 30
0.0
 11
-112.2916828900000041
 21
363.2273911500000168
 31
0.0
  0
LINE
  5
49F
  8
SLD-0_3
  6
CONTINUOUS
 62
     7
 10
-121.2754589999999979
 20
363.2273911500000168
 30
0.0
 11
-121.2754589999999979
 21
375.5477796199999716
 31
0.0
  0
LINE
  5
4A0
  8
SLD-0_3
  6
CONTINUOUS
 62
     7
 10
156.9133993000000089
 20
375.5477796199999716
 30
0.0
 11
156.9133993000000089
 21
363.2273911500000168
 31
0.0
  0
LINE
  5
4A1
  8
SLD-0_3
  6
CONTINUOUS
 62
     7
 10
40.1109098100000026
 20
375.5477796199999716
 30
0.0
 11
40.1109098100000026
 21
363.2273911500000168
 31
0.0
  0
LINE
  5
4A2
  8
SLD-0_3
  6
CONTINUOUS
 62
     7
 10
174.8828658099999984
 20
363.2273911500000168
 30
0.0
 11
31.1252193999999989
 21
363.2273911500000168
 31
0.0
  0
LINE
  5
4A3
  8
SLD-0_3
  6
CONTINUOUS
 62
     7
 10
22.4802731199999997
 20
375.5477796199999716
 30
0.0
 11
22.4802731199999997
 21
363.2273911500000168
 31
0.0
  0
LINE
  5
4A4
  8
SLD-0_3
  6
CONTINUOUS
 62
     7
 10
94.0193093500000145
 20
375.5477796199999716
 30
0.0
 11
94.0193093500000145
 21
363.2273911500000168
 31
0.0
  0
LINE
  5
4A5
  8
SLD-0_3
  6
CONTINUOUS
 62
     7
 10
-85.3365259699999967
 20
375.5477796199999716
 30
0.0
 11
-85.3365259699999967
 21
363.2273911500000168
 31
0.0
  0
LINE
  5
4A6
  8
SLD-0_3
  6
CONTINUOUS
 62
     7
 10
-40.4138168300000018
 20
375.5477796199999716
 30
0.0
 11
-40.4138168300000018
 21
363.2273911500000168
 31
0.0
  0
LINE
  5
4A7
  8
SLD-0_3
  6
CONTINUOUS
 62
     7
 10
76.0498428399999966
 20
375.5477796199999716
 30
0.0
 11
76.0498428399999966
 21
363.2273911500000168
 31
0.0
  0
LINE
  5
4A8
  8
SLD-0_3
  6
CONTINUOUS
 62
     7
 10
-94.3203020800000047
 20
375.5477796199999716
 30
0.0
 11
-94.3203020800000047
 21
363.2273911500000168
 31
0.0
  0
LINE
  5
4A9
  8
SLD-0_3
  6
CONTINUOUS
 62
     7
 10
103.0030854599999941
 20
375.5477796199999716
 30
0.0
 11
103.0030854599999941
 21
363.2273911500000168
 31
0.0
  0
LINE
  5
4AA
  8
SLD-0_3
  6
CONTINUOUS
 62
     7
 10
4.5127208999999997
 20
375.5477796199999716
 30
0.0
 11
4.5127208999999997
 21
363.2273911500000168
 31
0.0
  0
LINE
  5
4AB
  8
SLD-0_3
  6
CONTINUOUS
 62
     7
 10
174.8828658099999984
 20
375.5477796199999716
 30
0.0
 11
174.8828658099999984
 21
363.2273911500000168
 31
0.0
  0
LINE
  5
4AC
  8
SLD-0_3
  6
PHANTOM
 62
     7
 10
204.0045665099999894
 20
358.31147722999998
 30
0.0
 11
216.7671566100000007
 21
358.31147722999998
 31
0.0
  0
LINE
  5
4AD
  8
SLD-0_3
  6
PHANTOM
 62
     7
 10
216.7671566100000007
 20
358.31147722999998
 30
0.0
 11
216.7671566100000007
 21
345.9910887699999762
 31
0.0
  0
LINE
  5
4AE
  8
SLD-0_3
  6
PHANTOM
 62
     7
 10
232.487329079999995
 20
312.371321469999998
 30
0.0
 11
225.077101650000003
 21
312.371321469999998
 31
0.0
  0
LINE
  5
4AF
  8
SLD-0_3
  6
PHANTOM
 62
     7
 10
232.487329079999995
 20
318.5458728899999983
 30
0.0
 11
232.487329079999995
 21
322.250986609999984
 31
0.0
  0
LINE
  5
4B0
  8
SLD-0_3
  6
PHANTOM
 62
     7
 10
225.077101650000003
 20
303.7263751799999909
 30
0.0
 11
232.487329079999995
 21
303.7263751799999909
 31
0.0
  0
LINE
  5
4B1
  8
SLD-0_3
  6
PHANTOM
 62
     7
 10
232.487329079999995
 20
317.3111540400000194
 30
0.0
 11
225.077101650000003
 21
317.3111540400000194
 31
0.0
  0
LINE
  5
4B2
  8
SLD-0_3
  6
PHANTOM
 62
     7
 10
222.4463321700000051
 20
208.0416367200000138
 30
0.0
 11
222.4463321700000051
 21
198.0027757299999962
 31
0.0
  0
LINE
  5
4B3
  8
SLD-0_3
  6
PHANTOM
 62
     7
 10
214.9278873799999872
 20
198.0123472100000015
 30
0.0
 11
210.8723160000000121
 21
198.0123472100000015
 31
0.0
  0
LINE
  5
4B4
  8
SLD-0_3
  6
PHANTOM
 62
     7
 10
198.7448738600000127
 20
197.1135853300000065
 30
0.0
 11
198.7397301299999981
 21
197.0111720699999864
 31
0.0
  0
LINE
  5
4B5
  8
SLD-0_3
  6
PHANTOM
 62
     7
 10
248.3062257100000068
 20
197.8414404899999965
 30
0.0
 11
248.2240031899999906
 21
197.891570569999999
 31
0.0
  0
LINE
  5
4B6
  8
SLD-0_3
  6
PHANTOM
 62
     7
 10
204.1677297999999894
 20
198.0123472100000015
 30
0.0
 11
201.8000262799999973
 21
198.0123472100000015
 31
0.0
  0
LINE
  5
4B7
  8
SLD-0_3
  6
PHANTOM
 62
     7
 10
198.7845262699999864
 20
197.3090011699999877
 30
0.0
 11
198.7599722799999995
 21
197.2130290100000138
 31
0.0
  0
LINE
  5
4B8
  8
SLD-0_3
  6
PHANTOM
 62
     7
 10
222.4463321700000051
 20
198.0027757299999962
 30
0.0
 11
238.2603049900000087
 21
198.0027757299999962
 31
0.0
  0
LINE
  5
4B9
  8
SLD-0_3
  6
PHANTOM
 62
     7
 10
248.7397639600000048
 20
197.1135853300000065
 30
0.0
 11
248.724723019999999
 21
197.2130290100000138
 31
0.0
  0
LINE
  5
4BA
  8
SLD-0_3
  6
PHANTOM
 62
     7
 10
236.6123007900000061
 20
198.0123472100000015
 30
0.0
 11
232.5567294200000106
 21
198.0123472100000015
 31
0.0
  0
LINE
  5
4BB
  8
SLD-0_3
  6
PHANTOM
 62
     7
 10
228.2198467300000004
 20
198.0123472100000015
 30
0.0
 11
223.7423084000000131
 21
198.0123472100000015
 31
0.0
  0
LINE
  5
4BC
  8
SLD-0_3
  6
PHANTOM
 62
     7
 10
207.2387115900000083
 20
198.0123472100000015
 30
0.0
 11
204.1677297999999894
 21
198.0123472100000015
 31
0.0
  0
LINE
  5
4BD
  8
SLD-0_3
  6
PHANTOM
 62
     7
 10
199.3486547100000053
 20
197.9337116499999922
 30
0.0
 11
199.2614618499999892
 21
197.891570569999999
 31
0.0
  0
LINE
  5
4BE
  8
SLD-0_3
  6
PHANTOM
 62
     7
 10
198.8180366699999979
 20
197.4009998399999972
 30
0.0
 11
198.7845262699999864
 21
197.3090011699999877
 31
0.0
  0
LINE
  5
4BF
  8
SLD-0_3
  6
PHANTOM
 62
     7
 10
238.2603049900000087
 20
198.0027757299999962
 30
0.0
 11
238.2603049900000087
 21
208.0416367200000138
 31
0.0
  0
LINE
  5
4C0
  8
SLD-0_3
  6
PHANTOM
 62
     7
 10
248.7448866599999917
 20
197.0111720699999864
 30
0.0
 11
248.7397639600000048
 21
197.1135853300000065
 31
0.0
  0
LINE
  5
4C1
  8
SLD-0_3
  6
PHANTOM
 62
     7
 10
248.5751913299999956
 20
197.571069069999993
 30
0.0
 11
248.5179200499999865
 21
197.6481357099999911
 31
0.0
  0
LINE
  5
4C2
  8
SLD-0_3
  6
PHANTOM
 62
     7
 10
248.5179200499999865
 20
197.6481357099999911
 30
0.0
 11
248.4536748699999862
 21
197.7192211199999861
 31
0.0
  0
LINE
  5
4C3
  8
SLD-0_3
  6
PHANTOM
 62
     7
 10
198.7397301299999981
 20
197.0111720699999864
 30
0.0
 11
198.7397301299999981
 21
92.0420094400000011
 31
0.0
  0
LINE
  5
4C4
  8
SLD-0_3
  6
PHANTOM
 62
     7
 10
247.2083600999999931
 20
198.0123472100000015
 30
0.0
 11
245.6845905099999925
 21
198.0123472100000015
 31
0.0
  0
LINE
  5
4C5
  8
SLD-0_3
  6
PHANTOM
 62
     7
 10
201.8000262799999973
 20
198.0123472100000015
 30
0.0
 11
200.2762566899999968
 21
198.0123472100000015
 31
0.0
  0
LINE
  5
4C6
  8
SLD-0_3
  6
PHANTOM
 62
     7
 10
199.6350218800000107
 20
198.0071815100000094
 30
0.0
 11
199.5359338600000001
 21
197.9920190599999898
 31
0.0
  0
LINE
  5
4C7
  8
SLD-0_3
  6
PHANTOM
 62
     7
 10
199.031659789999992
 20
197.7192211199999861
 30
0.0
 11
198.9673150600000042
 21
197.6481357099999911
 31
0.0
  0
LINE
  5
4C8
  8
SLD-0_3
  6
PHANTOM
 62
     7
 10
248.724723019999999
 20
197.2130290100000138
 30
0.0
 11
248.7002545699999985
 21
197.3090011699999877
 31
0.0
  0
LINE
  5
4C9
  8
SLD-0_3
  6
PHANTOM
 62
     7
 10
200.2762566899999968
 20
198.0123472100000015
 30
0.0
 11
199.7370766800000013
 21
198.0123472100000015
 31
0.0
  0
LINE
  5
4CA
  8
SLD-0_3
  6
PHANTOM
 62
     7
 10
248.6668493200000114
 20
197.4009998399999972
 30
0.0
 11
248.624998000000005
 21
197.4885231300000044
 31
0.0
  0
LINE
  5
4CB
  8
SLD-0_3
  6
PHANTOM
 62
     7
 10
223.7423084000000131
 20
198.0123472100000015
 30
0.0
 11
219.2647700599999894
 21
198.0123472100000015
 31
0.0
  0
LINE
  5
4CC
  8
SLD-0_3
  6
PHANTOM
 62
     7
 10
219.2647700599999894
 20
198.0123472100000015
 30
0.0
 11
214.9278873799999872
 21
198.0123472100000015
 31
0.0
  0
LINE
  5
4CD
  8
SLD-0_3
  6
PHANTOM
 62
     7
 10
199.2614618499999892
 20
197.891570569999999
 30
0.0
 11
199.1792323200000112
 21
197.8414404899999965
 31
0.0
  0
LINE
  5
4CE
  8
SLD-0_3
  6
PHANTOM
 62
     7
 10
199.1792323200000112
 20
197.8414404899999965
 30
0.0
 11
199.1024652499999945
 21
197.7838233600000137
 31
0.0
  0
LINE
  5
4CF
  8
SLD-0_3
  6
PHANTOM
 62
     7
 10
243.3168869900000004
 20
198.0123472100000015
 30
0.0
 11
240.2459052000000099
 21
198.0123472100000015
 31
0.0
  0
LINE
  5
4D0
  8
SLD-0_3
  6
PHANTOM
 62
     7
 10
199.5359338600000001
 20
197.9920190599999898
 30
0.0
 11
199.440311759999986
 21
197.9673617900000124
 31
0.0
  0
LINE
  5
4D1
  8
SLD-0_3
  6
PHANTOM
 62
     7
 10
199.1024652499999945
 20
197.7838233600000137
 30
0.0
 11
199.031659789999992
 21
197.7192211199999861
 31
0.0
  0
LINE
  5
4D2
  8
SLD-0_3
  6
PHANTOM
 62
     7
 10
215.916762690000013
 20
365.542026729999975
 30
0.0
 11
219.1561940199999867
 21
372.4035436799999843
 31
0.0
  0
LINE
  5
4D3
  8
SLD-0_3
  6
PHANTOM
 62
     7
 10
211.5698516500000039
 20
348.4940266099999917
 30
0.0
 11
211.56410876999999
 21
346.765420210000002
 31
0.0
  0
LINE
  5
4D4
  8
SLD-0_3
  6
PHANTOM
 62
     7
 10
204.0447666599999934
 20
357.5467172599999799
 30
0.0
 11
211.56410876999999
 21
357.5467172599999799
 31
0.0
  0
LINE
  5
4D5
  8
SLD-0_3
  6
PHANTOM
 62
     7
 10
238.272321919999996
 20
298.1337687700000174
 30
0.0
 11
238.272321919999996
 21
322.8683460400000058
 31
0.0
  0
LINE
  5
4D6
  8
SLD-0_3
  6
PHANTOM
 62
     7
 10
227.4718819400000029
 20
307.3386456999999723
 30
0.0
 11
227.4718819400000029
 21
303.7282894699999929
 31
0.0
  0
LINE
  5
4D7
  8
SLD-0_3
  6
PHANTOM
 62
     7
 10
232.487329079999995
 20
303.7263751799999909
 30
0.0
 11
232.487329079999995
 21
307.4295746099999747
 31
0.0
  0
LINE
  5
4D8
  8
SLD-0_3
  6
PHANTOM
 62
     7
 10
225.077101650000003
 20
313.6060403299999848
 30
0.0
 11
232.487329079999995
 21
313.6060403299999848
 31
0.0
  0
LINE
  5
4D9
  8
SLD-0_3
  6
PHANTOM
 62
     7
 10
232.487329079999995
 20
298.7846283200000244
 30
0.0
 11
232.487329079999995
 21
302.4897420300000022
 31
0.0
  0
LINE
  5
4DA
  8
SLD-0_3
  6
PHANTOM
 62
     7
 10
222.4583490999999924
 20
298.1337687700000174
 30
0.0
 11
238.272321919999996
 21
298.1337687700000174
 31
0.0
  0
LINE
  5
4DB
  8
SLD-0_3
  6
PHANTOM
 62
     7
 10
225.077101650000003
 20
322.250986609999984
 30
0.0
 11
225.077101650000003
 21
318.5458728899999983
 31
0.0
  0
LINE
  5
4DC
  8
SLD-0_3
  6
PHANTOM
 62
     7
 10
215.9497535799999923
 20
350.4370337999999947
 30
0.0
 11
213.7808598400000051
 21
350.4523481400000264
 31
0.0
  0
LINE
  5
4DD
  8
SLD-0_3
  6
PHANTOM
 62
     7
 10
225.077101650000003
 20
298.7846283200000244
 30
0.0
 11
232.487329079999995
 21
298.7846283200000244
 31
0.0
  0
LINE
  5
4DE
  8
SLD-0_3
  6
PHANTOM
 62
     7
 10
227.4718819400000029
 20
312.3732357499999921
 30
0.0
 11
227.4718819400000029
 21
308.6681220500000222
 31
0.0
  0
LINE
  5
4DF
  8
SLD-0_3
  6
PHANTOM
 62
     7
 10
225.077101650000003
 20
318.5458728899999983
 30
0.0
 11
232.487329079999995
 21
318.5458728899999983
 31
0.0
  0
LINE
  5
4E0
  8
SLD-0_3
  6
PHANTOM
 62
     7
 10
232.487329079999995
 20
302.4897420300000022
 30
0.0
 11
225.077101650000003
 21
302.4897420300000022
 31
0.0
  0
LINE
  5
4E1
  8
SLD-0_3
  6
PHANTOM
 62
     7
 10
225.077101650000003
 20
308.6662077500000123
 30
0.0
 11
232.487329079999995
 21
308.6662077500000123
 31
0.0
  0
LINE
  5
4E2
  8
SLD-0_3
  6
PHANTOM
 62
     7
 10
219.1561940199999867
 20
372.4035436799999843
 30
0.0
 11
219.1561940199999867
 21
365.542026729999975
 31
0.0
  0
LINE
  5
4E3
  8
SLD-0_3
  6
PHANTOM
 62
     7
 10
211.56410876999999
 20
346.765420210000002
 30
0.0
 11
204.0447666599999934
 21
346.765420210000002
 31
0.0
  0
LINE
  5
4E4
  8
SLD-0_3
  6
PHANTOM
 62
     7
 10
204.0045665099999894
 20
345.9910887699999762
 30
0.0
 11
204.0045665099999894
 21
358.31147722999998
 31
0.0
  0
LINE
  5
4E5
  8
SLD-0_3
  6
PHANTOM
 62
     7
 10
227.4718819400000029
 20
302.4897420300000022
 30
0.0
 11
227.4718819400000029
 21
298.7865426100000263
 31
0.0
  0
LINE
  5
4E6
  8
SLD-0_3
  6
PHANTOM
 62
     7
 10
227.4718819400000029
 20
317.2853110799999854
 30
0.0
 11
227.4718819400000029
 21
313.6060403299999848
 31
0.0
  0
LINE
  5
4E7
  8
SLD-0_3
  6
PHANTOM
 62
     7
 10
227.9772552400000052
 20
372.4035436799999843
 30
0.0
 11
231.5764514100000042
 21
365.542026729999975
 31
0.0
  0
LINE
  5
4E8
  8
SLD-0_3
  6
PHANTOM
 62
     7
 10
213.7808598400000051
 20
350.4523481400000264
 30
0.0
 11
213.7712883700000077
 21
348.4940266099999917
 31
0.0
  0
LINE
  5
4E9
  8
SLD-0_3
  6
PHANTOM
 62
     7
 10
232.487329079999995
 20
307.4295746099999747
 30
0.0
 11
225.077101650000003
 21
307.4295746099999747
 31
0.0
  0
LINE
  5
4EA
  8
SLD-0_3
  6
PHANTOM
 62
     7
 10
227.9772552400000052
 20
365.5676040899999748
 30
0.0
 11
227.9772552400000052
 21
372.4035436799999843
 31
0.0
  0
LINE
  5
4EB
  8
SLD-0_3
  6
PHANTOM
 62
     7
 10
225.077101650000003
 20
312.371321469999998
 30
0.0
 11
225.077101650000003
 21
308.6662077500000123
 31
0.0
  0
LINE
  5
4EC
  8
SLD-0_3
  6
PHANTOM
 62
     7
 10
232.487329079999995
 20
313.6060403299999848
 30
0.0
 11
232.487329079999995
 21
317.3111540400000194
 31
0.0
  0
LINE
  5
4ED
  8
SLD-0_3
  6
PHANTOM
 62
     7
 10
216.7671566100000007
 20
345.9910887699999762
 30
0.0
 11
204.0045665099999894
 21
345.9910887699999762
 31
0.0
  0
LINE
  5
4EE
  8
SLD-0_3
  6
PHANTOM
 62
     7
 10
225.077101650000003
 20
302.4897420300000022
 30
0.0
 11
225.077101650000003
 21
298.7846283200000244
 31
0.0
  0
LINE
  5
4EF
  8
SLD-0_3
  6
PHANTOM
 62
     7
 10
225.077101650000003
 20
307.4295746099999747
 30
0.0
 11
225.077101650000003
 21
303.7263751799999909
 31
0.0
  0
LINE
  5
4F0
  8
SLD-0_3
  6
PHANTOM
 62
     7
 10
225.077101650000003
 20
317.3111540400000194
 30
0.0
 11
225.077101650000003
 21
313.6060403299999848
 31
0.0
  0
LINE
  5
4F1
  8
SLD-0_3
  6
PHANTOM
 62
     7
 10
213.7808598400000051
 20
353.9028609100000153
 30
0.0
 11
215.9497535799999923
 21
353.9028609100000153
 31
0.0
  0
LINE
  5
4F2
  8
SLD-0_3
  6
PHANTOM
 62
     7
 10
222.4583490999999924
 20
322.8683460400000058
 30
0.0
 11
222.4583490999999924
 21
298.1337687700000174
 31
0.0
  0
LINE
  5
4F3
  8
SLD-0_3
  6
PHANTOM
 62
     7
 10
227.4718819400000029
 20
322.1954721199999767
 30
0.0
 11
227.4718819400000029
 21
318.5477871900000082
 31
0.0
  0
LINE
  5
4F4
  8
SLD-0_3
  6
PHANTOM
 62
     7
 10
219.1561940199999867
 20
372.4035436799999843
 30
0.0
 11
227.9772552400000052
 21
372.4035436799999843
 31
0.0
  0
LINE
  5
4F5
  8
SLD-0_3
  6
PHANTOM
 62
     7
 10
211.5698516500000039
 20
355.8075822499999958
 30
0.0
 11
213.7712883700000077
 21
355.8075822499999958
 31
0.0
  0
LINE
  5
4F6
  8
SLD-0_3
  6
PHANTOM
 62
     7
 10
213.7712883700000077
 20
355.8075822499999958
 30
0.0
 11
213.7808598400000051
 21
353.9028609100000153
 31
0.0
  0
LINE
  5
4F7
  8
SLD-0_3
  6
PHANTOM
 62
     7
 10
213.7712883700000077
 20
348.4940266099999917
 30
0.0
 11
211.5698516500000039
 21
348.4940266099999917
 31
0.0
  0
LINE
  5
4F8
  8
SLD-0_3
  6
PHANTOM
 62
     7
 10
232.487329079999995
 20
308.6662077500000123
 30
0.0
 11
232.487329079999995
 21
312.371321469999998
 31
0.0
  0
LINE
  5
4F9
  8
SLD-0_3
  6
PHANTOM
 62
     7
 10
211.56410876999999
 20
357.5467172599999799
 30
0.0
 11
211.5698516500000039
 21
355.8075822499999958
 31
0.0
  0
LINE
  5
4FA
  8
SLD-0_3
  6
PHANTOM
 62
     7
 10
215.9497535799999923
 20
353.9028609100000153
 30
0.0
 11
215.9497535799999923
 21
350.4370337999999947
 31
0.0
  0
LINE
  5
4FB
  8
SLD-0_3
  6
PHANTOM
 62
     7
 10
204.0447666599999934
 20
346.765420210000002
 30
0.0
 11
204.0447666599999934
 21
357.5467172599999799
 31
0.0
  0
LINE
  5
4FC
  8
SLD-0_3
  6
PHANTOM
 62
     7
 10
238.272321919999996
 20
322.8683460400000058
 30
0.0
 11
222.4583490999999924
 21
322.8683460400000058
 31
0.0
  0
LINE
  5
4FD
  8
SLD-0_3
  6
PHANTOM
 62
     7
 10
232.487329079999995
 20
322.250986609999984
 30
0.0
 11
225.077101650000003
 21
322.250986609999984
 31
0.0
  0
LINE
  5
4FE
  8
SLD-0_3
  6
PHANTOM
 62
     7
 10
198.8600043700000128
 20
197.4885231300000044
 30
0.0
 11
198.8180366699999979
 21
197.4009998399999972
 31
0.0
  0
LINE
  5
4FF
  8
SLD-0_3
  6
PHANTOM
 62
     7
 10
248.4536748699999862
 20
197.7192211199999861
 30
0.0
 11
248.3829465100000107
 21
197.7838233600000137
 31
0.0
  0
LINE
  5
500
  8
SLD-0_3
  6
PHANTOM
 62
     7
 10
248.1367696700000067
 20
197.9337116499999922
 30
0.0
 11
248.045015879999994
 21
197.9673617900000124
 31
0.0
  0
LINE
  5
501
  8
SLD-0_3
  6
PHANTOM
 62
     7
 10
232.5567294200000106
 20
198.0123472100000015
 30
0.0
 11
228.2198467300000004
 21
198.0123472100000015
 31
0.0
  0
LINE
  5
502
  8
SLD-0_3
  6
PHANTOM
 62
     7
 10
248.7448866599999917
 20
92.0420094400000011
 30
0.0
 11
248.7448866599999917
 21
197.0111720699999864
 31
0.0
  0
LINE
  5
503
  8
SLD-0_3
  6
PHANTOM
 62
     7
 10
247.8499103700000035
 20
198.0071815100000094
 30
0.0
 11
247.7475401099999885
 21
198.0123472100000015
 31
0.0
  0
LINE
  5
504
  8
SLD-0_3
  6
PHANTOM
 62
     7
 10
198.9673150600000042
 20
197.6481357099999911
 30
0.0
 11
198.9099302099999989
 21
197.571069069999993
 31
0.0
  0
LINE
  5
505
  8
SLD-0_3
  6
PHANTOM
 62
     7
 10
198.9099302099999989
 20
197.571069069999993
 30
0.0
 11
198.8600043700000128
 21
197.4885231300000044
 31
0.0
  0
LINE
  5
506
  8
SLD-0_3
  6
PHANTOM
 62
     7
 10
248.624998000000005
 20
197.4885231300000044
 30
0.0
 11
248.5751913299999956
 21
197.571069069999993
 31
0.0
  0
LINE
  5
507
  8
SLD-0_3
  6
PHANTOM
 62
     7
 10
248.045015879999994
 20
197.9673617900000124
 30
0.0
 11
247.949232539999997
 21
197.9920190599999898
 31
0.0
  0
LINE
  5
508
  8
SLD-0_3
  6
PHANTOM
 62
     7
 10
247.949232539999997
 20
197.9920190599999898
 30
0.0
 11
247.8499103700000035
 21
198.0071815100000094
 31
0.0
  0
LINE
  5
509
  8
SLD-0_3
  6
PHANTOM
 62
     7
 10
198.7599722799999995
 20
197.2130290100000138
 30
0.0
 11
198.7448738600000127
 21
197.1135853300000065
 31
0.0
  0
LINE
  5
50A
  8
SLD-0_3
  6
PHANTOM
 62
     7
 10
240.2459052000000099
 20
198.0123472100000015
 30
0.0
 11
236.6123007900000061
 21
198.0123472100000015
 31
0.0
  0
LINE
  5
50B
  8
SLD-0_3
  6
PHANTOM
 62
     7
 10
199.440311759999986
 20
197.9673617900000124
 30
0.0
 11
199.3486547100000053
 21
197.9337116499999922
 31
0.0
  0
LINE
  5
50C
  8
SLD-0_3
  6
PHANTOM
 62
     7
 10
248.3829465100000107
 20
197.7838233600000137
 30
0.0
 11
248.3062257100000068
 21
197.8414404899999965
 31
0.0
  0
LINE
  5
50D
  8
SLD-0_3
  6
PHANTOM
 62
     7
 10
199.7370766800000013
 20
198.0123472100000015
 30
0.0
 11
199.6350218800000107
 21
198.0071815100000094
 31
0.0
  0
LINE
  5
50E
  8
SLD-0_3
  6
PHANTOM
 62
     7
 10
248.7002545699999985
 20
197.3090011699999877
 30
0.0
 11
248.6668493200000114
 21
197.4009998399999972
 31
0.0
  0
LINE
  5
50F
  8
SLD-0_3
  6
PHANTOM
 62
     7
 10
248.2240031899999906
 20
197.891570569999999
 30
0.0
 11
248.1367696700000067
 21
197.9337116499999922
 31
0.0
  0
LINE
  5
510
  8
SLD-0_3
  6
PHANTOM
 62
     7
 10
247.7475401099999885
 20
198.0123472100000015
 30
0.0
 11
247.2083600999999931
 21
198.0123472100000015
 31
0.0
  0
LINE
  5
511
  8
SLD-0_3
  6
PHANTOM
 62
     7
 10
210.8723160000000121
 20
198.0123472100000015
 30
0.0
 11
207.2387115900000083
 21
198.0123472100000015
 31
0.0
  0
LINE
  5
512
  8
SLD-0_3
  6
PHANTOM
 62
     7
 10
245.6845905099999925
 20
198.0123472100000015
 30
0.0
 11
243.3168869900000004
 21
198.0123472100000015
 31
0.0
  0
LINE
  5
513
  8
SLD-0_1
  6
PHANTOM
 62
     7
 10
-145.7449664400000131
 20
319.7592686699999831
 30
0.0
 11
-149.4512146799999925
 21
319.7592686699999831
 31
0.0
  0
LINE
  5
514
  8
SLD-0_1
  6
PHANTOM
 62
     7
 10
-145.7449664400000131
 20
311.4591946599999801
 30
0.0
 11
-149.4512146799999925
 21
311.4591946599999801
 31
0.0
  0
LINE
  5
515
  8
SLD-0_1
  6
PHANTOM
 62
     7
 10
-149.4512146799999925
 20
312.4510331000000178
 30
0.0
 11
-145.7449664400000131
 21
312.4510331000000178
 31
0.0
  0
LINE
  5
516
  8
SLD-0_1
  6
PHANTOM
 62
     7
 10
-158.3433092600000123
 20
320.7483872799999745
 30
0.0
 11
-162.0477442600000018
 21
320.7483872799999745
 31
0.0
  0
LINE
  5
517
  8
SLD-0_1
  6
PHANTOM
 62
     7
 10
-162.0477442600000018
 20
328.0566228299999807
 30
0.0
 11
-158.3433092600000123
 21
328.0566228299999807
 31
0.0
  0
LINE
  5
518
  8
SLD-0_1
  6
PHANTOM
 62
     7
 10
-145.7449664400000131
 20
328.0566228299999807
 30
0.0
 11
-149.4512146799999925
 21
328.0566228299999807
 31
0.0
  0
LINE
  5
519
  8
SLD-0_1
  6
PHANTOM
 62
     7
 10
-158.3433092600000123
 20
312.4510331000000178
 30
0.0
 11
-162.0477442600000018
 21
312.4510331000000178
 31
0.0
  0
LINE
  5
51A
  8
SLD-0_1
  6
PHANTOM
 62
     7
 10
-158.3433092600000123
 20
295.8554181499999913
 30
0.0
 11
-162.0477442600000018
 21
295.8554181499999913
 31
0.0
  0
LINE
  5
51B
  8
SLD-0_1
  6
PHANTOM
 62
     7
 10
-162.0477442600000018
 20
336.3566968499999916
 30
0.0
 11
-158.3433092600000123
 21
336.3566968499999916
 31
0.0
  0
LINE
  5
51C
  8
SLD-0_1
  6
PHANTOM
 62
     7
 10
-162.0477442600000018
 20
311.4591946599999801
 30
0.0
 11
-158.3433092600000123
 21
311.4591946599999801
 31
0.0
  0
LINE
  5
51D
  8
SLD-0_1
  6
PHANTOM
 62
     7
 10
-158.3433092600000123
 20
304.1527723099999889
 30
0.0
 11
-162.0477442600000018
 21
304.1527723099999889
 31
0.0
  0
LINE
  5
51E
  8
SLD-0_1
  6
PHANTOM
 62
     7
 10
-162.0477442600000018
 20
337.3421889800000031
 30
0.0
 11
-162.0477442600000018
 21
294.8672061699999745
 31
0.0
  0
LINE
  5
51F
  8
SLD-0_1
  6
PHANTOM
 62
     7
 10
-149.4512146799999925
 20
304.1527723099999889
 30
0.0
 11
-145.7449664400000131
 21
304.1527723099999889
 31
0.0
  0
LINE
  5
520
  8
SLD-0_1
  6
PHANTOM
 62
     7
 10
-162.0477442600000018
 20
319.7592686699999831
 30
0.0
 11
-158.3433092600000123
 21
319.7592686699999831
 31
0.0
  0
LINE
  5
521
  8
SLD-0_1
  6
PHANTOM
 62
     7
 10
-169.4557076499999937
 20
366.9812954500000046
 30
0.0
 11
-169.4557076499999937
 21
283.9977810099999829
 31
0.0
  0
LINE
  5
522
  8
SLD-0_1
  6
PHANTOM
 62
     7
 10
-162.0477442600000018
 20
303.1627471000001037
 30
0.0
 11
-158.3433092600000123
 21
303.1627471000001037
 31
0.0
  0
LINE
  5
523
  8
SLD-0_1
  6
PHANTOM
 62
     7
 10
-135.8673797200000024
 20
366.9812954500000046
 30
0.0
 11
-169.4557076499999937
 21
366.9812954500000046
 31
0.0
  0
LINE
  5
525
  8
SLD-0_1
  6
PHANTOM
 62
     7
 10
-169.4557076499999937
 20
283.9977810099999829
 30
0.0
 11
-135.8673797200000024
 21
283.9977810099999829
 31
0.0
  0
LINE
  5
527
  8
SLD-0_1
  6
PHANTOM
 62
     7
 10
-149.4512146799999925
 20
320.7483872799999745
 30
0.0
 11
-145.7449664400000131
 21
320.7483872799999745
 31
0.0
  0
LINE
  5
528
  8
SLD-0_1
  6
PHANTOM
 62
     7
 10
-149.4512146799999925
 20
329.0448348200000055
 30
0.0
 11
-145.7449664400000131
 21
329.0448348200000055
 31
0.0
  0
LINE
  5
529
  8
SLD-0_1
  6
PHANTOM
 62
     7
 10
-145.7449664400000131
 20
336.3566968499999916
 30
0.0
 11
-149.4512146799999925
 21
336.3566968499999916
 31
0.0
  0
LINE
  5
52A
  8
SLD-0_1
  6
PHANTOM
 62
     7
 10
-135.8673797200000024
 20
283.9977810099999829
 30
0.0
 11
-135.8673797200000024
 21
366.9812954500000046
 31
0.0
  0
LINE
  5
52B
  8
SLD-0_1
  6
PHANTOM
 62
     7
 10
-158.3433092600000123
 20
329.0448348200000055
 30
0.0
 11
-162.0477442600000018
 21
329.0448348200000055
 31
0.0
  0
LINE
  5
52C
  8
SLD-0_1
  6
PHANTOM
 62
     7
 10
-149.4512146799999925
 20
295.8554181499999913
 30
0.0
 11
-145.7449664400000131
 21
295.8554181499999913
 31
0.0
  0
LINE
  5
52D
  8
SLD-0_1
  6
PHANTOM
 62
     7
 10
-145.7449664400000131
 20
303.1627471000001037
 30
0.0
 11
-149.4512146799999925
 21
303.1627471000001037
 31
0.0
  0
LINE
  5
52E
  8
SLD-0_1
  6
PHANTOM
 62
     7
 10
-145.7449664400000131
 20
337.3421889800000031
 30
0.0
 11
-162.0477442600000018
 21
337.3421889800000031
 31
0.0
  0
CIRCLE
  5
534
  8
SLD-0_1
  6
PHANTOM
 62
     7
 10
-153.8938947700000028
 20
324.3976856599999792
 30
0.0
 40
3.360515739999999
  0
CIRCLE
  5
535
  8
SLD-0_1
  6
PHANTOM
 62
     7
 10
-153.8938947700000028
 20
316.1003314899999737
 30
0.0
 40
3.360515739999999
  0
CIRCLE
  5
536
  8
SLD-0_1
  6
PHANTOM
 62
     7
 10
-153.8938947700000028
 20
307.8020706899999936
 30
0.0
 40
3.360515739999999
  0
CIRCLE
  5
537
  8
SLD-0_1
  6
PHANTOM
 62
     7
 10
-153.8938947700000028
 20
299.5047165299999961
 30
0.0
 40
3.360515739999999
  0
TEXT
  5
538
  8
SLD-0
 62
     7
 10
263.6619027400000164
 20
-389.9248852399999805
 30
0.0
 40
9.5250000000000004
  1
001
 41
1.4999999999999989
 72
     5
 11
292.236902740000005
 21
-389.9248852399999805
 31
0.0
  0
TEXT
  5
539
  8
SLD-0
 62
     7
 10
-278.7609977600000093
 20
370.8748852499999771
 30
0.0
 40
9.5250000000000004
  1
-M2
 41
1.125
 72
     5
 11
-250.1859977599999922
 21
370.8748852499999771
 31
0.0
  0
TEXT
  5
53A
  8
SLD-0
 62
     7
 10
-249.2487650699999904
 20
-50.7896749900000017
 30
0.0
 40
9.5250000000000004
  1
-R
 41
1.199999999999998
 72
     5
 11
-230.1987650700000074
 21
-50.7896749900000017
 31
0.0
  0
LINE
  5
59B
  8
0
  6
CONTINUOUS
 10
-162.0477442600000018
 20
294.8672061699999745
 30
0.0
 11
-145.7449664400000131
 21
294.8672061699999745
 31
0.0
  0
LINE
  5
5B1
  8
SLD-0
  6
PHANTOM
 62
     7
 10
-145.669755758069897
 20
230.0416363636857113
 30
0.0
 11
-161.9661872580697946
 21
230.0416363636857113
 31
0.0
  0
LINE
  5
5B2
  8
SLD-0_1
  6
PHANTOM
 62
     7
 10
-135.7976087380698118
 20
78.04163689960005
 30
0.0
 11
-135.7976087380698118
 21
214.5281381517208956
 31
0.0
  0
LINE
  5
5B3
  8
SLD-0_1
  6
PHANTOM
 62
     7
 10
-169.3505786180697896
 20
214.5281381517208956
 30
0.0
 11
-169.3505786180697896
 21
78.04163689960005
 31
0.0
  0
LINE
  5
5B4
  8
SLD-0_1
  6
PHANTOM
 62
     7
 10
-145.669755758069897
 20
214.5281381517208956
 30
0.0
 11
-145.669755758069897
 21
230.0416363636857113
 31
0.0
  0
LINE
  5
5B5
  8
SLD-0_1
  6
PHANTOM
 62
     7
 10
-135.7976087380698118
 20
214.5281381517208956
 30
0.0
 11
-169.3505786180697896
 21
214.5281381517208956
 31
0.0
  0
LINE
  5
5B6
  8
SLD-0_1
  6
PHANTOM
 62
     7
 10
-161.9661872580697946
 20
230.0416363636857113
 30
0.0
 11
-161.9661872580697946
 21
214.5281381517208956
 31
0.0
  0
ENDSEC
  0
EOF
