  0
SECTION
  2
HEADER
  9
$ACADVER
  1
AC1009
  9
$INSBASE
 10
0.0
 20
0.0
 30
0.0
  9
$EXTMIN
 10
-278.7609977600000093
 20
-389.9248852399999805
 30
0.0
  9
$EXTMAX
 10
292.2369027400001187
 20
380.3998852499998975
 30
0.0
  9
$LIMMIN
 10
-308.0309025199999837
 20
-430.3669356999999991
  9
$LIMMAX
 10
308.0309025199999837
 20
420.8419356999999081
  9
$ORTHOMODE
 70
     0
  9
$REGENMODE
 70
     1
  9
$FILLMODE
 70
     1
  9
$QTEXTMODE
 70
     0
  9
$MIRRTEXT
 70
     1
  9
$DRAGMODE
 70
     2
  9
$LTSCALE
 40
0.2
  9
$OSMODE
 70
  1079
  9
$ATTMODE
 70
     1
  9
$TEXTSIZE
 40
9.5250000000000004
  9
$TRACEWID
 40
0.05
  9
$TEXTSTYLE
  7
STANDARD
  9
$CLAYER
  8
0
  9
$CELTYPE
  6
CONTINUOUS
  9
$CECOLOR
 62
   256
  9
$DIMSCALE
 40
1.0
  9
$DIMASZ
 40
0.18
  9
$DIMEXO
 40
0.0625
  9
$DIMDLI
 40
0.38
  9
$DIMRND
 40
0.0
  9
$DIMDLE
 40
0.0
  9
$DIMEXE
 40
0.18
  9
$DIMTP
 40
0.0
  9
$DIMTM
 40
0.0
  9
$DIMTXT
 40
0.18
  9
$DIMCEN
 40
0.09
  9
$DIMTSZ
 40
0.0
  9
$DIMTOL
 70
     0
  9
$DIMLIM
 70
     0
  9
$DIMTIH
 70
     1
  9
$DIMTOH
 70
     1
  9
$DIMSE1
 70
     0
  9
$DIMSE2
 70
     0
  9
$DIMTAD
 70
     0
  9
$DIMZIN
 70
     0
  9
$DIMBLK
  1

  9
$DIMASO
 70
     1
  9
$DIMSHO
 70
     1
  9
$DIMPOST
  1

  9
$DIMAPOST
  1

  9
$DIMALT
 70
     0
  9
$DIMALTD
 70
     2
  9
$DIMALTF
 40
25.3999999999999986
  9
$DIMLFAC
 40
1.0
  9
$DIMTOFL
 70
     0
  9
$DIMTVP
 40
0.0
  9
$DIMTIX
 70
     0
  9
$DIMSOXD
 70
     0
  9
$DIMSAH
 70
     0
  9
$DIMBLK1
  1

  9
$DIMBLK2
  1

  9
$DIMSTYLE
  2
STANDARD
  9
$DIMCLRD
 70
     0
  9
$DIMCLRE
 70
     0
  9
$DIMCLRT
 70
     0
  9
$DIMTFAC
 40
1.0
  9
$DIMGAP
 40
0.09
  9
$LUNITS
 70
     2
  9
$LUPREC
 70
     4
  9
$SKETCHINC
 40
0.1
  9
$FILLETRAD
 40
0.0
  9
$AUNITS
 70
     0
  9
$AUPREC
 70
     0
  9
$MENU
  1
acad
  9
$ELEVATION
 40
0.0
  9
$PELEVATION
 40
0.0
  9
$THICKNESS
 40
0.0
  9
$LIMCHECK
 70
     0
  9
$BLIPMODE
 70
     0
  9
$CHAMFERA
 40
0.0
  9
$CHAMFERB
 40
0.0
  9
$SKPOLY
 70
     0
  9
$TDCREATE
 40
2440588.749988425988704
  9
$TDUPDATE
 40
2458753.577835647854954
  9
$TDINDWG
 40
0.0033217593
  9
$TDUSRTIMER
 40
0.0033217593
  9
$USRTIMER
 70
     1
  9
$ANGBASE
 50
0.0
  9
$ANGDIR
 70
     0
  9
$PDMODE
 70
     0
  9
$PDSIZE
 40
1.0
  9
$PLINEWID
 40
0.0
  9
$COORDS
 70
     1
  9
$SPLFRAME
 70
     0
  9
$SPLINETYPE
 70
     6
  9
$SPLINESEGS
 70
     8
  9
$ATTDIA
 70
     1
  9
$ATTREQ
 70
     1
  9
$HANDLING
 70
     1
  9
$HANDSEED
  5
542
  9
$SURFTAB1
 70
     6
  9
$SURFTAB2
 70
     6
  9
$SURFTYPE
 70
     6
  9
$SURFU
 70
     6
  9
$SURFV
 70
     6
  9
$UCSNAME
  2

  9
$UCSORG
 10
0.0
 20
0.0
 30
0.0
  9
$UCSXDIR
 10
1.0
 20
0.0
 30
0.0
  9
$UCSYDIR
 10
0.0
 20
1.0
 30
0.0
  9
$PUCSNAME
  2

  9
$PUCSORG
 10
0.0
 20
0.0
 30
0.0
  9
$PUCSXDIR
 10
1.0
 20
0.0
 30
0.0
  9
$PUCSYDIR
 10
0.0
 20
1.0
 30
0.0
  9
$USERI1
 70
     0
  9
$USERI2
 70
     0
  9
$USERI3
 70
     0
  9
$USERI4
 70
     0
  9
$USERI5
 70
     0
  9
$USERR1
 40
0.0
  9
$USERR2
 40
0.0
  9
$USERR3
 40
0.0
  9
$USERR4
 40
0.0
  9
$USERR5
 40
0.0
  9
$WORLDVIEW
 70
     1
  9
$SHADEDGE
 70
     3
  9
$SHADEDIF
 70
    70
  9
$TILEMODE
 70
     1
  9
$MAXACTVP
 70
    16
  9
$PLIMCHECK
 70
     0
  9
$PEXTMIN
 10
1.0000000000000000E+20
 20
1.0000000000000000E+20
 30
1.0000000000000000E+20
  9
$PEXTMAX
 10
-1.0000000000000000E+20
 20
-1.0000000000000000E+20
 30
-1.0000000000000000E+20
  9
$PLIMMIN
 10
0.0
 20
0.0
  9
$PLIMMAX
 10
12.0
 20
9.0
  9
$UNITMODE
 70
     0
  9
$VISRETAIN
 70
     0
  9
$PLINEGEN
 70
     1
  9
$PSLTSCALE
 70
     0
  0
ENDSEC
  0
SECTION
  2
TABLES
  0
TABLE
  2
VPORT
 70
     1
  0
VPORT
  2
*ACTIVE
 70
     0
 10
0.0
 20
0.0
 11
1.0
 21
1.0
 12
60.610617472807462
 22
-15.4958845056241898
 13
0.0
 23
0.0
 14
1.0
 24
1.0
 15
0.0
 25
0.0
 16
0.0
 26
0.0
 36
1.0
 17
0.0
 27
0.0
 37
0.0
 40
837.2517475344211562
 41
2.2637231503579951
 42
50.0
 43
0.0
 44
0.0
 50
0.0
 51
0.0
 71
     0
 72
   100
 73
     1
 74
     1
 75
     0
 76
     0
 77
     0
 78
     0
  0
ENDTAB
  0
TABLE
  2
LTYPE
 70
    30
  0
LTYPE
  2
CONTINUOUS
 70
     0
  3
Solid line
 72
    65
 73
     0
 40
0.0
  0
LTYPE
  2
HIDDENX2
 70
     0
  3
CADPAC LINETYPE
 72
    65
 73
     2
 40
45.3057216699999898
 49
33.9792912599999966
 49
-11.3264304199999994
  0
LTYPE
  2
HIDDEN
 70
     0
  3
CADPAC LINETYPE
 72
    65
 73
     2
 40
33.9792912599999966
 49
22.6528608399999989
 49
-11.3264304199999994
  0
LTYPE
  2
HIDDEN2
 70
     0
  3
CADPAC LINETYPE
 72
    65
 73
     2
 40
28.3160760499999995
 49
16.9896456299999983
 49
-11.3264304199999994
  0
LTYPE
  2
DASHED
 70
     0
  3
CADPAC LINETYPE
 72
    65
 73
     2
 40
33.9792912599999966
 49
22.6528608399999989
 49
-11.3264304199999994
  0
LTYPE
  2
DASHED2
 70
     0
  3
CADPAC LINETYPE
 72
    65
 73
     2
 40
25.4844684400000006
 49
16.9896456299999983
 49
-8.4948228100000005
  0
LTYPE
  2
DASHEDX2
 70
     0
  3
CADPAC LINETYPE
 72
    65
 73
     2
 40
50.9689368800000011
 49
33.9792912599999966
 49
-16.9896456299999983
  0
LTYPE
  2
DOTX2
 70
     0
  3
CADPAC LINETYPE
 72
    65
 73
     2
 40
14.1580380199999993
 49
0.0
 49
-14.1580380199999993
  0
LTYPE
  2
DOT
 70
     0
  3
CADPAC LINETYPE
 72
    65
 73
     2
 40
11.3264304199999994
 49
0.0
 49
-11.3264304199999994
  0
LTYPE
  2
DOT2
 70
     0
  3
CADPAC LINETYPE
 72
    65
 73
     2
 40
8.4948228100000005
 49
0.0
 49
-8.4948228100000005
  0
LTYPE
  2
CENTERX2
 70
     0
  3
CADPAC LINETYPE
 72
    65
 73
     4
 40
67.9585825099999994
 49
28.3160760499999995
 49
-14.1580380199999993
 49
11.3264304199999994
 49
-14.1580380199999993
  0
LTYPE
  2
CENTER
 70
     0
  3
CADPAC LINETYPE
 72
    65
 73
     4
 40
52.1015799299999998
 49
22.6528608399999989
 49
-11.3264304199999994
 49
6.7958582500000002
 49
-11.3264304199999994
  0
LTYPE
  2
CENTER2
 70
     0
  3
CADPAC LINETYPE
 72
    65
 73
     4
 40
36.2445773399999993
 49
16.9896456299999983
 49
-8.4948228100000005
 49
2.2652860800000001
 49
-8.4948228100000005
  0
LTYPE
  2
DASHDOTX2
 70
     0
  3
CADPAC LINETYPE
 72
    65
 73
     4
 40
56.6321520899999982
 49
28.3160760499999995
 49
-14.1580380199999993
 49
0.0
 49
-14.1580380199999993
  0
LTYPE
  2
DASHDOT
 70
     0
  3
CADPAC LINETYPE
 72
    65
 73
     4
 40
45.3057216699999898
 49
22.6528608399999989
 49
-11.3264304199999994
 49
0.0
 49
-11.3264304199999994
  0
LTYPE
  2
DASHDOT2
 70
     0
  3
CADPAC LINETYPE
 72
    65
 73
     4
 40
33.9792912599999966
 49
16.9896456299999983
 49
-8.4948228100000005
 49
0.0
 49
-8.4948228100000005
  0
LTYPE
  2
DIVIDEX2
 70
     0
  3
CADPAC LINETYPE
 72
    65
 73
     6
 40
70.7901901200000054
 49
28.3160760499999995
 49
-14.1580380199999993
 49
0.0
 49
-14.1580380199999993
 49
0.0
 49
-14.1580380199999993
  0
LTYPE
  2
DIVIDE
 70
     0
  3
CADPAC LINETYPE
 72
    65
 73
     6
 40
56.6321520899999982
 49
22.6528608399999989
 49
-11.3264304199999994
 49
0.0
 49
-11.3264304199999994
 49
0.0
 49
-11.3264304199999994
  0
LTYPE
  2
DIVIDE2
 70
     0
  3
CADPAC LINETYPE
 72
    65
 73
     6
 40
42.4741140699999988
 49
16.9896456299999983
 49
-8.4948228100000005
 49
0.0
 49
-8.4948228100000005
 49
0.0
 49
-8.4948228100000005
  0
LTYPE
  2
BORDERX2
 70
     0
  3
CADPAC LINETYPE
 72
    65
 73
     6
 40
99.1062661600000041
 49
28.3160760499999995
 49
-14.1580380199999993
 49
28.3160760499999995
 49
-14.1580380199999993
 49
0.0
 49
-14.1580380199999993
  0
LTYPE
  2
BORDER
 70
     0
  3
CADPAC LINETYPE
 72
    65
 73
     6
 40
79.2850129299999935
 49
22.6528608399999989
 49
-11.3264304199999994
 49
22.6528608399999989
 49
-11.3264304199999994
 49
0.0
 49
-11.3264304199999994
  0
LTYPE
  2
BORDER2
 70
     0
  3
CADPAC LINETYPE
 72
    65
 73
     6
 40
59.4637596999999971
 49
16.9896456299999983
 49
-8.4948228100000005
 49
16.9896456299999983
 49
-8.4948228100000005
 49
0.0
 49
-8.4948228100000005
  0
LTYPE
  2
PHANTOMX2
 70
     0
  3
CADPAC LINETYPE
 72
    65
 73
     6
 40
84.9482281399999977
 49
28.3160760499999995
 49
-11.3264304199999994
 49
11.3264304199999994
 49
-11.3264304199999994
 49
11.3264304199999994
 49
-11.3264304199999994
  0
LTYPE
  2
PHANTOM
 70
     0
  3
CADPAC LINETYPE
 72
    65
 73
     6
 40
70.223868589999995
 49
22.6528608399999989
 49
-11.3264304199999994
 49
6.7958582500000002
 49
-11.3264304199999994
 49
6.7958582500000002
 49
-11.3264304199999994
  0
LTYPE
  2
PHANTOM2
 70
     0
  3
CADPAC LINETYPE
 72
    65
 73
     6
 40
60.0300812199999996
 49
16.9896456299999983
 49
-11.3264304199999994
 49
4.5305721700000001
 49
-11.3264304199999994
 49
4.5305721700000001
 49
-11.3264304199999994
  0
LTYPE
  2
ACAD_ISO06W100
 70
     0
  3
CADPAC LINETYPE
 72
    65
 73
     8
 40
76.4534053200000017
 49
28.3160760499999995
 49
-14.1580380199999993
 49
0.0
 49
-11.3264304199999994
 49
0.0
 49
-11.3264304199999994
 49
0.0
 49
-11.3264304199999994
  0
LTYPE
  2
ACAD_ISO13W100
 70
     0
  3
CADPAC LINETYPE
 72
    65
 73
     8
 40
90.6114433499999876
 49
22.6528608399999989
 49
-11.3264304199999994
 49
22.6528608399999989
 49
-11.3264304199999994
 49
0.0
 49
-11.3264304199999994
 49
0.0
 49
-11.3264304199999994
  0
LTYPE
  2
ACAD_ISO14W100
 70
     0
  3
CADPAC LINETYPE
 72
    65
 73
     8
 40
67.9585825099999994
 49
22.6528608399999989
 49
-11.3264304199999994
 49
0.0
 49
-11.3264304199999994
 49
0.0
 49
-11.3264304199999994
 49
0.0
 49
-11.3264304199999994
  0
ENDTAB
  0
TABLE
  2
LAYER
 70
     8
  0
LAYER
  2
0
 70
     0
 62
     7
  6
CONTINUOUS
  0
LAYER
  2
SLD-0_5
 70
     0
 62
     7
  6
CONTINUOUS
  0
LAYER
  2
SLD-0_4
 70
     0
 62
     7
  6
CONTINUOUS
  0
LAYER
  2
SLD-0_3
 70
     0
 62
     7
  6
CONTINUOUS
  0
LAYER
  2
SLD-0_1
 70
     0
 62
     7
  6
CONTINUOUS
  0
LAYER
  2
SLD-0_0
 70
     0
 62
     7
  6
CONTINUOUS
  0
LAYER
  2
SLD-0_2
 70
     0
 62
     7
  6
CONTINUOUS
  0
LAYER
  2
SLD-0
 70
     0
 62
     7
  6
CONTINUOUS
  0
ENDTAB
  0
TABLE
  2
STYLE
 70
     2
  0
STYLE
  2
STANDARD
 70
     0
 40
0.0
 41
1.0
 50
0.0
 71
     0
 42
9.5250000000000004
  3
txt.shx
  4
bigfont.shx
  0
STYLE
  2

 70
     1
 40
0.0
 41
1.0
 50
0.0
 71
     0
 42
0.2
  3
ltypeshp.shx
  4

  0
ENDTAB
  0
TABLE
  2
VIEW
 70
     1
  0
VIEW
  2
QQQQ
 70
     0
 40
851.208871390000013
 10
0.0
 20
-4.7625000000000002
 41
616.0618050499999754
 11
0.0
 21
0.0
 31
1.0
 12
100.0
 22
100.0
 32
0.0
 42
50.0
 43
0.0
 44
0.0
 50
0.0
 71
     0
  0
ENDTAB
  0
TABLE
  2
UCS
 70
     0
  0
ENDTAB
  0
TABLE
  2
APPID
 70
     4
  0
APPID
  2
ACAD
 70
     0
  0
APPID
  2
ACAD_NAV_VCDISPLAY
 70
     0
  0
APPID
  2
ACAD_EXEMPT_FROM_CAD_STANDARDS
 70
     0
  0
APPID
  2
ACAD_MLEADERVER
 70
     0
  0
ENDTAB
  0
TABLE
  2
DIMSTYLE
 70
     2
  0
DIMSTYLE
  2
STANDARD
 70
     0
  3

  4

  5

  6

  7

 40
1.0
 41
0.18
 42
0.0625
 43
0.38
 44
0.18
 45
0.0
 46
0.0
 47
0.0
 48
0.0
140
0.18
141
0.09
142
0.0
143
25.3999999999999986
144
1.0
145
0.0
146
1.0
147
0.09
 71
     0
 72
     0
 73
     1
 74
     1
 75
     0
 76
     0
 77
     0
 78
     0
170
     0
171
     2
172
     0
173
     0
174
     0
175
     0
176
     0
177
     0
178
     0
  0
ENDTAB
  0
ENDSEC
  0
SECTION
  2
BLOCKS
  0
BLOCK
  8
0
  2
$MODEL_SPACE
 70
     0
 10
0.0
 20
0.0
 30
0.0
  3
$MODEL_SPACE
  1

  0
ENDBLK
  5
E
  8
0
  0
BLOCK
 67
     1
  8
0
  2
$PAPER_SPACE
 70
     0
 10
0.0
 20
0.0
 30
0.0
  3
$PAPER_SPACE
  1

  0
ENDBLK
  5
10
 67
     1
  8
0
  0
ENDSEC
  0
SECTION
  2
ENTITIES
  0
LINE
  5
40
  8
SLD-0_4
  6
PHANTOM
 62
     7
 10
-176.9752858200000105
 20
-70.6715779499999854
 30
0.0
 11
-177.7046313699999871
 21
-70.6715779499999854
 31
0.0
  0
LINE
  5
41
  8
SLD-0_4
  6
PHANTOM
 62
     7
 10
-137.7849264699999878
 20
-61.2054000500000015
 30
0.0
 11
-137.7849264699999878
 21
-61.9270884399999986
 31
0.0
  0
LINE
  5
42
  8
SLD-0_4
  6
PHANTOM
 62
     7
 10
-137.7849264699999878
 20
-70.6715779499999854
 30
0.0
 11
-137.7849264699999878
 21
-71.7052960700000028
 31
0.0
  0
LINE
  5
43
  8
SLD-0_4
  6
PHANTOM
 62
     7
 10
-168.9917276900000047
 20
-70.6715779499999854
 30
0.0
 11
-169.7210732499999892
 21
-70.6715779499999854
 31
0.0
  0
LINE
  5
44
  8
SLD-0_4
  6
PHANTOM
 62
     7
 10
-142.8846024899999918
 20
-70.6715779499999854
 30
0.0
 11
-143.6062908700000094
 21
-70.6715779499999854
 31
0.0
  0
LINE
  5
45
  8
SLD-0_4
  6
PHANTOM
 62
     7
 10
-151.5908061400000122
 20
-70.6715779499999854
 30
0.0
 11
-151.5908061400000122
 21
-61.9270884399999986
 31
0.0
  0
LINE
  5
46
  8
SLD-0_4
  6
PHANTOM
 62
     7
 10
-158.8526758799999925
 20
-71.7052960700000028
 30
0.0
 11
-158.8526758799999925
 21
-70.6715779499999854
 31
0.0
  0
LINE
  5
47
  8
SLD-0_4
  6
PHANTOM
 62
     7
 10
-166.8352768500000138
 20
-70.6715779499999854
 30
0.0
 11
-167.5569652400000109
 21
-70.6715779499999854
 31
0.0
  0
LINE
  5
48
  8
SLD-0_4
  6
PHANTOM
 62
     7
 10
-177.5706860600000141
 20
-298.325232949999986
 30
0.0
 11
-177.5706860600000141
 21
-310.3278488099999777
 31
0.0
  0
LINE
  5
49
  8
SLD-0_4
  6
PHANTOM
 62
     7
 10
-131.2390022399999907
 20
-310.3278488099999777
 30
0.0
 11
-181.2390022399999907
 21
-310.3278488099999777
 31
0.0
  0
LINE
  5
4A
  8
SLD-0_4
  6
PHANTOM
 62
     7
 10
-134.7871991199999968
 20
-310.3278488099999777
 30
0.0
 11
-134.7871991199999968
 21
-298.325232949999986
 31
0.0
  0
LINE
  5
4B
  8
SLD-0_4
  6
PHANTOM
 62
     7
 10
-134.7871991199999968
 20
-298.325232949999986
 30
0.0
 11
-177.5706860600000141
 21
-298.325232949999986
 31
0.0
  0
LINE
  5
4C
  8
SLD-0_4
  6
PHANTOM
 62
     7
 10
-177.7046313699999871
 20
-61.9270884399999986
 30
0.0
 11
-176.9752858200000105
 21
-61.9270884399999986
 31
0.0
  0
LINE
  5
4D
  8
SLD-0_4
  6
PHANTOM
 62
     7
 10
-137.0555809100000033
 20
-61.9270884399999986
 30
0.0
 11
-137.0555809100000033
 21
-70.6715779499999854
 31
0.0
  0
LINE
  5
4E
  8
SLD-0_4
  6
PHANTOM
 62
     7
 10
-153.7529998599999885
 20
-61.9270884399999986
 30
0.0
 11
-153.023654300000004
 21
-61.9270884399999986
 31
0.0
  0
LINE
  5
4F
  8
SLD-0_4
  6
PHANTOM
 62
     7
 10
198.5683635700000025
 20
-145.2052672599999994
 30
0.0
 11
198.5683635700000025
 21
-67.2052672599999994
 31
0.0
  0
LINE
  5
50
  8
SLD-0_4
  6
PHANTOM
 62
     7
 10
-169.7210732499999892
 20
-70.6715779499999854
 30
0.0
 11
-169.7210732499999892
 21
-71.7052960700000028
 31
0.0
  0
LINE
  5
51
  8
SLD-0_4
  6
PHANTOM
 62
     7
 10
227.9772552400000052
 20
-146.2308446199999992
 30
0.0
 11
227.9772552400000052
 21
-153.0667842100000087
 31
0.0
  0
LINE
  5
52
  8
SLD-0_4
  6
PHANTOM
 62
     7
 10
199.5683635700000025
 20
-66.2052672599999994
 30
0.0
 11
247.5683635700000025
 21
-66.2052672599999994
 31
0.0
  0
LINE
  5
53
  8
SLD-0_4
  6
PHANTOM
 62
     7
 10
227.4718819400000029
 20
-124.4086482900000021
 30
0.0
 11
227.4718819400000029
 21
-128.019004510000002
 31
0.0
  0
LINE
  5
54
  8
SLD-0_4
  6
PHANTOM
 62
     7
 10
215.9497535799999923
 20
-81.3102601899999939
 30
0.0
 11
213.7808598400000051
 21
-81.2949458500000048
 31
0.0
  0
LINE
  5
55
  8
SLD-0_4
  6
PHANTOM
 62
     7
 10
232.487329079999995
 20
-118.1412536699999976
 30
0.0
 11
232.487329079999995
 21
-114.4361399499999976
 31
0.0
  0
LINE
  5
56
  8
SLD-0_4
  6
PHANTOM
 62
     7
 10
-177.7046313699999871
 20
-71.7052960700000028
 30
0.0
 11
-134.8991300700000124
 21
-71.7052960700000028
 31
0.0
  0
LINE
  5
57
  8
SLD-0_4
  6
PHANTOM
 62
     7
 10
215.916762690000013
 20
-146.2052672599999994
 30
0.0
 11
219.1561940199999867
 21
-153.0667842100000087
 31
0.0
  0
LINE
  5
58
  8
SLD-0_4
  6
PHANTOM
 62
     7
 10
211.5698516500000039
 20
-83.2532673799999969
 30
0.0
 11
211.56410876999999
 21
-84.9818737800000008
 31
0.0
  0
LINE
  5
59
  8
SLD-0_4
  6
PHANTOM
 62
     7
 10
-168.9917276900000047
 20
-61.9270884399999986
 30
0.0
 11
-168.9917276900000047
 21
-70.6715779499999854
 31
0.0
  0
LINE
  5
5A
  8
SLD-0_4
  6
PHANTOM
 62
     7
 10
232.487329079999995
 20
-119.3759725200000048
 30
0.0
 11
225.077101650000003
 21
-119.3759725200000048
 31
0.0
  0
LINE
  5
5B
  8
SLD-0_4
  6
PHANTOM
 62
     7
 10
227.9772552400000052
 20
-153.0667842100000087
 30
0.0
 11
231.5764514100000042
 21
-146.2052672599999994
 31
0.0
  0
LINE
  5
5C
  8
SLD-0_4
  6
PHANTOM
 62
     7
 10
225.077101650000003
 20
-129.2575519600000007
 30
0.0
 11
225.077101650000003
 21
-132.9626656700000069
 31
0.0
  0
LINE
  5
5D
  8
SLD-0_4
  6
PHANTOM
 62
     7
 10
211.56410876999999
 20
-74.2005767400000025
 30
0.0
 11
211.5698516500000039
 21
-75.939711740000007
 31
0.0
  0
LINE
  5
5E
  8
SLD-0_4
  6
PHANTOM
 62
     7
 10
-177.7046313699999871
 20
-61.2054000500000015
 30
0.0
 11
-177.7046313699999871
 21
-61.9270884399999986
 31
0.0
  0
LINE
  5
5F
  8
SLD-0_4
  6
PHANTOM
 62
     7
 10
-177.7046313699999871
 20
-70.6715779499999854
 30
0.0
 11
-177.7046313699999871
 21
-71.7052960700000028
 31
0.0
  0
LINE
  5
60
  8
SLD-0_4
  6
PHANTOM
 62
     7
 10
-137.7849264699999878
 20
-61.9270884399999986
 30
0.0
 11
-137.0555809100000033
 21
-61.9270884399999986
 31
0.0
  0
LINE
  5
61
  8
SLD-0_4
  6
PHANTOM
 62
     7
 10
-166.8352768500000138
 20
-71.7052960700000028
 30
0.0
 11
-166.8352768500000138
 21
-70.6715779499999854
 31
0.0
  0
LINE
  5
62
  8
SLD-0_4
  6
PHANTOM
 62
     7
 10
245.5683635700000025
 20
-143.2052672599999994
 30
0.0
 11
245.5683635700000025
 21
-69.2052672599999994
 31
0.0
  0
LINE
  5
63
  8
SLD-0_4
  6
PHANTOM
 62
     7
 10
232.487329079999995
 20
-114.4361399499999976
 30
0.0
 11
225.077101650000003
 21
-114.4361399499999976
 31
0.0
  0
LINE
  5
64
  8
SLD-0_4
  6
PHANTOM
 62
     7
 10
227.4718819400000029
 20
-119.3740582300000028
 30
0.0
 11
227.4718819400000029
 21
-123.0791719399999948
 31
0.0
  0
LINE
  5
65
  8
SLD-0_4
  6
PHANTOM
 62
     7
 10
-134.8991300700000124
 20
-70.6715779499999854
 30
0.0
 11
-135.6208184600000095
 21
-70.6715779499999854
 31
0.0
  0
LINE
  5
66
  8
SLD-0_4
  6
PHANTOM
 62
     7
 10
227.4718819400000029
 20
-114.4619828999999953
 30
0.0
 11
227.4718819400000029
 21
-118.1412536699999976
 31
0.0
  0
LINE
  5
67
  8
SLD-0_4
  6
PHANTOM
 62
     7
 10
216.7671566100000007
 20
-85.756205219999984
 30
0.0
 11
204.0045665099999894
 21
-85.756205219999984
 31
0.0
  0
LINE
  5
68
  8
SLD-0_4
  6
PHANTOM
 62
     7
 10
-161.0072124200000019
 20
-61.9270884399999986
 30
0.0
 11
-161.0072124200000019
 21
-70.6715779499999854
 31
0.0
  0
LINE
  5
69
  8
SLD-0_4
  6
PHANTOM
 62
     7
 10
-169.7210732499999892
 20
-61.2054000500000015
 30
0.0
 11
-169.7210732499999892
 21
-61.9270884399999986
 31
0.0
  0
LINE
  5
6A
  8
SLD-0_4
  6
PHANTOM
 62
     7
 10
-150.8691177499999867
 20
-61.9270884399999986
 30
0.0
 11
-150.8691177499999867
 21
-61.2054000500000015
 31
0.0
  0
LINE
  5
6B
  8
SLD-0_4
  6
PHANTOM
 62
     7
 10
-167.5569652400000109
 20
-70.6715779499999854
 30
0.0
 11
-167.5569652400000109
 21
-61.9270884399999986
 31
0.0
  0
LINE
  5
6C
  8
SLD-0_4
  6
PHANTOM
 62
     7
 10
225.077101650000003
 20
-114.4361399499999976
 30
0.0
 11
225.077101650000003
 21
-118.1412536699999976
 31
0.0
  0
LINE
  5
6D
  8
SLD-0_4
  6
PHANTOM
 62
     7
 10
215.916762690000013
 20
-66.2052672599999994
 30
0.0
 11
219.1561940199999867
 21
-59.3437503099999972
 31
0.0
  0
LINE
  5
6E
  8
SLD-0_4
  6
PHANTOM
 62
     7
 10
227.9772552400000052
 20
-66.1796898999999996
 30
0.0
 11
227.9772552400000052
 21
-59.3437503099999972
 31
0.0
  0
LINE
  5
6F
  8
SLD-0_4
  6
PHANTOM
 62
     7
 10
-137.0555809100000033
 20
-70.6715779499999854
 30
0.0
 11
-137.7849264699999878
 21
-70.6715779499999854
 31
0.0
  0
LINE
  5
70
  8
SLD-0_4
  6
PHANTOM
 62
     7
 10
-145.0391390300000012
 20
-61.9270884399999986
 30
0.0
 11
-145.0391390300000012
 21
-70.6715779499999854
 31
0.0
  0
LINE
  5
71
  8
SLD-0_4
  6
PHANTOM
 62
     7
 10
-151.5908061400000122
 20
-61.9270884399999986
 30
0.0
 11
-150.8691177499999867
 21
-61.9270884399999986
 31
0.0
  0
LINE
  5
72
  8
SLD-0_4
  6
PHANTOM
 62
     7
 10
232.487329079999995
 20
-128.0209188100000119
 30
0.0
 11
232.487329079999995
 21
-124.3177193799999998
 31
0.0
  0
LINE
  5
73
  8
SLD-0_4
  6
PHANTOM
 62
     7
 10
222.4583490999999924
 20
-133.6135252200000139
 30
0.0
 11
238.272321919999996
 21
-133.6135252200000139
 31
0.0
  0
LINE
  5
74
  8
SLD-0_4
  6
PHANTOM
 62
     7
 10
225.077101650000003
 20
-124.3177193799999998
 30
0.0
 11
225.077101650000003
 21
-128.0209188100000119
 31
0.0
  0
LINE
  5
75
  8
SLD-0_4
  6
PHANTOM
 62
     7
 10
213.7808598400000051
 20
-77.8444330800000017
 30
0.0
 11
215.9497535799999923
 21
-77.8444330800000017
 31
0.0
  0
LINE
  5
76
  8
SLD-0_4
  6
PHANTOM
 62
     7
 10
-176.9752858200000105
 20
-61.9270884399999986
 30
0.0
 11
-176.9752858200000105
 21
-70.6715779499999854
 31
0.0
  0
LINE
  5
77
  8
SLD-0_4
  6
PHANTOM
 62
     7
 10
-142.8846024899999918
 20
-71.7052960700000028
 30
0.0
 11
-142.8846024899999918
 21
-70.6715779499999854
 31
0.0
  0
LINE
  5
78
  8
SLD-0_4
  6
PHANTOM
 62
     7
 10
-175.5405233600000088
 20
-61.9270884399999986
 30
0.0
 11
-174.8188349799999912
 21
-61.9270884399999986
 31
0.0
  0
LINE
  5
79
  8
SLD-0_4
  6
PHANTOM
 62
     7
 10
201.5683635700000025
 20
-69.2052672599999994
 30
0.0
 11
245.5683635700000025
 21
-69.2052672599999994
 31
0.0
  0
LINE
  5
7A
  8
SLD-0_4
  6
PHANTOM
 62
     7
 10
213.7712883700000077
 20
-83.2532673799999969
 30
0.0
 11
211.5698516500000039
 21
-83.2532673799999969
 31
0.0
  0
LINE
  5
7B
  8
SLD-0_4
  6
PHANTOM
 62
     7
 10
-134.8991300700000124
 20
-71.7052960700000028
 30
0.0
 11
-134.8991300700000124
 21
-70.6715779499999854
 31
0.0
  0
LINE
  5
7C
  8
SLD-0_4
  6
PHANTOM
 62
     7
 10
-174.8188349799999912
 20
-61.9270884399999986
 30
0.0
 11
-174.8188349799999912
 21
-61.2054000500000015
 31
0.0
  0
LINE
  5
7D
  8
SLD-0_4
  6
PHANTOM
 62
     7
 10
201.5683635700000025
 20
-143.2052672599999994
 30
0.0
 11
245.5683635700000025
 21
-143.2052672599999994
 31
0.0
  0
LINE
  5
7E
  8
SLD-0_4
  6
PHANTOM
 62
     7
 10
219.1561940199999867
 20
-153.0667842100000087
 30
0.0
 11
227.9772552400000052
 21
-153.0667842100000087
 31
0.0
  0
LINE
  5
7F
  8
SLD-0_4
  6
PHANTOM
 62
     7
 10
225.077101650000003
 20
-113.2014210899999966
 30
0.0
 11
232.487329079999995
 21
-113.2014210899999966
 31
0.0
  0
LINE
  5
80
  8
SLD-0_4
  6
PHANTOM
 62
     7
 10
204.0447666599999934
 20
-84.9818737800000008
 30
0.0
 11
204.0447666599999934
 21
-74.2005767400000025
 31
0.0
  0
LINE
  5
81
  8
SLD-0_4
  6
PHANTOM
 62
     7
 10
238.272321919999996
 20
-108.878947949999997
 30
0.0
 11
222.4583490999999924
 21
-108.878947949999997
 31
0.0
  0
LINE
  5
82
  8
SLD-0_4
  6
PHANTOM
 62
     7
 10
-145.7684845900000141
 20
-61.2054000500000015
 30
0.0
 11
-145.7684845900000141
 21
-61.9270884399999986
 31
0.0
  0
LINE
  5
83
  8
SLD-0_4
  6
PHANTOM
 62
     7
 10
-153.7529998599999885
 20
-61.2054000500000015
 30
0.0
 11
-153.7529998599999885
 21
-61.9270884399999986
 31
0.0
  0
LINE
  5
84
  8
SLD-0_4
  6
PHANTOM
 62
     7
 10
-169.7210732499999892
 20
-61.9270884399999986
 30
0.0
 11
-168.9917276900000047
 21
-61.9270884399999986
 31
0.0
  0
LINE
  5
85
  8
SLD-0_4
  6
PHANTOM
 62
     7
 10
-167.5569652400000109
 20
-61.9270884399999986
 30
0.0
 11
-166.8352768500000138
 21
-61.9270884399999986
 31
0.0
  0
LINE
  5
86
  8
SLD-0_4
  6
PHANTOM
 62
     7
 10
225.077101650000003
 20
-123.0810862400000048
 30
0.0
 11
232.487329079999995
 21
-123.0810862400000048
 31
0.0
  0
LINE
  5
87
  8
SLD-0_4
  6
PHANTOM
 62
     7
 10
248.5683635700000025
 20
-145.2052672599999994
 30
0.0
 11
248.5683635700000025
 21
-67.2052672599999994
 31
0.0
  0
LINE
  5
88
  8
SLD-0_4
  6
PHANTOM
 62
     7
 10
204.0447666599999934
 20
-74.2005767400000025
 30
0.0
 11
211.56410876999999
 21
-74.2005767400000025
 31
0.0
  0
LINE
  5
89
  8
SLD-0_4
  6
PHANTOM
 62
     7
 10
225.077101650000003
 20
-118.1412536699999976
 30
0.0
 11
232.487329079999995
 21
-118.1412536699999976
 31
0.0
  0
LINE
  5
8A
  8
SLD-0_4
  6
PHANTOM
 62
     7
 10
227.4718819400000029
 20
-129.2575519600000007
 30
0.0
 11
227.4718819400000029
 21
-132.9607513800000049
 31
0.0
  0
LINE
  5
8B
  8
SLD-0_4
  6
PHANTOM
 62
     7
 10
225.077101650000003
 20
-119.3759725200000048
 30
0.0
 11
225.077101650000003
 21
-123.0810862400000048
 31
0.0
  0
LINE
  5
8C
  8
SLD-0_4
  6
PHANTOM
 62
     7
 10
219.1561940199999867
 20
-59.3437503099999972
 30
0.0
 11
227.9772552400000052
 21
-59.3437503099999972
 31
0.0
  0
LINE
  5
8D
  8
SLD-0_4
  6
PHANTOM
 62
     7
 10
232.487329079999995
 20
-123.0810862400000048
 30
0.0
 11
232.487329079999995
 21
-119.3759725200000048
 31
0.0
  0
LINE
  5
8E
  8
SLD-0_4
  6
PHANTOM
 62
     7
 10
215.9497535799999923
 20
-77.8444330800000017
 30
0.0
 11
215.9497535799999923
 21
-81.3102601899999939
 31
0.0
  0
LINE
  5
8F
  8
SLD-0_4
  6
PHANTOM
 62
     7
 10
-145.0391390300000012
 20
-70.6715779499999854
 30
0.0
 11
-145.7684845900000141
 21
-70.6715779499999854
 31
0.0
  0
LINE
  5
90
  8
SLD-0_4
  6
PHANTOM
 62
     7
 10
-153.023654300000004
 20
-61.9270884399999986
 30
0.0
 11
-153.023654300000004
 21
-70.6715779499999854
 31
0.0
  0
LINE
  5
91
  8
SLD-0_4
  6
PHANTOM
 62
     7
 10
-143.6062908700000094
 20
-61.9270884399999986
 30
0.0
 11
-142.8846024899999918
 21
-61.9270884399999986
 31
0.0
  0
LINE
  5
92
  8
SLD-0_4
  6
PHANTOM
 62
     7
 10
-166.8352768500000138
 20
-61.9270884399999986
 30
0.0
 11
-166.8352768500000138
 21
-61.2054000500000015
 31
0.0
  0
LINE
  5
93
  8
SLD-0_4
  6
PHANTOM
 62
     7
 10
-175.5405233600000088
 20
-70.6715779499999854
 30
0.0
 11
-175.5405233600000088
 21
-61.9270884399999986
 31
0.0
  0
LINE
  5
94
  8
SLD-0_4
  6
PHANTOM
 62
     7
 10
232.487329079999995
 20
-113.2014210899999966
 30
0.0
 11
232.487329079999995
 21
-109.4963073899999983
 31
0.0
  0
LINE
  5
95
  8
SLD-0_4
  6
PHANTOM
 62
     7
 10
232.487329079999995
 20
-129.2575519600000007
 30
0.0
 11
225.077101650000003
 21
-129.2575519600000007
 31
0.0
  0
LINE
  5
96
  8
SLD-0_4
  6
PHANTOM
 62
     7
 10
227.9772552400000052
 20
-59.3437503099999972
 30
0.0
 11
231.5764514100000042
 21
-66.2052672599999994
 31
0.0
  0
LINE
  5
97
  8
SLD-0_4
  6
PHANTOM
 62
     7
 10
227.4718819400000029
 20
-109.5518218699999977
 30
0.0
 11
227.4718819400000029
 21
-113.1995067999999947
 31
0.0
  0
LINE
  5
98
  8
SLD-0_4
  6
PHANTOM
 62
     7
 10
201.5683635700000025
 20
-143.2052672599999994
 30
0.0
 11
201.5683635700000025
 21
-69.2052672599999994
 31
0.0
  0
LINE
  5
99
  8
SLD-0_4
  6
PHANTOM
 62
     7
 10
219.1561940199999867
 20
-59.3437503099999972
 30
0.0
 11
219.1561940199999867
 21
-66.2052672599999994
 31
0.0
  0
LINE
  5
9A
  8
SLD-0_4
  6
PHANTOM
 62
     7
 10
211.56410876999999
 20
-84.9818737800000008
 30
0.0
 11
204.0447666599999934
 21
-84.9818737800000008
 31
0.0
  0
LINE
  5
9B
  8
SLD-0_4
  6
PHANTOM
 62
     7
 10
222.4583490999999924
 20
-108.878947949999997
 30
0.0
 11
222.4583490999999924
 21
-133.6135252200000139
 31
0.0
  0
LINE
  5
9C
  8
SLD-0_4
  6
PHANTOM
 62
     7
 10
-134.8991300700000124
 20
-61.9270884399999986
 30
0.0
 11
-134.8991300700000124
 21
-61.2054000500000015
 31
0.0
  0
LINE
  5
9D
  8
SLD-0_4
  6
PHANTOM
 62
     7
 10
-145.7684845900000141
 20
-70.6715779499999854
 30
0.0
 11
-145.7684845900000141
 21
-71.7052960700000028
 31
0.0
  0
LINE
  5
9E
  8
SLD-0_4
  6
PHANTOM
 62
     7
 10
-161.7365579799999864
 20
-61.2054000500000015
 30
0.0
 11
-161.7365579799999864
 21
-61.9270884399999986
 31
0.0
  0
LINE
  5
9F
  8
SLD-0_4
  6
PHANTOM
 62
     7
 10
-143.6062908700000094
 20
-70.6715779499999854
 30
0.0
 11
-143.6062908700000094
 21
-61.9270884399999986
 31
0.0
  0
LINE
  5
A0
  8
SLD-0_4
  6
PHANTOM
 62
     7
 10
-150.8691177499999867
 20
-71.7052960700000028
 30
0.0
 11
-150.8691177499999867
 21
-70.6715779499999854
 31
0.0
  0
LINE
  5
A1
  8
SLD-0_4
  6
PHANTOM
 62
     7
 10
-159.5743642600000101
 20
-61.9270884399999986
 30
0.0
 11
-158.8526758799999925
 21
-61.9270884399999986
 31
0.0
  0
LINE
  5
A2
  8
SLD-0_4
  6
PHANTOM
 62
     7
 10
-174.8188349799999912
 20
-70.6715779499999854
 30
0.0
 11
-175.5405233600000088
 21
-70.6715779499999854
 31
0.0
  0
LINE
  5
A3
  8
SLD-0_4
  6
PHANTOM
 62
     7
 10
-135.6208184600000095
 20
-70.6715779499999854
 30
0.0
 11
-135.6208184600000095
 21
-61.9270884399999986
 31
0.0
  0
LINE
  5
A4
  8
SLD-0_4
  6
PHANTOM
 62
     7
 10
-161.0072124200000019
 20
-70.6715779499999854
 30
0.0
 11
-161.7365579799999864
 21
-70.6715779499999854
 31
0.0
  0
LINE
  5
A5
  8
SLD-0_4
  6
PHANTOM
 62
     7
 10
-150.8691177499999867
 20
-70.6715779499999854
 30
0.0
 11
-151.5908061400000122
 21
-70.6715779499999854
 31
0.0
  0
LINE
  5
A6
  8
SLD-0_4
  6
PHANTOM
 62
     7
 10
204.0045665099999894
 20
-73.4358167700000024
 30
0.0
 11
216.7671566100000007
 21
-73.4358167700000024
 31
0.0
  0
LINE
  5
A7
  8
SLD-0_4
  6
PHANTOM
 62
     7
 10
238.272321919999996
 20
-133.6135252200000139
 30
0.0
 11
238.272321919999996
 21
-108.878947949999997
 31
0.0
  0
LINE
  5
A8
  8
SLD-0_4
  6
PHANTOM
 62
     7
 10
225.077101650000003
 20
-109.4963073899999983
 30
0.0
 11
225.077101650000003
 21
-113.2014210899999966
 31
0.0
  0
LINE
  5
A9
  8
SLD-0_4
  6
PHANTOM
 62
     7
 10
225.077101650000003
 20
-132.9626656700000069
 30
0.0
 11
232.487329079999995
 21
-132.9626656700000069
 31
0.0
  0
LINE
  5
AA
  8
SLD-0_4
  6
PHANTOM
 62
     7
 10
211.5698516500000039
 20
-75.939711740000007
 30
0.0
 11
213.7712883700000077
 21
-75.939711740000007
 31
0.0
  0
LINE
  5
AB
  8
SLD-0_4
  6
PHANTOM
 62
     7
 10
-153.023654300000004
 20
-70.6715779499999854
 30
0.0
 11
-153.7529998599999885
 21
-70.6715779499999854
 31
0.0
  0
LINE
  5
AC
  8
SLD-0_4
  6
PHANTOM
 62
     7
 10
-161.7365579799999864
 20
-61.9270884399999986
 30
0.0
 11
-161.0072124200000019
 21
-61.9270884399999986
 31
0.0
  0
LINE
  5
AD
  8
SLD-0_4
  6
PHANTOM
 62
     7
 10
-142.8846024899999918
 20
-61.9270884399999986
 30
0.0
 11
-142.8846024899999918
 21
-61.2054000500000015
 31
0.0
  0
LINE
  5
AE
  8
SLD-0_4
  6
PHANTOM
 62
     7
 10
204.0045665099999894
 20
-85.756205219999984
 30
0.0
 11
204.0045665099999894
 21
-73.4358167700000024
 31
0.0
  0
LINE
  5
AF
  8
SLD-0_4
  6
PHANTOM
 62
     7
 10
232.487329079999995
 20
-124.3177193799999998
 30
0.0
 11
225.077101650000003
 21
-124.3177193799999998
 31
0.0
  0
LINE
  5
B0
  8
SLD-0_4
  6
PHANTOM
 62
     7
 10
213.7712883700000077
 20
-75.939711740000007
 30
0.0
 11
213.7808598400000051
 21
-77.8444330800000017
 31
0.0
  0
LINE
  5
B1
  8
SLD-0_4
  6
PHANTOM
 62
     7
 10
-134.8991300700000124
 20
-61.2054000500000015
 30
0.0
 11
-177.7046313699999871
 21
-61.2054000500000015
 31
0.0
  0
LINE
  5
B2
  8
SLD-0_4
  6
PHANTOM
 62
     7
 10
-161.7365579799999864
 20
-70.6715779499999854
 30
0.0
 11
-161.7365579799999864
 21
-71.7052960700000028
 31
0.0
  0
LINE
  5
B3
  8
SLD-0_4
  6
PHANTOM
 62
     7
 10
-158.8526758799999925
 20
-70.6715779499999854
 30
0.0
 11
-159.5743642600000101
 21
-70.6715779499999854
 31
0.0
  0
LINE
  5
B4
  8
SLD-0_4
  6
PHANTOM
 62
     7
 10
-159.5743642600000101
 20
-70.6715779499999854
 30
0.0
 11
-159.5743642600000101
 21
-61.9270884399999986
 31
0.0
  0
LINE
  5
B5
  8
SLD-0_4
  6
PHANTOM
 62
     7
 10
-174.8188349799999912
 20
-71.7052960700000028
 30
0.0
 11
-174.8188349799999912
 21
-70.6715779499999854
 31
0.0
  0
LINE
  5
B6
  8
SLD-0_4
  6
PHANTOM
 62
     7
 10
216.7671566100000007
 20
-73.4358167700000024
 30
0.0
 11
216.7671566100000007
 21
-85.756205219999984
 31
0.0
  0
LINE
  5
B7
  8
SLD-0_4
  6
PHANTOM
 62
     7
 10
199.5683635700000025
 20
-146.2052672599999994
 30
0.0
 11
247.5683635700000025
 21
-146.2052672599999994
 31
0.0
  0
LINE
  5
B8
  8
SLD-0_4
  6
PHANTOM
 62
     7
 10
219.1561940199999867
 20
-153.0667842100000087
 30
0.0
 11
219.1561940199999867
 21
-146.2052672599999994
 31
0.0
  0
LINE
  5
B9
  8
SLD-0_4
  6
PHANTOM
 62
     7
 10
225.077101650000003
 20
-128.0209188100000119
 30
0.0
 11
232.487329079999995
 21
-128.0209188100000119
 31
0.0
  0
LINE
  5
BA
  8
SLD-0_4
  6
PHANTOM
 62
     7
 10
232.487329079999995
 20
-132.9626656700000069
 30
0.0
 11
232.487329079999995
 21
-129.2575519600000007
 31
0.0
  0
LINE
  5
BB
  8
SLD-0_4
  6
PHANTOM
 62
     7
 10
213.7808598400000051
 20
-81.2949458500000048
 30
0.0
 11
213.7712883700000077
 21
-83.2532673799999969
 31
0.0
  0
LINE
  5
BC
  8
SLD-0_4
  6
PHANTOM
 62
     7
 10
232.487329079999995
 20
-109.4963073899999983
 30
0.0
 11
225.077101650000003
 21
-109.4963073899999983
 31
0.0
  0
LINE
  5
BD
  8
SLD-0_4
  6
PHANTOM
 62
     7
 10
-153.7529998599999885
 20
-70.6715779499999854
 30
0.0
 11
-153.7529998599999885
 21
-71.7052960700000028
 31
0.0
  0
LINE
  5
BE
  8
SLD-0_4
  6
PHANTOM
 62
     7
 10
-158.8526758799999925
 20
-61.9270884399999986
 30
0.0
 11
-158.8526758799999925
 21
-61.2054000500000015
 31
0.0
  0
LINE
  5
BF
  8
SLD-0_4
  6
PHANTOM
 62
     7
 10
207.2387115900000083
 20
-231.2349467800000014
 30
0.0
 11
204.1677297999999894
 21
-231.2349467800000014
 31
0.0
  0
LINE
  5
C0
  8
SLD-0_4
  6
PHANTOM
 62
     7
 10
-135.6208184600000095
 20
-61.9270884399999986
 30
0.0
 11
-134.8991300700000124
 21
-61.9270884399999986
 31
0.0
  0
LINE
  5
C1
  8
SLD-0_4
  6
PHANTOM
 62
     7
 10
-145.7684845900000141
 20
-61.9270884399999986
 30
0.0
 11
-145.0391390300000012
 21
-61.9270884399999986
 31
0.0
  0
LINE
  5
C2
  8
SLD-0_4
  6
PHANTOM
 62
     7
 10
198.9099302099999989
 20
-231.6762249200000099
 30
0.0
 11
198.8600043700000128
 21
-231.7587708599999985
 31
0.0
  0
LINE
  5
C3
  8
SLD-0_4
  6
PHANTOM
 62
     7
 10
210.8723160000000121
 20
-231.2349467800000014
 30
0.0
 11
207.2387115900000083
 21
-231.2349467800000014
 31
0.0
  0
LINE
  5
C4
  8
SLD-0_4
  6
PHANTOM
 62
     7
 10
245.6845905099999925
 20
-231.2349467800000014
 30
0.0
 11
243.3168869900000004
 21
-231.2349467800000014
 31
0.0
  0
LINE
  5
C5
  8
SLD-0_4
  6
PHANTOM
 62
     7
 10
236.6123007900000061
 20
-231.2349467800000014
 30
0.0
 11
232.5567294200000106
 21
-231.2349467800000014
 31
0.0
  0
LINE
  5
C6
  8
SLD-0_4
  6
PHANTOM
 62
     7
 10
201.8000262799999973
 20
-231.2349467800000014
 30
0.0
 11
200.2762566899999968
 21
-231.2349467800000014
 31
0.0
  0
LINE
  5
C7
  8
SLD-0_4
  6
PHANTOM
 62
     7
 10
199.7370766800000013
 20
-231.2349467800000014
 30
0.0
 11
199.6350218800000107
 21
-231.2401124799999934
 31
0.0
  0
LINE
  5
C8
  8
SLD-0_4
  6
PHANTOM
 62
     7
 10
248.3062257100000068
 20
-231.4058535000000063
 30
0.0
 11
248.2240031899999906
 21
-231.3557234200000039
 31
0.0
  0
LINE
  5
C9
  8
SLD-0_4
  6
PHANTOM
 62
     7
 10
248.7397639600000048
 20
-232.1337086599999964
 30
0.0
 11
248.724723019999999
 21
-232.034264979999989
 31
0.0
  0
LINE
  5
CA
  8
SLD-0_4
  6
PHANTOM
 62
     7
 10
247.2083600999999931
 20
-231.2349467800000014
 30
0.0
 11
245.6845905099999925
 21
-231.2349467800000014
 31
0.0
  0
LINE
  5
CB
  8
SLD-0_4
  6
PHANTOM
 62
     7
 10
248.724723019999999
 20
-232.034264979999989
 30
0.0
 11
248.7002545699999985
 21
-231.9382928199999867
 31
0.0
  0
LINE
  5
CC
  8
SLD-0_4
  6
PHANTOM
 62
     7
 10
248.4536748699999862
 20
-231.5280728699999884
 30
0.0
 11
248.3829465100000107
 21
-231.4634706299999891
 31
0.0
  0
LINE
  5
CD
  8
SLD-0_4
  6
PHANTOM
 62
     7
 10
248.1367696700000067
 20
-231.3135823400000106
 30
0.0
 11
248.045015879999994
 21
-231.2799321999999904
 31
0.0
  0
LINE
  5
CE
  8
SLD-0_4
  6
PHANTOM
 62
     7
 10
248.3829465100000107
 20
-231.4634706299999891
 30
0.0
 11
248.3062257100000068
 21
-231.4058535000000063
 31
0.0
  0
LINE
  5
CF
  8
SLD-0_4
  6
PHANTOM
 62
     7
 10
222.4463321700000051
 20
-221.2056572600000095
 30
0.0
 11
222.4463321700000051
 21
-231.2445182499999987
 31
0.0
  0
LINE
  5
D0
  8
SLD-0_4
  6
PHANTOM
 62
     7
 10
204.1677297999999894
 20
-231.2349467800000014
 30
0.0
 11
201.8000262799999973
 21
-231.2349467800000014
 31
0.0
  0
LINE
  5
D1
  8
SLD-0_4
  6
PHANTOM
 62
     7
 10
248.5751913299999956
 20
-231.6762249200000099
 30
0.0
 11
248.5179200499999865
 21
-231.5991582800000117
 31
0.0
  0
LINE
  5
D2
  8
SLD-0_4
  6
PHANTOM
 62
     7
 10
199.5359338600000001
 20
-231.255274930000013
 30
0.0
 11
199.440311759999986
 21
-231.2799321999999904
 31
0.0
  0
LINE
  5
D3
  8
SLD-0_4
  6
PHANTOM
 62
     7
 10
248.624998000000005
 20
-231.7587708599999985
 30
0.0
 11
248.5751913299999956
 21
-231.6762249200000099
 31
0.0
  0
LINE
  5
D4
  8
SLD-0_4
  6
PHANTOM
 62
     7
 10
240.2459052000000099
 20
-231.2349467800000014
 30
0.0
 11
236.6123007900000061
 21
-231.2349467800000014
 31
0.0
  0
LINE
  5
D5
  8
SLD-0_4
  6
PHANTOM
 62
     7
 10
228.2198467300000004
 20
-231.2349467800000014
 30
0.0
 11
223.7423084000000131
 21
-231.2349467800000014
 31
0.0
  0
LINE
  5
D6
  8
SLD-0_4
  6
PHANTOM
 62
     7
 10
247.949232539999997
 20
-231.255274930000013
 30
0.0
 11
247.8499103700000035
 21
-231.2401124799999934
 31
0.0
  0
LINE
  5
D7
  8
SLD-0_4
  6
PHANTOM
 62
     7
 10
238.2603049900000087
 20
-231.2445182499999987
 30
0.0
 11
238.2603049900000087
 21
-221.2056572600000095
 31
0.0
  0
LINE
  5
D8
  8
SLD-0_4
  6
PHANTOM
 62
     7
 10
198.9673150600000042
 20
-231.5991582800000117
 30
0.0
 11
198.9099302099999989
 21
-231.6762249200000099
 31
0.0
  0
LINE
  5
D9
  8
SLD-0_4
  6
PHANTOM
 62
     7
 10
214.9278873799999872
 20
-231.2349467800000014
 30
0.0
 11
210.8723160000000121
 21
-231.2349467800000014
 31
0.0
  0
LINE
  5
DA
  8
SLD-0_4
  6
PHANTOM
 62
     7
 10
199.6350218800000107
 20
-231.2401124799999934
 30
0.0
 11
199.5359338600000001
 21
-231.255274930000013
 31
0.0
  0
LINE
  5
DB
  8
SLD-0_4
  6
PHANTOM
 62
     7
 10
248.045015879999994
 20
-231.2799321999999904
 30
0.0
 11
247.949232539999997
 21
-231.255274930000013
 31
0.0
  0
LINE
  5
DC
  8
SLD-0_4
  6
PHANTOM
 62
     7
 10
199.3486547100000053
 20
-231.3135823400000106
 30
0.0
 11
199.2614618499999892
 21
-231.3557234200000039
 31
0.0
  0
LINE
  5
DD
  8
SLD-0_4
  6
PHANTOM
 62
     7
 10
198.8180366699999979
 20
-231.8462941399999977
 30
0.0
 11
198.7845262699999864
 21
-231.9382928199999867
 31
0.0
  0
LINE
  5
DE
  8
SLD-0_4
  6
PHANTOM
 62
     7
 10
243.3168869900000004
 20
-231.2349467800000014
 30
0.0
 11
240.2459052000000099
 21
-231.2349467800000014
 31
0.0
  0
LINE
  5
DF
  8
SLD-0_4
  6
PHANTOM
 62
     7
 10
248.7002545699999985
 20
-231.9382928199999867
 30
0.0
 11
248.6668493200000114
 21
-231.8462941399999977
 31
0.0
  0
LINE
  5
E0
  8
SLD-0_4
  6
PHANTOM
 62
     7
 10
248.6668493200000114
 20
-231.8462941399999977
 30
0.0
 11
248.624998000000005
 21
-231.7587708599999985
 31
0.0
  0
LINE
  5
E1
  8
SLD-0_4
  6
PHANTOM
 62
     7
 10
219.2647700599999894
 20
-231.2349467800000014
 30
0.0
 11
214.9278873799999872
 21
-231.2349467800000014
 31
0.0
  0
LINE
  5
E2
  8
SLD-0_4
  6
PHANTOM
 62
     7
 10
199.1792323200000112
 20
-231.4058535000000063
 30
0.0
 11
199.1024652499999945
 21
-231.4634706299999891
 31
0.0
  0
LINE
  5
E3
  8
SLD-0_4
  6
PHANTOM
 62
     7
 10
247.8499103700000035
 20
-231.2401124799999934
 30
0.0
 11
247.7475401099999885
 21
-231.2349467800000014
 31
0.0
  0
LINE
  5
E4
  8
SLD-0_4
  6
PHANTOM
 62
     7
 10
199.031659789999992
 20
-231.5280728699999884
 30
0.0
 11
198.9673150600000042
 21
-231.5991582800000117
 31
0.0
  0
LINE
  5
E5
  8
SLD-0_4
  6
PHANTOM
 62
     7
 10
200.2762566899999968
 20
-231.2349467800000014
 30
0.0
 11
199.7370766800000013
 21
-231.2349467800000014
 31
0.0
  0
LINE
  5
E6
  8
SLD-0_4
  6
PHANTOM
 62
     7
 10
199.2614618499999892
 20
-231.3557234200000039
 30
0.0
 11
199.1792323200000112
 21
-231.4058535000000063
 31
0.0
  0
LINE
  5
E7
  8
SLD-0_4
  6
PHANTOM
 62
     7
 10
199.1024652499999945
 20
-231.4634706299999891
 30
0.0
 11
199.031659789999992
 21
-231.5280728699999884
 31
0.0
  0
LINE
  5
E8
  8
SLD-0_4
  6
PHANTOM
 62
     7
 10
222.4463321700000051
 20
-221.2056572600000095
 30
0.0
 11
238.2603049900000087
 21
-221.2056572600000095
 31
0.0
  0
LINE
  5
E9
  8
SLD-0_4
  6
PHANTOM
 62
     7
 10
248.5179200499999865
 20
-231.5991582800000117
 30
0.0
 11
248.4536748699999862
 21
-231.5280728699999884
 31
0.0
  0
LINE
  5
EA
  8
SLD-0_4
  6
PHANTOM
 62
     7
 10
198.8600043700000128
 20
-231.7587708599999985
 30
0.0
 11
198.8180366699999979
 21
-231.8462941399999977
 31
0.0
  0
LINE
  5
EB
  8
SLD-0_4
  6
PHANTOM
 62
     7
 10
198.7845262699999864
 20
-231.9382928199999867
 30
0.0
 11
198.7599722799999995
 21
-232.034264979999989
 31
0.0
  0
LINE
  5
EC
  8
SLD-0_4
  6
PHANTOM
 62
     7
 10
199.440311759999986
 20
-231.2799321999999904
 30
0.0
 11
199.3486547100000053
 21
-231.3135823400000106
 31
0.0
  0
LINE
  5
ED
  8
SLD-0_4
  6
PHANTOM
 62
     7
 10
247.7475401099999885
 20
-231.2349467800000014
 30
0.0
 11
247.2083600999999931
 21
-231.2349467800000014
 31
0.0
  0
LINE
  5
EE
  8
SLD-0_4
  6
PHANTOM
 62
     7
 10
223.7423084000000131
 20
-231.2349467800000014
 30
0.0
 11
219.2647700599999894
 21
-231.2349467800000014
 31
0.0
  0
LINE
  5
EF
  8
SLD-0_4
  6
PHANTOM
 62
     7
 10
232.5567294200000106
 20
-231.2349467800000014
 30
0.0
 11
228.2198467300000004
 21
-231.2349467800000014
 31
0.0
  0
LINE
  5
F0
  8
SLD-0_4
  6
PHANTOM
 62
     7
 10
198.7448738600000127
 20
-232.1337086599999964
 30
0.0
 11
198.7397301299999981
 21
-232.236121919999988
 31
0.0
  0
LINE
  5
F1
  8
SLD-0_4
  6
PHANTOM
 62
     7
 10
248.7448866599999917
 20
-232.236121919999988
 30
0.0
 11
248.7397639600000048
 21
-232.1337086599999964
 31
0.0
  0
LINE
  5
F2
  8
SLD-0_4
  6
PHANTOM
 62
     7
 10
198.7397301299999981
 20
-232.236121919999988
 30
0.0
 11
198.7397301299999981
 21
-337.2052845499999876
 31
0.0
  0
LINE
  5
F3
  8
SLD-0_4
  6
PHANTOM
 62
     7
 10
198.7599722799999995
 20
-232.034264979999989
 30
0.0
 11
198.7448738600000127
 21
-232.1337086599999964
 31
0.0
  0
LINE
  5
F4
  8
SLD-0_4
  6
PHANTOM
 62
     7
 10
222.4463321700000051
 20
-231.2445182499999987
 30
0.0
 11
238.2603049900000087
 21
-231.2445182499999987
 31
0.0
  0
LINE
  5
F5
  8
SLD-0_4
  6
PHANTOM
 62
     7
 10
248.7448866599999917
 20
-337.2052845499999876
 30
0.0
 11
248.7448866599999917
 21
-232.236121919999988
 31
0.0
  0
LINE
  5
F6
  8
SLD-0_4
  6
PHANTOM
 62
     7
 10
248.2240031899999906
 20
-231.3557234200000039
 30
0.0
 11
248.1367696700000067
 21
-231.3135823400000106
 31
0.0
  0
LINE
  5
F7
  8
SLD-0_4
  6
PHANTOM
 62
     7
 10
-131.2270839500000079
 20
-156.2052672599999994
 30
0.0
 11
-131.2270839500000079
 21
-56.2052672599999994
 31
0.0
  0
LINE
  5
F8
  8
SLD-0_4
  6
PHANTOM
 62
     7
 10
159.7609977600000093
 20
-83.2052672599999994
 30
0.0
 11
141.7609977600000093
 21
-83.2052672599999994
 31
0.0
  0
LINE
  5
F9
  8
SLD-0_4
  6
PHANTOM
 62
     7
 10
-50.2390022399999978
 20
-131.2052672599999994
 30
0.0
 11
-68.2390022400000049
 21
-131.2052672599999994
 31
0.0
  0
LINE
  5
FA
  8
SLD-0_4
  6
PHANTOM
 62
     7
 10
64.7609977599999951
 20
-83.2052672599999994
 30
0.0
 11
46.7609977600000022
 21
-83.2052672599999994
 31
0.0
  0
LINE
  5
FB
  8
SLD-0_4
  6
PHANTOM
 62
     7
 10
141.7609977600000093
 20
-131.2052672599999994
 30
0.0
 11
141.7609977600000093
 21
-83.2052672599999994
 31
0.0
  0
LINE
  5
FC
  8
SLD-0_4
  6
PHANTOM
 62
     7
 10
-50.2390022399999978
 20
-83.2052672599999994
 30
0.0
 11
-68.2390022400000049
 21
-83.2052672599999994
 31
0.0
  0
LINE
  5
FD
  8
SLD-0_4
  6
PHANTOM
 62
     7
 10
-87.2390022400000049
 20
-131.2052672599999994
 30
0.0
 11
-87.2390022400000049
 21
-83.2052672599999994
 31
0.0
  0
LINE
  5
FE
  8
SLD-0_4
  6
PHANTOM
 62
     7
 10
83.7609977599999951
 20
-131.2052672599999994
 30
0.0
 11
65.7609977599999951
 21
-131.2052672599999994
 31
0.0
  0
LINE
  5
FF
  8
SLD-0_4
  6
PHANTOM
 62
     7
 10
121.7609977599999951
 20
-131.2052672599999994
 30
0.0
 11
121.7609977599999951
 21
-83.2052672599999994
 31
0.0
  0
LINE
  5
100
  8
SLD-0_4
  6
PHANTOM
 62
     7
 10
-49.2390022399999978
 20
-131.2052672599999994
 30
0.0
 11
-49.2390022399999978
 21
-83.2052672599999994
 31
0.0
  0
LINE
  5
101
  8
SLD-0_4
  6
PHANTOM
 62
     7
 10
-30.2390022400000014
 20
-131.2052672599999994
 30
0.0
 11
-30.2390022400000014
 21
-83.2052672599999994
 31
0.0
  0
LINE
  5
102
  8
SLD-0_4
  6
PHANTOM
 62
     7
 10
-88.2390022400000049
 20
-131.2052672599999994
 30
0.0
 11
-106.2390022400000049
 21
-131.2052672599999994
 31
0.0
  0
LINE
  5
103
  8
SLD-0_4
  6
PHANTOM
 62
     7
 10
-69.2390022400000049
 20
-83.2052672599999994
 30
0.0
 11
-87.2390022400000049
 21
-83.2052672599999994
 31
0.0
  0
LINE
  5
104
  8
SLD-0_4
  6
PHANTOM
 62
     7
 10
-50.2390022399999978
 20
-131.2052672599999994
 30
0.0
 11
-50.2390022399999978
 21
-83.2052672599999994
 31
0.0
  0
LINE
  5
105
  8
SLD-0_4
  6
PHANTOM
 62
     7
 10
-68.2390022400000049
 20
-131.2052672599999994
 30
0.0
 11
-68.2390022400000049
 21
-83.2052672599999994
 31
0.0
  0
LINE
  5
106
  8
SLD-0_4
  6
PHANTOM
 62
     7
 10
-31.2390022400000014
 20
-83.2052672599999994
 30
0.0
 11
-49.2390022399999978
 21
-83.2052672599999994
 31
0.0
  0
LINE
  5
107
  8
SLD-0_4
  6
PHANTOM
 62
     7
 10
-107.2390022400000049
 20
-83.2052672599999994
 30
0.0
 11
-125.2390022400000049
 21
-83.2052672599999994
 31
0.0
  0
LINE
  5
108
  8
SLD-0_4
  6
PHANTOM
 62
     7
 10
159.7609977600000093
 20
-131.2052672599999994
 30
0.0
 11
141.7609977600000093
 21
-131.2052672599999994
 31
0.0
  0
LINE
  5
109
  8
SLD-0_4
  6
PHANTOM
 62
     7
 10
103.7609977599999951
 20
-131.2052672599999994
 30
0.0
 11
103.7609977599999951
 21
-83.2052672599999994
 31
0.0
  0
LINE
  5
10A
  8
SLD-0_4
  6
PHANTOM
 62
     7
 10
-69.2390022400000049
 20
-131.2052672599999994
 30
0.0
 11
-69.2390022400000049
 21
-83.2052672599999994
 31
0.0
  0
LINE
  5
10B
  8
SLD-0_4
  6
PHANTOM
 62
     7
 10
27.7609977599999986
 20
-131.2052672599999994
 30
0.0
 11
27.7609977599999986
 21
-83.2052672599999994
 31
0.0
  0
LINE
  5
10C
  8
SLD-0_4
  6
PHANTOM
 62
     7
 10
122.7609977599999951
 20
-131.2052672599999994
 30
0.0
 11
122.7609977599999951
 21
-83.2052672599999994
 31
0.0
  0
LINE
  5
10D
  8
SLD-0_4
  6
PHANTOM
 62
     7
 10
178.7609977600000093
 20
-131.2052672599999994
 30
0.0
 11
160.7609977600000093
 21
-131.2052672599999994
 31
0.0
  0
LINE
  5
10E
  8
SLD-0_4
  6
PHANTOM
 62
     7
 10
121.7609977599999951
 20
-83.2052672599999994
 30
0.0
 11
103.7609977599999951
 21
-83.2052672599999994
 31
0.0
  0
LINE
  5
10F
  8
SLD-0_4
  6
PHANTOM
 62
     7
 10
-107.2390022400000049
 20
-131.2052672599999994
 30
0.0
 11
-107.2390022400000049
 21
-83.2052672599999994
 31
0.0
  0
LINE
  5
110
  8
SLD-0_4
  6
PHANTOM
 62
     7
 10
-12.2390022399999996
 20
-131.2052672599999994
 30
0.0
 11
-30.2390022400000014
 21
-131.2052672599999994
 31
0.0
  0
LINE
  5
111
  8
SLD-0_4
  6
PHANTOM
 62
     7
 10
178.7609977600000093
 20
-131.2052672599999994
 30
0.0
 11
178.7609977600000093
 21
-83.2052672599999994
 31
0.0
  0
LINE
  5
112
  8
SLD-0_4
  6
PHANTOM
 62
     7
 10
65.7609977599999951
 20
-131.2052672599999994
 30
0.0
 11
65.7609977599999951
 21
-83.2052672599999994
 31
0.0
  0
LINE
  5
113
  8
SLD-0_4
  6
PHANTOM
 62
     7
 10
160.7609977600000093
 20
-131.2052672599999994
 30
0.0
 11
160.7609977600000093
 21
-83.2052672599999994
 31
0.0
  0
LINE
  5
114
  8
SLD-0_4
  6
PHANTOM
 62
     7
 10
-106.2390022400000049
 20
-131.2052672599999994
 30
0.0
 11
-106.2390022400000049
 21
-83.2052672599999994
 31
0.0
  0
LINE
  5
115
  8
SLD-0_4
  6
PHANTOM
 62
     7
 10
-88.2390022400000049
 20
-83.2052672599999994
 30
0.0
 11
-106.2390022400000049
 21
-83.2052672599999994
 31
0.0
  0
LINE
  5
116
  8
SLD-0_4
  6
PHANTOM
 62
     7
 10
178.7609977600000093
 20
-83.2052672599999994
 30
0.0
 11
160.7609977600000093
 21
-83.2052672599999994
 31
0.0
  0
LINE
  5
117
  8
SLD-0_4
  6
PHANTOM
 62
     7
 10
6.7609977600000004
 20
-131.2052672599999994
 30
0.0
 11
6.7609977600000004
 21
-83.2052672599999994
 31
0.0
  0
LINE
  5
118
  8
SLD-0_4
  6
PHANTOM
 62
     7
 10
140.7609977600000093
 20
-83.2052672599999994
 30
0.0
 11
122.7609977599999951
 21
-83.2052672599999994
 31
0.0
  0
LINE
  5
119
  8
SLD-0_4
  6
PHANTOM
 62
     7
 10
102.7609977599999951
 20
-83.2052672599999994
 30
0.0
 11
84.7609977599999951
 21
-83.2052672599999994
 31
0.0
  0
LINE
  5
11A
  8
SLD-0_4
  6
PHANTOM
 62
     7
 10
84.7609977599999951
 20
-131.2052672599999994
 30
0.0
 11
84.7609977599999951
 21
-83.2052672599999994
 31
0.0
  0
LINE
  5
11B
  8
SLD-0_4
  6
PHANTOM
 62
     7
 10
-107.2390022400000049
 20
-131.2052672599999994
 30
0.0
 11
-125.2390022400000049
 21
-131.2052672599999994
 31
0.0
  0
LINE
  5
11C
  8
SLD-0_4
  6
PHANTOM
 62
     7
 10
140.7609977600000093
 20
-131.2052672599999994
 30
0.0
 11
140.7609977600000093
 21
-83.2052672599999994
 31
0.0
  0
LINE
  5
11D
  8
SLD-0_4
  6
PHANTOM
 62
     7
 10
-125.2390022400000049
 20
-131.2052672599999994
 30
0.0
 11
-125.2390022400000049
 21
-83.2052672599999994
 31
0.0
  0
LINE
  5
11E
  8
SLD-0_4
  6
PHANTOM
 62
     7
 10
64.7609977599999951
 20
-131.2052672599999994
 30
0.0
 11
46.7609977600000022
 21
-131.2052672599999994
 31
0.0
  0
LINE
  5
11F
  8
SLD-0_4
  6
PHANTOM
 62
     7
 10
25.7609977599999986
 20
-131.2052672599999994
 30
0.0
 11
25.7609977599999986
 21
-83.2052672599999994
 31
0.0
  0
LINE
  5
120
  8
SLD-0_4
  6
PHANTOM
 62
     7
 10
159.7609977600000093
 20
-131.2052672599999994
 30
0.0
 11
159.7609977600000093
 21
-83.2052672599999994
 31
0.0
  0
LINE
  5
121
  8
SLD-0_4
  6
PHANTOM
 62
     7
 10
83.7609977599999951
 20
-131.2052672599999994
 30
0.0
 11
83.7609977599999951
 21
-83.2052672599999994
 31
0.0
  0
LINE
  5
122
  8
SLD-0_4
  6
PHANTOM
 62
     7
 10
25.7609977599999986
 20
-83.2052672599999994
 30
0.0
 11
7.7609977600000004
 21
-83.2052672599999994
 31
0.0
  0
LINE
  5
123
  8
SLD-0_4
  6
PHANTOM
 62
     7
 10
-88.2390022400000049
 20
-131.2052672599999994
 30
0.0
 11
-88.2390022400000049
 21
-83.2052672599999994
 31
0.0
  0
LINE
  5
124
  8
SLD-0_4
  6
PHANTOM
 62
     7
 10
45.7609977600000022
 20
-131.2052672599999994
 30
0.0
 11
45.7609977600000022
 21
-83.2052672599999994
 31
0.0
  0
LINE
  5
125
  8
SLD-0_4
  6
PHANTOM
 62
     7
 10
7.7609977600000004
 20
-131.2052672599999994
 30
0.0
 11
7.7609977600000004
 21
-83.2052672599999994
 31
0.0
  0
LINE
  5
126
  8
SLD-0_4
  6
PHANTOM
 62
     7
 10
6.7609977600000004
 20
-83.2052672599999994
 30
0.0
 11
-11.2390022399999996
 21
-83.2052672599999994
 31
0.0
  0
LINE
  5
127
  8
SLD-0_4
  6
PHANTOM
 62
     7
 10
-12.2390022399999996
 20
-131.2052672599999994
 30
0.0
 11
-12.2390022399999996
 21
-83.2052672599999994
 31
0.0
  0
LINE
  5
128
  8
SLD-0_4
  6
PHANTOM
 62
     7
 10
45.7609977600000022
 20
-131.2052672599999994
 30
0.0
 11
27.7609977599999986
 21
-131.2052672599999994
 31
0.0
  0
LINE
  5
129
  8
SLD-0_4
  6
PHANTOM
 62
     7
 10
46.7609977600000022
 20
-131.2052672599999994
 30
0.0
 11
46.7609977600000022
 21
-83.2052672599999994
 31
0.0
  0
LINE
  5
12A
  8
SLD-0_4
  6
PHANTOM
 62
     7
 10
25.7609977599999986
 20
-131.2052672599999994
 30
0.0
 11
7.7609977600000004
 21
-131.2052672599999994
 31
0.0
  0
LINE
  5
12B
  8
SLD-0_4
  6
PHANTOM
 62
     7
 10
102.7609977599999951
 20
-131.2052672599999994
 30
0.0
 11
102.7609977599999951
 21
-83.2052672599999994
 31
0.0
  0
LINE
  5
12C
  8
SLD-0_4
  6
PHANTOM
 62
     7
 10
-11.2390022399999996
 20
-131.2052672599999994
 30
0.0
 11
-11.2390022399999996
 21
-83.2052672599999994
 31
0.0
  0
LINE
  5
12D
  8
SLD-0_4
  6
PHANTOM
 62
     7
 10
-31.2390022400000014
 20
-131.2052672599999994
 30
0.0
 11
-49.2390022399999978
 21
-131.2052672599999994
 31
0.0
  0
LINE
  5
12E
  8
SLD-0_4
  6
PHANTOM
 62
     7
 10
83.7609977599999951
 20
-83.2052672599999994
 30
0.0
 11
65.7609977599999951
 21
-83.2052672599999994
 31
0.0
  0
LINE
  5
12F
  8
SLD-0_4
  6
PHANTOM
 62
     7
 10
-31.2390022400000014
 20
-131.2052672599999994
 30
0.0
 11
-31.2390022400000014
 21
-83.2052672599999994
 31
0.0
  0
LINE
  5
130
  8
SLD-0_4
  6
PHANTOM
 62
     7
 10
-12.2390022399999996
 20
-83.2052672599999994
 30
0.0
 11
-30.2390022400000014
 21
-83.2052672599999994
 31
0.0
  0
LINE
  5
131
  8
SLD-0_4
  6
PHANTOM
 62
     7
 10
6.7609977600000004
 20
-131.2052672599999994
 30
0.0
 11
-11.2390022399999996
 21
-131.2052672599999994
 31
0.0
  0
LINE
  5
132
  8
SLD-0_4
  6
PHANTOM
 62
     7
 10
140.7609977600000093
 20
-131.2052672599999994
 30
0.0
 11
122.7609977599999951
 21
-131.2052672599999994
 31
0.0
  0
LINE
  5
133
  8
SLD-0_4
  6
PHANTOM
 62
     7
 10
102.7609977599999951
 20
-131.2052672599999994
 30
0.0
 11
84.7609977599999951
 21
-131.2052672599999994
 31
0.0
  0
LINE
  5
134
  8
SLD-0_4
  6
PHANTOM
 62
     7
 10
121.7609977599999951
 20
-131.2052672599999994
 30
0.0
 11
103.7609977599999951
 21
-131.2052672599999994
 31
0.0
  0
LINE
  5
135
  8
SLD-0_4
  6
PHANTOM
 62
     7
 10
64.7609977599999951
 20
-131.2052672599999994
 30
0.0
 11
64.7609977599999951
 21
-83.2052672599999994
 31
0.0
  0
LINE
  5
136
  8
SLD-0_4
  6
PHANTOM
 62
     7
 10
-69.2390022400000049
 20
-131.2052672599999994
 30
0.0
 11
-87.2390022400000049
 21
-131.2052672599999994
 31
0.0
  0
LINE
  5
137
  8
SLD-0_4
  6
PHANTOM
 62
     7
 10
45.7609977600000022
 20
-83.2052672599999994
 30
0.0
 11
27.7609977599999986
 21
-83.2052672599999994
 31
0.0
  0
LINE
  5
138
  8
SLD-0_4
  6
PHANTOM
 62
     7
 10
175.9308219199999996
 20
-266.2056572600000095
 30
0.0
 11
173.6331684399999915
 21
-266.2056572600000095
 31
0.0
  0
LINE
  5
139
  8
SLD-0_4
  6
PHANTOM
 62
     7
 10
-125.2390022400000049
 20
-267.9056572599999981
 30
0.0
 11
-125.2390022400000049
 21
-337.2052845499999876
 31
0.0
  0
LINE
  5
13A
  8
SLD-0_4
  6
PHANTOM
 62
     7
 10
-107.2390022400000049
 20
-267.9056572599999981
 30
0.0
 11
-107.2390022400000049
 21
-312.6240913199999909
 31
0.0
  0
LINE
  5
13B
  8
SLD-0_4
  6
PHANTOM
 62
     7
 10
178.7609977600000093
 20
-267.9056572599999981
 30
0.0
 11
160.7609977600000093
 21
-267.9056572599999981
 31
0.0
  0
LINE
  5
13C
  8
SLD-0_4
  6
PHANTOM
 62
     7
 10
-113.8668315599999943
 20
-267.9264067199999886
 30
0.0
 11
-113.8668315599999943
 21
-267.7056572600000095
 31
0.0
  0
LINE
  5
13D
  8
SLD-0_4
  6
PHANTOM
 62
     7
 10
172.1331684399999915
 20
-267.9264067199999886
 30
0.0
 11
172.1331684399999915
 21
-267.7056572600000095
 31
0.0
  0
LINE
  5
13E
  8
SLD-0_4
  6
PHANTOM
 62
     7
 10
-108.5691780800000004
 20
-267.9264067199999886
 30
0.0
 11
-108.5691780800000004
 21
-267.7056572600000095
 31
0.0
  0
LINE
  5
13F
  8
SLD-0_4
  6
PHANTOM
 62
     7
 10
-107.2390022400000049
 20
-267.9056572599999981
 30
0.0
 11
-125.2390022400000049
 21
-267.9056572599999981
 31
0.0
  0
LINE
  5
140
  8
SLD-0_4
  6
PHANTOM
 62
     7
 10
177.4308219199999996
 20
-267.9264067199999886
 30
0.0
 11
177.4308219199999996
 21
-267.7056572600000095
 31
0.0
  0
LINE
  5
141
  8
SLD-0_4
  6
PHANTOM
 62
     7
 10
178.7609977600000093
 20
-267.9056572599999981
 30
0.0
 11
178.7609977600000093
 21
-337.2052845499999876
 31
0.0
  0
LINE
  5
142
  8
SLD-0_4
  6
PHANTOM
 62
     7
 10
160.7609977600000093
 20
-267.9056572599999981
 30
0.0
 11
160.7609977600000093
 21
-337.2052845499999876
 31
0.0
  0
LINE
  5
143
  8
SLD-0_4
  6
PHANTOM
 62
     7
 10
-110.0691780800000004
 20
-266.2056572600000095
 30
0.0
 11
-112.3668315599999943
 21
-266.2056572600000095
 31
0.0
  0
CIRCLE
  5
144
  8
SLD-0_4
  6
PHANTOM
 62
     7
 10
-164.2799697199999969
 20
-66.3571851600000002
 30
0.0
 40
2.6164181399999991
  0
CIRCLE
  5
145
  8
SLD-0_4
  6
PHANTOM
 62
     7
 10
-156.296411599999999
 20
-66.3571851600000002
 30
0.0
 40
2.6164181399999991
  0
CIRCLE
  5
146
  8
SLD-0_4
  6
PHANTOM
 62
     7
 10
-148.3118963299999962
 20
-66.3571851600000002
 30
0.0
 40
2.6164181399999991
  0
CIRCLE
  5
147
  8
SLD-0_4
  6
PHANTOM
 62
     7
 10
-140.3283382099999983
 20
-66.3571851600000002
 30
0.0
 40
2.6164181399999991
  0
ARC
  5
148
  8
SLD-0_4
  6
PHANTOM
 62
     7
 10
247.5683635700000025
 20
-145.2052672599999994
 30
0.0
 40
1.0
 50
270.0
 51
360.0
  0
CIRCLE
  5
149
  8
SLD-0_4
  6
PHANTOM
 62
     7
 10
223.5683635700000025
 20
-149.6478316500000005
 30
0.0
 40
2.50017756
  0
ARC
  5
14A
  8
SLD-0_4
  6
PHANTOM
 62
     7
 10
247.5683635700000025
 20
-67.2052672599999994
 30
0.0
 40
1.0
 50
0.0
 51
90.0
  0
ARC
  5
14B
  8
SLD-0_4
  6
PHANTOM
 62
     7
 10
199.5683635700000025
 20
-145.2052672599999994
 30
0.0
 40
1.0
 50
180.0
 51
270.0
  0
CIRCLE
  5
14C
  8
SLD-0_4
  6
PHANTOM
 62
     7
 10
223.5683635700000025
 20
-62.7627028799999991
 30
0.0
 40
2.50017756
  0
ARC
  5
14D
  8
SLD-0_4
  6
PHANTOM
 62
     7
 10
199.5683635700000025
 20
-67.2052672599999994
 30
0.0
 40
1.0
 50
90.0
 51
180.0
  0
ARC
  5
14E
  8
SLD-0_4
  6
PHANTOM
 62
     7
 10
175.9308219199999996
 20
-267.7056572600000095
 30
0.0
 40
1.5
 50
0.0
 51
90.0
  0
ARC
  5
14F
  8
SLD-0_4
  6
PHANTOM
 62
     7
 10
-110.0691780800000004
 20
-267.7056572600000095
 30
0.0
 40
1.5
 50
0.0
 51
90.0
  0
ARC
  5
150
  8
SLD-0_4
  6
PHANTOM
 62
     7
 10
173.6331684399999915
 20
-267.7056572600000095
 30
0.0
 40
1.5
 50
90.0
 51
180.0
  0
ARC
  5
151
  8
SLD-0_4
  6
PHANTOM
 62
     7
 10
-112.3668315599999943
 20
-267.7056572600000095
 30
0.0
 40
1.5
 50
90.0
 51
180.0
  0
LINE
  5
152
  8
SLD-0_4
  6
CONTINUOUS
 62
     7
 10
-51.974530399999999
 20
-172.6531945199999996
 30
0.0
 11
-52.0243926599999895
 21
-172.6534015699999998
 31
0.0
  0
LINE
  5
153
  8
SLD-0_4
  6
CONTINUOUS
 62
     7
 10
-52.1033079700000101
 20
-172.6210924499999919
 30
0.0
 11
-52.1333525399999971
 21
-172.5935111400000039
 31
0.0
  0
LINE
  5
154
  8
SLD-0_4
  6
CONTINUOUS
 62
     7
 10
-68.603712630000004
 20
-145.455946780000005
 30
0.0
 11
-68.603712630000004
 21
-134.7056013700000108
 31
0.0
  0
LINE
  5
155
  8
SLD-0_4
  6
CONTINUOUS
 62
     7
 10
-51.2081536299999982
 20
-166.9584403599999973
 30
0.0
 11
-51.1919535999999979
 21
-167.150923210000002
 31
0.0
  0
LINE
  5
156
  8
SLD-0_4
  6
CONTINUOUS
 62
     7
 10
-59.9965456999999986
 20
-145.455946780000005
 30
0.0
 11
-59.9965456999999986
 21
-134.7056013700000108
 31
0.0
  0
LINE
  5
157
  8
SLD-0_4
  6
CONTINUOUS
 62
     7
 10
0.2678093
 20
-145.455946780000005
 30
0.0
 11
0.2678093
 21
-134.7056013700000108
 31
0.0
  0
LINE
  5
158
  8
SLD-0_4
  6
CONTINUOUS
 62
     7
 10
-51.4984599000000003
 20
-172.2674420699999871
 30
0.0
 11
-51.6013429200000004
 21
-172.3898463099999958
 31
0.0
  0
LINE
  5
159
  8
SLD-0_4
  6
CONTINUOUS
 62
     7
 10
-51.1919535999999979
 20
-167.150923210000002
 30
0.0
 11
-51.1722781799999922
 21
-167.4045659299999897
 31
0.0
  0
LINE
  5
15A
  8
SLD-0_4
  6
CONTINUOUS
 62
     7
 10
276.2609977600000093
 20
-134.7052672599999994
 30
0.0
 11
278.7609977600000093
 21
-137.2052672599999994
 31
0.0
  0
LINE
  5
15B
  8
SLD-0_4
  6
CONTINUOUS
 62
     7
 10
276.2609977600000093
 20
-156.2052672599999994
 30
0.0
 11
-49.4589981600000002
 21
-156.2052672599999994
 31
0.0
  0
LINE
  5
15C
  8
SLD-0_4
  6
CONTINUOUS
 62
     7
 10
-67.4951370900000001
 20
-150.7059740800000043
 30
0.0
 11
-52.4969409899999988
 21
-150.7059740800000043
 31
0.0
  0
LINE
  5
15D
  8
SLD-0_4
  6
CONTINUOUS
 62
     7
 10
-51.7773761600000029
 20
-172.5575179100000014
 30
0.0
 11
-51.8515178999999904
 21
-172.6077201200000104
 31
0.0
  0
LINE
  5
15E
  8
SLD-0_4
  6
CONTINUOUS
 62
     7
 10
-51.1294349499999896
 20
-168.0587926100000118
 30
0.0
 11
-51.1097340099999897
 21
-168.4411073900000133
 31
0.0
  0
LINE
  5
15F
  8
SLD-0_4
  6
CONTINUOUS
 62
     7
 10
-67.4951370900000001
 20
-156.2052672599999994
 30
0.0
 11
-198.7390022399999054
 21
-156.2052672599999994
 31
0.0
  0
LINE
  5
160
  8
SLD-0_4
  6
CONTINUOUS
 62
     7
 10
-72.9072960900000027
 20
-156.2052788700000008
 30
0.0
 11
-72.9072960900000027
 21
-145.455946780000005
 31
0.0
  0
LINE
  5
161
  8
SLD-0_4
  6
CONTINUOUS
 62
     7
 10
278.7609977600000093
 20
-153.7052672599999994
 30
0.0
 11
278.7609977600000093
 21
-137.2052672599999994
 31
0.0
  0
LINE
  5
162
  8
SLD-0_4
  6
CONTINUOUS
 62
     7
 10
-52.4969409899999988
 20
-173.1875617299999988
 30
0.0
 11
-67.4951370900000001
 21
-173.1875617299999988
 31
0.0
  0
LINE
  5
163
  8
SLD-0_4
  6
CONTINUOUS
 62
     7
 10
-25.5597714200000006
 20
-145.455946780000005
 30
0.0
 11
-25.5597714200000006
 21
-134.7056013700000108
 31
0.0
  0
LINE
  5
164
  8
SLD-0_4
  6
CONTINUOUS
 62
     7
 10
-85.8220997699999941
 20
-145.455946780000005
 30
0.0
 11
-85.8220997699999941
 21
-134.7056013700000108
 31
0.0
  0
LINE
  5
165
  8
SLD-0_4
  6
CONTINUOUS
 62
     7
 10
-52.0243926599999895
 20
-172.6534015699999998
 30
0.0
 11
-52.0671532599999978
 21
-172.6418783899999028
 31
0.0
  0
LINE
  5
166
  8
SLD-0_4
  6
CONTINUOUS
 62
     7
 10
-16.94855119999999
 20
-145.455946780000005
 30
0.0
 11
-16.94855119999999
 21
-134.7056013700000108
 31
0.0
  0
LINE
  5
167
  8
SLD-0_4
  6
CONTINUOUS
 62
     7
 10
-81.517502989999997
 20
-156.2052788700000008
 30
0.0
 11
-81.517502989999997
 21
-145.455946780000005
 31
0.0
  0
LINE
  5
168
  8
SLD-0_4
  6
CONTINUOUS
 62
     7
 10
278.7609977600000093
 20
-125.2052672599999994
 30
0.0
 11
278.7609977600000093
 21
-87.2052672600000136
 31
0.0
  0
LINE
  5
169
  8
SLD-0_4
  6
CONTINUOUS
 62
     7
 10
-198.7390022399999054
 20
-134.7052672599999994
 30
0.0
 11
-201.2390022399999907
 21
-137.2052672599999994
 31
0.0
  0
LINE
  5
16A
  8
SLD-0_4
  6
CONTINUOUS
 62
     7
 10
-51.2191448399999985
 20
-166.8362519599999985
 30
0.0
 11
-51.2081536299999982
 21
-166.9584403599999973
 31
0.0
  0
LINE
  5
16B
  8
SLD-0_4
  6
CONTINUOUS
 62
     7
 10
-12.6459810600000004
 20
-156.2052788700000008
 30
0.0
 11
-12.6459810600000004
 21
-145.455946780000005
 31
0.0
  0
LINE
  5
16C
  8
SLD-0_4
  6
CONTINUOUS
 62
     7
 10
268.7609977600000093
 20
-77.7052672599999852
 30
0.0
 11
276.2609977600000093
 21
-77.7052672599999852
 31
0.0
  0
LINE
  5
16D
  8
SLD-0_4
  6
CONTINUOUS
 62
     7
 10
276.2609977600000093
 20
-84.7052672600000136
 30
0.0
 11
278.7609977600000093
 21
-87.2052672600000136
 31
0.0
  0
LINE
  5
16E
  8
SLD-0_4
  6
CONTINUOUS
 62
     7
 10
22.4802731199999997
 20
-68.5199028400000003
 30
0.0
 11
-121.2754589999999979
 21
-68.5199028400000003
 31
0.0
  0
LINE
  5
16F
  8
SLD-0_4
  6
CONTINUOUS
 62
     7
 10
4.5127208999999997
 20
-56.1995143700000028
 30
0.0
 11
4.5127208999999997
 21
-68.5199028400000003
 31
0.0
  0
LINE
  5
170
  8
SLD-0_4
  6
CONTINUOUS
 62
     7
 10
-198.7390022399999054
 20
-77.7052672599999852
 30
0.0
 11
-201.2390022399999907
 21
-75.2052672599999852
 31
0.0
  0
LINE
  5
171
  8
SLD-0_4
  6
CONTINUOUS
 62
     7
 10
-198.7390022399999054
 20
-127.7052672599999994
 30
0.0
 11
-201.2390022399999907
 21
-125.2052672599999994
 31
0.0
  0
LINE
  5
172
  8
SLD-0_4
  6
CONTINUOUS
 62
     7
 10
-198.7390022399999054
 20
-156.2052672599999994
 30
0.0
 11
-201.2390022399999907
 21
-153.7052672599999994
 31
0.0
  0
LINE
  5
173
  8
SLD-0_4
  6
CONTINUOUS
 62
     7
 10
4.5724060900000003
 20
-156.2052788700000008
 30
0.0
 11
4.5724060900000003
 21
-145.455946780000005
 31
0.0
  0
LINE
  5
174
  8
SLD-0_4
  6
CONTINUOUS
 62
     7
 10
-21.2531479800000014
 20
-156.2052788700000008
 30
0.0
 11
-21.2531479800000014
 21
-145.455946780000005
 31
0.0
  0
LINE
  5
175
  8
SLD-0_4
  6
CONTINUOUS
 62
     7
 10
268.7609977600000093
 20
-84.7052672600000136
 30
0.0
 11
276.2609977600000093
 21
-84.7052672600000136
 31
0.0
  0
LINE
  5
176
  8
SLD-0_4
  6
CONTINUOUS
 62
     7
 10
22.4802731199999997
 20
-56.1995143700000028
 30
0.0
 11
22.4802731199999997
 21
-68.5199028400000003
 31
0.0
  0
LINE
  5
177
  8
SLD-0_4
  6
CONTINUOUS
 62
     7
 10
-49.4589981600000002
 20
-156.0998932599999875
 30
0.0
 11
-49.4589981600000002
 21
-166.5573882799999978
 31
0.0
  0
LINE
  5
178
  8
SLD-0_4
  6
CONTINUOUS
 62
     7
 10
-52.2092746100000014
 20
-172.4400343400000111
 30
0.0
 11
-52.2130691500000026
 21
-172.4234969000000035
 31
0.0
  0
LINE
  5
179
  8
SLD-0_4
  6
CONTINUOUS
 62
     7
 10
-52.2023444499999982
 20
-172.4645809900000017
 30
0.0
 11
-52.2092746100000014
 21
-172.4400343400000111
 31
0.0
  0
LINE
  5
17A
  8
SLD-0_4
  6
CONTINUOUS
 62
     7
 10
-120.2588740599999966
 20
-134.7056013700000108
 30
0.0
 11
-120.2588740599999966
 21
-145.455946780000005
 31
0.0
  0
LINE
  5
17B
  8
SLD-0_4
  6
CONTINUOUS
 62
     7
 10
-49.4589981600000002
 20
-166.5573882799999978
 30
0.0
 11
-52.4969409899999988
 21
-166.5573882799999978
 31
0.0
  0
LINE
  5
17C
  8
SLD-0_4
  6
CONTINUOUS
 62
     7
 10
21.7907932299999985
 20
-145.455946780000005
 30
0.0
 11
-115.9532639499999931
 21
-145.455946780000005
 31
0.0
  0
LINE
  5
17D
  8
SLD-0_4
  6
CONTINUOUS
 62
     7
 10
-120.2588740599999966
 20
-156.2052788700000008
 30
0.0
 11
-120.2588740599999966
 21
-145.455946780000005
 31
0.0
  0
LINE
  5
17E
  8
SLD-0_4
  6
CONTINUOUS
 62
     7
 10
-51.1657342999999898
 20
-171.2951766500000019
 30
0.0
 11
-51.2222365900000014
 21
-171.6186952099999985
 31
0.0
  0
LINE
  5
17F
  8
SLD-0_4
  6
CONTINUOUS
 62
     7
 10
268.7609977600000093
 20
-127.7052672599999994
 30
0.0
 11
276.2609977600000093
 21
-127.7052672599999994
 31
0.0
  0
LINE
  5
180
  8
SLD-0_4
  6
CONTINUOUS
 62
     7
 10
276.2609977600000093
 20
-127.7052672599999994
 30
0.0
 11
278.7609977600000093
 21
-125.2052672599999994
 31
0.0
  0
LINE
  5
181
  8
SLD-0_4
  6
CONTINUOUS
 62
     7
 10
-103.3059924800000005
 20
-56.1995143700000028
 30
0.0
 11
-103.3059924800000005
 21
-68.5199028400000003
 31
0.0
  0
LINE
  5
182
  8
SLD-0_4
  6
CONTINUOUS
 62
     7
 10
-111.648667169999996
 20
-145.455946780000005
 30
0.0
 11
-111.648667169999996
 21
-134.7056013700000108
 31
0.0
  0
LINE
  5
183
  8
SLD-0_4
  6
CONTINUOUS
 62
     7
 10
21.7907932299999985
 20
-134.7056013700000108
 30
0.0
 11
21.7907932299999985
 21
-145.455946780000005
 31
0.0
  0
LINE
  5
184
  8
SLD-0_4
  6
CONTINUOUS
 62
     7
 10
-51.386338809999998
 20
-145.455946780000005
 30
0.0
 11
-51.386338809999998
 21
-134.7056013700000108
 31
0.0
  0
LINE
  5
185
  8
SLD-0_4
  6
CONTINUOUS
 62
     7
 10
-29.8643682000000013
 20
-156.2052788700000008
 30
0.0
 11
-29.8643682000000013
 21
-145.455946780000005
 31
0.0
  0
LINE
  5
186
  8
SLD-0_4
  6
CONTINUOUS
 62
     7
 10
-52.4969409899999988
 20
-156.0998932599999875
 30
0.0
 11
-49.4589981600000002
 21
-156.0998932599999875
 31
0.0
  0
LINE
  5
187
  8
SLD-0_4
  6
CONTINUOUS
 62
     7
 10
-61.7465547999999984
 20
-145.7376506200000108
 30
0.0
 11
-61.7465547999999984
 21
-150.7059740800000043
 31
0.0
  0
LINE
  5
188
  8
SLD-0_4
  6
CONTINUOUS
 62
     7
 10
-201.2390022399999907
 20
-125.2052672599999994
 30
0.0
 11
-201.2390022399999907
 21
-87.2052672600000136
 31
0.0
  0
LINE
  5
189
  8
SLD-0_4
  6
CONTINUOUS
 62
     7
 10
17.4861964500000013
 20
-145.455946780000005
 30
0.0
 11
17.4861964500000013
 21
-134.7056013700000108
 31
0.0
  0
LINE
  5
18A
  8
SLD-0_4
  6
CONTINUOUS
 62
     7
 10
-98.7338634900000045
 20
-156.2052788700000008
 30
0.0
 11
-98.7338634900000045
 21
-145.455946780000005
 31
0.0
  0
LINE
  5
18B
  8
SLD-0_4
  6
CONTINUOUS
 62
     7
 10
-90.1256832400000008
 20
-156.2052788700000008
 30
0.0
 11
-90.1256832400000008
 21
-145.455946780000005
 31
0.0
  0
LINE
  5
18C
  8
SLD-0_4
  6
CONTINUOUS
 62
     7
 10
-4.0367874800000001
 20
-156.2052788700000008
 30
0.0
 11
-4.0367874800000001
 21
-145.455946780000005
 31
0.0
  0
LINE
  5
18D
  8
SLD-0_4
  6
CONTINUOUS
 62
     7
 10
-34.1699783099999976
 20
-145.455946780000005
 30
0.0
 11
-34.1699783099999976
 21
-134.7056013700000108
 31
0.0
  0
LINE
  5
18E
  8
SLD-0_4
  6
CONTINUOUS
 62
     7
 10
-51.2222365900000014
 20
-171.6186952099999985
 30
0.0
 11
-51.2960647499999993
 21
-171.8937586000000124
 31
0.0
  0
LINE
  5
18F
  8
SLD-0_4
  6
CONTINUOUS
 62
     7
 10
278.7609977600000093
 20
-75.2052672599999852
 30
0.0
 11
278.7609977600000093
 21
-58.7052672599999994
 31
0.0
  0
LINE
  5
190
  8
SLD-0_4
  6
CONTINUOUS
 62
     7
 10
-103.0384602700000016
 20
-145.455946780000005
 30
0.0
 11
-103.0384602700000016
 21
-134.7056013700000108
 31
0.0
  0
LINE
  5
191
  8
SLD-0_4
  6
CONTINUOUS
 62
     7
 10
-52.2130691500000026
 20
-172.4234969000000035
 30
0.0
 11
-52.2142238300000017
 21
-172.4174361199999908
 31
0.0
  0
LINE
  5
192
  8
SLD-0_4
  6
CONTINUOUS
 62
     7
 10
-52.1770942500000032
 20
-172.5278322100000139
 30
0.0
 11
-52.1917829100000006
 21
-172.4946694100000002
 31
0.0
  0
LINE
  5
193
  8
SLD-0_4
  6
CONTINUOUS
 62
     7
 10
-51.0824406799999977
 20
-169.2704669400000057
 30
0.0
 11
-51.0783151600000025
 21
-169.6992425299999923
 31
0.0
  0
LINE
  5
194
  8
SLD-0_4
  6
CONTINUOUS
 62
     7
 10
-51.1248244599999992
 20
-170.9323375300000123
 30
0.0
 11
-51.1657342999999898
 21
-171.2951766500000019
 31
0.0
  0
LINE
  5
195
  8
SLD-0_4
  6
CONTINUOUS
 62
     7
 10
-67.3670594499999993
 20
-56.1995143700000028
 30
0.0
 11
-67.3670594499999993
 21
-68.5199028400000003
 31
0.0
  0
LINE
  5
196
  8
SLD-0_4
  6
CONTINUOUS
 62
     7
 10
-31.4262121299999997
 20
-56.1995143700000028
 30
0.0
 11
-31.4262121299999997
 21
-68.5199028400000003
 31
0.0
  0
LINE
  5
197
  8
SLD-0_4
  6
CONTINUOUS
 62
     7
 10
-112.2916828900000041
 20
-56.1995143700000028
 30
0.0
 11
-112.2916828900000041
 21
-68.5199028400000003
 31
0.0
  0
LINE
  5
198
  8
SLD-0_4
  6
CONTINUOUS
 62
     7
 10
17.4861964500000013
 20
-134.7056013700000108
 30
0.0
 11
21.7907932299999985
 21
-134.7056013700000108
 31
0.0
  0
LINE
  5
199
  8
SLD-0_4
  6
CONTINUOUS
 62
     7
 10
-51.8515178999999904
 20
-172.6077201200000104
 30
0.0
 11
-51.9170707299999918
 21
-172.6387898600000028
 31
0.0
  0
LINE
  5
19A
  8
SLD-0_4
  6
CONTINUOUS
 62
     7
 10
258.7609977600000093
 20
-156.2052672599999994
 30
0.0
 11
258.7609977600000093
 21
-56.2052672599999994
 31
0.0
  0
LINE
  5
19B
  8
SLD-0_4
  6
CONTINUOUS
 62
     7
 10
-94.4323066699999885
 20
-145.455946780000005
 30
0.0
 11
-94.4323066699999885
 21
-134.7056013700000108
 31
0.0
  0
LINE
  5
19C
  8
SLD-0_4
  6
CONTINUOUS
 62
     7
 10
268.7609977600000093
 20
-134.7052672599999994
 30
0.0
 11
276.2609977600000093
 21
-134.7052672599999994
 31
0.0
  0
LINE
  5
19D
  8
SLD-0_4
  6
CONTINUOUS
 62
     7
 10
13.4945827200000004
 20
-56.1995143700000028
 30
0.0
 11
13.4945827200000004
 21
-68.5199028400000003
 31
0.0
  0
LINE
  5
19E
  8
SLD-0_4
  6
CONTINUOUS
 62
     7
 10
-22.4424360199999988
 20
-56.1995143700000028
 30
0.0
 11
-22.4424360199999988
 21
-68.5199028400000003
 31
0.0
  0
LINE
  5
19F
  8
SLD-0_4
  6
CONTINUOUS
 62
     7
 10
-13.4586599099999997
 20
-56.1995143700000028
 30
0.0
 11
-13.4586599099999997
 21
-68.5199028400000003
 31
0.0
  0
LINE
  5
1A0
  8
SLD-0_4
  6
CONTINUOUS
 62
     7
 10
-51.0934914400000011
 20
-168.8480437000000052
 30
0.0
 11
-51.0824406799999977
 21
-169.2704669400000057
 31
0.0
  0
LINE
  5
1A1
  8
SLD-0_4
  6
CONTINUOUS
 62
     7
 10
-58.2455232800000005
 20
-145.7376506200000108
 30
0.0
 11
-58.2455232800000005
 21
-150.7059740800000043
 31
0.0
  0
LINE
  5
1A2
  8
SLD-0_4
  6
CONTINUOUS
 62
     7
 10
-51.6013429200000004
 20
-172.3898463099999958
 30
0.0
 11
-51.6941497500000011
 21
-172.4857157900000004
 31
0.0
  0
LINE
  5
1A3
  8
SLD-0_4
  6
CONTINUOUS
 62
     7
 10
-120.2588740599999966
 20
-145.455946780000005
 30
0.0
 11
17.4861964500000013
 21
-145.455946780000005
 31
0.0
  0
LINE
  5
1A4
  8
SLD-0_4
  6
CONTINUOUS
 62
     7
 10
-49.3975929400000027
 20
-56.1995143700000028
 30
0.0
 11
-49.3975929400000027
 21
-68.5199028400000003
 31
0.0
  0
LINE
  5
1A5
  8
SLD-0_4
  6
CONTINUOUS
 62
     7
 10
-76.352749860000003
 20
-56.1995143700000028
 30
0.0
 11
-76.352749860000003
 21
-68.5199028400000003
 31
0.0
  0
LINE
  5
1A6
  8
SLD-0_4
  6
CONTINUOUS
 62
     7
 10
-4.4729695100000004
 20
-56.1995143700000028
 30
0.0
 11
-4.4729695100000004
 21
-68.5199028400000003
 31
0.0
  0
LINE
  5
1A7
  8
SLD-0_4
  6
CONTINUOUS
 62
     7
 10
-94.3203020800000047
 20
-56.1995143700000028
 30
0.0
 11
-94.3203020800000047
 21
-68.5199028400000003
 31
0.0
  0
LINE
  5
1A8
  8
SLD-0_4
  6
CONTINUOUS
 62
     7
 10
-191.2390022399999907
 20
-84.7052672600000136
 30
0.0
 11
-198.7390022399999054
 21
-84.7052672600000136
 31
0.0
  0
LINE
  5
1A9
  8
SLD-0_4
  6
CONTINUOUS
 62
     7
 10
-191.2390022399999907
 20
-127.7052672599999994
 30
0.0
 11
-198.7390022399999054
 21
-127.7052672599999994
 31
0.0
  0
LINE
  5
1AA
  8
SLD-0_4
  6
CONTINUOUS
 62
     7
 10
-201.2390022399999907
 20
-58.7052672599999994
 30
0.0
 11
-198.7390022399999054
 21
-56.2052672599999994
 31
0.0
  0
LINE
  5
1AB
  8
SLD-0_4
  6
CONTINUOUS
 62
     7
 10
-77.2139195200000046
 20
-145.455946780000005
 30
0.0
 11
-77.2139195200000046
 21
-134.7056013700000108
 31
0.0
  0
LINE
  5
1AC
  8
SLD-0_4
  6
CONTINUOUS
 62
     7
 10
-51.1097340099999897
 20
-168.4411073900000133
 30
0.0
 11
-51.0934914400000011
 21
-168.8480437000000052
 31
0.0
  0
LINE
  5
1AD
  8
SLD-0_4
  6
CONTINUOUS
 62
     7
 10
-51.0977736099999902
 20
-170.5393124
 30
0.0
 11
-51.1248244599999992
 21
-170.9323375300000123
 31
0.0
  0
LINE
  5
1AE
  8
SLD-0_4
  6
CONTINUOUS
 62
     7
 10
-51.0828483199999894
 20
-170.1252358799999911
 30
0.0
 11
-51.0977736099999902
 21
-170.5393124
 31
0.0
  0
LINE
  5
1AF
  8
SLD-0_4
  6
CONTINUOUS
 62
     7
 10
-47.0807287000000017
 20
-156.2052788700000008
 30
0.0
 11
-47.0807287000000017
 21
-145.455946780000005
 31
0.0
  0
LINE
  5
1B0
  8
SLD-0_4
  6
CONTINUOUS
 62
     7
 10
-52.4969409899999988
 20
-150.7059740800000043
 30
0.0
 11
-52.4969409899999988
 21
-173.1875617299999988
 31
0.0
  0
LINE
  5
1B1
  8
SLD-0_4
  6
CONTINUOUS
 62
     7
 10
-201.2390022399999907
 20
-153.7052672599999994
 30
0.0
 11
-201.2390022399999907
 21
-137.2052672599999994
 31
0.0
  0
LINE
  5
1B2
  8
SLD-0_4
  6
CONTINUOUS
 62
     7
 10
-52.1577827099999993
 20
-172.5616019299999948
 30
0.0
 11
-52.1770942500000032
 21
-172.5278322100000139
 31
0.0
  0
LINE
  5
1B3
  8
SLD-0_4
  6
CONTINUOUS
 62
     7
 10
-51.2960647499999993
 20
-171.8937586000000124
 30
0.0
 11
-51.3889522200000002
 21
-172.1112322399999925
 31
0.0
  0
LINE
  5
1B4
  8
SLD-0_4
  6
CONTINUOUS
 62
     7
 10
17.4861964500000013
 20
-134.7056013700000108
 30
0.0
 11
-120.2588740599999966
 21
-134.7056013700000108
 31
0.0
  0
LINE
  5
1B5
  8
SLD-0_4
  6
CONTINUOUS
 62
     7
 10
-51.2231937800000026
 20
-166.7934925700000122
 30
0.0
 11
-51.2191448399999985
 21
-166.8362519599999985
 31
0.0
  0
LINE
  5
1B6
  8
SLD-0_4
  6
CONTINUOUS
 62
     7
 10
-85.3365259699999967
 20
-56.1995143700000028
 30
0.0
 11
-85.3365259699999967
 21
-68.5199028400000003
 31
0.0
  0
LINE
  5
1B7
  8
SLD-0_4
  6
CONTINUOUS
 62
     7
 10
276.2609977600000093
 20
-156.2052672599999994
 30
0.0
 11
278.7609977600000093
 21
-153.7052672599999994
 31
0.0
  0
LINE
  5
1B8
  8
SLD-0_4
  6
CONTINUOUS
 62
     7
 10
-191.2390022399999907
 20
-77.7052672599999852
 30
0.0
 11
-198.7390022399999054
 21
-77.7052672599999852
 31
0.0
  0
LINE
  5
1B9
  8
SLD-0_4
  6
CONTINUOUS
 62
     7
 10
-198.7390022399999054
 20
-84.7052672600000136
 30
0.0
 11
-201.2390022399999907
 21
-87.2052672600000136
 31
0.0
  0
LINE
  5
1BA
  8
SLD-0_4
  6
CONTINUOUS
 62
     7
 10
8.8770028700000001
 20
-145.455946780000005
 30
0.0
 11
8.8770028700000001
 21
-134.7056013700000108
 31
0.0
  0
LINE
  5
1BB
  8
SLD-0_4
  6
CONTINUOUS
 62
     7
 10
-52.1917829100000006
 20
-172.4946694100000002
 30
0.0
 11
-52.2023444499999982
 21
-172.4645809900000017
 31
0.0
  0
LINE
  5
1BC
  8
SLD-0_4
  6
CONTINUOUS
 62
     7
 10
276.2609977600000093
 20
-56.2052672599999994
 30
0.0
 11
-198.7390022399999054
 21
-56.2052672599999994
 31
0.0
  0
LINE
  5
1BD
  8
SLD-0_4
  6
CONTINUOUS
 62
     7
 10
-51.1722781799999922
 20
-167.4045659299999897
 30
0.0
 11
-51.1508608199999983
 21
-167.7102339200000074
 31
0.0
  0
LINE
  5
1BE
  8
SLD-0_4
  6
CONTINUOUS
 62
     7
 10
-52.0671532599999978
 20
-172.6418783899999028
 30
0.0
 11
-52.1033079700000101
 21
-172.6210924499999919
 31
0.0
  0
LINE
  5
1BF
  8
SLD-0_4
  6
CONTINUOUS
 62
     7
 10
-65.9944054900000054
 20
-150.7059740800000043
 30
0.0
 11
-67.995718729999993
 21
-145.7376506200000108
 31
0.0
  0
LINE
  5
1C0
  8
SLD-0_4
  6
CONTINUOUS
 62
     7
 10
-51.3889522200000002
 20
-172.1112322399999925
 30
0.0
 11
-51.4984599000000003
 21
-172.2674420699999871
 31
0.0
  0
LINE
  5
1C1
  8
SLD-0_4
  6
CONTINUOUS
 62
     7
 10
-40.4138168300000018
 20
-56.1995143700000028
 30
0.0
 11
-40.4138168300000018
 21
-68.5199028400000003
 31
0.0
  0
LINE
  5
1C2
  8
SLD-0_4
  6
CONTINUOUS
 62
     7
 10
278.7609977600000093
 20
-58.7052672599999994
 30
0.0
 11
276.2609977600000093
 21
-56.2052672599999994
 31
0.0
  0
LINE
  5
1C3
  8
SLD-0_4
  6
CONTINUOUS
 62
     7
 10
-191.2390022399999907
 20
-134.7052672599999994
 30
0.0
 11
-198.7390022399999054
 21
-134.7052672599999994
 31
0.0
  0
LINE
  5
1C4
  8
SLD-0_4
  6
CONTINUOUS
 62
     7
 10
-67.4951370900000001
 20
-173.1875617299999988
 30
0.0
 11
-67.4951370900000001
 21
-150.7059740800000043
 31
0.0
  0
LINE
  5
1C5
  8
SLD-0_4
  6
CONTINUOUS
 62
     7
 10
-51.0783151600000025
 20
-169.6992425299999923
 30
0.0
 11
-51.0828483199999894
 21
-170.1252358799999911
 31
0.0
  0
LINE
  5
1C6
  8
SLD-0_4
  6
CONTINUOUS
 62
     7
 10
-42.7761319099999895
 20
-145.455946780000005
 30
0.0
 11
-42.7761319099999895
 21
-134.7056013700000108
 31
0.0
  0
LINE
  5
1C7
  8
SLD-0_4
  6
CONTINUOUS
 62
     7
 10
-51.9943327000000011
 20
-145.7376506200000108
 30
0.0
 11
-58.2455232800000005
 21
-145.7376506200000108
 31
0.0
  0
LINE
  5
1C8
  8
SLD-0_4
  6
CONTINUOUS
 62
     7
 10
-51.9170707299999918
 20
-172.6387898600000028
 30
0.0
 11
-51.974530399999999
 21
-172.6531945199999996
 31
0.0
  0
LINE
  5
1C9
  8
SLD-0_4
  6
CONTINUOUS
 62
     7
 10
-67.995718729999993
 20
-145.7376506200000108
 30
0.0
 11
-61.7465547999999984
 21
-145.7376506200000108
 31
0.0
  0
LINE
  5
1CA
  8
SLD-0_4
  6
CONTINUOUS
 62
     7
 10
-8.3413842700000007
 20
-145.455946780000005
 30
0.0
 11
-8.3413842700000007
 21
-134.7056013700000108
 31
0.0
  0
LINE
  5
1CB
  8
SLD-0_4
  6
CONTINUOUS
 62
     7
 10
-58.3813690500000035
 20
-56.1995143700000028
 30
0.0
 11
-58.3813690500000035
 21
-68.5199028400000003
 31
0.0
  0
LINE
  5
1CC
  8
SLD-0_4
  6
CONTINUOUS
 62
     7
 10
-52.1333525399999971
 20
-172.5935111400000039
 30
0.0
 11
-52.1577827099999993
 21
-172.5616019299999948
 31
0.0
  0
LINE
  5
1CD
  8
SLD-0_4
  6
CONTINUOUS
 62
     7
 10
21.7907932299999985
 20
-156.2052788700000008
 30
0.0
 11
21.7907932299999985
 21
-145.455946780000005
 31
0.0
  0
LINE
  5
1CE
  8
SLD-0_4
  6
CONTINUOUS
 62
     7
 10
-38.4725484499999979
 20
-156.2052788700000008
 30
0.0
 11
-38.4725484499999979
 21
-145.455946780000005
 31
0.0
  0
LINE
  5
1CF
  8
SLD-0_4
  6
CONTINUOUS
 62
     7
 10
13.1836263099999993
 20
-156.2052788700000008
 30
0.0
 11
13.1836263099999993
 21
-145.455946780000005
 31
0.0
  0
LINE
  5
1D0
  8
SLD-0_4
  6
CONTINUOUS
 62
     7
 10
-51.6941497500000011
 20
-172.4857157900000004
 30
0.0
 11
-51.7773761600000029
 21
-172.5575179100000014
 31
0.0
  0
LINE
  5
1D1
  8
SLD-0_4
  6
CONTINUOUS
 62
     7
 10
-115.9532639499999931
 20
-145.455946780000005
 30
0.0
 11
-115.9532639499999931
 21
-156.2052788700000008
 31
0.0
  0
LINE
  5
1D2
  8
SLD-0_4
  6
CONTINUOUS
 62
     7
 10
-53.9956459499999966
 20
-150.7059740800000043
 30
0.0
 11
-51.9943327000000011
 21
-145.7376506200000108
 31
0.0
  0
LINE
  5
1D3
  8
SLD-0_4
  6
CONTINUOUS
 62
     7
 10
-107.3450837000000035
 20
-156.2052788700000008
 30
0.0
 11
-107.3450837000000035
 21
-145.455946780000005
 31
0.0
  0
LINE
  5
1D4
  8
SLD-0_4
  6
CONTINUOUS
 62
     7
 10
-51.1508608199999983
 20
-167.7102339200000074
 30
0.0
 11
-51.1294349499999896
 21
-168.0587926100000118
 31
0.0
  0
LINE
  5
1D5
  8
SLD-0_4
  6
CONTINUOUS
 62
     7
 10
276.2609977600000093
 20
-77.7052672599999852
 30
0.0
 11
278.7609977600000093
 21
-75.2052672599999852
 31
0.0
  0
LINE
  5
1D6
  8
SLD-0_4
  6
CONTINUOUS
 62
     7
 10
-121.2754589999999979
 20
-68.5199028400000003
 30
0.0
 11
-121.2754589999999979
 21
-56.1995143700000028
 31
0.0
  0
LINE
  5
1D7
  8
SLD-0_4
  6
CONTINUOUS
 62
     7
 10
-201.2390022399999907
 20
-75.2052672599999852
 30
0.0
 11
-201.2390022399999907
 21
-58.7052672599999994
 31
0.0
  0
LINE
  5
1D8
  8
SLD-0_4
  6
CONTINUOUS
 62
     7
 10
-76.2776089200000058
 20
-312.6240913199999909
 30
0.0
 11
-76.2776089200000058
 21
-324.8751683400000161
 31
0.0
  0
LINE
  5
1D9
  8
SLD-0_4
  6
CONTINUOUS
 62
     7
 10
-131.3000432199999921
 20
-340.2067477599999847
 30
0.0
 11
258.7609977600000093
 21
-340.2067477599999847
 31
0.0
  0
LINE
  5
1DA
  8
SLD-0_4
  6
CONTINUOUS
 62
     7
 10
-26.4798688400000017
 20
-324.8751683400000161
 30
0.0
 11
-26.4798688400000017
 21
-312.6240913199999909
 31
0.0
  0
LINE
  5
1DB
  8
SLD-0_4
  6
CONTINUOUS
 62
     7
 10
-59.2770862599999973
 20
-312.6240913199999909
 30
0.0
 11
-59.2770862599999973
 21
-324.8751683400000161
 31
0.0
  0
LINE
  5
1DC
  8
SLD-0_4
  6
CONTINUOUS
 62
     7
 10
-120.2761005600000033
 20
-312.6240913199999909
 30
0.0
 11
-120.2761005600000033
 21
-324.8751683400000161
 31
0.0
  0
LINE
  5
1DD
  8
SLD-0_4
  6
CONTINUOUS
 62
     7
 10
-29.5279449099999987
 20
-324.8751683400000161
 30
0.0
 11
-29.5279449099999987
 21
-337.1242187099999796
 31
0.0
  0
LINE
  5
1DE
  8
SLD-0_4
  6
CONTINUOUS
 62
     7
 10
-0.9785781899999999
 20
-324.8751683400000161
 30
0.0
 11
-0.9785781899999999
 21
-312.6240913199999909
 31
0.0
  0
LINE
  5
1DF
  8
SLD-0_4
  6
CONTINUOUS
 62
     7
 10
-114.5275182700000016
 20
-337.1242187099999796
 30
0.0
 11
21.77052677
 21
-337.1242187099999796
 31
0.0
  0
LINE
  5
1E0
  8
SLD-0_4
  6
CONTINUOUS
 62
     7
 10
-118.7794222499999961
 20
-320.8583553299999949
 30
0.0
 11
15.9803982300000005
 21
-320.8583553299999949
 31
0.0
  0
LINE
  5
1E1
  8
SLD-0_4
  6
CONTINUOUS
 62
     7
 10
3.273325799999999
 20
-337.1242187099999796
 30
0.0
 11
3.273325799999999
 21
-324.8751683400000161
 31
0.0
  0
LINE
  5
1E2
  8
SLD-0_4
  6
CONTINUOUS
 62
     7
 10
-129.3007566199999872
 20
-340.2067477599999847
 30
0.0
 11
-129.3007566199999872
 21
-337.2052845499999876
 31
0.0
  0
LINE
  5
1E3
  8
SLD-0_4
  6
CONTINUOUS
 62
     7
 10
-64.7267382200000014
 20
-337.1242187099999796
 30
0.0
 11
-64.7267382200000014
 21
-324.8751683400000161
 31
0.0
  0
LINE
  5
1E4
  8
SLD-0_4
  6
CONTINUOUS
 62
     7
 10
-60.4788875300000015
 20
-324.8751683400000161
 30
0.0
 11
-60.4788875300000015
 21
-312.6240913199999909
 31
0.0
  0
LINE
  5
1E5
  8
SLD-0_4
  6
CONTINUOUS
 62
     7
 10
-17.9780875299999998
 20
-324.8751683400000161
 30
0.0
 11
-17.9780875299999998
 21
-312.6240913199999909
 31
0.0
  0
LINE
  5
1E6
  8
SLD-0_4
  6
CONTINUOUS
 62
     7
 10
256.7460627400000135
 20
-337.2052845499999876
 30
0.0
 11
256.7460627400000135
 21
-340.2067477599999847
 31
0.0
  0
LINE
  5
1E7
  8
SLD-0_4
  6
CONTINUOUS
 62
     7
 10
-89.0262276100000065
 20
-324.8751683400000161
 30
0.0
 11
-89.0262276100000065
 21
-337.1242187099999796
 31
0.0
  0
LINE
  5
1E8
  8
SLD-0_4
  6
CONTINUOUS
 62
     7
 10
-101.7788995800000009
 20
-312.6240913199999909
 30
0.0
 11
-101.7788995800000009
 21
-324.8751683400000161
 31
0.0
  0
LINE
  5
1E9
  8
SLD-0_4
  6
CONTINUOUS
 62
     7
 10
20.2728351400000015
 20
-324.8751683400000161
 30
0.0
 11
20.2728351400000015
 21
-337.1242187099999796
 31
0.0
  0
LINE
  5
1EA
  8
SLD-0_4
  6
CONTINUOUS
 62
     7
 10
-5.2264288800000003
 20
-337.1242187099999796
 30
0.0
 11
-5.2264288800000003
 21
-324.8751683400000161
 31
0.0
  0
LINE
  5
1EB
  8
SLD-0_4
  6
CONTINUOUS
 62
     7
 10
-39.2274742000000032
 20
-337.1242187099999796
 30
0.0
 11
-39.2274742000000032
 21
-324.8751683400000161
 31
0.0
  0
LINE
  5
1EC
  8
SLD-0_4
  6
CONTINUOUS
 62
     7
 10
-77.477383549999999
 20
-324.8751683400000161
 30
0.0
 11
-77.477383549999999
 21
-312.6240913199999909
 31
0.0
  0
LINE
  5
1ED
  8
SLD-0_4
  6
CONTINUOUS
 62
     7
 10
-85.9771382200000147
 20
-324.8751683400000161
 30
0.0
 11
-85.9771382200000147
 21
-312.6240913199999909
 31
0.0
  0
LINE
  5
1EE
  8
SLD-0_4
  6
CONTINUOUS
 62
     7
 10
-94.4779062100000147
 20
-324.8751683400000161
 30
0.0
 11
-94.4779062100000147
 21
-312.6240913199999909
 31
0.0
  0
LINE
  5
1EF
  8
SLD-0_4
  6
CONTINUOUS
 62
     7
 10
-72.0277315900000019
 20
-324.8751683400000161
 30
0.0
 11
-72.0277315900000019
 21
-337.1242187099999796
 31
0.0
  0
LINE
  5
1F0
  8
SLD-0_4
  6
CONTINUOUS
 62
     7
 10
-22.2259382199999997
 20
-337.1242187099999796
 30
0.0
 11
-22.2259382199999997
 21
-324.8751683400000161
 31
0.0
  0
LINE
  5
1F1
  8
SLD-0_4
  6
CONTINUOUS
 62
     7
 10
-111.4784288799999956
 20
-324.8751683400000161
 30
0.0
 11
-111.4784288799999956
 21
-312.6240913199999909
 31
0.0
  0
LINE
  5
1F2
  8
SLD-0_4
  6
CONTINUOUS
 62
     7
 10
12.9728550899999995
 20
-337.1242187099999796
 30
0.0
 11
12.9728550899999995
 21
-324.8751683400000161
 31
0.0
  0
LINE
  5
1F3
  8
SLD-0_4
  6
CONTINUOUS
 62
     7
 10
-67.7768409300000059
 20
-312.6240913199999909
 30
0.0
 11
-67.7768409300000059
 21
-324.8751683400000161
 31
0.0
  0
LINE
  5
1F4
  8
SLD-0_4
  6
CONTINUOUS
 62
     7
 10
-114.5275182700000016
 20
-324.8751683400000161
 30
0.0
 11
-114.5275182700000016
 21
-337.1242187099999796
 31
0.0
  0
LINE
  5
1F5
  8
SLD-0_4
  6
CONTINUOUS
 62
     7
 10
-129.3007566199999872
 20
-337.2052845499999876
 30
0.0
 11
256.7460627400000135
 21
-337.2052845499999876
 31
0.0
  0
LINE
  5
1F6
  8
SLD-0_4
  6
CONTINUOUS
 62
     7
 10
-63.5269635900000011
 20
-324.8751683400000161
 30
0.0
 11
-63.5269635900000011
 21
-337.1242187099999796
 31
0.0
  0
LINE
  5
1F7
  8
SLD-0_4
  6
CONTINUOUS
 62
     7
 10
-34.979623519999997
 20
-324.8751683400000161
 30
0.0
 11
-34.979623519999997
 21
-312.6240913199999909
 31
0.0
  0
LINE
  5
1F8
  8
SLD-0_4
  6
CONTINUOUS
 62
     7
 10
-9.4783328600000001
 20
-324.8751683400000161
 30
0.0
 11
-9.4783328600000001
 21
-312.6240913199999909
 31
0.0
  0
LINE
  5
1F9
  8
SLD-0_4
  6
CONTINUOUS
 62
     7
 10
-107.2265248899999932
 20
-337.1242187099999796
 30
0.0
 11
-107.2265248899999932
 21
-324.8751683400000161
 31
0.0
  0
LINE
  5
1FA
  8
SLD-0_4
  6
CONTINUOUS
 62
     7
 10
-42.2785902399999927
 20
-312.6240913199999909
 30
0.0
 11
-42.2785902399999927
 21
-324.8751683400000161
 31
0.0
  0
LINE
  5
1FB
  8
SLD-0_4
  6
CONTINUOUS
 62
     7
 10
21.77052677
 20
-312.6240913199999909
 30
0.0
 11
21.77052677
 21
-324.8751683400000161
 31
0.0
  0
LINE
  5
1FC
  8
SLD-0_4
  6
CONTINUOUS
 62
     7
 10
-80.5254596099999844
 20
-324.8751683400000161
 30
0.0
 11
-80.5254596099999844
 21
-337.1242187099999796
 31
0.0
  0
LINE
  5
1FD
  8
SLD-0_4
  6
CONTINUOUS
 62
     7
 10
-16.7762862599999991
 20
-312.6240913199999909
 30
0.0
 11
-16.7762862599999991
 21
-324.8751683400000161
 31
0.0
  0
LINE
  5
1FE
  8
SLD-0_4
  6
CONTINUOUS
 62
     7
 10
-47.7282421999999968
 20
-337.1242187099999796
 30
0.0
 11
-47.7282421999999968
 21
-324.8751683400000161
 31
0.0
  0
LINE
  5
1FF
  8
SLD-0_4
  6
CONTINUOUS
 62
     7
 10
-97.5259822799999938
 20
-324.8751683400000161
 30
0.0
 11
-97.5259822799999938
 21
-337.1242187099999796
 31
0.0
  0
LINE
  5
200
  8
SLD-0_4
  6
CONTINUOUS
 62
     7
 10
-51.9781195300000007
 20
-324.8751683400000161
 30
0.0
 11
-51.9781195300000007
 21
-312.6240913199999909
 31
0.0
  0
LINE
  5
201
  8
SLD-0_4
  6
CONTINUOUS
 62
     7
 10
-118.7794222499999961
 20
-318.9310146799999757
 30
0.0
 11
15.9803982300000005
 21
-318.9310146799999757
 31
0.0
  0
LINE
  5
202
  8
SLD-0_4
  6
CONTINUOUS
 62
     7
 10
-114.5275182700000016
 20
-331.1820916899999929
 30
0.0
 11
20.2343288600000015
 21
-331.1820916899999929
 31
0.0
  0
LINE
  5
203
  8
SLD-0_4
  6
CONTINUOUS
 62
     7
 10
16.0229578000000004
 20
-324.8751683400000161
 30
0.0
 11
16.0229578000000004
 21
-312.6240913199999909
 31
0.0
  0
LINE
  5
204
  8
SLD-0_4
  6
CONTINUOUS
 62
     7
 10
258.7609977600000093
 20
-340.2067477599999847
 30
0.0
 11
258.7609977600000093
 21
-353.2056572600000095
 31
0.0
  0
LINE
  5
205
  8
SLD-0_4
  6
CONTINUOUS
 62
     7
 10
-12.5264089199999997
 20
-324.8751683400000161
 30
0.0
 11
-12.5264089199999997
 21
-337.1242187099999796
 31
0.0
  0
LINE
  5
206
  8
SLD-0_4
  6
CONTINUOUS
 62
     7
 10
-81.7272608800000029
 20
-337.1242187099999796
 30
0.0
 11
-81.7272608800000029
 21
-324.8751683400000161
 31
0.0
  0
LINE
  5
207
  8
SLD-0_4
  6
CONTINUOUS
 62
     7
 10
0.22119644
 20
-312.6240913199999909
 30
0.0
 11
0.22119644
 21
-324.8751683400000161
 31
0.0
  0
LINE
  5
208
  8
SLD-0_4
  6
CONTINUOUS
 62
     7
 10
8.7209511099999997
 20
-312.6240913199999909
 30
0.0
 11
8.7209511099999997
 21
-324.8751683400000161
 31
0.0
  0
LINE
  5
209
  8
SLD-0_4
  6
CONTINUOUS
 62
     7
 10
-102.9786742000000004
 20
-324.8751683400000161
 30
0.0
 11
-102.9786742000000004
 21
-312.6240913199999909
 31
0.0
  0
LINE
  5
20A
  8
SLD-0_4
  6
CONTINUOUS
 62
     7
 10
-38.0276995799999966
 20
-324.8751683400000161
 30
0.0
 11
-38.0276995799999966
 21
-337.1242187099999796
 31
0.0
  0
LINE
  5
20B
  8
SLD-0_4
  6
CONTINUOUS
 62
     7
 10
-90.2280288799999965
 20
-337.1242187099999796
 30
0.0
 11
-90.2280288799999965
 21
-324.8751683400000161
 31
0.0
  0
LINE
  5
20C
  8
SLD-0_4
  6
CONTINUOUS
 62
     7
 10
-120.2761005600000033
 20
-337.1242187099999796
 30
0.0
 11
-120.2761005600000033
 21
-324.8751683400000161
 31
0.0
  0
LINE
  5
20D
  8
SLD-0_4
  6
CONTINUOUS
 62
     7
 10
-55.0272089199999996
 20
-324.8751683400000161
 30
0.0
 11
-55.0272089199999996
 21
-337.1242187099999796
 31
0.0
  0
LINE
  5
20E
  8
SLD-0_4
  6
CONTINUOUS
 62
     7
 10
278.7609977600000093
 20
-351.2056572600000095
 30
0.0
 11
278.7609977600000093
 21
-353.2056572600000095
 31
0.0
  0
LINE
  5
20F
  8
SLD-0_4
  6
CONTINUOUS
 62
     7
 10
7.5232031299999989
 20
-324.8751683400000161
 30
0.0
 11
7.5232031299999989
 21
-312.6240913199999909
 31
0.0
  0
LINE
  5
210
  8
SLD-0_4
  6
CONTINUOUS
 62
     7
 10
4.4710737700000003
 20
-337.1242187099999796
 30
0.0
 11
4.4710737700000003
 21
-324.8751683400000161
 31
0.0
  0
LINE
  5
211
  8
SLD-0_4
  6
CONTINUOUS
 62
     7
 10
-68.9766155500000053
 20
-324.8751683400000161
 30
0.0
 11
-68.9766155500000053
 21
-312.6240913199999909
 31
0.0
  0
LINE
  5
212
  8
SLD-0_4
  6
CONTINUOUS
 62
     7
 10
-50.7783449100000013
 20
-312.6240913199999909
 30
0.0
 11
-50.7783449100000013
 21
-324.8751683400000161
 31
0.0
  0
LINE
  5
213
  8
SLD-0_4
  6
CONTINUOUS
 62
     7
 10
-93.2781315899999868
 20
-312.6240913199999909
 30
0.0
 11
-93.2781315899999868
 21
-324.8751683400000161
 31
0.0
  0
LINE
  5
214
  8
SLD-0_4
  6
CONTINUOUS
 62
     7
 10
-30.7277195300000017
 20
-337.1242187099999796
 30
0.0
 11
-30.7277195300000017
 21
-324.8751683400000161
 31
0.0
  0
LINE
  5
215
  8
SLD-0_4
  6
CONTINUOUS
 62
     7
 10
-110.2786542500000024
 20
-312.6240913199999909
 30
0.0
 11
-110.2786542500000024
 21
-324.8751683400000161
 31
0.0
  0
LINE
  5
216
  8
SLD-0_4
  6
CONTINUOUS
 62
     7
 10
-33.7778222499999998
 20
-312.6240913199999909
 30
0.0
 11
-33.7778222499999998
 21
-324.8751683400000161
 31
0.0
  0
LINE
  5
217
  8
SLD-0_4
  6
CONTINUOUS
 62
     7
 10
12.9748817299999999
 20
-324.8751683400000161
 30
0.0
 11
12.9748817299999999
 21
-337.1242187099999796
 31
0.0
  0
LINE
  5
218
  8
SLD-0_4
  6
CONTINUOUS
 62
     7
 10
-118.7773956000000055
 20
-312.6240913199999909
 30
0.0
 11
-118.7773956000000055
 21
-324.8751683400000161
 31
0.0
  0
LINE
  5
219
  8
SLD-0_4
  6
CONTINUOUS
 62
     7
 10
-4.0266542499999991
 20
-324.8751683400000161
 30
0.0
 11
-4.0266542499999991
 21
-337.1242187099999796
 31
0.0
  0
LINE
  5
21A
  8
SLD-0_4
  6
CONTINUOUS
 62
     7
 10
-21.0281902400000007
 20
-324.8751683400000161
 30
0.0
 11
-21.0281902400000007
 21
-337.1242187099999796
 31
0.0
  0
LINE
  5
21B
  8
SLD-0_4
  6
CONTINUOUS
 62
     7
 10
16.0229578000000004
 20
-312.6240913199999909
 30
0.0
 11
-120.2761005600000033
 21
-312.6240913199999909
 31
0.0
  0
LINE
  5
21C
  8
SLD-0_4
  6
CONTINUOUS
 62
     7
 10
-56.2259702200000007
 20
-337.1242187099999796
 30
0.0
 11
-56.2259702200000007
 21
-324.8751683400000161
 31
0.0
  0
LINE
  5
21D
  8
SLD-0_4
  6
CONTINUOUS
 62
     7
 10
-8.2765315899999994
 20
-312.6240913199999909
 30
0.0
 11
-8.2765315899999994
 21
-324.8751683400000161
 31
0.0
  0
LINE
  5
21E
  8
SLD-0_4
  6
CONTINUOUS
 62
     7
 10
-106.0267502699999937
 20
-324.8751683400000161
 30
0.0
 11
-106.0267502699999937
 21
-337.1242187099999796
 31
0.0
  0
LINE
  5
21F
  8
SLD-0_4
  6
CONTINUOUS
 62
     7
 10
16.0229578000000004
 20
-312.6240913199999909
 30
0.0
 11
21.77052677
 21
-312.6240913199999909
 31
0.0
  0
LINE
  5
220
  8
SLD-0_4
  6
CONTINUOUS
 62
     7
 10
21.77052677
 20
-337.1242187099999796
 30
0.0
 11
21.77052677
 21
-324.8751683400000161
 31
0.0
  0
LINE
  5
221
  8
SLD-0_4
  6
CONTINUOUS
 62
     7
 10
21.77052677
 20
-324.8751683400000161
 30
0.0
 11
-114.5275182700000016
 21
-324.8751683400000161
 31
0.0
  0
LINE
  5
222
  8
SLD-0_4
  6
CONTINUOUS
 62
     7
 10
-73.2264928900000029
 20
-337.1242187099999796
 30
0.0
 11
-73.2264928900000029
 21
-324.8751683400000161
 31
0.0
  0
LINE
  5
223
  8
SLD-0_4
  6
CONTINUOUS
 62
     7
 10
-43.4773515400000008
 20
-324.8751683400000161
 30
0.0
 11
-43.4773515400000008
 21
-312.6240913199999909
 31
0.0
  0
LINE
  5
224
  8
SLD-0_4
  6
CONTINUOUS
 62
     7
 10
-120.2761005600000033
 20
-324.8751683400000161
 30
0.0
 11
16.0229578000000004
 21
-324.8751683400000161
 31
0.0
  0
LINE
  5
225
  8
SLD-0_4
  6
CONTINUOUS
 62
     7
 10
-98.7277835500000123
 20
-337.1242187099999796
 30
0.0
 11
-98.7277835500000123
 21
-324.8751683400000161
 31
0.0
  0
LINE
  5
226
  8
SLD-0_4
  6
CONTINUOUS
 62
     7
 10
278.7609977600000093
 20
-351.2056572600000095
 30
0.0
 11
258.7609977600000093
 21
-351.2056572600000095
 31
0.0
  0
LINE
  5
227
  8
SLD-0_4
  6
CONTINUOUS
 62
     7
 10
4.4731004199999989
 20
-324.8751683400000161
 30
0.0
 11
4.4731004199999989
 21
-337.1242187099999796
 31
0.0
  0
LINE
  5
228
  8
SLD-0_4
  6
CONTINUOUS
 62
     7
 10
-46.5264409299999997
 20
-324.8751683400000161
 30
0.0
 11
-46.5264409299999997
 21
-337.1242187099999796
 31
0.0
  0
LINE
  5
229
  8
SLD-0_4
  6
CONTINUOUS
 62
     7
 10
-13.72618355
 20
-337.1242187099999796
 30
0.0
 11
-13.72618355
 21
-324.8751683400000161
 31
0.0
  0
LINE
  5
22A
  8
SLD-0_4
  6
CONTINUOUS
 62
     7
 10
-131.3000432199999921
 20
-340.2067477599999847
 30
0.0
 11
-131.3000432199999921
 21
-353.2056572600000095
 31
0.0
  0
LINE
  5
22B
  8
SLD-0_4
  6
CONTINUOUS
 62
     7
 10
-25.2780675799999983
 20
-312.6240913199999909
 30
0.0
 11
-25.2780675799999983
 21
-324.8751683400000161
 31
0.0
  0
LINE
  5
22C
  8
SLD-0_4
  6
CONTINUOUS
 62
     7
 10
-84.7783769199999853
 20
-312.6240913199999909
 30
0.0
 11
-84.7783769199999853
 21
-324.8751683400000161
 31
0.0
  0
LINE
  5
22D
  8
SLD-0_4
  6
CONTINUOUS
 62
     7
 10
-114.5275182700000016
 20
-332.8581282000000101
 30
0.0
 11
20.2343288600000015
 21
-332.8581282000000101
 31
0.0
  0
LINE
  5
22E
  8
SLD-0_4
  6
CONTINUOUS
 62
     7
 10
-114.5275182700000016
 20
-337.1242187099999796
 30
0.0
 11
-120.2761005600000033
 21
-337.1242187099999796
 31
0.0
  0
LINE
  5
22F
  8
SLD-0_4
  6
CONTINUOUS
 62
     7
 10
11.77308047
 20
-337.1242187099999796
 30
0.0
 11
11.77308047
 21
-324.8751683400000161
 31
0.0
  0
ARC
  5
230
  8
SLD-0_4
  6
CONTINUOUS
 62
     7
 10
268.7609977600000093
 20
-81.2052672599999852
 30
0.0
 40
3.5
 50
90.0
 51
270.0
  0
ARC
  5
231
  8
SLD-0_4
  6
CONTINUOUS
 62
     7
 10
-191.2390022399999907
 20
-81.2052672599999852
 30
0.0
 40
3.5
 50
270.0
 51
450.0
  0
ARC
  5
232
  8
SLD-0_4
  6
CONTINUOUS
 62
     7
 10
268.7609977600000093
 20
-131.2052672599999994
 30
0.0
 40
3.5
 50
90.0
 51
270.0
  0
ARC
  5
233
  8
SLD-0_4
  6
CONTINUOUS
 62
     7
 10
-191.2390022399999907
 20
-131.2052672599999994
 30
0.0
 40
3.5
 50
270.0
 51
450.0
  0
LINE
  5
234
  8
SLD-0_5
  6
CONTINUOUS
 62
     7
 10
104.307412400000004
 20
-77.7001570999999984
 30
0.0
 11
104.307412400000004
 21
-66.9469646400000045
 31
0.0
  0
LINE
  5
235
  8
SLD-0_5
  6
CONTINUOUS
 62
     7
 10
74.1743563699999982
 20
-66.9469646400000045
 30
0.0
 11
74.1743563699999982
 21
-56.1995143700000028
 31
0.0
  0
LINE
  5
236
  8
SLD-0_5
  6
CONTINUOUS
 62
     7
 10
173.1829690600000049
 20
-77.7001570999999984
 30
0.0
 11
173.1829690600000049
 21
-66.9469646400000045
 31
0.0
  0
LINE
  5
237
  8
SLD-0_5
  6
CONTINUOUS
 62
     7
 10
108.6121346900000049
 20
-66.9469646400000045
 30
0.0
 11
108.6121346900000049
 21
-56.1995143700000028
 31
0.0
  0
LINE
  5
238
  8
SLD-0_5
  6
CONTINUOUS
 62
     7
 10
173.1829690600000049
 20
-66.9469646400000045
 30
0.0
 11
35.4318557499999969
 21
-66.9469646400000045
 31
0.0
  0
LINE
  5
239
  8
SLD-0_5
  6
CONTINUOUS
 62
     7
 10
130.1357461499999886
 20
-77.7001570999999984
 30
0.0
 11
130.1357461499999886
 21
-66.9469646400000045
 31
0.0
  0
LINE
  5
23A
  8
SLD-0_5
  6
CONTINUOUS
 62
     7
 10
151.6574435400000027
 20
-66.9469646400000045
 30
0.0
 11
151.6574435400000027
 21
-56.1995143700000028
 31
0.0
  0
LINE
  5
23B
  8
SLD-0_5
  6
CONTINUOUS
 62
     7
 10
125.8310238600000019
 20
-66.9469646400000045
 30
0.0
 11
125.8310238600000019
 21
-56.1995143700000028
 31
0.0
  0
LINE
  5
23C
  8
SLD-0_5
  6
CONTINUOUS
 62
     7
 10
35.4318557499999969
 20
-77.7001570999999984
 30
0.0
 11
173.1829690600000049
 21
-77.7001570999999984
 31
0.0
  0
LINE
  5
23D
  8
SLD-0_5
  6
CONTINUOUS
 62
     7
 10
117.2215792800000003
 20
-66.9469646400000045
 30
0.0
 11
117.2215792800000003
 21
-56.1995143700000028
 31
0.0
  0
LINE
  5
23E
  8
SLD-0_5
  6
CONTINUOUS
 62
     7
 10
65.5649117800000028
 20
-66.9469646400000045
 30
0.0
 11
65.5649117800000028
 21
-56.1995143700000028
 31
0.0
  0
LINE
  5
23F
  8
SLD-0_5
  6
CONTINUOUS
 62
     7
 10
164.5735244699999953
 20
-77.7001570999999984
 30
0.0
 11
164.5735244699999953
 21
-66.9469646400000045
 31
0.0
  0
LINE
  5
240
  8
SLD-0_5
  6
CONTINUOUS
 62
     7
 10
35.4318557499999969
 20
-66.9469646400000045
 30
0.0
 11
35.4318557499999969
 21
-77.7001570999999984
 31
0.0
  0
LINE
  5
241
  8
SLD-0_5
  6
CONTINUOUS
 62
     7
 10
31.1252193999999989
 20
-66.9469646400000045
 30
0.0
 11
168.8782467700000041
 21
-66.9469646400000045
 31
0.0
  0
LINE
  5
242
  8
SLD-0_5
  6
CONTINUOUS
 62
     7
 10
56.9535531399999968
 20
-66.9469646400000045
 30
0.0
 11
56.9535531399999968
 21
-56.1995143700000028
 31
0.0
  0
LINE
  5
243
  8
SLD-0_5
  6
CONTINUOUS
 62
     7
 10
82.7818868899999956
 20
-66.9469646400000045
 30
0.0
 11
82.7818868899999956
 21
-56.1995143700000028
 31
0.0
  0
LINE
  5
244
  8
SLD-0_5
  6
CONTINUOUS
 62
     7
 10
143.047998960000001
 20
-66.9469646400000045
 30
0.0
 11
143.047998960000001
 21
-56.1995143700000028
 31
0.0
  0
LINE
  5
245
  8
SLD-0_5
  6
CONTINUOUS
 62
     7
 10
52.6526589699999903
 20
-77.7001570999999984
 30
0.0
 11
52.6526589699999903
 21
-66.9469646400000045
 31
0.0
  0
LINE
  5
246
  8
SLD-0_5
  6
CONTINUOUS
 62
     7
 10
35.4318557499999969
 20
-77.7001570999999984
 30
0.0
 11
31.1252193999999989
 21
-77.7001570999999984
 31
0.0
  0
LINE
  5
247
  8
SLD-0_5
  6
CONTINUOUS
 62
     7
 10
160.2649740599999859
 20
-66.9469646400000045
 30
0.0
 11
160.2649740599999859
 21
-56.1995143700000028
 31
0.0
  0
LINE
  5
248
  8
SLD-0_5
  6
CONTINUOUS
 62
     7
 10
39.7327499200000034
 20
-66.9469646400000045
 30
0.0
 11
39.7327499200000034
 21
-56.1995143700000028
 31
0.0
  0
LINE
  5
249
  8
SLD-0_5
  6
CONTINUOUS
 62
     7
 10
31.1252193999999989
 20
-56.1995143700000028
 30
0.0
 11
31.1252193999999989
 21
-66.9469646400000045
 31
0.0
  0
LINE
  5
24A
  8
SLD-0_5
  6
CONTINUOUS
 62
     7
 10
155.9640798899999936
 20
-77.7001570999999984
 30
0.0
 11
155.9640798899999936
 21
-66.9469646400000045
 31
0.0
  0
LINE
  5
24B
  8
SLD-0_5
  6
CONTINUOUS
 62
     7
 10
31.1252193999999989
 20
-77.7001570999999984
 30
0.0
 11
31.1252193999999989
 21
-66.9469646400000045
 31
0.0
  0
LINE
  5
24C
  8
SLD-0_5
  6
CONTINUOUS
 62
     7
 10
173.1829690600000049
 20
-56.1995143700000028
 30
0.0
 11
173.1829690600000049
 21
-66.9469646400000045
 31
0.0
  0
LINE
  5
24D
  8
SLD-0_5
  6
CONTINUOUS
 62
     7
 10
134.4385543799999994
 20
-66.9469646400000045
 30
0.0
 11
134.4385543799999994
 21
-56.1995143700000028
 31
0.0
  0
LINE
  5
24E
  8
SLD-0_5
  6
CONTINUOUS
 62
     7
 10
44.0393862700000014
 20
-77.7001570999999984
 30
0.0
 11
44.0393862700000014
 21
-66.9469646400000045
 31
0.0
  0
LINE
  5
24F
  8
SLD-0_5
  6
CONTINUOUS
 62
     7
 10
91.3913314699999972
 20
-66.9469646400000045
 30
0.0
 11
91.3913314699999972
 21
-56.1995143700000028
 31
0.0
  0
LINE
  5
250
  8
SLD-0_5
  6
CONTINUOUS
 62
     7
 10
100.0007760499999989
 20
-66.9469646400000045
 30
0.0
 11
100.0007760499999989
 21
-56.1995143700000028
 31
0.0
  0
LINE
  5
251
  8
SLD-0_5
  6
CONTINUOUS
 62
     7
 10
121.5263015700000011
 20
-77.7001570999999984
 30
0.0
 11
121.5263015700000011
 21
-66.9469646400000045
 31
0.0
  0
LINE
  5
252
  8
SLD-0_5
  6
CONTINUOUS
 62
     7
 10
48.3460226199999994
 20
-66.9469646400000045
 30
0.0
 11
48.3460226199999994
 21
-56.1995143700000028
 31
0.0
  0
LINE
  5
253
  8
SLD-0_5
  6
CONTINUOUS
 62
     7
 10
87.0885232400000007
 20
-77.7001570999999984
 30
0.0
 11
87.0885232400000007
 21
-66.9469646400000045
 31
0.0
  0
LINE
  5
254
  8
SLD-0_5
  6
CONTINUOUS
 62
     7
 10
112.9168569800000057
 20
-77.7001570999999984
 30
0.0
 11
112.9168569800000057
 21
-66.9469646400000045
 31
0.0
  0
LINE
  5
255
  8
SLD-0_5
  6
CONTINUOUS
 62
     7
 10
61.2582754299999905
 20
-77.7001570999999984
 30
0.0
 11
61.2582754299999905
 21
-66.9469646400000045
 31
0.0
  0
LINE
  5
256
  8
SLD-0_5
  6
CONTINUOUS
 62
     7
 10
168.8782467700000041
 20
-66.9469646400000045
 30
0.0
 11
168.8782467700000041
 21
-56.1995143700000028
 31
0.0
  0
LINE
  5
257
  8
SLD-0_5
  6
CONTINUOUS
 62
     7
 10
147.3527212500000019
 20
-77.7001570999999984
 30
0.0
 11
147.3527212500000019
 21
-66.9469646400000045
 31
0.0
  0
LINE
  5
258
  8
SLD-0_5
  6
CONTINUOUS
 62
     7
 10
138.7432766700000002
 20
-77.7001570999999984
 30
0.0
 11
138.7432766700000002
 21
-66.9469646400000045
 31
0.0
  0
LINE
  5
259
  8
SLD-0_5
  6
CONTINUOUS
 62
     7
 10
69.867720019999993
 20
-77.7001570999999984
 30
0.0
 11
69.867720019999993
 21
-66.9469646400000045
 31
0.0
  0
LINE
  5
25A
  8
SLD-0_5
  6
CONTINUOUS
 62
     7
 10
78.4790786599999848
 20
-77.7001570999999984
 30
0.0
 11
78.4790786599999848
 21
-66.9469646400000045
 31
0.0
  0
LINE
  5
25B
  8
SLD-0_5
  6
CONTINUOUS
 62
     7
 10
95.6979678200000023
 20
-77.7001570999999984
 30
0.0
 11
95.6979678200000023
 21
-66.9469646400000045
 31
0.0
  0
LINE
  5
25C
  8
SLD-0_5
  6
CONTINUOUS
 62
     7
 10
39.7327499200000034
 20
360.7505009999999857
 30
0.0
 11
39.7327499200000034
 21
371.4979512699999873
 31
0.0
  0
LINE
  5
25D
  8
SLD-0_5
  6
CONTINUOUS
 62
     7
 10
104.307412400000004
 20
349.9973085400000059
 30
0.0
 11
104.307412400000004
 21
360.7505009999999857
 31
0.0
  0
LINE
  5
25E
  8
SLD-0_5
  6
CONTINUOUS
 62
     7
 10
31.1252193999999989
 20
371.4979512699999873
 30
0.0
 11
31.1252193999999989
 21
360.7505009999999857
 31
0.0
  0
LINE
  5
25F
  8
SLD-0_5
  6
CONTINUOUS
 62
     7
 10
74.1743563699999982
 20
360.7505009999999857
 30
0.0
 11
74.1743563699999982
 21
371.4979512699999873
 31
0.0
  0
LINE
  5
260
  8
SLD-0_5
  6
CONTINUOUS
 62
     7
 10
155.9640798899999936
 20
349.9973085400000059
 30
0.0
 11
155.9640798899999936
 21
360.7505009999999857
 31
0.0
  0
LINE
  5
261
  8
SLD-0_5
  6
CONTINUOUS
 62
     7
 10
173.1829690600000049
 20
349.9973085400000059
 30
0.0
 11
173.1829690600000049
 21
360.7505009999999857
 31
0.0
  0
LINE
  5
262
  8
SLD-0_5
  6
CONTINUOUS
 62
     7
 10
31.1252193999999989
 20
349.9973085400000059
 30
0.0
 11
31.1252193999999989
 21
360.7505009999999857
 31
0.0
  0
LINE
  5
263
  8
SLD-0_5
  6
CONTINUOUS
 62
     7
 10
108.6121346900000049
 20
360.7505009999999857
 30
0.0
 11
108.6121346900000049
 21
371.4979512699999873
 31
0.0
  0
LINE
  5
264
  8
SLD-0_5
  6
CONTINUOUS
 62
     7
 10
173.1829690600000049
 20
371.4979512699999873
 30
0.0
 11
173.1829690600000049
 21
360.7505009999999857
 31
0.0
  0
LINE
  5
265
  8
SLD-0_5
  6
CONTINUOUS
 62
     7
 10
173.1829690600000049
 20
360.7505009999999857
 30
0.0
 11
35.4318557499999969
 21
360.7505009999999857
 31
0.0
  0
LINE
  5
266
  8
SLD-0_5
  6
CONTINUOUS
 62
     7
 10
134.4385543799999994
 20
360.7505009999999857
 30
0.0
 11
134.4385543799999994
 21
371.4979512699999873
 31
0.0
  0
LINE
  5
267
  8
SLD-0_5
  6
CONTINUOUS
 62
     7
 10
130.1357461499999886
 20
349.9973085400000059
 30
0.0
 11
130.1357461499999886
 21
360.7505009999999857
 31
0.0
  0
LINE
  5
268
  8
SLD-0_5
  6
CONTINUOUS
 62
     7
 10
44.0393862700000014
 20
349.9973085400000059
 30
0.0
 11
44.0393862700000014
 21
360.7505009999999857
 31
0.0
  0
LINE
  5
269
  8
SLD-0_5
  6
CONTINUOUS
 62
     7
 10
151.6574435400000027
 20
360.7505009999999857
 30
0.0
 11
151.6574435400000027
 21
371.4979512699999873
 31
0.0
  0
LINE
  5
26A
  8
SLD-0_5
  6
CONTINUOUS
 62
     7
 10
91.3913314699999972
 20
360.7505009999999857
 30
0.0
 11
91.3913314699999972
 21
371.4979512699999873
 31
0.0
  0
LINE
  5
26B
  8
SLD-0_5
  6
CONTINUOUS
 62
     7
 10
125.8310238600000019
 20
360.7505009999999857
 30
0.0
 11
125.8310238600000019
 21
371.4979512699999873
 31
0.0
  0
LINE
  5
26C
  8
SLD-0_5
  6
CONTINUOUS
 62
     7
 10
100.0007760499999989
 20
360.7505009999999857
 30
0.0
 11
100.0007760499999989
 21
371.4979512699999873
 31
0.0
  0
LINE
  5
26D
  8
SLD-0_5
  6
CONTINUOUS
 62
     7
 10
35.4318557499999969
 20
349.9973085400000059
 30
0.0
 11
173.1829690600000049
 21
349.9973085400000059
 31
0.0
  0
LINE
  5
26E
  8
SLD-0_5
  6
CONTINUOUS
 62
     7
 10
121.5263015700000011
 20
349.9973085400000059
 30
0.0
 11
121.5263015700000011
 21
360.7505009999999857
 31
0.0
  0
LINE
  5
26F
  8
SLD-0_5
  6
CONTINUOUS
 62
     7
 10
117.2215792800000003
 20
360.7505009999999857
 30
0.0
 11
117.2215792800000003
 21
371.4979512699999873
 31
0.0
  0
LINE
  5
270
  8
SLD-0_5
  6
CONTINUOUS
 62
     7
 10
48.3460226199999994
 20
360.7505009999999857
 30
0.0
 11
48.3460226199999994
 21
371.4979512699999873
 31
0.0
  0
LINE
  5
271
  8
SLD-0_5
  6
CONTINUOUS
 62
     7
 10
65.5649117800000028
 20
360.7505009999999857
 30
0.0
 11
65.5649117800000028
 21
371.4979512699999873
 31
0.0
  0
LINE
  5
272
  8
SLD-0_5
  6
CONTINUOUS
 62
     7
 10
87.0885232400000007
 20
349.9973085400000059
 30
0.0
 11
87.0885232400000007
 21
360.7505009999999857
 31
0.0
  0
LINE
  5
273
  8
SLD-0_5
  6
CONTINUOUS
 62
     7
 10
164.5735244699999953
 20
349.9973085400000059
 30
0.0
 11
164.5735244699999953
 21
360.7505009999999857
 31
0.0
  0
LINE
  5
274
  8
SLD-0_5
  6
CONTINUOUS
 62
     7
 10
112.9168569800000057
 20
349.9973085400000059
 30
0.0
 11
112.9168569800000057
 21
360.7505009999999857
 31
0.0
  0
LINE
  5
275
  8
SLD-0_5
  6
CONTINUOUS
 62
     7
 10
35.4318557499999969
 20
360.7505009999999857
 30
0.0
 11
35.4318557499999969
 21
349.9973085400000059
 31
0.0
  0
LINE
  5
276
  8
SLD-0_5
  6
CONTINUOUS
 62
     7
 10
61.2582754299999905
 20
349.9973085400000059
 30
0.0
 11
61.2582754299999905
 21
360.7505009999999857
 31
0.0
  0
LINE
  5
277
  8
SLD-0_5
  6
CONTINUOUS
 62
     7
 10
31.1252193999999989
 20
360.7505009999999857
 30
0.0
 11
168.8782467700000041
 21
360.7505009999999857
 31
0.0
  0
LINE
  5
278
  8
SLD-0_5
  6
CONTINUOUS
 62
     7
 10
168.8782467700000041
 20
360.7505009999999857
 30
0.0
 11
168.8782467700000041
 21
371.4979512699999873
 31
0.0
  0
LINE
  5
279
  8
SLD-0_5
  6
CONTINUOUS
 62
     7
 10
56.9535531399999968
 20
360.7505009999999857
 30
0.0
 11
56.9535531399999968
 21
371.4979512699999873
 31
0.0
  0
LINE
  5
27A
  8
SLD-0_5
  6
CONTINUOUS
 62
     7
 10
147.3527212500000019
 20
349.9973085400000059
 30
0.0
 11
147.3527212500000019
 21
360.7505009999999857
 31
0.0
  0
LINE
  5
27B
  8
SLD-0_5
  6
CONTINUOUS
 62
     7
 10
82.7818868899999956
 20
360.7505009999999857
 30
0.0
 11
82.7818868899999956
 21
371.4979512699999873
 31
0.0
  0
LINE
  5
27C
  8
SLD-0_5
  6
CONTINUOUS
 62
     7
 10
138.7432766700000002
 20
349.9973085400000059
 30
0.0
 11
138.7432766700000002
 21
360.7505009999999857
 31
0.0
  0
LINE
  5
27D
  8
SLD-0_5
  6
CONTINUOUS
 62
     7
 10
143.047998960000001
 20
360.7505009999999857
 30
0.0
 11
143.047998960000001
 21
371.4979512699999873
 31
0.0
  0
LINE
  5
27E
  8
SLD-0_5
  6
CONTINUOUS
 62
     7
 10
69.867720019999993
 20
349.9973085400000059
 30
0.0
 11
69.867720019999993
 21
360.7505009999999857
 31
0.0
  0
LINE
  5
27F
  8
SLD-0_5
  6
CONTINUOUS
 62
     7
 10
52.6526589699999903
 20
349.9973085400000059
 30
0.0
 11
52.6526589699999903
 21
360.7505009999999857
 31
0.0
  0
LINE
  5
280
  8
SLD-0_5
  6
CONTINUOUS
 62
     7
 10
78.4790786599999848
 20
349.9973085400000059
 30
0.0
 11
78.4790786599999848
 21
360.7505009999999857
 31
0.0
  0
LINE
  5
281
  8
SLD-0_5
  6
CONTINUOUS
 62
     7
 10
35.4318557499999969
 20
349.9973085400000059
 30
0.0
 11
31.1252193999999989
 21
349.9973085400000059
 31
0.0
  0
LINE
  5
282
  8
SLD-0_5
  6
CONTINUOUS
 62
     7
 10
95.6979678200000023
 20
349.9973085400000059
 30
0.0
 11
95.6979678200000023
 21
360.7505009999999857
 31
0.0
  0
LINE
  5
283
  8
SLD-0_5
  6
CONTINUOUS
 62
     7
 10
160.2649740599999859
 20
360.7505009999999857
 30
0.0
 11
160.2649740599999859
 21
371.4979512699999873
 31
0.0
  0
LINE
  5
284
  8
SLD-0_2
  6
CONTINUOUS
 62
     7
 10
-201.2390022399999907
 20
-351.2056572600000095
 30
0.0
 11
-201.2390022399999907
 21
-353.2056572600000095
 31
0.0
  0
LINE
  5
285
  8
SLD-0_2
  6
CONTINUOUS
 62
     7
 10
278.7609977600000093
 20
-353.2056572600000095
 30
0.0
 11
-201.2390022399999907
 21
-353.2056572600000095
 31
0.0
  0
LINE
  5
286
  8
SLD-0_2
  6
CONTINUOUS
 62
     7
 10
-131.3000432199999921
 20
-351.2056572600000095
 30
0.0
 11
-201.2390022399999907
 21
-351.2056572600000095
 31
0.0
  0
LINE
  5
287
  8
SLD-0_2
  6
PHANTOM
 62
     7
 10
-181.2390022399999907
 20
-156.2052672599999994
 30
0.0
 11
-181.2390022399999907
 21
-56.2052672599999994
 31
0.0
  0
LINE
  5
288
  8
SLD-0
  6
PHANTOM
 62
     7
 10
-181.2390022399999907
 20
-310.3278488099999777
 30
0.0
 11
-181.2390022399999907
 21
-351.2056572600000095
 31
0.0
  0
LINE
  5
289
  8
SLD-0
  6
PHANTOM
 62
     7
 10
-131.2390022399999907
 20
-310.3278488099999777
 30
0.0
 11
-131.2390022399999907
 21
-340.2067477599999847
 31
0.0
  0
LINE
  5
28A
  8
SLD-0
  6
PHANTOM
 62
     7
 10
201.5683635700000025
 20
358.4921983799999907
 30
0.0
 11
245.5683635700000025
 21
358.4921983799999907
 31
0.0
  0
LINE
  5
28B
  8
SLD-0
  6
PHANTOM
 62
     7
 10
199.5683635700000025
 20
281.4921983799999907
 30
0.0
 11
247.5683635700000025
 21
281.4921983799999907
 31
0.0
  0
LINE
  5
28C
  8
SLD-0
  6
PHANTOM
 62
     7
 10
199.5683635700000025
 20
361.4921983799999907
 30
0.0
 11
247.5683635700000025
 21
361.4921983799999907
 31
0.0
  0
LINE
  5
28D
  8
SLD-0
  6
PHANTOM
 62
     7
 10
245.5683635700000025
 20
284.4921983799999907
 30
0.0
 11
245.5683635700000025
 21
358.4921983799999907
 31
0.0
  0
LINE
  5
28E
  8
SLD-0
  6
PHANTOM
 62
     7
 10
248.5683635700000025
 20
282.4921983799999907
 30
0.0
 11
248.5683635700000025
 21
360.4921983799999907
 31
0.0
  0
LINE
  5
28F
  8
SLD-0
  6
PHANTOM
 62
     7
 10
198.5683635700000025
 20
282.4921983799999907
 30
0.0
 11
198.5683635700000025
 21
360.4921983799999907
 31
0.0
  0
LINE
  5
290
  8
SLD-0
  6
PHANTOM
 62
     7
 10
201.5683635700000025
 20
284.4921983799999907
 30
0.0
 11
245.5683635700000025
 21
284.4921983799999907
 31
0.0
  0
LINE
  5
291
  8
SLD-0
  6
PHANTOM
 62
     7
 10
201.5683635700000025
 20
284.4921983799999907
 30
0.0
 11
201.5683635700000025
 21
358.4921983799999907
 31
0.0
  0
LINE
  5
292
  8
SLD-0
  6
PHANTOM
 62
     7
 10
222.4463321700000051
 20
203.9918083700000011
 30
0.0
 11
238.2603049900000087
 21
203.9918083700000011
 31
0.0
  0
LINE
  5
293
  8
SLD-0
  6
PHANTOM
 62
     7
 10
219.1561940199999867
 20
274.6306814299999814
 30
0.0
 11
227.9772552400000052
 21
274.6306814299999814
 31
0.0
  0
LINE
  5
294
  8
SLD-0
  6
PHANTOM
 62
     7
 10
227.9772552400000052
 20
281.4666210199999909
 30
0.0
 11
227.9772552400000052
 21
274.6306814299999814
 31
0.0
  0
LINE
  5
295
  8
SLD-0
  6
PHANTOM
 62
     7
 10
227.9772552400000052
 20
274.6306814299999814
 30
0.0
 11
231.5764514100000042
 21
281.4921983799999907
 31
0.0
  0
LINE
  5
296
  8
SLD-0
  6
PHANTOM
 62
     7
 10
219.1561940199999867
 20
274.6306814299999814
 30
0.0
 11
219.1561940199999867
 21
281.4921983799999907
 31
0.0
  0
LINE
  5
297
  8
SLD-0
  6
PHANTOM
 62
     7
 10
215.916762690000013
 20
281.4921983799999907
 30
0.0
 11
219.1561940199999867
 21
274.6306814299999814
 31
0.0
  0
LINE
  5
299
  8
SLD-0
  6
PHANTOM
 62
     7
 10
-145.7449664400000131
 20
333.2923606300000188
 30
0.0
 11
-145.7449664400000131
 21
290.8173778199999902
 31
0.0
  0
LINE
  5
29A
  8
SLD-0
  6
PHANTOM
 62
     7
 10
-158.3433092600000123
 20
333.2923606300000188
 30
0.0
 11
-158.3433092600000123
 21
290.8173778199999902
 31
0.0
  0
LINE
  5
29B
  8
SLD-0
  6
PHANTOM
 62
     7
 10
-149.4512146799999925
 20
333.2923606300000188
 30
0.0
 11
-149.4512146799999925
 21
290.8173778199999902
 31
0.0
  0
CIRCLE
  5
29C
  8
SLD-0
  6
PHANTOM
 62
     7
 10
-172.2644849899999997
 20
-66.3571851600000002
 30
0.0
 40
2.6164181399999991
  0
CIRCLE
  5
29D
  8
SLD-0
  6
PHANTOM
 62
     7
 10
223.5683635700000025
 20
364.9347627600000123
 30
0.0
 40
2.50017756
  0
ARC
  5
29E
  8
SLD-0
  6
PHANTOM
 62
     7
 10
247.5683635700000025
 20
360.4921983799999907
 30
0.0
 40
1.0
 50
0.0
 51
90.0
  0
ARC
  5
29F
  8
SLD-0
  6
PHANTOM
 62
     7
 10
247.5683635700000025
 20
282.4921983799999907
 30
0.0
 40
1.0
 50
270.0
 51
360.0
  0
ARC
  5
2A0
  8
SLD-0
  6
PHANTOM
 62
     7
 10
199.5683635700000025
 20
282.4921983799999907
 30
0.0
 40
1.0
 50
180.0
 51
270.0
  0
ARC
  5
2A1
  8
SLD-0
  6
PHANTOM
 62
     7
 10
199.5683635700000025
 20
360.4921983799999907
 30
0.0
 40
1.0
 50
90.0
 51
180.0
  0
CIRCLE
  5
2A2
  8
SLD-0
  6
PHANTOM
 62
     7
 10
223.5683635700000025
 20
278.049633990000018
 30
0.0
 40
2.50017756
  0
CIRCLE
  5
2A3
  8
SLD-0
  6
PHANTOM
 62
     7
 10
-153.8938947700000028
 20
328.6443048500000259
 30
0.0
 40
3.360515739999999
  0
LINE
  5
2A4
  8
SLD-0
  6
CONTINUOUS
 62
     7
 10
-201.2390022399999907
 20
71.9918083799999948
 30
0.0
 11
278.7609977600000093
 21
71.9918083799999948
 31
0.0
  0
LINE
  5
2A5
  8
SLD-0
  6
CONTINUOUS
 62
     7
 10
278.7609977600000093
 20
368.9921983799999907
 30
0.0
 11
276.2609977600000093
 21
371.4921983799999907
 31
0.0
  0
LINE
  5
2A6
  8
SLD-0
  6
CONTINUOUS
 62
     7
 10
-201.2390022399999907
 20
368.9921983799999907
 30
0.0
 11
-198.7390022399999054
 21
371.4921983799999907
 31
0.0
  0
LINE
  5
2A7
  8
SLD-0
  6
CONTINUOUS
 62
     7
 10
276.2609977600000093
 20
271.4921983799999907
 30
0.0
 11
278.7609977600000093
 21
273.9921983799999907
 31
0.0
  0
LINE
  5
2A8
  8
SLD-0
  6
CONTINUOUS
 62
     7
 10
-198.7390022399999054
 20
271.4921983799999907
 30
0.0
 11
-201.2390022399999907
 21
273.9921983799999907
 31
0.0
  0
LINE
  5
2A9
  8
SLD-0_0
  6
CONTINUOUS
 62
     7
 10
-52.4969409899999988
 20
254.5099039199999993
 30
0.0
 11
-67.4951370900000001
 21
254.5099039199999993
 31
0.0
  0
LINE
  5
2AA
  8
SLD-0_0
  6
CONTINUOUS
 62
     7
 10
-51.974530399999999
 20
255.044271110000011
 30
0.0
 11
-52.0243926599999895
 21
255.0440640799999983
 31
0.0
  0
LINE
  5
2AB
  8
SLD-0_0
  6
CONTINUOUS
 62
     7
 10
-107.2265248899999932
 20
88.0732469400000042
 30
0.0
 11
-107.2265248899999932
 21
100.3222973000000025
 31
0.0
  0
LINE
  5
2AC
  8
SLD-0_0
  6
CONTINUOUS
 62
     7
 10
-52.1333525399999971
 20
255.1039544999999862
 30
0.0
 11
-52.1577827099999993
 21
255.1358636999999874
 31
0.0
  0
LINE
  5
2AD
  8
SLD-0_0
  6
CONTINUOUS
 62
     7
 10
21.7907932299999985
 20
271.4921867799999973
 30
0.0
 11
21.7907932299999985
 21
282.2415188699999931
 31
0.0
  0
LINE
  5
2AE
  8
SLD-0_0
  6
CONTINUOUS
 62
     7
 10
-114.5275182700000016
 20
88.0732469400000042
 30
0.0
 11
-120.2761005600000033
 21
88.0732469400000042
 31
0.0
  0
LINE
  5
2AF
  8
SLD-0_0
  6
CONTINUOUS
 62
     7
 10
-52.1033079700000101
 20
255.0763731899999982
 30
0.0
 11
-52.1333525399999971
 21
255.1039544999999862
 31
0.0
  0
LINE
  5
2B0
  8
SLD-0_0
  6
CONTINUOUS
 62
     7
 10
-52.1577827099999993
 20
255.1358636999999874
 30
0.0
 11
-52.1770942500000032
 21
255.1696334300000046
 31
0.0
  0
LINE
  5
2B1
  8
SLD-0_0
  6
CONTINUOUS
 62
     7
 10
-49.4589981600000002
 20
271.5975723799999741
 30
0.0
 11
-49.4589981600000002
 21
261.1400773500000128
 31
0.0
  0
LINE
  5
2B2
  8
SLD-0_0
  6
CONTINUOUS
 62
     7
 10
-47.7282421999999968
 20
88.0732469400000042
 30
0.0
 11
-47.7282421999999968
 21
100.3222973000000025
 31
0.0
  0
LINE
  5
2B3
  8
SLD-0_0
  6
CONTINUOUS
 62
     7
 10
-97.5259822799999938
 20
100.3222973000000025
 30
0.0
 11
-97.5259822799999938
 21
88.0732469400000042
 31
0.0
  0
LINE
  5
2B4
  8
SLD-0_0
  6
CONTINUOUS
 62
     7
 10
278.7609977600000093
 20
73.9918083799999948
 30
0.0
 11
278.7609977600000093
 21
71.9918083799999948
 31
0.0
  0
LINE
  5
2B5
  8
SLD-0_0
  6
CONTINUOUS
 62
     7
 10
-111.4784288799999956
 20
100.3222973000000025
 30
0.0
 11
-111.4784288799999956
 21
112.5733743100000055
 31
0.0
  0
LINE
  5
2B6
  8
SLD-0_0
  6
CONTINUOUS
 62
     7
 10
-60.4788875300000015
 20
100.3222973000000025
 30
0.0
 11
-60.4788875300000015
 21
112.5733743100000055
 31
0.0
  0
LINE
  5
2B7
  8
SLD-0_0
  6
CONTINUOUS
 62
     7
 10
-67.4951370900000001
 20
254.5099039199999993
 30
0.0
 11
-67.4951370900000001
 21
276.9914915699999938
 31
0.0
  0
LINE
  5
2B8
  8
SLD-0_0
  6
CONTINUOUS
 62
     7
 10
-38.4725484499999979
 20
271.4921867799999973
 30
0.0
 11
-38.4725484499999979
 21
282.2415188699999931
 31
0.0
  0
LINE
  5
2B9
  8
SLD-0_0
  6
CONTINUOUS
 62
     7
 10
8.8770028700000001
 20
282.2415188699999931
 30
0.0
 11
8.8770028700000001
 21
292.9918642599999998
 31
0.0
  0
LINE
  5
2BA
  8
SLD-0_0
  6
CONTINUOUS
 62
     7
 10
-93.2781315899999868
 20
112.5733743100000055
 30
0.0
 11
-93.2781315899999868
 21
100.3222973000000025
 31
0.0
  0
LINE
  5
2BB
  8
SLD-0_0
  6
CONTINUOUS
 62
     7
 10
-26.4798688400000017
 20
100.3222973000000025
 30
0.0
 11
-26.4798688400000017
 21
112.5733743100000055
 31
0.0
  0
LINE
  5
2BC
  8
SLD-0_0
  6
CONTINUOUS
 62
     7
 10
-68.603712630000004
 20
282.2415188699999931
 30
0.0
 11
-68.603712630000004
 21
292.9918642599999998
 31
0.0
  0
LINE
  5
2BD
  8
SLD-0_0
  6
CONTINUOUS
 62
     7
 10
-52.1770942500000032
 20
255.1696334300000046
 30
0.0
 11
-52.1917829100000006
 21
255.2027962299999899
 31
0.0
  0
LINE
  5
2BE
  8
SLD-0_0
  6
CONTINUOUS
 62
     7
 10
-51.0934914400000011
 20
258.8494219300000054
 30
0.0
 11
-51.0824406799999977
 21
258.4269986999998991
 31
0.0
  0
LINE
  5
2BF
  8
SLD-0_0
  6
CONTINUOUS
 62
     7
 10
-51.0783151600000025
 20
257.9982231100000263
 30
0.0
 11
-51.0828483199999894
 21
257.5722297600000275
 31
0.0
  0
LINE
  5
2C0
  8
SLD-0_0
  6
CONTINUOUS
 62
     7
 10
-39.2274742000000032
 20
88.0732469400000042
 30
0.0
 11
-39.2274742000000032
 21
100.3222973000000025
 31
0.0
  0
LINE
  5
2C1
  8
SLD-0_0
  6
CONTINUOUS
 62
     7
 10
-52.1917829100000006
 20
255.2027962299999899
 30
0.0
 11
-52.2023444499999982
 21
255.2328846400000089
 31
0.0
  0
LINE
  5
2C2
  8
SLD-0_0
  6
CONTINUOUS
 62
     7
 10
17.4861964500000013
 20
282.2415188699999931
 30
0.0
 11
17.4861964500000013
 21
292.9918642599999998
 31
0.0
  0
LINE
  5
2C3
  8
SLD-0_0
  6
CONTINUOUS
 62
     7
 10
-98.7277835500000123
 20
88.0732469400000042
 30
0.0
 11
-98.7277835500000123
 21
100.3222973000000025
 31
0.0
  0
LINE
  5
2C4
  8
SLD-0_0
  6
CONTINUOUS
 62
     7
 10
-59.2770862599999973
 20
112.5733743100000055
 30
0.0
 11
-59.2770862599999973
 21
100.3222973000000025
 31
0.0
  0
LINE
  5
2C5
  8
SLD-0_0
  6
CONTINUOUS
 62
     7
 10
-58.2455232800000005
 20
281.9598150099999998
 30
0.0
 11
-58.2455232800000005
 21
276.9914915699999938
 31
0.0
  0
LINE
  5
2C6
  8
SLD-0_0
  6
CONTINUOUS
 62
     7
 10
17.4861964500000013
 20
292.9918642599999998
 30
0.0
 11
21.7907932299999985
 21
292.9918642599999998
 31
0.0
  0
LINE
  5
2C7
  8
SLD-0_0
  6
CONTINUOUS
 62
     7
 10
-131.3000432199999921
 20
73.9918083799999948
 30
0.0
 11
-201.2390022399999907
 21
73.9918083799999948
 31
0.0
  0
LINE
  5
2C8
  8
SLD-0_0
  6
CONTINUOUS
 62
     7
 10
13.1836263099999993
 20
271.4921867799999973
 30
0.0
 11
13.1836263099999993
 21
282.2415188699999931
 31
0.0
  0
LINE
  5
2C9
  8
SLD-0_0
  6
CONTINUOUS
 62
     7
 10
-111.648667169999996
 20
282.2415188699999931
 30
0.0
 11
-111.648667169999996
 21
292.9918642599999998
 31
0.0
  0
LINE
  5
2CA
  8
SLD-0_0
  6
CONTINUOUS
 62
     7
 10
21.7907932299999985
 20
292.9918642599999998
 30
0.0
 11
21.7907932299999985
 21
282.2415188699999931
 31
0.0
  0
LINE
  5
2CB
  8
SLD-0_0
  6
CONTINUOUS
 62
     7
 10
-118.7794222499999961
 20
104.3391103099999953
 30
0.0
 11
15.9803982300000005
 21
104.3391103099999953
 31
0.0
  0
LINE
  5
2CC
  8
SLD-0_0
  6
CONTINUOUS
 62
     7
 10
-98.7338634900000045
 20
271.4921867799999973
 30
0.0
 11
-98.7338634900000045
 21
282.2415188699999931
 31
0.0
  0
LINE
  5
2CD
  8
SLD-0_0
  6
CONTINUOUS
 62
     7
 10
-67.4951370900000001
 20
276.9914915699999938
 30
0.0
 11
-52.4969409899999988
 21
276.9914915699999938
 31
0.0
  0
LINE
  5
2CE
  8
SLD-0_0
  6
CONTINUOUS
 62
     7
 10
-52.2092746100000014
 20
255.2574313000000075
 30
0.0
 11
-52.2130691500000026
 21
255.2739687399999866
 31
0.0
  0
LINE
  5
2CF
  8
SLD-0_0
  6
CONTINUOUS
 62
     7
 10
-118.7794222499999961
 20
106.2664509600000002
 30
0.0
 11
15.9803982300000005
 21
106.2664509600000002
 31
0.0
  0
LINE
  5
2D0
  8
SLD-0_0
  6
CONTINUOUS
 62
     7
 10
-90.1256832400000008
 20
271.4921867799999973
 30
0.0
 11
-90.1256832400000008
 21
282.2415188699999931
 31
0.0
  0
LINE
  5
2D1
  8
SLD-0_0
  6
CONTINUOUS
 62
     7
 10
-77.477383549999999
 20
100.3222973000000025
 30
0.0
 11
-77.477383549999999
 21
112.5733743100000055
 31
0.0
  0
LINE
  5
2D2
  8
SLD-0_0
  6
CONTINUOUS
 62
     7
 10
-51.7773761600000029
 20
255.1399477299999887
 30
0.0
 11
-51.8515178999999904
 21
255.0897455100000002
 31
0.0
  0
LINE
  5
2D3
  8
SLD-0_0
  6
CONTINUOUS
 62
     7
 10
-85.9771382200000147
 20
100.3222973000000025
 30
0.0
 11
-85.9771382200000147
 21
112.5733743100000055
 31
0.0
  0
LINE
  5
2D4
  8
SLD-0_0
  6
CONTINUOUS
 62
     7
 10
-8.2765315899999994
 20
112.5733743100000055
 30
0.0
 11
-8.2765315899999994
 21
100.3222973000000025
 31
0.0
  0
LINE
  5
2D5
  8
SLD-0_0
  6
CONTINUOUS
 62
     7
 10
-51.6941497500000011
 20
255.2117498599999976
 30
0.0
 11
-51.7773761600000029
 21
255.1399477299999887
 31
0.0
  0
LINE
  5
2D6
  8
SLD-0_0
  6
CONTINUOUS
 62
     7
 10
-51.386338809999998
 20
282.2415188699999931
 30
0.0
 11
-51.386338809999998
 21
292.9918642599999998
 31
0.0
  0
LINE
  5
2D7
  8
SLD-0_0
  6
CONTINUOUS
 62
     7
 10
-52.2023444499999982
 20
255.2328846400000089
 30
0.0
 11
-52.2092746100000014
 21
255.2574313000000075
 31
0.0
  0
LINE
  5
2D8
  8
SLD-0_0
  6
CONTINUOUS
 62
     7
 10
-25.5597714200000006
 20
282.2415188699999931
 30
0.0
 11
-25.5597714200000006
 21
292.9918642599999998
 31
0.0
  0
LINE
  5
2D9
  8
SLD-0_0
  6
CONTINUOUS
 62
     7
 10
-12.5264089199999997
 20
100.3222973000000025
 30
0.0
 11
-12.5264089199999997
 21
88.0732469400000042
 31
0.0
  0
LINE
  5
2DA
  8
SLD-0_0
  6
CONTINUOUS
 62
     7
 10
-81.7272608800000029
 20
88.0732469400000042
 30
0.0
 11
-81.7272608800000029
 21
100.3222973000000025
 31
0.0
  0
LINE
  5
2DB
  8
SLD-0_0
  6
CONTINUOUS
 62
     7
 10
12.9748817299999999
 20
100.3222973000000025
 30
0.0
 11
12.9748817299999999
 21
88.0732469400000042
 31
0.0
  0
LINE
  5
2DC
  8
SLD-0_0
  6
CONTINUOUS
 62
     7
 10
3.273325799999999
 20
88.0732469400000042
 30
0.0
 11
3.273325799999999
 21
100.3222973000000025
 31
0.0
  0
LINE
  5
2DD
  8
SLD-0_0
  6
CONTINUOUS
 62
     7
 10
-118.7773956000000055
 20
112.5733743100000055
 30
0.0
 11
-118.7773956000000055
 21
100.3222973000000025
 31
0.0
  0
LINE
  5
2DE
  8
SLD-0_0
  6
CONTINUOUS
 62
     7
 10
12.9728550899999995
 20
88.0732469400000042
 30
0.0
 11
12.9728550899999995
 21
100.3222973000000025
 31
0.0
  0
LINE
  5
2DF
  8
SLD-0_0
  6
CONTINUOUS
 62
     7
 10
-120.2588740599999966
 20
292.9918642599999998
 30
0.0
 11
-120.2588740599999966
 21
282.2415188699999931
 31
0.0
  0
LINE
  5
2E0
  8
SLD-0_0
  6
CONTINUOUS
 62
     7
 10
-42.7761319099999895
 20
282.2415188699999931
 30
0.0
 11
-42.7761319099999895
 21
292.9918642599999998
 31
0.0
  0
LINE
  5
2E1
  8
SLD-0_0
  6
CONTINUOUS
 62
     7
 10
-103.0384602700000016
 20
282.2415188699999931
 30
0.0
 11
-103.0384602700000016
 21
292.9918642599999998
 31
0.0
  0
LINE
  5
2E2
  8
SLD-0_0
  6
CONTINUOUS
 62
     7
 10
7.5232031299999989
 20
100.3222973000000025
 30
0.0
 11
7.5232031299999989
 21
112.5733743100000055
 31
0.0
  0
LINE
  5
2E3
  8
SLD-0_0
  6
CONTINUOUS
 62
     7
 10
-51.8515178999999904
 20
255.0897455100000002
 30
0.0
 11
-51.9170707299999918
 21
255.0586757899999952
 31
0.0
  0
LINE
  5
2E4
  8
SLD-0_0
  6
CONTINUOUS
 62
     7
 10
-51.2081536299999982
 20
260.7390252700000133
 30
0.0
 11
-51.1919535999999979
 21
260.5465424299999881
 31
0.0
  0
LINE
  5
2E5
  8
SLD-0_0
  6
CONTINUOUS
 62
     7
 10
-201.2390022399999907
 20
73.9918083799999948
 30
0.0
 11
-201.2390022399999907
 21
71.9918083799999948
 31
0.0
  0
LINE
  5
2E6
  8
SLD-0_0
  6
CONTINUOUS
 62
     7
 10
278.7609977600000093
 20
73.9918083799999948
 30
0.0
 11
258.7609977600000093
 21
73.9918083799999948
 31
0.0
  0
LINE
  5
2E7
  8
SLD-0_0
  6
CONTINUOUS
 62
     7
 10
-106.0267502699999937
 20
100.3222973000000025
 30
0.0
 11
-106.0267502699999937
 21
88.0732469400000042
 31
0.0
  0
LINE
  5
2E8
  8
SLD-0_0
  6
CONTINUOUS
 62
     7
 10
-115.9532639499999931
 20
282.2415188699999931
 30
0.0
 11
-115.9532639499999931
 21
271.4921867799999973
 31
0.0
  0
LINE
  5
2E9
  8
SLD-0_0
  6
CONTINUOUS
 62
     7
 10
-17.9780875299999998
 20
100.3222973000000025
 30
0.0
 11
-17.9780875299999998
 21
112.5733743100000055
 31
0.0
  0
LINE
  5
2EA
  8
SLD-0_0
  6
CONTINUOUS
 62
     7
 10
256.7460627400000135
 20
87.9921810899999883
 30
0.0
 11
256.7460627400000135
 21
84.9907178800000054
 31
0.0
  0
LINE
  5
2EB
  8
SLD-0_0
  6
CONTINUOUS
 62
     7
 10
-77.2139195200000046
 20
282.2415188699999931
 30
0.0
 11
-77.2139195200000046
 21
292.9918642599999998
 31
0.0
  0
LINE
  5
2EC
  8
SLD-0_0
  6
CONTINUOUS
 62
     7
 10
-73.2264928900000029
 20
88.0732469400000042
 30
0.0
 11
-73.2264928900000029
 21
100.3222973000000025
 31
0.0
  0
LINE
  5
2ED
  8
SLD-0_0
  6
CONTINUOUS
 62
     7
 10
-94.4779062100000147
 20
100.3222973000000025
 30
0.0
 11
-94.4779062100000147
 21
112.5733743100000055
 31
0.0
  0
LINE
  5
2EE
  8
SLD-0_0
  6
CONTINUOUS
 62
     7
 10
0.22119644
 20
112.5733743100000055
 30
0.0
 11
0.22119644
 21
100.3222973000000025
 31
0.0
  0
LINE
  5
2EF
  8
SLD-0_0
  6
CONTINUOUS
 62
     7
 10
-43.4773515400000008
 20
100.3222973000000025
 30
0.0
 11
-43.4773515400000008
 21
112.5733743100000055
 31
0.0
  0
LINE
  5
2F0
  8
SLD-0_0
  6
CONTINUOUS
 62
     7
 10
4.4710737700000003
 20
88.0732469400000042
 30
0.0
 11
4.4710737700000003
 21
100.3222973000000025
 31
0.0
  0
LINE
  5
2F1
  8
SLD-0_0
  6
CONTINUOUS
 62
     7
 10
4.4731004199999989
 20
100.3222973000000025
 30
0.0
 11
4.4731004199999989
 21
88.0732469400000042
 31
0.0
  0
LINE
  5
2F2
  8
SLD-0_0
  6
CONTINUOUS
 62
     7
 10
-89.0262276100000065
 20
100.3222973000000025
 30
0.0
 11
-89.0262276100000065
 21
88.0732469400000042
 31
0.0
  0
LINE
  5
2F3
  8
SLD-0_0
  6
CONTINUOUS
 62
     7
 10
-51.2191448399999985
 20
260.8612136899999996
 30
0.0
 11
-51.2081536299999982
 21
260.7390252700000133
 31
0.0
  0
LINE
  5
2F4
  8
SLD-0_0
  6
CONTINUOUS
 62
     7
 10
-46.5264409299999997
 20
100.3222973000000025
 30
0.0
 11
-46.5264409299999997
 21
88.0732469400000042
 31
0.0
  0
LINE
  5
2F5
  8
SLD-0_0
  6
CONTINUOUS
 62
     7
 10
-67.7768409300000059
 20
112.5733743100000055
 30
0.0
 11
-67.7768409300000059
 21
100.3222973000000025
 31
0.0
  0
LINE
  5
2F6
  8
SLD-0_0
  6
CONTINUOUS
 62
     7
 10
-51.1294349499999896
 20
259.6386730199999988
 30
0.0
 11
-51.1097340099999897
 21
259.2563582399999973
 31
0.0
  0
LINE
  5
2F7
  8
SLD-0_0
  6
CONTINUOUS
 62
     7
 10
-101.7788995800000009
 20
112.5733743100000055
 30
0.0
 11
-101.7788995800000009
 21
100.3222973000000025
 31
0.0
  0
LINE
  5
2F8
  8
SLD-0_0
  6
CONTINUOUS
 62
     7
 10
-51.1097340099999897
 20
259.2563582399999973
 30
0.0
 11
-51.0934914400000011
 21
258.8494219300000054
 31
0.0
  0
LINE
  5
2F9
  8
SLD-0_0
  6
CONTINUOUS
 62
     7
 10
-85.8220997699999941
 20
282.2415188699999931
 30
0.0
 11
-85.8220997699999941
 21
292.9918642599999998
 31
0.0
  0
LINE
  5
2FA
  8
SLD-0_0
  6
CONTINUOUS
 62
     7
 10
-53.9956459499999966
 20
276.9914915699999938
 30
0.0
 11
-51.9943327000000011
 21
281.9598150099999998
 31
0.0
  0
LINE
  5
2FB
  8
SLD-0_0
  6
CONTINUOUS
 62
     7
 10
-49.4589981600000002
 20
261.1400773500000128
 30
0.0
 11
-52.4969409899999988
 21
261.1400773500000128
 31
0.0
  0
LINE
  5
2FC
  8
SLD-0_0
  6
CONTINUOUS
 62
     7
 10
-51.0977736099999902
 20
257.1581532399999901
 30
0.0
 11
-51.1248244599999992
 21
256.7651281099999778
 31
0.0
  0
LINE
  5
2FD
  8
SLD-0_0
  6
CONTINUOUS
 62
     7
 10
-42.2785902399999927
 20
112.5733743100000055
 30
0.0
 11
-42.2785902399999927
 21
100.3222973000000025
 31
0.0
  0
LINE
  5
2FE
  8
SLD-0_0
  6
CONTINUOUS
 62
     7
 10
276.2609977600000093
 20
371.4921983799999907
 30
0.0
 11
-198.7390022399999054
 21
371.4921983799999907
 31
0.0
  0
LINE
  5
2FF
  8
SLD-0_0
  6
CONTINUOUS
 62
     7
 10
-107.3450837000000035
 20
271.4921867799999973
 30
0.0
 11
-107.3450837000000035
 21
282.2415188699999931
 31
0.0
  0
LINE
  5
300
  8
SLD-0_0
  6
CONTINUOUS
 62
     7
 10
-114.5275182700000016
 20
94.0153739499999972
 30
0.0
 11
20.2343288600000015
 21
94.0153739499999972
 31
0.0
  0
LINE
  5
301
  8
SLD-0_0
  6
CONTINUOUS
 62
     7
 10
258.7609977600000093
 20
271.4921983799999907
 30
0.0
 11
258.7609977600000093
 21
371.4921983799999907
 31
0.0
  0
LINE
  5
302
  8
SLD-0_0
  6
CONTINUOUS
 62
     7
 10
-114.5275182700000016
 20
100.3222973000000025
 30
0.0
 11
-114.5275182700000016
 21
88.0732469400000042
 31
0.0
  0
LINE
  5
303
  8
SLD-0_0
  6
CONTINUOUS
 62
     7
 10
-51.9943327000000011
 20
281.9598150099999998
 30
0.0
 11
-58.2455232800000005
 21
281.9598150099999998
 31
0.0
  0
LINE
  5
304
  8
SLD-0_0
  6
CONTINUOUS
 62
     7
 10
8.7209511099999997
 20
112.5733743100000055
 30
0.0
 11
8.7209511099999997
 21
100.3222973000000025
 31
0.0
  0
LINE
  5
305
  8
SLD-0_0
  6
CONTINUOUS
 62
     7
 10
20.2728351400000015
 20
100.3222973000000025
 30
0.0
 11
20.2728351400000015
 21
88.0732469400000042
 31
0.0
  0
LINE
  5
306
  8
SLD-0_0
  6
CONTINUOUS
 62
     7
 10
-129.3007566199999872
 20
87.9921810899999883
 30
0.0
 11
256.7460627400000135
 21
87.9921810899999883
 31
0.0
  0
LINE
  5
307
  8
SLD-0_0
  6
CONTINUOUS
 62
     7
 10
-76.2776089200000058
 20
112.5733743100000055
 30
0.0
 11
-76.2776089200000058
 21
100.3222973000000025
 31
0.0
  0
LINE
  5
308
  8
SLD-0_0
  6
CONTINUOUS
 62
     7
 10
-129.3007566199999872
 20
84.9907178800000054
 30
0.0
 11
-129.3007566199999872
 21
87.9921810899999883
 31
0.0
  0
LINE
  5
309
  8
SLD-0_0
  6
CONTINUOUS
 62
     7
 10
16.0229578000000004
 20
112.5733743100000055
 30
0.0
 11
21.77052677
 21
112.5733743100000055
 31
0.0
  0
LINE
  5
30A
  8
SLD-0_0
  6
CONTINUOUS
 62
     7
 10
-63.5269635900000011
 20
100.3222973000000025
 30
0.0
 11
-63.5269635900000011
 21
88.0732469400000042
 31
0.0
  0
LINE
  5
30B
  8
SLD-0_0
  6
CONTINUOUS
 62
     7
 10
-59.9965456999999986
 20
282.2415188699999931
 30
0.0
 11
-59.9965456999999986
 21
292.9918642599999998
 31
0.0
  0
LINE
  5
30C
  8
SLD-0_0
  6
CONTINUOUS
 62
     7
 10
-131.3000432199999921
 20
84.9907178800000054
 30
0.0
 11
258.7609977600000093
 21
84.9907178800000054
 31
0.0
  0
LINE
  5
30D
  8
SLD-0_0
  6
CONTINUOUS
 62
     7
 10
-67.4951370900000001
 20
271.4921983799999907
 30
0.0
 11
-198.7390022399999054
 21
271.4921983799999907
 31
0.0
  0
LINE
  5
30E
  8
SLD-0_0
  6
CONTINUOUS
 62
     7
 10
-51.1722781799999922
 20
260.2928997099999719
 30
0.0
 11
-51.1508608199999983
 21
259.9872317100000032
 31
0.0
  0
LINE
  5
30F
  8
SLD-0_0
  6
CONTINUOUS
 62
     7
 10
-4.0367874800000001
 20
271.4921867799999973
 30
0.0
 11
-4.0367874800000001
 21
282.2415188699999931
 31
0.0
  0
LINE
  5
310
  8
SLD-0_0
  6
CONTINUOUS
 62
     7
 10
-72.9072960900000027
 20
271.4921867799999973
 30
0.0
 11
-72.9072960900000027
 21
282.2415188699999931
 31
0.0
  0
LINE
  5
311
  8
SLD-0_0
  6
CONTINUOUS
 62
     7
 10
21.77052677
 20
112.5733743100000055
 30
0.0
 11
21.77052677
 21
100.3222973000000025
 31
0.0
  0
LINE
  5
312
  8
SLD-0_0
  6
CONTINUOUS
 62
     7
 10
-201.2390022399999907
 20
273.9921983799999907
 30
0.0
 11
-201.2390022399999907
 21
290.4921983799999907
 31
0.0
  0
LINE
  5
313
  8
SLD-0_0
  6
CONTINUOUS
 62
     7
 10
-30.7277195300000017
 20
88.0732469400000042
 30
0.0
 11
-30.7277195300000017
 21
100.3222973000000025
 31
0.0
  0
LINE
  5
314
  8
SLD-0_0
  6
CONTINUOUS
 62
     7
 10
-34.1699783099999976
 20
282.2415188699999931
 30
0.0
 11
-34.1699783099999976
 21
292.9918642599999998
 31
0.0
  0
LINE
  5
315
  8
SLD-0_0
  6
CONTINUOUS
 62
     7
 10
-13.72618355
 20
88.0732469400000042
 30
0.0
 11
-13.72618355
 21
100.3222973000000025
 31
0.0
  0
LINE
  5
316
  8
SLD-0_0
  6
CONTINUOUS
 62
     7
 10
0.2678093
 20
282.2415188699999931
 30
0.0
 11
0.2678093
 21
292.9918642599999998
 31
0.0
  0
LINE
  5
317
  8
SLD-0_0
  6
CONTINUOUS
 62
     7
 10
-4.0266542499999991
 20
100.3222973000000025
 30
0.0
 11
-4.0266542499999991
 21
88.0732469400000042
 31
0.0
  0
LINE
  5
318
  8
SLD-0_0
  6
CONTINUOUS
 62
     7
 10
-120.2761005600000033
 20
112.5733743100000055
 30
0.0
 11
-120.2761005600000033
 21
100.3222973000000025
 31
0.0
  0
LINE
  5
319
  8
SLD-0_0
  6
CONTINUOUS
 62
     7
 10
-102.9786742000000004
 20
100.3222973000000025
 30
0.0
 11
-102.9786742000000004
 21
112.5733743100000055
 31
0.0
  0
LINE
  5
31A
  8
SLD-0_0
  6
CONTINUOUS
 62
     7
 10
-51.0828483199999894
 20
257.5722297600000275
 30
0.0
 11
-51.0977736099999902
 21
257.1581532399999901
 31
0.0
  0
LINE
  5
31B
  8
SLD-0_0
  6
CONTINUOUS
 62
     7
 10
-72.0277315900000019
 20
100.3222973000000025
 30
0.0
 11
-72.0277315900000019
 21
88.0732469400000042
 31
0.0
  0
LINE
  5
31C
  8
SLD-0_0
  6
CONTINUOUS
 62
     7
 10
21.77052677
 20
88.0732469400000042
 30
0.0
 11
21.77052677
 21
100.3222973000000025
 31
0.0
  0
LINE
  5
31D
  8
SLD-0_0
  6
CONTINUOUS
 62
     7
 10
-51.2222365900000014
 20
256.0787704200000121
 30
0.0
 11
-51.2960647499999993
 21
255.8037070299999982
 31
0.0
  0
LINE
  5
31E
  8
SLD-0_0
  6
CONTINUOUS
 62
     7
 10
-51.9170707299999918
 20
255.0586757899999952
 30
0.0
 11
-51.974530399999999
 21
255.044271110000011
 31
0.0
  0
LINE
  5
31F
  8
SLD-0_0
  6
CONTINUOUS
 62
     7
 10
-110.2786542500000024
 20
112.5733743100000055
 30
0.0
 11
-110.2786542500000024
 21
100.3222973000000025
 31
0.0
  0
LINE
  5
320
  8
SLD-0_0
  6
CONTINUOUS
 62
     7
 10
-51.6013429200000004
 20
255.3076193199999864
 30
0.0
 11
-51.6941497500000011
 21
255.2117498599999976
 31
0.0
  0
LINE
  5
321
  8
SLD-0_0
  6
CONTINUOUS
 62
     7
 10
-80.5254596099999844
 20
100.3222973000000025
 30
0.0
 11
-80.5254596099999844
 21
88.0732469400000042
 31
0.0
  0
LINE
  5
322
  8
SLD-0_0
  6
CONTINUOUS
 62
     7
 10
21.7907932299999985
 20
282.2415188699999931
 30
0.0
 11
-115.9532639499999931
 21
282.2415188699999931
 31
0.0
  0
LINE
  5
323
  8
SLD-0_0
  6
CONTINUOUS
 62
     7
 10
-94.4323066699999885
 20
282.2415188699999931
 30
0.0
 11
-94.4323066699999885
 21
292.9918642599999998
 31
0.0
  0
LINE
  5
324
  8
SLD-0_0
  6
CONTINUOUS
 62
     7
 10
-64.7267382200000014
 20
88.0732469400000042
 30
0.0
 11
-64.7267382200000014
 21
100.3222973000000025
 31
0.0
  0
LINE
  5
325
  8
SLD-0_0
  6
CONTINUOUS
 62
     7
 10
-38.0276995799999966
 20
100.3222973000000025
 30
0.0
 11
-38.0276995799999966
 21
88.0732469400000042
 31
0.0
  0
LINE
  5
326
  8
SLD-0_0
  6
CONTINUOUS
 62
     7
 10
-51.2960647499999993
 20
255.8037070299999982
 30
0.0
 11
-51.3889522200000002
 21
255.5862333899999896
 31
0.0
  0
LINE
  5
327
  8
SLD-0_0
  6
CONTINUOUS
 62
     7
 10
-29.5279449099999987
 20
100.3222973000000025
 30
0.0
 11
-29.5279449099999987
 21
88.0732469400000042
 31
0.0
  0
LINE
  5
328
  8
SLD-0_0
  6
CONTINUOUS
 62
     7
 10
4.5724060900000003
 20
271.4921867799999973
 30
0.0
 11
4.5724060900000003
 21
282.2415188699999931
 31
0.0
  0
LINE
  5
329
  8
SLD-0_0
  6
CONTINUOUS
 62
     7
 10
-0.9785781899999999
 20
100.3222973000000025
 30
0.0
 11
-0.9785781899999999
 21
112.5733743100000055
 31
0.0
  0
LINE
  5
32A
  8
SLD-0_0
  6
CONTINUOUS
 62
     7
 10
278.7609977600000093
 20
273.9921983799999907
 30
0.0
 11
278.7609977600000093
 21
290.4921983799999907
 31
0.0
  0
LINE
  5
32B
  8
SLD-0_0
  6
CONTINUOUS
 62
     7
 10
-131.3000432199999921
 20
84.9907178800000054
 30
0.0
 11
-131.3000432199999921
 21
71.9918083799999948
 31
0.0
  0
LINE
  5
32C
  8
SLD-0_0
  6
CONTINUOUS
 62
     7
 10
-120.2588740599999966
 20
271.4921867799999973
 30
0.0
 11
-120.2588740599999966
 21
282.2415188699999931
 31
0.0
  0
LINE
  5
32D
  8
SLD-0_0
  6
CONTINUOUS
 62
     7
 10
-25.2780675799999983
 20
112.5733743100000055
 30
0.0
 11
-25.2780675799999983
 21
100.3222973000000025
 31
0.0
  0
LINE
  5
32E
  8
SLD-0_0
  6
CONTINUOUS
 62
     7
 10
-68.9766155500000053
 20
100.3222973000000025
 30
0.0
 11
-68.9766155500000053
 21
112.5733743100000055
 31
0.0
  0
LINE
  5
32F
  8
SLD-0_0
  6
CONTINUOUS
 62
     7
 10
-51.1657342999999898
 20
256.4022889899999882
 30
0.0
 11
-51.2222365900000014
 21
256.0787704200000121
 31
0.0
  0
LINE
  5
330
  8
SLD-0_0
  6
CONTINUOUS
 62
     7
 10
-52.2130691500000026
 20
255.2739687399999866
 30
0.0
 11
-52.2142238300000017
 21
255.2800295099999914
 31
0.0
  0
LINE
  5
331
  8
SLD-0_0
  6
CONTINUOUS
 62
     7
 10
16.0229578000000004
 20
100.3222973000000025
 30
0.0
 11
16.0229578000000004
 21
112.5733743100000055
 31
0.0
  0
LINE
  5
332
  8
SLD-0_0
  6
CONTINUOUS
 62
     7
 10
-51.4984599000000003
 20
255.430023570000003
 30
0.0
 11
-51.6013429200000004
 21
255.3076193199999864
 31
0.0
  0
LINE
  5
333
  8
SLD-0_0
  6
CONTINUOUS
 62
     7
 10
17.4861964500000013
 20
292.9918642599999998
 30
0.0
 11
-120.2588740599999966
 21
292.9918642599999998
 31
0.0
  0
LINE
  5
334
  8
SLD-0_0
  6
CONTINUOUS
 62
     7
 10
-90.2280288799999965
 20
88.0732469400000042
 30
0.0
 11
-90.2280288799999965
 21
100.3222973000000025
 31
0.0
  0
LINE
  5
335
  8
SLD-0_0
  6
CONTINUOUS
 62
     7
 10
-120.2761005600000033
 20
88.0732469400000042
 30
0.0
 11
-120.2761005600000033
 21
100.3222973000000025
 31
0.0
  0
LINE
  5
336
  8
SLD-0_0
  6
CONTINUOUS
 62
     7
 10
-52.0243926599999895
 20
255.0440640799999983
 30
0.0
 11
-52.0671532599999978
 21
255.0555872500000021
 31
0.0
  0
LINE
  5
337
  8
SLD-0_0
  6
CONTINUOUS
 62
     7
 10
-34.979623519999997
 20
100.3222973000000025
 30
0.0
 11
-34.979623519999997
 21
112.5733743100000055
 31
0.0
  0
LINE
  5
338
  8
SLD-0_0
  6
CONTINUOUS
 62
     7
 10
258.7609977600000093
 20
84.9907178800000054
 30
0.0
 11
258.7609977600000093
 21
71.9918083799999948
 31
0.0
  0
LINE
  5
339
  8
SLD-0_0
  6
CONTINUOUS
 62
     7
 10
-51.2231937800000026
 20
260.9039730700000064
 30
0.0
 11
-51.2191448399999985
 21
260.8612136899999996
 31
0.0
  0
LINE
  5
33A
  8
SLD-0_0
  6
CONTINUOUS
 62
     7
 10
-21.0281902400000007
 20
100.3222973000000025
 30
0.0
 11
-21.0281902400000007
 21
88.0732469400000042
 31
0.0
  0
LINE
  5
33B
  8
SLD-0_0
  6
CONTINUOUS
 62
     7
 10
21.77052677
 20
100.3222973000000025
 30
0.0
 11
-114.5275182700000016
 21
100.3222973000000025
 31
0.0
  0
LINE
  5
33C
  8
SLD-0_0
  6
CONTINUOUS
 62
     7
 10
-22.2259382199999997
 20
88.0732469400000042
 30
0.0
 11
-22.2259382199999997
 21
100.3222973000000025
 31
0.0
  0
LINE
  5
33D
  8
SLD-0_0
  6
CONTINUOUS
 62
     7
 10
-51.1508608199999983
 20
259.9872317100000032
 30
0.0
 11
-51.1294349499999896
 21
259.6386730199999988
 31
0.0
  0
LINE
  5
33E
  8
SLD-0_0
  6
CONTINUOUS
 62
     7
 10
-51.0824406799999977
 20
258.4269986999998991
 30
0.0
 11
-51.0783151600000025
 21
257.9982231100000263
 31
0.0
  0
LINE
  5
33F
  8
SLD-0_0
  6
CONTINUOUS
 62
     7
 10
16.0229578000000004
 20
112.5733743100000055
 30
0.0
 11
-120.2761005600000033
 21
112.5733743100000055
 31
0.0
  0
LINE
  5
340
  8
SLD-0_0
  6
CONTINUOUS
 62
     7
 10
-50.7783449100000013
 20
112.5733743100000055
 30
0.0
 11
-50.7783449100000013
 21
100.3222973000000025
 31
0.0
  0
LINE
  5
341
  8
SLD-0_0
  6
CONTINUOUS
 62
     7
 10
-56.2259702200000007
 20
88.0732469400000042
 30
0.0
 11
-56.2259702200000007
 21
100.3222973000000025
 31
0.0
  0
LINE
  5
342
  8
SLD-0_0
  6
CONTINUOUS
 62
     7
 10
-12.6459810600000004
 20
271.4921867799999973
 30
0.0
 11
-12.6459810600000004
 21
282.2415188699999931
 31
0.0
  0
LINE
  5
343
  8
SLD-0_0
  6
CONTINUOUS
 62
     7
 10
-51.9781195300000007
 20
100.3222973000000025
 30
0.0
 11
-51.9781195300000007
 21
112.5733743100000055
 31
0.0
  0
LINE
  5
344
  8
SLD-0_0
  6
CONTINUOUS
 62
     7
 10
-52.0671532599999978
 20
255.0555872500000021
 30
0.0
 11
-52.1033079700000101
 21
255.0763731899999982
 31
0.0
  0
LINE
  5
345
  8
SLD-0_0
  6
CONTINUOUS
 62
     7
 10
-114.5275182700000016
 20
88.0732469400000042
 30
0.0
 11
21.77052677
 21
88.0732469400000042
 31
0.0
  0
LINE
  5
346
  8
SLD-0_0
  6
CONTINUOUS
 62
     7
 10
-120.2588740599999966
 20
282.2415188699999931
 30
0.0
 11
17.4861964500000013
 21
282.2415188699999931
 31
0.0
  0
LINE
  5
347
  8
SLD-0_0
  6
CONTINUOUS
 62
     7
 10
-67.995718729999993
 20
281.9598150099999998
 30
0.0
 11
-61.7465547999999984
 21
281.9598150099999998
 31
0.0
  0
LINE
  5
348
  8
SLD-0_0
  6
CONTINUOUS
 62
     7
 10
-65.9944054900000054
 20
276.9914915699999938
 30
0.0
 11
-67.995718729999993
 21
281.9598150099999998
 31
0.0
  0
LINE
  5
349
  8
SLD-0_0
  6
CONTINUOUS
 62
     7
 10
-120.2761005600000033
 20
100.3222973000000025
 30
0.0
 11
16.0229578000000004
 21
100.3222973000000025
 31
0.0
  0
LINE
  5
34A
  8
SLD-0_0
  6
CONTINUOUS
 62
     7
 10
-47.0807287000000017
 20
271.4921867799999973
 30
0.0
 11
-47.0807287000000017
 21
282.2415188699999931
 31
0.0
  0
LINE
  5
34B
  8
SLD-0_0
  6
CONTINUOUS
 62
     7
 10
-16.94855119999999
 20
282.2415188699999931
 30
0.0
 11
-16.94855119999999
 21
292.9918642599999998
 31
0.0
  0
LINE
  5
34C
  8
SLD-0_0
  6
CONTINUOUS
 62
     7
 10
-52.4969409899999988
 20
276.9914915699999938
 30
0.0
 11
-52.4969409899999988
 21
254.5099039199999993
 31
0.0
  0
LINE
  5
34D
  8
SLD-0_0
  6
CONTINUOUS
 62
     7
 10
-5.2264288800000003
 20
88.0732469400000042
 30
0.0
 11
-5.2264288800000003
 21
100.3222973000000025
 31
0.0
  0
LINE
  5
34E
  8
SLD-0_0
  6
CONTINUOUS
 62
     7
 10
11.77308047
 20
88.0732469400000042
 30
0.0
 11
11.77308047
 21
100.3222973000000025
 31
0.0
  0
LINE
  5
34F
  8
SLD-0_0
  6
CONTINUOUS
 62
     7
 10
-51.1248244599999992
 20
256.7651281099999778
 30
0.0
 11
-51.1657342999999898
 21
256.4022889899999882
 31
0.0
  0
LINE
  5
350
  8
SLD-0_0
  6
CONTINUOUS
 62
     7
 10
-51.3889522200000002
 20
255.5862333899999896
 30
0.0
 11
-51.4984599000000003
 21
255.430023570000003
 31
0.0
  0
LINE
  5
351
  8
SLD-0_0
  6
CONTINUOUS
 62
     7
 10
-16.7762862599999991
 20
112.5733743100000055
 30
0.0
 11
-16.7762862599999991
 21
100.3222973000000025
 31
0.0
  0
LINE
  5
352
  8
SLD-0_0
  6
CONTINUOUS
 62
     7
 10
-33.7778222499999998
 20
112.5733743100000055
 30
0.0
 11
-33.7778222499999998
 21
100.3222973000000025
 31
0.0
  0
LINE
  5
353
  8
SLD-0_0
  6
CONTINUOUS
 62
     7
 10
-29.8643682000000013
 20
271.4921867799999973
 30
0.0
 11
-29.8643682000000013
 21
282.2415188699999931
 31
0.0
  0
LINE
  5
354
  8
SLD-0_0
  6
CONTINUOUS
 62
     7
 10
-52.4969409899999988
 20
271.5975723799999741
 30
0.0
 11
-49.4589981600000002
 21
271.5975723799999741
 31
0.0
  0
LINE
  5
355
  8
SLD-0_0
  6
CONTINUOUS
 62
     7
 10
-81.517502989999997
 20
271.4921867799999973
 30
0.0
 11
-81.517502989999997
 21
282.2415188699999931
 31
0.0
  0
LINE
  5
356
  8
SLD-0_0
  6
CONTINUOUS
 62
     7
 10
-84.7783769199999853
 20
112.5733743100000055
 30
0.0
 11
-84.7783769199999853
 21
100.3222973000000025
 31
0.0
  0
LINE
  5
357
  8
SLD-0_0
  6
CONTINUOUS
 62
     7
 10
-55.0272089199999996
 20
100.3222973000000025
 30
0.0
 11
-55.0272089199999996
 21
88.0732469400000042
 31
0.0
  0
LINE
  5
358
  8
SLD-0_0
  6
CONTINUOUS
 62
     7
 10
-9.4783328600000001
 20
100.3222973000000025
 30
0.0
 11
-9.4783328600000001
 21
112.5733743100000055
 31
0.0
  0
LINE
  5
359
  8
SLD-0_0
  6
CONTINUOUS
 62
     7
 10
-61.7465547999999984
 20
281.9598150099999998
 30
0.0
 11
-61.7465547999999984
 21
276.9914915699999938
 31
0.0
  0
LINE
  5
35A
  8
SLD-0_0
  6
CONTINUOUS
 62
     7
 10
-114.5275182700000016
 20
92.3393374399999942
 30
0.0
 11
20.2343288600000015
 21
92.3393374399999942
 31
0.0
  0
LINE
  5
35B
  8
SLD-0_0
  6
CONTINUOUS
 62
     7
 10
-51.1919535999999979
 20
260.5465424299999881
 30
0.0
 11
-51.1722781799999922
 21
260.2928997099999719
 31
0.0
  0
LINE
  5
35C
  8
SLD-0_0
  6
CONTINUOUS
 62
     7
 10
-21.2531479800000014
 20
271.4921867799999973
 30
0.0
 11
-21.2531479800000014
 21
282.2415188699999931
 31
0.0
  0
LINE
  5
35D
  8
SLD-0_0
  6
CONTINUOUS
 62
     7
 10
-8.3413842700000007
 20
282.2415188699999931
 30
0.0
 11
-8.3413842700000007
 21
292.9918642599999998
 31
0.0
  0
LINE
  5
35E
  8
SLD-0_0
  6
CONTINUOUS
 62
     7
 10
278.7609977600000093
 20
302.4921983799999907
 30
0.0
 11
278.7609977600000093
 21
340.4921983799999907
 31
0.0
  0
LINE
  5
35F
  8
SLD-0_0
  6
CONTINUOUS
 62
     7
 10
-198.7390022399999054
 20
349.9921983799999907
 30
0.0
 11
-201.2390022399999907
 21
352.4921983799999907
 31
0.0
  0
LINE
  5
360
  8
SLD-0_0
  6
CONTINUOUS
 62
     7
 10
268.7609977600000093
 20
299.9921983799999907
 30
0.0
 11
276.2609977600000093
 21
299.9921983799999907
 31
0.0
  0
LINE
  5
361
  8
SLD-0_0
  6
CONTINUOUS
 62
     7
 10
268.7609977600000093
 20
349.9921983799999907
 30
0.0
 11
276.2609977600000093
 21
349.9921983799999907
 31
0.0
  0
LINE
  5
362
  8
SLD-0_0
  6
CONTINUOUS
 62
     7
 10
-201.2390022399999907
 20
302.4921983799999907
 30
0.0
 11
-201.2390022399999907
 21
340.4921983799999907
 31
0.0
  0
LINE
  5
363
  8
SLD-0_0
  6
CONTINUOUS
 62
     7
 10
276.2609977600000093
 20
292.9921983799999907
 30
0.0
 11
278.7609977600000093
 21
290.4921983799999907
 31
0.0
  0
LINE
  5
364
  8
SLD-0_0
  6
CONTINUOUS
 62
     7
 10
276.2609977600000093
 20
271.4921983799999907
 30
0.0
 11
-49.4589981600000002
 21
271.4921983799999907
 31
0.0
  0
LINE
  5
365
  8
SLD-0_0
  6
CONTINUOUS
 62
     7
 10
276.2609977600000093
 20
299.9921983799999907
 30
0.0
 11
278.7609977600000093
 21
302.4921983799999907
 31
0.0
  0
LINE
  5
366
  8
SLD-0_0
  6
CONTINUOUS
 62
     7
 10
268.7609977600000093
 20
292.9921983799999907
 30
0.0
 11
276.2609977600000093
 21
292.9921983799999907
 31
0.0
  0
LINE
  5
367
  8
SLD-0_0
  6
CONTINUOUS
 62
     7
 10
268.7609977600000093
 20
342.9921983799999907
 30
0.0
 11
276.2609977600000093
 21
342.9921983799999907
 31
0.0
  0
LINE
  5
368
  8
SLD-0_0
  6
CONTINUOUS
 62
     7
 10
-198.7390022399999054
 20
299.9921983799999907
 30
0.0
 11
-201.2390022399999907
 21
302.4921983799999907
 31
0.0
  0
LINE
  5
369
  8
SLD-0_0
  6
CONTINUOUS
 62
     7
 10
276.2609977600000093
 20
349.9921983799999907
 30
0.0
 11
278.7609977600000093
 21
352.4921983799999907
 31
0.0
  0
LINE
  5
36A
  8
SLD-0_0
  6
CONTINUOUS
 62
     7
 10
-191.2390022399999907
 20
342.9921983799999907
 30
0.0
 11
-198.7390022399999054
 21
342.9921983799999907
 31
0.0
  0
LINE
  5
36B
  8
SLD-0_0
  6
CONTINUOUS
 62
     7
 10
-191.2390022399999907
 20
349.9921983799999907
 30
0.0
 11
-198.7390022399999054
 21
349.9921983799999907
 31
0.0
  0
LINE
  5
36C
  8
SLD-0_0
  6
CONTINUOUS
 62
     7
 10
-198.7390022399999054
 20
342.9921983799999907
 30
0.0
 11
-201.2390022399999907
 21
340.4921983799999907
 31
0.0
  0
LINE
  5
36D
  8
SLD-0_0
  6
CONTINUOUS
 62
     7
 10
276.2609977600000093
 20
342.9921983799999907
 30
0.0
 11
278.7609977600000093
 21
340.4921983799999907
 31
0.0
  0
LINE
  5
36E
  8
SLD-0_0
  6
CONTINUOUS
 62
     7
 10
-191.2390022399999907
 20
299.9921983799999907
 30
0.0
 11
-198.7390022399999054
 21
299.9921983799999907
 31
0.0
  0
LINE
  5
36F
  8
SLD-0_0
  6
CONTINUOUS
 62
     7
 10
-198.7390022399999054
 20
292.9921983799999907
 30
0.0
 11
-201.2390022399999907
 21
290.4921983799999907
 31
0.0
  0
LINE
  5
370
  8
SLD-0_0
  6
CONTINUOUS
 62
     7
 10
278.7609977600000093
 20
352.4921983799999907
 30
0.0
 11
278.7609977600000093
 21
368.9921983799999907
 31
0.0
  0
LINE
  5
371
  8
SLD-0_0
  6
CONTINUOUS
 62
     7
 10
-191.2390022399999907
 20
292.9921983799999907
 30
0.0
 11
-198.7390022399999054
 21
292.9921983799999907
 31
0.0
  0
LINE
  5
372
  8
SLD-0_0
  6
CONTINUOUS
 62
     7
 10
-201.2390022399999907
 20
352.4921983799999907
 30
0.0
 11
-201.2390022399999907
 21
368.9921983799999907
 31
0.0
  0
ARC
  5
373
  8
SLD-0_0
  6
CONTINUOUS
 62
     7
 10
-191.2390022399999907
 20
296.4921983799999907
 30
0.0
 40
3.5
 50
270.0
 51
450.0
  0
ARC
  5
374
  8
SLD-0_0
  6
CONTINUOUS
 62
     7
 10
268.7609977600000093
 20
296.4921983799999907
 30
0.0
 40
3.5
 50
90.0
 51
270.0
  0
ARC
  5
375
  8
SLD-0_0
  6
CONTINUOUS
 62
     7
 10
-191.2390022399999907
 20
346.4921983799999907
 30
0.0
 40
3.5
 50
270.0
 51
450.0
  0
ARC
  5
376
  8
SLD-0_0
  6
CONTINUOUS
 62
     7
 10
268.7609977600000093
 20
346.4921983799999907
 30
0.0
 40
3.5
 50
90.0
 51
270.0
  0
LINE
  5
377
  8
SLD-0_0
  6
PHANTOM
 62
     7
 10
-181.2390022399999907
 20
271.4921983799999907
 30
0.0
 11
-181.2390022399999907
 21
371.4921983799999907
 31
0.0
  0
LINE
  5
378
  8
SLD-0_0
  6
PHANTOM
 62
     7
 10
-131.2270839500000079
 20
271.4921983799999907
 30
0.0
 11
-131.2270839500000079
 21
371.4921983799999907
 31
0.0
  0
LINE
  5
379
  8
SLD-0_0
  6
PHANTOM
 62
     7
 10
102.7609977599999951
 20
296.4921983799999907
 30
0.0
 11
102.7609977599999951
 21
344.4921983799999907
 31
0.0
  0
LINE
  5
37A
  8
SLD-0_0
  6
PHANTOM
 62
     7
 10
-50.2390022399999978
 20
296.4921983799999907
 30
0.0
 11
-68.2390022400000049
 21
296.4921983799999907
 31
0.0
  0
LINE
  5
37B
  8
SLD-0_0
  6
PHANTOM
 62
     7
 10
140.7609977600000093
 20
344.4921983799999907
 30
0.0
 11
122.7609977599999951
 21
344.4921983799999907
 31
0.0
  0
LINE
  5
37C
  8
SLD-0_0
  6
PHANTOM
 62
     7
 10
122.7609977599999951
 20
296.4921983799999907
 30
0.0
 11
122.7609977599999951
 21
344.4921983799999907
 31
0.0
  0
LINE
  5
37D
  8
SLD-0_0
  6
PHANTOM
 62
     7
 10
64.7609977599999951
 20
296.4921983799999907
 30
0.0
 11
46.7609977600000022
 21
296.4921983799999907
 31
0.0
  0
LINE
  5
37E
  8
SLD-0_0
  6
PHANTOM
 62
     7
 10
-12.2390022399999996
 20
344.4921983799999907
 30
0.0
 11
-30.2390022400000014
 21
344.4921983799999907
 31
0.0
  0
LINE
  5
37F
  8
SLD-0_0
  6
PHANTOM
 62
     7
 10
-50.2390022399999978
 20
296.4921983799999907
 30
0.0
 11
-50.2390022399999978
 21
344.4921983799999907
 31
0.0
  0
LINE
  5
380
  8
SLD-0_0
  6
PHANTOM
 62
     7
 10
-11.2390022399999996
 20
296.4921983799999907
 30
0.0
 11
-11.2390022399999996
 21
344.4921983799999907
 31
0.0
  0
LINE
  5
381
  8
SLD-0_0
  6
PHANTOM
 62
     7
 10
178.7609977600000093
 20
296.4921983799999907
 30
0.0
 11
160.7609977600000093
 21
296.4921983799999907
 31
0.0
  0
LINE
  5
382
  8
SLD-0_0
  6
PHANTOM
 62
     7
 10
121.7609977599999951
 20
344.4921983799999907
 30
0.0
 11
103.7609977599999951
 21
344.4921983799999907
 31
0.0
  0
LINE
  5
383
  8
SLD-0_0
  6
PHANTOM
 62
     7
 10
-31.2390022400000014
 20
344.4921983799999907
 30
0.0
 11
-49.2390022399999978
 21
344.4921983799999907
 31
0.0
  0
LINE
  5
384
  8
SLD-0_0
  6
PHANTOM
 62
     7
 10
172.1331684399999915
 20
157.2710589300000095
 30
0.0
 11
172.1331684399999915
 21
157.4918083700000011
 31
0.0
  0
LINE
  5
385
  8
SLD-0_0
  6
PHANTOM
 62
     7
 10
-108.5691780800000004
 20
157.2710589300000095
 30
0.0
 11
-108.5691780800000004
 21
157.4918083700000011
 31
0.0
  0
LINE
  5
386
  8
SLD-0_0
  6
PHANTOM
 62
     7
 10
-31.2390022400000014
 20
296.4921983799999907
 30
0.0
 11
-49.2390022399999978
 21
296.4921983799999907
 31
0.0
  0
LINE
  5
387
  8
SLD-0_0
  6
PHANTOM
 62
     7
 10
102.7609977599999951
 20
344.4921983799999907
 30
0.0
 11
84.7609977599999951
 21
344.4921983799999907
 31
0.0
  0
LINE
  5
388
  8
SLD-0_0
  6
PHANTOM
 62
     7
 10
7.7609977600000004
 20
296.4921983799999907
 30
0.0
 11
7.7609977600000004
 21
344.4921983799999907
 31
0.0
  0
LINE
  5
389
  8
SLD-0_0
  6
PHANTOM
 62
     7
 10
-110.0691780800000004
 20
158.9918083700000011
 30
0.0
 11
-112.3668315599999943
 21
158.9918083700000011
 31
0.0
  0
LINE
  5
38A
  8
SLD-0_0
  6
PHANTOM
 62
     7
 10
-125.2390022400000049
 20
157.291808379999992
 30
0.0
 11
-125.2390022400000049
 21
87.9921810899999883
 31
0.0
  0
LINE
  5
38B
  8
SLD-0_0
  6
PHANTOM
 62
     7
 10
121.7609977599999951
 20
296.4921983799999907
 30
0.0
 11
121.7609977599999951
 21
344.4921983799999907
 31
0.0
  0
LINE
  5
38C
  8
SLD-0_0
  6
PHANTOM
 62
     7
 10
6.7609977600000004
 20
344.4921983799999907
 30
0.0
 11
-11.2390022399999996
 21
344.4921983799999907
 31
0.0
  0
LINE
  5
38D
  8
SLD-0_0
  6
PHANTOM
 62
     7
 10
6.7609977600000004
 20
296.4921983799999907
 30
0.0
 11
-11.2390022399999996
 21
296.4921983799999907
 31
0.0
  0
LINE
  5
38E
  8
SLD-0_0
  6
PHANTOM
 62
     7
 10
-49.2390022399999978
 20
296.4921983799999907
 30
0.0
 11
-49.2390022399999978
 21
344.4921983799999907
 31
0.0
  0
LINE
  5
38F
  8
SLD-0_0
  6
PHANTOM
 62
     7
 10
159.7609977600000093
 20
344.4921983799999907
 30
0.0
 11
141.7609977600000093
 21
344.4921983799999907
 31
0.0
  0
LINE
  5
390
  8
SLD-0_0
  6
PHANTOM
 62
     7
 10
-107.2390022400000049
 20
344.4921983799999907
 30
0.0
 11
-125.2390022400000049
 21
344.4921983799999907
 31
0.0
  0
LINE
  5
391
  8
SLD-0_0
  6
PHANTOM
 62
     7
 10
-30.2390022400000014
 20
296.4921983799999907
 30
0.0
 11
-30.2390022400000014
 21
344.4921983799999907
 31
0.0
  0
LINE
  5
392
  8
SLD-0_0
  6
PHANTOM
 62
     7
 10
-12.2390022399999996
 20
296.4921983799999907
 30
0.0
 11
-12.2390022399999996
 21
344.4921983799999907
 31
0.0
  0
LINE
  5
393
  8
SLD-0_0
  6
PHANTOM
 62
     7
 10
45.7609977600000022
 20
296.4921983799999907
 30
0.0
 11
27.7609977599999986
 21
296.4921983799999907
 31
0.0
  0
LINE
  5
394
  8
SLD-0_0
  6
PHANTOM
 62
     7
 10
159.7609977600000093
 20
296.4921983799999907
 30
0.0
 11
141.7609977600000093
 21
296.4921983799999907
 31
0.0
  0
LINE
  5
395
  8
SLD-0_0
  6
PHANTOM
 62
     7
 10
177.4308219199999996
 20
157.2710589300000095
 30
0.0
 11
177.4308219199999996
 21
157.4918083700000011
 31
0.0
  0
LINE
  5
396
  8
SLD-0_0
  6
PHANTOM
 62
     7
 10
160.7609977600000093
 20
157.291808379999992
 30
0.0
 11
160.7609977600000093
 21
87.9921810899999883
 31
0.0
  0
LINE
  5
397
  8
SLD-0_0
  6
PHANTOM
 62
     7
 10
-107.2390022400000049
 20
296.4921983799999907
 30
0.0
 11
-107.2390022400000049
 21
344.4921983799999907
 31
0.0
  0
LINE
  5
398
  8
SLD-0_0
  6
PHANTOM
 62
     7
 10
103.7609977599999951
 20
296.4921983799999907
 30
0.0
 11
103.7609977599999951
 21
344.4921983799999907
 31
0.0
  0
LINE
  5
399
  8
SLD-0_0
  6
PHANTOM
 62
     7
 10
-107.2390022400000049
 20
157.291808379999992
 30
0.0
 11
-125.2390022400000049
 21
157.291808379999992
 31
0.0
  0
LINE
  5
39A
  8
SLD-0_0
  6
PHANTOM
 62
     7
 10
178.7609977600000093
 20
157.291808379999992
 30
0.0
 11
160.7609977600000093
 21
157.291808379999992
 31
0.0
  0
LINE
  5
39B
  8
SLD-0_0
  6
PHANTOM
 62
     7
 10
-88.2390022400000049
 20
296.4921983799999907
 30
0.0
 11
-88.2390022400000049
 21
344.4921983799999907
 31
0.0
  0
LINE
  5
39C
  8
SLD-0_0
  6
PHANTOM
 62
     7
 10
-88.2390022400000049
 20
344.4921983799999907
 30
0.0
 11
-106.2390022400000049
 21
344.4921983799999907
 31
0.0
  0
LINE
  5
39D
  8
SLD-0_0
  6
PHANTOM
 62
     7
 10
-69.2390022400000049
 20
296.4921983799999907
 30
0.0
 11
-87.2390022400000049
 21
296.4921983799999907
 31
0.0
  0
LINE
  5
39E
  8
SLD-0_0
  6
PHANTOM
 62
     7
 10
46.7609977600000022
 20
296.4921983799999907
 30
0.0
 11
46.7609977600000022
 21
344.4921983799999907
 31
0.0
  0
LINE
  5
39F
  8
SLD-0_0
  6
PHANTOM
 62
     7
 10
25.7609977599999986
 20
296.4921983799999907
 30
0.0
 11
25.7609977599999986
 21
344.4921983799999907
 31
0.0
  0
LINE
  5
3A0
  8
SLD-0_0
  6
PHANTOM
 62
     7
 10
64.7609977599999951
 20
344.4921983799999907
 30
0.0
 11
46.7609977600000022
 21
344.4921983799999907
 31
0.0
  0
LINE
  5
3A1
  8
SLD-0_0
  6
PHANTOM
 62
     7
 10
159.7609977600000093
 20
296.4921983799999907
 30
0.0
 11
159.7609977600000093
 21
344.4921983799999907
 31
0.0
  0
LINE
  5
3A2
  8
SLD-0_0
  6
PHANTOM
 62
     7
 10
84.7609977599999951
 20
296.4921983799999907
 30
0.0
 11
84.7609977599999951
 21
344.4921983799999907
 31
0.0
  0
LINE
  5
3A3
  8
SLD-0_0
  6
PHANTOM
 62
     7
 10
83.7609977599999951
 20
344.4921983799999907
 30
0.0
 11
65.7609977599999951
 21
344.4921983799999907
 31
0.0
  0
LINE
  5
3A4
  8
SLD-0_0
  6
PHANTOM
 62
     7
 10
64.7609977599999951
 20
296.4921983799999907
 30
0.0
 11
64.7609977599999951
 21
344.4921983799999907
 31
0.0
  0
LINE
  5
3A5
  8
SLD-0_0
  6
PHANTOM
 62
     7
 10
-88.2390022400000049
 20
296.4921983799999907
 30
0.0
 11
-106.2390022400000049
 21
296.4921983799999907
 31
0.0
  0
LINE
  5
3A6
  8
SLD-0_0
  6
PHANTOM
 62
     7
 10
-12.2390022399999996
 20
296.4921983799999907
 30
0.0
 11
-30.2390022400000014
 21
296.4921983799999907
 31
0.0
  0
LINE
  5
3A7
  8
SLD-0_0
  6
PHANTOM
 62
     7
 10
45.7609977600000022
 20
344.4921983799999907
 30
0.0
 11
27.7609977599999986
 21
344.4921983799999907
 31
0.0
  0
LINE
  5
3A8
  8
SLD-0_0
  6
PHANTOM
 62
     7
 10
45.7609977600000022
 20
296.4921983799999907
 30
0.0
 11
45.7609977600000022
 21
344.4921983799999907
 31
0.0
  0
LINE
  5
3A9
  8
SLD-0_0
  6
PHANTOM
 62
     7
 10
141.7609977600000093
 20
296.4921983799999907
 30
0.0
 11
141.7609977600000093
 21
344.4921983799999907
 31
0.0
  0
LINE
  5
3AA
  8
SLD-0_0
  6
PHANTOM
 62
     7
 10
-50.2390022399999978
 20
344.4921983799999907
 30
0.0
 11
-68.2390022400000049
 21
344.4921983799999907
 31
0.0
  0
LINE
  5
3AB
  8
SLD-0_0
  6
PHANTOM
 62
     7
 10
178.7609977600000093
 20
296.4921983799999907
 30
0.0
 11
178.7609977600000093
 21
344.4921983799999907
 31
0.0
  0
LINE
  5
3AC
  8
SLD-0_0
  6
PHANTOM
 62
     7
 10
25.7609977599999986
 20
296.4921983799999907
 30
0.0
 11
7.7609977600000004
 21
296.4921983799999907
 31
0.0
  0
LINE
  5
3AD
  8
SLD-0_0
  6
PHANTOM
 62
     7
 10
-107.2390022400000049
 20
157.291808379999992
 30
0.0
 11
-107.2390022400000049
 21
112.5733743100000055
 31
0.0
  0
LINE
  5
3AE
  8
SLD-0_0
  6
PHANTOM
 62
     7
 10
140.7609977600000093
 20
296.4921983799999907
 30
0.0
 11
122.7609977599999951
 21
296.4921983799999907
 31
0.0
  0
LINE
  5
3AF
  8
SLD-0_0
  6
PHANTOM
 62
     7
 10
-107.2390022400000049
 20
296.4921983799999907
 30
0.0
 11
-125.2390022400000049
 21
296.4921983799999907
 31
0.0
  0
LINE
  5
3B0
  8
SLD-0_0
  6
PHANTOM
 62
     7
 10
65.7609977599999951
 20
296.4921983799999907
 30
0.0
 11
65.7609977599999951
 21
344.4921983799999907
 31
0.0
  0
LINE
  5
3B1
  8
SLD-0_0
  6
PHANTOM
 62
     7
 10
160.7609977600000093
 20
296.4921983799999907
 30
0.0
 11
160.7609977600000093
 21
344.4921983799999907
 31
0.0
  0
LINE
  5
3B2
  8
SLD-0_0
  6
PHANTOM
 62
     7
 10
-69.2390022400000049
 20
296.4921983799999907
 30
0.0
 11
-69.2390022400000049
 21
344.4921983799999907
 31
0.0
  0
LINE
  5
3B3
  8
SLD-0_0
  6
PHANTOM
 62
     7
 10
178.7609977600000093
 20
157.291808379999992
 30
0.0
 11
178.7609977600000093
 21
87.9921810899999883
 31
0.0
  0
LINE
  5
3B4
  8
SLD-0_0
  6
PHANTOM
 62
     7
 10
-31.2390022400000014
 20
296.4921983799999907
 30
0.0
 11
-31.2390022400000014
 21
344.4921983799999907
 31
0.0
  0
LINE
  5
3B5
  8
SLD-0_0
  6
PHANTOM
 62
     7
 10
83.7609977599999951
 20
296.4921983799999907
 30
0.0
 11
83.7609977599999951
 21
344.4921983799999907
 31
0.0
  0
LINE
  5
3B6
  8
SLD-0_0
  6
PHANTOM
 62
     7
 10
-113.8668315599999943
 20
157.2710589300000095
 30
0.0
 11
-113.8668315599999943
 21
157.4918083700000011
 31
0.0
  0
LINE
  5
3B7
  8
SLD-0_0
  6
PHANTOM
 62
     7
 10
140.7609977600000093
 20
296.4921983799999907
 30
0.0
 11
140.7609977600000093
 21
344.4921983799999907
 31
0.0
  0
LINE
  5
3B8
  8
SLD-0_0
  6
PHANTOM
 62
     7
 10
-125.2390022400000049
 20
296.4921983799999907
 30
0.0
 11
-125.2390022400000049
 21
344.4921983799999907
 31
0.0
  0
LINE
  5
3B9
  8
SLD-0_0
  6
PHANTOM
 62
     7
 10
102.7609977599999951
 20
296.4921983799999907
 30
0.0
 11
84.7609977599999951
 21
296.4921983799999907
 31
0.0
  0
LINE
  5
3BA
  8
SLD-0_0
  6
PHANTOM
 62
     7
 10
-68.2390022400000049
 20
296.4921983799999907
 30
0.0
 11
-68.2390022400000049
 21
344.4921983799999907
 31
0.0
  0
LINE
  5
3BB
  8
SLD-0_0
  6
PHANTOM
 62
     7
 10
-69.2390022400000049
 20
344.4921983799999907
 30
0.0
 11
-87.2390022400000049
 21
344.4921983799999907
 31
0.0
  0
LINE
  5
3BC
  8
SLD-0_0
  6
PHANTOM
 62
     7
 10
178.7609977600000093
 20
344.4921983799999907
 30
0.0
 11
160.7609977600000093
 21
344.4921983799999907
 31
0.0
  0
LINE
  5
3BD
  8
SLD-0_0
  6
PHANTOM
 62
     7
 10
-87.2390022400000049
 20
296.4921983799999907
 30
0.0
 11
-87.2390022400000049
 21
344.4921983799999907
 31
0.0
  0
LINE
  5
3BE
  8
SLD-0_0
  6
PHANTOM
 62
     7
 10
27.7609977599999986
 20
296.4921983799999907
 30
0.0
 11
27.7609977599999986
 21
344.4921983799999907
 31
0.0
  0
LINE
  5
3BF
  8
SLD-0_0
  6
PHANTOM
 62
     7
 10
25.7609977599999986
 20
344.4921983799999907
 30
0.0
 11
7.7609977600000004
 21
344.4921983799999907
 31
0.0
  0
LINE
  5
3C0
  8
SLD-0_0
  6
PHANTOM
 62
     7
 10
175.9308219199999996
 20
158.9918083700000011
 30
0.0
 11
173.6331684399999915
 21
158.9918083700000011
 31
0.0
  0
LINE
  5
3C1
  8
SLD-0_0
  6
PHANTOM
 62
     7
 10
121.7609977599999951
 20
296.4921983799999907
 30
0.0
 11
103.7609977599999951
 21
296.4921983799999907
 31
0.0
  0
LINE
  5
3C2
  8
SLD-0_0
  6
PHANTOM
 62
     7
 10
-106.2390022400000049
 20
296.4921983799999907
 30
0.0
 11
-106.2390022400000049
 21
344.4921983799999907
 31
0.0
  0
LINE
  5
3C3
  8
SLD-0_0
  6
PHANTOM
 62
     7
 10
83.7609977599999951
 20
296.4921983799999907
 30
0.0
 11
65.7609977599999951
 21
296.4921983799999907
 31
0.0
  0
LINE
  5
3C4
  8
SLD-0_0
  6
PHANTOM
 62
     7
 10
6.7609977600000004
 20
296.4921983799999907
 30
0.0
 11
6.7609977600000004
 21
344.4921983799999907
 31
0.0
  0
ARC
  5
3C5
  8
SLD-0_0
  6
PHANTOM
 62
     7
 10
175.9308219199999996
 20
157.4918083700000011
 30
0.0
 40
1.5
 50
0.0
 51
90.0
  0
ARC
  5
3C6
  8
SLD-0_0
  6
PHANTOM
 62
     7
 10
173.6331684399999915
 20
157.4918083700000011
 30
0.0
 40
1.5
 50
90.0
 51
180.0
  0
ARC
  5
3C7
  8
SLD-0_0
  6
PHANTOM
 62
     7
 10
-110.0691780800000004
 20
157.4918083700000011
 30
0.0
 40
1.5
 50
0.0
 51
90.0
  0
ARC
  5
3C8
  8
SLD-0_0
  6
PHANTOM
 62
     7
 10
-112.3668315599999943
 20
157.4918083700000011
 30
0.0
 40
1.5
 50
90.0
 51
180.0
  0
LINE
  5
3C9
  8
SLD-0_3
  6
CONTINUOUS
 62
     7
 10
13.4945827200000004
 20
371.4979512699999873
 30
0.0
 11
13.4945827200000004
 21
359.1775627999999756
 31
0.0
  0
LINE
  5
3CA
  8
SLD-0_3
  6
CONTINUOUS
 62
     7
 10
-22.4424360199999988
 20
371.4979512699999873
 30
0.0
 11
-22.4424360199999988
 21
359.1775627999999756
 31
0.0
  0
LINE
  5
3CB
  8
SLD-0_3
  6
CONTINUOUS
 62
     7
 10
-103.3059924800000005
 20
371.4979512699999873
 30
0.0
 11
-103.3059924800000005
 21
359.1775627999999756
 31
0.0
  0
LINE
  5
3CC
  8
SLD-0_3
  6
CONTINUOUS
 62
     7
 10
-49.3975929400000027
 20
371.4979512699999873
 30
0.0
 11
-49.3975929400000027
 21
359.1775627999999756
 31
0.0
  0
LINE
  5
3CD
  8
SLD-0_3
  6
CONTINUOUS
 62
     7
 10
-58.3813690500000035
 20
371.4979512699999873
 30
0.0
 11
-58.3813690500000035
 21
359.1775627999999756
 31
0.0
  0
LINE
  5
3CE
  8
SLD-0_3
  6
CONTINUOUS
 62
     7
 10
22.4802731199999997
 20
359.1775627999999756
 30
0.0
 11
-121.2754589999999979
 21
359.1775627999999756
 31
0.0
  0
LINE
  5
3CF
  8
SLD-0_3
  6
CONTINUOUS
 62
     7
 10
-67.3670594499999993
 20
371.4979512699999873
 30
0.0
 11
-67.3670594499999993
 21
359.1775627999999756
 31
0.0
  0
LINE
  5
3D0
  8
SLD-0_3
  6
CONTINUOUS
 62
     7
 10
-13.4586599099999997
 20
371.4979512699999873
 30
0.0
 11
-13.4586599099999997
 21
359.1775627999999756
 31
0.0
  0
LINE
  5
3D1
  8
SLD-0_3
  6
CONTINUOUS
 62
     7
 10
-76.352749860000003
 20
371.4979512699999873
 30
0.0
 11
-76.352749860000003
 21
359.1775627999999756
 31
0.0
  0
LINE
  5
3D2
  8
SLD-0_3
  6
CONTINUOUS
 62
     7
 10
-31.4262121299999997
 20
371.4979512699999873
 30
0.0
 11
-31.4262121299999997
 21
359.1775627999999756
 31
0.0
  0
LINE
  5
3D3
  8
SLD-0_3
  6
CONTINUOUS
 62
     7
 10
-4.4729695100000004
 20
371.4979512699999873
 30
0.0
 11
-4.4729695100000004
 21
359.1775627999999756
 31
0.0
  0
LINE
  5
3D4
  8
SLD-0_3
  6
CONTINUOUS
 62
     7
 10
-112.2916828900000041
 20
371.4979512699999873
 30
0.0
 11
-112.2916828900000041
 21
359.1775627999999756
 31
0.0
  0
LINE
  5
3D5
  8
SLD-0_3
  6
CONTINUOUS
 62
     7
 10
-121.2754589999999979
 20
359.1775627999999756
 30
0.0
 11
-121.2754589999999979
 21
371.4979512699999873
 31
0.0
  0
LINE
  5
3D6
  8
SLD-0_3
  6
CONTINUOUS
 62
     7
 10
22.4802731199999997
 20
371.4979512699999873
 30
0.0
 11
22.4802731199999997
 21
359.1775627999999756
 31
0.0
  0
LINE
  5
3D7
  8
SLD-0_3
  6
CONTINUOUS
 62
     7
 10
-85.3365259699999967
 20
371.4979512699999873
 30
0.0
 11
-85.3365259699999967
 21
359.1775627999999756
 31
0.0
  0
LINE
  5
3D8
  8
SLD-0_3
  6
CONTINUOUS
 62
     7
 10
-40.4138168300000018
 20
371.4979512699999873
 30
0.0
 11
-40.4138168300000018
 21
359.1775627999999756
 31
0.0
  0
LINE
  5
3D9
  8
SLD-0_3
  6
CONTINUOUS
 62
     7
 10
-94.3203020800000047
 20
371.4979512699999873
 30
0.0
 11
-94.3203020800000047
 21
359.1775627999999756
 31
0.0
  0
LINE
  5
3DA
  8
SLD-0_3
  6
CONTINUOUS
 62
     7
 10
4.5127208999999997
 20
371.4979512699999873
 30
0.0
 11
4.5127208999999997
 21
359.1775627999999756
 31
0.0
  0
LINE
  5
3DB
  8
SLD-0_3
  6
PHANTOM
 62
     7
 10
204.0045665099999894
 20
354.2616488799999956
 30
0.0
 11
216.7671566100000007
 21
354.2616488799999956
 31
0.0
  0
LINE
  5
3DC
  8
SLD-0_3
  6
PHANTOM
 62
     7
 10
216.7671566100000007
 20
354.2616488799999956
 30
0.0
 11
216.7671566100000007
 21
341.9412604199999919
 31
0.0
  0
LINE
  5
3DD
  8
SLD-0_3
  6
PHANTOM
 62
     7
 10
232.487329079999995
 20
308.3214931200000137
 30
0.0
 11
225.077101650000003
 21
308.3214931200000137
 31
0.0
  0
LINE
  5
3DE
  8
SLD-0_3
  6
PHANTOM
 62
     7
 10
232.487329079999995
 20
314.496044540000014
 30
0.0
 11
232.487329079999995
 21
318.2011582599999997
 31
0.0
  0
LINE
  5
3DF
  8
SLD-0_3
  6
PHANTOM
 62
     7
 10
225.077101650000003
 20
299.6765468300000066
 30
0.0
 11
232.487329079999995
 21
299.6765468300000066
 31
0.0
  0
LINE
  5
3E0
  8
SLD-0_3
  6
PHANTOM
 62
     7
 10
232.487329079999995
 20
313.2613256899999783
 30
0.0
 11
225.077101650000003
 21
313.2613256899999783
 31
0.0
  0
LINE
  5
3E1
  8
SLD-0_3
  6
PHANTOM
 62
     7
 10
222.4463321700000051
 20
203.9918083700000011
 30
0.0
 11
222.4463321700000051
 21
193.9529473800000119
 31
0.0
  0
LINE
  5
3E2
  8
SLD-0_3
  6
PHANTOM
 62
     7
 10
214.9278873799999872
 20
193.9625188599999888
 30
0.0
 11
210.8723160000000121
 21
193.9625188599999888
 31
0.0
  0
LINE
  5
3E3
  8
SLD-0_3
  6
PHANTOM
 62
     7
 10
198.7448738600000127
 20
193.0637569799999937
 30
0.0
 11
198.7397301299999981
 21
192.9613437200000021
 31
0.0
  0
LINE
  5
3E4
  8
SLD-0_3
  6
PHANTOM
 62
     7
 10
248.3062257100000068
 20
193.7916121400000122
 30
0.0
 11
248.2240031899999906
 21
193.8417422199999862
 31
0.0
  0
LINE
  5
3E5
  8
SLD-0_3
  6
PHANTOM
 62
     7
 10
204.1677297999999894
 20
193.9625188599999888
 30
0.0
 11
201.8000262799999973
 21
193.9625188599999888
 31
0.0
  0
LINE
  5
3E6
  8
SLD-0_3
  6
PHANTOM
 62
     7
 10
198.7845262699999864
 20
193.2591728200000034
 30
0.0
 11
198.7599722799999995
 21
193.1632006600000011
 31
0.0
  0
LINE
  5
3E7
  8
SLD-0_3
  6
PHANTOM
 62
     7
 10
222.4463321700000051
 20
193.9529473800000119
 30
0.0
 11
238.2603049900000087
 21
193.9529473800000119
 31
0.0
  0
LINE
  5
3E8
  8
SLD-0_3
  6
PHANTOM
 62
     7
 10
248.7397639600000048
 20
193.0637569799999937
 30
0.0
 11
248.724723019999999
 21
193.1632006600000011
 31
0.0
  0
LINE
  5
3E9
  8
SLD-0_3
  6
PHANTOM
 62
     7
 10
236.6123007900000061
 20
193.9625188599999888
 30
0.0
 11
232.5567294200000106
 21
193.9625188599999888
 31
0.0
  0
LINE
  5
3EA
  8
SLD-0_3
  6
PHANTOM
 62
     7
 10
228.2198467300000004
 20
193.9625188599999888
 30
0.0
 11
223.7423084000000131
 21
193.9625188599999888
 31
0.0
  0
LINE
  5
3EB
  8
SLD-0_3
  6
PHANTOM
 62
     7
 10
207.2387115900000083
 20
193.9625188599999888
 30
0.0
 11
204.1677297999999894
 21
193.9625188599999888
 31
0.0
  0
LINE
  5
3EC
  8
SLD-0_3
  6
PHANTOM
 62
     7
 10
199.3486547100000053
 20
193.8838833000000079
 30
0.0
 11
199.2614618499999892
 21
193.8417422199999862
 31
0.0
  0
LINE
  5
3ED
  8
SLD-0_3
  6
PHANTOM
 62
     7
 10
198.8180366699999979
 20
193.3511714900000129
 30
0.0
 11
198.7845262699999864
 21
193.2591728200000034
 31
0.0
  0
LINE
  5
3EE
  8
SLD-0_3
  6
PHANTOM
 62
     7
 10
238.2603049900000087
 20
193.9529473800000119
 30
0.0
 11
238.2603049900000087
 21
203.9918083700000011
 31
0.0
  0
LINE
  5
3EF
  8
SLD-0_3
  6
PHANTOM
 62
     7
 10
248.7448866599999917
 20
192.9613437200000021
 30
0.0
 11
248.7397639600000048
 21
193.0637569799999937
 31
0.0
  0
LINE
  5
3F0
  8
SLD-0_3
  6
PHANTOM
 62
     7
 10
248.5751913299999956
 20
193.5212407200000087
 30
0.0
 11
248.5179200499999865
 21
193.5983073600000068
 31
0.0
  0
LINE
  5
3F1
  8
SLD-0_3
  6
PHANTOM
 62
     7
 10
248.5179200499999865
 20
193.5983073600000068
 30
0.0
 11
248.4536748699999862
 21
193.6693927700000017
 31
0.0
  0
LINE
  5
3F2
  8
SLD-0_3
  6
PHANTOM
 62
     7
 10
198.7397301299999981
 20
192.9613437200000021
 30
0.0
 11
198.7397301299999981
 21
87.9921810899999883
 31
0.0
  0
LINE
  5
3F3
  8
SLD-0_3
  6
PHANTOM
 62
     7
 10
247.2083600999999931
 20
193.9625188599999888
 30
0.0
 11
245.6845905099999925
 21
193.9625188599999888
 31
0.0
  0
LINE
  5
3F4
  8
SLD-0_3
  6
PHANTOM
 62
     7
 10
201.8000262799999973
 20
193.9625188599999888
 30
0.0
 11
200.2762566899999968
 21
193.9625188599999888
 31
0.0
  0
LINE
  5
3F5
  8
SLD-0_3
  6
PHANTOM
 62
     7
 10
199.6350218800000107
 20
193.9573531599999967
 30
0.0
 11
199.5359338600000001
 21
193.9421907100000055
 31
0.0
  0
LINE
  5
3F6
  8
SLD-0_3
  6
PHANTOM
 62
     7
 10
199.031659789999992
 20
193.6693927700000017
 30
0.0
 11
198.9673150600000042
 21
193.5983073600000068
 31
0.0
  0
LINE
  5
3F7
  8
SLD-0_3
  6
PHANTOM
 62
     7
 10
248.724723019999999
 20
193.1632006600000011
 30
0.0
 11
248.7002545699999985
 21
193.2591728200000034
 31
0.0
  0
LINE
  5
3F8
  8
SLD-0_3
  6
PHANTOM
 62
     7
 10
200.2762566899999968
 20
193.9625188599999888
 30
0.0
 11
199.7370766800000013
 21
193.9625188599999888
 31
0.0
  0
LINE
  5
3F9
  8
SLD-0_3
  6
PHANTOM
 62
     7
 10
248.6668493200000114
 20
193.3511714900000129
 30
0.0
 11
248.624998000000005
 21
193.4386947799999916
 31
0.0
  0
LINE
  5
3FA
  8
SLD-0_3
  6
PHANTOM
 62
     7
 10
223.7423084000000131
 20
193.9625188599999888
 30
0.0
 11
219.2647700599999894
 21
193.9625188599999888
 31
0.0
  0
LINE
  5
3FB
  8
SLD-0_3
  6
PHANTOM
 62
     7
 10
219.2647700599999894
 20
193.9625188599999888
 30
0.0
 11
214.9278873799999872
 21
193.9625188599999888
 31
0.0
  0
LINE
  5
3FC
  8
SLD-0_3
  6
PHANTOM
 62
     7
 10
199.2614618499999892
 20
193.8417422199999862
 30
0.0
 11
199.1792323200000112
 21
193.7916121400000122
 31
0.0
  0
LINE
  5
3FD
  8
SLD-0_3
  6
PHANTOM
 62
     7
 10
199.1792323200000112
 20
193.7916121400000122
 30
0.0
 11
199.1024652499999945
 21
193.733995010000001
 31
0.0
  0
LINE
  5
3FE
  8
SLD-0_3
  6
PHANTOM
 62
     7
 10
243.3168869900000004
 20
193.9625188599999888
 30
0.0
 11
240.2459052000000099
 21
193.9625188599999888
 31
0.0
  0
LINE
  5
3FF
  8
SLD-0_3
  6
PHANTOM
 62
     7
 10
199.5359338600000001
 20
193.9421907100000055
 30
0.0
 11
199.440311759999986
 21
193.9175334399999997
 31
0.0
  0
LINE
  5
400
  8
SLD-0_3
  6
PHANTOM
 62
     7
 10
199.1024652499999945
 20
193.733995010000001
 30
0.0
 11
199.031659789999992
 21
193.6693927700000017
 31
0.0
  0
LINE
  5
401
  8
SLD-0_3
  6
PHANTOM
 62
     7
 10
215.916762690000013
 20
361.4921983799999907
 30
0.0
 11
219.1561940199999867
 21
368.35371533
 31
0.0
  0
LINE
  5
402
  8
SLD-0_3
  6
PHANTOM
 62
     7
 10
211.5698516500000039
 20
344.4441982600000074
 30
0.0
 11
211.56410876999999
 21
342.7155918600000177
 31
0.0
  0
LINE
  5
403
  8
SLD-0_3
  6
PHANTOM
 62
     7
 10
204.0447666599999934
 20
353.4968889099999956
 30
0.0
 11
211.56410876999999
 21
353.4968889099999956
 31
0.0
  0
LINE
  5
404
  8
SLD-0_3
  6
PHANTOM
 62
     7
 10
238.272321919999996
 20
294.0839404199999763
 30
0.0
 11
238.272321919999996
 21
318.8185176900000215
 31
0.0
  0
LINE
  5
405
  8
SLD-0_3
  6
PHANTOM
 62
     7
 10
227.4718819400000029
 20
303.288817349999988
 30
0.0
 11
227.4718819400000029
 21
299.6784611200000086
 31
0.0
  0
LINE
  5
406
  8
SLD-0_3
  6
PHANTOM
 62
     7
 10
232.487329079999995
 20
299.6765468300000066
 30
0.0
 11
232.487329079999995
 21
303.3797462599999903
 31
0.0
  0
LINE
  5
407
  8
SLD-0_3
  6
PHANTOM
 62
     7
 10
225.077101650000003
 20
309.5562119800000005
 30
0.0
 11
232.487329079999995
 21
309.5562119800000005
 31
0.0
  0
LINE
  5
408
  8
SLD-0_3
  6
PHANTOM
 62
     7
 10
232.487329079999995
 20
294.7347999699999832
 30
0.0
 11
232.487329079999995
 21
298.4399136800000178
 31
0.0
  0
LINE
  5
409
  8
SLD-0_3
  6
PHANTOM
 62
     7
 10
222.4583490999999924
 20
294.0839404199999763
 30
0.0
 11
238.272321919999996
 21
294.0839404199999763
 31
0.0
  0
LINE
  5
40A
  8
SLD-0_3
  6
PHANTOM
 62
     7
 10
225.077101650000003
 20
318.2011582599999997
 30
0.0
 11
225.077101650000003
 21
314.496044540000014
 31
0.0
  0
LINE
  5
40B
  8
SLD-0_3
  6
PHANTOM
 62
     7
 10
215.9497535799999923
 20
346.3872054500000104
 30
0.0
 11
213.7808598400000051
 21
346.4025197899999853
 31
0.0
  0
LINE
  5
40C
  8
SLD-0_3
  6
PHANTOM
 62
     7
 10
225.077101650000003
 20
294.7347999699999832
 30
0.0
 11
232.487329079999995
 21
294.7347999699999832
 31
0.0
  0
LINE
  5
40D
  8
SLD-0_3
  6
PHANTOM
 62
     7
 10
227.4718819400000029
 20
308.3234073999998941
 30
0.0
 11
227.4718819400000029
 21
304.6182936999999811
 31
0.0
  0
LINE
  5
40E
  8
SLD-0_3
  6
PHANTOM
 62
     7
 10
225.077101650000003
 20
314.496044540000014
 30
0.0
 11
232.487329079999995
 21
314.496044540000014
 31
0.0
  0
LINE
  5
40F
  8
SLD-0_3
  6
PHANTOM
 62
     7
 10
232.487329079999995
 20
298.4399136800000178
 30
0.0
 11
225.077101650000003
 21
298.4399136800000178
 31
0.0
  0
LINE
  5
410
  8
SLD-0_3
  6
PHANTOM
 62
     7
 10
225.077101650000003
 20
304.616379400000028
 30
0.0
 11
232.487329079999995
 21
304.616379400000028
 31
0.0
  0
LINE
  5
411
  8
SLD-0_3
  6
PHANTOM
 62
     7
 10
219.1561940199999867
 20
368.35371533
 30
0.0
 11
219.1561940199999867
 21
361.4921983799999907
 31
0.0
  0
LINE
  5
412
  8
SLD-0_3
  6
PHANTOM
 62
     7
 10
211.56410876999999
 20
342.7155918600000177
 30
0.0
 11
204.0447666599999934
 21
342.7155918600000177
 31
0.0
  0
LINE
  5
413
  8
SLD-0_3
  6
PHANTOM
 62
     7
 10
204.0045665099999894
 20
341.9412604199999919
 30
0.0
 11
204.0045665099999894
 21
354.2616488799999956
 31
0.0
  0
LINE
  5
414
  8
SLD-0_3
  6
PHANTOM
 62
     7
 10
227.4718819400000029
 20
298.4399136800000178
 30
0.0
 11
227.4718819400000029
 21
294.7367142599999852
 31
0.0
  0
LINE
  5
415
  8
SLD-0_3
  6
PHANTOM
 62
     7
 10
227.4718819400000029
 20
313.2354827300000011
 30
0.0
 11
227.4718819400000029
 21
309.5562119800000005
 31
0.0
  0
LINE
  5
416
  8
SLD-0_3
  6
PHANTOM
 62
     7
 10
227.9772552400000052
 20
368.35371533
 30
0.0
 11
231.5764514100000042
 21
361.4921983799999907
 31
0.0
  0
LINE
  5
417
  8
SLD-0_3
  6
PHANTOM
 62
     7
 10
213.7808598400000051
 20
346.4025197899999853
 30
0.0
 11
213.7712883700000077
 21
344.4441982600000074
 31
0.0
  0
LINE
  5
418
  8
SLD-0_3
  6
PHANTOM
 62
     7
 10
232.487329079999995
 20
303.3797462599999903
 30
0.0
 11
225.077101650000003
 21
303.3797462599999903
 31
0.0
  0
LINE
  5
419
  8
SLD-0_3
  6
PHANTOM
 62
     7
 10
227.9772552400000052
 20
361.5177757399999905
 30
0.0
 11
227.9772552400000052
 21
368.35371533
 31
0.0
  0
LINE
  5
41A
  8
SLD-0_3
  6
PHANTOM
 62
     7
 10
225.077101650000003
 20
308.3214931200000137
 30
0.0
 11
225.077101650000003
 21
304.616379400000028
 31
0.0
  0
LINE
  5
41B
  8
SLD-0_3
  6
PHANTOM
 62
     7
 10
232.487329079999995
 20
309.5562119800000005
 30
0.0
 11
232.487329079999995
 21
313.2613256899999783
 31
0.0
  0
LINE
  5
41C
  8
SLD-0_3
  6
PHANTOM
 62
     7
 10
216.7671566100000007
 20
341.9412604199999919
 30
0.0
 11
204.0045665099999894
 21
341.9412604199999919
 31
0.0
  0
LINE
  5
41D
  8
SLD-0_3
  6
PHANTOM
 62
     7
 10
225.077101650000003
 20
298.4399136800000178
 30
0.0
 11
225.077101650000003
 21
294.7347999699999832
 31
0.0
  0
LINE
  5
41E
  8
SLD-0_3
  6
PHANTOM
 62
     7
 10
225.077101650000003
 20
303.3797462599999903
 30
0.0
 11
225.077101650000003
 21
299.6765468300000066
 31
0.0
  0
LINE
  5
41F
  8
SLD-0_3
  6
PHANTOM
 62
     7
 10
225.077101650000003
 20
313.2613256899999783
 30
0.0
 11
225.077101650000003
 21
309.5562119800000005
 31
0.0
  0
LINE
  5
420
  8
SLD-0_3
  6
PHANTOM
 62
     7
 10
213.7808598400000051
 20
349.8530325599999742
 30
0.0
 11
215.9497535799999923
 21
349.8530325599999742
 31
0.0
  0
LINE
  5
421
  8
SLD-0_3
  6
PHANTOM
 62
     7
 10
222.4583490999999924
 20
318.8185176900000215
 30
0.0
 11
222.4583490999999924
 21
294.0839404199999763
 31
0.0
  0
LINE
  5
422
  8
SLD-0_3
  6
PHANTOM
 62
     7
 10
227.4718819400000029
 20
318.1456437699999924
 30
0.0
 11
227.4718819400000029
 21
314.4979588400000239
 31
0.0
  0
LINE
  5
423
  8
SLD-0_3
  6
PHANTOM
 62
     7
 10
219.1561940199999867
 20
368.35371533
 30
0.0
 11
227.9772552400000052
 21
368.35371533
 31
0.0
  0
LINE
  5
424
  8
SLD-0_3
  6
PHANTOM
 62
     7
 10
211.5698516500000039
 20
351.7577539000000115
 30
0.0
 11
213.7712883700000077
 21
351.7577539000000115
 31
0.0
  0
LINE
  5
425
  8
SLD-0_3
  6
PHANTOM
 62
     7
 10
213.7712883700000077
 20
351.7577539000000115
 30
0.0
 11
213.7808598400000051
 21
349.8530325599999742
 31
0.0
  0
LINE
  5
426
  8
SLD-0_3
  6
PHANTOM
 62
     7
 10
213.7712883700000077
 20
344.4441982600000074
 30
0.0
 11
211.5698516500000039
 21
344.4441982600000074
 31
0.0
  0
LINE
  5
427
  8
SLD-0_3
  6
PHANTOM
 62
     7
 10
232.487329079999995
 20
304.616379400000028
 30
0.0
 11
232.487329079999995
 21
308.3214931200000137
 31
0.0
  0
LINE
  5
428
  8
SLD-0_3
  6
PHANTOM
 62
     7
 10
211.56410876999999
 20
353.4968889099999956
 30
0.0
 11
211.5698516500000039
 21
351.7577539000000115
 31
0.0
  0
LINE
  5
429
  8
SLD-0_3
  6
PHANTOM
 62
     7
 10
215.9497535799999923
 20
349.8530325599999742
 30
0.0
 11
215.9497535799999923
 21
346.3872054500000104
 31
0.0
  0
LINE
  5
42A
  8
SLD-0_3
  6
PHANTOM
 62
     7
 10
204.0447666599999934
 20
342.7155918600000177
 30
0.0
 11
204.0447666599999934
 21
353.4968889099999956
 31
0.0
  0
LINE
  5
42B
  8
SLD-0_3
  6
PHANTOM
 62
     7
 10
238.272321919999996
 20
318.8185176900000215
 30
0.0
 11
222.4583490999999924
 21
318.8185176900000215
 31
0.0
  0
LINE
  5
42C
  8
SLD-0_3
  6
PHANTOM
 62
     7
 10
232.487329079999995
 20
318.2011582599999997
 30
0.0
 11
225.077101650000003
 21
318.2011582599999997
 31
0.0
  0
LINE
  5
42D
  8
SLD-0_3
  6
PHANTOM
 62
     7
 10
198.8600043700000128
 20
193.4386947799999916
 30
0.0
 11
198.8180366699999979
 21
193.3511714900000129
 31
0.0
  0
LINE
  5
42E
  8
SLD-0_3
  6
PHANTOM
 62
     7
 10
248.4536748699999862
 20
193.6693927700000017
 30
0.0
 11
248.3829465100000107
 21
193.733995010000001
 31
0.0
  0
LINE
  5
42F
  8
SLD-0_3
  6
PHANTOM
 62
     7
 10
248.1367696700000067
 20
193.8838833000000079
 30
0.0
 11
248.045015879999994
 21
193.9175334399999997
 31
0.0
  0
LINE
  5
430
  8
SLD-0_3
  6
PHANTOM
 62
     7
 10
232.5567294200000106
 20
193.9625188599999888
 30
0.0
 11
228.2198467300000004
 21
193.9625188599999888
 31
0.0
  0
LINE
  5
431
  8
SLD-0_3
  6
PHANTOM
 62
     7
 10
248.7448866599999917
 20
87.9921810899999883
 30
0.0
 11
248.7448866599999917
 21
192.9613437200000021
 31
0.0
  0
LINE
  5
432
  8
SLD-0_3
  6
PHANTOM
 62
     7
 10
247.8499103700000035
 20
193.9573531599999967
 30
0.0
 11
247.7475401099999885
 21
193.9625188599999888
 31
0.0
  0
LINE
  5
433
  8
SLD-0_3
  6
PHANTOM
 62
     7
 10
198.9673150600000042
 20
193.5983073600000068
 30
0.0
 11
198.9099302099999989
 21
193.5212407200000087
 31
0.0
  0
LINE
  5
434
  8
SLD-0_3
  6
PHANTOM
 62
     7
 10
198.9099302099999989
 20
193.5212407200000087
 30
0.0
 11
198.8600043700000128
 21
193.4386947799999916
 31
0.0
  0
LINE
  5
435
  8
SLD-0_3
  6
PHANTOM
 62
     7
 10
248.624998000000005
 20
193.4386947799999916
 30
0.0
 11
248.5751913299999956
 21
193.5212407200000087
 31
0.0
  0
LINE
  5
436
  8
SLD-0_3
  6
PHANTOM
 62
     7
 10
248.045015879999994
 20
193.9175334399999997
 30
0.0
 11
247.949232539999997
 21
193.9421907100000055
 31
0.0
  0
LINE
  5
437
  8
SLD-0_3
  6
PHANTOM
 62
     7
 10
247.949232539999997
 20
193.9421907100000055
 30
0.0
 11
247.8499103700000035
 21
193.9573531599999967
 31
0.0
  0
LINE
  5
438
  8
SLD-0_3
  6
PHANTOM
 62
     7
 10
198.7599722799999995
 20
193.1632006600000011
 30
0.0
 11
198.7448738600000127
 21
193.0637569799999937
 31
0.0
  0
LINE
  5
439
  8
SLD-0_3
  6
PHANTOM
 62
     7
 10
240.2459052000000099
 20
193.9625188599999888
 30
0.0
 11
236.6123007900000061
 21
193.9625188599999888
 31
0.0
  0
LINE
  5
43A
  8
SLD-0_3
  6
PHANTOM
 62
     7
 10
199.440311759999986
 20
193.9175334399999997
 30
0.0
 11
199.3486547100000053
 21
193.8838833000000079
 31
0.0
  0
LINE
  5
43B
  8
SLD-0_3
  6
PHANTOM
 62
     7
 10
248.3829465100000107
 20
193.733995010000001
 30
0.0
 11
248.3062257100000068
 21
193.7916121400000122
 31
0.0
  0
LINE
  5
43C
  8
SLD-0_3
  6
PHANTOM
 62
     7
 10
199.7370766800000013
 20
193.9625188599999888
 30
0.0
 11
199.6350218800000107
 21
193.9573531599999967
 31
0.0
  0
LINE
  5
43D
  8
SLD-0_3
  6
PHANTOM
 62
     7
 10
248.7002545699999985
 20
193.2591728200000034
 30
0.0
 11
248.6668493200000114
 21
193.3511714900000129
 31
0.0
  0
LINE
  5
43E
  8
SLD-0_3
  6
PHANTOM
 62
     7
 10
248.2240031899999906
 20
193.8417422199999862
 30
0.0
 11
248.1367696700000067
 21
193.8838833000000079
 31
0.0
  0
LINE
  5
43F
  8
SLD-0_3
  6
PHANTOM
 62
     7
 10
247.7475401099999885
 20
193.9625188599999888
 30
0.0
 11
247.2083600999999931
 21
193.9625188599999888
 31
0.0
  0
LINE
  5
440
  8
SLD-0_3
  6
PHANTOM
 62
     7
 10
210.8723160000000121
 20
193.9625188599999888
 30
0.0
 11
207.2387115900000083
 21
193.9625188599999888
 31
0.0
  0
LINE
  5
441
  8
SLD-0_3
  6
PHANTOM
 62
     7
 10
245.6845905099999925
 20
193.9625188599999888
 30
0.0
 11
243.3168869900000004
 21
193.9625188599999888
 31
0.0
  0
LINE
  5
442
  8
SLD-0_1
  6
PHANTOM
 62
     7
 10
-145.7449664400000131
 20
315.7094403199999988
 30
0.0
 11
-149.4512146799999925
 21
315.7094403199999988
 31
0.0
  0
LINE
  5
443
  8
SLD-0_1
  6
PHANTOM
 62
     7
 10
-145.7449664400000131
 20
307.4093663099999958
 30
0.0
 11
-149.4512146799999925
 21
307.4093663099999958
 31
0.0
  0
LINE
  5
444
  8
SLD-0_1
  6
PHANTOM
 62
     7
 10
-149.4512146799999925
 20
308.4012047499999767
 30
0.0
 11
-145.7449664400000131
 21
308.4012047499999767
 31
0.0
  0
LINE
  5
445
  8
SLD-0_1
  6
PHANTOM
 62
     7
 10
-158.3433092600000123
 20
316.6985589299999901
 30
0.0
 11
-162.0477442600000018
 21
316.6985589299999901
 31
0.0
  0
LINE
  5
446
  8
SLD-0_1
  6
PHANTOM
 62
     7
 10
-162.0477442600000018
 20
324.0067944799999964
 30
0.0
 11
-158.3433092600000123
 21
324.0067944799999964
 31
0.0
  0
LINE
  5
447
  8
SLD-0_1
  6
PHANTOM
 62
     7
 10
-145.7449664400000131
 20
324.0067944799999964
 30
0.0
 11
-149.4512146799999925
 21
324.0067944799999964
 31
0.0
  0
LINE
  5
448
  8
SLD-0_1
  6
PHANTOM
 62
     7
 10
-158.3433092600000123
 20
308.4012047499999767
 30
0.0
 11
-162.0477442600000018
 21
308.4012047499999767
 31
0.0
  0
LINE
  5
449
  8
SLD-0_1
  6
PHANTOM
 62
     7
 10
-158.3433092600000123
 20
291.805589800000007
 30
0.0
 11
-162.0477442600000018
 21
291.805589800000007
 31
0.0
  0
LINE
  5
44A
  8
SLD-0_1
  6
PHANTOM
 62
     7
 10
-162.0477442600000018
 20
332.3068685000000073
 30
0.0
 11
-158.3433092600000123
 21
332.3068685000000073
 31
0.0
  0
LINE
  5
44B
  8
SLD-0_1
  6
PHANTOM
 62
     7
 10
-162.0477442600000018
 20
307.4093663099999958
 30
0.0
 11
-158.3433092600000123
 21
307.4093663099999958
 31
0.0
  0
LINE
  5
44C
  8
SLD-0_1
  6
PHANTOM
 62
     7
 10
-158.3433092600000123
 20
300.1029439600000046
 30
0.0
 11
-162.0477442600000018
 21
300.1029439600000046
 31
0.0
  0
LINE
  5
44D
  8
SLD-0_1
  6
PHANTOM
 62
     7
 10
-162.0477442600000018
 20
333.2923606300000188
 30
0.0
 11
-162.0477442600000018
 21
290.8173778199999902
 31
0.0
  0
LINE
  5
44E
  8
SLD-0_1
  6
PHANTOM
 62
     7
 10
-149.4512146799999925
 20
300.1029439600000046
 30
0.0
 11
-145.7449664400000131
 21
300.1029439600000046
 31
0.0
  0
LINE
  5
44F
  8
SLD-0_1
  6
PHANTOM
 62
     7
 10
-162.0477442600000018
 20
315.7094403199999988
 30
0.0
 11
-158.3433092600000123
 21
315.7094403199999988
 31
0.0
  0
LINE
  5
450
  8
SLD-0_1
  6
PHANTOM
 62
     7
 10
-169.4557076499999937
 20
362.9314671000000203
 30
0.0
 11
-169.4557076499999937
 21
279.9479526599999986
 31
0.0
  0
LINE
  5
451
  8
SLD-0_1
  6
PHANTOM
 62
     7
 10
-162.0477442600000018
 20
299.1129187500000057
 30
0.0
 11
-158.3433092600000123
 21
299.1129187500000057
 31
0.0
  0
LINE
  5
452
  8
SLD-0_1
  6
PHANTOM
 62
     7
 10
-135.8673797200000024
 20
362.9314671000000203
 30
0.0
 11
-169.4557076499999937
 21
362.9314671000000203
 31
0.0
  0
LINE
  5
454
  8
SLD-0_1
  6
PHANTOM
 62
     7
 10
-169.4557076499999937
 20
279.9479526599999986
 30
0.0
 11
-135.8673797200000024
 21
279.9479526599999986
 31
0.0
  0
LINE
  5
456
  8
SLD-0_1
  6
PHANTOM
 62
     7
 10
-149.4512146799999925
 20
316.6985589299999901
 30
0.0
 11
-145.7449664400000131
 21
316.6985589299999901
 31
0.0
  0
LINE
  5
457
  8
SLD-0_1
  6
PHANTOM
 62
     7
 10
-149.4512146799999925
 20
324.9950064700000212
 30
0.0
 11
-145.7449664400000131
 21
324.9950064700000212
 31
0.0
  0
LINE
  5
458
  8
SLD-0_1
  6
PHANTOM
 62
     7
 10
-145.7449664400000131
 20
332.3068685000000073
 30
0.0
 11
-149.4512146799999925
 21
332.3068685000000073
 31
0.0
  0
LINE
  5
459
  8
SLD-0_1
  6
PHANTOM
 62
     7
 10
-135.8673797200000024
 20
279.9479526599999986
 30
0.0
 11
-135.8673797200000024
 21
362.9314671000000203
 31
0.0
  0
LINE
  5
45A
  8
SLD-0_1
  6
PHANTOM
 62
     7
 10
-158.3433092600000123
 20
324.9950064700000212
 30
0.0
 11
-162.0477442600000018
 21
324.9950064700000212
 31
0.0
  0
LINE
  5
45B
  8
SLD-0_1
  6
PHANTOM
 62
     7
 10
-149.4512146799999925
 20
291.805589800000007
 30
0.0
 11
-145.7449664400000131
 21
291.805589800000007
 31
0.0
  0
LINE
  5
45C
  8
SLD-0_1
  6
PHANTOM
 62
     7
 10
-145.7449664400000131
 20
299.1129187500000057
 30
0.0
 11
-149.4512146799999925
 21
299.1129187500000057
 31
0.0
  0
LINE
  5
45D
  8
SLD-0_1
  6
PHANTOM
 62
     7
 10
-145.7449664400000131
 20
333.2923606300000188
 30
0.0
 11
-162.0477442600000018
 21
333.2923606300000188
 31
0.0
  0
CIRCLE
  5
463
  8
SLD-0_1
  6
PHANTOM
 62
     7
 10
-153.8938947700000028
 20
320.3478573099999949
 30
0.0
 40
3.360515739999999
  0
CIRCLE
  5
464
  8
SLD-0_1
  6
PHANTOM
 62
     7
 10
-153.8938947700000028
 20
312.0505031399999893
 30
0.0
 40
3.360515739999999
  0
CIRCLE
  5
465
  8
SLD-0_1
  6
PHANTOM
 62
     7
 10
-153.8938947700000028
 20
303.7522423400000093
 30
0.0
 40
3.360515739999999
  0
CIRCLE
  5
466
  8
SLD-0_1
  6
PHANTOM
 62
     7
 10
-153.8938947700000028
 20
295.4548881800000117
 30
0.0
 40
3.360515739999999
  0
TEXT
  5
467
  8
SLD-0
 62
     7
 10
263.6619027400000164
 20
-389.9248852399999805
 30
0.0
 40
9.5250000000000004
  1
001
 41
1.4999999999999989
 72
     5
 11
292.236902740000005
 21
-389.9248852399999805
 31
0.0
  0
TEXT
  5
468
  8
SLD-0
 62
     7
 10
-278.7609977600000093
 20
370.8748852499999771
 30
0.0
 40
9.5250000000000004
  1
-M2
 41
1.125
 72
     5
 11
-250.1859977599999922
 21
370.8748852499999771
 31
0.0
  0
TEXT
  5
469
  8
SLD-0
 62
     7
 10
-249.2487650699999904
 20
-50.7896749900000017
 30
0.0
 40
9.5250000000000004
  1
-R
 41
1.199999999999998
 72
     5
 11
-230.1987650700000074
 21
-50.7896749900000017
 31
0.0
  0
LINE
  5
4D7
  8
SLD-0
  6
PHANTOM
 62
     7
 10
-145.6697587830697955
 20
225.991808380000009
 30
0.0
 11
-161.9661902830696931
 21
225.991808380000009
 31
0.0
  0
LINE
  5
4D8
  8
SLD-0_1
  6
PHANTOM
 62
     7
 10
-135.7976117630697104
 20
73.9918089159143335
 30
0.0
 11
-135.7976117630697104
 21
210.4783101680351933
 31
0.0
  0
LINE
  5
4D9
  8
SLD-0_1
  6
PHANTOM
 62
     7
 10
-169.3505816430696882
 20
210.4783101680351933
 30
0.0
 11
-169.3505816430696882
 21
73.9918089159143335
 31
0.0
  0
LINE
  5
4DA
  8
SLD-0_1
  6
PHANTOM
 62
     7
 10
-145.6697587830697955
 20
210.4783101680351933
 30
0.0
 11
-145.6697587830697955
 21
225.991808380000009
 31
0.0
  0
LINE
  5
4DB
  8
SLD-0_1
  6
PHANTOM
 62
     7
 10
-135.7976117630697104
 20
210.4783101680351933
 30
0.0
 11
-169.3505816430696882
 21
210.4783101680351933
 31
0.0
  0
LINE
  5
4DC
  8
SLD-0_1
  6
PHANTOM
 62
     7
 10
-161.9661902830696931
 20
225.991808380000009
 30
0.0
 11
-161.9661902830696931
 21
210.4783101680351933
 31
0.0
  0
LINE
  5
4DD
  8
0
  6
CONTINUOUS
 10
-162.0477442600000018
 20
290.8173778199999902
 30
0.0
 11
-145.7449664400000131
 21
290.8173778199999902
 31
0.0
  0
ENDSEC
  0
EOF
