  0
SECTION
  2
HEADER
  9
$ACADVER
  1
AC1014
  9
$ACADMAINTVER
 70
       0
  9
$DWGCODEPAGE
  3
ANSI_932
  9
$INSBASE
 10
0.0
 20
0.0
 30
0.0
  9
$EXTMIN
 10
-77.53628424
 20
-70.30269593
 30
0.0
  9
$EXTMAX
 10
77.53628424
 20
67.80269593
 30
0.0
  9
$LIMMIN
 10
-82.382302
 20
-74.61848942
  9
$LIMMAX
 10
82.382302
 20
72.11848942
  9
$ORTHOMODE
 70
       0
  9
$REGENMODE
 70
       1
  9
$FILLMODE
 70
       1
  9
$QTEXTMODE
 70
       0
  9
$MIRRTEXT
 70
       1
  9
$DRAGMODE
 70
       2
  9
$LTSCALE
 40
1.0
  9
$OSMODE
 70
       0
  9
$ATTMODE
 70
       1
  9
$TEXTSIZE
 40
0.2
  9
$TRACEWID
 40
0.05
  9
$TEXTSTYLE
  7
STANDARD
  9
$CLAYER
  8
0
  9
$CELTYPE
  6
CONTINUOUS
  9
$CECOLOR
 62
     256
  9
$CELTSCALE
 40
1.0
  9
$DELOBJ
 70
       1
  9
$DISPSILH
 70
       0
  9
$DIMSCALE
 40
1.0
  9
$DIMASZ
 40
0.18
  9
$DIMEXO
 40
0.0625
  9
$DIMDLI
 40
0.38
  9
$DIMRND
 40
0.0
  9
$DIMDLE
 40
0.0
  9
$DIMEXE
 40
0.18
  9
$DIMTP
 40
0.0
  9
$DIMTM
 40
0.0
  9
$DIMTXT
 40
0.18
  9
$DIMCEN
 40
0.09
  9
$DIMTSZ
 40
0.0
  9
$DIMTOL
 70
       0
  9
$DIMLIM
 70
       0
  9
$DIMTIH
 70
       1
  9
$DIMTOH
 70
       1
  9
$DIMSE1
 70
       0
  9
$DIMSE2
 70
       0
  9
$DIMTAD
 70
       0
  9
$DIMZIN
 70
       0
  9
$DIMBLK
  1

  9
$DIMASO
 70
       1
  9
$DIMSHO
 70
       1
  9
$DIMPOST
  1

  9
$DIMAPOST
  1

  9
$DIMALT
 70
       0
  9
$DIMALTD
 70
       2
  9
$DIMALTF
 40
25.4
  9
$DIMLFAC
 40
1.0
  9
$DIMTOFL
 70
       0
  9
$DIMTVP
 40
0.0
  9
$DIMTIX
 70
       0
  9
$DIMSOXD
 70
       0
  9
$DIMSAH
 70
       0
  9
$DIMBLK1
  1

  9
$DIMBLK2
  1

  9
$DIMSTYLE
  2
STANDARD
  9
$DIMCLRD
 70
       0
  9
$DIMCLRE
 70
       0
  9
$DIMCLRT
 70
       0
  9
$DIMTFAC
 40
1.0
  9
$DIMGAP
 40
0.09
  9
$DIMJUST
 70
       0
  9
$DIMSD1
 70
       0
  9
$DIMSD2
 70
       0
  9
$DIMTOLJ
 70
       1
  9
$DIMTZIN
 70
       0
  9
$DIMALTZ
 70
       0
  9
$DIMALTTZ
 70
       0
  9
$DIMFIT
 70
       3
  9
$DIMUPT
 70
       0
  9
$DIMUNIT
 70
       2
  9
$DIMDEC
 70
       4
  9
$DIMTDEC
 70
       4
  9
$DIMALTU
 70
       2
  9
$DIMALTTD
 70
       2
  9
$DIMTXSTY
  7
STANDARD
  9
$DIMAUNIT
 70
       0
  9
$LUNITS
 70
       2
  9
$LUPREC
 70
       4
  9
$SKETCHINC
 40
0.1
  9
$FILLETRAD
 40
0.0
  9
$AUNITS
 70
       0
  9
$AUPREC
 70
       0
  9
$MENU
  1
acad
  9
$ELEVATION
 40
0.0
  9
$PELEVATION
 40
0.0
  9
$THICKNESS
 40
0.0
  9
$LIMCHECK
 70
       0
  9
$BLIPMODE
 70
       1
  9
$CHAMFERA
 40
0.0
  9
$CHAMFERB
 40
0.0
  9
$CHAMFERC
 40
0.0
  9
$CHAMFERD
 40
0.0
  9
$SKPOLY
 70
       0
  9
$TDCREATE
 40
0.000000000
  9
$TDUPDATE
 40
0.000000000
  9
$TDINDWG
 40
0.0000000000
  9
$TDUSRTIMER
 40
0.0000000000
  9
$USRTIMER
 70
       1
  9
$ANGBASE
 50
0.0
  9
$ANGDIR
 70
       0
  9
$PDMODE
 70
       0
  9
$PDSIZE
 40
1.0
  9
$PLINEWID
 40
0.0
  9
$COORDS
 70
       1
  9
$SPLFRAME
 70
       0
  9
$SPLINETYPE
 70
       6
  9
$SPLINESEGS
 70
       8
  9
$ATTDIA
 70
       0
  9
$ATTREQ
 70
       1
  9
$HANDLING
 70
       1
  9
$HANDSEED
  5
7CA
  9
$SURFTAB1
 70
       6
  9
$SURFTAB2
 70
       6
  9
$SURFTYPE
 70
       6
  9
$SURFU
 70
       6
  9
$SURFV
 70
       6
  9
$UCSNAME
  2

  9
$UCSORG
 10
0.0
 20
0.0
 30
0.0
  9
$UCSXDIR
 10
1.0
 20
0.0
 30
0.0
  9
$UCSYDIR
 10
0.0
 20
1.0
 30
0.0
  9
$PUCSNAME
  2

  9
$PUCSORG
 10
0.0
 20
0.0
 30
0.0
  9
$PUCSXDIR
 10
1.0
 20
0.0
 30
0.0
  9
$PUCSYDIR
 10
0.0
 20
1.0
 30
0.0
  9
$USERI1
 70
       0
  9
$USERI2
 70
       0
  9
$USERI3
 70
       0
  9
$USERI4
 70
       0
  9
$USERI5
 70
       0
  9
$USERR1
 40
0.0
  9
$USERR2
 40
0.0
  9
$USERR3
 40
0.0
  9
$USERR4
 40
0.0
  9
$USERR5
 40
0.0
  9
$WORLDVIEW
 70
       1
  9
$SHADEDGE
 70
       3
  9
$SHADEDIF
 70
      70
  9
$TILEMODE
 70
       1
  9
$MAXACTVP
 70
      16
  9
$PINSBASE
 10
0.0
 20
0.0
 30
0.0
  9
$PLIMCHECK
 70
       0
  9
$PEXTMIN
 10
1.00000000E+20
 20
1.00000000E+20
 30
1.00000000E+20
  9
$PEXTMAX
 10
-1.00000000E+20
 20
-1.00000000E+20
 30
-1.00000000E+20
  9
$PLIMMIN
 10
0.0
 20
0.0
  9
$PLIMMAX
 10
12.0
 20
9.0
  9
$UNITMODE
 70
       0
  9
$VISRETAIN
 70
       0
  9
$PLINEGEN
 70
       1
  9
$PSLTSCALE
 70
       0
  9
$TREEDEPTH
 70
    3020
  9
$PICKSTYLE
 70
       1
  9
$CMLSTYLE
  2
STANDARD
  9
$CMLJUST
 70
       0
  9
$CMLSCALE
 40
1.0
  9
$PROXYGRAPHICS
 70
       0
  9
$MEASUREMENT
 70
       0
  0
ENDSEC
  0
SECTION
  2
CLASSES
  0
CLASS
  1
LWPOLYLINE
  2
AcDbPolyline
  3
"AutoCAD"
 90
        0
280
       0
281
       1
  0
CLASS
  1
IMAGE
  2
AcDbRasterImage
  3
ISM
 90
      127
280
       0
281
       1
  0
CLASS
  1
OLE2FRAME
  2
AcDbOle2Frame
  3
""
 90
        0
280
       0
281
       1
  0
CLASS
  1
HATCH
  2
AcDbHatch
  3
"ACAD_SEDONA"
 90
        0
280
       0
281
       1
  0
CLASS
  1
DICTIONARYVAR
  2
AcDbDictionaryVar
  3
"AutoCAD"
 90
        0
280
       0
281
       0
  0
CLASS
  1
RASTERVARIABLES
  2
AcDbRasterVariables
  3
ISM
 90
        0
280
       0
281
       0
  0
CLASS
  1
IMAGEDEF
  2
AcDbRasterImageDef
  3
ISM
 90
        0
280
       0
281
       0
  0
CLASS
  1
IMAGEDEF_REACTOR
  2
AcDbRasterImageDefReactor
  3
ISM
 90
        1
280
       0
281
       0
  0
CLASS
  1
IDBUFFER
  2
AcDbIdBuffer
  3
"Acad"
 90
        0
280
       0
281
       0
  0
CLASS
  1
SPATIAL_FILTER
  2
AcDbSpatialFilter
  3
"Acad"
 90
        0
280
       0
281
       0
  0
CLASS
  1
XRECORD
  2
AcDbXrecord
  3
"<Built In>"
 90
        0
280
       0
281
       0
  0
CLASS
  1
SORTENTSTABLE
  2
AcDbSortentsTable
  3
"AutoCAD"
 90
        0
280
       0
281
       0
  0
CLASS
  1
LAYER_INDEX
  2
AcDbLayerIndex
  3
"Acad"
 90
        0
280
       0
281
       0
  0
CLASS
  1
SPATIAL_INDEX
  2
AcDbSpatialIndex
  3
"Acad"
 90
        0
280
       0
281
       0
  0
CLASS
  1
OBJECT_PTR
  2
CAseDLPNTableRecord
  3
"ASE-LPNTableRecord"
 90
        1
280
       0
281
       0
  0
CLASS
  1
LAYOUT
  2
AcDbLayout
  3
"AutoCAD 2000"
 90
        1
280
       0
281
       0
  0
CLASS
  1
PLOTSETTINGS
  2
AcDbPlotSettings
  3
"AutoCAD 2000"
 90
        1
280
       0
281
       0
  0
CLASS
  1
ACDBDICTIONARYWDFLT
  2
AcDbDictionaryWithDefault
  3
"AutoCAD 2000"
 90
        1
280
       0
281
       0
  0
CLASS
  1
ACDBPLACEHOLDER
  2
AcDbPlaceHolder
  3
"AutoCAD 2000"
 90
        1
280
       0
281
       0
  0
CLASS
  1
VBA_PROJECT
  2
AcDbVbaProject
  3
"acadvba"
 90
        1
280
       0
281
       0
  0
CLASS
  1
WIPEOUT
  2
AcDbWipeout
  3
WipeOut|AutoCAD Express Tool|expresstools@autodesk.com
 90
      127
280
       0
281
       1
  0
CLASS
  1
WIPEOUTVARIABLES
  2
AcDbWipeoutVariables
  3
WipeOut|AutoCAD Express Tool|expresstools@autodesk.com
 90
        0
280
       0
281
       0
  0
CLASS
  1
RTEXT
  2
RText
  3
RText|AutoCAD Express Tool|expresstools@autodesk.com
 90
        0
280
       0
281
       1
  0
CLASS
  1
ARCALIGNEDTEXT
  2
AcDbArcAlignedText
  3
ATEXT|AutoCAD Express Tool|expresstools@autodesk.com
 90
        0
280
       0
281
       1
  0
ENDSEC
  0
SECTION
  2
TABLES
  0
TABLE
  2
VPORT
  5
7
100
AcDbSymbolTable
 70
       1
  0
VPORT
  5
15
100
AcDbSymbolTableRecord
100
AcDbViewportTableRecord
  2
*ACTIVE
 70
       0
 10
0.0
 20
0.0
 11
1.0
 21
1.0
 12
0.0
 22
-1.25
 13
0.0
 23
0.0
 14
1.0
 24
1.0
 15
0.0
 25
0.0
 16
0.0
 26
0.0
 36
1.0
 17
0.0
 27
0.0
 37
0.0
 40
146.73697885
 41
1.12285673
 42
50.0
 43
0.0
 44
0.0
 50
0.0
 51
0.0
 71
       0
 72
     100
 73
       1
 74
       1
 75
       0
 76
       0
 77
       0
 78
       0
  0
ENDTAB
  0
TABLE
  2
LTYPE
  5
4
100
AcDbSymbolTable
 70
      30
  0
LTYPE
  5
11
100
AcDbSymbolTableRecord
100
AcDbLinetypeTableRecord
  2
BYBLOCK
 70
      64
  3

 72
      65
 73
       0
 40
0.0
  0
LTYPE
  5
12
100
AcDbSymbolTableRecord
100
AcDbLinetypeTableRecord
  2
BYLAYER
 70
      64
  3

 72
      65
 73
       0
 40
0.0
  0
LTYPE
  5
13
100
AcDbSymbolTableRecord
100
AcDbLinetypeTableRecord
  2
CONTINUOUS
 70
      64
  3
Solid line
 72
      65
 73
       0
 40
0.0
  0
LTYPE
  5
1D
100
AcDbSymbolTableRecord
100
AcDbLinetypeTableRecord
  2
HIDDENX2
 70
      64
  3
CADPAC LINETYPE
 72
      65
 73
       2
 40
7.66306354
 49
5.74729765
 74
       0
 49
-1.91576588
 74
       0
  0
LTYPE
  5
1E
100
AcDbSymbolTableRecord
100
AcDbLinetypeTableRecord
  2
HIDDEN
 70
      64
  3
CADPAC LINETYPE
 72
      65
 73
       2
 40
5.74729765
 49
3.83153177
 74
       0
 49
-1.91576588
 74
       0
  0
LTYPE
  5
1F
100
AcDbSymbolTableRecord
100
AcDbLinetypeTableRecord
  2
HIDDEN2
 70
      64
  3
CADPAC LINETYPE
 72
      65
 73
       2
 40
4.78941471
 49
2.87364883
 74
       0
 49
-1.91576588
 74
       0
  0
LTYPE
  5
20
100
AcDbSymbolTableRecord
100
AcDbLinetypeTableRecord
  2
DASHED
 70
      64
  3
CADPAC LINETYPE
 72
      65
 73
       2
 40
5.74729765
 49
3.83153177
 74
       0
 49
-1.91576588
 74
       0
  0
LTYPE
  5
21
100
AcDbSymbolTableRecord
100
AcDbLinetypeTableRecord
  2
DASHED2
 70
      64
  3
CADPAC LINETYPE
 72
      65
 73
       2
 40
4.31047324
 49
2.87364883
 74
       0
 49
-1.43682441
 74
       0
  0
LTYPE
  5
22
100
AcDbSymbolTableRecord
100
AcDbLinetypeTableRecord
  2
DASHEDX2
 70
      64
  3
CADPAC LINETYPE
 72
      65
 73
       2
 40
8.62094648
 49
5.74729765
 74
       0
 49
-2.87364883
 74
       0
  0
LTYPE
  5
23
100
AcDbSymbolTableRecord
100
AcDbLinetypeTableRecord
  2
DOTX2
 70
      64
  3
CADPAC LINETYPE
 72
      65
 73
       2
 40
2.39470736
 49
0.0
 74
       0
 49
-2.39470736
 74
       0
  0
LTYPE
  5
24
100
AcDbSymbolTableRecord
100
AcDbLinetypeTableRecord
  2
DOT
 70
      64
  3
CADPAC LINETYPE
 72
      65
 73
       2
 40
1.91576588
 49
0.0
 74
       0
 49
-1.91576588
 74
       0
  0
LTYPE
  5
25
100
AcDbSymbolTableRecord
100
AcDbLinetypeTableRecord
  2
DOT2
 70
      64
  3
CADPAC LINETYPE
 72
      65
 73
       2
 40
1.43682441
 49
0.0
 74
       0
 49
-1.43682441
 74
       0
  0
LTYPE
  5
26
100
AcDbSymbolTableRecord
100
AcDbLinetypeTableRecord
  2
CENTERX2
 70
      64
  3
CADPAC LINETYPE
 72
      65
 73
       4
 40
11.49459531
 49
4.78941471
 74
       0
 49
-2.39470736
 74
       0
 49
1.91576588
 74
       0
 49
-2.39470736
 74
       0
  0
LTYPE
  5
27
100
AcDbSymbolTableRecord
100
AcDbLinetypeTableRecord
  2
CENTER
 70
      64
  3
CADPAC LINETYPE
 72
      65
 73
       4
 40
8.81252307
 49
3.83153177
 74
       0
 49
-1.91576588
 74
       0
 49
1.14945953
 74
       0
 49
-1.91576588
 74
       0
  0
LTYPE
  5
28
100
AcDbSymbolTableRecord
100
AcDbLinetypeTableRecord
  2
CENTER2
 70
      64
  3
CADPAC LINETYPE
 72
      65
 73
       4
 40
6.13045083
 49
2.87364883
 74
       0
 49
-1.43682441
 74
       0
 49
0.38315318
 74
       0
 49
-1.43682441
 74
       0
  0
LTYPE
  5
29
100
AcDbSymbolTableRecord
100
AcDbLinetypeTableRecord
  2
DASHDOTX2
 70
      64
  3
CADPAC LINETYPE
 72
      65
 73
       4
 40
9.57882942
 49
4.78941471
 74
       0
 49
-2.39470736
 74
       0
 49
0.0
 74
       0
 49
-2.39470736
 74
       0
  0
LTYPE
  5
2A
100
AcDbSymbolTableRecord
100
AcDbLinetypeTableRecord
  2
DASHDOT
 70
      64
  3
CADPAC LINETYPE
 72
      65
 73
       4
 40
7.66306354
 49
3.83153177
 74
       0
 49
-1.91576588
 74
       0
 49
0.0
 74
       0
 49
-1.91576588
 74
       0
  0
LTYPE
  5
2B
100
AcDbSymbolTableRecord
100
AcDbLinetypeTableRecord
  2
DASHDOT2
 70
      64
  3
CADPAC LINETYPE
 72
      65
 73
       4
 40
5.74729765
 49
2.87364883
 74
       0
 49
-1.43682441
 74
       0
 49
0.0
 74
       0
 49
-1.43682441
 74
       0
  0
LTYPE
  5
2C
100
AcDbSymbolTableRecord
100
AcDbLinetypeTableRecord
  2
DIVIDEX2
 70
      64
  3
CADPAC LINETYPE
 72
      65
 73
       6
 40
11.97353678
 49
4.78941471
 74
       0
 49
-2.39470736
 74
       0
 49
0.0
 74
       0
 49
-2.39470736
 74
       0
 49
0.0
 74
       0
 49
-2.39470736
 74
       0
  0
LTYPE
  5
2D
100
AcDbSymbolTableRecord
100
AcDbLinetypeTableRecord
  2
DIVIDE
 70
      64
  3
CADPAC LINETYPE
 72
      65
 73
       6
 40
9.57882942
 49
3.83153177
 74
       0
 49
-1.91576588
 74
       0
 49
0.0
 74
       0
 49
-1.91576588
 74
       0
 49
0.0
 74
       0
 49
-1.91576588
 74
       0
  0
LTYPE
  5
2E
100
AcDbSymbolTableRecord
100
AcDbLinetypeTableRecord
  2
DIVIDE2
 70
      64
  3
CADPAC LINETYPE
 72
      65
 73
       6
 40
7.18412207
 49
2.87364883
 74
       0
 49
-1.43682441
 74
       0
 49
0.0
 74
       0
 49
-1.43682441
 74
       0
 49
0.0
 74
       0
 49
-1.43682441
 74
       0
  0
LTYPE
  5
2F
100
AcDbSymbolTableRecord
100
AcDbLinetypeTableRecord
  2
BORDERX2
 70
      64
  3
CADPAC LINETYPE
 72
      65
 73
       6
 40
16.76295149
 49
4.78941471
 74
       0
 49
-2.39470736
 74
       0
 49
4.78941471
 74
       0
 49
-2.39470736
 74
       0
 49
0.0
 74
       0
 49
-2.39470736
 74
       0
  0
LTYPE
  5
30
100
AcDbSymbolTableRecord
100
AcDbLinetypeTableRecord
  2
BORDER
 70
      64
  3
CADPAC LINETYPE
 72
      65
 73
       6
 40
13.41036119
 49
3.83153177
 74
       0
 49
-1.91576588
 74
       0
 49
3.83153177
 74
       0
 49
-1.91576588
 74
       0
 49
0.0
 74
       0
 49
-1.91576588
 74
       0
  0
LTYPE
  5
31
100
AcDbSymbolTableRecord
100
AcDbLinetypeTableRecord
  2
BORDER2
 70
      64
  3
CADPAC LINETYPE
 72
      65
 73
       6
 40
10.0577709
 49
2.87364883
 74
       0
 49
-1.43682441
 74
       0
 49
2.87364883
 74
       0
 49
-1.43682441
 74
       0
 49
0.0
 74
       0
 49
-1.43682441
 74
       0
  0
LTYPE
  5
32
100
AcDbSymbolTableRecord
100
AcDbLinetypeTableRecord
  2
PHANTOMX2
 70
      64
  3
CADPAC LINETYPE
 72
      65
 73
       6
 40
14.36824414
 49
4.78941471
 74
       0
 49
-1.91576588
 74
       0
 49
1.91576588
 74
       0
 49
-1.91576588
 74
       0
 49
1.91576588
 74
       0
 49
-1.91576588
 74
       0
  0
LTYPE
  5
33
100
AcDbSymbolTableRecord
100
AcDbLinetypeTableRecord
  2
PHANTOM
 70
      64
  3
CADPAC LINETYPE
 72
      65
 73
       6
 40
11.87774849
 49
3.83153177
 74
       0
 49
-1.91576588
 74
       0
 49
1.14945953
 74
       0
 49
-1.91576588
 74
       0
 49
1.14945953
 74
       0
 49
-1.91576588
 74
       0
  0
LTYPE
  5
34
100
AcDbSymbolTableRecord
100
AcDbLinetypeTableRecord
  2
PHANTOM2
 70
      64
  3
CADPAC LINETYPE
 72
      65
 73
       6
 40
10.15355919
 49
2.87364883
 74
       0
 49
-1.91576588
 74
       0
 49
0.76630635
 74
       0
 49
-1.91576588
 74
       0
 49
0.76630635
 74
       0
 49
-1.91576588
 74
       0
  0
LTYPE
  5
35
100
AcDbSymbolTableRecord
100
AcDbLinetypeTableRecord
  2
ACAD_ISO06W100
 70
      64
  3
CADPAC LINETYPE
 72
      65
 73
       8
 40
12.93141972
 49
4.78941471
 74
       0
 49
-2.39470736
 74
       0
 49
0.0
 74
       0
 49
-1.91576588
 74
       0
 49
0.0
 74
       0
 49
-1.91576588
 74
       0
 49
0.0
 74
       0
 49
-1.91576588
 74
       0
  0
LTYPE
  5
36
100
AcDbSymbolTableRecord
100
AcDbLinetypeTableRecord
  2
ACAD_ISO13W100
 70
      64
  3
CADPAC LINETYPE
 72
      65
 73
       8
 40
15.32612708
 49
3.83153177
 74
       0
 49
-1.91576588
 74
       0
 49
3.83153177
 74
       0
 49
-1.91576588
 74
       0
 49
0.0
 74
       0
 49
-1.91576588
 74
       0
 49
0.0
 74
       0
 49
-1.91576588
 74
       0
  0
LTYPE
  5
37
100
AcDbSymbolTableRecord
100
AcDbLinetypeTableRecord
  2
ACAD_ISO14W100
 70
      64
  3
CADPAC LINETYPE
 72
      65
 73
       8
 40
11.49459531
 49
3.83153177
 74
       0
 49
-1.91576588
 74
       0
 49
0.0
 74
       0
 49
-1.91576588
 74
       0
 49
0.0
 74
       0
 49
-1.91576588
 74
       0
 49
0.0
 74
       0
 49
-1.91576588
 74
       0
  0
ENDTAB
  0
TABLE
  2
LAYER
  5
2
100
AcDbSymbolTable
 70
       3
  0
LAYER
  5
14
100
AcDbSymbolTableRecord
100
AcDbLayerTableRecord
  2
0
 70
       0
 62
       7
  6
CONTINUOUS
  0
LAYER
  5
38
100
AcDbSymbolTableRecord
100
AcDbLayerTableRecord
  2
SLD-0
 70
       0
 62
       7
  6
CONTINUOUS
  0
LAYER
  5
39
100
AcDbSymbolTableRecord
100
AcDbLayerTableRecord
  2
レイヤー_1
 70
       0
 62
       7
  6
CONTINUOUS
  0
ENDTAB
  0
TABLE
  2
STYLE
  5
3
100
AcDbSymbolTable
 70
       1
  0
STYLE
  5
17
100
AcDbSymbolTableRecord
100
AcDbTextStyleTableRecord
  2
STANDARD
 70
       0
 40
0.0
 41
1.0
 50
0.0
 71
       0
 42
5.0
  3
txt.shx
  4
bigfont.shx
  0
ENDTAB
  0
TABLE
  2
VIEW
  5
5
100
AcDbSymbolTable
 70
       1
  0
VIEW
  5
3A
100
AcDbSymbolTableRecord
100
AcDbViewTableRecord
  2
QQQQ
 70
       0
 40
146.73697885
 10
0.0
 20
-1.25
 41
164.76460401
 11
0.0
 21
0.0
 31
1.0
 12
100.0
 22
100.0
 32
0.0
 42
50.0
 43
0.0
 44
0.0
 50
0.0
 71
       0
  0
ENDTAB
  0
TABLE
  2
UCS
  5
6
100
AcDbSymbolTable
 70
       0
  0
ENDTAB
  0
TABLE
  2
APPID
  5
8
100
AcDbSymbolTable
 70
       1
  0
APPID
  5
16
100
AcDbSymbolTableRecord
100
AcDbRegAppTableRecord
  2
ACAD
 70
       0
  0
ENDTAB
  0
TABLE
  2
DIMSTYLE
  5
9
100
AcDbSymbolTable
 70
       1
  0
DIMSTYLE
105
18
100
AcDbSymbolTableRecord
100
AcDbDimStyleTableRecord
  2
STANDARD
 70
       0
  3

  4

  5

  6

  7

 40
1.0
 41
0.18
 42
0.0625
 43
0.38
 44
0.18
 45
0.0
 46
0.0
 47
0.0
 48
0.0
 71
       0
 72
       0
 73
       1
 74
       1
 75
       0
 76
       0
 77
       0
 78
       0
140
0.18
141
0.09
142
0.0
143
25.4
144
1.0
145
0.0
146
1.0
147
0.09
170
       0
171
       2
172
       0
173
       0
174
       0
175
       0
176
       0
177
       0
178
       0
270
       2
271
       4
272
       4
273
       2
274
       2
275
       0
280
       0
281
       0
282
       0
283
       1
284
       0
285
       0
286
       0
287
       0
288
       0
340
17
  0
ENDTAB
  0
TABLE
  2
BLOCK_RECORD
  5
1
100
AcDbSymbolTable
 70
       0
  0
BLOCK_RECORD
  5
A
100
AcDbSymbolTableRecord
100
AcDbBlockTableRecord
  2
*MODEL_SPACE
  0
BLOCK_RECORD
  5
B
100
AcDbSymbolTableRecord
100
AcDbBlockTableRecord
  2
*PAPER_SPACE
  0
ENDTAB
  0
ENDSEC
  0
SECTION
  2
BLOCKS
  0
BLOCK
  5
D
100
AcDbEntity
  8
0
100
AcDbBlockBegin
  2
*MODEL_SPACE
 70
       0
 10
0.0
 20
0.0
 30
0.0
  3
*MODEL_SPACE
  1

  0
ENDBLK
  5
E
100
AcDbEntity
  8
0
100
AcDbBlockEnd
  0
BLOCK
  5
F
100
AcDbEntity
 67
       1
  8
0
100
AcDbBlockBegin
  2
*PAPER_SPACE
 70
       0
 10
0.0
 20
0.0
 30
0.0
  3
*PAPER_SPACE
  1

  0
ENDBLK
  5
10
100
AcDbEntity
 67
       1
  8
0
100
AcDbBlockEnd
  0
ENDSEC
  0
SECTION
  2
ENTITIES
  0
LINE
  5
3B
100
AcDbEntity
  8
SLD-0
  6
CONTINUOUS
 62
       3
100
AcDbLine
 10
-37.22563015
 20
-49.25840352
 30
0.0
 11
-42.75268486
 21
-49.25840352
 31
0.0
  0
LINE
  5
3C
100
AcDbEntity
  8
SLD-0
  6
CONTINUOUS
 62
       3
100
AcDbLine
 10
-37.22563015
 20
61.74159648
 30
0.0
 11
-42.75268318
 21
61.74159648
 31
0.0
  0
LINE
  5
3D
100
AcDbEntity
  8
SLD-0
  6
CONTINUOUS
 62
       3
100
AcDbLine
 10
27.6770074
 20
-49.25840352
 30
0.0
 11
67.6770074
 21
-49.25840352
 31
0.0
  0
LINE
  5
3E
100
AcDbEntity
  8
SLD-0
  6
CONTINUOUS
 62
       3
100
AcDbLine
 10
27.6770074
 20
61.74159648
 30
0.0
 11
67.6770074
 21
61.74159648
 31
0.0
  0
LINE
  5
3F
100
AcDbEntity
  8
SLD-0
  6
CONTINUOUS
 62
       3
100
AcDbLine
 10
27.6770074
 20
61.74159648
 30
0.0
 11
27.6770074
 21
-49.25840352
 31
0.0
  0
LINE
  5
40
100
AcDbEntity
  8
SLD-0
  6
CONTINUOUS
 62
       3
100
AcDbLine
 10
67.6770074
 20
61.74159648
 30
0.0
 11
67.6770074
 21
-49.25840352
 31
0.0
  0
CIRCLE
  5
41
100
AcDbEntity
  8
SLD-0
  6
CONTINUOUS
 62
       3
100
AcDbCircle
 10
36.866562
 20
51.50781806
 30
0.0
 40
2.3
  0
CIRCLE
  5
42
100
AcDbEntity
  8
SLD-0
  6
CONTINUOUS
 62
       3
100
AcDbCircle
 10
41.25286057
 20
42.88891839
 30
0.0
 40
2.3
  0
CIRCLE
  5
43
100
AcDbEntity
  8
SLD-0
  6
CONTINUOUS
 62
       3
100
AcDbCircle
 10
41.07384649
 20
-30.41572681
 30
0.0
 40
2.3
  0
CIRCLE
  5
44
100
AcDbEntity
  8
SLD-0
  6
CONTINUOUS
 62
       3
100
AcDbCircle
 10
45.46084062
 20
-39.03468422
 30
0.0
 40
2.3
  0
CIRCLE
  5
45
100
AcDbEntity
  8
SLD-0
  6
CONTINUOUS
 62
       3
100
AcDbCircle
 10
52.80494853
 20
-0.36463159
 30
0.0
 40
2.50019059
  0
LINE
  5
46
100
AcDbEntity
  8
SLD-0
  6
CENTERX2
 62
       3
100
AcDbLine
 10
20.06807368
 20
6.24159648
 30
0.0
 11
74.55411946
 21
6.24159648
 31
0.0
  0
LINE
  5
47
100
AcDbEntity
  8
SLD-0
  6
CENTERX2
 62
       3
100
AcDbLine
 10
-74.55411946
 20
6.24159648
 30
0.0
 11
-17.22532346
 21
6.24159648
 31
0.0
  0
LINE
  5
48
100
AcDbEntity
  8
SLD-0
  6
CENTERX2
 62
       3
100
AcDbLine
 10
47.6770074
 20
65.14682301
 30
0.0
 11
47.6770074
 21
-54.72247771
 31
0.0
  0
LINE
  5
49
100
AcDbEntity
  8
レイヤー_1
  6
CONTINUOUS
 62
       3
100
AcDbLine
 10
-37.22563015
 20
-49.25840352
 30
0.0
 11
-30.04164859
 21
-31.5918585
 31
0.0
  0
LINE
  5
4A
100
AcDbEntity
  8
レイヤー_1
  6
CONTINUOUS
 62
       3
100
AcDbLine
 10
-30.04164859
 20
-31.5918585
 30
0.0
 11
-30.04164859
 21
44.07482178
 31
0.0
  0
LINE
  5
4B
100
AcDbEntity
  8
レイヤー_1
  6
CONTINUOUS
 62
       3
100
AcDbLine
 10
-30.04164859
 20
44.07482178
 30
0.0
 11
-37.22563015
 21
61.74159648
 31
0.0
  0
LINE
  5
4C
100
AcDbEntity
  8
レイヤー_1
  6
CONTINUOUS
 62
       3
100
AcDbLine
 10
-42.75268318
 20
61.74159648
 30
0.0
 11
-47.08590973
 21
59.74150442
 31
0.0
  0
LINE
  5
4D
100
AcDbEntity
  8
レイヤー_1
  6
CONTINUOUS
 62
       3
100
AcDbLine
 10
-47.08590973
 20
59.74150442
 30
0.0
 11
-47.08590973
 21
-47.24269371
 31
0.0
  0
LINE
  5
4E
100
AcDbEntity
  8
レイヤー_1
  6
CONTINUOUS
 62
       3
100
AcDbLine
 10
-47.08590973
 20
-47.24269371
 30
0.0
 11
-42.75268486
 21
-49.25840352
 31
0.0
  0
LINE
  5
4F
100
AcDbEntity
  8
レイヤー_1
  6
CONTINUOUS
 62
       3
100
AcDbLine
 10
-41.58639034
 20
-31.58404962
 30
0.0
 11
-32.42083093
 21
-31.58404962
 31
0.0
  0
LINE
  5
50
100
AcDbEntity
  8
レイヤー_1
  6
CONTINUOUS
 62
       3
100
AcDbLine
 10
-32.42083093
 20
-31.58404962
 30
0.0
 11
-32.42083093
 21
44.06678323
 31
0.0
  0
LINE
  5
51
100
AcDbEntity
  8
レイヤー_1
  6
CONTINUOUS
 62
       3
100
AcDbLine
 10
-32.42083093
 20
44.06678323
 30
0.0
 11
-41.58639034
 21
44.06678323
 31
0.0
  0
LINE
  5
52
100
AcDbEntity
  8
レイヤー_1
  6
CONTINUOUS
 62
       3
100
AcDbLine
 10
-41.58639034
 20
44.06678323
 30
0.0
 11
-41.58639034
 21
-31.58404962
 31
0.0
  0
LINE
  5
53
100
AcDbEntity
  8
レイヤー_1
  6
CONTINUOUS
 62
       3
100
AcDbLine
 10
-30.04164859
 20
-8.30370786
 30
0.0
 11
-28.95736247
 21
-7.32300426
 31
0.0
  0
LINE
  5
54
100
AcDbEntity
  8
レイヤー_1
  6
CONTINUOUS
 62
       3
100
AcDbLine
 10
-28.95736247
 20
-7.32300426
 30
0.0
 11
-28.95736247
 21
-3.82347714
 31
0.0
  0
LINE
  5
55
100
AcDbEntity
  8
レイヤー_1
  6
CONTINUOUS
 62
       3
100
AcDbLine
 10
-28.95736247
 20
-3.82347714
 30
0.0
 11
-30.04164859
 21
-2.80418848
 31
0.0
  0
LINE
  5
56
100
AcDbEntity
  8
レイヤー_1
  6
CONTINUOUS
 62
       3
100
AcDbLine
 10
35.17843378
 20
-26.73473443
 30
0.0
 11
35.97815507
 21
-26.73473443
 31
0.0
  0
LINE
  5
57
100
AcDbEntity
  8
レイヤー_1
  6
CONTINUOUS
 62
       3
100
AcDbLine
 10
35.97815507
 20
-26.73473443
 30
0.0
 11
35.97815507
 21
-35.35344249
 31
0.0
  0
LINE
  5
58
100
AcDbEntity
  8
レイヤー_1
  6
CONTINUOUS
 62
       3
100
AcDbLine
 10
37.4779196
 20
-35.35344249
 30
0.0
 11
37.4779196
 21
-26.73473443
 31
0.0
  0
LINE
  5
59
100
AcDbEntity
  8
レイヤー_1
  6
CONTINUOUS
 62
       3
100
AcDbLine
 10
37.4779196
 20
-26.73473443
 30
0.0
 11
44.67724867
 21
-26.73473443
 31
0.0
  0
LINE
  5
5A
100
AcDbEntity
  8
レイヤー_1
  6
CONTINUOUS
 62
       3
100
AcDbLine
 10
44.67724867
 20
-26.73473443
 30
0.0
 11
44.67724867
 21
-35.35344249
 31
0.0
  0
LINE
  5
5B
100
AcDbEntity
  8
レイヤー_1
  6
CONTINUOUS
 62
       3
100
AcDbLine
 10
46.17747254
 20
-35.35344249
 30
0.0
 11
46.17747254
 21
-26.73473443
 31
0.0
  0
LINE
  5
5C
100
AcDbEntity
  8
レイヤー_1
  6
CONTINUOUS
 62
       3
100
AcDbLine
 10
46.17747254
 20
-26.73473443
 30
0.0
 11
53.37634227
 21
-26.73473443
 31
0.0
  0
LINE
  5
5D
100
AcDbEntity
  8
レイヤー_1
  6
CONTINUOUS
 62
       3
100
AcDbLine
 10
53.37634227
 20
-26.73473443
 30
0.0
 11
53.37634227
 21
-35.35344249
 31
0.0
  0
LINE
  5
5E
100
AcDbEntity
  8
レイヤー_1
  6
CONTINUOUS
 62
       3
100
AcDbLine
 10
54.87656614
 20
-35.35344249
 30
0.0
 11
54.87656614
 21
-26.73473443
 31
0.0
  0
LINE
  5
5F
100
AcDbEntity
  8
レイヤー_1
  6
CONTINUOUS
 62
       3
100
AcDbLine
 10
54.87656614
 20
-26.73473443
 30
0.0
 11
60.17604037
 21
-26.73473443
 31
0.0
  0
LINE
  5
60
100
AcDbEntity
  8
レイヤー_1
  6
CONTINUOUS
 62
       3
100
AcDbLine
 10
60.17604037
 20
-26.73473443
 30
0.0
 11
60.17604037
 21
-25.93455378
 31
0.0
  0
LINE
  5
61
100
AcDbEntity
  8
レイヤー_1
  6
CONTINUOUS
 62
       3
100
AcDbLine
 10
60.17604037
 20
-25.93455378
 30
0.0
 11
35.17843378
 21
-25.93455378
 31
0.0
  0
LINE
  5
62
100
AcDbEntity
  8
レイヤー_1
  6
CONTINUOUS
 62
       3
100
AcDbLine
 10
35.17843378
 20
-25.93455378
 30
0.0
 11
35.17843378
 21
-35.35344249
 31
0.0
  0
LINE
  5
63
100
AcDbEntity
  8
レイヤー_1
  6
CONTINUOUS
 62
       3
100
AcDbLine
 10
56.37633067
 20
-28.23403961
 30
0.0
 11
60.17604037
 21
-28.23403961
 31
0.0
  0
LINE
  5
64
100
AcDbEntity
  8
レイヤー_1
  6
CONTINUOUS
 62
       3
100
AcDbLine
 10
60.17604037
 20
-28.23403961
 30
0.0
 11
60.17604037
 21
-43.93448418
 31
0.0
  0
LINE
  5
65
100
AcDbEntity
  8
レイヤー_1
  6
CONTINUOUS
 62
       3
100
AcDbLine
 10
60.17604037
 20
-43.93448418
 30
0.0
 11
35.17843378
 21
-43.93448418
 31
0.0
  0
LINE
  5
66
100
AcDbEntity
  8
レイヤー_1
  6
CONTINUOUS
 62
       3
100
AcDbLine
 10
35.17843378
 20
-43.93448418
 30
0.0
 11
35.17843378
 21
-36.85320701
 31
0.0
  0
LINE
  5
67
100
AcDbEntity
  8
レイヤー_1
  6
CONTINUOUS
 62
       3
100
AcDbLine
 10
35.17843378
 20
-36.85320701
 30
0.0
 11
38.86560371
 21
-36.85320701
 31
0.0
  0
LINE
  5
68
100
AcDbEntity
  8
レイヤー_1
  6
CONTINUOUS
 62
       3
100
AcDbLine
 10
40.36582759
 20
-43.97215054
 30
0.0
 11
40.36582759
 21
-35.35344249
 31
0.0
  0
LINE
  5
69
100
AcDbEntity
  8
レイヤー_1
  6
CONTINUOUS
 62
       3
100
AcDbLine
 10
41.86513277
 20
-35.35344249
 30
0.0
 11
41.86513277
 21
-43.97215054
 31
0.0
  0
LINE
  5
6A
100
AcDbEntity
  8
レイヤー_1
  6
CONTINUOUS
 62
       3
100
AcDbLine
 10
49.06446184
 20
-43.97215054
 30
0.0
 11
49.06446184
 21
-35.35344249
 31
0.0
  0
LINE
  5
6B
100
AcDbEntity
  8
レイヤー_1
  6
CONTINUOUS
 62
       3
100
AcDbLine
 10
50.56468571
 20
-35.35344249
 30
0.0
 11
50.56468571
 21
-43.97215054
 31
0.0
  0
LINE
  5
6C
100
AcDbEntity
  8
レイヤー_1
  6
CONTINUOUS
 62
       3
100
AcDbLine
 10
57.76401478
 20
-43.97215054
 30
0.0
 11
57.76401478
 21
-35.35344249
 31
0.0
  0
LINE
  5
6D
100
AcDbEntity
  8
レイヤー_1
  6
CONTINUOUS
 62
       3
100
AcDbLine
 10
59.26377931
 20
-35.35344249
 30
0.0
 11
59.26377931
 21
-43.97215054
 31
0.0
  0
LINE
  5
6E
100
AcDbEntity
  8
レイヤー_1
  6
CONTINUOUS
 62
       3
100
AcDbLine
 10
60.17604037
 20
-35.35344249
 30
0.0
 11
35.17843378
 21
-35.35344249
 31
0.0
  0
LINE
  5
6F
100
AcDbEntity
  8
レイヤー_1
  6
CONTINUOUS
 62
       3
100
AcDbLine
 10
35.20415715
 20
-42.77233892
 30
0.0
 11
38.86560371
 21
-42.77233892
 31
0.0
  0
LINE
  5
70
100
AcDbEntity
  8
レイヤー_1
  6
CONTINUOUS
 62
       3
100
AcDbLine
 10
38.86560371
 20
-42.77233892
 30
0.0
 11
38.86560371
 21
-35.35344249
 31
0.0
  0
LINE
  5
71
100
AcDbEntity
  8
レイヤー_1
  6
CONTINUOUS
 62
       3
100
AcDbLine
 10
60.17604037
 20
-34.15317152
 30
0.0
 11
56.37633067
 21
-34.15317152
 31
0.0
  0
LINE
  5
72
100
AcDbEntity
  8
レイヤー_1
  6
CONTINUOUS
 62
       3
100
AcDbLine
 10
56.37633067
 20
-34.15317152
 30
0.0
 11
56.37633067
 21
-26.73473443
 31
0.0
  0
LINE
  5
73
100
AcDbEntity
  8
レイヤー_1
  6
CONTINUOUS
 62
       3
100
AcDbLine
 10
30.42833731
 20
-20.1256649
 30
0.0
 11
28.92857278
 21
-20.1256649
 31
0.0
  0
LINE
  5
74
100
AcDbEntity
  8
レイヤー_1
  6
CONTINUOUS
 62
       3
100
AcDbLine
 10
28.92857278
 20
-20.1256649
 30
0.0
 11
28.92857278
 21
-45.2583192
 31
0.0
  0
LINE
  5
75
100
AcDbEntity
  8
レイヤー_1
  6
CONTINUOUS
 62
       3
100
AcDbLine
 10
28.92857278
 20
-45.2583192
 30
0.0
 11
66.42544201
 21
-45.2583192
 31
0.0
  0
LINE
  5
76
100
AcDbEntity
  8
レイヤー_1
  6
CONTINUOUS
 62
       3
100
AcDbLine
 10
66.42544201
 20
-45.2583192
 30
0.0
 11
66.42544201
 21
-20.1256649
 31
0.0
  0
LINE
  5
77
100
AcDbEntity
  8
レイヤー_1
  6
CONTINUOUS
 62
       3
100
AcDbLine
 10
66.42544201
 20
-20.1256649
 30
0.0
 11
64.92613683
 21
-20.1256649
 31
0.0
  0
LINE
  5
78
100
AcDbEntity
  8
レイヤー_1
  6
CONTINUOUS
 62
       3
100
AcDbLine
 10
64.92613683
 20
-20.1256649
 30
0.0
 11
64.92613683
 21
31.6081727
 31
0.0
  0
LINE
  5
79
100
AcDbEntity
  8
レイヤー_1
  6
CONTINUOUS
 62
       3
100
AcDbLine
 10
64.92613683
 20
31.6081727
 30
0.0
 11
66.42544201
 21
31.6081727
 31
0.0
  0
LINE
  5
7A
100
AcDbEntity
  8
レイヤー_1
  6
CONTINUOUS
 62
       3
100
AcDbLine
 10
66.42544201
 20
31.6081727
 30
0.0
 11
66.42544201
 21
57.74151215
 31
0.0
  0
LINE
  5
7B
100
AcDbEntity
  8
レイヤー_1
  6
CONTINUOUS
 62
       3
100
AcDbLine
 10
66.42544201
 20
57.74151215
 30
0.0
 11
28.92857278
 21
57.74151215
 31
0.0
  0
LINE
  5
7C
100
AcDbEntity
  8
レイヤー_1
  6
CONTINUOUS
 62
       3
100
AcDbLine
 10
28.92857278
 20
57.74151215
 30
0.0
 11
28.92857278
 21
31.6081727
 31
0.0
  0
LINE
  5
7D
100
AcDbEntity
  8
レイヤー_1
  6
CONTINUOUS
 62
       3
100
AcDbLine
 10
28.92857278
 20
31.6081727
 30
0.0
 11
30.42833731
 21
31.6081727
 31
0.0
  0
LINE
  5
7E
100
AcDbEntity
  8
レイヤー_1
  6
CONTINUOUS
 62
       3
100
AcDbLine
 10
30.42833731
 20
31.6081727
 30
0.0
 11
30.42833731
 21
-20.1256649
 31
0.0
  0
LINE
  5
7F
100
AcDbEntity
  8
レイヤー_1
  6
CONTINUOUS
 62
       3
100
AcDbLine
 10
46.57710352
 20
-33.69658164
 30
0.0
 11
52.9707398
 21
-33.69658164
 31
0.0
  0
LINE
  5
80
100
AcDbEntity
  8
レイヤー_1
  6
CONTINUOUS
 62
       3
100
AcDbLine
 10
52.9707398
 20
-33.69658164
 30
0.0
 11
52.9707398
 21
-27.1343654
 31
0.0
  0
LINE
  5
81
100
AcDbEntity
  8
レイヤー_1
  6
CONTINUOUS
 62
       3
100
AcDbLine
 10
52.9707398
 20
-27.1343654
 30
0.0
 11
46.57710352
 21
-27.1343654
 31
0.0
  0
LINE
  5
82
100
AcDbEntity
  8
レイヤー_1
  6
CONTINUOUS
 62
       3
100
AcDbLine
 10
46.57710352
 20
-27.1343654
 30
0.0
 11
46.57710352
 21
-33.69658164
 31
0.0
  0
LINE
  5
83
100
AcDbEntity
  8
レイヤー_1
  6
CONTINUOUS
 62
       3
100
AcDbLine
 10
37.87709123
 20
-33.69658164
 30
0.0
 11
44.27026816
 21
-33.69658164
 31
0.0
  0
LINE
  5
84
100
AcDbEntity
  8
レイヤー_1
  6
CONTINUOUS
 62
       3
100
AcDbLine
 10
44.27026816
 20
-33.69658164
 30
0.0
 11
44.27026816
 21
-27.1343654
 31
0.0
  0
LINE
  5
85
100
AcDbEntity
  8
レイヤー_1
  6
CONTINUOUS
 62
       3
100
AcDbLine
 10
44.27026816
 20
-27.1343654
 30
0.0
 11
37.87709123
 21
-27.1343654
 31
0.0
  0
LINE
  5
86
100
AcDbEntity
  8
レイヤー_1
  6
CONTINUOUS
 62
       3
100
AcDbLine
 10
37.87709123
 20
-27.1343654
 30
0.0
 11
37.87709123
 21
-33.69658164
 31
0.0
  0
LINE
  5
87
100
AcDbEntity
  8
レイヤー_1
  6
CONTINUOUS
 62
       3
100
AcDbLine
 10
42.2643044
 20
-42.31574905
 30
0.0
 11
48.65794067
 21
-42.31574905
 31
0.0
  0
LINE
  5
88
100
AcDbEntity
  8
レイヤー_1
  6
CONTINUOUS
 62
       3
100
AcDbLine
 10
48.65794067
 20
-42.31574905
 30
0.0
 11
48.65794067
 21
-35.75353281
 31
0.0
  0
LINE
  5
89
100
AcDbEntity
  8
レイヤー_1
  6
CONTINUOUS
 62
       3
100
AcDbLine
 10
48.65794067
 20
-35.75353281
 30
0.0
 11
42.2643044
 21
-35.75353281
 31
0.0
  0
LINE
  5
8A
100
AcDbEntity
  8
レイヤー_1
  6
CONTINUOUS
 62
       3
100
AcDbLine
 10
42.2643044
 20
-35.75353281
 30
0.0
 11
42.2643044
 21
-42.31574905
 31
0.0
  0
LINE
  5
8B
100
AcDbEntity
  8
レイヤー_1
  6
CONTINUOUS
 62
       3
100
AcDbLine
 10
50.963398
 20
-42.31574905
 30
0.0
 11
57.35657493
 21
-42.31574905
 31
0.0
  0
LINE
  5
8C
100
AcDbEntity
  8
レイヤー_1
  6
CONTINUOUS
 62
       3
100
AcDbLine
 10
57.35657493
 20
-42.31574905
 30
0.0
 11
57.35657493
 21
-35.75353281
 31
0.0
  0
LINE
  5
8D
100
AcDbEntity
  8
レイヤー_1
  6
CONTINUOUS
 62
       3
100
AcDbLine
 10
57.35657493
 20
-35.75353281
 30
0.0
 11
50.963398
 21
-35.75353281
 31
0.0
  0
LINE
  5
8E
100
AcDbEntity
  8
レイヤー_1
  6
CONTINUOUS
 62
       3
100
AcDbLine
 10
50.963398
 20
-35.75353281
 30
0.0
 11
50.963398
 21
-42.31574905
 31
0.0
  0
LINE
  5
8F
100
AcDbEntity
  8
レイヤー_1
  6
CONTINUOUS
 62
       3
100
AcDbLine
 10
34.65064528
 20
40.70781597
 30
0.0
 11
30.85093558
 21
40.70781597
 31
0.0
  0
LINE
  5
90
100
AcDbEntity
  8
レイヤー_1
  6
CONTINUOUS
 62
       3
100
AcDbLine
 10
30.85093558
 20
40.70781597
 30
0.0
 11
30.85093558
 21
56.40803086
 31
0.0
  0
LINE
  5
91
100
AcDbEntity
  8
レイヤー_1
  6
CONTINUOUS
 62
       3
100
AcDbLine
 10
30.85093558
 20
56.40803086
 30
0.0
 11
64.54763577
 21
56.40803086
 31
0.0
  0
LINE
  5
92
100
AcDbEntity
  8
レイヤー_1
  6
CONTINUOUS
 62
       3
100
AcDbLine
 10
64.54763577
 20
56.40803086
 30
0.0
 11
64.54763577
 21
49.32698337
 31
0.0
  0
LINE
  5
93
100
AcDbEntity
  8
レイヤー_1
  6
CONTINUOUS
 62
       3
100
AcDbLine
 10
64.54763577
 20
49.32698337
 30
0.0
 11
60.86046583
 21
49.32698337
 31
0.0
  0
LINE
  5
94
100
AcDbEntity
  8
レイヤー_1
  6
CONTINUOUS
 62
       3
100
AcDbLine
 10
59.36070131
 20
56.4459269
 30
0.0
 11
59.36070131
 21
47.82698917
 31
0.0
  0
LINE
  5
95
100
AcDbEntity
  8
レイヤー_1
  6
CONTINUOUS
 62
       3
100
AcDbLine
 10
57.86047743
 20
47.82698917
 30
0.0
 11
57.86047743
 21
56.4459269
 31
0.0
  0
LINE
  5
96
100
AcDbEntity
  8
レイヤー_1
  6
CONTINUOUS
 62
       3
100
AcDbLine
 10
41.96205476
 20
56.4459269
 30
0.0
 11
41.96205476
 21
47.82698917
 31
0.0
  0
LINE
  5
97
100
AcDbEntity
  8
レイヤー_1
  6
CONTINUOUS
 62
       3
100
AcDbLine
 10
40.46183089
 20
47.82698917
 30
0.0
 11
40.46183089
 21
56.4459269
 31
0.0
  0
LINE
  5
98
100
AcDbEntity
  8
レイヤー_1
  6
CONTINUOUS
 62
       3
100
AcDbLine
 10
33.26296116
 20
56.4459269
 30
0.0
 11
33.26296116
 21
47.82698917
 31
0.0
  0
LINE
  5
99
100
AcDbEntity
  8
レイヤー_1
  6
CONTINUOUS
 62
       3
100
AcDbLine
 10
31.76319664
 20
47.82698917
 30
0.0
 11
31.76319664
 21
56.4459269
 31
0.0
  0
LINE
  5
9A
100
AcDbEntity
  8
レイヤー_1
  6
CONTINUOUS
 62
       3
100
AcDbLine
 10
64.5219124
 20
55.24611528
 30
0.0
 11
60.86046583
 21
55.24611528
 31
0.0
  0
LINE
  5
9B
100
AcDbEntity
  8
レイヤー_1
  6
CONTINUOUS
 62
       3
100
AcDbLine
 10
60.86046583
 20
55.24611528
 30
0.0
 11
60.86046583
 21
47.82698917
 31
0.0
  0
LINE
  5
9C
100
AcDbEntity
  8
レイヤー_1
  6
CONTINUOUS
 62
       3
100
AcDbLine
 10
30.85093558
 20
46.62694788
 30
0.0
 11
34.65064528
 21
46.62694788
 31
0.0
  0
LINE
  5
9D
100
AcDbEntity
  8
レイヤー_1
  6
CONTINUOUS
 62
       3
100
AcDbLine
 10
34.65064528
 20
46.62694788
 30
0.0
 11
34.65064528
 21
39.20782177
 31
0.0
  0
LINE
  5
9E
100
AcDbEntity
  8
レイヤー_1
  6
CONTINUOUS
 62
       3
100
AcDbLine
 10
30.85093558
 20
47.82698917
 30
0.0
 11
64.54763577
 21
47.82698917
 31
0.0
  0
LINE
  5
9F
100
AcDbEntity
  8
レイヤー_1
  6
CONTINUOUS
 62
       3
100
AcDbLine
 10
38.05623615
 20
39.60814176
 30
0.0
 11
44.44941308
 21
39.60814176
 31
0.0
  0
LINE
  5
A0
100
AcDbEntity
  8
レイヤー_1
  6
CONTINUOUS
 62
       3
100
AcDbLine
 10
44.44941308
 20
39.60814176
 30
0.0
 11
44.44941308
 21
46.170358
 31
0.0
  0
LINE
  5
A1
100
AcDbEntity
  8
レイヤー_1
  6
CONTINUOUS
 62
       3
100
AcDbLine
 10
44.44941308
 20
46.170358
 30
0.0
 11
38.05623615
 21
46.170358
 31
0.0
  0
LINE
  5
A2
100
AcDbEntity
  8
レイヤー_1
  6
CONTINUOUS
 62
       3
100
AcDbLine
 10
38.05623615
 20
46.170358
 30
0.0
 11
38.05623615
 21
39.60814176
 31
0.0
  0
LINE
  5
A3
100
AcDbEntity
  8
レイヤー_1
  6
CONTINUOUS
 62
       3
100
AcDbLine
 10
55.45534204
 20
39.60814176
 30
0.0
 11
61.84897832
 21
39.60814176
 31
0.0
  0
LINE
  5
A4
100
AcDbEntity
  8
レイヤー_1
  6
CONTINUOUS
 62
       3
100
AcDbLine
 10
61.84897832
 20
39.60814176
 30
0.0
 11
61.84897832
 21
46.170358
 31
0.0
  0
LINE
  5
A5
100
AcDbEntity
  8
レイヤー_1
  6
CONTINUOUS
 62
       3
100
AcDbLine
 10
61.84897832
 20
46.170358
 30
0.0
 11
55.45534204
 21
46.170358
 31
0.0
  0
LINE
  5
A6
100
AcDbEntity
  8
レイヤー_1
  6
CONTINUOUS
 62
       3
100
AcDbLine
 10
55.45534204
 20
46.170358
 30
0.0
 11
55.45534204
 21
39.60814176
 31
0.0
  0
LINE
  5
A7
100
AcDbEntity
  8
レイヤー_1
  6
CONTINUOUS
 62
       3
100
AcDbLine
 10
51.06858822
 20
48.22730917
 30
0.0
 11
57.46176515
 21
48.22730917
 31
0.0
  0
LINE
  5
A8
100
AcDbEntity
  8
レイヤー_1
  6
CONTINUOUS
 62
       3
100
AcDbLine
 10
57.46176515
 20
48.22730917
 30
0.0
 11
57.46176515
 21
54.78929573
 31
0.0
  0
LINE
  5
A9
100
AcDbEntity
  8
レイヤー_1
  6
CONTINUOUS
 62
       3
100
AcDbLine
 10
57.46176515
 20
54.78929573
 30
0.0
 11
51.06858822
 21
54.78929573
 31
0.0
  0
LINE
  5
AA
100
AcDbEntity
  8
レイヤー_1
  6
CONTINUOUS
 62
       3
100
AcDbLine
 10
51.06858822
 20
54.78929573
 30
0.0
 11
51.06858822
 21
48.22730917
 31
0.0
  0
LINE
  5
AB
100
AcDbEntity
  8
レイヤー_1
  6
CONTINUOUS
 62
       3
100
AcDbLine
 10
33.66994168
 20
48.22730917
 30
0.0
 11
40.06311861
 21
48.22730917
 31
0.0
  0
LINE
  5
AC
100
AcDbEntity
  8
レイヤー_1
  6
CONTINUOUS
 62
       3
100
AcDbLine
 10
40.06311861
 20
48.22730917
 30
0.0
 11
40.06311861
 21
54.78929573
 31
0.0
  0
LINE
  5
AD
100
AcDbEntity
  8
レイヤー_1
  6
CONTINUOUS
 62
       3
100
AcDbLine
 10
40.06311861
 20
54.78929573
 30
0.0
 11
33.66994168
 21
54.78929573
 31
0.0
  0
LINE
  5
AE
100
AcDbEntity
  8
レイヤー_1
  6
CONTINUOUS
 62
       3
100
AcDbLine
 10
33.66994168
 20
54.78929573
 30
0.0
 11
33.66994168
 21
48.22730917
 31
0.0
  0
LINE
  5
AF
100
AcDbEntity
  8
レイヤー_1
  6
CONTINUOUS
 62
       3
100
AcDbLine
 10
50.66160771
 20
56.4459269
 30
0.0
 11
50.66160771
 21
47.82698917
 31
0.0
  0
LINE
  5
B0
100
AcDbEntity
  8
レイヤー_1
  6
CONTINUOUS
 62
       3
100
AcDbLine
 10
49.16138384
 20
47.82698917
 30
0.0
 11
49.16138384
 21
56.4459269
 31
0.0
  0
LINE
  5
B1
100
AcDbEntity
  8
レイヤー_1
  6
CONTINUOUS
 62
       3
100
AcDbLine
 10
42.36903527
 20
48.22730917
 30
0.0
 11
48.7622122
 21
48.22730917
 31
0.0
  0
LINE
  5
B2
100
AcDbEntity
  8
レイヤー_1
  6
CONTINUOUS
 62
       3
100
AcDbLine
 10
48.7622122
 20
48.22730917
 30
0.0
 11
48.7622122
 21
54.78929573
 31
0.0
  0
LINE
  5
B3
100
AcDbEntity
  8
レイヤー_1
  6
CONTINUOUS
 62
       3
100
AcDbLine
 10
48.7622122
 20
54.78929573
 30
0.0
 11
42.36903527
 21
54.78929573
 31
0.0
  0
LINE
  5
B4
100
AcDbEntity
  8
レイヤー_1
  6
CONTINUOUS
 62
       3
100
AcDbLine
 10
42.36903527
 20
54.78929573
 30
0.0
 11
42.36903527
 21
48.22730917
 31
0.0
  0
LINE
  5
B5
100
AcDbEntity
  8
レイヤー_1
  6
CONTINUOUS
 62
       3
100
AcDbLine
 10
46.7557891
 20
39.60814176
 30
0.0
 11
53.14896603
 21
39.60814176
 31
0.0
  0
LINE
  5
B6
100
AcDbEntity
  8
レイヤー_1
  6
CONTINUOUS
 62
       3
100
AcDbLine
 10
53.14896603
 20
39.60814176
 30
0.0
 11
53.14896603
 21
46.170358
 31
0.0
  0
LINE
  5
B7
100
AcDbEntity
  8
レイヤー_1
  6
CONTINUOUS
 62
       3
100
AcDbLine
 10
53.14896603
 20
46.170358
 30
0.0
 11
46.7557891
 21
46.170358
 31
0.0
  0
LINE
  5
B8
100
AcDbEntity
  8
レイヤー_1
  6
CONTINUOUS
 62
       3
100
AcDbLine
 10
46.7557891
 20
46.170358
 30
0.0
 11
46.7557891
 21
39.60814176
 31
0.0
  0
LINE
  5
B9
100
AcDbEntity
  8
レイヤー_1
  6
CONTINUOUS
 62
       3
100
AcDbLine
 10
64.54763577
 20
47.82698917
 30
0.0
 11
64.54763577
 21
38.40833014
 31
0.0
  0
LINE
  5
BA
100
AcDbEntity
  8
レイヤー_1
  6
CONTINUOUS
 62
       3
100
AcDbLine
 10
64.54763577
 20
38.40833014
 30
0.0
 11
30.85093558
 21
38.40833014
 31
0.0
  0
LINE
  5
BB
100
AcDbEntity
  8
レイヤー_1
  6
CONTINUOUS
 62
       3
100
AcDbLine
 10
30.85093558
 20
38.40833014
 30
0.0
 11
30.85093558
 21
39.20782177
 31
0.0
  0
LINE
  5
BC
100
AcDbEntity
  8
レイヤー_1
  6
CONTINUOUS
 62
       3
100
AcDbLine
 10
30.85093558
 20
39.20782177
 30
0.0
 11
36.14995046
 21
39.20782177
 31
0.0
  0
LINE
  5
BD
100
AcDbEntity
  8
レイヤー_1
  6
CONTINUOUS
 62
       3
100
AcDbLine
 10
36.14995046
 20
39.20782177
 30
0.0
 11
36.14995046
 21
47.82698917
 31
0.0
  0
LINE
  5
BE
100
AcDbEntity
  8
レイヤー_1
  6
CONTINUOUS
 62
       3
100
AcDbLine
 10
37.65017433
 20
47.82698917
 30
0.0
 11
37.65017433
 21
39.20782177
 31
0.0
  0
LINE
  5
BF
100
AcDbEntity
  8
レイヤー_1
  6
CONTINUOUS
 62
       3
100
AcDbLine
 10
37.65017433
 20
39.20782177
 30
0.0
 11
44.8495034
 21
39.20782177
 31
0.0
  0
LINE
  5
C0
100
AcDbEntity
  8
レイヤー_1
  6
CONTINUOUS
 62
       3
100
AcDbLine
 10
44.8495034
 20
39.20782177
 30
0.0
 11
44.8495034
 21
47.82698917
 31
0.0
  0
LINE
  5
C1
100
AcDbEntity
  8
レイヤー_1
  6
CONTINUOUS
 62
       3
100
AcDbLine
 10
46.34972728
 20
47.82698917
 30
0.0
 11
46.34972728
 21
39.20782177
 31
0.0
  0
LINE
  5
C2
100
AcDbEntity
  8
レイヤー_1
  6
CONTINUOUS
 62
       3
100
AcDbLine
 10
46.34972728
 20
39.20782177
 30
0.0
 11
53.548597
 21
39.20782177
 31
0.0
  0
LINE
  5
C3
100
AcDbEntity
  8
レイヤー_1
  6
CONTINUOUS
 62
       3
100
AcDbLine
 10
53.548597
 20
39.20782177
 30
0.0
 11
53.548597
 21
47.82698917
 31
0.0
  0
LINE
  5
C4
100
AcDbEntity
  8
レイヤー_1
  6
CONTINUOUS
 62
       3
100
AcDbLine
 10
55.04882087
 20
47.82698917
 30
0.0
 11
55.04882087
 21
39.20782177
 31
0.0
  0
LINE
  5
C5
100
AcDbEntity
  8
レイヤー_1
  6
CONTINUOUS
 62
       3
100
AcDbLine
 10
55.04882087
 20
39.20782177
 30
0.0
 11
62.24814995
 21
39.20782177
 31
0.0
  0
LINE
  5
C6
100
AcDbEntity
  8
レイヤー_1
  6
CONTINUOUS
 62
       3
100
AcDbLine
 10
62.24814995
 20
39.20782177
 30
0.0
 11
62.24814995
 21
47.82698917
 31
0.0
  0
LINE
  5
C7
100
AcDbEntity
  8
レイヤー_1
  6
CONTINUOUS
 62
       3
100
AcDbLine
 10
63.74837382
 20
47.82698917
 30
0.0
 11
63.74837382
 21
39.20782177
 31
0.0
  0
LINE
  5
C8
100
AcDbEntity
  8
レイヤー_1
  6
CONTINUOUS
 62
       3
100
AcDbLine
 10
63.74837382
 20
39.20782177
 30
0.0
 11
64.54763577
 21
39.20782177
 31
0.0
  0
LINE
  5
C9
100
AcDbEntity
  8
レイヤー_1
  6
CONTINUOUS
 62
       3
100
AcDbLine
 10
-60.8800686
 20
-26.73473443
 30
0.0
 11
-60.8800686
 21
-35.35344249
 31
0.0
  0
LINE
  5
CA
100
AcDbEntity
  8
レイヤー_1
  6
CONTINUOUS
 62
       3
100
AcDbLine
 10
-56.78499946
 20
-35.35344249
 30
0.0
 11
-56.78499946
 21
-43.93448418
 31
0.0
  0
LINE
  5
CB
100
AcDbEntity
  8
レイヤー_1
  6
CONTINUOUS
 62
       3
100
AcDbLine
 10
-56.78499946
 20
-43.93448418
 30
0.0
 11
-47.08590973
 21
-43.93448418
 31
0.0
  0
LINE
  5
CC
100
AcDbEntity
  8
レイヤー_1
  6
CONTINUOUS
 62
       3
100
AcDbLine
 10
-47.08590973
 20
-29.58221997
 30
0.0
 11
-48.61461305
 21
-29.58221997
 31
0.0
  0
LINE
  5
CD
100
AcDbEntity
  8
レイヤー_1
  6
CONTINUOUS
 62
       3
100
AcDbLine
 10
-48.61461305
 20
-29.58221997
 30
0.0
 11
-48.61461305
 21
-34.18302901
 31
0.0
  0
LINE
  5
CE
100
AcDbEntity
  8
レイヤー_1
  6
CONTINUOUS
 62
       3
100
AcDbLine
 10
-48.61461305
 20
-34.18302901
 30
0.0
 11
-47.08590973
 21
-34.18302901
 31
0.0
  0
LINE
  5
CF
100
AcDbEntity
  8
レイヤー_1
  6
CONTINUOUS
 62
       3
100
AcDbLine
 10
-47.08590973
 20
-26.76137649
 30
0.0
 11
-67.06722887
 21
-26.76137649
 31
0.0
  0
LINE
  5
D0
100
AcDbEntity
  8
レイヤー_1
  6
CONTINUOUS
 62
       3
100
AcDbLine
 10
-60.88466206
 20
-34.15317152
 30
0.0
 11
-49.85278006
 21
-34.15317152
 31
0.0
  0
LINE
  5
D1
100
AcDbEntity
  8
レイヤー_1
  6
CONTINUOUS
 62
       3
100
AcDbLine
 10
-49.85278006
 20
-34.15317152
 30
0.0
 11
-49.85278006
 21
-28.23403961
 31
0.0
  0
LINE
  5
D2
100
AcDbEntity
  8
レイヤー_1
  6
CONTINUOUS
 62
       3
100
AcDbLine
 10
-49.85278006
 20
-28.23403961
 30
0.0
 11
-47.08590973
 21
-28.23403961
 31
0.0
  0
LINE
  5
D3
100
AcDbEntity
  8
レイヤー_1
  6
CONTINUOUS
 62
       3
100
AcDbLine
 10
-47.08590973
 20
38.40833014
 30
0.0
 11
-67.06722887
 21
38.40833014
 31
0.0
  0
LINE
  5
D4
100
AcDbEntity
  8
レイヤー_1
  6
CONTINUOUS
 62
       3
100
AcDbLine
 10
-67.06722887
 20
38.40833014
 30
0.0
 11
-67.06722887
 21
47.82698917
 31
0.0
  0
LINE
  5
D5
100
AcDbEntity
  8
レイヤー_1
  6
CONTINUOUS
 62
       3
100
AcDbLine
 10
-67.06722887
 20
47.82698917
 30
0.0
 11
-51.08543491
 21
47.82698917
 31
0.0
  0
LINE
  5
D6
100
AcDbEntity
  8
レイヤー_1
  6
CONTINUOUS
 62
       3
100
AcDbLine
 10
-51.08543491
 20
47.82698917
 30
0.0
 11
-51.08543491
 21
56.40803086
 31
0.0
  0
LINE
  5
D7
100
AcDbEntity
  8
レイヤー_1
  6
CONTINUOUS
 62
       3
100
AcDbLine
 10
-60.8800686
 20
39.20782177
 30
0.0
 11
-60.8800686
 21
47.82698917
 31
0.0
  0
LINE
  5
D8
100
AcDbEntity
  8
レイヤー_1
  6
CONTINUOUS
 62
       3
100
AcDbLine
 10
-56.78499946
 20
47.82698917
 30
0.0
 11
-56.78499946
 21
56.40803086
 31
0.0
  0
LINE
  5
D9
100
AcDbEntity
  8
レイヤー_1
  6
CONTINUOUS
 62
       3
100
AcDbLine
 10
-56.78499946
 20
56.40803086
 30
0.0
 11
-47.08590973
 21
56.40803086
 31
0.0
  0
LINE
  5
DA
100
AcDbEntity
  8
レイヤー_1
  6
CONTINUOUS
 62
       3
100
AcDbLine
 10
-60.8800686
 20
39.20782177
 30
0.0
 11
-67.06722887
 21
39.20782177
 31
0.0
  0
LINE
  5
DB
100
AcDbEntity
  8
レイヤー_1
  6
CONTINUOUS
 62
       3
100
AcDbLine
 10
-47.08590973
 20
55.24244051
 30
0.0
 11
-51.06568304
 21
55.24244051
 31
0.0
  0
LINE
  5
DC
100
AcDbEntity
  8
レイヤー_1
  6
CONTINUOUS
 62
       3
100
AcDbLine
 10
-47.08590973
 20
-25.93455378
 30
0.0
 11
-67.06722887
 21
-25.93455378
 31
0.0
  0
LINE
  5
DD
100
AcDbEntity
  8
レイヤー_1
  6
CONTINUOUS
 62
       3
100
AcDbLine
 10
-67.06722887
 20
-25.93455378
 30
0.0
 11
-67.06722887
 21
-35.35344249
 31
0.0
  0
LINE
  5
DE
100
AcDbEntity
  8
レイヤー_1
  6
CONTINUOUS
 62
       3
100
AcDbLine
 10
-67.06722887
 20
-35.35344249
 30
0.0
 11
-51.08543491
 21
-35.35344249
 31
0.0
  0
LINE
  5
DF
100
AcDbEntity
  8
レイヤー_1
  6
CONTINUOUS
 62
       3
100
AcDbLine
 10
-51.08543491
 20
-35.35344249
 30
0.0
 11
-51.08543491
 21
-43.93448418
 31
0.0
  0
LINE
  5
E0
100
AcDbEntity
  8
レイヤー_1
  6
CONTINUOUS
 62
       3
100
AcDbLine
 10
-53.85414263
 20
-46.45537475
 30
0.0
 11
-51.84427442
 21
-46.45537475
 31
0.0
  0
LINE
  5
E1
100
AcDbEntity
  8
レイヤー_1
  6
CONTINUOUS
 62
       3
100
AcDbLine
 10
-51.84427442
 20
-46.45537475
 30
0.0
 11
-51.84427442
 21
-43.93815894
 31
0.0
  0
LINE
  5
E2
100
AcDbEntity
  8
レイヤー_1
  6
CONTINUOUS
 62
       3
100
AcDbLine
 10
-51.84427442
 20
-43.93815894
 30
0.0
 11
-53.85414263
 21
-43.93815894
 31
0.0
  0
LINE
  5
E3
100
AcDbEntity
  8
レイヤー_1
  6
CONTINUOUS
 62
       3
100
AcDbLine
 10
-53.85414263
 20
-43.93815894
 30
0.0
 11
-53.85414263
 21
-46.45537475
 31
0.0
  0
LINE
  5
E4
100
AcDbEntity
  8
レイヤー_1
  6
CONTINUOUS
 62
       3
100
AcDbLine
 10
-30.04164859
 20
15.89693351
 30
0.0
 11
-29.95181292
 21
15.89693351
 31
0.0
  0
LINE
  5
E5
100
AcDbEntity
  8
レイヤー_1
  6
CONTINUOUS
 62
       3
100
AcDbLine
 10
-29.95181292
 20
15.89693351
 30
0.0
 11
-29.69792952
 21
15.89693351
 31
0.0
  0
LINE
  5
E6
100
AcDbEntity
  8
レイヤー_1
  6
CONTINUOUS
 62
       3
100
AcDbLine
 10
-29.69792952
 20
15.89693351
 30
0.0
 11
-29.30343378
 21
15.89693351
 31
0.0
  0
LINE
  5
E7
100
AcDbEntity
  8
レイヤー_1
  6
CONTINUOUS
 62
       3
100
AcDbLine
 10
-29.30343378
 20
15.89693351
 30
0.0
 11
-28.79176108
 21
15.89693351
 31
0.0
  0
LINE
  5
E8
100
AcDbEntity
  8
レイヤー_1
  6
CONTINUOUS
 62
       3
100
AcDbLine
 10
-28.79176108
 20
15.89693351
 30
0.0
 11
-28.18634682
 21
15.89693351
 31
0.0
  0
LINE
  5
E9
100
AcDbEntity
  8
レイヤー_1
  6
CONTINUOUS
 62
       3
100
AcDbLine
 10
-28.18634682
 20
15.89693351
 30
0.0
 11
-27.51062638
 21
15.89693351
 31
0.0
  0
LINE
  5
EA
100
AcDbEntity
  8
レイヤー_1
  6
CONTINUOUS
 62
       3
100
AcDbLine
 10
-27.51062638
 20
15.89693351
 30
0.0
 11
-26.78803517
 21
15.89693351
 31
0.0
  0
LINE
  5
EB
100
AcDbEntity
  8
レイヤー_1
  6
CONTINUOUS
 62
       3
100
AcDbLine
 10
-26.78803517
 20
15.89693351
 30
0.0
 11
-26.04200856
 21
15.89693351
 31
0.0
  0
LINE
  5
EC
100
AcDbEntity
  8
レイヤー_1
  6
CONTINUOUS
 62
       3
100
AcDbLine
 10
-26.04200856
 20
15.89693351
 30
0.0
 11
-25.29598196
 21
15.89693351
 31
0.0
  0
LINE
  5
ED
100
AcDbEntity
  8
レイヤー_1
  6
CONTINUOUS
 62
       3
100
AcDbLine
 10
-25.29598196
 20
15.89693351
 30
0.0
 11
-24.57339074
 21
15.89693351
 31
0.0
  0
LINE
  5
EE
100
AcDbEntity
  8
レイヤー_1
  6
CONTINUOUS
 62
       3
100
AcDbLine
 10
-24.57339074
 20
15.89693351
 30
0.0
 11
-23.89767031
 21
15.89693351
 31
0.0
  0
LINE
  5
EF
100
AcDbEntity
  8
レイヤー_1
  6
CONTINUOUS
 62
       3
100
AcDbLine
 10
-23.89767031
 20
15.89693351
 30
0.0
 11
-23.29225605
 21
15.89693351
 31
0.0
  0
LINE
  5
F0
100
AcDbEntity
  8
レイヤー_1
  6
CONTINUOUS
 62
       3
100
AcDbLine
 10
-23.29225605
 20
15.89693351
 30
0.0
 11
-22.78058335
 21
15.89693351
 31
0.0
  0
LINE
  5
F1
100
AcDbEntity
  8
レイヤー_1
  6
CONTINUOUS
 62
       3
100
AcDbLine
 10
-22.78058335
 20
15.89693351
 30
0.0
 11
-22.38608761
 21
15.89693351
 31
0.0
  0
LINE
  5
F2
100
AcDbEntity
  8
レイヤー_1
  6
CONTINUOUS
 62
       3
100
AcDbLine
 10
-22.38608761
 20
15.89693351
 30
0.0
 11
-22.13220421
 21
15.89693351
 31
0.0
  0
LINE
  5
F3
100
AcDbEntity
  8
レイヤー_1
  6
CONTINUOUS
 62
       3
100
AcDbLine
 10
-22.13220421
 20
15.89693351
 30
0.0
 11
-22.04236854
 21
15.89693351
 31
0.0
  0
LINE
  5
F4
100
AcDbEntity
  8
レイヤー_1
  6
CONTINUOUS
 62
       3
100
AcDbLine
 10
-22.04236854
 20
15.89693351
 30
0.0
 11
-22.03775209
 21
15.88224879
 31
0.0
  0
LINE
  5
F5
100
AcDbEntity
  8
レイヤー_1
  6
CONTINUOUS
 62
       3
100
AcDbLine
 10
-22.03775209
 20
15.88224879
 30
0.0
 11
-22.02544003
 21
15.84008944
 31
0.0
  0
LINE
  5
F6
100
AcDbEntity
  8
レイヤー_1
  6
CONTINUOUS
 62
       3
100
AcDbLine
 10
-22.02544003
 20
15.84008944
 30
0.0
 11
-22.00773828
 21
15.77329767
 31
0.0
  0
LINE
  5
F7
100
AcDbEntity
  8
レイヤー_1
  6
CONTINUOUS
 62
       3
100
AcDbLine
 10
-22.00773828
 20
15.77329767
 30
0.0
 11
-21.98695276
 21
15.68471568
 31
0.0
  0
LINE
  5
F8
100
AcDbEntity
  8
レイヤー_1
  6
CONTINUOUS
 62
       3
100
AcDbLine
 10
-21.98695276
 20
15.68471568
 30
0.0
 11
-21.96538941
 21
15.57718566
 31
0.0
  0
LINE
  5
F9
100
AcDbEntity
  8
レイヤー_1
  6
CONTINUOUS
 62
       3
100
AcDbLine
 10
-21.96538941
 20
15.57718566
 30
0.0
 11
-21.94535414
 21
15.45354983
 31
0.0
  0
LINE
  5
FA
100
AcDbEntity
  8
レイヤー_1
  6
CONTINUOUS
 62
       3
100
AcDbLine
 10
-21.94535414
 20
15.45354983
 30
0.0
 11
-21.92915289
 21
15.31665038
 31
0.0
  0
LINE
  5
FB
100
AcDbEntity
  8
レイヤー_1
  6
CONTINUOUS
 62
       3
100
AcDbLine
 10
-21.92915289
 20
15.31665038
 30
0.0
 11
-21.91909157
 21
15.16932952
 31
0.0
  0
LINE
  5
FC
100
AcDbEntity
  8
レイヤー_1
  6
CONTINUOUS
 62
       3
100
AcDbLine
 10
-21.91909157
 20
15.16932952
 30
0.0
 11
-21.91747612
 21
15.01442945
 31
0.0
  0
LINE
  5
FD
100
AcDbEntity
  8
レイヤー_1
  6
CONTINUOUS
 62
       3
100
AcDbLine
 10
-21.91747612
 20
15.01442945
 30
0.0
 11
-21.92661247
 21
14.85479238
 31
0.0
  0
LINE
  5
FE
100
AcDbEntity
  8
レイヤー_1
  6
CONTINUOUS
 62
       3
100
AcDbLine
 10
-21.92661247
 20
14.85479238
 30
0.0
 11
-21.94880652
 21
14.69326051
 31
0.0
  0
LINE
  5
FF
100
AcDbEntity
  8
レイヤー_1
  6
CONTINUOUS
 62
       3
100
AcDbLine
 10
-21.94880652
 20
14.69326051
 30
0.0
 11
-21.98636422
 21
14.53267603
 31
0.0
  0
LINE
  5
100
100
AcDbEntity
  8
レイヤー_1
  6
CONTINUOUS
 62
       3
100
AcDbLine
 10
-21.98636422
 20
14.53267603
 30
0.0
 11
-22.04159149
 21
14.37588117
 31
0.0
  0
LINE
  5
101
100
AcDbEntity
  8
レイヤー_1
  6
CONTINUOUS
 62
       3
100
AcDbLine
 10
-22.04159149
 20
14.37588117
 30
0.0
 11
-22.11679425
 21
14.2257181
 31
0.0
  0
LINE
  5
102
100
AcDbEntity
  8
レイヤー_1
  6
CONTINUOUS
 62
       3
100
AcDbLine
 10
-22.11679425
 20
14.2257181
 30
0.0
 11
-22.21427843
 21
14.08502905
 31
0.0
  0
LINE
  5
103
100
AcDbEntity
  8
レイヤー_1
  6
CONTINUOUS
 62
       3
100
AcDbLine
 10
-22.21427843
 20
14.08502905
 30
0.0
 11
-22.33634995
 21
13.95665621
 31
0.0
  0
LINE
  5
104
100
AcDbEntity
  8
レイヤー_1
  6
CONTINUOUS
 62
       3
100
AcDbLine
 10
-22.33634995
 20
13.95665621
 30
0.0
 11
-22.50570814
 21
13.8073362
 31
0.0
  0
LINE
  5
105
100
AcDbEntity
  8
レイヤー_1
  6
CONTINUOUS
 62
       3
100
AcDbLine
 10
-22.50570814
 20
13.8073362
 30
0.0
 11
-22.68740106
 21
13.65001543
 31
0.0
  0
LINE
  5
106
100
AcDbEntity
  8
レイヤー_1
  6
CONTINUOUS
 62
       3
100
AcDbLine
 10
-22.68740106
 20
13.65001543
 30
0.0
 11
-22.88045672
 21
13.48269513
 31
0.0
  0
LINE
  5
107
100
AcDbEntity
  8
レイヤー_1
  6
CONTINUOUS
 62
       3
100
AcDbLine
 10
-22.88045672
 20
13.48269513
 30
0.0
 11
-23.08390319
 21
13.30337656
 31
0.0
  0
LINE
  5
108
100
AcDbEntity
  8
レイヤー_1
  6
CONTINUOUS
 62
       3
100
AcDbLine
 10
-23.08390319
 20
13.30337656
 30
0.0
 11
-23.29676848
 21
13.11006094
 31
0.0
  0
LINE
  5
109
100
AcDbEntity
  8
レイヤー_1
  6
CONTINUOUS
 62
       3
100
AcDbLine
 10
-23.29676848
 20
13.11006094
 30
0.0
 11
-23.51808066
 21
12.90074951
 31
0.0
  0
LINE
  5
10A
100
AcDbEntity
  8
レイヤー_1
  6
CONTINUOUS
 62
       3
100
AcDbLine
 10
-23.51808066
 20
12.90074951
 30
0.0
 11
-23.74686774
 21
12.67344353
 31
0.0
  0
LINE
  5
10B
100
AcDbEntity
  8
レイヤー_1
  6
CONTINUOUS
 62
       3
100
AcDbLine
 10
-23.74686774
 20
12.67344353
 30
0.0
 11
-23.98215778
 21
12.42614422
 31
0.0
  0
LINE
  5
10C
100
AcDbEntity
  8
レイヤー_1
  6
CONTINUOUS
 62
       3
100
AcDbLine
 10
-23.98215778
 20
12.42614422
 30
0.0
 11
-24.22297881
 21
12.15685282
 31
0.0
  0
LINE
  5
10D
100
AcDbEntity
  8
レイヤー_1
  6
CONTINUOUS
 62
       3
100
AcDbLine
 10
-24.22297881
 20
12.15685282
 30
0.0
 11
-24.46835887
 21
11.86357058
 31
0.0
  0
LINE
  5
10E
100
AcDbEntity
  8
レイヤー_1
  6
CONTINUOUS
 62
       3
100
AcDbLine
 10
-24.46835887
 20
11.86357058
 30
0.0
 11
-24.717326
 21
11.54429874
 31
0.0
  0
LINE
  5
10F
100
AcDbEntity
  8
レイヤー_1
  6
CONTINUOUS
 62
       3
100
AcDbLine
 10
-24.717326
 20
11.54429874
 30
0.0
 11
-24.96890824
 21
11.19703853
 31
0.0
  0
LINE
  5
110
100
AcDbEntity
  8
レイヤー_1
  6
CONTINUOUS
 62
       3
100
AcDbLine
 10
-24.96890824
 20
11.19703853
 30
0.0
 11
-25.22213363
 21
10.81979119
 31
0.0
  0
LINE
  5
111
100
AcDbEntity
  8
レイヤー_1
  6
CONTINUOUS
 62
       3
100
AcDbLine
 10
-25.22213363
 20
10.81979119
 30
0.0
 11
-25.47603021
 21
10.41055796
 31
0.0
  0
LINE
  5
112
100
AcDbEntity
  8
レイヤー_1
  6
CONTINUOUS
 62
       3
100
AcDbLine
 10
-25.47603021
 20
10.41055796
 30
0.0
 11
-25.72962601
 21
9.96734009
 31
0.0
  0
LINE
  5
113
100
AcDbEntity
  8
レイヤー_1
  6
CONTINUOUS
 62
       3
100
AcDbLine
 10
-25.72962601
 20
9.96734009
 30
0.0
 11
-25.98194908
 21
9.48813881
 31
0.0
  0
LINE
  5
114
100
AcDbEntity
  8
レイヤー_1
  6
CONTINUOUS
 62
       3
100
AcDbLine
 10
-25.98194908
 20
9.48813881
 30
0.0
 11
-26.264542
 21
8.86689203
 31
0.0
  0
LINE
  5
115
100
AcDbEntity
  8
レイヤー_1
  6
CONTINUOUS
 62
       3
100
AcDbLine
 10
-26.264542
 20
8.86689203
 30
0.0
 11
-26.50042192
 21
8.22674433
 31
0.0
  0
LINE
  5
116
100
AcDbEntity
  8
レイヤー_1
  6
CONTINUOUS
 62
       3
100
AcDbLine
 10
-26.50042192
 20
8.22674433
 30
0.0
 11
-26.69351874
 21
7.57658163
 31
0.0
  0
LINE
  5
117
100
AcDbEntity
  8
レイヤー_1
  6
CONTINUOUS
 62
       3
100
AcDbLine
 10
-26.69351874
 20
7.57658163
 30
0.0
 11
-26.84776237
 21
6.92528986
 31
0.0
  0
LINE
  5
118
100
AcDbEntity
  8
レイヤー_1
  6
CONTINUOUS
 62
       3
100
AcDbLine
 10
-26.84776237
 20
6.92528986
 30
0.0
 11
-26.96708269
 21
6.28175493
 31
0.0
  0
LINE
  5
119
100
AcDbEntity
  8
レイヤー_1
  6
CONTINUOUS
 62
       3
100
AcDbLine
 10
-26.96708269
 20
6.28175493
 30
0.0
 11
-27.05540961
 21
5.65486277
 31
0.0
  0
LINE
  5
11A
100
AcDbEntity
  8
レイヤー_1
  6
CONTINUOUS
 62
       3
100
AcDbLine
 10
-27.05540961
 20
5.65486277
 30
0.0
 11
-27.11667303
 21
5.0534993
 31
0.0
  0
LINE
  5
11B
100
AcDbEntity
  8
レイヤー_1
  6
CONTINUOUS
 62
       3
100
AcDbLine
 10
-27.11667303
 20
5.0534993
 30
0.0
 11
-27.15480284
 21
4.48655044
 31
0.0
  0
LINE
  5
11C
100
AcDbEntity
  8
レイヤー_1
  6
CONTINUOUS
 62
       3
100
AcDbLine
 10
-27.15480284
 20
4.48655044
 30
0.0
 11
-27.17372893
 21
3.96290211
 31
0.0
  0
LINE
  5
11D
100
AcDbEntity
  8
レイヤー_1
  6
CONTINUOUS
 62
       3
100
AcDbLine
 10
-27.17372893
 20
3.96290211
 30
0.0
 11
-27.17738122
 21
3.49144024
 31
0.0
  0
LINE
  5
11E
100
AcDbEntity
  8
レイヤー_1
  6
CONTINUOUS
 62
       3
100
AcDbLine
 10
-27.17738122
 20
3.49144024
 30
0.0
 11
-27.16968958
 21
3.08105074
 31
0.0
  0
LINE
  5
11F
100
AcDbEntity
  8
レイヤー_1
  6
CONTINUOUS
 62
       3
100
AcDbLine
 10
-27.16968958
 20
3.08105074
 30
0.0
 11
-27.15458393
 21
2.74061955
 31
0.0
  0
LINE
  5
120
100
AcDbEntity
  8
レイヤー_1
  6
CONTINUOUS
 62
       3
100
AcDbLine
 10
-27.15458393
 20
2.74061955
 30
0.0
 11
-27.13599416
 21
2.47903257
 31
0.0
  0
LINE
  5
121
100
AcDbEntity
  8
レイヤー_1
  6
CONTINUOUS
 62
       3
100
AcDbLine
 10
-27.13599416
 20
2.47903257
 30
0.0
 11
-27.11785016
 21
2.30517573
 31
0.0
  0
LINE
  5
122
100
AcDbEntity
  8
レイヤー_1
  6
CONTINUOUS
 62
       3
100
AcDbLine
 10
-27.11785016
 20
2.30517573
 30
0.0
 11
-27.10408184
 21
2.22793496
 31
0.0
  0
LINE
  5
123
100
AcDbEntity
  8
レイヤー_1
  6
CONTINUOUS
 62
       3
100
AcDbLine
 10
-27.10408184
 20
2.22793496
 30
0.0
 11
-27.09861909
 21
2.25619618
 31
0.0
  0
LINE
  5
124
100
AcDbEntity
  8
レイヤー_1
  6
CONTINUOUS
 62
       3
100
AcDbLine
 10
-27.09861909
 20
2.25619618
 30
0.0
 11
-27.10126032
 21
2.14168985
 31
0.0
  0
LINE
  5
125
100
AcDbEntity
  8
レイヤー_1
  6
CONTINUOUS
 62
       3
100
AcDbLine
 10
-27.10126032
 20
2.14168985
 30
0.0
 11
-27.1087247
 21
2.04018875
 31
0.0
  0
LINE
  5
126
100
AcDbEntity
  8
レイヤー_1
  6
CONTINUOUS
 62
       3
100
AcDbLine
 10
-27.1087247
 20
2.04018875
 30
0.0
 11
-27.12032318
 21
1.95091773
 31
0.0
  0
LINE
  5
127
100
AcDbEntity
  8
レイヤー_1
  6
CONTINUOUS
 62
       3
100
AcDbLine
 10
-27.12032318
 20
1.95091773
 30
0.0
 11
-27.13536676
 21
1.87310166
 31
0.0
  0
LINE
  5
128
100
AcDbEntity
  8
レイヤー_1
  6
CONTINUOUS
 62
       3
100
AcDbLine
 10
-27.13536676
 20
1.87310166
 30
0.0
 11
-27.15316642
 21
1.80596537
 31
0.0
  0
LINE
  5
129
100
AcDbEntity
  8
レイヤー_1
  6
CONTINUOUS
 62
       3
100
AcDbLine
 10
-27.15316642
 20
1.80596537
 30
0.0
 11
-27.17303313
 21
1.74873374
 31
0.0
  0
LINE
  5
12A
100
AcDbEntity
  8
レイヤー_1
  6
CONTINUOUS
 62
       3
100
AcDbLine
 10
-27.17303313
 20
1.74873374
 30
0.0
 11
-27.19427788
 21
1.70063161
 31
0.0
  0
LINE
  5
12B
100
AcDbEntity
  8
レイヤー_1
  6
CONTINUOUS
 62
       3
100
AcDbLine
 10
-27.19427788
 20
1.70063161
 30
0.0
 11
-27.21621165
 21
1.66088383
 31
0.0
  0
LINE
  5
12C
100
AcDbEntity
  8
レイヤー_1
  6
CONTINUOUS
 62
       3
100
AcDbLine
 10
-27.21621165
 20
1.66088383
 30
0.0
 11
-27.23814542
 21
1.62871526
 31
0.0
  0
LINE
  5
12D
100
AcDbEntity
  8
レイヤー_1
  6
CONTINUOUS
 62
       3
100
AcDbLine
 10
-27.23814542
 20
1.62871526
 30
0.0
 11
-27.25939017
 21
1.60335075
 31
0.0
  0
LINE
  5
12E
100
AcDbEntity
  8
レイヤー_1
  6
CONTINUOUS
 62
       3
100
AcDbLine
 10
-27.25939017
 20
1.60335075
 30
0.0
 11
-27.27925688
 21
1.58401515
 31
0.0
  0
LINE
  5
12F
100
AcDbEntity
  8
レイヤー_1
  6
CONTINUOUS
 62
       3
100
AcDbLine
 10
-27.27925688
 20
1.58401515
 30
0.0
 11
-27.29705654
 21
1.56993333
 31
0.0
  0
LINE
  5
130
100
AcDbEntity
  8
レイヤー_1
  6
CONTINUOUS
 62
       3
100
AcDbLine
 10
-27.29705654
 20
1.56993333
 30
0.0
 11
-27.31210012
 21
1.56033013
 31
0.0
  0
LINE
  5
131
100
AcDbEntity
  8
レイヤー_1
  6
CONTINUOUS
 62
       3
100
AcDbLine
 10
-27.31210012
 20
1.56033013
 30
0.0
 11
-27.3236986
 21
1.5544304
 31
0.0
  0
LINE
  5
132
100
AcDbEntity
  8
レイヤー_1
  6
CONTINUOUS
 62
       3
100
AcDbLine
 10
-27.3236986
 20
1.5544304
 30
0.0
 11
-27.33116297
 21
1.55145901
 31
0.0
  0
LINE
  5
133
100
AcDbEntity
  8
レイヤー_1
  6
CONTINUOUS
 62
       3
100
AcDbLine
 10
-27.33116297
 20
1.55145901
 30
0.0
 11
-27.33380421
 21
1.5506408
 31
0.0
  0
LINE
  5
134
100
AcDbEntity
  8
レイヤー_1
  6
CONTINUOUS
 62
       3
100
AcDbLine
 10
-30.04164859
 20
37.48550413
 30
0.0
 11
-29.96198186
 21
37.34086253
 31
0.0
  0
LINE
  5
135
100
AcDbEntity
  8
レイヤー_1
  6
CONTINUOUS
 62
       3
100
AcDbLine
 10
-29.96198186
 20
37.34086253
 30
0.0
 11
-29.73730379
 21
36.93237926
 31
0.0
  0
LINE
  5
136
100
AcDbEntity
  8
レイヤー_1
  6
CONTINUOUS
 62
       3
100
AcDbLine
 10
-29.73730379
 20
36.93237926
 30
0.0
 11
-29.38909754
 21
36.29821658
 31
0.0
  0
LINE
  5
137
100
AcDbEntity
  8
レイヤー_1
  6
CONTINUOUS
 62
       3
100
AcDbLine
 10
-29.38909754
 20
36.29821658
 30
0.0
 11
-28.93884628
 21
35.47653677
 31
0.0
  0
LINE
  5
138
100
AcDbEntity
  8
レイヤー_1
  6
CONTINUOUS
 62
       3
100
AcDbLine
 10
-28.93884628
 20
35.47653677
 30
0.0
 11
-28.40803315
 21
34.5055021
 31
0.0
  0
LINE
  5
139
100
AcDbEntity
  8
レイヤー_1
  6
CONTINUOUS
 62
       3
100
AcDbLine
 10
-28.40803315
 20
34.5055021
 30
0.0
 11
-27.81814133
 21
33.42327484
 31
0.0
  0
LINE
  5
13A
100
AcDbEntity
  8
レイヤー_1
  6
CONTINUOUS
 62
       3
100
AcDbLine
 10
-27.81814133
 20
33.42327484
 30
0.0
 11
-27.19065398
 21
32.26801726
 31
0.0
  0
LINE
  5
13B
100
AcDbEntity
  8
レイヤー_1
  6
CONTINUOUS
 62
       3
100
AcDbLine
 10
-27.19065398
 20
32.26801726
 30
0.0
 11
-26.54705426
 21
31.07789164
 31
0.0
  0
LINE
  5
13C
100
AcDbEntity
  8
レイヤー_1
  6
CONTINUOUS
 62
       3
100
AcDbLine
 10
-26.54705426
 20
31.07789164
 30
0.0
 11
-25.90882533
 21
29.89106025
 31
0.0
  0
LINE
  5
13D
100
AcDbEntity
  8
レイヤー_1
  6
CONTINUOUS
 62
       3
100
AcDbLine
 10
-25.90882533
 20
29.89106025
 30
0.0
 11
-25.29745034
 21
28.74568535
 31
0.0
  0
LINE
  5
13E
100
AcDbEntity
  8
レイヤー_1
  6
CONTINUOUS
 62
       3
100
AcDbLine
 10
-25.29745034
 20
28.74568535
 30
0.0
 11
-24.73441248
 21
27.67992923
 31
0.0
  0
LINE
  5
13F
100
AcDbEntity
  8
レイヤー_1
  6
CONTINUOUS
 62
       3
100
AcDbLine
 10
-24.73441248
 20
27.67992923
 30
0.0
 11
-24.24119489
 21
26.73195415
 31
0.0
  0
LINE
  5
140
100
AcDbEntity
  8
レイヤー_1
  6
CONTINUOUS
 62
       3
100
AcDbLine
 10
-24.24119489
 20
26.73195415
 30
0.0
 11
-23.83928073
 21
25.93992239
 31
0.0
  0
LINE
  5
141
100
AcDbEntity
  8
レイヤー_1
  6
CONTINUOUS
 62
       3
100
AcDbLine
 10
-23.83928073
 20
25.93992239
 30
0.0
 11
-23.55015318
 21
25.34199622
 31
0.0
  0
LINE
  5
142
100
AcDbEntity
  8
レイヤー_1
  6
CONTINUOUS
 62
       3
100
AcDbLine
 10
-23.55015318
 20
25.34199622
 30
0.0
 11
-23.39529539
 21
24.97633791
 31
0.0
  0
LINE
  5
143
100
AcDbEntity
  8
レイヤー_1
  6
CONTINUOUS
 62
       3
100
AcDbLine
 10
-23.39529539
 20
24.97633791
 30
0.0
 11
-23.37493114
 21
24.88907718
 31
0.0
  0
LINE
  5
144
100
AcDbEntity
  8
レイヤー_1
  6
CONTINUOUS
 62
       3
100
AcDbLine
 10
-23.37493114
 20
24.88907718
 30
0.0
 11
-23.37493114
 21
24.86263333
 31
0.0
  0
LINE
  5
145
100
AcDbEntity
  8
レイヤー_1
  6
CONTINUOUS
 62
       3
100
AcDbLine
 10
-23.37493114
 20
24.86263333
 30
0.0
 11
-23.37493114
 21
24.81285826
 31
0.0
  0
LINE
  5
146
100
AcDbEntity
  8
レイヤー_1
  6
CONTINUOUS
 62
       3
100
AcDbLine
 10
-23.37493114
 20
24.81285826
 30
0.0
 11
-23.37493114
 21
24.74299995
 31
0.0
  0
LINE
  5
147
100
AcDbEntity
  8
レイヤー_1
  6
CONTINUOUS
 62
       3
100
AcDbLine
 10
-23.37493114
 20
24.74299995
 30
0.0
 11
-23.37493114
 21
24.65630636
 31
0.0
  0
LINE
  5
148
100
AcDbEntity
  8
レイヤー_1
  6
CONTINUOUS
 62
       3
100
AcDbLine
 10
-23.37493114
 20
24.65630636
 30
0.0
 11
-23.37493114
 21
24.55602547
 31
0.0
  0
LINE
  5
149
100
AcDbEntity
  8
レイヤー_1
  6
CONTINUOUS
 62
       3
100
AcDbLine
 10
-23.37493114
 20
24.55602547
 30
0.0
 11
-23.37493114
 21
24.44540524
 31
0.0
  0
LINE
  5
14A
100
AcDbEntity
  8
レイヤー_1
  6
CONTINUOUS
 62
       3
100
AcDbLine
 10
-23.37493114
 20
24.44540524
 30
0.0
 11
-23.37493114
 21
24.32769366
 31
0.0
  0
LINE
  5
14B
100
AcDbEntity
  8
レイヤー_1
  6
CONTINUOUS
 62
       3
100
AcDbLine
 10
-23.37493114
 20
24.32769366
 30
0.0
 11
-23.37493114
 21
24.20613869
 31
0.0
  0
LINE
  5
14C
100
AcDbEntity
  8
レイヤー_1
  6
CONTINUOUS
 62
       3
100
AcDbLine
 10
-23.37493114
 20
24.20613869
 30
0.0
 11
-23.37493114
 21
24.0839883
 31
0.0
  0
LINE
  5
14D
100
AcDbEntity
  8
レイヤー_1
  6
CONTINUOUS
 62
       3
100
AcDbLine
 10
-23.37493114
 20
24.0839883
 30
0.0
 11
-23.37493114
 21
23.96449047
 31
0.0
  0
LINE
  5
14E
100
AcDbEntity
  8
レイヤー_1
  6
CONTINUOUS
 62
       3
100
AcDbLine
 10
-23.37493114
 20
23.96449047
 30
0.0
 11
-23.37493114
 21
23.85089315
 31
0.0
  0
LINE
  5
14F
100
AcDbEntity
  8
レイヤー_1
  6
CONTINUOUS
 62
       3
100
AcDbLine
 10
-23.37493114
 20
23.85089315
 30
0.0
 11
-23.37493114
 21
23.74644434
 31
0.0
  0
LINE
  5
150
100
AcDbEntity
  8
レイヤー_1
  6
CONTINUOUS
 62
       3
100
AcDbLine
 10
-23.37493114
 20
23.74644434
 30
0.0
 11
-23.37493114
 21
23.65439198
 31
0.0
  0
LINE
  5
151
100
AcDbEntity
  8
レイヤー_1
  6
CONTINUOUS
 62
       3
100
AcDbLine
 10
-23.37493114
 20
23.65439198
 30
0.0
 11
-23.37493114
 21
23.57798407
 31
0.0
  0
LINE
  5
152
100
AcDbEntity
  8
レイヤー_1
  6
CONTINUOUS
 62
       3
100
AcDbLine
 10
-23.37493114
 20
23.57798407
 30
0.0
 11
-23.37493114
 21
23.52046856
 31
0.0
  0
LINE
  5
153
100
AcDbEntity
  8
レイヤー_1
  6
CONTINUOUS
 62
       3
100
AcDbLine
 10
-23.37493114
 20
23.52046856
 30
0.0
 11
-23.38664498
 21
23.46517211
 31
0.0
  0
LINE
  5
154
100
AcDbEntity
  8
レイヤー_1
  6
CONTINUOUS
 62
       3
100
AcDbLine
 10
-23.38664498
 20
23.46517211
 30
0.0
 11
-23.41968064
 21
23.39477889
 31
0.0
  0
LINE
  5
155
100
AcDbEntity
  8
レイヤー_1
  6
CONTINUOUS
 62
       3
100
AcDbLine
 10
-23.41968064
 20
23.39477889
 30
0.0
 11
-23.47087932
 21
23.3119733
 31
0.0
  0
LINE
  5
156
100
AcDbEntity
  8
レイヤー_1
  6
CONTINUOUS
 62
       3
100
AcDbLine
 10
-23.47087932
 20
23.3119733
 30
0.0
 11
-23.53708225
 21
23.21943971
 31
0.0
  0
LINE
  5
157
100
AcDbEntity
  8
レイヤー_1
  6
CONTINUOUS
 62
       3
100
AcDbLine
 10
-23.53708225
 20
23.21943971
 30
0.0
 11
-23.61513064
 21
23.11986249
 31
0.0
  0
LINE
  5
158
100
AcDbEntity
  8
レイヤー_1
  6
CONTINUOUS
 62
       3
100
AcDbLine
 10
-23.61513064
 20
23.11986249
 30
0.0
 11
-23.70186568
 21
23.01592603
 31
0.0
  0
LINE
  5
159
100
AcDbEntity
  8
レイヤー_1
  6
CONTINUOUS
 62
       3
100
AcDbLine
 10
-23.70186568
 20
23.01592603
 30
0.0
 11
-23.79412861
 21
22.9103147
 31
0.0
  0
LINE
  5
15A
100
AcDbEntity
  8
レイヤー_1
  6
CONTINUOUS
 62
       3
100
AcDbLine
 10
-23.79412861
 20
22.9103147
 30
0.0
 11
-23.88876063
 21
22.80571288
 31
0.0
  0
LINE
  5
15B
100
AcDbEntity
  8
レイヤー_1
  6
CONTINUOUS
 62
       3
100
AcDbLine
 10
-23.88876063
 20
22.80571288
 30
0.0
 11
-23.98260295
 21
22.70480495
 31
0.0
  0
LINE
  5
15C
100
AcDbEntity
  8
レイヤー_1
  6
CONTINUOUS
 62
       3
100
AcDbLine
 10
-23.98260295
 20
22.70480495
 30
0.0
 11
-24.07249679
 21
22.61027528
 31
0.0
  0
LINE
  5
15D
100
AcDbEntity
  8
レイヤー_1
  6
CONTINUOUS
 62
       3
100
AcDbLine
 10
-24.07249679
 20
22.61027528
 30
0.0
 11
-24.15528336
 21
22.52480825
 31
0.0
  0
LINE
  5
15E
100
AcDbEntity
  8
レイヤー_1
  6
CONTINUOUS
 62
       3
100
AcDbLine
 10
-24.15528336
 20
22.52480825
 30
0.0
 11
-24.22780386
 21
22.45108825
 31
0.0
  0
LINE
  5
15F
100
AcDbEntity
  8
レイヤー_1
  6
CONTINUOUS
 62
       3
100
AcDbLine
 10
-24.22780386
 20
22.45108825
 30
0.0
 11
-24.28689952
 21
22.39179964
 31
0.0
  0
LINE
  5
160
100
AcDbEntity
  8
レイヤー_1
  6
CONTINUOUS
 62
       3
100
AcDbLine
 10
-24.28689952
 20
22.39179964
 30
0.0
 11
-24.32941154
 21
22.34962681
 31
0.0
  0
LINE
  5
161
100
AcDbEntity
  8
レイヤー_1
  6
CONTINUOUS
 62
       3
100
AcDbLine
 10
-24.32941154
 20
22.34962681
 30
0.0
 11
-24.35218113
 21
22.32725412
 31
0.0
  0
LINE
  5
162
100
AcDbEntity
  8
レイヤー_1
  6
CONTINUOUS
 62
       3
100
AcDbLine
 10
-24.35218113
 20
22.32725412
 30
0.0
 11
-24.35702472
 21
22.32433171
 31
0.0
  0
LINE
  5
163
100
AcDbEntity
  8
レイヤー_1
  6
CONTINUOUS
 62
       3
100
AcDbLine
 10
-24.35702472
 20
22.32433171
 30
0.0
 11
-24.37108766
 21
22.32433171
 31
0.0
  0
LINE
  5
164
100
AcDbEntity
  8
レイヤー_1
  6
CONTINUOUS
 62
       3
100
AcDbLine
 10
-24.37108766
 20
22.32433171
 30
0.0
 11
-24.39734392
 21
22.32433171
 31
0.0
  0
LINE
  5
165
100
AcDbEntity
  8
レイヤー_1
  6
CONTINUOUS
 62
       3
100
AcDbLine
 10
-24.39734392
 20
22.32433171
 30
0.0
 11
-24.43384255
 21
22.32433171
 31
0.0
  0
LINE
  5
166
100
AcDbEntity
  8
レイヤー_1
  6
CONTINUOUS
 62
       3
100
AcDbLine
 10
-24.43384255
 20
22.32433171
 30
0.0
 11
-24.47863262
 21
22.32433171
 31
0.0
  0
LINE
  5
167
100
AcDbEntity
  8
レイヤー_1
  6
CONTINUOUS
 62
       3
100
AcDbLine
 10
-24.47863262
 20
22.32433171
 30
0.0
 11
-24.52976322
 21
22.32433171
 31
0.0
  0
LINE
  5
168
100
AcDbEntity
  8
レイヤー_1
  6
CONTINUOUS
 62
       3
100
AcDbLine
 10
-24.52976322
 20
22.32433171
 30
0.0
 11
-24.5852834
 21
22.32433171
 31
0.0
  0
LINE
  5
169
100
AcDbEntity
  8
レイヤー_1
  6
CONTINUOUS
 62
       3
100
AcDbLine
 10
-24.5852834
 20
22.32433171
 30
0.0
 11
-24.64324225
 21
22.32433171
 31
0.0
  0
LINE
  5
16A
100
AcDbEntity
  8
レイヤー_1
  6
CONTINUOUS
 62
       3
100
AcDbLine
 10
-24.64324225
 20
22.32433171
 30
0.0
 11
-24.70168883
 21
22.32433171
 31
0.0
  0
LINE
  5
16B
100
AcDbEntity
  8
レイヤー_1
  6
CONTINUOUS
 62
       3
100
AcDbLine
 10
-24.70168883
 20
22.32433171
 30
0.0
 11
-24.75867222
 21
22.32433171
 31
0.0
  0
LINE
  5
16C
100
AcDbEntity
  8
レイヤー_1
  6
CONTINUOUS
 62
       3
100
AcDbLine
 10
-24.75867222
 20
22.32433171
 30
0.0
 11
-24.81224147
 21
22.32433171
 31
0.0
  0
LINE
  5
16D
100
AcDbEntity
  8
レイヤー_1
  6
CONTINUOUS
 62
       3
100
AcDbLine
 10
-24.81224147
 20
22.32433171
 30
0.0
 11
-24.86044568
 21
22.32433171
 31
0.0
  0
LINE
  5
16E
100
AcDbEntity
  8
レイヤー_1
  6
CONTINUOUS
 62
       3
100
AcDbLine
 10
-24.86044568
 20
22.32433171
 30
0.0
 11
-24.90133389
 21
22.32433171
 31
0.0
  0
LINE
  5
16F
100
AcDbEntity
  8
レイヤー_1
  6
CONTINUOUS
 62
       3
100
AcDbLine
 10
-24.90133389
 20
22.32433171
 30
0.0
 11
-24.9329552
 21
22.32433171
 31
0.0
  0
LINE
  5
170
100
AcDbEntity
  8
レイヤー_1
  6
CONTINUOUS
 62
       3
100
AcDbLine
 10
-24.9329552
 20
22.32433171
 30
0.0
 11
-24.95335867
 21
22.32433171
 31
0.0
  0
LINE
  5
171
100
AcDbEntity
  8
レイヤー_1
  6
CONTINUOUS
 62
       3
100
AcDbLine
 10
-24.95335867
 20
22.32433171
 30
0.0
 11
-24.96059336
 21
22.32433171
 31
0.0
  0
LINE
  5
172
100
AcDbEntity
  8
レイヤー_1
  6
CONTINUOUS
 62
       3
100
AcDbLine
 10
-24.96059336
 20
22.32433171
 30
0.0
 11
-24.96059336
 21
22.33628158
 31
0.0
  0
LINE
  5
173
100
AcDbEntity
  8
レイヤー_1
  6
CONTINUOUS
 62
       3
100
AcDbLine
 10
-24.96059336
 20
22.33628158
 30
0.0
 11
-24.96059336
 21
22.3699829
 31
0.0
  0
LINE
  5
174
100
AcDbEntity
  8
レイヤー_1
  6
CONTINUOUS
 62
       3
100
AcDbLine
 10
-24.96059336
 20
22.3699829
 30
0.0
 11
-24.96059336
 21
22.42221324
 31
0.0
  0
LINE
  5
175
100
AcDbEntity
  8
レイヤー_1
  6
CONTINUOUS
 62
       3
100
AcDbLine
 10
-24.96059336
 20
22.42221324
 30
0.0
 11
-24.96059336
 21
22.48975016
 31
0.0
  0
LINE
  5
176
100
AcDbEntity
  8
レイヤー_1
  6
CONTINUOUS
 62
       3
100
AcDbLine
 10
-24.96059336
 20
22.48975016
 30
0.0
 11
-24.96059336
 21
22.56937121
 31
0.0
  0
LINE
  5
177
100
AcDbEntity
  8
レイヤー_1
  6
CONTINUOUS
 62
       3
100
AcDbLine
 10
-24.96059336
 20
22.56937121
 30
0.0
 11
-24.96059336
 21
22.65785397
 31
0.0
  0
LINE
  5
178
100
AcDbEntity
  8
レイヤー_1
  6
CONTINUOUS
 62
       3
100
AcDbLine
 10
-24.96059336
 20
22.65785397
 30
0.0
 11
-24.96059336
 21
22.75197599
 31
0.0
  0
LINE
  5
179
100
AcDbEntity
  8
レイヤー_1
  6
CONTINUOUS
 62
       3
100
AcDbLine
 10
-24.96059336
 20
22.75197599
 30
0.0
 11
-24.96059336
 21
22.84851484
 31
0.0
  0
LINE
  5
17A
100
AcDbEntity
  8
レイヤー_1
  6
CONTINUOUS
 62
       3
100
AcDbLine
 10
-24.96059336
 20
22.84851484
 30
0.0
 11
-24.96059336
 21
22.94424808
 31
0.0
  0
LINE
  5
17B
100
AcDbEntity
  8
レイヤー_1
  6
CONTINUOUS
 62
       3
100
AcDbLine
 10
-24.96059336
 20
22.94424808
 30
0.0
 11
-24.96059336
 21
23.03595327
 31
0.0
  0
LINE
  5
17C
100
AcDbEntity
  8
レイヤー_1
  6
CONTINUOUS
 62
       3
100
AcDbLine
 10
-24.96059336
 20
23.03595327
 30
0.0
 11
-24.96059336
 21
23.12040798
 31
0.0
  0
LINE
  5
17D
100
AcDbEntity
  8
レイヤー_1
  6
CONTINUOUS
 62
       3
100
AcDbLine
 10
-24.96059336
 20
23.12040798
 30
0.0
 11
-24.96059336
 21
23.19438977
 31
0.0
  0
LINE
  5
17E
100
AcDbEntity
  8
レイヤー_1
  6
CONTINUOUS
 62
       3
100
AcDbLine
 10
-24.96059336
 20
23.19438977
 30
0.0
 11
-24.96059336
 21
23.2546762
 31
0.0
  0
LINE
  5
17F
100
AcDbEntity
  8
レイヤー_1
  6
CONTINUOUS
 62
       3
100
AcDbLine
 10
-24.96059336
 20
23.2546762
 30
0.0
 11
-24.96059336
 21
23.29804484
 31
0.0
  0
LINE
  5
180
100
AcDbEntity
  8
レイヤー_1
  6
CONTINUOUS
 62
       3
100
AcDbLine
 10
-24.96059336
 20
23.29804484
 30
0.0
 11
-24.96059336
 21
23.32127324
 31
0.0
  0
LINE
  5
181
100
AcDbEntity
  8
レイヤー_1
  6
CONTINUOUS
 62
       3
100
AcDbLine
 10
-24.96059336
 20
23.32127324
 30
0.0
 11
-24.96398471
 21
23.32432784
 31
0.0
  0
LINE
  5
182
100
AcDbEntity
  8
レイヤー_1
  6
CONTINUOUS
 62
       3
100
AcDbLine
 10
-24.96398471
 20
23.32432784
 30
0.0
 11
-24.98977389
 21
23.32432784
 31
0.0
  0
LINE
  5
183
100
AcDbEntity
  8
レイヤー_1
  6
CONTINUOUS
 62
       3
100
AcDbLine
 10
-24.98977389
 20
23.32432784
 30
0.0
 11
-25.03792364
 21
23.32432784
 31
0.0
  0
LINE
  5
184
100
AcDbEntity
  8
レイヤー_1
  6
CONTINUOUS
 62
       3
100
AcDbLine
 10
-25.03792364
 20
23.32432784
 30
0.0
 11
-25.10485625
 21
23.32432784
 31
0.0
  0
LINE
  5
185
100
AcDbEntity
  8
レイヤー_1
  6
CONTINUOUS
 62
       3
100
AcDbLine
 10
-25.10485625
 20
23.32432784
 30
0.0
 11
-25.18699405
 21
23.32432784
 31
0.0
  0
LINE
  5
186
100
AcDbEntity
  8
レイヤー_1
  6
CONTINUOUS
 62
       3
100
AcDbLine
 10
-25.18699405
 20
23.32432784
 30
0.0
 11
-25.28075934
 21
23.32432784
 31
0.0
  0
LINE
  5
187
100
AcDbEntity
  8
レイヤー_1
  6
CONTINUOUS
 62
       3
100
AcDbLine
 10
-25.28075934
 20
23.32432784
 30
0.0
 11
-25.38257443
 21
23.32432784
 31
0.0
  0
LINE
  5
188
100
AcDbEntity
  8
レイヤー_1
  6
CONTINUOUS
 62
       3
100
AcDbLine
 10
-25.38257443
 20
23.32432784
 30
0.0
 11
-25.48886163
 21
23.32432784
 31
0.0
  0
LINE
  5
189
100
AcDbEntity
  8
レイヤー_1
  6
CONTINUOUS
 62
       3
100
AcDbLine
 10
-25.48886163
 20
23.32432784
 30
0.0
 11
-25.59604326
 21
23.32432784
 31
0.0
  0
LINE
  5
18A
100
AcDbEntity
  8
レイヤー_1
  6
CONTINUOUS
 62
       3
100
AcDbLine
 10
-25.59604326
 20
23.32432784
 30
0.0
 11
-25.70054162
 21
23.32432784
 31
0.0
  0
LINE
  5
18B
100
AcDbEntity
  8
レイヤー_1
  6
CONTINUOUS
 62
       3
100
AcDbLine
 10
-25.70054162
 20
23.32432784
 30
0.0
 11
-25.79877902
 21
23.32432784
 31
0.0
  0
LINE
  5
18C
100
AcDbEntity
  8
レイヤー_1
  6
CONTINUOUS
 62
       3
100
AcDbLine
 10
-25.79877902
 20
23.32432784
 30
0.0
 11
-25.88717777
 21
23.32432784
 31
0.0
  0
LINE
  5
18D
100
AcDbEntity
  8
レイヤー_1
  6
CONTINUOUS
 62
       3
100
AcDbLine
 10
-25.88717777
 20
23.32432784
 30
0.0
 11
-25.96216019
 21
23.32432784
 31
0.0
  0
LINE
  5
18E
100
AcDbEntity
  8
レイヤー_1
  6
CONTINUOUS
 62
       3
100
AcDbLine
 10
-25.96216019
 20
23.32432784
 30
0.0
 11
-26.02014858
 21
23.32432784
 31
0.0
  0
LINE
  5
18F
100
AcDbEntity
  8
レイヤー_1
  6
CONTINUOUS
 62
       3
100
AcDbLine
 10
-26.02014858
 20
23.32432784
 30
0.0
 11
-26.05756526
 21
23.32432784
 31
0.0
  0
LINE
  5
190
100
AcDbEntity
  8
レイヤー_1
  6
CONTINUOUS
 62
       3
100
AcDbLine
 10
-26.05756526
 20
23.32432784
 30
0.0
 11
-26.07083252
 21
23.32432784
 31
0.0
  0
LINE
  5
191
100
AcDbEntity
  8
レイヤー_1
  6
CONTINUOUS
 62
       3
100
AcDbLine
 10
-26.07083252
 20
23.32432784
 30
0.0
 11
-26.07083252
 21
23.28042562
 31
0.0
  0
LINE
  5
192
100
AcDbEntity
  8
レイヤー_1
  6
CONTINUOUS
 62
       3
100
AcDbLine
 10
-26.07083252
 20
23.28042562
 30
0.0
 11
-26.07083252
 21
23.15614102
 31
0.0
  0
LINE
  5
193
100
AcDbEntity
  8
レイヤー_1
  6
CONTINUOUS
 62
       3
100
AcDbLine
 10
-26.07083252
 20
23.15614102
 30
0.0
 11
-26.07083252
 21
22.96260713
 31
0.0
  0
LINE
  5
194
100
AcDbEntity
  8
レイヤー_1
  6
CONTINUOUS
 62
       3
100
AcDbLine
 10
-26.07083252
 20
22.96260713
 30
0.0
 11
-26.07083252
 21
22.71095706
 31
0.0
  0
LINE
  5
195
100
AcDbEntity
  8
レイヤー_1
  6
CONTINUOUS
 62
       3
100
AcDbLine
 10
-26.07083252
 20
22.71095706
 30
0.0
 11
-26.07083252
 21
22.41232391
 31
0.0
  0
LINE
  5
196
100
AcDbEntity
  8
レイヤー_1
  6
CONTINUOUS
 62
       3
100
AcDbLine
 10
-26.07083252
 20
22.41232391
 30
0.0
 11
-26.07083252
 21
22.07784078
 31
0.0
  0
LINE
  5
197
100
AcDbEntity
  8
レイヤー_1
  6
CONTINUOUS
 62
       3
100
AcDbLine
 10
-26.07083252
 20
22.07784078
 30
0.0
 11
-26.07083252
 21
21.71864075
 31
0.0
  0
LINE
  5
198
100
AcDbEntity
  8
レイヤー_1
  6
CONTINUOUS
 62
       3
100
AcDbLine
 10
-26.07083252
 20
21.71864075
 30
0.0
 11
-26.07083252
 21
21.34585695
 31
0.0
  0
LINE
  5
199
100
AcDbEntity
  8
レイヤー_1
  6
CONTINUOUS
 62
       3
100
AcDbLine
 10
-26.07083252
 20
21.34585695
 30
0.0
 11
-26.07083252
 21
20.97062245
 31
0.0
  0
LINE
  5
19A
100
AcDbEntity
  8
レイヤー_1
  6
CONTINUOUS
 62
       3
100
AcDbLine
 10
-26.07083252
 20
20.97062245
 30
0.0
 11
-26.07083252
 21
20.60407036
 31
0.0
  0
LINE
  5
19B
100
AcDbEntity
  8
レイヤー_1
  6
CONTINUOUS
 62
       3
100
AcDbLine
 10
-26.07083252
 20
20.60407036
 30
0.0
 11
-26.07083252
 21
20.25733379
 31
0.0
  0
LINE
  5
19C
100
AcDbEntity
  8
レイヤー_1
  6
CONTINUOUS
 62
       3
100
AcDbLine
 10
-26.07083252
 20
20.25733379
 30
0.0
 11
-26.07083252
 21
19.94154582
 31
0.0
  0
LINE
  5
19D
100
AcDbEntity
  8
レイヤー_1
  6
CONTINUOUS
 62
       3
100
AcDbLine
 10
-26.07083252
 20
19.94154582
 30
0.0
 11
-26.07083252
 21
19.66783956
 31
0.0
  0
LINE
  5
19E
100
AcDbEntity
  8
レイヤー_1
  6
CONTINUOUS
 62
       3
100
AcDbLine
 10
-26.07083252
 20
19.66783956
 30
0.0
 11
-26.07083252
 21
19.44734811
 31
0.0
  0
LINE
  5
19F
100
AcDbEntity
  8
レイヤー_1
  6
CONTINUOUS
 62
       3
100
AcDbLine
 10
-26.07083252
 20
19.44734811
 30
0.0
 11
-26.07083252
 21
19.29120456
 31
0.0
  0
LINE
  5
1A0
100
AcDbEntity
  8
レイヤー_1
  6
CONTINUOUS
 62
       3
100
AcDbLine
 10
-26.07083252
 20
19.29120456
 30
0.0
 11
-26.07147282
 21
19.20119834
 31
0.0
  0
LINE
  5
1A1
100
AcDbEntity
  8
レイヤー_1
  6
CONTINUOUS
 62
       3
100
AcDbLine
 10
-26.07147282
 20
19.20119834
 30
0.0
 11
-26.07659573
 21
19.12775918
 31
0.0
  0
LINE
  5
1A2
100
AcDbEntity
  8
レイヤー_1
  6
CONTINUOUS
 62
       3
100
AcDbLine
 10
-26.07659573
 20
19.12775918
 30
0.0
 11
-26.08684298
 21
19.06140804
 31
0.0
  0
LINE
  5
1A3
100
AcDbEntity
  8
レイヤー_1
  6
CONTINUOUS
 62
       3
100
AcDbLine
 10
-26.08684298
 20
19.06140804
 30
0.0
 11
-26.10221605
 21
19.00161243
 31
0.0
  0
LINE
  5
1A4
100
AcDbEntity
  8
レイヤー_1
  6
CONTINUOUS
 62
       3
100
AcDbLine
 10
-26.10221605
 20
19.00161243
 30
0.0
 11
-26.1227164
 21
18.94783983
 31
0.0
  0
LINE
  5
1A5
100
AcDbEntity
  8
レイヤー_1
  6
CONTINUOUS
 62
       3
100
AcDbLine
 10
-26.1227164
 20
18.94783983
 30
0.0
 11
-26.14834554
 21
18.89955773
 31
0.0
  0
LINE
  5
1A6
100
AcDbEntity
  8
レイヤー_1
  6
CONTINUOUS
 62
       3
100
AcDbLine
 10
-26.14834554
 20
18.89955773
 30
0.0
 11
-26.17910492
 21
18.85623362
 31
0.0
  0
LINE
  5
1A7
100
AcDbEntity
  8
レイヤー_1
  6
CONTINUOUS
 62
       3
100
AcDbLine
 10
-26.17910492
 20
18.85623362
 30
0.0
 11
-26.21499605
 21
18.817335
 31
0.0
  0
LINE
  5
1A8
100
AcDbEntity
  8
レイヤー_1
  6
CONTINUOUS
 62
       3
100
AcDbLine
 10
-26.21499605
 20
18.817335
 30
0.0
 11
-26.25602038
 21
18.78232936
 31
0.0
  0
LINE
  5
1A9
100
AcDbEntity
  8
レイヤー_1
  6
CONTINUOUS
 62
       3
100
AcDbLine
 10
-26.25602038
 20
18.78232936
 30
0.0
 11
-26.30217942
 21
18.75068418
 31
0.0
  0
LINE
  5
1AA
100
AcDbEntity
  8
レイヤー_1
  6
CONTINUOUS
 62
       3
100
AcDbLine
 10
-26.30217942
 20
18.75068418
 30
0.0
 11
-26.35347463
 21
18.72186697
 31
0.0
  0
LINE
  5
1AB
100
AcDbEntity
  8
レイヤー_1
  6
CONTINUOUS
 62
       3
100
AcDbLine
 10
-26.35347463
 20
18.72186697
 30
0.0
 11
-26.40990749
 21
18.6953452
 31
0.0
  0
LINE
  5
1AC
100
AcDbEntity
  8
レイヤー_1
  6
CONTINUOUS
 62
       3
100
AcDbLine
 10
-26.40990749
 20
18.6953452
 30
0.0
 11
-26.47147949
 21
18.67058638
 31
0.0
  0
LINE
  5
1AD
100
AcDbEntity
  8
レイヤー_1
  6
CONTINUOUS
 62
       3
100
AcDbLine
 10
-26.47147949
 20
18.67058638
 30
0.0
 11
-26.53819211
 21
18.64705798
 31
0.0
  0
LINE
  5
1AE
100
AcDbEntity
  8
レイヤー_1
  6
CONTINUOUS
 62
       3
100
AcDbLine
 10
-26.53819211
 20
18.64705798
 30
0.0
 11
-26.61004682
 21
18.62422751
 31
0.0
  0
LINE
  5
1AF
100
AcDbEntity
  8
レイヤー_1
  6
CONTINUOUS
 62
       3
100
AcDbLine
 10
-26.61004682
 20
18.62422751
 30
0.0
 11
-26.68704511
 21
18.60156246
 31
0.0
  0
LINE
  5
1B0
100
AcDbEntity
  8
レイヤー_1
  6
CONTINUOUS
 62
       3
100
AcDbLine
 10
-26.68704511
 20
18.60156246
 30
0.0
 11
-26.7186626
 21
18.59734679
 31
0.0
  0
LINE
  5
1B1
100
AcDbEntity
  8
レイヤー_1
  6
CONTINUOUS
 62
       3
100
AcDbLine
 10
-26.7186626
 20
18.59734679
 30
0.0
 11
-26.807831
 21
18.58545767
 31
0.0
  0
LINE
  5
1B2
100
AcDbEntity
  8
レイヤー_1
  6
CONTINUOUS
 62
       3
100
AcDbLine
 10
-26.807831
 20
18.58545767
 30
0.0
 11
-26.94602427
 21
18.5670319
 31
0.0
  0
LINE
  5
1B3
100
AcDbEntity
  8
レイヤー_1
  6
CONTINUOUS
 62
       3
100
AcDbLine
 10
-26.94602427
 20
18.5670319
 30
0.0
 11
-27.12471634
 21
18.5432063
 31
0.0
  0
LINE
  5
1B4
100
AcDbEntity
  8
レイヤー_1
  6
CONTINUOUS
 62
       3
100
AcDbLine
 10
-27.12471634
 20
18.5432063
 30
0.0
 11
-27.33538114
 21
18.51511766
 31
0.0
  0
LINE
  5
1B5
100
AcDbEntity
  8
レイヤー_1
  6
CONTINUOUS
 62
       3
100
AcDbLine
 10
-27.33538114
 20
18.51511766
 30
0.0
 11
-27.56949261
 21
18.48390279
 31
0.0
  0
LINE
  5
1B6
100
AcDbEntity
  8
レイヤー_1
  6
CONTINUOUS
 62
       3
100
AcDbLine
 10
-27.56949261
 20
18.48390279
 30
0.0
 11
-27.8185247
 21
18.45069851
 31
0.0
  0
LINE
  5
1B7
100
AcDbEntity
  8
レイヤー_1
  6
CONTINUOUS
 62
       3
100
AcDbLine
 10
-27.8185247
 20
18.45069851
 30
0.0
 11
-28.07395133
 21
18.41664163
 31
0.0
  0
LINE
  5
1B8
100
AcDbEntity
  8
レイヤー_1
  6
CONTINUOUS
 62
       3
100
AcDbLine
 10
-28.07395133
 20
18.41664163
 30
0.0
 11
-28.32724644
 21
18.38286895
 31
0.0
  0
LINE
  5
1B9
100
AcDbEntity
  8
レイヤー_1
  6
CONTINUOUS
 62
       3
100
AcDbLine
 10
-28.32724644
 20
18.38286895
 30
0.0
 11
-28.56988398
 21
18.35051728
 31
0.0
  0
LINE
  5
1BA
100
AcDbEntity
  8
レイヤー_1
  6
CONTINUOUS
 62
       3
100
AcDbLine
 10
-28.56988398
 20
18.35051728
 30
0.0
 11
-28.79333787
 21
18.32072342
 31
0.0
  0
LINE
  5
1BB
100
AcDbEntity
  8
レイヤー_1
  6
CONTINUOUS
 62
       3
100
AcDbLine
 10
-28.79333787
 20
18.32072342
 30
0.0
 11
-28.98908207
 21
18.2946242
 31
0.0
  0
LINE
  5
1BC
100
AcDbEntity
  8
レイヤー_1
  6
CONTINUOUS
 62
       3
100
AcDbLine
 10
-28.98908207
 20
18.2946242
 30
0.0
 11
-29.14859049
 21
18.27335641
 31
0.0
  0
LINE
  5
1BD
100
AcDbEntity
  8
レイヤー_1
  6
CONTINUOUS
 62
       3
100
AcDbLine
 10
-29.14859049
 20
18.27335641
 30
0.0
 11
-29.26333709
 21
18.25805686
 31
0.0
  0
LINE
  5
1BE
100
AcDbEntity
  8
レイヤー_1
  6
CONTINUOUS
 62
       3
100
AcDbLine
 10
-29.26333709
 20
18.25805686
 30
0.0
 11
-29.32479579
 21
18.24986237
 31
0.0
  0
LINE
  5
1BF
100
AcDbEntity
  8
レイヤー_1
  6
CONTINUOUS
 62
       3
100
AcDbLine
 10
-29.32479579
 20
18.24986237
 30
0.0
 11
-29.33432259
 21
18.24897621
 31
0.0
  0
LINE
  5
1C0
100
AcDbEntity
  8
レイヤー_1
  6
CONTINUOUS
 62
       3
100
AcDbLine
 10
-29.33432259
 20
18.24897621
 30
0.0
 11
-29.34545664
 21
18.25064985
 31
0.0
  0
LINE
  5
1C1
100
AcDbEntity
  8
レイヤー_1
  6
CONTINUOUS
 62
       3
100
AcDbLine
 10
-29.34545664
 20
18.25064985
 30
0.0
 11
-29.36664028
 21
18.25436026
 31
0.0
  0
LINE
  5
1C2
100
AcDbEntity
  8
レイヤー_1
  6
CONTINUOUS
 62
       3
100
AcDbLine
 10
-29.36664028
 20
18.25436026
 30
0.0
 11
-29.39674186
 21
18.2604864
 31
0.0
  0
LINE
  5
1C3
100
AcDbEntity
  8
レイヤー_1
  6
CONTINUOUS
 62
       3
100
AcDbLine
 10
-29.39674186
 20
18.2604864
 30
0.0
 11
-29.43462977
 21
18.26940718
 31
0.0
  0
LINE
  5
1C4
100
AcDbEntity
  8
レイヤー_1
  6
CONTINUOUS
 62
       3
100
AcDbLine
 10
-29.43462977
 20
18.26940718
 30
0.0
 11
-29.47917237
 21
18.28150156
 31
0.0
  0
LINE
  5
1C5
100
AcDbEntity
  8
レイヤー_1
  6
CONTINUOUS
 62
       3
100
AcDbLine
 10
-29.47917237
 20
18.28150156
 30
0.0
 11
-29.52923804
 21
18.29714847
 31
0.0
  0
LINE
  5
1C6
100
AcDbEntity
  8
レイヤー_1
  6
CONTINUOUS
 62
       3
100
AcDbLine
 10
-29.52923804
 20
18.29714847
 30
0.0
 11
-29.58369515
 21
18.31672683
 31
0.0
  0
LINE
  5
1C7
100
AcDbEntity
  8
レイヤー_1
  6
CONTINUOUS
 62
       3
100
AcDbLine
 10
-29.58369515
 20
18.31672683
 30
0.0
 11
-29.64141208
 21
18.3406156
 31
0.0
  0
LINE
  5
1C8
100
AcDbEntity
  8
レイヤー_1
  6
CONTINUOUS
 62
       3
100
AcDbLine
 10
-29.64141208
 20
18.3406156
 30
0.0
 11
-29.70125719
 21
18.3691937
 31
0.0
  0
LINE
  5
1C9
100
AcDbEntity
  8
レイヤー_1
  6
CONTINUOUS
 62
       3
100
AcDbLine
 10
-29.70125719
 20
18.3691937
 30
0.0
 11
-29.76209885
 21
18.40284007
 31
0.0
  0
LINE
  5
1CA
100
AcDbEntity
  8
レイヤー_1
  6
CONTINUOUS
 62
       3
100
AcDbLine
 10
-29.76209885
 20
18.40284007
 30
0.0
 11
-29.82280545
 21
18.44193364
 31
0.0
  0
LINE
  5
1CB
100
AcDbEntity
  8
レイヤー_1
  6
CONTINUOUS
 62
       3
100
AcDbLine
 10
-29.82280545
 20
18.44193364
 30
0.0
 11
-29.88224535
 21
18.48685336
 31
0.0
  0
LINE
  5
1CC
100
AcDbEntity
  8
レイヤー_1
  6
CONTINUOUS
 62
       3
100
AcDbLine
 10
-29.88224535
 20
18.48685336
 30
0.0
 11
-29.93928692
 21
18.53797816
 31
0.0
  0
LINE
  5
1CD
100
AcDbEntity
  8
レイヤー_1
  6
CONTINUOUS
 62
       3
100
AcDbLine
 10
-29.93928692
 20
18.53797816
 30
0.0
 11
-29.99279855
 21
18.59568697
 31
0.0
  0
LINE
  5
1CE
100
AcDbEntity
  8
レイヤー_1
  6
CONTINUOUS
 62
       3
100
AcDbLine
 10
-29.99279855
 20
18.59568697
 30
0.0
 11
-30.04164859
 21
18.66035874
 31
0.0
  0
LINE
  5
1CF
100
AcDbEntity
  8
レイヤー_1
  6
CONTINUOUS
 62
       3
100
AcDbLine
 10
-29.89305017
 20
16.89647029
 30
0.0
 11
-29.8062997
 21
16.90943017
 31
0.0
  0
LINE
  5
1D0
100
AcDbEntity
  8
レイヤー_1
  6
CONTINUOUS
 62
       3
100
AcDbLine
 10
-29.8062997
 20
16.90943017
 30
0.0
 11
-29.56164389
 21
16.94597993
 31
0.0
  0
LINE
  5
1D1
100
AcDbEntity
  8
レイヤー_1
  6
CONTINUOUS
 62
       3
100
AcDbLine
 10
-29.56164389
 20
16.94597993
 30
0.0
 11
-29.18247611
 21
17.00262477
 31
0.0
  0
LINE
  5
1D2
100
AcDbEntity
  8
レイヤー_1
  6
CONTINUOUS
 62
       3
100
AcDbLine
 10
-29.18247611
 20
17.00262477
 30
0.0
 11
-28.69218975
 21
17.0758699
 31
0.0
  0
LINE
  5
1D3
100
AcDbEntity
  8
レイヤー_1
  6
CONTINUOUS
 62
       3
100
AcDbLine
 10
-28.69218975
 20
17.0758699
 30
0.0
 11
-28.1141782
 21
17.16222053
 31
0.0
  0
LINE
  5
1D4
100
AcDbEntity
  8
レイヤー_1
  6
CONTINUOUS
 62
       3
100
AcDbLine
 10
-28.1141782
 20
17.16222053
 30
0.0
 11
-27.47183485
 21
17.25818185
 31
0.0
  0
LINE
  5
1D5
100
AcDbEntity
  8
レイヤー_1
  6
CONTINUOUS
 62
       3
100
AcDbLine
 10
-27.47183485
 20
17.25818185
 30
0.0
 11
-26.78855307
 21
17.36025906
 31
0.0
  0
LINE
  5
1D6
100
AcDbEntity
  8
レイヤー_1
  6
CONTINUOUS
 62
       3
100
AcDbLine
 10
-26.78855307
 20
17.36025906
 30
0.0
 11
-26.08772625
 21
17.46495737
 31
0.0
  0
LINE
  5
1D7
100
AcDbEntity
  8
レイヤー_1
  6
CONTINUOUS
 62
       3
100
AcDbLine
 10
-26.08772625
 20
17.46495737
 30
0.0
 11
-25.39274778
 21
17.56878198
 31
0.0
  0
LINE
  5
1D8
100
AcDbEntity
  8
レイヤー_1
  6
CONTINUOUS
 62
       3
100
AcDbLine
 10
-25.39274778
 20
17.56878198
 30
0.0
 11
-24.72701104
 21
17.6682381
 31
0.0
  0
LINE
  5
1D9
100
AcDbEntity
  8
レイヤー_1
  6
CONTINUOUS
 62
       3
100
AcDbLine
 10
-24.72701104
 20
17.6682381
 30
0.0
 11
-24.11390941
 21
17.75983092
 31
0.0
  0
LINE
  5
1DA
100
AcDbEntity
  8
レイヤー_1
  6
CONTINUOUS
 62
       3
100
AcDbLine
 10
-24.11390941
 20
17.75983092
 30
0.0
 11
-23.57683628
 21
17.84006565
 31
0.0
  0
LINE
  5
1DB
100
AcDbEntity
  8
レイヤー_1
  6
CONTINUOUS
 62
       3
100
AcDbLine
 10
-23.57683628
 20
17.84006565
 30
0.0
 11
-23.13918504
 21
17.90544749
 31
0.0
  0
LINE
  5
1DC
100
AcDbEntity
  8
レイヤー_1
  6
CONTINUOUS
 62
       3
100
AcDbLine
 10
-23.13918504
 20
17.90544749
 30
0.0
 11
-22.82434907
 21
17.95248164
 31
0.0
  0
LINE
  5
1DD
100
AcDbEntity
  8
レイヤー_1
  6
CONTINUOUS
 62
       3
100
AcDbLine
 10
-22.82434907
 20
17.95248164
 30
0.0
 11
-22.65572176
 21
17.9776733
 31
0.0
  0
LINE
  5
1DE
100
AcDbEntity
  8
レイヤー_1
  6
CONTINUOUS
 62
       3
100
AcDbLine
 10
-22.65572176
 20
17.9776733
 30
0.0
 11
-22.63354678
 21
17.97692123
 31
0.0
  0
LINE
  5
1DF
100
AcDbEntity
  8
レイヤー_1
  6
CONTINUOUS
 62
       3
100
AcDbLine
 10
-22.63354678
 20
17.97692123
 30
0.0
 11
-22.63354678
 21
17.94601049
 31
0.0
  0
LINE
  5
1E0
100
AcDbEntity
  8
レイヤー_1
  6
CONTINUOUS
 62
       3
100
AcDbLine
 10
-22.63354678
 20
17.94601049
 30
0.0
 11
-22.63354678
 21
17.88829853
 31
0.0
  0
LINE
  5
1E1
100
AcDbEntity
  8
レイヤー_1
  6
CONTINUOUS
 62
       3
100
AcDbLine
 10
-22.63354678
 20
17.88829853
 30
0.0
 11
-22.63354678
 21
17.80807355
 31
0.0
  0
LINE
  5
1E2
100
AcDbEntity
  8
レイヤー_1
  6
CONTINUOUS
 62
       3
100
AcDbLine
 10
-22.63354678
 20
17.80807355
 30
0.0
 11
-22.63354678
 21
17.70962373
 31
0.0
  0
LINE
  5
1E3
100
AcDbEntity
  8
レイヤー_1
  6
CONTINUOUS
 62
       3
100
AcDbLine
 10
-22.63354678
 20
17.70962373
 30
0.0
 11
-22.63354678
 21
17.59723729
 31
0.0
  0
LINE
  5
1E4
100
AcDbEntity
  8
レイヤー_1
  6
CONTINUOUS
 62
       3
100
AcDbLine
 10
-22.63354678
 20
17.59723729
 30
0.0
 11
-22.63354678
 21
17.4752024
 31
0.0
  0
LINE
  5
1E5
100
AcDbEntity
  8
レイヤー_1
  6
CONTINUOUS
 62
       3
100
AcDbLine
 10
-22.63354678
 20
17.4752024
 30
0.0
 11
-22.63354678
 21
17.34780727
 31
0.0
  0
LINE
  5
1E6
100
AcDbEntity
  8
レイヤー_1
  6
CONTINUOUS
 62
       3
100
AcDbLine
 10
-22.63354678
 20
17.34780727
 30
0.0
 11
-22.63354678
 21
17.21934009
 31
0.0
  0
LINE
  5
1E7
100
AcDbEntity
  8
レイヤー_1
  6
CONTINUOUS
 62
       3
100
AcDbLine
 10
-22.63354678
 20
17.21934009
 30
0.0
 11
-22.63354678
 21
17.09408906
 31
0.0
  0
LINE
  5
1E8
100
AcDbEntity
  8
レイヤー_1
  6
CONTINUOUS
 62
       3
100
AcDbLine
 10
-22.63354678
 20
17.09408906
 30
0.0
 11
-22.63354678
 21
16.97634237
 31
0.0
  0
LINE
  5
1E9
100
AcDbEntity
  8
レイヤー_1
  6
CONTINUOUS
 62
       3
100
AcDbLine
 10
-22.63354678
 20
16.97634237
 30
0.0
 11
-22.63354678
 21
16.87038821
 31
0.0
  0
LINE
  5
1EA
100
AcDbEntity
  8
レイヤー_1
  6
CONTINUOUS
 62
       3
100
AcDbLine
 10
-22.63354678
 20
16.87038821
 30
0.0
 11
-22.63354678
 21
16.78051479
 31
0.0
  0
LINE
  5
1EB
100
AcDbEntity
  8
レイヤー_1
  6
CONTINUOUS
 62
       3
100
AcDbLine
 10
-22.63354678
 20
16.78051479
 30
0.0
 11
-22.63354678
 21
16.71101029
 31
0.0
  0
LINE
  5
1EC
100
AcDbEntity
  8
レイヤー_1
  6
CONTINUOUS
 62
       3
100
AcDbLine
 10
-22.63354678
 20
16.71101029
 30
0.0
 11
-22.63354678
 21
16.66616292
 31
0.0
  0
LINE
  5
1ED
100
AcDbEntity
  8
レイヤー_1
  6
CONTINUOUS
 62
       3
100
AcDbLine
 10
-22.63354678
 20
16.66616292
 30
0.0
 11
-22.63354678
 21
16.65026086
 31
0.0
  0
LINE
  5
1EE
100
AcDbEntity
  8
レイヤー_1
  6
CONTINUOUS
 62
       3
100
AcDbLine
 10
-22.63354678
 20
16.65026086
 30
0.0
 11
-22.61726597
 21
16.65026086
 31
0.0
  0
LINE
  5
1EF
100
AcDbEntity
  8
レイヤー_1
  6
CONTINUOUS
 62
       3
100
AcDbLine
 10
-22.61726597
 20
16.65026086
 30
0.0
 11
-22.57135043
 21
16.65026086
 31
0.0
  0
LINE
  5
1F0
100
AcDbEntity
  8
レイヤー_1
  6
CONTINUOUS
 62
       3
100
AcDbLine
 10
-22.57135043
 20
16.65026086
 30
0.0
 11
-22.5001905
 21
16.65026086
 31
0.0
  0
LINE
  5
1F1
100
AcDbEntity
  8
レイヤー_1
  6
CONTINUOUS
 62
       3
100
AcDbLine
 10
-22.5001905
 20
16.65026086
 30
0.0
 11
-22.40817649
 21
16.65026086
 31
0.0
  0
LINE
  5
1F2
100
AcDbEntity
  8
レイヤー_1
  6
CONTINUOUS
 62
       3
100
AcDbLine
 10
-22.40817649
 20
16.65026086
 30
0.0
 11
-22.29969875
 21
16.65026086
 31
0.0
  0
LINE
  5
1F3
100
AcDbEntity
  8
レイヤー_1
  6
CONTINUOUS
 62
       3
100
AcDbLine
 10
-22.29969875
 20
16.65026086
 30
0.0
 11
-22.1791476
 21
16.65026086
 31
0.0
  0
LINE
  5
1F4
100
AcDbEntity
  8
レイヤー_1
  6
CONTINUOUS
 62
       3
100
AcDbLine
 10
-22.1791476
 20
16.65026086
 30
0.0
 11
-22.05091337
 21
16.65026086
 31
0.0
  0
LINE
  5
1F5
100
AcDbEntity
  8
レイヤー_1
  6
CONTINUOUS
 62
       3
100
AcDbLine
 10
-22.05091337
 20
16.65026086
 30
0.0
 11
-21.91938639
 21
16.65026086
 31
0.0
  0
LINE
  5
1F6
100
AcDbEntity
  8
レイヤー_1
  6
CONTINUOUS
 62
       3
100
AcDbLine
 10
-21.91938639
 20
16.65026086
 30
0.0
 11
-21.788957
 21
16.65026086
 31
0.0
  0
LINE
  5
1F7
100
AcDbEntity
  8
レイヤー_1
  6
CONTINUOUS
 62
       3
100
AcDbLine
 10
-21.788957
 20
16.65026086
 30
0.0
 11
-21.66401552
 21
16.65026086
 31
0.0
  0
LINE
  5
1F8
100
AcDbEntity
  8
レイヤー_1
  6
CONTINUOUS
 62
       3
100
AcDbLine
 10
-21.66401552
 20
16.65026086
 30
0.0
 11
-21.54895228
 21
16.65026086
 31
0.0
  0
LINE
  5
1F9
100
AcDbEntity
  8
レイヤー_1
  6
CONTINUOUS
 62
       3
100
AcDbLine
 10
-21.54895228
 20
16.65026086
 30
0.0
 11
-21.44815761
 21
16.65026086
 31
0.0
  0
LINE
  5
1FA
100
AcDbEntity
  8
レイヤー_1
  6
CONTINUOUS
 62
       3
100
AcDbLine
 10
-21.44815761
 20
16.65026086
 30
0.0
 11
-21.36602185
 21
16.65026086
 31
0.0
  0
LINE
  5
1FB
100
AcDbEntity
  8
レイヤー_1
  6
CONTINUOUS
 62
       3
100
AcDbLine
 10
-21.36602185
 20
16.65026086
 30
0.0
 11
-21.30693532
 21
16.65026086
 31
0.0
  0
LINE
  5
1FC
100
AcDbEntity
  8
レイヤー_1
  6
CONTINUOUS
 62
       3
100
AcDbLine
 10
-21.30693532
 20
16.65026086
 30
0.0
 11
-21.27528836
 21
16.65026086
 31
0.0
  0
LINE
  5
1FD
100
AcDbEntity
  8
レイヤー_1
  6
CONTINUOUS
 62
       3
100
AcDbLine
 10
-21.27528836
 20
16.65026086
 30
0.0
 11
-21.27112669
 21
16.65432571
 31
0.0
  0
LINE
  5
1FE
100
AcDbEntity
  8
レイヤー_1
  6
CONTINUOUS
 62
       3
100
AcDbLine
 10
-21.27112669
 20
16.65432571
 30
0.0
 11
-21.27112669
 21
16.68523645
 31
0.0
  0
LINE
  5
1FF
100
AcDbEntity
  8
レイヤー_1
  6
CONTINUOUS
 62
       3
100
AcDbLine
 10
-21.27112669
 20
16.68523645
 30
0.0
 11
-21.27112669
 21
16.74294841
 31
0.0
  0
LINE
  5
200
100
AcDbEntity
  8
レイヤー_1
  6
CONTINUOUS
 62
       3
100
AcDbLine
 10
-21.27112669
 20
16.74294841
 30
0.0
 11
-21.27112669
 21
16.8231734
 31
0.0
  0
LINE
  5
201
100
AcDbEntity
  8
レイヤー_1
  6
CONTINUOUS
 62
       3
100
AcDbLine
 10
-21.27112669
 20
16.8231734
 30
0.0
 11
-21.27112669
 21
16.92162321
 31
0.0
  0
LINE
  5
202
100
AcDbEntity
  8
レイヤー_1
  6
CONTINUOUS
 62
       3
100
AcDbLine
 10
-21.27112669
 20
16.92162321
 30
0.0
 11
-21.27112669
 21
17.03400966
 31
0.0
  0
LINE
  5
203
100
AcDbEntity
  8
レイヤー_1
  6
CONTINUOUS
 62
       3
100
AcDbLine
 10
-21.27112669
 20
17.03400966
 30
0.0
 11
-21.27112669
 21
17.15604454
 31
0.0
  0
LINE
  5
204
100
AcDbEntity
  8
レイヤー_1
  6
CONTINUOUS
 62
       3
100
AcDbLine
 10
-21.27112669
 20
17.15604454
 30
0.0
 11
-21.27112669
 21
17.28343967
 31
0.0
  0
LINE
  5
205
100
AcDbEntity
  8
レイヤー_1
  6
CONTINUOUS
 62
       3
100
AcDbLine
 10
-21.27112669
 20
17.28343967
 30
0.0
 11
-21.27112669
 21
17.41190685
 31
0.0
  0
LINE
  5
206
100
AcDbEntity
  8
レイヤー_1
  6
CONTINUOUS
 62
       3
100
AcDbLine
 10
-21.27112669
 20
17.41190685
 30
0.0
 11
-21.27112669
 21
17.53715789
 31
0.0
  0
LINE
  5
207
100
AcDbEntity
  8
レイヤー_1
  6
CONTINUOUS
 62
       3
100
AcDbLine
 10
-21.27112669
 20
17.53715789
 30
0.0
 11
-21.27112669
 21
17.65490458
 31
0.0
  0
LINE
  5
208
100
AcDbEntity
  8
レイヤー_1
  6
CONTINUOUS
 62
       3
100
AcDbLine
 10
-21.27112669
 20
17.65490458
 30
0.0
 11
-21.27112669
 21
17.76085873
 31
0.0
  0
LINE
  5
209
100
AcDbEntity
  8
レイヤー_1
  6
CONTINUOUS
 62
       3
100
AcDbLine
 10
-21.27112669
 20
17.76085873
 30
0.0
 11
-21.27112669
 21
17.85073215
 31
0.0
  0
LINE
  5
20A
100
AcDbEntity
  8
レイヤー_1
  6
CONTINUOUS
 62
       3
100
AcDbLine
 10
-21.27112669
 20
17.85073215
 30
0.0
 11
-21.27112669
 21
17.92023665
 31
0.0
  0
LINE
  5
20B
100
AcDbEntity
  8
レイヤー_1
  6
CONTINUOUS
 62
       3
100
AcDbLine
 10
-21.27112669
 20
17.92023665
 30
0.0
 11
-21.27112669
 21
17.96508402
 31
0.0
  0
LINE
  5
20C
100
AcDbEntity
  8
レイヤー_1
  6
CONTINUOUS
 62
       3
100
AcDbLine
 10
-21.27112669
 20
17.96508402
 30
0.0
 11
-21.27112669
 21
17.98098608
 31
0.0
  0
LINE
  5
20D
100
AcDbEntity
  8
レイヤー_1
  6
CONTINUOUS
 62
       3
100
AcDbLine
 10
-21.27112669
 20
17.98098608
 30
0.0
 11
-21.25678904
 21
17.98098608
 31
0.0
  0
LINE
  5
20E
100
AcDbEntity
  8
レイヤー_1
  6
CONTINUOUS
 62
       3
100
AcDbLine
 10
-21.25678904
 20
17.98098608
 30
0.0
 11
-21.21635365
 21
17.98098608
 31
0.0
  0
LINE
  5
20F
100
AcDbEntity
  8
レイヤー_1
  6
CONTINUOUS
 62
       3
100
AcDbLine
 10
-21.21635365
 20
17.98098608
 30
0.0
 11
-21.15368684
 21
17.98098608
 31
0.0
  0
LINE
  5
210
100
AcDbEntity
  8
レイヤー_1
  6
CONTINUOUS
 62
       3
100
AcDbLine
 10
-21.15368684
 20
17.98098608
 30
0.0
 11
-21.07265495
 21
17.98098608
 31
0.0
  0
LINE
  5
211
100
AcDbEntity
  8
レイヤー_1
  6
CONTINUOUS
 62
       3
100
AcDbLine
 10
-21.07265495
 20
17.98098608
 30
0.0
 11
-20.97712431
 21
17.98098608
 31
0.0
  0
LINE
  5
212
100
AcDbEntity
  8
レイヤー_1
  6
CONTINUOUS
 62
       3
100
AcDbLine
 10
-20.97712431
 20
17.98098608
 30
0.0
 11
-20.87096126
 21
17.98098608
 31
0.0
  0
LINE
  5
213
100
AcDbEntity
  8
レイヤー_1
  6
CONTINUOUS
 62
       3
100
AcDbLine
 10
-20.87096126
 20
17.98098608
 30
0.0
 11
-20.75803213
 21
17.98098608
 31
0.0
  0
LINE
  5
214
100
AcDbEntity
  8
レイヤー_1
  6
CONTINUOUS
 62
       3
100
AcDbLine
 10
-20.75803213
 20
17.98098608
 30
0.0
 11
-20.64220325
 21
17.98098608
 31
0.0
  0
LINE
  5
215
100
AcDbEntity
  8
レイヤー_1
  6
CONTINUOUS
 62
       3
100
AcDbLine
 10
-20.64220325
 20
17.98098608
 30
0.0
 11
-20.52734095
 21
17.98098608
 31
0.0
  0
LINE
  5
216
100
AcDbEntity
  8
レイヤー_1
  6
CONTINUOUS
 62
       3
100
AcDbLine
 10
-20.52734095
 20
17.98098608
 30
0.0
 11
-20.41731157
 21
17.98098608
 31
0.0
  0
LINE
  5
217
100
AcDbEntity
  8
レイヤー_1
  6
CONTINUOUS
 62
       3
100
AcDbLine
 10
-20.41731157
 20
17.98098608
 30
0.0
 11
-20.31598143
 21
17.98098608
 31
0.0
  0
LINE
  5
218
100
AcDbEntity
  8
レイヤー_1
  6
CONTINUOUS
 62
       3
100
AcDbLine
 10
-20.31598143
 20
17.98098608
 30
0.0
 11
-20.22721688
 21
17.98098608
 31
0.0
  0
LINE
  5
219
100
AcDbEntity
  8
レイヤー_1
  6
CONTINUOUS
 62
       3
100
AcDbLine
 10
-20.22721688
 20
17.98098608
 30
0.0
 11
-20.15488424
 21
17.98098608
 31
0.0
  0
LINE
  5
21A
100
AcDbEntity
  8
レイヤー_1
  6
CONTINUOUS
 62
       3
100
AcDbLine
 10
-20.15488424
 20
17.98098608
 30
0.0
 11
-20.10284985
 21
17.98098608
 31
0.0
  0
LINE
  5
21B
100
AcDbEntity
  8
レイヤー_1
  6
CONTINUOUS
 62
       3
100
AcDbLine
 10
-20.10284985
 20
17.98098608
 30
0.0
 11
-20.07498003
 21
17.98098608
 31
0.0
  0
LINE
  5
21C
100
AcDbEntity
  8
レイヤー_1
  6
CONTINUOUS
 62
       3
100
AcDbLine
 10
-20.07498003
 20
17.98098608
 30
0.0
 11
-20.07131507
 21
17.9737221
 31
0.0
  0
LINE
  5
21D
100
AcDbEntity
  8
レイヤー_1
  6
CONTINUOUS
 62
       3
100
AcDbLine
 10
-20.07131507
 20
17.9737221
 30
0.0
 11
-20.07131507
 21
17.91848396
 31
0.0
  0
LINE
  5
21E
100
AcDbEntity
  8
レイヤー_1
  6
CONTINUOUS
 62
       3
100
AcDbLine
 10
-20.07131507
 20
17.91848396
 30
0.0
 11
-20.07131507
 21
17.81535148
 31
0.0
  0
LINE
  5
21F
100
AcDbEntity
  8
レイヤー_1
  6
CONTINUOUS
 62
       3
100
AcDbLine
 10
-20.07131507
 20
17.81535148
 30
0.0
 11
-20.07131507
 21
17.67198774
 31
0.0
  0
LINE
  5
220
100
AcDbEntity
  8
レイヤー_1
  6
CONTINUOUS
 62
       3
100
AcDbLine
 10
-20.07131507
 20
17.67198774
 30
0.0
 11
-20.07131507
 21
17.49605585
 31
0.0
  0
LINE
  5
221
100
AcDbEntity
  8
レイヤー_1
  6
CONTINUOUS
 62
       3
100
AcDbLine
 10
-20.07131507
 20
17.49605585
 30
0.0
 11
-20.07131507
 21
17.2952189
 31
0.0
  0
LINE
  5
222
100
AcDbEntity
  8
レイヤー_1
  6
CONTINUOUS
 62
       3
100
AcDbLine
 10
-20.07131507
 20
17.2952189
 30
0.0
 11
-20.07131507
 21
17.07713999
 31
0.0
  0
LINE
  5
223
100
AcDbEntity
  8
レイヤー_1
  6
CONTINUOUS
 62
       3
100
AcDbLine
 10
-20.07131507
 20
17.07713999
 30
0.0
 11
-20.07131507
 21
16.84948221
 31
0.0
  0
LINE
  5
224
100
AcDbEntity
  8
レイヤー_1
  6
CONTINUOUS
 62
       3
100
AcDbLine
 10
-20.07131507
 20
16.84948221
 30
0.0
 11
-20.07131507
 21
16.61990866
 31
0.0
  0
LINE
  5
225
100
AcDbEntity
  8
レイヤー_1
  6
CONTINUOUS
 62
       3
100
AcDbLine
 10
-20.07131507
 20
16.61990866
 30
0.0
 11
-20.07131507
 21
16.39608243
 31
0.0
  0
LINE
  5
226
100
AcDbEntity
  8
レイヤー_1
  6
CONTINUOUS
 62
       3
100
AcDbLine
 10
-20.07131507
 20
16.39608243
 30
0.0
 11
-20.07131507
 21
16.18566661
 31
0.0
  0
LINE
  5
227
100
AcDbEntity
  8
レイヤー_1
  6
CONTINUOUS
 62
       3
100
AcDbLine
 10
-20.07131507
 20
16.18566661
 30
0.0
 11
-20.07131507
 21
15.99632431
 31
0.0
  0
LINE
  5
228
100
AcDbEntity
  8
レイヤー_1
  6
CONTINUOUS
 62
       3
100
AcDbLine
 10
-20.07131507
 20
15.99632431
 30
0.0
 11
-20.07131507
 21
15.83571861
 31
0.0
  0
LINE
  5
229
100
AcDbEntity
  8
レイヤー_1
  6
CONTINUOUS
 62
       3
100
AcDbLine
 10
-20.07131507
 20
15.83571861
 30
0.0
 11
-20.07131507
 21
15.71151261
 31
0.0
  0
LINE
  5
22A
100
AcDbEntity
  8
レイヤー_1
  6
CONTINUOUS
 62
       3
100
AcDbLine
 10
-20.07131507
 20
15.71151261
 30
0.0
 11
-20.07131507
 21
15.63136941
 31
0.0
  0
LINE
  5
22B
100
AcDbEntity
  8
レイヤー_1
  6
CONTINUOUS
 62
       3
100
AcDbLine
 10
-20.07131507
 20
15.63136941
 30
0.0
 11
-20.07131507
 21
15.6029521
 31
0.0
  0
LINE
  5
22C
100
AcDbEntity
  8
レイヤー_1
  6
CONTINUOUS
 62
       3
100
AcDbLine
 10
-20.07131507
 20
15.6029521
 30
0.0
 11
-20.08432984
 21
15.6029521
 31
0.0
  0
LINE
  5
22D
100
AcDbEntity
  8
レイヤー_1
  6
CONTINUOUS
 62
       3
100
AcDbLine
 10
-20.08432984
 20
15.6029521
 30
0.0
 11
-20.1210344
 21
15.6029521
 31
0.0
  0
LINE
  5
22E
100
AcDbEntity
  8
レイヤー_1
  6
CONTINUOUS
 62
       3
100
AcDbLine
 10
-20.1210344
 20
15.6029521
 30
0.0
 11
-20.17791917
 21
15.6029521
 31
0.0
  0
LINE
  5
22F
100
AcDbEntity
  8
レイヤー_1
  6
CONTINUOUS
 62
       3
100
AcDbLine
 10
-20.17791917
 20
15.6029521
 30
0.0
 11
-20.25147453
 21
15.6029521
 31
0.0
  0
LINE
  5
230
100
AcDbEntity
  8
レイヤー_1
  6
CONTINUOUS
 62
       3
100
AcDbLine
 10
-20.25147453
 20
15.6029521
 30
0.0
 11
-20.33819089
 21
15.6029521
 31
0.0
  0
LINE
  5
231
100
AcDbEntity
  8
レイヤー_1
  6
CONTINUOUS
 62
       3
100
AcDbLine
 10
-20.33819089
 20
15.6029521
 30
0.0
 11
-20.43455865
 21
15.6029521
 31
0.0
  0
LINE
  5
232
100
AcDbEntity
  8
レイヤー_1
  6
CONTINUOUS
 62
       3
100
AcDbLine
 10
-20.43455865
 20
15.6029521
 30
0.0
 11
-20.53706821
 21
15.6029521
 31
0.0
  0
LINE
  5
233
100
AcDbEntity
  8
レイヤー_1
  6
CONTINUOUS
 62
       3
100
AcDbLine
 10
-20.53706821
 20
15.6029521
 30
0.0
 11
-20.64220997
 21
15.6029521
 31
0.0
  0
LINE
  5
234
100
AcDbEntity
  8
レイヤー_1
  6
CONTINUOUS
 62
       3
100
AcDbLine
 10
-20.64220997
 20
15.6029521
 30
0.0
 11
-20.74647433
 21
15.6029521
 31
0.0
  0
LINE
  5
235
100
AcDbEntity
  8
レイヤー_1
  6
CONTINUOUS
 62
       3
100
AcDbLine
 10
-20.74647433
 20
15.6029521
 30
0.0
 11
-20.84635169
 21
15.6029521
 31
0.0
  0
LINE
  5
236
100
AcDbEntity
  8
レイヤー_1
  6
CONTINUOUS
 62
       3
100
AcDbLine
 10
-20.84635169
 20
15.6029521
 30
0.0
 11
-20.93833246
 21
15.6029521
 31
0.0
  0
LINE
  5
237
100
AcDbEntity
  8
レイヤー_1
  6
CONTINUOUS
 62
       3
100
AcDbLine
 10
-20.93833246
 20
15.6029521
 30
0.0
 11
-21.01890702
 21
15.6029521
 31
0.0
  0
LINE
  5
238
100
AcDbEntity
  8
レイヤー_1
  6
CONTINUOUS
 62
       3
100
AcDbLine
 10
-21.01890702
 20
15.6029521
 30
0.0
 11
-21.08456578
 21
15.6029521
 31
0.0
  0
LINE
  5
239
100
AcDbEntity
  8
レイヤー_1
  6
CONTINUOUS
 62
       3
100
AcDbLine
 10
-21.08456578
 20
15.6029521
 30
0.0
 11
-21.13179915
 21
15.6029521
 31
0.0
  0
LINE
  5
23A
100
AcDbEntity
  8
レイヤー_1
  6
CONTINUOUS
 62
       3
100
AcDbLine
 10
-21.13179915
 20
15.6029521
 30
0.0
 11
-21.15709751
 21
15.6029521
 31
0.0
  0
LINE
  5
23B
100
AcDbEntity
  8
レイヤー_1
  6
CONTINUOUS
 62
       3
100
AcDbLine
 10
-21.15709751
 20
15.6029521
 30
0.0
 11
-21.15955193
 21
15.59862196
 31
0.0
  0
LINE
  5
23C
100
AcDbEntity
  8
レイヤー_1
  6
CONTINUOUS
 62
       3
100
AcDbLine
 10
-21.15955193
 20
15.59862196
 30
0.0
 11
-21.15336326
 21
15.56533085
 31
0.0
  0
LINE
  5
23D
100
AcDbEntity
  8
レイヤー_1
  6
CONTINUOUS
 62
       3
100
AcDbLine
 10
-21.15336326
 20
15.56533085
 30
0.0
 11
-21.14300592
 21
15.50219851
 31
0.0
  0
LINE
  5
23E
100
AcDbEntity
  8
レイヤー_1
  6
CONTINUOUS
 62
       3
100
AcDbLine
 10
-21.14300592
 20
15.50219851
 30
0.0
 11
-21.13058774
 21
15.41282484
 31
0.0
  0
LINE
  5
23F
100
AcDbEntity
  8
レイヤー_1
  6
CONTINUOUS
 62
       3
100
AcDbLine
 10
-21.13058774
 20
15.41282484
 30
0.0
 11
-21.11821656
 21
15.30080975
 31
0.0
  0
LINE
  5
240
100
AcDbEntity
  8
レイヤー_1
  6
CONTINUOUS
 62
       3
100
AcDbLine
 10
-21.11821656
 20
15.30080975
 30
0.0
 11
-21.10800021
 21
15.16975311
 31
0.0
  0
LINE
  5
241
100
AcDbEntity
  8
レイヤー_1
  6
CONTINUOUS
 62
       3
100
AcDbLine
 10
-21.10800021
 20
15.16975311
 30
0.0
 11
-21.10204652
 21
15.02325483
 31
0.0
  0
LINE
  5
242
100
AcDbEntity
  8
レイヤー_1
  6
CONTINUOUS
 62
       3
100
AcDbLine
 10
-21.10204652
 20
15.02325483
 30
0.0
 11
-21.10246333
 21
14.86491479
 31
0.0
  0
LINE
  5
243
100
AcDbEntity
  8
レイヤー_1
  6
CONTINUOUS
 62
       3
100
AcDbLine
 10
-21.10246333
 20
14.86491479
 30
0.0
 11
-21.11135846
 21
14.69833289
 31
0.0
  0
LINE
  5
244
100
AcDbEntity
  8
レイヤー_1
  6
CONTINUOUS
 62
       3
100
AcDbLine
 10
-21.11135846
 20
14.69833289
 30
0.0
 11
-21.13083975
 21
14.52710902
 31
0.0
  0
LINE
  5
245
100
AcDbEntity
  8
レイヤー_1
  6
CONTINUOUS
 62
       3
100
AcDbLine
 10
-21.13083975
 20
14.52710902
 30
0.0
 11
-21.16301503
 21
14.35484308
 31
0.0
  0
LINE
  5
246
100
AcDbEntity
  8
レイヤー_1
  6
CONTINUOUS
 62
       3
100
AcDbLine
 10
-21.16301503
 20
14.35484308
 30
0.0
 11
-21.20999213
 21
14.18513496
 31
0.0
  0
LINE
  5
247
100
AcDbEntity
  8
レイヤー_1
  6
CONTINUOUS
 62
       3
100
AcDbLine
 10
-21.20999213
 20
14.18513496
 30
0.0
 11
-21.27387888
 21
14.02158455
 31
0.0
  0
LINE
  5
248
100
AcDbEntity
  8
レイヤー_1
  6
CONTINUOUS
 62
       3
100
AcDbLine
 10
-21.27387888
 20
14.02158455
 30
0.0
 11
-21.35678312
 21
13.86779175
 31
0.0
  0
LINE
  5
249
100
AcDbEntity
  8
レイヤー_1
  6
CONTINUOUS
 62
       3
100
AcDbLine
 10
-21.35678312
 20
13.86779175
 30
0.0
 11
-21.46081269
 21
13.72735644
 31
0.0
  0
LINE
  5
24A
100
AcDbEntity
  8
レイヤー_1
  6
CONTINUOUS
 62
       3
100
AcDbLine
 10
-21.46081269
 20
13.72735644
 30
0.0
 11
-21.5880754
 21
13.60387852
 31
0.0
  0
LINE
  5
24B
100
AcDbEntity
  8
レイヤー_1
  6
CONTINUOUS
 62
       3
100
AcDbLine
 10
-21.5880754
 20
13.60387852
 30
0.0
 11
-21.65762553
 21
13.54450138
 31
0.0
  0
LINE
  5
24C
100
AcDbEntity
  8
レイヤー_1
  6
CONTINUOUS
 62
       3
100
AcDbLine
 10
-21.65762553
 20
13.54450138
 30
0.0
 11
-21.77275902
 21
13.44184947
 31
0.0
  0
LINE
  5
24D
100
AcDbEntity
  8
レイヤー_1
  6
CONTINUOUS
 62
       3
100
AcDbLine
 10
-21.77275902
 20
13.44184947
 30
0.0
 11
-21.92815928
 21
13.29898796
 31
0.0
  0
LINE
  5
24E
100
AcDbEntity
  8
レイヤー_1
  6
CONTINUOUS
 62
       3
100
AcDbLine
 10
-21.92815928
 20
13.29898796
 30
0.0
 11
-22.11850974
 21
13.11898202
 31
0.0
  0
LINE
  5
24F
100
AcDbEntity
  8
レイヤー_1
  6
CONTINUOUS
 62
       3
100
AcDbLine
 10
-22.11850974
 20
13.11898202
 30
0.0
 11
-22.33849382
 21
12.9048968
 31
0.0
  0
LINE
  5
250
100
AcDbEntity
  8
レイヤー_1
  6
CONTINUOUS
 62
       3
100
AcDbLine
 10
-22.33849382
 20
12.9048968
 30
0.0
 11
-22.58279493
 21
12.65979747
 31
0.0
  0
LINE
  5
251
100
AcDbEntity
  8
レイヤー_1
  6
CONTINUOUS
 62
       3
100
AcDbLine
 10
-22.58279493
 20
12.65979747
 30
0.0
 11
-22.84609652
 21
12.3867492
 31
0.0
  0
LINE
  5
252
100
AcDbEntity
  8
レイヤー_1
  6
CONTINUOUS
 62
       3
100
AcDbLine
 10
-22.84609652
 20
12.3867492
 30
0.0
 11
-23.12308199
 21
12.08881715
 31
0.0
  0
LINE
  5
253
100
AcDbEntity
  8
レイヤー_1
  6
CONTINUOUS
 62
       3
100
AcDbLine
 10
-23.12308199
 20
12.08881715
 30
0.0
 11
-23.40843476
 21
11.76906648
 31
0.0
  0
LINE
  5
254
100
AcDbEntity
  8
レイヤー_1
  6
CONTINUOUS
 62
       3
100
AcDbLine
 10
-23.40843476
 20
11.76906648
 30
0.0
 11
-23.69683827
 21
11.43056236
 31
0.0
  0
LINE
  5
255
100
AcDbEntity
  8
レイヤー_1
  6
CONTINUOUS
 62
       3
100
AcDbLine
 10
-23.69683827
 20
11.43056236
 30
0.0
 11
-23.98297594
 21
11.07636995
 31
0.0
  0
LINE
  5
256
100
AcDbEntity
  8
レイヤー_1
  6
CONTINUOUS
 62
       3
100
AcDbLine
 10
-23.98297594
 20
11.07636995
 30
0.0
 11
-24.26153118
 21
10.70955442
 31
0.0
  0
LINE
  5
257
100
AcDbEntity
  8
レイヤー_1
  6
CONTINUOUS
 62
       3
100
AcDbLine
 10
-24.26153118
 20
10.70955442
 30
0.0
 11
-24.52718742
 21
10.33318092
 31
0.0
  0
LINE
  5
258
100
AcDbEntity
  8
レイヤー_1
  6
CONTINUOUS
 62
       3
100
AcDbLine
 10
-24.52718742
 20
10.33318092
 30
0.0
 11
-24.77462808
 21
9.95031463
 31
0.0
  0
LINE
  5
259
100
AcDbEntity
  8
レイヤー_1
  6
CONTINUOUS
 62
       3
100
AcDbLine
 10
-24.77462808
 20
9.95031463
 30
0.0
 11
-24.99853659
 21
9.56402071
 31
0.0
  0
LINE
  5
25A
100
AcDbEntity
  8
レイヤー_1
  6
CONTINUOUS
 62
       3
100
AcDbLine
 10
-24.99853659
 20
9.56402071
 30
0.0
 11
-25.2661743
 21
9.02370809
 31
0.0
  0
LINE
  5
25B
100
AcDbEntity
  8
レイヤー_1
  6
CONTINUOUS
 62
       3
100
AcDbLine
 10
-25.2661743
 20
9.02370809
 30
0.0
 11
-25.55470489
 21
8.3178073
 31
0.0
  0
LINE
  5
25C
100
AcDbEntity
  8
レイヤー_1
  6
CONTINUOUS
 62
       3
100
AcDbLine
 10
-25.55470489
 20
8.3178073
 30
0.0
 11
-25.78905817
 21
7.60275079
 31
0.0
  0
LINE
  5
25D
100
AcDbEntity
  8
レイヤー_1
  6
CONTINUOUS
 62
       3
100
AcDbLine
 10
-25.78905817
 20
7.60275079
 30
0.0
 11
-25.9743146
 21
6.8871109
 31
0.0
  0
LINE
  5
25E
100
AcDbEntity
  8
レイヤー_1
  6
CONTINUOUS
 62
       3
100
AcDbLine
 10
-25.9743146
 20
6.8871109
 30
0.0
 11
-26.11555469
 21
6.17945993
 31
0.0
  0
LINE
  5
25F
100
AcDbEntity
  8
レイヤー_1
  6
CONTINUOUS
 62
       3
100
AcDbLine
 10
-26.11555469
 20
6.17945993
 30
0.0
 11
-26.2178589
 21
5.48837021
 31
0.0
  0
LINE
  5
260
100
AcDbEntity
  8
レイヤー_1
  6
CONTINUOUS
 62
       3
100
AcDbLine
 10
-26.2178589
 20
5.48837021
 30
0.0
 11
-26.28630772
 21
4.82241406
 31
0.0
  0
LINE
  5
261
100
AcDbEntity
  8
レイヤー_1
  6
CONTINUOUS
 62
       3
100
AcDbLine
 10
-26.28630772
 20
4.82241406
 30
0.0
 11
-26.32598164
 21
4.19016379
 31
0.0
  0
LINE
  5
262
100
AcDbEntity
  8
レイヤー_1
  6
CONTINUOUS
 62
       3
100
AcDbLine
 10
-26.32598164
 20
4.19016379
 30
0.0
 11
-26.34196113
 21
3.60019173
 31
0.0
  0
LINE
  5
263
100
AcDbEntity
  8
レイヤー_1
  6
CONTINUOUS
 62
       3
100
AcDbLine
 10
-26.34196113
 20
3.60019173
 30
0.0
 11
-26.33932668
 21
3.0610702
 31
0.0
  0
LINE
  5
264
100
AcDbEntity
  8
レイヤー_1
  6
CONTINUOUS
 62
       3
100
AcDbLine
 10
-26.33932668
 20
3.0610702
 30
0.0
 11
-26.32315876
 21
2.58137151
 31
0.0
  0
LINE
  5
265
100
AcDbEntity
  8
レイヤー_1
  6
CONTINUOUS
 62
       3
100
AcDbLine
 10
-26.32315876
 20
2.58137151
 30
0.0
 11
-26.29853788
 21
2.16966799
 31
0.0
  0
LINE
  5
266
100
AcDbEntity
  8
レイヤー_1
  6
CONTINUOUS
 62
       3
100
AcDbLine
 10
-26.29853788
 20
2.16966799
 30
0.0
 11
-26.2705445
 21
1.83453195
 31
0.0
  0
LINE
  5
267
100
AcDbEntity
  8
レイヤー_1
  6
CONTINUOUS
 62
       3
100
AcDbLine
 10
-26.2705445
 20
1.83453195
 30
0.0
 11
-26.2442591
 21
1.58453572
 31
0.0
  0
LINE
  5
268
100
AcDbEntity
  8
レイヤー_1
  6
CONTINUOUS
 62
       3
100
AcDbLine
 10
-26.2442591
 20
1.58453572
 30
0.0
 11
-26.22476218
 21
1.42825162
 31
0.0
  0
LINE
  5
269
100
AcDbEntity
  8
レイヤー_1
  6
CONTINUOUS
 62
       3
100
AcDbLine
 10
-26.22476218
 20
1.42825162
 30
0.0
 11
-26.21713421
 21
1.37425195
 31
0.0
  0
LINE
  5
26A
100
AcDbEntity
  8
レイヤー_1
  6
CONTINUOUS
 62
       3
100
AcDbLine
 10
-30.04164859
 20
1.4911555
 30
0.0
 11
-30.02251466
 21
1.4911555
 31
0.0
  0
LINE
  5
26B
100
AcDbEntity
  8
レイヤー_1
  6
CONTINUOUS
 62
       3
100
AcDbLine
 10
-30.02251466
 20
1.4911555
 30
0.0
 11
-29.96681558
 21
1.4911555
 31
0.0
  0
LINE
  5
26C
100
AcDbEntity
  8
レイヤー_1
  6
CONTINUOUS
 62
       3
100
AcDbLine
 10
-29.96681558
 20
1.4911555
 30
0.0
 11
-29.87710538
 21
1.4911555
 31
0.0
  0
LINE
  5
26D
100
AcDbEntity
  8
レイヤー_1
  6
CONTINUOUS
 62
       3
100
AcDbLine
 10
-29.87710538
 20
1.4911555
 30
0.0
 11
-29.75593809
 21
1.4911555
 31
0.0
  0
LINE
  5
26E
100
AcDbEntity
  8
レイヤー_1
  6
CONTINUOUS
 62
       3
100
AcDbLine
 10
-29.75593809
 20
1.4911555
 30
0.0
 11
-29.60586776
 21
1.4911555
 31
0.0
  0
LINE
  5
26F
100
AcDbEntity
  8
レイヤー_1
  6
CONTINUOUS
 62
       3
100
AcDbLine
 10
-29.60586776
 20
1.4911555
 30
0.0
 11
-29.4294484
 21
1.4911555
 31
0.0
  0
LINE
  5
270
100
AcDbEntity
  8
レイヤー_1
  6
CONTINUOUS
 62
       3
100
AcDbLine
 10
-29.4294484
 20
1.4911555
 30
0.0
 11
-29.22923407
 21
1.4911555
 31
0.0
  0
LINE
  5
271
100
AcDbEntity
  8
レイヤー_1
  6
CONTINUOUS
 62
       3
100
AcDbLine
 10
-29.22923407
 20
1.4911555
 30
0.0
 11
-29.00777879
 21
1.4911555
 31
0.0
  0
LINE
  5
272
100
AcDbEntity
  8
レイヤー_1
  6
CONTINUOUS
 62
       3
100
AcDbLine
 10
-29.00777879
 20
1.4911555
 30
0.0
 11
-28.7676366
 21
1.4911555
 31
0.0
  0
LINE
  5
273
100
AcDbEntity
  8
レイヤー_1
  6
CONTINUOUS
 62
       3
100
AcDbLine
 10
-28.7676366
 20
1.4911555
 30
0.0
 11
-28.51136154
 21
1.4911555
 31
0.0
  0
LINE
  5
274
100
AcDbEntity
  8
レイヤー_1
  6
CONTINUOUS
 62
       3
100
AcDbLine
 10
-28.51136154
 20
1.4911555
 30
0.0
 11
-28.24150764
 21
1.4911555
 31
0.0
  0
LINE
  5
275
100
AcDbEntity
  8
レイヤー_1
  6
CONTINUOUS
 62
       3
100
AcDbLine
 10
-28.24150764
 20
1.4911555
 30
0.0
 11
-27.96062893
 21
1.4911555
 31
0.0
  0
LINE
  5
276
100
AcDbEntity
  8
レイヤー_1
  6
CONTINUOUS
 62
       3
100
AcDbLine
 10
-27.96062893
 20
1.4911555
 30
0.0
 11
-27.67127946
 21
1.4911555
 31
0.0
  0
LINE
  5
277
100
AcDbEntity
  8
レイヤー_1
  6
CONTINUOUS
 62
       3
100
AcDbLine
 10
-27.67127946
 20
1.4911555
 30
0.0
 11
-27.37601325
 21
1.4911555
 31
0.0
  0
LINE
  5
278
100
AcDbEntity
  8
レイヤー_1
  6
CONTINUOUS
 62
       3
100
AcDbLine
 10
-27.37601325
 20
1.4911555
 30
0.0
 11
-27.07738434
 21
1.4911555
 31
0.0
  0
LINE
  5
279
100
AcDbEntity
  8
レイヤー_1
  6
CONTINUOUS
 62
       3
100
AcDbLine
 10
-27.07738434
 20
1.4911555
 30
0.0
 11
-26.83607684
 21
1.49069535
 31
0.0
  0
LINE
  5
27A
100
AcDbEntity
  8
レイヤー_1
  6
CONTINUOUS
 62
       3
100
AcDbLine
 10
-26.83607684
 20
1.49069535
 30
0.0
 11
-26.72641575
 21
1.48223755
 31
0.0
  0
LINE
  5
27B
100
AcDbEntity
  8
レイヤー_1
  6
CONTINUOUS
 62
       3
100
AcDbLine
 10
-26.72641575
 20
1.48223755
 30
0.0
 11
-26.5979744
 21
1.46423511
 31
0.0
  0
LINE
  5
27C
100
AcDbEntity
  8
レイヤー_1
  6
CONTINUOUS
 62
       3
100
AcDbLine
 10
-26.5979744
 20
1.46423511
 30
0.0
 11
-26.45450572
 21
1.43814045
 31
0.0
  0
LINE
  5
27D
100
AcDbEntity
  8
レイヤー_1
  6
CONTINUOUS
 62
       3
100
AcDbLine
 10
-26.45450572
 20
1.43814045
 30
0.0
 11
-26.29976264
 21
1.40540603
 31
0.0
  0
LINE
  5
27E
100
AcDbEntity
  8
レイヤー_1
  6
CONTINUOUS
 62
       3
100
AcDbLine
 10
-26.29976264
 20
1.40540603
 30
0.0
 11
-26.13749808
 21
1.3674843
 31
0.0
  0
LINE
  5
27F
100
AcDbEntity
  8
レイヤー_1
  6
CONTINUOUS
 62
       3
100
AcDbLine
 10
-26.13749808
 20
1.3674843
 30
0.0
 11
-25.97146497
 21
1.3258277
 31
0.0
  0
LINE
  5
280
100
AcDbEntity
  8
レイヤー_1
  6
CONTINUOUS
 62
       3
100
AcDbLine
 10
-25.97146497
 20
1.3258277
 30
0.0
 11
-25.80541623
 21
1.28188869
 31
0.0
  0
LINE
  5
281
100
AcDbEntity
  8
レイヤー_1
  6
CONTINUOUS
 62
       3
100
AcDbLine
 10
-25.80541623
 20
1.28188869
 30
0.0
 11
-25.6431048
 21
1.23711971
 31
0.0
  0
LINE
  5
282
100
AcDbEntity
  8
レイヤー_1
  6
CONTINUOUS
 62
       3
100
AcDbLine
 10
-25.6431048
 20
1.23711971
 30
0.0
 11
-25.48828359
 21
1.1929732
 31
0.0
  0
LINE
  5
283
100
AcDbEntity
  8
レイヤー_1
  6
CONTINUOUS
 62
       3
100
AcDbLine
 10
-25.48828359
 20
1.1929732
 30
0.0
 11
-25.34470553
 21
1.15090162
 31
0.0
  0
LINE
  5
284
100
AcDbEntity
  8
レイヤー_1
  6
CONTINUOUS
 62
       3
100
AcDbLine
 10
-25.34470553
 20
1.15090162
 30
0.0
 11
-25.21612355
 21
1.11235741
 31
0.0
  0
LINE
  5
285
100
AcDbEntity
  8
レイヤー_1
  6
CONTINUOUS
 62
       3
100
AcDbLine
 10
-25.21612355
 20
1.11235741
 30
0.0
 11
-25.10629058
 21
1.07879302
 31
0.0
  0
LINE
  5
286
100
AcDbEntity
  8
レイヤー_1
  6
CONTINUOUS
 62
       3
100
AcDbLine
 10
-25.10629058
 20
1.07879302
 30
0.0
 11
-25.01895954
 21
1.0516609
 31
0.0
  0
LINE
  5
287
100
AcDbEntity
  8
レイヤー_1
  6
CONTINUOUS
 62
       3
100
AcDbLine
 10
-25.01895954
 20
1.0516609
 30
0.0
 11
-24.95788336
 21
1.0324135
 31
0.0
  0
LINE
  5
288
100
AcDbEntity
  8
レイヤー_1
  6
CONTINUOUS
 62
       3
100
AcDbLine
 10
-24.95788336
 20
1.0324135
 30
0.0
 11
-24.92681496
 21
1.02250326
 31
0.0
  0
LINE
  5
289
100
AcDbEntity
  8
レイヤー_1
  6
CONTINUOUS
 62
       3
100
AcDbLine
 10
-24.92681496
 20
1.02250326
 30
0.0
 11
-24.92429877
 21
1.01919839
 31
0.0
  0
LINE
  5
28A
100
AcDbEntity
  8
レイヤー_1
  6
CONTINUOUS
 62
       3
100
AcDbLine
 10
-24.92429877
 20
1.01919839
 30
0.0
 11
-24.9285549
 21
1.00501131
 31
0.0
  0
LINE
  5
28B
100
AcDbEntity
  8
レイヤー_1
  6
CONTINUOUS
 62
       3
100
AcDbLine
 10
-24.9285549
 20
1.00501131
 30
0.0
 11
-24.93623968
 21
0.97939539
 31
0.0
  0
LINE
  5
28C
100
AcDbEntity
  8
レイヤー_1
  6
CONTINUOUS
 62
       3
100
AcDbLine
 10
-24.93623968
 20
0.97939539
 30
0.0
 11
-24.94680763
 21
0.94416886
 31
0.0
  0
LINE
  5
28D
100
AcDbEntity
  8
レイヤー_1
  6
CONTINUOUS
 62
       3
100
AcDbLine
 10
-24.94680763
 20
0.94416886
 30
0.0
 11
-24.95971331
 21
0.90114995
 31
0.0
  0
LINE
  5
28E
100
AcDbEntity
  8
レイヤー_1
  6
CONTINUOUS
 62
       3
100
AcDbLine
 10
-24.95971331
 20
0.90114995
 30
0.0
 11
-24.97441123
 21
0.85215688
 31
0.0
  0
LINE
  5
28F
100
AcDbEntity
  8
レイヤー_1
  6
CONTINUOUS
 62
       3
100
AcDbLine
 10
-24.97441123
 20
0.85215688
 30
0.0
 11
-24.99035593
 21
0.79900787
 31
0.0
  0
LINE
  5
290
100
AcDbEntity
  8
レイヤー_1
  6
CONTINUOUS
 62
       3
100
AcDbLine
 10
-24.99035593
 20
0.79900787
 30
0.0
 11
-25.00700195
 21
0.74352114
 31
0.0
  0
LINE
  5
291
100
AcDbEntity
  8
レイヤー_1
  6
CONTINUOUS
 62
       3
100
AcDbLine
 10
-25.00700195
 20
0.74352114
 30
0.0
 11
-25.02380382
 21
0.68751492
 31
0.0
  0
LINE
  5
292
100
AcDbEntity
  8
レイヤー_1
  6
CONTINUOUS
 62
       3
100
AcDbLine
 10
-25.02380382
 20
0.68751492
 30
0.0
 11
-25.04021606
 21
0.63280743
 31
0.0
  0
LINE
  5
293
100
AcDbEntity
  8
レイヤー_1
  6
CONTINUOUS
 62
       3
100
AcDbLine
 10
-25.04021606
 20
0.63280743
 30
0.0
 11
-25.05569322
 21
0.5812169
 31
0.0
  0
LINE
  5
294
100
AcDbEntity
  8
レイヤー_1
  6
CONTINUOUS
 62
       3
100
AcDbLine
 10
-25.05569322
 20
0.5812169
 30
0.0
 11
-25.06968983
 21
0.53456154
 31
0.0
  0
LINE
  5
295
100
AcDbEntity
  8
レイヤー_1
  6
CONTINUOUS
 62
       3
100
AcDbLine
 10
-25.06968983
 20
0.53456154
 30
0.0
 11
-25.08166042
 21
0.49465958
 31
0.0
  0
LINE
  5
296
100
AcDbEntity
  8
レイヤー_1
  6
CONTINUOUS
 62
       3
100
AcDbLine
 10
-25.08166042
 20
0.49465958
 30
0.0
 11
-25.09105952
 21
0.46332925
 31
0.0
  0
LINE
  5
297
100
AcDbEntity
  8
レイヤー_1
  6
CONTINUOUS
 62
       3
100
AcDbLine
 10
-25.09105952
 20
0.46332925
 30
0.0
 11
-25.09734166
 21
0.44238876
 31
0.0
  0
LINE
  5
298
100
AcDbEntity
  8
レイヤー_1
  6
CONTINUOUS
 62
       3
100
AcDbLine
 10
-25.09734166
 20
0.44238876
 30
0.0
 11
-25.09996139
 21
0.43365634
 31
0.0
  0
LINE
  5
299
100
AcDbEntity
  8
レイヤー_1
  6
CONTINUOUS
 62
       3
100
AcDbLine
 10
-25.09996139
 20
0.43365634
 30
0.0
 11
-25.10474932
 21
0.43009955
 31
0.0
  0
LINE
  5
29A
100
AcDbEntity
  8
レイヤー_1
  6
CONTINUOUS
 62
       3
100
AcDbLine
 10
-25.10474932
 20
0.43009955
 30
0.0
 11
-25.12155217
 21
0.41813035
 31
0.0
  0
LINE
  5
29B
100
AcDbEntity
  8
レイヤー_1
  6
CONTINUOUS
 62
       3
100
AcDbLine
 10
-25.12155217
 20
0.41813035
 30
0.0
 11
-25.14928774
 21
0.39861151
 31
0.0
  0
LINE
  5
29C
100
AcDbEntity
  8
レイヤー_1
  6
CONTINUOUS
 62
       3
100
AcDbLine
 10
-25.14928774
 20
0.39861151
 30
0.0
 11
-25.1866943
 21
0.37264925
 31
0.0
  0
LINE
  5
29D
100
AcDbEntity
  8
レイヤー_1
  6
CONTINUOUS
 62
       3
100
AcDbLine
 10
-25.1866943
 20
0.37264925
 30
0.0
 11
-25.23251008
 21
0.34134976
 31
0.0
  0
LINE
  5
29E
100
AcDbEntity
  8
レイヤー_1
  6
CONTINUOUS
 62
       3
100
AcDbLine
 10
-25.23251008
 20
0.34134976
 30
0.0
 11
-25.28547335
 21
0.30581924
 31
0.0
  0
LINE
  5
29F
100
AcDbEntity
  8
レイヤー_1
  6
CONTINUOUS
 62
       3
100
AcDbLine
 10
-25.28547335
 20
0.30581924
 30
0.0
 11
-25.34432236
 21
0.26716391
 31
0.0
  0
LINE
  5
2A0
100
AcDbEntity
  8
レイヤー_1
  6
CONTINUOUS
 62
       3
100
AcDbLine
 10
-25.34432236
 20
0.26716391
 30
0.0
 11
-25.40779535
 21
0.22648997
 31
0.0
  0
LINE
  5
2A1
100
AcDbEntity
  8
レイヤー_1
  6
CONTINUOUS
 62
       3
100
AcDbLine
 10
-25.40779535
 20
0.22648997
 30
0.0
 11
-25.47463059
 21
0.18490362
 31
0.0
  0
LINE
  5
2A2
100
AcDbEntity
  8
レイヤー_1
  6
CONTINUOUS
 62
       3
100
AcDbLine
 10
-25.47463059
 20
0.18490362
 30
0.0
 11
-25.54356632
 21
0.14351106
 31
0.0
  0
LINE
  5
2A3
100
AcDbEntity
  8
レイヤー_1
  6
CONTINUOUS
 62
       3
100
AcDbLine
 10
-25.54356632
 20
0.14351106
 30
0.0
 11
-25.6133408
 21
0.10341851
 31
0.0
  0
LINE
  5
2A4
100
AcDbEntity
  8
レイヤー_1
  6
CONTINUOUS
 62
       3
100
AcDbLine
 10
-25.6133408
 20
0.10341851
 30
0.0
 11
-25.68269227
 21
0.06573215
 31
0.0
  0
LINE
  5
2A5
100
AcDbEntity
  8
レイヤー_1
  6
CONTINUOUS
 62
       3
100
AcDbLine
 10
-25.68269227
 20
0.06573215
 30
0.0
 11
-25.750359
 21
0.0315582
 31
0.0
  0
LINE
  5
2A6
100
AcDbEntity
  8
レイヤー_1
  6
CONTINUOUS
 62
       3
100
AcDbLine
 10
-25.750359
 20
0.0315582
 30
0.0
 11
-25.81507923
 21
0.00200287
 31
0.0
  0
LINE
  5
2A7
100
AcDbEntity
  8
レイヤー_1
  6
CONTINUOUS
 62
       3
100
AcDbLine
 10
-25.81507923
 20
0.00200287
 30
0.0
 11
-25.87559122
 21
-0.02182765
 31
0.0
  0
LINE
  5
2A8
100
AcDbEntity
  8
レイヤー_1
  6
CONTINUOUS
 62
       3
100
AcDbLine
 10
-25.87559122
 20
-0.02182765
 30
0.0
 11
-25.94069185
 21
-0.04159683
 31
0.0
  0
LINE
  5
2A9
100
AcDbEntity
  8
レイヤー_1
  6
CONTINUOUS
 62
       3
100
AcDbLine
 10
-25.94069185
 20
-0.04159683
 30
0.0
 11
-26.05859559
 21
-0.07083713
 31
0.0
  0
LINE
  5
2AA
100
AcDbEntity
  8
レイヤー_1
  6
CONTINUOUS
 62
       3
100
AcDbLine
 10
-26.05859559
 20
-0.07083713
 30
0.0
 11
-26.16804195
 21
-0.09366171
 31
0.0
  0
LINE
  5
2AB
100
AcDbEntity
  8
レイヤー_1
  6
CONTINUOUS
 62
       3
100
AcDbLine
 10
-26.16804195
 20
-0.09366171
 30
0.0
 11
-26.26912114
 21
-0.11070693
 31
0.0
  0
LINE
  5
2AC
100
AcDbEntity
  8
レイヤー_1
  6
CONTINUOUS
 62
       3
100
AcDbLine
 10
-26.26912114
 20
-0.11070693
 30
0.0
 11
-26.36192336
 21
-0.12260918
 31
0.0
  0
LINE
  5
2AD
100
AcDbEntity
  8
レイヤー_1
  6
CONTINUOUS
 62
       3
100
AcDbLine
 10
-26.36192336
 20
-0.12260918
 30
0.0
 11
-26.44653881
 21
-0.13000484
 31
0.0
  0
LINE
  5
2AE
100
AcDbEntity
  8
レイヤー_1
  6
CONTINUOUS
 62
       3
100
AcDbLine
 10
-26.44653881
 20
-0.13000484
 30
0.0
 11
-26.52305768
 21
-0.13353027
 31
0.0
  0
LINE
  5
2AF
100
AcDbEntity
  8
レイヤー_1
  6
CONTINUOUS
 62
       3
100
AcDbLine
 10
-26.52305768
 20
-0.13353027
 30
0.0
 11
-26.59157018
 21
-0.13382187
 31
0.0
  0
LINE
  5
2B0
100
AcDbEntity
  8
レイヤー_1
  6
CONTINUOUS
 62
       3
100
AcDbLine
 10
-26.59157018
 20
-0.13382187
 30
0.0
 11
-26.65216651
 21
-0.131516
 31
0.0
  0
LINE
  5
2B1
100
AcDbEntity
  8
レイヤー_1
  6
CONTINUOUS
 62
       3
100
AcDbLine
 10
-26.65216651
 20
-0.131516
 30
0.0
 11
-26.70493687
 21
-0.12724905
 31
0.0
  0
LINE
  5
2B2
100
AcDbEntity
  8
レイヤー_1
  6
CONTINUOUS
 62
       3
100
AcDbLine
 10
-26.70493687
 20
-0.12724905
 30
0.0
 11
-26.74997147
 21
-0.1216574
 31
0.0
  0
LINE
  5
2B3
100
AcDbEntity
  8
レイヤー_1
  6
CONTINUOUS
 62
       3
100
AcDbLine
 10
-26.74997147
 20
-0.1216574
 30
0.0
 11
-26.78736049
 21
-0.11537742
 31
0.0
  0
LINE
  5
2B4
100
AcDbEntity
  8
レイヤー_1
  6
CONTINUOUS
 62
       3
100
AcDbLine
 10
-26.78736049
 20
-0.11537742
 30
0.0
 11
-26.81719415
 21
-0.10904549
 31
0.0
  0
LINE
  5
2B5
100
AcDbEntity
  8
レイヤー_1
  6
CONTINUOUS
 62
       3
100
AcDbLine
 10
-26.81719415
 20
-0.10904549
 30
0.0
 11
-26.83956265
 21
-0.10329798
 31
0.0
  0
LINE
  5
2B6
100
AcDbEntity
  8
レイヤー_1
  6
CONTINUOUS
 62
       3
100
AcDbLine
 10
-26.83956265
 20
-0.10329798
 30
0.0
 11
-26.85455618
 21
-0.09877129
 31
0.0
  0
LINE
  5
2B7
100
AcDbEntity
  8
レイヤー_1
  6
CONTINUOUS
 62
       3
100
AcDbLine
 10
-26.85455618
 20
-0.09877129
 30
0.0
 11
-26.86226495
 21
-0.09610178
 31
0.0
  0
LINE
  5
2B8
100
AcDbEntity
  8
レイヤー_1
  6
CONTINUOUS
 62
       3
100
AcDbLine
 10
-26.86418822
 20
-0.09434029
 30
0.0
 11
-26.8714525
 21
-0.08167747
 31
0.0
  0
LINE
  5
2B9
100
AcDbEntity
  8
レイヤー_1
  6
CONTINUOUS
 62
       3
100
AcDbLine
 10
-26.8714525
 20
-0.08167747
 30
0.0
 11
-26.88556098
 21
-0.05708409
 31
0.0
  0
LINE
  5
2BA
100
AcDbEntity
  8
レイヤー_1
  6
CONTINUOUS
 62
       3
100
AcDbLine
 10
-26.88556098
 20
-0.05708409
 30
0.0
 11
-26.90544903
 21
-0.02241601
 31
0.0
  0
LINE
  5
2BB
100
AcDbEntity
  8
レイヤー_1
  6
CONTINUOUS
 62
       3
100
AcDbLine
 10
-26.90544903
 20
-0.02241601
 30
0.0
 11
-26.93005197
 21
0.02047091
 31
0.0
  0
LINE
  5
2BC
100
AcDbEntity
  8
レイヤー_1
  6
CONTINUOUS
 62
       3
100
AcDbLine
 10
-26.93005197
 20
0.02047091
 30
0.0
 11
-26.95830516
 21
0.06972079
 31
0.0
  0
LINE
  5
2BD
100
AcDbEntity
  8
レイヤー_1
  6
CONTINUOUS
 62
       3
100
AcDbLine
 10
-26.95830516
 20
0.06972079
 30
0.0
 11
-26.98914393
 21
0.12347778
 31
0.0
  0
LINE
  5
2BE
100
AcDbEntity
  8
レイヤー_1
  6
CONTINUOUS
 62
       3
100
AcDbLine
 10
-26.98914393
 20
0.12347778
 30
0.0
 11
-27.02150365
 21
0.17988601
 31
0.0
  0
LINE
  5
2BF
100
AcDbEntity
  8
レイヤー_1
  6
CONTINUOUS
 62
       3
100
AcDbLine
 10
-27.02150365
 20
0.17988601
 30
0.0
 11
-27.05431964
 21
0.23708961
 31
0.0
  0
LINE
  5
2C0
100
AcDbEntity
  8
レイヤー_1
  6
CONTINUOUS
 62
       3
100
AcDbLine
 10
-27.05431964
 20
0.23708961
 30
0.0
 11
-27.08652726
 21
0.29323271
 31
0.0
  0
LINE
  5
2C1
100
AcDbEntity
  8
レイヤー_1
  6
CONTINUOUS
 62
       3
100
AcDbLine
 10
-27.08652726
 20
0.29323271
 30
0.0
 11
-27.11706185
 21
0.34645945
 31
0.0
  0
LINE
  5
2C2
100
AcDbEntity
  8
レイヤー_1
  6
CONTINUOUS
 62
       3
100
AcDbLine
 10
-27.11706185
 20
0.34645945
 30
0.0
 11
-27.14485876
 21
0.39491397
 31
0.0
  0
LINE
  5
2C3
100
AcDbEntity
  8
レイヤー_1
  6
CONTINUOUS
 62
       3
100
AcDbLine
 10
-27.14485876
 20
0.39491397
 30
0.0
 11
-27.16885333
 21
0.43674039
 31
0.0
  0
LINE
  5
2C4
100
AcDbEntity
  8
レイヤー_1
  6
CONTINUOUS
 62
       3
100
AcDbLine
 10
-27.16885333
 20
0.43674039
 30
0.0
 11
-27.1879809
 21
0.47008285
 31
0.0
  0
LINE
  5
2C5
100
AcDbEntity
  8
レイヤー_1
  6
CONTINUOUS
 62
       3
100
AcDbLine
 10
-27.1879809
 20
0.47008285
 30
0.0
 11
-27.20117683
 21
0.49308549
 31
0.0
  0
LINE
  5
2C6
100
AcDbEntity
  8
レイヤー_1
  6
CONTINUOUS
 62
       3
100
AcDbLine
 10
-27.20117683
 20
0.49308549
 30
0.0
 11
-27.20737645
 21
0.50389244
 31
0.0
  0
LINE
  5
2C7
100
AcDbEntity
  8
レイヤー_1
  6
CONTINUOUS
 62
       3
100
AcDbLine
 10
-27.20737645
 20
0.50389244
 30
0.0
 11
-27.22474717
 21
0.5044804
 31
0.0
  0
LINE
  5
2C8
100
AcDbEntity
  8
レイヤー_1
  6
CONTINUOUS
 62
       3
100
AcDbLine
 10
-27.22474717
 20
0.5044804
 30
0.0
 11
-27.30153381
 21
0.5044804
 31
0.0
  0
LINE
  5
2C9
100
AcDbEntity
  8
レイヤー_1
  6
CONTINUOUS
 62
       3
100
AcDbLine
 10
-27.30153381
 20
0.5044804
 30
0.0
 11
-27.43215457
 21
0.5044804
 31
0.0
  0
LINE
  5
2CA
100
AcDbEntity
  8
レイヤー_1
  6
CONTINUOUS
 62
       3
100
AcDbLine
 10
-27.43215457
 20
0.5044804
 30
0.0
 11
-27.60784576
 21
0.5044804
 31
0.0
  0
LINE
  5
2CB
100
AcDbEntity
  8
レイヤー_1
  6
CONTINUOUS
 62
       3
100
AcDbLine
 10
-27.60784576
 20
0.5044804
 30
0.0
 11
-27.81984367
 21
0.5044804
 31
0.0
  0
LINE
  5
2CC
100
AcDbEntity
  8
レイヤー_1
  6
CONTINUOUS
 62
       3
100
AcDbLine
 10
-27.81984367
 20
0.5044804
 30
0.0
 11
-28.05938462
 21
0.5044804
 31
0.0
  0
LINE
  5
2CD
100
AcDbEntity
  8
レイヤー_1
  6
CONTINUOUS
 62
       3
100
AcDbLine
 10
-28.05938462
 20
0.5044804
 30
0.0
 11
-28.31770492
 21
0.5044804
 31
0.0
  0
LINE
  5
2CE
100
AcDbEntity
  8
レイヤー_1
  6
CONTINUOUS
 62
       3
100
AcDbLine
 10
-28.31770492
 20
0.5044804
 30
0.0
 11
-28.58604086
 21
0.5044804
 31
0.0
  0
LINE
  5
2CF
100
AcDbEntity
  8
レイヤー_1
  6
CONTINUOUS
 62
       3
100
AcDbLine
 10
-28.58604086
 20
0.5044804
 30
0.0
 11
-28.85562876
 21
0.5044804
 31
0.0
  0
LINE
  5
2D0
100
AcDbEntity
  8
レイヤー_1
  6
CONTINUOUS
 62
       3
100
AcDbLine
 10
-28.85562876
 20
0.5044804
 30
0.0
 11
-29.11770492
 21
0.5044804
 31
0.0
  0
LINE
  5
2D1
100
AcDbEntity
  8
レイヤー_1
  6
CONTINUOUS
 62
       3
100
AcDbLine
 10
-29.11770492
 20
0.5044804
 30
0.0
 11
-29.36350565
 21
0.5044804
 31
0.0
  0
LINE
  5
2D2
100
AcDbEntity
  8
レイヤー_1
  6
CONTINUOUS
 62
       3
100
AcDbLine
 10
-29.36350565
 20
0.5044804
 30
0.0
 11
-29.58426726
 21
0.5044804
 31
0.0
  0
LINE
  5
2D3
100
AcDbEntity
  8
レイヤー_1
  6
CONTINUOUS
 62
       3
100
AcDbLine
 10
-29.58426726
 20
0.5044804
 30
0.0
 11
-29.77122605
 21
0.5044804
 31
0.0
  0
LINE
  5
2D4
100
AcDbEntity
  8
レイヤー_1
  6
CONTINUOUS
 62
       3
100
AcDbLine
 10
-29.77122605
 20
0.5044804
 30
0.0
 11
-29.91561833
 21
0.5044804
 31
0.0
  0
LINE
  5
2D5
100
AcDbEntity
  8
レイヤー_1
  6
CONTINUOUS
 62
       3
100
AcDbLine
 10
-29.91561833
 20
0.5044804
 30
0.0
 11
-30.00868041
 21
0.5044804
 31
0.0
  0
LINE
  5
2D6
100
AcDbEntity
  8
レイヤー_1
  6
CONTINUOUS
 62
       3
100
AcDbLine
 10
-30.00868041
 20
0.5044804
 30
0.0
 11
-30.04164859
 21
0.5044804
 31
0.0
  0
LINE
  5
2D7
100
AcDbEntity
  8
レイヤー_1
  6
CONTINUOUS
 62
       3
100
AcDbLine
 10
-30.03843316
 20
-11.28968621
 30
0.0
 11
-30.01236629
 21
-11.28968621
 31
0.0
  0
LINE
  5
2D8
100
AcDbEntity
  8
レイヤー_1
  6
CONTINUOUS
 62
       3
100
AcDbLine
 10
-30.01236629
 20
-11.28968621
 30
0.0
 11
-29.9389279
 21
-11.28968621
 31
0.0
  0
LINE
  5
2D9
100
AcDbEntity
  8
レイヤー_1
  6
CONTINUOUS
 62
       3
100
AcDbLine
 10
-29.9389279
 20
-11.28968621
 30
0.0
 11
-29.8252613
 21
-11.28968621
 31
0.0
  0
LINE
  5
2DA
100
AcDbEntity
  8
レイヤー_1
  6
CONTINUOUS
 62
       3
100
AcDbLine
 10
-29.8252613
 20
-11.28968621
 30
0.0
 11
-29.67850984
 21
-11.28968621
 31
0.0
  0
LINE
  5
2DB
100
AcDbEntity
  8
レイヤー_1
  6
CONTINUOUS
 62
       3
100
AcDbLine
 10
-29.67850984
 20
-11.28968621
 30
0.0
 11
-29.50581682
 21
-11.28968621
 31
0.0
  0
LINE
  5
2DC
100
AcDbEntity
  8
レイヤー_1
  6
CONTINUOUS
 62
       3
100
AcDbLine
 10
-29.50581682
 20
-11.28968621
 30
0.0
 11
-29.31432558
 21
-11.28968621
 31
0.0
  0
LINE
  5
2DD
100
AcDbEntity
  8
レイヤー_1
  6
CONTINUOUS
 62
       3
100
AcDbLine
 10
-29.31432558
 20
-11.28968621
 30
0.0
 11
-29.11117943
 21
-11.28968621
 31
0.0
  0
LINE
  5
2DE
100
AcDbEntity
  8
レイヤー_1
  6
CONTINUOUS
 62
       3
100
AcDbLine
 10
-29.11117943
 20
-11.28968621
 30
0.0
 11
-28.90352172
 21
-11.28968621
 31
0.0
  0
LINE
  5
2DF
100
AcDbEntity
  8
レイヤー_1
  6
CONTINUOUS
 62
       3
100
AcDbLine
 10
-28.90352172
 20
-11.28968621
 30
0.0
 11
-28.69849576
 21
-11.28968621
 31
0.0
  0
LINE
  5
2E0
100
AcDbEntity
  8
レイヤー_1
  6
CONTINUOUS
 62
       3
100
AcDbLine
 10
-28.69849576
 20
-11.28968621
 30
0.0
 11
-28.50324487
 21
-11.28968621
 31
0.0
  0
LINE
  5
2E1
100
AcDbEntity
  8
レイヤー_1
  6
CONTINUOUS
 62
       3
100
AcDbLine
 10
-28.50324487
 20
-11.28968621
 30
0.0
 11
-28.32491239
 21
-11.28968621
 31
0.0
  0
LINE
  5
2E2
100
AcDbEntity
  8
レイヤー_1
  6
CONTINUOUS
 62
       3
100
AcDbLine
 10
-28.32491239
 20
-11.28968621
 30
0.0
 11
-28.17064163
 21
-11.28968621
 31
0.0
  0
LINE
  5
2E3
100
AcDbEntity
  8
レイヤー_1
  6
CONTINUOUS
 62
       3
100
AcDbLine
 10
-28.17064163
 20
-11.28968621
 30
0.0
 11
-28.04757592
 21
-11.28968621
 31
0.0
  0
LINE
  5
2E4
100
AcDbEntity
  8
レイヤー_1
  6
CONTINUOUS
 62
       3
100
AcDbLine
 10
-28.04757592
 20
-11.28968621
 30
0.0
 11
-27.96285859
 21
-11.28968621
 31
0.0
  0
LINE
  5
2E5
100
AcDbEntity
  8
レイヤー_1
  6
CONTINUOUS
 62
       3
100
AcDbLine
 10
-27.96285859
 20
-11.28968621
 30
0.0
 11
-27.92363296
 21
-11.28968621
 31
0.0
  0
LINE
  5
2E6
100
AcDbEntity
  8
レイヤー_1
  6
CONTINUOUS
 62
       3
100
AcDbLine
 10
-27.92363296
 20
-11.28968621
 30
0.0
 11
-27.91553501
 21
-11.28111369
 31
0.0
  0
LINE
  5
2E7
100
AcDbEntity
  8
レイヤー_1
  6
CONTINUOUS
 62
       3
100
AcDbLine
 10
-27.91553501
 20
-11.28111369
 30
0.0
 11
-27.88870388
 21
-11.24420583
 31
0.0
  0
LINE
  5
2E8
100
AcDbEntity
  8
レイヤー_1
  6
CONTINUOUS
 62
       3
100
AcDbLine
 10
-27.88870388
 20
-11.24420583
 30
0.0
 11
-27.843551
 21
-11.18209529
 31
0.0
  0
LINE
  5
2E9
100
AcDbEntity
  8
レイヤー_1
  6
CONTINUOUS
 62
       3
100
AcDbLine
 10
-27.843551
 20
-11.18209529
 30
0.0
 11
-27.78318454
 21
-11.09905753
 31
0.0
  0
LINE
  5
2EA
100
AcDbEntity
  8
レイヤー_1
  6
CONTINUOUS
 62
       3
100
AcDbLine
 10
-27.78318454
 20
-11.09905753
 30
0.0
 11
-27.71071264
 21
-10.99936801
 31
0.0
  0
LINE
  5
2EB
100
AcDbEntity
  8
レイヤー_1
  6
CONTINUOUS
 62
       3
100
AcDbLine
 10
-27.71071264
 20
-10.99936801
 30
0.0
 11
-27.62924346
 21
-10.88730217
 31
0.0
  0
LINE
  5
2EC
100
AcDbEntity
  8
レイヤー_1
  6
CONTINUOUS
 62
       3
100
AcDbLine
 10
-27.62924346
 20
-10.88730217
 30
0.0
 11
-27.54188514
 21
-10.76713547
 31
0.0
  0
LINE
  5
2ED
100
AcDbEntity
  8
レイヤー_1
  6
CONTINUOUS
 62
       3
100
AcDbLine
 10
-27.54188514
 20
-10.76713547
 30
0.0
 11
-27.45174585
 21
-10.64314336
 31
0.0
  0
LINE
  5
2EE
100
AcDbEntity
  8
レイヤー_1
  6
CONTINUOUS
 62
       3
100
AcDbLine
 10
-27.45174585
 20
-10.64314336
 30
0.0
 11
-27.36193373
 21
-10.5196013
 31
0.0
  0
LINE
  5
2EF
100
AcDbEntity
  8
レイヤー_1
  6
CONTINUOUS
 62
       3
100
AcDbLine
 10
-27.36193373
 20
-10.5196013
 30
0.0
 11
-27.27555694
 21
-10.40078475
 31
0.0
  0
LINE
  5
2F0
100
AcDbEntity
  8
レイヤー_1
  6
CONTINUOUS
 62
       3
100
AcDbLine
 10
-27.27555694
 20
-10.40078475
 30
0.0
 11
-27.19572362
 21
-10.29096915
 31
0.0
  0
LINE
  5
2F1
100
AcDbEntity
  8
レイヤー_1
  6
CONTINUOUS
 62
       3
100
AcDbLine
 10
-27.19572362
 20
-10.29096915
 30
0.0
 11
-27.12554194
 21
-10.19442995
 31
0.0
  0
LINE
  5
2F2
100
AcDbEntity
  8
レイヤー_1
  6
CONTINUOUS
 62
       3
100
AcDbLine
 10
-27.12554194
 20
-10.19442995
 30
0.0
 11
-27.06812004
 21
-10.11544263
 31
0.0
  0
LINE
  5
2F3
100
AcDbEntity
  8
レイヤー_1
  6
CONTINUOUS
 62
       3
100
AcDbLine
 10
-27.06812004
 20
-10.11544263
 30
0.0
 11
-27.02656608
 21
-10.05828261
 31
0.0
  0
LINE
  5
2F4
100
AcDbEntity
  8
レイヤー_1
  6
CONTINUOUS
 62
       3
100
AcDbLine
 10
-27.02656608
 20
-10.05828261
 30
0.0
 11
-27.00398821
 21
-10.02722537
 31
0.0
  0
LINE
  5
2F5
100
AcDbEntity
  8
レイヤー_1
  6
CONTINUOUS
 62
       3
100
AcDbLine
 10
-27.00398821
 20
-10.02722537
 30
0.0
 11
-26.99814699
 21
-10.02281008
 31
0.0
  0
LINE
  5
2F6
100
AcDbEntity
  8
レイヤー_1
  6
CONTINUOUS
 62
       3
100
AcDbLine
 10
-26.99814699
 20
-10.02281008
 30
0.0
 11
-26.97644492
 21
-10.02281008
 31
0.0
  0
LINE
  5
2F7
100
AcDbEntity
  8
レイヤー_1
  6
CONTINUOUS
 62
       3
100
AcDbLine
 10
-26.97644492
 20
-10.02281008
 30
0.0
 11
-26.93541703
 21
-10.02281008
 31
0.0
  0
LINE
  5
2F8
100
AcDbEntity
  8
レイヤー_1
  6
CONTINUOUS
 62
       3
100
AcDbLine
 10
-26.93541703
 20
-10.02281008
 30
0.0
 11
-26.8782017
 21
-10.02281008
 31
0.0
  0
LINE
  5
2F9
100
AcDbEntity
  8
レイヤー_1
  6
CONTINUOUS
 62
       3
100
AcDbLine
 10
-26.8782017
 20
-10.02281008
 30
0.0
 11
-26.80793731
 21
-10.02281008
 31
0.0
  0
LINE
  5
2FA
100
AcDbEntity
  8
レイヤー_1
  6
CONTINUOUS
 62
       3
100
AcDbLine
 10
-26.80793731
 20
-10.02281008
 30
0.0
 11
-26.72776224
 21
-10.02281008
 31
0.0
  0
LINE
  5
2FB
100
AcDbEntity
  8
レイヤー_1
  6
CONTINUOUS
 62
       3
100
AcDbLine
 10
-26.72776224
 20
-10.02281008
 30
0.0
 11
-26.64081488
 21
-10.02281008
 31
0.0
  0
LINE
  5
2FC
100
AcDbEntity
  8
レイヤー_1
  6
CONTINUOUS
 62
       3
100
AcDbLine
 10
-26.64081488
 20
-10.02281008
 30
0.0
 11
-26.5502336
 21
-10.02281008
 31
0.0
  0
LINE
  5
2FD
100
AcDbEntity
  8
レイヤー_1
  6
CONTINUOUS
 62
       3
100
AcDbLine
 10
-26.5502336
 20
-10.02281008
 30
0.0
 11
-26.45915678
 21
-10.02281008
 31
0.0
  0
LINE
  5
2FE
100
AcDbEntity
  8
レイヤー_1
  6
CONTINUOUS
 62
       3
100
AcDbLine
 10
-26.45915678
 20
-10.02281008
 30
0.0
 11
-26.37072281
 21
-10.02281008
 31
0.0
  0
LINE
  5
2FF
100
AcDbEntity
  8
レイヤー_1
  6
CONTINUOUS
 62
       3
100
AcDbLine
 10
-26.37072281
 20
-10.02281008
 30
0.0
 11
-26.28807008
 21
-10.02281008
 31
0.0
  0
LINE
  5
300
100
AcDbEntity
  8
レイヤー_1
  6
CONTINUOUS
 62
       3
100
AcDbLine
 10
-26.28807008
 20
-10.02281008
 30
0.0
 11
-26.21433695
 21
-10.02281008
 31
0.0
  0
LINE
  5
301
100
AcDbEntity
  8
レイヤー_1
  6
CONTINUOUS
 62
       3
100
AcDbLine
 10
-26.21433695
 20
-10.02281008
 30
0.0
 11
-26.15266181
 21
-10.02281008
 31
0.0
  0
LINE
  5
302
100
AcDbEntity
  8
レイヤー_1
  6
CONTINUOUS
 62
       3
100
AcDbLine
 10
-26.15266181
 20
-10.02281008
 30
0.0
 11
-26.10618305
 21
-10.02281008
 31
0.0
  0
LINE
  5
303
100
AcDbEntity
  8
レイヤー_1
  6
CONTINUOUS
 62
       3
100
AcDbLine
 10
-26.10618305
 20
-10.02281008
 30
0.0
 11
-26.07803904
 21
-10.02281008
 31
0.0
  0
LINE
  5
304
100
AcDbEntity
  8
レイヤー_1
  6
CONTINUOUS
 62
       3
100
AcDbLine
 10
-26.07803904
 20
-10.02281008
 30
0.0
 11
-26.07083252
 21
-10.02361923
 31
0.0
  0
LINE
  5
305
100
AcDbEntity
  8
レイヤー_1
  6
CONTINUOUS
 62
       3
100
AcDbLine
 10
-26.07083252
 20
-10.02361923
 30
0.0
 11
-26.07083252
 21
-10.04838338
 31
0.0
  0
LINE
  5
306
100
AcDbEntity
  8
レイヤー_1
  6
CONTINUOUS
 62
       3
100
AcDbLine
 10
-26.07083252
 20
-10.04838338
 30
0.0
 11
-26.07083252
 21
-10.104154
 31
0.0
  0
LINE
  5
307
100
AcDbEntity
  8
レイヤー_1
  6
CONTINUOUS
 62
       3
100
AcDbLine
 10
-26.07083252
 20
-10.104154
 30
0.0
 11
-26.07083252
 21
-10.1861022
 31
0.0
  0
LINE
  5
308
100
AcDbEntity
  8
レイヤー_1
  6
CONTINUOUS
 62
       3
100
AcDbLine
 10
-26.07083252
 20
-10.1861022
 30
0.0
 11
-26.07083252
 21
-10.28939911
 31
0.0
  0
LINE
  5
309
100
AcDbEntity
  8
レイヤー_1
  6
CONTINUOUS
 62
       3
100
AcDbLine
 10
-26.07083252
 20
-10.28939911
 30
0.0
 11
-26.07083252
 21
-10.40921586
 31
0.0
  0
LINE
  5
30A
100
AcDbEntity
  8
レイヤー_1
  6
CONTINUOUS
 62
       3
100
AcDbLine
 10
-26.07083252
 20
-10.40921586
 30
0.0
 11
-26.07083252
 21
-10.54072357
 31
0.0
  0
LINE
  5
30B
100
AcDbEntity
  8
レイヤー_1
  6
CONTINUOUS
 62
       3
100
AcDbLine
 10
-26.07083252
 20
-10.54072357
 30
0.0
 11
-26.07083252
 21
-10.67909336
 31
0.0
  0
LINE
  5
30C
100
AcDbEntity
  8
レイヤー_1
  6
CONTINUOUS
 62
       3
100
AcDbLine
 10
-26.07083252
 20
-10.67909336
 30
0.0
 11
-26.07083252
 21
-10.81949637
 31
0.0
  0
LINE
  5
30D
100
AcDbEntity
  8
レイヤー_1
  6
CONTINUOUS
 62
       3
100
AcDbLine
 10
-26.07083252
 20
-10.81949637
 30
0.0
 11
-26.07083252
 21
-10.95710371
 31
0.0
  0
LINE
  5
30E
100
AcDbEntity
  8
レイヤー_1
  6
CONTINUOUS
 62
       3
100
AcDbLine
 10
-26.07083252
 20
-10.95710371
 30
0.0
 11
-26.07083252
 21
-11.08708652
 31
0.0
  0
LINE
  5
30F
100
AcDbEntity
  8
レイヤー_1
  6
CONTINUOUS
 62
       3
100
AcDbLine
 10
-26.07083252
 20
-11.08708652
 30
0.0
 11
-26.07083252
 21
-11.2046159
 31
0.0
  0
LINE
  5
310
100
AcDbEntity
  8
レイヤー_1
  6
CONTINUOUS
 62
       3
100
AcDbLine
 10
-26.07083252
 20
-11.2046159
 30
0.0
 11
-26.07083252
 21
-11.304863
 31
0.0
  0
LINE
  5
311
100
AcDbEntity
  8
レイヤー_1
  6
CONTINUOUS
 62
       3
100
AcDbLine
 10
-26.07083252
 20
-11.304863
 30
0.0
 11
-26.07083252
 21
-11.38299893
 31
0.0
  0
LINE
  5
312
100
AcDbEntity
  8
レイヤー_1
  6
CONTINUOUS
 62
       3
100
AcDbLine
 10
-26.07083252
 20
-11.38299893
 30
0.0
 11
-26.07083252
 21
-11.43419482
 31
0.0
  0
LINE
  5
313
100
AcDbEntity
  8
レイヤー_1
  6
CONTINUOUS
 62
       3
100
AcDbLine
 10
-26.07083252
 20
-11.43419482
 30
0.0
 11
-26.07083252
 21
-11.45362179
 31
0.0
  0
LINE
  5
314
100
AcDbEntity
  8
レイヤー_1
  6
CONTINUOUS
 62
       3
100
AcDbLine
 10
-26.07083252
 20
-11.45362179
 30
0.0
 11
-26.05831288
 21
-11.44879209
 31
0.0
  0
LINE
  5
315
100
AcDbEntity
  8
レイヤー_1
  6
CONTINUOUS
 62
       3
100
AcDbLine
 10
-26.05831288
 20
-11.44879209
 30
0.0
 11
-26.02034344
 21
-11.43399018
 31
0.0
  0
LINE
  5
316
100
AcDbEntity
  8
レイヤー_1
  6
CONTINUOUS
 62
       3
100
AcDbLine
 10
-26.02034344
 20
-11.43399018
 30
0.0
 11
-25.96069729
 21
-11.41073788
 31
0.0
  0
LINE
  5
317
100
AcDbEntity
  8
レイヤー_1
  6
CONTINUOUS
 62
       3
100
AcDbLine
 10
-25.96069729
 20
-11.41073788
 30
0.0
 11
-25.88318794
 21
-11.38052184
 31
0.0
  0
LINE
  5
318
100
AcDbEntity
  8
レイヤー_1
  6
CONTINUOUS
 62
       3
100
AcDbLine
 10
-25.88318794
 20
-11.38052184
 30
0.0
 11
-25.79162888
 21
-11.34482869
 31
0.0
  0
LINE
  5
319
100
AcDbEntity
  8
レイヤー_1
  6
CONTINUOUS
 62
       3
100
AcDbLine
 10
-25.79162888
 20
-11.34482869
 30
0.0
 11
-25.68983359
 21
-11.30514508
 31
0.0
  0
LINE
  5
31A
100
AcDbEntity
  8
レイヤー_1
  6
CONTINUOUS
 62
       3
100
AcDbLine
 10
-25.68983359
 20
-11.30514508
 30
0.0
 11
-25.58161558
 21
-11.26295765
 31
0.0
  0
LINE
  5
31B
100
AcDbEntity
  8
レイヤー_1
  6
CONTINUOUS
 62
       3
100
AcDbLine
 10
-25.58161558
 20
-11.26295765
 30
0.0
 11
-25.47078833
 21
-11.21975305
 31
0.0
  0
LINE
  5
31C
100
AcDbEntity
  8
レイヤー_1
  6
CONTINUOUS
 62
       3
100
AcDbLine
 10
-25.47078833
 20
-11.21975305
 30
0.0
 11
-25.36116535
 21
-11.17701791
 31
0.0
  0
LINE
  5
31D
100
AcDbEntity
  8
レイヤー_1
  6
CONTINUOUS
 62
       3
100
AcDbLine
 10
-25.36116535
 20
-11.17701791
 30
0.0
 11
-25.25656012
 21
-11.13623888
 31
0.0
  0
LINE
  5
31E
100
AcDbEntity
  8
レイヤー_1
  6
CONTINUOUS
 62
       3
100
AcDbLine
 10
-25.25656012
 20
-11.13623888
 30
0.0
 11
-25.16078614
 21
-11.0989026
 31
0.0
  0
LINE
  5
31F
100
AcDbEntity
  8
レイヤー_1
  6
CONTINUOUS
 62
       3
100
AcDbLine
 10
-25.16078614
 20
-11.0989026
 30
0.0
 11
-25.0776569
 21
-11.06649571
 31
0.0
  0
LINE
  5
320
100
AcDbEntity
  8
レイヤー_1
  6
CONTINUOUS
 62
       3
100
AcDbLine
 10
-25.0776569
 20
-11.06649571
 30
0.0
 11
-25.0109859
 21
-11.04050487
 31
0.0
  0
LINE
  5
321
100
AcDbEntity
  8
レイヤー_1
  6
CONTINUOUS
 62
       3
100
AcDbLine
 10
-25.0109859
 20
-11.04050487
 30
0.0
 11
-24.96458663
 21
-11.02241669
 31
0.0
  0
LINE
  5
322
100
AcDbEntity
  8
レイヤー_1
  6
CONTINUOUS
 62
       3
100
AcDbLine
 10
-24.96458663
 20
-11.02241669
 30
0.0
 11
-24.94227259
 21
-11.01371785
 31
0.0
  0
LINE
  5
323
100
AcDbEntity
  8
レイヤー_1
  6
CONTINUOUS
 62
       3
100
AcDbLine
 10
-24.94227259
 20
-11.01371785
 30
0.0
 11
-24.94084149
 21
-11.00750905
 31
0.0
  0
LINE
  5
324
100
AcDbEntity
  8
レイヤー_1
  6
CONTINUOUS
 62
       3
100
AcDbLine
 10
-24.94084149
 20
-11.00750905
 30
0.0
 11
-24.94084149
 21
-10.98046178
 31
0.0
  0
LINE
  5
325
100
AcDbEntity
  8
レイヤー_1
  6
CONTINUOUS
 62
       3
100
AcDbLine
 10
-24.94084149
 20
-10.98046178
 30
0.0
 11
-24.94084149
 21
-10.93402105
 31
0.0
  0
LINE
  5
326
100
AcDbEntity
  8
レイヤー_1
  6
CONTINUOUS
 62
       3
100
AcDbLine
 10
-24.94084149
 20
-10.93402105
 30
0.0
 11
-24.94084149
 21
-10.87144771
 31
0.0
  0
LINE
  5
327
100
AcDbEntity
  8
レイヤー_1
  6
CONTINUOUS
 62
       3
100
AcDbLine
 10
-24.94084149
 20
-10.87144771
 30
0.0
 11
-24.94084149
 21
-10.7960026
 31
0.0
  0
LINE
  5
328
100
AcDbEntity
  8
レイヤー_1
  6
CONTINUOUS
 62
       3
100
AcDbLine
 10
-24.94084149
 20
-10.7960026
 30
0.0
 11
-24.94084149
 21
-10.71094658
 31
0.0
  0
LINE
  5
329
100
AcDbEntity
  8
レイヤー_1
  6
CONTINUOUS
 62
       3
100
AcDbLine
 10
-24.94084149
 20
-10.71094658
 30
0.0
 11
-24.94084149
 21
-10.61954048
 31
0.0
  0
LINE
  5
32A
100
AcDbEntity
  8
レイヤー_1
  6
CONTINUOUS
 62
       3
100
AcDbLine
 10
-24.94084149
 20
-10.61954048
 30
0.0
 11
-24.94084149
 21
-10.52504516
 31
0.0
  0
LINE
  5
32B
100
AcDbEntity
  8
レイヤー_1
  6
CONTINUOUS
 62
       3
100
AcDbLine
 10
-24.94084149
 20
-10.52504516
 30
0.0
 11
-24.94084149
 21
-10.43072146
 31
0.0
  0
LINE
  5
32C
100
AcDbEntity
  8
レイヤー_1
  6
CONTINUOUS
 62
       3
100
AcDbLine
 10
-24.94084149
 20
-10.43072146
 30
0.0
 11
-24.94084149
 21
-10.33983024
 31
0.0
  0
LINE
  5
32D
100
AcDbEntity
  8
レイヤー_1
  6
CONTINUOUS
 62
       3
100
AcDbLine
 10
-24.94084149
 20
-10.33983024
 30
0.0
 11
-24.94084149
 21
-10.25563233
 31
0.0
  0
LINE
  5
32E
100
AcDbEntity
  8
レイヤー_1
  6
CONTINUOUS
 62
       3
100
AcDbLine
 10
-24.94084149
 20
-10.25563233
 30
0.0
 11
-24.94084149
 21
-10.18138859
 31
0.0
  0
LINE
  5
32F
100
AcDbEntity
  8
レイヤー_1
  6
CONTINUOUS
 62
       3
100
AcDbLine
 10
-24.94084149
 20
-10.18138859
 30
0.0
 11
-24.94084149
 21
-10.12035986
 31
0.0
  0
LINE
  5
330
100
AcDbEntity
  8
レイヤー_1
  6
CONTINUOUS
 62
       3
100
AcDbLine
 10
-24.94084149
 20
-10.12035986
 30
0.0
 11
-24.94084149
 21
-10.07580699
 31
0.0
  0
LINE
  5
331
100
AcDbEntity
  8
レイヤー_1
  6
CONTINUOUS
 62
       3
100
AcDbLine
 10
-24.94084149
 20
-10.07580699
 30
0.0
 11
-24.94084149
 21
-10.05099083
 31
0.0
  0
LINE
  5
332
100
AcDbEntity
  8
レイヤー_1
  6
CONTINUOUS
 62
       3
100
AcDbLine
 10
-24.94084149
 20
-10.05099083
 30
0.0
 11
-24.92905178
 21
-10.04889241
 31
0.0
  0
LINE
  5
333
100
AcDbEntity
  8
レイヤー_1
  6
CONTINUOUS
 62
       3
100
AcDbLine
 10
-24.92905178
 20
-10.04889241
 30
0.0
 11
-24.81252489
 21
-10.06833052
 31
0.0
  0
LINE
  5
334
100
AcDbEntity
  8
レイヤー_1
  6
CONTINUOUS
 62
       3
100
AcDbLine
 10
-24.81252489
 20
-10.06833052
 30
0.0
 11
-24.58573352
 21
-10.10616208
 31
0.0
  0
LINE
  5
335
100
AcDbEntity
  8
レイヤー_1
  6
CONTINUOUS
 62
       3
100
AcDbLine
 10
-24.58573352
 20
-10.10616208
 30
0.0
 11
-24.26643212
 21
-10.15942544
 31
0.0
  0
LINE
  5
336
100
AcDbEntity
  8
レイヤー_1
  6
CONTINUOUS
 62
       3
100
AcDbLine
 10
-24.26643212
 20
-10.15942544
 30
0.0
 11
-23.87237515
 21
-10.22515895
 31
0.0
  0
LINE
  5
337
100
AcDbEntity
  8
レイヤー_1
  6
CONTINUOUS
 62
       3
100
AcDbLine
 10
-23.87237515
 20
-10.22515895
 30
0.0
 11
-23.42131705
 21
-10.30040094
 31
0.0
  0
LINE
  5
338
100
AcDbEntity
  8
レイヤー_1
  6
CONTINUOUS
 62
       3
100
AcDbLine
 10
-23.42131705
 20
-10.30040094
 30
0.0
 11
-22.93101228
 21
-10.38218975
 31
0.0
  0
LINE
  5
339
100
AcDbEntity
  8
レイヤー_1
  6
CONTINUOUS
 62
       3
100
AcDbLine
 10
-22.93101228
 20
-10.38218975
 30
0.0
 11
-22.41921528
 21
-10.46756373
 31
0.0
  0
LINE
  5
33A
100
AcDbEntity
  8
レイヤー_1
  6
CONTINUOUS
 62
       3
100
AcDbLine
 10
-22.41921528
 20
-10.46756373
 30
0.0
 11
-21.90368049
 21
-10.55356122
 31
0.0
  0
LINE
  5
33B
100
AcDbEntity
  8
レイヤー_1
  6
CONTINUOUS
 62
       3
100
AcDbLine
 10
-21.90368049
 20
-10.55356122
 30
0.0
 11
-21.40216238
 21
-10.63722055
 31
0.0
  0
LINE
  5
33C
100
AcDbEntity
  8
レイヤー_1
  6
CONTINUOUS
 62
       3
100
AcDbLine
 10
-21.40216238
 20
-10.63722055
 30
0.0
 11
-20.93241539
 21
-10.71558007
 31
0.0
  0
LINE
  5
33D
100
AcDbEntity
  8
レイヤー_1
  6
CONTINUOUS
 62
       3
100
AcDbLine
 10
-20.93241539
 20
-10.71558007
 30
0.0
 11
-20.51219397
 21
-10.78567813
 31
0.0
  0
LINE
  5
33E
100
AcDbEntity
  8
レイヤー_1
  6
CONTINUOUS
 62
       3
100
AcDbLine
 10
-20.51219397
 20
-10.78567813
 30
0.0
 11
-20.15925257
 21
-10.84455306
 31
0.0
  0
LINE
  5
33F
100
AcDbEntity
  8
レイヤー_1
  6
CONTINUOUS
 62
       3
100
AcDbLine
 10
-20.15925257
 20
-10.84455306
 30
0.0
 11
-19.89134563
 21
-10.8892432
 31
0.0
  0
LINE
  5
340
100
AcDbEntity
  8
レイヤー_1
  6
CONTINUOUS
 62
       3
100
AcDbLine
 10
-19.89134563
 20
-10.8892432
 30
0.0
 11
-19.72622761
 21
-10.9167869
 31
0.0
  0
LINE
  5
341
100
AcDbEntity
  8
レイヤー_1
  6
CONTINUOUS
 62
       3
100
AcDbLine
 10
-19.72622761
 20
-10.9167869
 30
0.0
 11
-19.67975827
 21
-10.92459127
 31
0.0
  0
LINE
  5
342
100
AcDbEntity
  8
レイヤー_1
  6
CONTINUOUS
 62
       3
100
AcDbLine
 10
-19.67975827
 20
-10.92459127
 30
0.0
 11
-19.66997562
 21
-10.92908178
 31
0.0
  0
LINE
  5
343
100
AcDbEntity
  8
レイヤー_1
  6
CONTINUOUS
 62
       3
100
AcDbLine
 10
-19.66997562
 20
-10.92908178
 30
0.0
 11
-19.64689591
 21
-10.94039669
 31
0.0
  0
LINE
  5
344
100
AcDbEntity
  8
レイヤー_1
  6
CONTINUOUS
 62
       3
100
AcDbLine
 10
-19.64689591
 20
-10.94039669
 30
0.0
 11
-19.61257317
 21
-10.95853443
 31
0.0
  0
LINE
  5
345
100
AcDbEntity
  8
レイヤー_1
  6
CONTINUOUS
 62
       3
100
AcDbLine
 10
-19.61257317
 20
-10.95853443
 30
0.0
 11
-19.56906141
 21
-10.98349347
 31
0.0
  0
LINE
  5
346
100
AcDbEntity
  8
レイヤー_1
  6
CONTINUOUS
 62
       3
100
AcDbLine
 10
-19.56906141
 20
-10.98349347
 30
0.0
 11
-19.51841465
 21
-11.01527225
 31
0.0
  0
LINE
  5
347
100
AcDbEntity
  8
レイヤー_1
  6
CONTINUOUS
 62
       3
100
AcDbLine
 10
-19.51841465
 20
-11.01527225
 30
0.0
 11
-19.4626869
 21
-11.05386921
 31
0.0
  0
LINE
  5
348
100
AcDbEntity
  8
レイヤー_1
  6
CONTINUOUS
 62
       3
100
AcDbLine
 10
-19.4626869
 20
-11.05386921
 30
0.0
 11
-19.40393218
 21
-11.09928282
 31
0.0
  0
LINE
  5
349
100
AcDbEntity
  8
レイヤー_1
  6
CONTINUOUS
 62
       3
100
AcDbLine
 10
-19.40393218
 20
-11.09928282
 30
0.0
 11
-19.3442045
 21
-11.15151152
 31
0.0
  0
LINE
  5
34A
100
AcDbEntity
  8
レイヤー_1
  6
CONTINUOUS
 62
       3
100
AcDbLine
 10
-19.3442045
 20
-11.15151152
 30
0.0
 11
-19.28555789
 21
-11.21055376
 31
0.0
  0
LINE
  5
34B
100
AcDbEntity
  8
レイヤー_1
  6
CONTINUOUS
 62
       3
100
AcDbLine
 10
-19.28555789
 20
-11.21055376
 30
0.0
 11
-19.23004635
 21
-11.276408
 31
0.0
  0
LINE
  5
34C
100
AcDbEntity
  8
レイヤー_1
  6
CONTINUOUS
 62
       3
100
AcDbLine
 10
-19.23004635
 20
-11.276408
 30
0.0
 11
-19.17972391
 21
-11.34907267
 31
0.0
  0
LINE
  5
34D
100
AcDbEntity
  8
レイヤー_1
  6
CONTINUOUS
 62
       3
100
AcDbLine
 10
-19.17972391
 20
-11.34907267
 30
0.0
 11
-19.13664457
 21
-11.42854623
 31
0.0
  0
LINE
  5
34E
100
AcDbEntity
  8
レイヤー_1
  6
CONTINUOUS
 62
       3
100
AcDbLine
 10
-19.13664457
 20
-11.42854623
 30
0.0
 11
-19.10286236
 21
-11.51482712
 31
0.0
  0
LINE
  5
34F
100
AcDbEntity
  8
レイヤー_1
  6
CONTINUOUS
 62
       3
100
AcDbLine
 10
-19.10286236
 20
-11.51482712
 30
0.0
 11
-19.08043129
 21
-11.60791381
 31
0.0
  0
LINE
  5
350
100
AcDbEntity
  8
レイヤー_1
  6
CONTINUOUS
 62
       3
100
AcDbLine
 10
-19.08043129
 20
-11.60791381
 30
0.0
 11
-19.07140538
 21
-11.70780474
 31
0.0
  0
LINE
  5
351
100
AcDbEntity
  8
レイヤー_1
  6
CONTINUOUS
 62
       3
100
AcDbLine
 10
-19.07140538
 20
-11.70780474
 30
0.0
 11
-19.07462253
 21
-11.83369041
 31
0.0
  0
LINE
  5
352
100
AcDbEntity
  8
レイヤー_1
  6
CONTINUOUS
 62
       3
100
AcDbLine
 10
-19.07462253
 20
-11.83369041
 30
0.0
 11
-19.08546027
 21
-12.13922175
 31
0.0
  0
LINE
  5
353
100
AcDbEntity
  8
レイヤー_1
  6
CONTINUOUS
 62
       3
100
AcDbLine
 10
-19.08546027
 20
-12.13922175
 30
0.0
 11
-19.10275452
 21
-12.61994495
 31
0.0
  0
LINE
  5
354
100
AcDbEntity
  8
レイヤー_1
  6
CONTINUOUS
 62
       3
100
AcDbLine
 10
-19.10275452
 20
-12.61994495
 30
0.0
 11
-19.12537982
 21
-13.26376263
 31
0.0
  0
LINE
  5
355
100
AcDbEntity
  8
レイヤー_1
  6
CONTINUOUS
 62
       3
100
AcDbLine
 10
-19.12537982
 20
-13.26376263
 30
0.0
 11
-19.15221074
 21
-14.05857742
 31
0.0
  0
LINE
  5
356
100
AcDbEntity
  8
レイヤー_1
  6
CONTINUOUS
 62
       3
100
AcDbLine
 10
-19.15221074
 20
-14.05857742
 30
0.0
 11
-19.18212183
 21
-14.99229192
 31
0.0
  0
LINE
  5
357
100
AcDbEntity
  8
レイヤー_1
  6
CONTINUOUS
 62
       3
100
AcDbLine
 10
-19.18212183
 20
-14.99229192
 30
0.0
 11
-19.21398763
 21
-16.05280877
 31
0.0
  0
LINE
  5
358
100
AcDbEntity
  8
レイヤー_1
  6
CONTINUOUS
 62
       3
100
AcDbLine
 10
-19.21398763
 20
-16.05280877
 30
0.0
 11
-19.24668272
 21
-17.22803059
 31
0.0
  0
LINE
  5
359
100
AcDbEntity
  8
レイヤー_1
  6
CONTINUOUS
 62
       3
100
AcDbLine
 10
-19.24668272
 20
-17.22803059
 30
0.0
 11
-19.27908163
 21
-18.50585998
 31
0.0
  0
LINE
  5
35A
100
AcDbEntity
  8
レイヤー_1
  6
CONTINUOUS
 62
       3
100
AcDbLine
 10
-19.27908163
 20
-18.50585998
 30
0.0
 11
-19.31005893
 21
-19.87419959
 31
0.0
  0
LINE
  5
35B
100
AcDbEntity
  8
レイヤー_1
  6
CONTINUOUS
 62
       3
100
AcDbLine
 10
-19.31005893
 20
-19.87419959
 30
0.0
 11
-19.33848916
 21
-21.32095202
 31
0.0
  0
LINE
  5
35C
100
AcDbEntity
  8
レイヤー_1
  6
CONTINUOUS
 62
       3
100
AcDbLine
 10
-19.33848916
 20
-21.32095202
 30
0.0
 11
-19.36324689
 21
-22.83401989
 31
0.0
  0
LINE
  5
35D
100
AcDbEntity
  8
レイヤー_1
  6
CONTINUOUS
 62
       3
100
AcDbLine
 10
-19.36324689
 20
-22.83401989
 30
0.0
 11
-19.38320666
 21
-24.40130584
 31
0.0
  0
LINE
  5
35E
100
AcDbEntity
  8
レイヤー_1
  6
CONTINUOUS
 62
       3
100
AcDbLine
 10
-19.38320666
 20
-24.40130584
 30
0.0
 11
-19.39724304
 21
-26.01071247
 31
0.0
  0
LINE
  5
35F
100
AcDbEntity
  8
レイヤー_1
  6
CONTINUOUS
 62
       3
100
AcDbLine
 10
-19.39724304
 20
-26.01071247
 30
0.0
 11
-19.40423057
 21
-27.65014241
 31
0.0
  0
LINE
  5
360
100
AcDbEntity
  8
レイヤー_1
  6
CONTINUOUS
 62
       3
100
AcDbLine
 10
-19.40423057
 20
-27.65014241
 30
0.0
 11
-19.40313833
 21
-29.44544822
 31
0.0
  0
LINE
  5
361
100
AcDbEntity
  8
レイヤー_1
  6
CONTINUOUS
 62
       3
100
AcDbLine
 10
-19.40313833
 20
-29.44544822
 30
0.0
 11
-19.39418672
 21
-31.32680142
 31
0.0
  0
LINE
  5
362
100
AcDbEntity
  8
レイヤー_1
  6
CONTINUOUS
 62
       3
100
AcDbLine
 10
-19.39418672
 20
-31.32680142
 30
0.0
 11
-19.37848244
 21
-33.19682265
 31
0.0
  0
LINE
  5
363
100
AcDbEntity
  8
レイヤー_1
  6
CONTINUOUS
 62
       3
100
AcDbLine
 10
-19.37848244
 20
-33.19682265
 30
0.0
 11
-19.35715093
 21
-35.03799464
 31
0.0
  0
LINE
  5
364
100
AcDbEntity
  8
レイヤー_1
  6
CONTINUOUS
 62
       3
100
AcDbLine
 10
-19.35715093
 20
-35.03799464
 30
0.0
 11
-19.33131764
 21
-36.83280013
 31
0.0
  0
LINE
  5
365
100
AcDbEntity
  8
レイヤー_1
  6
CONTINUOUS
 62
       3
100
AcDbLine
 10
-19.33131764
 20
-36.83280013
 30
0.0
 11
-19.30210801
 21
-38.56372185
 31
0.0
  0
LINE
  5
366
100
AcDbEntity
  8
レイヤー_1
  6
CONTINUOUS
 62
       3
100
AcDbLine
 10
-19.30210801
 20
-38.56372185
 30
0.0
 11
-19.27064749
 21
-40.21324253
 31
0.0
  0
LINE
  5
367
100
AcDbEntity
  8
レイヤー_1
  6
CONTINUOUS
 62
       3
100
AcDbLine
 10
-19.27064749
 20
-40.21324253
 30
0.0
 11
-19.23806152
 21
-41.76384489
 31
0.0
  0
LINE
  5
368
100
AcDbEntity
  8
レイヤー_1
  6
CONTINUOUS
 62
       3
100
AcDbLine
 10
-19.23806152
 20
-41.76384489
 30
0.0
 11
-19.20547555
 21
-43.19801167
 31
0.0
  0
LINE
  5
369
100
AcDbEntity
  8
レイヤー_1
  6
CONTINUOUS
 62
       3
100
AcDbLine
 10
-19.20547555
 20
-43.19801167
 30
0.0
 11
-19.17401503
 21
-44.49822561
 31
0.0
  0
LINE
  5
36A
100
AcDbEntity
  8
レイヤー_1
  6
CONTINUOUS
 62
       3
100
AcDbLine
 10
-19.17401503
 20
-44.49822561
 30
0.0
 11
-19.1448054
 21
-45.64696943
 31
0.0
  0
LINE
  5
36B
100
AcDbEntity
  8
レイヤー_1
  6
CONTINUOUS
 62
       3
100
AcDbLine
 10
-19.1448054
 20
-45.64696943
 30
0.0
 11
-19.11897211
 21
-46.62672586
 31
0.0
  0
LINE
  5
36C
100
AcDbEntity
  8
レイヤー_1
  6
CONTINUOUS
 62
       3
100
AcDbLine
 10
-19.11897211
 20
-46.62672586
 30
0.0
 11
-19.0976406
 21
-47.41997764
 31
0.0
  0
LINE
  5
36D
100
AcDbEntity
  8
レイヤー_1
  6
CONTINUOUS
 62
       3
100
AcDbLine
 10
-19.0976406
 20
-47.41997764
 30
0.0
 11
-19.08193632
 21
-48.0092075
 31
0.0
  0
LINE
  5
36E
100
AcDbEntity
  8
レイヤー_1
  6
CONTINUOUS
 62
       3
100
AcDbLine
 10
-19.08193632
 20
-48.0092075
 30
0.0
 11
-19.07298471
 21
-48.37689817
 31
0.0
  0
LINE
  5
36F
100
AcDbEntity
  8
レイヤー_1
  6
CONTINUOUS
 62
       3
100
AcDbLine
 10
-19.07298471
 20
-48.37689817
 30
0.0
 11
-19.0724415
 21
-48.54046935
 31
0.0
  0
LINE
  5
370
100
AcDbEntity
  8
レイヤー_1
  6
CONTINUOUS
 62
       3
100
AcDbLine
 10
-19.0724415
 20
-48.54046935
 30
0.0
 11
-19.0861182
 21
-48.67262202
 31
0.0
  0
LINE
  5
371
100
AcDbEntity
  8
レイヤー_1
  6
CONTINUOUS
 62
       3
100
AcDbLine
 10
-19.0861182
 20
-48.67262202
 30
0.0
 11
-19.1135916
 21
-48.78705834
 31
0.0
  0
LINE
  5
372
100
AcDbEntity
  8
レイヤー_1
  6
CONTINUOUS
 62
       3
100
AcDbLine
 10
-19.1135916
 20
-48.78705834
 30
0.0
 11
-19.15265887
 21
-48.88505336
 31
0.0
  0
LINE
  5
373
100
AcDbEntity
  8
レイヤー_1
  6
CONTINUOUS
 62
       3
100
AcDbLine
 10
-19.15265887
 20
-48.88505336
 30
0.0
 11
-19.20111718
 21
-48.96788211
 31
0.0
  0
LINE
  5
374
100
AcDbEntity
  8
レイヤー_1
  6
CONTINUOUS
 62
       3
100
AcDbLine
 10
-19.20111718
 20
-48.96788211
 30
0.0
 11
-19.25676369
 21
-49.03681963
 31
0.0
  0
LINE
  5
375
100
AcDbEntity
  8
レイヤー_1
  6
CONTINUOUS
 62
       3
100
AcDbLine
 10
-19.25676369
 20
-49.03681963
 30
0.0
 11
-19.31739556
 21
-49.09314097
 31
0.0
  0
LINE
  5
376
100
AcDbEntity
  8
レイヤー_1
  6
CONTINUOUS
 62
       3
100
AcDbLine
 10
-19.31739556
 20
-49.09314097
 30
0.0
 11
-19.38080996
 21
-49.13812116
 31
0.0
  0
LINE
  5
377
100
AcDbEntity
  8
レイヤー_1
  6
CONTINUOUS
 62
       3
100
AcDbLine
 10
-19.38080996
 20
-49.13812116
 30
0.0
 11
-19.44480406
 21
-49.17303524
 31
0.0
  0
LINE
  5
378
100
AcDbEntity
  8
レイヤー_1
  6
CONTINUOUS
 62
       3
100
AcDbLine
 10
-19.44480406
 20
-49.17303524
 30
0.0
 11
-19.50717501
 21
-49.19915826
 31
0.0
  0
LINE
  5
379
100
AcDbEntity
  8
レイヤー_1
  6
CONTINUOUS
 62
       3
100
AcDbLine
 10
-19.50717501
 20
-49.19915826
 30
0.0
 11
-19.56571998
 21
-49.21776525
 31
0.0
  0
LINE
  5
37A
100
AcDbEntity
  8
レイヤー_1
  6
CONTINUOUS
 62
       3
100
AcDbLine
 10
-19.56571998
 20
-49.21776525
 30
0.0
 11
-19.61823615
 21
-49.23013125
 31
0.0
  0
LINE
  5
37B
100
AcDbEntity
  8
レイヤー_1
  6
CONTINUOUS
 62
       3
100
AcDbLine
 10
-19.61823615
 20
-49.23013125
 30
0.0
 11
-19.66252066
 21
-49.23753131
 31
0.0
  0
LINE
  5
37C
100
AcDbEntity
  8
レイヤー_1
  6
CONTINUOUS
 62
       3
100
AcDbLine
 10
-19.66252066
 20
-49.23753131
 30
0.0
 11
-19.69637069
 21
-49.24124047
 31
0.0
  0
LINE
  5
37D
100
AcDbEntity
  8
レイヤー_1
  6
CONTINUOUS
 62
       3
100
AcDbLine
 10
-19.69637069
 20
-49.24124047
 30
0.0
 11
-19.71758341
 21
-49.24253376
 31
0.0
  0
LINE
  5
37E
100
AcDbEntity
  8
レイヤー_1
  6
CONTINUOUS
 62
       3
100
AcDbLine
 10
-19.71758341
 20
-49.24253376
 30
0.0
 11
-19.72429278
 21
-49.24268597
 31
0.0
  0
LINE
  5
37F
100
AcDbEntity
  8
レイヤー_1
  6
CONTINUOUS
 62
       3
100
AcDbLine
 10
-19.72429278
 20
-49.24268597
 30
0.0
 11
-19.74985993
 21
-49.24268597
 31
0.0
  0
LINE
  5
380
100
AcDbEntity
  8
レイヤー_1
  6
CONTINUOUS
 62
       3
100
AcDbLine
 10
-19.74985993
 20
-49.24268597
 30
0.0
 11
-19.81403576
 21
-49.24268597
 31
0.0
  0
LINE
  5
381
100
AcDbEntity
  8
レイヤー_1
  6
CONTINUOUS
 62
       3
100
AcDbLine
 10
-19.81403576
 20
-49.24268597
 30
0.0
 11
-19.91186972
 21
-49.24268597
 31
0.0
  0
LINE
  5
382
100
AcDbEntity
  8
レイヤー_1
  6
CONTINUOUS
 62
       3
100
AcDbLine
 10
-19.91186972
 20
-49.24268597
 30
0.0
 11
-20.03841123
 21
-49.24268597
 31
0.0
  0
LINE
  5
383
100
AcDbEntity
  8
レイヤー_1
  6
CONTINUOUS
 62
       3
100
AcDbLine
 10
-20.03841123
 20
-49.24268597
 30
0.0
 11
-20.18870973
 21
-49.24268597
 31
0.0
  0
LINE
  5
384
100
AcDbEntity
  8
レイヤー_1
  6
CONTINUOUS
 62
       3
100
AcDbLine
 10
-20.18870973
 20
-49.24268597
 30
0.0
 11
-20.35781465
 21
-49.24268597
 31
0.0
  0
LINE
  5
385
100
AcDbEntity
  8
レイヤー_1
  6
CONTINUOUS
 62
       3
100
AcDbLine
 10
-20.35781465
 20
-49.24268597
 30
0.0
 11
-20.54077543
 21
-49.24268597
 31
0.0
  0
LINE
  5
386
100
AcDbEntity
  8
レイヤー_1
  6
CONTINUOUS
 62
       3
100
AcDbLine
 10
-20.54077543
 20
-49.24268597
 30
0.0
 11
-20.73264151
 21
-49.24268597
 31
0.0
  0
LINE
  5
387
100
AcDbEntity
  8
レイヤー_1
  6
CONTINUOUS
 62
       3
100
AcDbLine
 10
-20.73264151
 20
-49.24268597
 30
0.0
 11
-20.92846231
 21
-49.24268597
 31
0.0
  0
LINE
  5
388
100
AcDbEntity
  8
レイヤー_1
  6
CONTINUOUS
 62
       3
100
AcDbLine
 10
-20.92846231
 20
-49.24268597
 30
0.0
 11
-21.12328727
 21
-49.24268597
 31
0.0
  0
LINE
  5
389
100
AcDbEntity
  8
レイヤー_1
  6
CONTINUOUS
 62
       3
100
AcDbLine
 10
-21.12328727
 20
-49.24268597
 30
0.0
 11
-21.31216582
 21
-49.24268597
 31
0.0
  0
LINE
  5
38A
100
AcDbEntity
  8
レイヤー_1
  6
CONTINUOUS
 62
       3
100
AcDbLine
 10
-21.31216582
 20
-49.24268597
 30
0.0
 11
-21.4901474
 21
-49.24268597
 31
0.0
  0
LINE
  5
38B
100
AcDbEntity
  8
レイヤー_1
  6
CONTINUOUS
 62
       3
100
AcDbLine
 10
-21.4901474
 20
-49.24268597
 30
0.0
 11
-21.65228143
 21
-49.24268597
 31
0.0
  0
LINE
  5
38C
100
AcDbEntity
  8
レイヤー_1
  6
CONTINUOUS
 62
       3
100
AcDbLine
 10
-21.65228143
 20
-49.24268597
 30
0.0
 11
-21.79361737
 21
-49.24268597
 31
0.0
  0
LINE
  5
38D
100
AcDbEntity
  8
レイヤー_1
  6
CONTINUOUS
 62
       3
100
AcDbLine
 10
-21.79361737
 20
-49.24268597
 30
0.0
 11
-21.90920463
 21
-49.24268597
 31
0.0
  0
LINE
  5
38E
100
AcDbEntity
  8
レイヤー_1
  6
CONTINUOUS
 62
       3
100
AcDbLine
 10
-21.90920463
 20
-49.24268597
 30
0.0
 11
-22.00155224
 21
-49.23447173
 31
0.0
  0
LINE
  5
38F
100
AcDbEntity
  8
レイヤー_1
  6
CONTINUOUS
 62
       3
100
AcDbLine
 10
-22.00155224
 20
-49.23447173
 30
0.0
 11
-22.08225166
 21
-49.20516195
 31
0.0
  0
LINE
  5
390
100
AcDbEntity
  8
レイヤー_1
  6
CONTINUOUS
 62
       3
100
AcDbLine
 10
-22.08225166
 20
-49.20516195
 30
0.0
 11
-22.15229406
 21
-49.15760631
 31
0.0
  0
LINE
  5
391
100
AcDbEntity
  8
レイヤー_1
  6
CONTINUOUS
 62
       3
100
AcDbLine
 10
-22.15229406
 20
-49.15760631
 30
0.0
 11
-22.21243207
 21
-49.09495636
 31
0.0
  0
LINE
  5
392
100
AcDbEntity
  8
レイヤー_1
  6
CONTINUOUS
 62
       3
100
AcDbLine
 10
-22.21243207
 20
-49.09495636
 30
0.0
 11
-22.2634183
 21
-49.02036366
 31
0.0
  0
LINE
  5
393
100
AcDbEntity
  8
レイヤー_1
  6
CONTINUOUS
 62
       3
100
AcDbLine
 10
-22.2634183
 20
-49.02036366
 30
0.0
 11
-22.30600538
 21
-48.93697978
 31
0.0
  0
LINE
  5
394
100
AcDbEntity
  8
レイヤー_1
  6
CONTINUOUS
 62
       3
100
AcDbLine
 10
-22.30600538
 20
-48.93697978
 30
0.0
 11
-22.34094593
 21
-48.84795626
 31
0.0
  0
LINE
  5
395
100
AcDbEntity
  8
レイヤー_1
  6
CONTINUOUS
 62
       3
100
AcDbLine
 10
-22.34094593
 20
-48.84795626
 30
0.0
 11
-22.36899258
 21
-48.75644467
 31
0.0
  0
LINE
  5
396
100
AcDbEntity
  8
レイヤー_1
  6
CONTINUOUS
 62
       3
100
AcDbLine
 10
-22.36899258
 20
-48.75644467
 30
0.0
 11
-22.39089794
 21
-48.66559657
 31
0.0
  0
LINE
  5
397
100
AcDbEntity
  8
レイヤー_1
  6
CONTINUOUS
 62
       3
100
AcDbLine
 10
-22.39089794
 20
-48.66559657
 30
0.0
 11
-22.40741464
 21
-48.57856351
 31
0.0
  0
LINE
  5
398
100
AcDbEntity
  8
レイヤー_1
  6
CONTINUOUS
 62
       3
100
AcDbLine
 10
-22.40741464
 20
-48.57856351
 30
0.0
 11
-22.41929531
 21
-48.49849706
 31
0.0
  0
LINE
  5
399
100
AcDbEntity
  8
レイヤー_1
  6
CONTINUOUS
 62
       3
100
AcDbLine
 10
-22.41929531
 20
-48.49849706
 30
0.0
 11
-22.42729255
 21
-48.42854876
 31
0.0
  0
LINE
  5
39A
100
AcDbEntity
  8
レイヤー_1
  6
CONTINUOUS
 62
       3
100
AcDbLine
 10
-22.42729255
 20
-48.42854876
 30
0.0
 11
-22.43215901
 21
-48.37187019
 31
0.0
  0
LINE
  5
39B
100
AcDbEntity
  8
レイヤー_1
  6
CONTINUOUS
 62
       3
100
AcDbLine
 10
-22.43215901
 20
-48.37187019
 30
0.0
 11
-22.43464729
 21
-48.33161289
 31
0.0
  0
LINE
  5
39C
100
AcDbEntity
  8
レイヤー_1
  6
CONTINUOUS
 62
       3
100
AcDbLine
 10
-22.43464729
 20
-48.33161289
 30
0.0
 11
-22.43551002
 21
-48.31092842
 31
0.0
  0
LINE
  5
39D
100
AcDbEntity
  8
レイヤー_1
  6
CONTINUOUS
 62
       3
100
AcDbLine
 10
-22.43551002
 20
-48.31092842
 30
0.0
 11
-22.43577159
 21
-48.303641
 31
0.0
  0
LINE
  5
39E
100
AcDbEntity
  8
レイヤー_1
  6
CONTINUOUS
 62
       3
100
AcDbLine
 10
-22.43577159
 20
-48.303641
 30
0.0
 11
-22.43701033
 21
-48.27192917
 31
0.0
  0
LINE
  5
39F
100
AcDbEntity
  8
レイヤー_1
  6
CONTINUOUS
 62
       3
100
AcDbLine
 10
-22.43701033
 20
-48.27192917
 30
0.0
 11
-22.43923427
 21
-48.21499639
 31
0.0
  0
LINE
  5
3A0
100
AcDbEntity
  8
レイヤー_1
  6
CONTINUOUS
 62
       3
100
AcDbLine
 10
-22.43923427
 20
-48.21499639
 30
0.0
 11
-22.44228063
 21
-48.13700959
 31
0.0
  0
LINE
  5
3A1
100
AcDbEntity
  8
レイヤー_1
  6
CONTINUOUS
 62
       3
100
AcDbLine
 10
-22.44228063
 20
-48.13700959
 30
0.0
 11
-22.44598664
 21
-48.04213572
 31
0.0
  0
LINE
  5
3A2
100
AcDbEntity
  8
レイヤー_1
  6
CONTINUOUS
 62
       3
100
AcDbLine
 10
-22.44598664
 20
-48.04213572
 30
0.0
 11
-22.45018953
 21
-47.93454172
 31
0.0
  0
LINE
  5
3A3
100
AcDbEntity
  8
レイヤー_1
  6
CONTINUOUS
 62
       3
100
AcDbLine
 10
-22.45018953
 20
-47.93454172
 30
0.0
 11
-22.45472653
 21
-47.81839453
 31
0.0
  0
LINE
  5
3A4
100
AcDbEntity
  8
レイヤー_1
  6
CONTINUOUS
 62
       3
100
AcDbLine
 10
-22.45472653
 20
-47.81839453
 30
0.0
 11
-22.45943487
 21
-47.69786109
 31
0.0
  0
LINE
  5
3A5
100
AcDbEntity
  8
レイヤー_1
  6
CONTINUOUS
 62
       3
100
AcDbLine
 10
-22.45943487
 20
-47.69786109
 30
0.0
 11
-22.46415177
 21
-47.57710833
 31
0.0
  0
LINE
  5
3A6
100
AcDbEntity
  8
レイヤー_1
  6
CONTINUOUS
 62
       3
100
AcDbLine
 10
-22.46415177
 20
-47.57710833
 30
0.0
 11
-22.46871447
 21
-47.46030321
 31
0.0
  0
LINE
  5
3A7
100
AcDbEntity
  8
レイヤー_1
  6
CONTINUOUS
 62
       3
100
AcDbLine
 10
-22.46871447
 20
-47.46030321
 30
0.0
 11
-22.4729602
 21
-47.35161264
 31
0.0
  0
LINE
  5
3A8
100
AcDbEntity
  8
レイヤー_1
  6
CONTINUOUS
 62
       3
100
AcDbLine
 10
-22.4729602
 20
-47.35161264
 30
0.0
 11
-22.47672618
 21
-47.25520359
 31
0.0
  0
LINE
  5
3A9
100
AcDbEntity
  8
レイヤー_1
  6
CONTINUOUS
 62
       3
100
AcDbLine
 10
-22.47672618
 20
-47.25520359
 30
0.0
 11
-22.47984964
 21
-47.17524298
 31
0.0
  0
LINE
  5
3AA
100
AcDbEntity
  8
レイヤー_1
  6
CONTINUOUS
 62
       3
100
AcDbLine
 10
-22.47984964
 20
-47.17524298
 30
0.0
 11
-22.48216781
 21
-47.11589776
 31
0.0
  0
LINE
  5
3AB
100
AcDbEntity
  8
レイヤー_1
  6
CONTINUOUS
 62
       3
100
AcDbLine
 10
-22.48216781
 20
-47.11589776
 30
0.0
 11
-22.48351793
 21
-47.08133486
 31
0.0
  0
LINE
  5
3AC
100
AcDbEntity
  8
レイヤー_1
  6
CONTINUOUS
 62
       3
100
AcDbLine
 10
-22.48351793
 20
-47.08133486
 30
0.0
 11
-22.48291923
 21
-47.07411374
 31
0.0
  0
LINE
  5
3AD
100
AcDbEntity
  8
レイヤー_1
  6
CONTINUOUS
 62
       3
100
AcDbLine
 10
-22.48291923
 20
-47.07411374
 30
0.0
 11
-22.46918612
 21
-47.07411374
 31
0.0
  0
LINE
  5
3AE
100
AcDbEntity
  8
レイヤー_1
  6
CONTINUOUS
 62
       3
100
AcDbLine
 10
-22.46918612
 20
-47.07411374
 30
0.0
 11
-22.44062982
 21
-47.07411374
 31
0.0
  0
LINE
  5
3AF
100
AcDbEntity
  8
レイヤー_1
  6
CONTINUOUS
 62
       3
100
AcDbLine
 10
-22.44062982
 20
-47.07411374
 30
0.0
 11
-22.39959734
 21
-47.07411374
 31
0.0
  0
LINE
  5
3B0
100
AcDbEntity
  8
レイヤー_1
  6
CONTINUOUS
 62
       3
100
AcDbLine
 10
-22.39959734
 20
-47.07411374
 30
0.0
 11
-22.34843569
 21
-47.07411374
 31
0.0
  0
LINE
  5
3B1
100
AcDbEntity
  8
レイヤー_1
  6
CONTINUOUS
 62
       3
100
AcDbLine
 10
-22.34843569
 20
-47.07411374
 30
0.0
 11
-22.28949187
 21
-47.07411374
 31
0.0
  0
LINE
  5
3B2
100
AcDbEntity
  8
レイヤー_1
  6
CONTINUOUS
 62
       3
100
AcDbLine
 10
-22.28949187
 20
-47.07411374
 30
0.0
 11
-22.22511287
 21
-47.07411374
 31
0.0
  0
LINE
  5
3B3
100
AcDbEntity
  8
レイヤー_1
  6
CONTINUOUS
 62
       3
100
AcDbLine
 10
-22.22511287
 20
-47.07411374
 30
0.0
 11
-22.15764572
 21
-47.07411374
 31
0.0
  0
LINE
  5
3B4
100
AcDbEntity
  8
レイヤー_1
  6
CONTINUOUS
 62
       3
100
AcDbLine
 10
-22.15764572
 20
-47.07411374
 30
0.0
 11
-22.08943741
 21
-47.07411374
 31
0.0
  0
LINE
  5
3B5
100
AcDbEntity
  8
レイヤー_1
  6
CONTINUOUS
 62
       3
100
AcDbLine
 10
-22.08943741
 20
-47.07411374
 30
0.0
 11
-22.02283494
 21
-47.07411374
 31
0.0
  0
LINE
  5
3B6
100
AcDbEntity
  8
レイヤー_1
  6
CONTINUOUS
 62
       3
100
AcDbLine
 10
-22.02283494
 20
-47.07411374
 30
0.0
 11
-21.96018532
 21
-47.07411374
 31
0.0
  0
LINE
  5
3B7
100
AcDbEntity
  8
レイヤー_1
  6
CONTINUOUS
 62
       3
100
AcDbLine
 10
-21.96018532
 20
-47.07411374
 30
0.0
 11
-21.90383556
 21
-47.07411374
 31
0.0
  0
LINE
  5
3B8
100
AcDbEntity
  8
レイヤー_1
  6
CONTINUOUS
 62
       3
100
AcDbLine
 10
-21.90383556
 20
-47.07411374
 30
0.0
 11
-21.85613265
 21
-47.07411374
 31
0.0
  0
LINE
  5
3B9
100
AcDbEntity
  8
レイヤー_1
  6
CONTINUOUS
 62
       3
100
AcDbLine
 10
-21.85613265
 20
-47.07411374
 30
0.0
 11
-21.8194236
 21
-47.07411374
 31
0.0
  0
LINE
  5
3BA
100
AcDbEntity
  8
レイヤー_1
  6
CONTINUOUS
 62
       3
100
AcDbLine
 10
-21.8194236
 20
-47.07411374
 30
0.0
 11
-21.79605541
 21
-47.07411374
 31
0.0
  0
LINE
  5
3BB
100
AcDbEntity
  8
レイヤー_1
  6
CONTINUOUS
 62
       3
100
AcDbLine
 10
-21.79605541
 20
-47.07411374
 30
0.0
 11
-21.78832476
 21
-47.07415141
 31
0.0
  0
LINE
  5
3BC
100
AcDbEntity
  8
レイヤー_1
  6
CONTINUOUS
 62
       3
100
AcDbLine
 10
-21.78832476
 20
-47.07415141
 30
0.0
 11
-21.77860816
 21
-47.08852051
 31
0.0
  0
LINE
  5
3BD
100
AcDbEntity
  8
レイヤー_1
  6
CONTINUOUS
 62
       3
100
AcDbLine
 10
-21.77860816
 20
-47.08852051
 30
0.0
 11
-21.753002
 21
-47.12638739
 31
0.0
  0
LINE
  5
3BE
100
AcDbEntity
  8
レイヤー_1
  6
CONTINUOUS
 62
       3
100
AcDbLine
 10
-21.753002
 20
-47.12638739
 30
0.0
 11
-21.71392149
 21
-47.18418038
 31
0.0
  0
LINE
  5
3BF
100
AcDbEntity
  8
レイヤー_1
  6
CONTINUOUS
 62
       3
100
AcDbLine
 10
-21.71392149
 20
-47.18418038
 30
0.0
 11
-21.66378185
 21
-47.25832783
 31
0.0
  0
LINE
  5
3C0
100
AcDbEntity
  8
レイヤー_1
  6
CONTINUOUS
 62
       3
100
AcDbLine
 10
-21.66378185
 20
-47.25832783
 30
0.0
 11
-21.60499829
 21
-47.34525808
 31
0.0
  0
LINE
  5
3C1
100
AcDbEntity
  8
レイヤー_1
  6
CONTINUOUS
 62
       3
100
AcDbLine
 10
-21.60499829
 20
-47.34525808
 30
0.0
 11
-21.53998603
 21
-47.44139945
 31
0.0
  0
LINE
  5
3C2
100
AcDbEntity
  8
レイヤー_1
  6
CONTINUOUS
 62
       3
100
AcDbLine
 10
-21.53998603
 20
-47.44139945
 30
0.0
 11
-21.47116027
 21
-47.54318029
 31
0.0
  0
LINE
  5
3C3
100
AcDbEntity
  8
レイヤー_1
  6
CONTINUOUS
 62
       3
100
AcDbLine
 10
-21.47116027
 20
-47.54318029
 30
0.0
 11
-21.40093623
 21
-47.64702893
 31
0.0
  0
LINE
  5
3C4
100
AcDbEntity
  8
レイヤー_1
  6
CONTINUOUS
 62
       3
100
AcDbLine
 10
-21.40093623
 20
-47.64702893
 30
0.0
 11
-21.33172912
 21
-47.74937372
 31
0.0
  0
LINE
  5
3C5
100
AcDbEntity
  8
レイヤー_1
  6
CONTINUOUS
 62
       3
100
AcDbLine
 10
-21.33172912
 20
-47.74937372
 30
0.0
 11
-21.26595415
 21
-47.84664299
 31
0.0
  0
LINE
  5
3C6
100
AcDbEntity
  8
レイヤー_1
  6
CONTINUOUS
 62
       3
100
AcDbLine
 10
-21.26595415
 20
-47.84664299
 30
0.0
 11
-21.20602655
 21
-47.93526507
 31
0.0
  0
LINE
  5
3C7
100
AcDbEntity
  8
レイヤー_1
  6
CONTINUOUS
 62
       3
100
AcDbLine
 10
-21.20602655
 20
-47.93526507
 30
0.0
 11
-21.15436151
 21
-48.01166831
 31
0.0
  0
LINE
  5
3C8
100
AcDbEntity
  8
レイヤー_1
  6
CONTINUOUS
 62
       3
100
AcDbLine
 10
-21.15436151
 20
-48.01166831
 30
0.0
 11
-21.11337426
 21
-48.07228104
 31
0.0
  0
LINE
  5
3C9
100
AcDbEntity
  8
レイヤー_1
  6
CONTINUOUS
 62
       3
100
AcDbLine
 10
-21.11337426
 20
-48.07228104
 30
0.0
 11
-21.08548
 21
-48.1135316
 31
0.0
  0
LINE
  5
3CA
100
AcDbEntity
  8
レイヤー_1
  6
CONTINUOUS
 62
       3
100
AcDbLine
 10
-21.08548
 20
-48.1135316
 30
0.0
 11
-21.07309395
 21
-48.13184832
 31
0.0
  0
LINE
  5
3CB
100
AcDbEntity
  8
レイヤー_1
  6
CONTINUOUS
 62
       3
100
AcDbLine
 10
-21.07309395
 20
-48.13184832
 30
0.0
 11
-21.0649292
 21
-48.13270311
 31
0.0
  0
LINE
  5
3CC
100
AcDbEntity
  8
レイヤー_1
  6
CONTINUOUS
 62
       3
100
AcDbLine
 10
-21.0649292
 20
-48.13270311
 30
0.0
 11
-21.03462347
 21
-48.13370403
 31
0.0
  0
LINE
  5
3CD
100
AcDbEntity
  8
レイヤー_1
  6
CONTINUOUS
 62
       3
100
AcDbLine
 10
-21.03462347
 20
-48.13370403
 30
0.0
 11
-20.98457472
 21
-48.13535702
 31
0.0
  0
LINE
  5
3CE
100
AcDbEntity
  8
レイヤー_1
  6
CONTINUOUS
 62
       3
100
AcDbLine
 10
-20.98457472
 20
-48.13535702
 30
0.0
 11
-20.91816237
 21
-48.13755045
 31
0.0
  0
LINE
  5
3CF
100
AcDbEntity
  8
レイヤー_1
  6
CONTINUOUS
 62
       3
100
AcDbLine
 10
-20.91816237
 20
-48.13755045
 30
0.0
 11
-20.83876587
 21
-48.14017272
 31
0.0
  0
LINE
  5
3D0
100
AcDbEntity
  8
レイヤー_1
  6
CONTINUOUS
 62
       3
100
AcDbLine
 10
-20.83876587
 20
-48.14017272
 30
0.0
 11
-20.74976465
 21
-48.14311221
 31
0.0
  0
LINE
  5
3D1
100
AcDbEntity
  8
レイヤー_1
  6
CONTINUOUS
 62
       3
100
AcDbLine
 10
-20.74976465
 20
-48.14311221
 30
0.0
 11
-20.65453815
 21
-48.14625731
 31
0.0
  0
LINE
  5
3D2
100
AcDbEntity
  8
レイヤー_1
  6
CONTINUOUS
 62
       3
100
AcDbLine
 10
-20.65453815
 20
-48.14625731
 30
0.0
 11
-20.55646581
 21
-48.14949639
 31
0.0
  0
LINE
  5
3D3
100
AcDbEntity
  8
レイヤー_1
  6
CONTINUOUS
 62
       3
100
AcDbLine
 10
-20.55646581
 20
-48.14949639
 30
0.0
 11
-20.45892706
 21
-48.15271786
 31
0.0
  0
LINE
  5
3D4
100
AcDbEntity
  8
レイヤー_1
  6
CONTINUOUS
 62
       3
100
AcDbLine
 10
-20.45892706
 20
-48.15271786
 30
0.0
 11
-20.36530135
 21
-48.15581008
 31
0.0
  0
LINE
  5
3D5
100
AcDbEntity
  8
レイヤー_1
  6
CONTINUOUS
 62
       3
100
AcDbLine
 10
-20.36530135
 20
-48.15581008
 30
0.0
 11
-20.27896811
 21
-48.15866145
 31
0.0
  0
LINE
  5
3D6
100
AcDbEntity
  8
レイヤー_1
  6
CONTINUOUS
 62
       3
100
AcDbLine
 10
-20.27896811
 20
-48.15866145
 30
0.0
 11
-20.20330677
 21
-48.16116036
 31
0.0
  0
LINE
  5
3D7
100
AcDbEntity
  8
レイヤー_1
  6
CONTINUOUS
 62
       3
100
AcDbLine
 10
-20.20330677
 20
-48.16116036
 30
0.0
 11
-20.14169678
 21
-48.16319519
 31
0.0
  0
LINE
  5
3D8
100
AcDbEntity
  8
レイヤー_1
  6
CONTINUOUS
 62
       3
100
AcDbLine
 10
-20.14169678
 20
-48.16319519
 30
0.0
 11
-20.09751758
 21
-48.16465432
 31
0.0
  0
LINE
  5
3D9
100
AcDbEntity
  8
レイヤー_1
  6
CONTINUOUS
 62
       3
100
AcDbLine
 10
-20.09751758
 20
-48.16465432
 30
0.0
 11
-20.0741486
 21
-48.16542613
 31
0.0
  0
LINE
  5
3DA
100
AcDbEntity
  8
レイヤー_1
  6
CONTINUOUS
 62
       3
100
AcDbLine
 10
-20.0741486
 20
-48.16542613
 30
0.0
 11
-20.07131507
 21
-48.156798
 31
0.0
  0
LINE
  5
3DB
100
AcDbEntity
  8
レイヤー_1
  6
CONTINUOUS
 62
       3
100
AcDbLine
 10
-20.07131507
 20
-48.156798
 30
0.0
 11
-20.07131507
 21
-48.09544925
 31
0.0
  0
LINE
  5
3DC
100
AcDbEntity
  8
レイヤー_1
  6
CONTINUOUS
 62
       3
100
AcDbLine
 10
-20.07131507
 20
-48.09544925
 30
0.0
 11
-20.07131507
 21
-47.98253854
 31
0.0
  0
LINE
  5
3DD
100
AcDbEntity
  8
レイヤー_1
  6
CONTINUOUS
 62
       3
100
AcDbLine
 10
-20.07131507
 20
-47.98253854
 30
0.0
 11
-20.07131507
 21
-47.82651135
 31
0.0
  0
LINE
  5
3DE
100
AcDbEntity
  8
レイヤー_1
  6
CONTINUOUS
 62
       3
100
AcDbLine
 10
-20.07131507
 20
-47.82651135
 30
0.0
 11
-20.07131507
 21
-47.6358132
 31
0.0
  0
LINE
  5
3DF
100
AcDbEntity
  8
レイヤー_1
  6
CONTINUOUS
 62
       3
100
AcDbLine
 10
-20.07131507
 20
-47.6358132
 30
0.0
 11
-20.07131507
 21
-47.41888956
 31
0.0
  0
LINE
  5
3E0
100
AcDbEntity
  8
レイヤー_1
  6
CONTINUOUS
 62
       3
100
AcDbLine
 10
-20.07131507
 20
-47.41888956
 30
0.0
 11
-20.07131507
 21
-47.18418593
 31
0.0
  0
LINE
  5
3E1
100
AcDbEntity
  8
レイヤー_1
  6
CONTINUOUS
 62
       3
100
AcDbLine
 10
-20.07131507
 20
-47.18418593
 30
0.0
 11
-20.07131507
 21
-46.94014781
 31
0.0
  0
LINE
  5
3E2
100
AcDbEntity
  8
レイヤー_1
  6
CONTINUOUS
 62
       3
100
AcDbLine
 10
-20.07131507
 20
-46.94014781
 30
0.0
 11
-20.07131507
 21
-46.6952207
 31
0.0
  0
LINE
  5
3E3
100
AcDbEntity
  8
レイヤー_1
  6
CONTINUOUS
 62
       3
100
AcDbLine
 10
-20.07131507
 20
-46.6952207
 30
0.0
 11
-20.07131507
 21
-46.45785007
 31
0.0
  0
LINE
  5
3E4
100
AcDbEntity
  8
レイヤー_1
  6
CONTINUOUS
 62
       3
100
AcDbLine
 10
-20.07131507
 20
-46.45785007
 30
0.0
 11
-20.07131507
 21
-46.23648144
 31
0.0
  0
LINE
  5
3E5
100
AcDbEntity
  8
レイヤー_1
  6
CONTINUOUS
 62
       3
100
AcDbLine
 10
-20.07131507
 20
-46.23648144
 30
0.0
 11
-20.07131507
 21
-46.03956029
 31
0.0
  0
LINE
  5
3E6
100
AcDbEntity
  8
レイヤー_1
  6
CONTINUOUS
 62
       3
100
AcDbLine
 10
-20.07131507
 20
-46.03956029
 30
0.0
 11
-20.07131507
 21
-45.87553211
 31
0.0
  0
LINE
  5
3E7
100
AcDbEntity
  8
レイヤー_1
  6
CONTINUOUS
 62
       3
100
AcDbLine
 10
-20.07131507
 20
-45.87553211
 30
0.0
 11
-20.07131507
 21
-45.7528424
 31
0.0
  0
LINE
  5
3E8
100
AcDbEntity
  8
レイヤー_1
  6
CONTINUOUS
 62
       3
100
AcDbLine
 10
-20.07131507
 20
-45.7528424
 30
0.0
 11
-20.07131507
 21
-45.67993666
 31
0.0
  0
LINE
  5
3E9
100
AcDbEntity
  8
レイヤー_1
  6
CONTINUOUS
 62
       3
100
AcDbLine
 10
-20.07131507
 20
-45.67993666
 30
0.0
 11
-20.08512879
 21
-45.66300298
 31
0.0
  0
LINE
  5
3EA
100
AcDbEntity
  8
レイヤー_1
  6
CONTINUOUS
 62
       3
100
AcDbLine
 10
-20.08512879
 20
-45.66300298
 30
0.0
 11
-20.37552016
 21
-45.66300298
 31
0.0
  0
LINE
  5
3EB
100
AcDbEntity
  8
レイヤー_1
  6
CONTINUOUS
 62
       3
100
AcDbLine
 10
-20.37552016
 20
-45.66300298
 30
0.0
 11
-21.0026913
 21
-45.66300298
 31
0.0
  0
LINE
  5
3EC
100
AcDbEntity
  8
レイヤー_1
  6
CONTINUOUS
 62
       3
100
AcDbLine
 10
-21.0026913
 20
-45.66300298
 30
0.0
 11
-21.91375944
 21
-45.66300298
 31
0.0
  0
LINE
  5
3ED
100
AcDbEntity
  8
レイヤー_1
  6
CONTINUOUS
 62
       3
100
AcDbLine
 10
-21.91375944
 20
-45.66300298
 30
0.0
 11
-23.0558418
 21
-45.66300298
 31
0.0
  0
LINE
  5
3EE
100
AcDbEntity
  8
レイヤー_1
  6
CONTINUOUS
 62
       3
100
AcDbLine
 10
-23.0558418
 20
-45.66300298
 30
0.0
 11
-24.37605561
 21
-45.66300298
 31
0.0
  0
LINE
  5
3EF
100
AcDbEntity
  8
レイヤー_1
  6
CONTINUOUS
 62
       3
100
AcDbLine
 10
-24.37605561
 20
-45.66300298
 30
0.0
 11
-25.82151809
 21
-45.66300298
 31
0.0
  0
LINE
  5
3F0
100
AcDbEntity
  8
レイヤー_1
  6
CONTINUOUS
 62
       3
100
AcDbLine
 10
-25.82151809
 20
-45.66300298
 30
0.0
 11
-27.33934648
 21
-45.66300298
 31
0.0
  0
LINE
  5
3F1
100
AcDbEntity
  8
レイヤー_1
  6
CONTINUOUS
 62
       3
100
AcDbLine
 10
-27.33934648
 20
-45.66300298
 30
0.0
 11
-28.87665799
 21
-45.66300298
 31
0.0
  0
LINE
  5
3F2
100
AcDbEntity
  8
レイヤー_1
  6
CONTINUOUS
 62
       3
100
AcDbLine
 10
-28.87665799
 20
-45.66300298
 30
0.0
 11
-30.38056985
 21
-45.66300298
 31
0.0
  0
LINE
  5
3F3
100
AcDbEntity
  8
レイヤー_1
  6
CONTINUOUS
 62
       3
100
AcDbLine
 10
-30.38056985
 20
-45.66300298
 30
0.0
 11
-31.7981993
 21
-45.66300298
 31
0.0
  0
LINE
  5
3F4
100
AcDbEntity
  8
レイヤー_1
  6
CONTINUOUS
 62
       3
100
AcDbLine
 10
-31.7981993
 20
-45.66300298
 30
0.0
 11
-33.07666355
 21
-45.66300298
 31
0.0
  0
LINE
  5
3F5
100
AcDbEntity
  8
レイヤー_1
  6
CONTINUOUS
 62
       3
100
AcDbLine
 10
-33.07666355
 20
-45.66300298
 30
0.0
 11
-34.16307983
 21
-45.66300298
 31
0.0
  0
LINE
  5
3F6
100
AcDbEntity
  8
レイヤー_1
  6
CONTINUOUS
 62
       3
100
AcDbLine
 10
-34.16307983
 20
-45.66300298
 30
0.0
 11
-35.00456537
 21
-45.66300298
 31
0.0
  0
LINE
  5
3F7
100
AcDbEntity
  8
レイヤー_1
  6
CONTINUOUS
 62
       3
100
AcDbLine
 10
-35.00456537
 20
-45.66300298
 30
0.0
 11
-35.5482374
 21
-45.66300298
 31
0.0
  0
LINE
  5
3F8
100
AcDbEntity
  8
レイヤー_1
  6
CONTINUOUS
 62
       3
100
AcDbLine
 10
-35.5482374
 20
-45.66300298
 30
0.0
 11
-35.74121313
 21
-45.66300298
 31
0.0
  0
LINE
  5
3F9
100
AcDbEntity
  8
レイヤー_1
  6
CONTINUOUS
 62
       3
100
AcDbLine
 10
-35.38843544
 20
-44.61018207
 30
0.0
 11
-35.22155761
 21
-44.61018207
 31
0.0
  0
LINE
  5
3FA
100
AcDbEntity
  8
レイヤー_1
  6
CONTINUOUS
 62
       3
100
AcDbLine
 10
-35.22155761
 20
-44.61018207
 30
0.0
 11
-34.74948076
 21
-44.61018207
 31
0.0
  0
LINE
  5
3FB
100
AcDbEntity
  8
レイヤー_1
  6
CONTINUOUS
 62
       3
100
AcDbLine
 10
-34.74948076
 20
-44.61018207
 30
0.0
 11
-34.01503982
 21
-44.61018207
 31
0.0
  0
LINE
  5
3FC
100
AcDbEntity
  8
レイヤー_1
  6
CONTINUOUS
 62
       3
100
AcDbLine
 10
-34.01503982
 20
-44.61018207
 30
0.0
 11
-33.06106977
 21
-44.61018207
 31
0.0
  0
LINE
  5
3FD
100
AcDbEntity
  8
レイヤー_1
  6
CONTINUOUS
 62
       3
100
AcDbLine
 10
-33.06106977
 20
-44.61018207
 30
0.0
 11
-31.93040554
 21
-44.61018207
 31
0.0
  0
LINE
  5
3FE
100
AcDbEntity
  8
レイヤー_1
  6
CONTINUOUS
 62
       3
100
AcDbLine
 10
-31.93040554
 20
-44.61018207
 30
0.0
 11
-30.66588208
 21
-44.61018207
 31
0.0
  0
LINE
  5
3FF
100
AcDbEntity
  8
レイヤー_1
  6
CONTINUOUS
 62
       3
100
AcDbLine
 10
-30.66588208
 20
-44.61018207
 30
0.0
 11
-29.31033436
 21
-44.61018207
 31
0.0
  0
LINE
  5
400
100
AcDbEntity
  8
レイヤー_1
  6
CONTINUOUS
 62
       3
100
AcDbLine
 10
-29.31033436
 20
-44.61018207
 30
0.0
 11
-27.90659732
 21
-44.61018207
 31
0.0
  0
LINE
  5
401
100
AcDbEntity
  8
レイヤー_1
  6
CONTINUOUS
 62
       3
100
AcDbLine
 10
-27.90659732
 20
-44.61018207
 30
0.0
 11
-26.49750591
 21
-44.61018207
 31
0.0
  0
LINE
  5
402
100
AcDbEntity
  8
レイヤー_1
  6
CONTINUOUS
 62
       3
100
AcDbLine
 10
-26.49750591
 20
-44.61018207
 30
0.0
 11
-25.12589508
 21
-44.61018207
 31
0.0
  0
LINE
  5
403
100
AcDbEntity
  8
レイヤー_1
  6
CONTINUOUS
 62
       3
100
AcDbLine
 10
-25.12589508
 20
-44.61018207
 30
0.0
 11
-23.83459978
 21
-44.61018207
 31
0.0
  0
LINE
  5
404
100
AcDbEntity
  8
レイヤー_1
  6
CONTINUOUS
 62
       3
100
AcDbLine
 10
-23.83459978
 20
-44.61018207
 30
0.0
 11
-22.66645497
 21
-44.61018207
 31
0.0
  0
LINE
  5
405
100
AcDbEntity
  8
レイヤー_1
  6
CONTINUOUS
 62
       3
100
AcDbLine
 10
-22.66645497
 20
-44.61018207
 30
0.0
 11
-21.66429559
 21
-44.61018207
 31
0.0
  0
LINE
  5
406
100
AcDbEntity
  8
レイヤー_1
  6
CONTINUOUS
 62
       3
100
AcDbLine
 10
-21.66429559
 20
-44.61018207
 30
0.0
 11
-20.8709566
 21
-44.61018207
 31
0.0
  0
LINE
  5
407
100
AcDbEntity
  8
レイヤー_1
  6
CONTINUOUS
 62
       3
100
AcDbLine
 10
-20.8709566
 20
-44.61018207
 30
0.0
 11
-20.32927295
 21
-44.61018207
 31
0.0
  0
LINE
  5
408
100
AcDbEntity
  8
レイヤー_1
  6
CONTINUOUS
 62
       3
100
AcDbLine
 10
-20.32927295
 20
-44.61018207
 30
0.0
 11
-20.08207958
 21
-44.61018207
 31
0.0
  0
LINE
  5
409
100
AcDbEntity
  8
レイヤー_1
  6
CONTINUOUS
 62
       3
100
AcDbLine
 10
-20.08207958
 20
-44.61018207
 30
0.0
 11
-20.07338065
 21
-44.56696678
 31
0.0
  0
LINE
  5
40A
100
AcDbEntity
  8
レイヤー_1
  6
CONTINUOUS
 62
       3
100
AcDbLine
 10
-20.07338065
 20
-44.56696678
 30
0.0
 11
-20.08208496
 21
-44.37784411
 31
0.0
  0
LINE
  5
40B
100
AcDbEntity
  8
レイヤー_1
  6
CONTINUOUS
 62
       3
100
AcDbLine
 10
-20.08208496
 20
-44.37784411
 30
0.0
 11
-20.09673462
 21
-44.04372259
 31
0.0
  0
LINE
  5
40C
100
AcDbEntity
  8
レイヤー_1
  6
CONTINUOUS
 62
       3
100
AcDbLine
 10
-20.09673462
 20
-44.04372259
 30
0.0
 11
-20.11639704
 21
-43.57037254
 31
0.0
  0
LINE
  5
40D
100
AcDbEntity
  8
レイヤー_1
  6
CONTINUOUS
 62
       3
100
AcDbLine
 10
-20.11639704
 20
-43.57037254
 30
0.0
 11
-20.14013961
 21
-42.9635643
 31
0.0
  0
LINE
  5
40E
100
AcDbEntity
  8
レイヤー_1
  6
CONTINUOUS
 62
       3
100
AcDbLine
 10
-20.14013961
 20
-42.9635643
 30
0.0
 11
-20.16702971
 21
-42.22906819
 31
0.0
  0
LINE
  5
40F
100
AcDbEntity
  8
レイヤー_1
  6
CONTINUOUS
 62
       3
100
AcDbLine
 10
-20.16702971
 20
-42.22906819
 30
0.0
 11
-20.19613476
 21
-41.37265456
 31
0.0
  0
LINE
  5
410
100
AcDbEntity
  8
レイヤー_1
  6
CONTINUOUS
 62
       3
100
AcDbLine
 10
-20.19613476
 20
-41.37265456
 30
0.0
 11
-20.22652213
 21
-40.40009373
 31
0.0
  0
LINE
  5
411
100
AcDbEntity
  8
レイヤー_1
  6
CONTINUOUS
 62
       3
100
AcDbLine
 10
-20.22652213
 20
-40.40009373
 30
0.0
 11
-20.25725923
 21
-39.31715604
 31
0.0
  0
LINE
  5
412
100
AcDbEntity
  8
レイヤー_1
  6
CONTINUOUS
 62
       3
100
AcDbLine
 10
-20.25725923
 20
-39.31715604
 30
0.0
 11
-20.28741345
 21
-38.12961181
 31
0.0
  0
LINE
  5
413
100
AcDbEntity
  8
レイヤー_1
  6
CONTINUOUS
 62
       3
100
AcDbLine
 10
-20.28741345
 20
-38.12961181
 30
0.0
 11
-20.31605219
 21
-36.84323139
 31
0.0
  0
LINE
  5
414
100
AcDbEntity
  8
レイヤー_1
  6
CONTINUOUS
 62
       3
100
AcDbLine
 10
-20.31605219
 20
-36.84323139
 30
0.0
 11
-20.34224285
 21
-35.46378509
 31
0.0
  0
LINE
  5
415
100
AcDbEntity
  8
レイヤー_1
  6
CONTINUOUS
 62
       3
100
AcDbLine
 10
-20.34224285
 20
-35.46378509
 30
0.0
 11
-20.36505281
 21
-33.99704325
 31
0.0
  0
LINE
  5
416
100
AcDbEntity
  8
レイヤー_1
  6
CONTINUOUS
 62
       3
100
AcDbLine
 10
-20.36505281
 20
-33.99704325
 30
0.0
 11
-20.38354947
 21
-32.44877621
 31
0.0
  0
LINE
  5
417
100
AcDbEntity
  8
レイヤー_1
  6
CONTINUOUS
 62
       3
100
AcDbLine
 10
-20.38354947
 20
-32.44877621
 30
0.0
 11
-20.39680023
 21
-30.8247543
 31
0.0
  0
LINE
  5
418
100
AcDbEntity
  8
レイヤー_1
  6
CONTINUOUS
 62
       3
100
AcDbLine
 10
-20.39680023
 20
-30.8247543
 30
0.0
 11
-20.40387248
 21
-29.13074784
 31
0.0
  0
LINE
  5
419
100
AcDbEntity
  8
レイヤー_1
  6
CONTINUOUS
 62
       3
100
AcDbLine
 10
-20.40387248
 20
-29.13074784
 30
0.0
 11
-20.40387248
 21
-27.38890016
 31
0.0
  0
LINE
  5
41A
100
AcDbEntity
  8
レイヤー_1
  6
CONTINUOUS
 62
       3
100
AcDbLine
 10
-20.40387248
 20
-27.38890016
 30
0.0
 11
-20.39680023
 21
-25.70294658
 31
0.0
  0
LINE
  5
41B
100
AcDbEntity
  8
レイヤー_1
  6
CONTINUOUS
 62
       3
100
AcDbLine
 10
-20.39680023
 20
-25.70294658
 30
0.0
 11
-20.38354947
 21
-24.09405011
 31
0.0
  0
LINE
  5
41C
100
AcDbEntity
  8
レイヤー_1
  6
CONTINUOUS
 62
       3
100
AcDbLine
 10
-20.38354947
 20
-24.09405011
 30
0.0
 11
-20.36505281
 21
-22.56691393
 31
0.0
  0
LINE
  5
41D
100
AcDbEntity
  8
レイヤー_1
  6
CONTINUOUS
 62
       3
100
AcDbLine
 10
-20.36505281
 20
-22.56691393
 30
0.0
 11
-20.34224285
 21
-21.12624119
 31
0.0
  0
LINE
  5
41E
100
AcDbEntity
  8
レイヤー_1
  6
CONTINUOUS
 62
       3
100
AcDbLine
 10
-20.34224285
 20
-21.12624119
 30
0.0
 11
-20.31605219
 21
-19.77673508
 31
0.0
  0
LINE
  5
41F
100
AcDbEntity
  8
レイヤー_1
  6
CONTINUOUS
 62
       3
100
AcDbLine
 10
-20.31605219
 20
-19.77673508
 30
0.0
 11
-20.28741345
 21
-18.52309875
 31
0.0
  0
LINE
  5
420
100
AcDbEntity
  8
レイヤー_1
  6
CONTINUOUS
 62
       3
100
AcDbLine
 10
-20.28741345
 20
-18.52309875
 30
0.0
 11
-20.25725923
 21
-17.37003538
 31
0.0
  0
LINE
  5
421
100
AcDbEntity
  8
レイヤー_1
  6
CONTINUOUS
 62
       3
100
AcDbLine
 10
-20.25725923
 20
-17.37003538
 30
0.0
 11
-20.22652213
 21
-16.32224812
 31
0.0
  0
LINE
  5
422
100
AcDbEntity
  8
レイヤー_1
  6
CONTINUOUS
 62
       3
100
AcDbLine
 10
-20.22652213
 20
-16.32224812
 30
0.0
 11
-20.19613476
 21
-15.38444015
 31
0.0
  0
LINE
  5
423
100
AcDbEntity
  8
レイヤー_1
  6
CONTINUOUS
 62
       3
100
AcDbLine
 10
-20.19613476
 20
-15.38444015
 30
0.0
 11
-20.16702971
 21
-14.56131464
 31
0.0
  0
LINE
  5
424
100
AcDbEntity
  8
レイヤー_1
  6
CONTINUOUS
 62
       3
100
AcDbLine
 10
-20.16702971
 20
-14.56131464
 30
0.0
 11
-20.14013961
 21
-13.85757475
 31
0.0
  0
LINE
  5
425
100
AcDbEntity
  8
レイヤー_1
  6
CONTINUOUS
 62
       3
100
AcDbLine
 10
-20.14013961
 20
-13.85757475
 30
0.0
 11
-20.11639704
 21
-13.27792365
 31
0.0
  0
LINE
  5
426
100
AcDbEntity
  8
レイヤー_1
  6
CONTINUOUS
 62
       3
100
AcDbLine
 10
-20.11639704
 20
-13.27792365
 30
0.0
 11
-20.09673462
 21
-12.82706451
 31
0.0
  0
LINE
  5
427
100
AcDbEntity
  8
レイヤー_1
  6
CONTINUOUS
 62
       3
100
AcDbLine
 10
-20.09673462
 20
-12.82706451
 30
0.0
 11
-20.08208496
 21
-12.50970049
 31
0.0
  0
LINE
  5
428
100
AcDbEntity
  8
レイヤー_1
  6
CONTINUOUS
 62
       3
100
AcDbLine
 10
-20.08208496
 20
-12.50970049
 30
0.0
 11
-20.07338065
 21
-12.33053476
 31
0.0
  0
LINE
  5
429
100
AcDbEntity
  8
レイヤー_1
  6
CONTINUOUS
 62
       3
100
AcDbLine
 10
-20.07338065
 20
-12.33053476
 30
0.0
 11
-20.07831973
 21
-12.28968234
 31
0.0
  0
LINE
  5
42A
100
AcDbEntity
  8
レイヤー_1
  6
CONTINUOUS
 62
       3
100
AcDbLine
 10
-20.07831973
 20
-12.28968234
 30
0.0
 11
-20.23917277
 21
-12.28968234
 31
0.0
  0
LINE
  5
42B
100
AcDbEntity
  8
レイヤー_1
  6
CONTINUOUS
 62
       3
100
AcDbLine
 10
-20.23917277
 20
-12.28968234
 30
0.0
 11
-20.5916558
 21
-12.28968234
 31
0.0
  0
LINE
  5
42C
100
AcDbEntity
  8
レイヤー_1
  6
CONTINUOUS
 62
       3
100
AcDbLine
 10
-20.5916558
 20
-12.28968234
 30
0.0
 11
-21.10789535
 21
-12.28968234
 31
0.0
  0
LINE
  5
42D
100
AcDbEntity
  8
レイヤー_1
  6
CONTINUOUS
 62
       3
100
AcDbLine
 10
-21.10789535
 20
-12.28968234
 30
0.0
 11
-21.76001799
 21
-12.28968234
 31
0.0
  0
LINE
  5
42E
100
AcDbEntity
  8
レイヤー_1
  6
CONTINUOUS
 62
       3
100
AcDbLine
 10
-21.76001799
 20
-12.28968234
 30
0.0
 11
-22.52015024
 21
-12.28968234
 31
0.0
  0
LINE
  5
42F
100
AcDbEntity
  8
レイヤー_1
  6
CONTINUOUS
 62
       3
100
AcDbLine
 10
-22.52015024
 20
-12.28968234
 30
0.0
 11
-23.36041868
 21
-12.28968234
 31
0.0
  0
LINE
  5
430
100
AcDbEntity
  8
レイヤー_1
  6
CONTINUOUS
 62
       3
100
AcDbLine
 10
-23.36041868
 20
-12.28968234
 30
0.0
 11
-24.25294983
 21
-12.28968234
 31
0.0
  0
LINE
  5
431
100
AcDbEntity
  8
レイヤー_1
  6
CONTINUOUS
 62
       3
100
AcDbLine
 10
-24.25294983
 20
-12.28968234
 30
0.0
 11
-25.16987025
 21
-12.28968234
 31
0.0
  0
LINE
  5
432
100
AcDbEntity
  8
レイヤー_1
  6
CONTINUOUS
 62
       3
100
AcDbLine
 10
-25.16987025
 20
-12.28968234
 30
0.0
 11
-26.0833065
 21
-12.28968234
 31
0.0
  0
LINE
  5
433
100
AcDbEntity
  8
レイヤー_1
  6
CONTINUOUS
 62
       3
100
AcDbLine
 10
-26.0833065
 20
-12.28968234
 30
0.0
 11
-26.96538511
 21
-12.28968234
 31
0.0
  0
LINE
  5
434
100
AcDbEntity
  8
レイヤー_1
  6
CONTINUOUS
 62
       3
100
AcDbLine
 10
-26.96538511
 20
-12.28968234
 30
0.0
 11
-27.78823263
 21
-12.28968234
 31
0.0
  0
LINE
  5
435
100
AcDbEntity
  8
レイヤー_1
  6
CONTINUOUS
 62
       3
100
AcDbLine
 10
-27.78823263
 20
-12.28968234
 30
0.0
 11
-28.52397562
 21
-12.28968234
 31
0.0
  0
LINE
  5
436
100
AcDbEntity
  8
レイヤー_1
  6
CONTINUOUS
 62
       3
100
AcDbLine
 10
-28.52397562
 20
-12.28968234
 30
0.0
 11
-29.14474062
 21
-12.28968234
 31
0.0
  0
LINE
  5
437
100
AcDbEntity
  8
レイヤー_1
  6
CONTINUOUS
 62
       3
100
AcDbLine
 10
-29.14474062
 20
-12.28968234
 30
0.0
 11
-29.62265418
 21
-12.28968234
 31
0.0
  0
LINE
  5
438
100
AcDbEntity
  8
レイヤー_1
  6
CONTINUOUS
 62
       3
100
AcDbLine
 10
-29.62265418
 20
-12.28968234
 30
0.0
 11
-29.92984284
 21
-12.28968234
 31
0.0
  0
LINE
  5
439
100
AcDbEntity
  8
レイヤー_1
  6
CONTINUOUS
 62
       3
100
AcDbLine
 10
-29.92984284
 20
-12.28968234
 30
0.0
 11
-30.03843316
 21
-12.28968234
 31
0.0
  0
LINE
  5
43A
100
AcDbEntity
  8
レイヤー_1
  6
CONTINUOUS
 62
       3
100
AcDbLine
 10
51.55411689
 20
-17.61510961
 30
0.0
 11
51.65493396
 21
-17.61010399
 31
0.0
  0
LINE
  5
43B
100
AcDbEntity
  8
レイヤー_1
  6
CONTINUOUS
 62
       3
100
AcDbLine
 10
51.65493396
 20
-17.61010399
 30
0.0
 11
51.75286347
 21
-17.59540678
 31
0.0
  0
LINE
  5
43C
100
AcDbEntity
  8
レイヤー_1
  6
CONTINUOUS
 62
       3
100
AcDbLine
 10
51.75286347
 20
-17.59540678
 30
0.0
 11
51.84742882
 21
-17.57149745
 31
0.0
  0
LINE
  5
43D
100
AcDbEntity
  8
レイヤー_1
  6
CONTINUOUS
 62
       3
100
AcDbLine
 10
51.84742882
 20
-17.57149745
 30
0.0
 11
51.93815343
 21
-17.53885547
 31
0.0
  0
LINE
  5
43E
100
AcDbEntity
  8
レイヤー_1
  6
CONTINUOUS
 62
       3
100
AcDbLine
 10
51.93815343
 20
-17.53885547
 30
0.0
 11
52.02456074
 21
-17.4979603
 31
0.0
  0
LINE
  5
43F
100
AcDbEntity
  8
レイヤー_1
  6
CONTINUOUS
 62
       3
100
AcDbLine
 10
52.02456074
 20
-17.4979603
 30
0.0
 11
52.10617415
 21
-17.44929141
 31
0.0
  0
LINE
  5
440
100
AcDbEntity
  8
レイヤー_1
  6
CONTINUOUS
 62
       3
100
AcDbLine
 10
52.10617415
 20
-17.44929141
 30
0.0
 11
52.18251709
 21
-17.39332829
 31
0.0
  0
LINE
  5
441
100
AcDbEntity
  8
レイヤー_1
  6
CONTINUOUS
 62
       3
100
AcDbLine
 10
52.18251709
 20
-17.39332829
 30
0.0
 11
52.25311299
 21
-17.33055038
 31
0.0
  0
LINE
  5
442
100
AcDbEntity
  8
レイヤー_1
  6
CONTINUOUS
 62
       3
100
AcDbLine
 10
52.25311299
 20
-17.33055038
 30
0.0
 11
52.31748526
 21
-17.26143717
 31
0.0
  0
LINE
  5
443
100
AcDbEntity
  8
レイヤー_1
  6
CONTINUOUS
 62
       3
100
AcDbLine
 10
52.31748526
 20
-17.26143717
 30
0.0
 11
52.37515732
 21
-17.18646813
 31
0.0
  0
LINE
  5
444
100
AcDbEntity
  8
レイヤー_1
  6
CONTINUOUS
 62
       3
100
AcDbLine
 10
52.37515732
 20
-17.18646813
 30
0.0
 11
52.42565259
 21
-17.10612271
 31
0.0
  0
LINE
  5
445
100
AcDbEntity
  8
レイヤー_1
  6
CONTINUOUS
 62
       3
100
AcDbLine
 10
52.42565259
 20
-17.10612271
 30
0.0
 11
52.4684945
 21
-17.0208804
 31
0.0
  0
LINE
  5
446
100
AcDbEntity
  8
レイヤー_1
  6
CONTINUOUS
 62
       3
100
AcDbLine
 10
52.4684945
 20
-17.0208804
 30
0.0
 11
52.50320647
 21
-16.93122066
 31
0.0
  0
LINE
  5
447
100
AcDbEntity
  8
レイヤー_1
  6
CONTINUOUS
 62
       3
100
AcDbLine
 10
52.50320647
 20
-16.93122066
 30
0.0
 11
52.52931191
 21
-16.83762296
 31
0.0
  0
LINE
  5
448
100
AcDbEntity
  8
レイヤー_1
  6
CONTINUOUS
 62
       3
100
AcDbLine
 10
52.52931191
 20
-16.83762296
 30
0.0
 11
52.54633425
 21
-16.74056678
 31
0.0
  0
LINE
  5
449
100
AcDbEntity
  8
レイヤー_1
  6
CONTINUOUS
 62
       3
100
AcDbLine
 10
52.54633425
 20
-16.74056678
 30
0.0
 11
52.55379691
 21
-16.64053157
 31
0.0
  0
LINE
  5
44A
100
AcDbEntity
  8
レイヤー_1
  6
CONTINUOUS
 62
       3
100
AcDbLine
 10
52.55379691
 20
-16.64053157
 30
0.0
 11
52.55129032
 21
-16.53936431
 31
0.0
  0
LINE
  5
44B
100
AcDbEntity
  8
レイヤー_1
  6
CONTINUOUS
 62
       3
100
AcDbLine
 10
52.55129032
 20
-16.53936431
 30
0.0
 11
52.53898825
 21
-16.44078883
 31
0.0
  0
LINE
  5
44C
100
AcDbEntity
  8
レイヤー_1
  6
CONTINUOUS
 62
       3
100
AcDbLine
 10
52.53898825
 20
-16.44078883
 30
0.0
 11
52.51736479
 21
-16.34542334
 31
0.0
  0
LINE
  5
44D
100
AcDbEntity
  8
レイヤー_1
  6
CONTINUOUS
 62
       3
100
AcDbLine
 10
52.51736479
 20
-16.34542334
 30
0.0
 11
52.48689651
 21
-16.2537483
 31
0.0
  0
LINE
  5
44E
100
AcDbEntity
  8
レイヤー_1
  6
CONTINUOUS
 62
       3
100
AcDbLine
 10
52.48689651
 20
-16.2537483
 30
0.0
 11
52.44806
 21
-16.16624413
 31
0.0
  0
LINE
  5
44F
100
AcDbEntity
  8
レイヤー_1
  6
CONTINUOUS
 62
       3
100
AcDbLine
 10
52.44806
 20
-16.16624413
 30
0.0
 11
52.40133184
 21
-16.08339125
 31
0.0
  0
LINE
  5
450
100
AcDbEntity
  8
レイヤー_1
  6
CONTINUOUS
 62
       3
100
AcDbLine
 10
52.40133184
 20
-16.08339125
 30
0.0
 11
52.3471886
 21
-16.00567012
 31
0.0
  0
LINE
  5
451
100
AcDbEntity
  8
レイヤー_1
  6
CONTINUOUS
 62
       3
100
AcDbLine
 10
52.3471886
 20
-16.00567012
 30
0.0
 11
52.28610686
 21
-15.93356115
 31
0.0
  0
LINE
  5
452
100
AcDbEntity
  8
レイヤー_1
  6
CONTINUOUS
 62
       3
100
AcDbLine
 10
52.28610686
 20
-15.93356115
 30
0.0
 11
52.21856321
 21
-15.86754478
 31
0.0
  0
LINE
  5
453
100
AcDbEntity
  8
レイヤー_1
  6
CONTINUOUS
 62
       3
100
AcDbLine
 10
52.21856321
 20
-15.86754478
 30
0.0
 11
52.14503422
 21
-15.80810144
 31
0.0
  0
LINE
  5
454
100
AcDbEntity
  8
レイヤー_1
  6
CONTINUOUS
 62
       3
100
AcDbLine
 10
52.14503422
 20
-15.80810144
 30
0.0
 11
52.06599647
 21
-15.75571157
 31
0.0
  0
LINE
  5
455
100
AcDbEntity
  8
レイヤー_1
  6
CONTINUOUS
 62
       3
100
AcDbLine
 10
52.06599647
 20
-15.75571157
 30
0.0
 11
51.98192653
 21
-15.7108556
 31
0.0
  0
LINE
  5
456
100
AcDbEntity
  8
レイヤー_1
  6
CONTINUOUS
 62
       3
100
AcDbLine
 10
51.98192653
 20
-15.7108556
 30
0.0
 11
51.893301
 21
-15.67401397
 31
0.0
  0
LINE
  5
457
100
AcDbEntity
  8
レイヤー_1
  6
CONTINUOUS
 62
       3
100
AcDbLine
 10
51.893301
 20
-15.67401397
 30
0.0
 11
51.80059645
 21
-15.64566709
 31
0.0
  0
LINE
  5
458
100
AcDbEntity
  8
レイヤー_1
  6
CONTINUOUS
 62
       3
100
AcDbLine
 10
51.80059645
 20
-15.64566709
 30
0.0
 11
51.70428945
 21
-15.62629542
 31
0.0
  0
LINE
  5
459
100
AcDbEntity
  8
レイヤー_1
  6
CONTINUOUS
 62
       3
100
AcDbLine
 10
51.70428945
 20
-15.62629542
 30
0.0
 11
51.60485659
 21
-15.61637937
 31
0.0
  0
LINE
  5
45A
100
AcDbEntity
  8
レイヤー_1
  6
CONTINUOUS
 62
       3
100
AcDbLine
 10
51.60485659
 20
-15.61637937
 30
0.0
 11
51.50345813
 21
-15.61637937
 31
0.0
  0
LINE
  5
45B
100
AcDbEntity
  8
レイヤー_1
  6
CONTINUOUS
 62
       3
100
AcDbLine
 10
51.50345813
 20
-15.61637937
 30
0.0
 11
51.40416495
 21
-15.62629542
 31
0.0
  0
LINE
  5
45C
100
AcDbEntity
  8
レイヤー_1
  6
CONTINUOUS
 62
       3
100
AcDbLine
 10
51.40416495
 20
-15.62629542
 30
0.0
 11
51.30797018
 21
-15.64566709
 31
0.0
  0
LINE
  5
45D
100
AcDbEntity
  8
レイヤー_1
  6
CONTINUOUS
 62
       3
100
AcDbLine
 10
51.30797018
 20
-15.64566709
 30
0.0
 11
51.21535297
 21
-15.67401397
 31
0.0
  0
LINE
  5
45E
100
AcDbEntity
  8
レイヤー_1
  6
CONTINUOUS
 62
       3
100
AcDbLine
 10
51.21535297
 20
-15.67401397
 30
0.0
 11
51.12679245
 21
-15.7108556
 31
0.0
  0
LINE
  5
45F
100
AcDbEntity
  8
レイヤー_1
  6
CONTINUOUS
 62
       3
100
AcDbLine
 10
51.12679245
 20
-15.7108556
 30
0.0
 11
51.04276779
 21
-15.75571157
 31
0.0
  0
LINE
  5
460
100
AcDbEntity
  8
レイヤー_1
  6
CONTINUOUS
 62
       3
100
AcDbLine
 10
51.04276779
 20
-15.75571157
 30
0.0
 11
50.96375812
 21
-15.80810144
 31
0.0
  0
LINE
  5
461
100
AcDbEntity
  8
レイヤー_1
  6
CONTINUOUS
 62
       3
100
AcDbLine
 10
50.96375812
 20
-15.80810144
 30
0.0
 11
50.89024261
 21
-15.86754478
 31
0.0
  0
LINE
  5
462
100
AcDbEntity
  8
レイヤー_1
  6
CONTINUOUS
 62
       3
100
AcDbLine
 10
50.89024261
 20
-15.86754478
 30
0.0
 11
50.82270038
 21
-15.93356115
 31
0.0
  0
LINE
  5
463
100
AcDbEntity
  8
レイヤー_1
  6
CONTINUOUS
 62
       3
100
AcDbLine
 10
50.82270038
 20
-15.93356115
 30
0.0
 11
50.76161061
 21
-16.00567012
 31
0.0
  0
LINE
  5
464
100
AcDbEntity
  8
レイヤー_1
  6
CONTINUOUS
 62
       3
100
AcDbLine
 10
50.76161061
 20
-16.00567012
 30
0.0
 11
50.70745242
 21
-16.08339125
 31
0.0
  0
LINE
  5
465
100
AcDbEntity
  8
レイヤー_1
  6
CONTINUOUS
 62
       3
100
AcDbLine
 10
50.70745242
 20
-16.08339125
 30
0.0
 11
50.66070497
 21
-16.16624413
 31
0.0
  0
LINE
  5
466
100
AcDbEntity
  8
レイヤー_1
  6
CONTINUOUS
 62
       3
100
AcDbLine
 10
50.66070497
 20
-16.16624413
 30
0.0
 11
50.62184742
 21
-16.2537483
 31
0.0
  0
LINE
  5
467
100
AcDbEntity
  8
レイヤー_1
  6
CONTINUOUS
 62
       3
100
AcDbLine
 10
50.62184742
 20
-16.2537483
 30
0.0
 11
50.59135889
 21
-16.34542334
 31
0.0
  0
LINE
  5
468
100
AcDbEntity
  8
レイヤー_1
  6
CONTINUOUS
 62
       3
100
AcDbLine
 10
50.59135889
 20
-16.34542334
 30
0.0
 11
50.56971856
 21
-16.44078883
 31
0.0
  0
LINE
  5
469
100
AcDbEntity
  8
レイヤー_1
  6
CONTINUOUS
 62
       3
100
AcDbLine
 10
50.56971856
 20
-16.44078883
 30
0.0
 11
50.55740555
 21
-16.53936431
 31
0.0
  0
LINE
  5
46A
100
AcDbEntity
  8
レイヤー_1
  6
CONTINUOUS
 62
       3
100
AcDbLine
 10
50.55740555
 20
-16.53936431
 30
0.0
 11
50.55489654
 21
-16.64053157
 31
0.0
  0
LINE
  5
46B
100
AcDbEntity
  8
レイヤー_1
  6
CONTINUOUS
 62
       3
100
AcDbLine
 10
50.55489654
 20
-16.64053157
 30
0.0
 11
50.56236619
 21
-16.74056678
 31
0.0
  0
LINE
  5
46C
100
AcDbEntity
  8
レイヤー_1
  6
CONTINUOUS
 62
       3
100
AcDbLine
 10
50.56236619
 20
-16.74056678
 30
0.0
 11
50.57940276
 21
-16.83762296
 31
0.0
  0
LINE
  5
46D
100
AcDbEntity
  8
レイヤー_1
  6
CONTINUOUS
 62
       3
100
AcDbLine
 10
50.57940276
 20
-16.83762296
 30
0.0
 11
50.60552708
 21
-16.93122066
 31
0.0
  0
LINE
  5
46E
100
AcDbEntity
  8
レイヤー_1
  6
CONTINUOUS
 62
       3
100
AcDbLine
 10
50.60552708
 20
-16.93122066
 30
0.0
 11
50.64026001
 21
-17.0208804
 31
0.0
  0
LINE
  5
46F
100
AcDbEntity
  8
レイヤー_1
  6
CONTINUOUS
 62
       3
100
AcDbLine
 10
50.64026001
 20
-17.0208804
 30
0.0
 11
50.68312241
 21
-17.10612271
 31
0.0
  0
LINE
  5
470
100
AcDbEntity
  8
レイヤー_1
  6
CONTINUOUS
 62
       3
100
AcDbLine
 10
50.68312241
 20
-17.10612271
 30
0.0
 11
50.73363512
 21
-17.18646813
 31
0.0
  0
LINE
  5
471
100
AcDbEntity
  8
レイヤー_1
  6
CONTINUOUS
 62
       3
100
AcDbLine
 10
50.73363512
 20
-17.18646813
 30
0.0
 11
50.79131899
 21
-17.26143717
 31
0.0
  0
LINE
  5
472
100
AcDbEntity
  8
レイヤー_1
  6
CONTINUOUS
 62
       3
100
AcDbLine
 10
50.79131899
 20
-17.26143717
 30
0.0
 11
50.85569489
 21
-17.33055038
 31
0.0
  0
LINE
  5
473
100
AcDbEntity
  8
レイヤー_1
  6
CONTINUOUS
 62
       3
100
AcDbLine
 10
50.85569489
 20
-17.33055038
 30
0.0
 11
50.92628365
 21
-17.39332829
 31
0.0
  0
LINE
  5
474
100
AcDbEntity
  8
レイヤー_1
  6
CONTINUOUS
 62
       3
100
AcDbLine
 10
50.92628365
 20
-17.39332829
 30
0.0
 11
51.00260613
 21
-17.44929141
 31
0.0
  0
LINE
  5
475
100
AcDbEntity
  8
レイヤー_1
  6
CONTINUOUS
 62
       3
100
AcDbLine
 10
51.00260613
 20
-17.44929141
 30
0.0
 11
51.08418319
 21
-17.4979603
 31
0.0
  0
LINE
  5
476
100
AcDbEntity
  8
レイヤー_1
  6
CONTINUOUS
 62
       3
100
AcDbLine
 10
51.08418319
 20
-17.4979603
 30
0.0
 11
51.17053567
 21
-17.53885547
 31
0.0
  0
LINE
  5
477
100
AcDbEntity
  8
レイヤー_1
  6
CONTINUOUS
 62
       3
100
AcDbLine
 10
51.17053567
 20
-17.53885547
 30
0.0
 11
51.26118443
 21
-17.57149745
 31
0.0
  0
LINE
  5
478
100
AcDbEntity
  8
レイヤー_1
  6
CONTINUOUS
 62
       3
100
AcDbLine
 10
51.26118443
 20
-17.57149745
 30
0.0
 11
51.35565032
 21
-17.59540678
 31
0.0
  0
LINE
  5
479
100
AcDbEntity
  8
レイヤー_1
  6
CONTINUOUS
 62
       3
100
AcDbLine
 10
51.35565032
 20
-17.59540678
 30
0.0
 11
51.45345419
 21
-17.61010399
 31
0.0
  0
LINE
  5
47A
100
AcDbEntity
  8
レイヤー_1
  6
CONTINUOUS
 62
       3
100
AcDbLine
 10
51.45345419
 20
-17.61010399
 30
0.0
 11
51.55411689
 21
-17.61510961
 31
0.0
  0
LINE
  5
47B
100
AcDbEntity
  8
レイヤー_1
  6
CONTINUOUS
 62
       3
100
AcDbLine
 10
51.55411689
 20
-12.86478347
 30
0.0
 11
51.6800673
 21
-12.85852469
 31
0.0
  0
LINE
  5
47C
100
AcDbEntity
  8
レイヤー_1
  6
CONTINUOUS
 62
       3
100
AcDbLine
 10
51.6800673
 20
-12.85852469
 30
0.0
 11
51.80243406
 21
-12.84014871
 31
0.0
  0
LINE
  5
47D
100
AcDbEntity
  8
レイヤー_1
  6
CONTINUOUS
 62
       3
100
AcDbLine
 10
51.80243406
 20
-12.84014871
 30
0.0
 11
51.92061854
 21
-12.81025608
 31
0.0
  0
LINE
  5
47E
100
AcDbEntity
  8
レイヤー_1
  6
CONTINUOUS
 62
       3
100
AcDbLine
 10
51.92061854
 20
-12.81025608
 30
0.0
 11
52.03402215
 21
-12.76944732
 31
0.0
  0
LINE
  5
47F
100
AcDbEntity
  8
レイヤー_1
  6
CONTINUOUS
 62
       3
100
AcDbLine
 10
52.03402215
 20
-12.76944732
 30
0.0
 11
52.14204625
 21
-12.71832299
 31
0.0
  0
LINE
  5
480
100
AcDbEntity
  8
レイヤー_1
  6
CONTINUOUS
 62
       3
100
AcDbLine
 10
52.14204625
 20
-12.71832299
 30
0.0
 11
52.24409224
 21
-12.65748363
 31
0.0
  0
LINE
  5
481
100
AcDbEntity
  8
レイヤー_1
  6
CONTINUOUS
 62
       3
100
AcDbLine
 10
52.24409224
 20
-12.65748363
 30
0.0
 11
52.33956151
 21
-12.58752977
 31
0.0
  0
LINE
  5
482
100
AcDbEntity
  8
レイヤー_1
  6
CONTINUOUS
 62
       3
100
AcDbLine
 10
52.33956151
 20
-12.58752977
 30
0.0
 11
52.42785543
 21
-12.50906195
 31
0.0
  0
LINE
  5
483
100
AcDbEntity
  8
レイヤー_1
  6
CONTINUOUS
 62
       3
100
AcDbLine
 10
52.42785543
 20
-12.50906195
 30
0.0
 11
52.5083754
 21
-12.42268073
 31
0.0
  0
LINE
  5
484
100
AcDbEntity
  8
レイヤー_1
  6
CONTINUOUS
 62
       3
100
AcDbLine
 10
52.5083754
 20
-12.42268073
 30
0.0
 11
52.5805228
 21
-12.32898663
 31
0.0
  0
LINE
  5
485
100
AcDbEntity
  8
レイヤー_1
  6
CONTINUOUS
 62
       3
100
AcDbLine
 10
52.5805228
 20
-12.32898663
 30
0.0
 11
52.64369902
 21
-12.22858021
 31
0.0
  0
LINE
  5
486
100
AcDbEntity
  8
レイヤー_1
  6
CONTINUOUS
 62
       3
100
AcDbLine
 10
52.64369902
 20
-12.22858021
 30
0.0
 11
52.69730544
 21
-12.12206199
 31
0.0
  0
LINE
  5
487
100
AcDbEntity
  8
レイヤー_1
  6
CONTINUOUS
 62
       3
100
AcDbLine
 10
52.69730544
 20
-12.12206199
 30
0.0
 11
52.74074344
 21
-12.01003253
 31
0.0
  0
LINE
  5
488
100
AcDbEntity
  8
レイヤー_1
  6
CONTINUOUS
 62
       3
100
AcDbLine
 10
52.74074344
 20
-12.01003253
 30
0.0
 11
52.77341442
 21
-11.89309236
 31
0.0
  0
LINE
  5
489
100
AcDbEntity
  8
レイヤー_1
  6
CONTINUOUS
 62
       3
100
AcDbLine
 10
52.77341442
 20
-11.89309236
 30
0.0
 11
52.79471977
 21
-11.77184202
 31
0.0
  0
LINE
  5
48A
100
AcDbEntity
  8
レイヤー_1
  6
CONTINUOUS
 62
       3
100
AcDbLine
 10
52.79471977
 20
-11.77184202
 30
0.0
 11
52.80406086
 21
-11.64688206
 31
0.0
  0
LINE
  5
48B
100
AcDbEntity
  8
レイヤー_1
  6
CONTINUOUS
 62
       3
100
AcDbLine
 10
52.80406086
 20
-11.64688206
 30
0.0
 11
52.80092326
 21
-11.52038635
 31
0.0
  0
LINE
  5
48C
100
AcDbEntity
  8
レイヤー_1
  6
CONTINUOUS
 62
       3
100
AcDbLine
 10
52.80092326
 20
-11.52038635
 30
0.0
 11
52.78552521
 21
-11.39709771
 31
0.0
  0
LINE
  5
48D
100
AcDbEntity
  8
レイヤー_1
  6
CONTINUOUS
 62
       3
100
AcDbLine
 10
52.78552521
 20
-11.39709771
 30
0.0
 11
52.75846223
 21
-11.27783293
 31
0.0
  0
LINE
  5
48E
100
AcDbEntity
  8
レイヤー_1
  6
CONTINUOUS
 62
       3
100
AcDbLine
 10
52.75846223
 20
-11.27783293
 30
0.0
 11
52.7203329
 21
-11.1631916
 31
0.0
  0
LINE
  5
48F
100
AcDbEntity
  8
レイヤー_1
  6
CONTINUOUS
 62
       3
100
AcDbLine
 10
52.7203329
 20
-11.1631916
 30
0.0
 11
52.67173586
 21
-11.05377328
 31
0.0
  0
LINE
  5
490
100
AcDbEntity
  8
レイヤー_1
  6
CONTINUOUS
 62
       3
100
AcDbLine
 10
52.67173586
 20
-11.05377328
 30
0.0
 11
52.61326972
 21
-10.95017757
 31
0.0
  0
LINE
  5
491
100
AcDbEntity
  8
レイヤー_1
  6
CONTINUOUS
 62
       3
100
AcDbLine
 10
52.61326972
 20
-10.95017757
 30
0.0
 11
52.54553308
 21
-10.85300403
 31
0.0
  0
LINE
  5
492
100
AcDbEntity
  8
レイヤー_1
  6
CONTINUOUS
 62
       3
100
AcDbLine
 10
52.54553308
 20
-10.85300403
 30
0.0
 11
52.46912457
 21
-10.76285224
 31
0.0
  0
LINE
  5
493
100
AcDbEntity
  8
レイヤー_1
  6
CONTINUOUS
 62
       3
100
AcDbLine
 10
52.46912457
 20
-10.76285224
 30
0.0
 11
52.3846428
 21
-10.68032178
 31
0.0
  0
LINE
  5
494
100
AcDbEntity
  8
レイヤー_1
  6
CONTINUOUS
 62
       3
100
AcDbLine
 10
52.3846428
 20
-10.68032178
 30
0.0
 11
52.29268638
 21
-10.60601223
 31
0.0
  0
LINE
  5
495
100
AcDbEntity
  8
レイヤー_1
  6
CONTINUOUS
 62
       3
100
AcDbLine
 10
52.29268638
 20
-10.60601223
 30
0.0
 11
52.19385392
 21
-10.54052317
 31
0.0
  0
LINE
  5
496
100
AcDbEntity
  8
レイヤー_1
  6
CONTINUOUS
 62
       3
100
AcDbLine
 10
52.19385392
 20
-10.54052317
 30
0.0
 11
52.08874405
 21
-10.48445417
 31
0.0
  0
LINE
  5
497
100
AcDbEntity
  8
レイヤー_1
  6
CONTINUOUS
 62
       3
100
AcDbLine
 10
52.08874405
 20
-10.48445417
 30
0.0
 11
51.97795537
 21
-10.43840482
 31
0.0
  0
LINE
  5
498
100
AcDbEntity
  8
レイヤー_1
  6
CONTINUOUS
 62
       3
100
AcDbLine
 10
51.97795537
 20
-10.43840482
 30
0.0
 11
51.8620865
 21
-10.40297468
 31
0.0
  0
LINE
  5
499
100
AcDbEntity
  8
レイヤー_1
  6
CONTINUOUS
 62
       3
100
AcDbLine
 10
51.8620865
 20
-10.40297468
 30
0.0
 11
51.74173605
 21
-10.37876334
 31
0.0
  0
LINE
  5
49A
100
AcDbEntity
  8
レイヤー_1
  6
CONTINUOUS
 62
       3
100
AcDbLine
 10
51.74173605
 20
-10.37876334
 30
0.0
 11
51.61750264
 21
-10.36637037
 31
0.0
  0
LINE
  5
49B
100
AcDbEntity
  8
レイヤー_1
  6
CONTINUOUS
 62
       3
100
AcDbLine
 10
51.61750264
 20
-10.36637037
 30
0.0
 11
51.49081336
 21
-10.36637037
 31
0.0
  0
LINE
  5
49C
100
AcDbEntity
  8
レイヤー_1
  6
CONTINUOUS
 62
       3
100
AcDbLine
 10
51.49081336
 20
-10.36637037
 30
0.0
 11
51.36672937
 21
-10.37876334
 31
0.0
  0
LINE
  5
49D
100
AcDbEntity
  8
レイヤー_1
  6
CONTINUOUS
 62
       3
100
AcDbLine
 10
51.36672937
 20
-10.37876334
 30
0.0
 11
51.2465094
 21
-10.40297468
 31
0.0
  0
LINE
  5
49E
100
AcDbEntity
  8
レイヤー_1
  6
CONTINUOUS
 62
       3
100
AcDbLine
 10
51.2465094
 20
-10.40297468
 30
0.0
 11
51.13075335
 21
-10.43840482
 31
0.0
  0
LINE
  5
49F
100
AcDbEntity
  8
レイヤー_1
  6
CONTINUOUS
 62
       3
100
AcDbLine
 10
51.13075335
 20
-10.43840482
 30
0.0
 11
51.0200611
 21
-10.48445417
 31
0.0
  0
LINE
  5
4A0
100
AcDbEntity
  8
レイヤー_1
  6
CONTINUOUS
 62
       3
100
AcDbLine
 10
51.0200611
 20
-10.48445417
 30
0.0
 11
50.91503257
 21
-10.54052317
 31
0.0
  0
LINE
  5
4A1
100
AcDbEntity
  8
レイヤー_1
  6
CONTINUOUS
 62
       3
100
AcDbLine
 10
50.91503257
 20
-10.54052317
 30
0.0
 11
50.81626765
 21
-10.60601223
 31
0.0
  0
LINE
  5
4A2
100
AcDbEntity
  8
レイヤー_1
  6
CONTINUOUS
 62
       3
100
AcDbLine
 10
50.81626765
 20
-10.60601223
 30
0.0
 11
50.72436624
 21
-10.68032178
 31
0.0
  0
LINE
  5
4A3
100
AcDbEntity
  8
レイヤー_1
  6
CONTINUOUS
 62
       3
100
AcDbLine
 10
50.72436624
 20
-10.68032178
 30
0.0
 11
50.63992824
 21
-10.76285224
 31
0.0
  0
LINE
  5
4A4
100
AcDbEntity
  8
レイヤー_1
  6
CONTINUOUS
 62
       3
100
AcDbLine
 10
50.63992824
 20
-10.76285224
 30
0.0
 11
50.56355354
 21
-10.85300403
 31
0.0
  0
LINE
  5
4A5
100
AcDbEntity
  8
レイヤー_1
  6
CONTINUOUS
 62
       3
100
AcDbLine
 10
50.56355354
 20
-10.85300403
 30
0.0
 11
50.49584205
 21
-10.95017757
 31
0.0
  0
LINE
  5
4A6
100
AcDbEntity
  8
レイヤー_1
  6
CONTINUOUS
 62
       3
100
AcDbLine
 10
50.49584205
 20
-10.95017757
 30
0.0
 11
50.43739366
 21
-11.05377328
 31
0.0
  0
LINE
  5
4A7
100
AcDbEntity
  8
レイヤー_1
  6
CONTINUOUS
 62
       3
100
AcDbLine
 10
50.43739366
 20
-11.05377328
 30
0.0
 11
50.38880827
 21
-11.1631916
 31
0.0
  0
LINE
  5
4A8
100
AcDbEntity
  8
レイヤー_1
  6
CONTINUOUS
 62
       3
100
AcDbLine
 10
50.38880827
 20
-11.1631916
 30
0.0
 11
50.35068579
 21
-11.27783293
 31
0.0
  0
LINE
  5
4A9
100
AcDbEntity
  8
レイヤー_1
  6
CONTINUOUS
 62
       3
100
AcDbLine
 10
50.35068579
 20
-11.27783293
 30
0.0
 11
50.32362611
 21
-11.39709771
 31
0.0
  0
LINE
  5
4AA
100
AcDbEntity
  8
レイヤー_1
  6
CONTINUOUS
 62
       3
100
AcDbLine
 10
50.32362611
 20
-11.39709771
 30
0.0
 11
50.30822912
 21
-11.52038635
 31
0.0
  0
LINE
  5
4AB
100
AcDbEntity
  8
レイヤー_1
  6
CONTINUOUS
 62
       3
100
AcDbLine
 10
50.30822912
 20
-11.52038635
 30
0.0
 11
50.30509161
 21
-11.64688206
 31
0.0
  0
LINE
  5
4AC
100
AcDbEntity
  8
レイヤー_1
  6
CONTINUOUS
 62
       3
100
AcDbLine
 10
50.30509161
 20
-11.64688206
 30
0.0
 11
50.31443228
 21
-11.77184202
 31
0.0
  0
LINE
  5
4AD
100
AcDbEntity
  8
レイヤー_1
  6
CONTINUOUS
 62
       3
100
AcDbLine
 10
50.31443228
 20
-11.77184202
 30
0.0
 11
50.3357356
 21
-11.89309236
 31
0.0
  0
LINE
  5
4AE
100
AcDbEntity
  8
レイヤー_1
  6
CONTINUOUS
 62
       3
100
AcDbLine
 10
50.3357356
 20
-11.89309236
 30
0.0
 11
50.36840168
 21
-12.01003253
 31
0.0
  0
LINE
  5
4AF
100
AcDbEntity
  8
レイヤー_1
  6
CONTINUOUS
 62
       3
100
AcDbLine
 10
50.36840168
 20
-12.01003253
 30
0.0
 11
50.4118306
 21
-12.12206199
 31
0.0
  0
LINE
  5
4B0
100
AcDbEntity
  8
レイヤー_1
  6
CONTINUOUS
 62
       3
100
AcDbLine
 10
50.4118306
 20
-12.12206199
 30
0.0
 11
50.46542247
 21
-12.22858021
 31
0.0
  0
LINE
  5
4B1
100
AcDbEntity
  8
レイヤー_1
  6
CONTINUOUS
 62
       3
100
AcDbLine
 10
50.46542247
 20
-12.22858021
 30
0.0
 11
50.5285774
 21
-12.32898663
 31
0.0
  0
LINE
  5
4B2
100
AcDbEntity
  8
レイヤー_1
  6
CONTINUOUS
 62
       3
100
AcDbLine
 10
50.5285774
 20
-12.32898663
 30
0.0
 11
50.60069548
 21
-12.42268073
 31
0.0
  0
LINE
  5
4B3
100
AcDbEntity
  8
レイヤー_1
  6
CONTINUOUS
 62
       3
100
AcDbLine
 10
50.60069548
 20
-12.42268073
 30
0.0
 11
50.68117682
 21
-12.50906195
 31
0.0
  0
LINE
  5
4B4
100
AcDbEntity
  8
レイヤー_1
  6
CONTINUOUS
 62
       3
100
AcDbLine
 10
50.68117682
 20
-12.50906195
 30
0.0
 11
50.76942151
 21
-12.58752977
 31
0.0
  0
LINE
  5
4B5
100
AcDbEntity
  8
レイヤー_1
  6
CONTINUOUS
 62
       3
100
AcDbLine
 10
50.76942151
 20
-12.58752977
 30
0.0
 11
50.86482967
 21
-12.65748363
 31
0.0
  0
LINE
  5
4B6
100
AcDbEntity
  8
レイヤー_1
  6
CONTINUOUS
 62
       3
100
AcDbLine
 10
50.86482967
 20
-12.65748363
 30
0.0
 11
50.96680138
 21
-12.71832299
 31
0.0
  0
LINE
  5
4B7
100
AcDbEntity
  8
レイヤー_1
  6
CONTINUOUS
 62
       3
100
AcDbLine
 10
50.96680138
 20
-12.71832299
 30
0.0
 11
51.07473675
 21
-12.76944732
 31
0.0
  0
LINE
  5
4B8
100
AcDbEntity
  8
レイヤー_1
  6
CONTINUOUS
 62
       3
100
AcDbLine
 10
51.07473675
 20
-12.76944732
 30
0.0
 11
51.18803589
 21
-12.81025608
 31
0.0
  0
LINE
  5
4B9
100
AcDbEntity
  8
レイヤー_1
  6
CONTINUOUS
 62
       3
100
AcDbLine
 10
51.18803589
 20
-12.81025608
 30
0.0
 11
51.30609889
 21
-12.84014871
 31
0.0
  0
LINE
  5
4BA
100
AcDbEntity
  8
レイヤー_1
  6
CONTINUOUS
 62
       3
100
AcDbLine
 10
51.30609889
 20
-12.84014871
 30
0.0
 11
51.42832586
 21
-12.85852469
 31
0.0
  0
LINE
  5
4BB
100
AcDbEntity
  8
レイヤー_1
  6
CONTINUOUS
 62
       3
100
AcDbLine
 10
51.42832586
 20
-12.85852469
 30
0.0
 11
51.55411689
 21
-12.86478347
 31
0.0
  0
LINE
  5
4BC
100
AcDbEntity
  8
レイヤー_1
  6
CONTINUOUS
 62
       3
100
AcDbLine
 10
51.55411689
 20
-7.61514828
 30
0.0
 11
51.65493396
 21
-7.61014022
 31
0.0
  0
LINE
  5
4BD
100
AcDbEntity
  8
レイヤー_1
  6
CONTINUOUS
 62
       3
100
AcDbLine
 10
51.65493396
 20
-7.61014022
 30
0.0
 11
51.75286347
 21
-7.5954363
 31
0.0
  0
LINE
  5
4BE
100
AcDbEntity
  8
レイヤー_1
  6
CONTINUOUS
 62
       3
100
AcDbLine
 10
51.75286347
 20
-7.5954363
 30
0.0
 11
51.84742882
 21
-7.57151697
 31
0.0
  0
LINE
  5
4BF
100
AcDbEntity
  8
レイヤー_1
  6
CONTINUOUS
 62
       3
100
AcDbLine
 10
51.84742882
 20
-7.57151697
 30
0.0
 11
51.93815343
 21
-7.53886266
 31
0.0
  0
LINE
  5
4C0
100
AcDbEntity
  8
レイヤー_1
  6
CONTINUOUS
 62
       3
100
AcDbLine
 10
51.93815343
 20
-7.53886266
 30
0.0
 11
52.02456074
 21
-7.49795381
 31
0.0
  0
LINE
  5
4C1
100
AcDbEntity
  8
レイヤー_1
  6
CONTINUOUS
 62
       3
100
AcDbLine
 10
52.02456074
 20
-7.49795381
 30
0.0
 11
52.10617415
 21
-7.44927083
 31
0.0
  0
LINE
  5
4C2
100
AcDbEntity
  8
レイヤー_1
  6
CONTINUOUS
 62
       3
100
AcDbLine
 10
52.10617415
 20
-7.44927083
 30
0.0
 11
52.18251709
 21
-7.39329418
 31
0.0
  0
LINE
  5
4C3
100
AcDbEntity
  8
レイヤー_1
  6
CONTINUOUS
 62
       3
100
AcDbLine
 10
52.18251709
 20
-7.39329418
 30
0.0
 11
52.25311299
 21
-7.33050427
 31
0.0
  0
LINE
  5
4C4
100
AcDbEntity
  8
レイヤー_1
  6
CONTINUOUS
 62
       3
100
AcDbLine
 10
52.25311299
 20
-7.33050427
 30
0.0
 11
52.31748526
 21
-7.26138155
 31
0.0
  0
LINE
  5
4C5
100
AcDbEntity
  8
レイヤー_1
  6
CONTINUOUS
 62
       3
100
AcDbLine
 10
52.31748526
 20
-7.26138155
 30
0.0
 11
52.37515732
 21
-7.18640644
 31
0.0
  0
LINE
  5
4C6
100
AcDbEntity
  8
レイヤー_1
  6
CONTINUOUS
 62
       3
100
AcDbLine
 10
52.37515732
 20
-7.18640644
 30
0.0
 11
52.42565259
 21
-7.10605938
 31
0.0
  0
LINE
  5
4C7
100
AcDbEntity
  8
レイヤー_1
  6
CONTINUOUS
 62
       3
100
AcDbLine
 10
52.42565259
 20
-7.10605938
 30
0.0
 11
52.4684945
 21
-7.0208208
 31
0.0
  0
LINE
  5
4C8
100
AcDbEntity
  8
レイヤー_1
  6
CONTINUOUS
 62
       3
100
AcDbLine
 10
52.4684945
 20
-7.0208208
 30
0.0
 11
52.50320647
 21
-6.93117114
 31
0.0
  0
LINE
  5
4C9
100
AcDbEntity
  8
レイヤー_1
  6
CONTINUOUS
 62
       3
100
AcDbLine
 10
52.50320647
 20
-6.93117114
 30
0.0
 11
52.52931191
 21
-6.83759082
 31
0.0
  0
LINE
  5
4CA
100
AcDbEntity
  8
レイヤー_1
  6
CONTINUOUS
 62
       3
100
AcDbLine
 10
52.52931191
 20
-6.83759082
 30
0.0
 11
52.54633425
 21
-6.74056029
 31
0.0
  0
LINE
  5
4CB
100
AcDbEntity
  8
レイヤー_1
  6
CONTINUOUS
 62
       3
100
AcDbLine
 10
52.54633425
 20
-6.74056029
 30
0.0
 11
52.55379691
 21
-6.64055996
 31
0.0
  0
LINE
  5
4CC
100
AcDbEntity
  8
レイヤー_1
  6
CONTINUOUS
 62
       3
100
AcDbLine
 10
52.55379691
 20
-6.64055996
 30
0.0
 11
52.55129032
 21
-6.53937405
 31
0.0
  0
LINE
  5
4CD
100
AcDbEntity
  8
レイヤー_1
  6
CONTINUOUS
 62
       3
100
AcDbLine
 10
52.55129032
 20
-6.53937405
 30
0.0
 11
52.53898825
 21
-6.44076842
 31
0.0
  0
LINE
  5
4CE
100
AcDbEntity
  8
レイヤー_1
  6
CONTINUOUS
 62
       3
100
AcDbLine
 10
52.53898825
 20
-6.44076842
 30
0.0
 11
52.51736479
 21
-6.34538154
 31
0.0
  0
LINE
  5
4CF
100
AcDbEntity
  8
レイヤー_1
  6
CONTINUOUS
 62
       3
100
AcDbLine
 10
52.51736479
 20
-6.34538154
 30
0.0
 11
52.48689651
 21
-6.25369289
 31
0.0
  0
LINE
  5
4D0
100
AcDbEntity
  8
レイヤー_1
  6
CONTINUOUS
 62
       3
100
AcDbLine
 10
52.48689651
 20
-6.25369289
 30
0.0
 11
52.44806
 21
-6.16618193
 31
0.0
  0
LINE
  5
4D1
100
AcDbEntity
  8
レイヤー_1
  6
CONTINUOUS
 62
       3
100
AcDbLine
 10
52.44806
 20
-6.16618193
 30
0.0
 11
52.40133184
 21
-6.08332813
 31
0.0
  0
LINE
  5
4D2
100
AcDbEntity
  8
レイヤー_1
  6
CONTINUOUS
 62
       3
100
AcDbLine
 10
52.40133184
 20
-6.08332813
 30
0.0
 11
52.3471886
 21
-6.00561097
 31
0.0
  0
LINE
  5
4D3
100
AcDbEntity
  8
レイヤー_1
  6
CONTINUOUS
 62
       3
100
AcDbLine
 10
52.3471886
 20
-6.00561097
 30
0.0
 11
52.28610686
 21
-5.93350991
 31
0.0
  0
LINE
  5
4D4
100
AcDbEntity
  8
レイヤー_1
  6
CONTINUOUS
 62
       3
100
AcDbLine
 10
52.28610686
 20
-5.93350991
 30
0.0
 11
52.21856321
 21
-5.86750442
 31
0.0
  0
LINE
  5
4D5
100
AcDbEntity
  8
レイヤー_1
  6
CONTINUOUS
 62
       3
100
AcDbLine
 10
52.21856321
 20
-5.86750442
 30
0.0
 11
52.14503422
 21
-5.80807397
 31
0.0
  0
LINE
  5
4D6
100
AcDbEntity
  8
レイヤー_1
  6
CONTINUOUS
 62
       3
100
AcDbLine
 10
52.14503422
 20
-5.80807397
 30
0.0
 11
52.06599647
 21
-5.75569803
 31
0.0
  0
LINE
  5
4D7
100
AcDbEntity
  8
レイヤー_1
  6
CONTINUOUS
 62
       3
100
AcDbLine
 10
52.06599647
 20
-5.75569803
 30
0.0
 11
51.98192653
 21
-5.71085607
 31
0.0
  0
LINE
  5
4D8
100
AcDbEntity
  8
レイヤー_1
  6
CONTINUOUS
 62
       3
100
AcDbLine
 10
51.98192653
 20
-5.71085607
 30
0.0
 11
51.893301
 21
-5.67402756
 31
0.0
  0
LINE
  5
4D9
100
AcDbEntity
  8
レイヤー_1
  6
CONTINUOUS
 62
       3
100
AcDbLine
 10
51.893301
 20
-5.67402756
 30
0.0
 11
51.80059645
 21
-5.64569197
 31
0.0
  0
LINE
  5
4DA
100
AcDbEntity
  8
レイヤー_1
  6
CONTINUOUS
 62
       3
100
AcDbLine
 10
51.80059645
 20
-5.64569197
 30
0.0
 11
51.70428945
 21
-5.62632876
 31
0.0
  0
LINE
  5
4DB
100
AcDbEntity
  8
レイヤー_1
  6
CONTINUOUS
 62
       3
100
AcDbLine
 10
51.70428945
 20
-5.62632876
 30
0.0
 11
51.60485659
 21
-5.61641741
 31
0.0
  0
LINE
  5
4DC
100
AcDbEntity
  8
レイヤー_1
  6
CONTINUOUS
 62
       3
100
AcDbLine
 10
51.60485659
 20
-5.61641741
 30
0.0
 11
51.50345813
 21
-5.61641741
 31
0.0
  0
LINE
  5
4DD
100
AcDbEntity
  8
レイヤー_1
  6
CONTINUOUS
 62
       3
100
AcDbLine
 10
51.50345813
 20
-5.61641741
 30
0.0
 11
51.40416495
 21
-5.62632876
 31
0.0
  0
LINE
  5
4DE
100
AcDbEntity
  8
レイヤー_1
  6
CONTINUOUS
 62
       3
100
AcDbLine
 10
51.40416495
 20
-5.62632876
 30
0.0
 11
51.30797018
 21
-5.64569197
 31
0.0
  0
LINE
  5
4DF
100
AcDbEntity
  8
レイヤー_1
  6
CONTINUOUS
 62
       3
100
AcDbLine
 10
51.30797018
 20
-5.64569197
 30
0.0
 11
51.21535297
 21
-5.67402756
 31
0.0
  0
LINE
  5
4E0
100
AcDbEntity
  8
レイヤー_1
  6
CONTINUOUS
 62
       3
100
AcDbLine
 10
51.21535297
 20
-5.67402756
 30
0.0
 11
51.12679245
 21
-5.71085607
 31
0.0
  0
LINE
  5
4E1
100
AcDbEntity
  8
レイヤー_1
  6
CONTINUOUS
 62
       3
100
AcDbLine
 10
51.12679245
 20
-5.71085607
 30
0.0
 11
51.04276779
 21
-5.75569803
 31
0.0
  0
LINE
  5
4E2
100
AcDbEntity
  8
レイヤー_1
  6
CONTINUOUS
 62
       3
100
AcDbLine
 10
51.04276779
 20
-5.75569803
 30
0.0
 11
50.96375812
 21
-5.80807397
 31
0.0
  0
LINE
  5
4E3
100
AcDbEntity
  8
レイヤー_1
  6
CONTINUOUS
 62
       3
100
AcDbLine
 10
50.96375812
 20
-5.80807397
 30
0.0
 11
50.89024261
 21
-5.86750442
 31
0.0
  0
LINE
  5
4E4
100
AcDbEntity
  8
レイヤー_1
  6
CONTINUOUS
 62
       3
100
AcDbLine
 10
50.89024261
 20
-5.86750442
 30
0.0
 11
50.82270038
 21
-5.93350991
 31
0.0
  0
LINE
  5
4E5
100
AcDbEntity
  8
レイヤー_1
  6
CONTINUOUS
 62
       3
100
AcDbLine
 10
50.82270038
 20
-5.93350991
 30
0.0
 11
50.76161061
 21
-6.00561097
 31
0.0
  0
LINE
  5
4E6
100
AcDbEntity
  8
レイヤー_1
  6
CONTINUOUS
 62
       3
100
AcDbLine
 10
50.76161061
 20
-6.00561097
 30
0.0
 11
50.70745242
 21
-6.08332813
 31
0.0
  0
LINE
  5
4E7
100
AcDbEntity
  8
レイヤー_1
  6
CONTINUOUS
 62
       3
100
AcDbLine
 10
50.70745242
 20
-6.08332813
 30
0.0
 11
50.66070497
 21
-6.16618193
 31
0.0
  0
LINE
  5
4E8
100
AcDbEntity
  8
レイヤー_1
  6
CONTINUOUS
 62
       3
100
AcDbLine
 10
50.66070497
 20
-6.16618193
 30
0.0
 11
50.62184742
 21
-6.25369289
 31
0.0
  0
LINE
  5
4E9
100
AcDbEntity
  8
レイヤー_1
  6
CONTINUOUS
 62
       3
100
AcDbLine
 10
50.62184742
 20
-6.25369289
 30
0.0
 11
50.59135889
 21
-6.34538154
 31
0.0
  0
LINE
  5
4EA
100
AcDbEntity
  8
レイヤー_1
  6
CONTINUOUS
 62
       3
100
AcDbLine
 10
50.59135889
 20
-6.34538154
 30
0.0
 11
50.56971856
 21
-6.44076842
 31
0.0
  0
LINE
  5
4EB
100
AcDbEntity
  8
レイヤー_1
  6
CONTINUOUS
 62
       3
100
AcDbLine
 10
50.56971856
 20
-6.44076842
 30
0.0
 11
50.55740555
 21
-6.53937405
 31
0.0
  0
LINE
  5
4EC
100
AcDbEntity
  8
レイヤー_1
  6
CONTINUOUS
 62
       3
100
AcDbLine
 10
50.55740555
 20
-6.53937405
 30
0.0
 11
50.55489654
 21
-6.64055996
 31
0.0
  0
LINE
  5
4ED
100
AcDbEntity
  8
レイヤー_1
  6
CONTINUOUS
 62
       3
100
AcDbLine
 10
50.55489654
 20
-6.64055996
 30
0.0
 11
50.56236619
 21
-6.74056029
 31
0.0
  0
LINE
  5
4EE
100
AcDbEntity
  8
レイヤー_1
  6
CONTINUOUS
 62
       3
100
AcDbLine
 10
50.56236619
 20
-6.74056029
 30
0.0
 11
50.57940276
 21
-6.83759082
 31
0.0
  0
LINE
  5
4EF
100
AcDbEntity
  8
レイヤー_1
  6
CONTINUOUS
 62
       3
100
AcDbLine
 10
50.57940276
 20
-6.83759082
 30
0.0
 11
50.60552708
 21
-6.93117114
 31
0.0
  0
LINE
  5
4F0
100
AcDbEntity
  8
レイヤー_1
  6
CONTINUOUS
 62
       3
100
AcDbLine
 10
50.60552708
 20
-6.93117114
 30
0.0
 11
50.64026001
 21
-7.0208208
 31
0.0
  0
LINE
  5
4F1
100
AcDbEntity
  8
レイヤー_1
  6
CONTINUOUS
 62
       3
100
AcDbLine
 10
50.64026001
 20
-7.0208208
 30
0.0
 11
50.68312241
 21
-7.10605938
 31
0.0
  0
LINE
  5
4F2
100
AcDbEntity
  8
レイヤー_1
  6
CONTINUOUS
 62
       3
100
AcDbLine
 10
50.68312241
 20
-7.10605938
 30
0.0
 11
50.73363512
 21
-7.18640644
 31
0.0
  0
LINE
  5
4F3
100
AcDbEntity
  8
レイヤー_1
  6
CONTINUOUS
 62
       3
100
AcDbLine
 10
50.73363512
 20
-7.18640644
 30
0.0
 11
50.79131899
 21
-7.26138155
 31
0.0
  0
LINE
  5
4F4
100
AcDbEntity
  8
レイヤー_1
  6
CONTINUOUS
 62
       3
100
AcDbLine
 10
50.79131899
 20
-7.26138155
 30
0.0
 11
50.85569489
 21
-7.33050427
 31
0.0
  0
LINE
  5
4F5
100
AcDbEntity
  8
レイヤー_1
  6
CONTINUOUS
 62
       3
100
AcDbLine
 10
50.85569489
 20
-7.33050427
 30
0.0
 11
50.92628365
 21
-7.39329418
 31
0.0
  0
LINE
  5
4F6
100
AcDbEntity
  8
レイヤー_1
  6
CONTINUOUS
 62
       3
100
AcDbLine
 10
50.92628365
 20
-7.39329418
 30
0.0
 11
51.00260613
 21
-7.44927083
 31
0.0
  0
LINE
  5
4F7
100
AcDbEntity
  8
レイヤー_1
  6
CONTINUOUS
 62
       3
100
AcDbLine
 10
51.00260613
 20
-7.44927083
 30
0.0
 11
51.08418319
 21
-7.49795381
 31
0.0
  0
LINE
  5
4F8
100
AcDbEntity
  8
レイヤー_1
  6
CONTINUOUS
 62
       3
100
AcDbLine
 10
51.08418319
 20
-7.49795381
 30
0.0
 11
51.17053567
 21
-7.53886266
 31
0.0
  0
LINE
  5
4F9
100
AcDbEntity
  8
レイヤー_1
  6
CONTINUOUS
 62
       3
100
AcDbLine
 10
51.17053567
 20
-7.53886266
 30
0.0
 11
51.26118443
 21
-7.57151697
 31
0.0
  0
LINE
  5
4FA
100
AcDbEntity
  8
レイヤー_1
  6
CONTINUOUS
 62
       3
100
AcDbLine
 10
51.26118443
 20
-7.57151697
 30
0.0
 11
51.35565032
 21
-7.5954363
 31
0.0
  0
LINE
  5
4FB
100
AcDbEntity
  8
レイヤー_1
  6
CONTINUOUS
 62
       3
100
AcDbLine
 10
51.35565032
 20
-7.5954363
 30
0.0
 11
51.45345419
 21
-7.61014022
 31
0.0
  0
LINE
  5
4FC
100
AcDbEntity
  8
レイヤー_1
  6
CONTINUOUS
 62
       3
100
AcDbLine
 10
51.45345419
 20
-7.61014022
 30
0.0
 11
51.55411689
 21
-7.61514828
 31
0.0
  0
LINE
  5
4FD
100
AcDbEntity
  8
レイヤー_1
  6
CONTINUOUS
 62
       3
100
AcDbLine
 10
47.5545917
 20
-15.11511928
 30
0.0
 11
47.65525941
 21
-15.11011121
 31
0.0
  0
LINE
  5
4FE
100
AcDbEntity
  8
レイヤー_1
  6
CONTINUOUS
 62
       3
100
AcDbLine
 10
47.65525941
 20
-15.11011121
 30
0.0
 11
47.75307743
 21
-15.0954073
 31
0.0
  0
LINE
  5
4FF
100
AcDbEntity
  8
レイヤー_1
  6
CONTINUOUS
 62
       3
100
AcDbLine
 10
47.75307743
 20
-15.0954073
 30
0.0
 11
47.84756534
 21
-15.07148797
 31
0.0
  0
LINE
  5
500
100
AcDbEntity
  8
レイヤー_1
  6
CONTINUOUS
 62
       3
100
AcDbLine
 10
47.84756534
 20
-15.07148797
 30
0.0
 11
47.93824271
 21
-15.03883366
 31
0.0
  0
LINE
  5
501
100
AcDbEntity
  8
レイヤー_1
  6
CONTINUOUS
 62
       3
100
AcDbLine
 10
47.93824271
 20
-15.03883366
 30
0.0
 11
48.0246291
 21
-14.9979248
 31
0.0
  0
LINE
  5
502
100
AcDbEntity
  8
レイヤー_1
  6
CONTINUOUS
 62
       3
100
AcDbLine
 10
48.0246291
 20
-14.9979248
 30
0.0
 11
48.10624408
 21
-14.94924183
 31
0.0
  0
LINE
  5
503
100
AcDbEntity
  8
レイヤー_1
  6
CONTINUOUS
 62
       3
100
AcDbLine
 10
48.10624408
 20
-14.94924183
 30
0.0
 11
48.18260722
 21
-14.89326517
 31
0.0
  0
LINE
  5
504
100
AcDbEntity
  8
レイヤー_1
  6
CONTINUOUS
 62
       3
100
AcDbLine
 10
48.18260722
 20
-14.89326517
 30
0.0
 11
48.25323808
 21
-14.83047527
 31
0.0
  0
LINE
  5
505
100
AcDbEntity
  8
レイヤー_1
  6
CONTINUOUS
 62
       3
100
AcDbLine
 10
48.25323808
 20
-14.83047527
 30
0.0
 11
48.31765623
 21
-14.76135255
 31
0.0
  0
LINE
  5
506
100
AcDbEntity
  8
レイヤー_1
  6
CONTINUOUS
 62
       3
100
AcDbLine
 10
48.31765623
 20
-14.76135255
 30
0.0
 11
48.37538124
 21
-14.68637744
 31
0.0
  0
LINE
  5
507
100
AcDbEntity
  8
レイヤー_1
  6
CONTINUOUS
 62
       3
100
AcDbLine
 10
48.37538124
 20
-14.68637744
 30
0.0
 11
48.42593267
 21
-14.60603038
 31
0.0
  0
LINE
  5
508
100
AcDbEntity
  8
レイヤー_1
  6
CONTINUOUS
 62
       3
100
AcDbLine
 10
48.42593267
 20
-14.60603038
 30
0.0
 11
48.4688301
 21
-14.5207918
 31
0.0
  0
LINE
  5
509
100
AcDbEntity
  8
レイヤー_1
  6
CONTINUOUS
 62
       3
100
AcDbLine
 10
48.4688301
 20
-14.5207918
 30
0.0
 11
48.50359309
 21
-14.43114214
 31
0.0
  0
LINE
  5
50A
100
AcDbEntity
  8
レイヤー_1
  6
CONTINUOUS
 62
       3
100
AcDbLine
 10
48.50359309
 20
-14.43114214
 30
0.0
 11
48.5297412
 21
-14.33756182
 31
0.0
  0
LINE
  5
50B
100
AcDbEntity
  8
レイヤー_1
  6
CONTINUOUS
 62
       3
100
AcDbLine
 10
48.5297412
 20
-14.33756182
 30
0.0
 11
48.54679401
 21
-14.24053128
 31
0.0
  0
LINE
  5
50C
100
AcDbEntity
  8
レイヤー_1
  6
CONTINUOUS
 62
       3
100
AcDbLine
 10
48.54679401
 20
-14.24053128
 30
0.0
 11
48.55427108
 21
-14.14053096
 31
0.0
  0
LINE
  5
50D
100
AcDbEntity
  8
レイヤー_1
  6
CONTINUOUS
 62
       3
100
AcDbLine
 10
48.55427108
 20
-14.14053096
 30
0.0
 11
48.55175954
 21
-14.03937398
 31
0.0
  0
LINE
  5
50E
100
AcDbEntity
  8
レイヤー_1
  6
CONTINUOUS
 62
       3
100
AcDbLine
 10
48.55175954
 20
-14.03937398
 30
0.0
 11
48.53943454
 21
-13.94079849
 31
0.0
  0
LINE
  5
50F
100
AcDbEntity
  8
レイヤー_1
  6
CONTINUOUS
 62
       3
100
AcDbLine
 10
48.53943454
 20
-13.94079849
 30
0.0
 11
48.51777403
 21
-13.84543301
 31
0.0
  0
LINE
  5
510
100
AcDbEntity
  8
レイヤー_1
  6
CONTINUOUS
 62
       3
100
AcDbLine
 10
48.51777403
 20
-13.84543301
 30
0.0
 11
48.48725842
 21
-13.75375797
 31
0.0
  0
LINE
  5
511
100
AcDbEntity
  8
レイヤー_1
  6
CONTINUOUS
 62
       3
100
AcDbLine
 10
48.48725842
 20
-13.75375797
 30
0.0
 11
48.44836816
 21
-13.66625379
 31
0.0
  0
LINE
  5
512
100
AcDbEntity
  8
レイヤー_1
  6
CONTINUOUS
 62
       3
100
AcDbLine
 10
48.44836816
 20
-13.66625379
 30
0.0
 11
48.40158368
 21
-13.58340092
 31
0.0
  0
LINE
  5
513
100
AcDbEntity
  8
レイヤー_1
  6
CONTINUOUS
 62
       3
100
AcDbLine
 10
48.40158368
 20
-13.58340092
 30
0.0
 11
48.3473854
 21
-13.50567978
 31
0.0
  0
LINE
  5
514
100
AcDbEntity
  8
レイヤー_1
  6
CONTINUOUS
 62
       3
100
AcDbLine
 10
48.3473854
 20
-13.50567978
 30
0.0
 11
48.28625377
 21
-13.43357081
 31
0.0
  0
LINE
  5
515
100
AcDbEntity
  8
レイヤー_1
  6
CONTINUOUS
 62
       3
100
AcDbLine
 10
48.28625377
 20
-13.43357081
 30
0.0
 11
48.21866921
 21
-13.36755445
 31
0.0
  0
LINE
  5
516
100
AcDbEntity
  8
レイヤー_1
  6
CONTINUOUS
 62
       3
100
AcDbLine
 10
48.21866921
 20
-13.36755445
 30
0.0
 11
48.14511216
 21
-13.30811111
 31
0.0
  0
LINE
  5
517
100
AcDbEntity
  8
レイヤー_1
  6
CONTINUOUS
 62
       3
100
AcDbLine
 10
48.14511216
 20
-13.30811111
 30
0.0
 11
48.06606304
 21
-13.25572124
 31
0.0
  0
LINE
  5
518
100
AcDbEntity
  8
レイヤー_1
  6
CONTINUOUS
 62
       3
100
AcDbLine
 10
48.06606304
 20
-13.25572124
 30
0.0
 11
47.98200231
 21
-13.21086527
 31
0.0
  0
LINE
  5
519
100
AcDbEntity
  8
レイヤー_1
  6
CONTINUOUS
 62
       3
100
AcDbLine
 10
47.98200231
 20
-13.21086527
 30
0.0
 11
47.89341037
 21
-13.17402363
 31
0.0
  0
LINE
  5
51A
100
AcDbEntity
  8
レイヤー_1
  6
CONTINUOUS
 62
       3
100
AcDbLine
 10
47.89341037
 20
-13.17402363
 30
0.0
 11
47.80076768
 21
-13.14567676
 31
0.0
  0
LINE
  5
51B
100
AcDbEntity
  8
レイヤー_1
  6
CONTINUOUS
 62
       3
100
AcDbLine
 10
47.80076768
 20
-13.14567676
 30
0.0
 11
47.70455466
 21
-13.12630509
 31
0.0
  0
LINE
  5
51C
100
AcDbEntity
  8
レイヤー_1
  6
CONTINUOUS
 62
       3
100
AcDbLine
 10
47.70455466
 20
-13.12630509
 30
0.0
 11
47.60525174
 21
-13.11638904
 31
0.0
  0
LINE
  5
51D
100
AcDbEntity
  8
レイヤー_1
  6
CONTINUOUS
 62
       3
100
AcDbLine
 10
47.60525174
 20
-13.11638904
 30
0.0
 11
47.50393167
 21
-13.11638904
 31
0.0
  0
LINE
  5
51E
100
AcDbEntity
  8
レイヤー_1
  6
CONTINUOUS
 62
       3
100
AcDbLine
 10
47.50393167
 20
-13.11638904
 30
0.0
 11
47.40462875
 21
-13.12630509
 31
0.0
  0
LINE
  5
51F
100
AcDbEntity
  8
レイヤー_1
  6
CONTINUOUS
 62
       3
100
AcDbLine
 10
47.40462875
 20
-13.12630509
 30
0.0
 11
47.30841573
 21
-13.14567676
 31
0.0
  0
LINE
  5
520
100
AcDbEntity
  8
レイヤー_1
  6
CONTINUOUS
 62
       3
100
AcDbLine
 10
47.30841573
 20
-13.14567676
 30
0.0
 11
47.21577303
 21
-13.17402363
 31
0.0
  0
LINE
  5
521
100
AcDbEntity
  8
レイヤー_1
  6
CONTINUOUS
 62
       3
100
AcDbLine
 10
47.21577303
 20
-13.17402363
 30
0.0
 11
47.1271811
 21
-13.21086527
 31
0.0
  0
LINE
  5
522
100
AcDbEntity
  8
レイヤー_1
  6
CONTINUOUS
 62
       3
100
AcDbLine
 10
47.1271811
 20
-13.21086527
 30
0.0
 11
47.04312036
 21
-13.25572124
 31
0.0
  0
LINE
  5
523
100
AcDbEntity
  8
レイヤー_1
  6
CONTINUOUS
 62
       3
100
AcDbLine
 10
47.04312036
 20
-13.25572124
 30
0.0
 11
46.96407125
 21
-13.30811111
 31
0.0
  0
LINE
  5
524
100
AcDbEntity
  8
レイヤー_1
  6
CONTINUOUS
 62
       3
100
AcDbLine
 10
46.96407125
 20
-13.30811111
 30
0.0
 11
46.8905142
 21
-13.36755445
 31
0.0
  0
LINE
  5
525
100
AcDbEntity
  8
レイヤー_1
  6
CONTINUOUS
 62
       3
100
AcDbLine
 10
46.8905142
 20
-13.36755445
 30
0.0
 11
46.82292964
 21
-13.43357081
 31
0.0
  0
LINE
  5
526
100
AcDbEntity
  8
レイヤー_1
  6
CONTINUOUS
 62
       3
100
AcDbLine
 10
46.82292964
 20
-13.43357081
 30
0.0
 11
46.761798
 21
-13.50567978
 31
0.0
  0
LINE
  5
527
100
AcDbEntity
  8
レイヤー_1
  6
CONTINUOUS
 62
       3
100
AcDbLine
 10
46.761798
 20
-13.50567978
 30
0.0
 11
46.70759973
 21
-13.58340092
 31
0.0
  0
LINE
  5
528
100
AcDbEntity
  8
レイヤー_1
  6
CONTINUOUS
 62
       3
100
AcDbLine
 10
46.70759973
 20
-13.58340092
 30
0.0
 11
46.66081524
 21
-13.66625379
 31
0.0
  0
LINE
  5
529
100
AcDbEntity
  8
レイヤー_1
  6
CONTINUOUS
 62
       3
100
AcDbLine
 10
46.66081524
 20
-13.66625379
 30
0.0
 11
46.62192498
 21
-13.75375797
 31
0.0
  0
LINE
  5
52A
100
AcDbEntity
  8
レイヤー_1
  6
CONTINUOUS
 62
       3
100
AcDbLine
 10
46.62192498
 20
-13.75375797
 30
0.0
 11
46.59140938
 21
-13.84543301
 31
0.0
  0
LINE
  5
52B
100
AcDbEntity
  8
レイヤー_1
  6
CONTINUOUS
 62
       3
100
AcDbLine
 10
46.59140938
 20
-13.84543301
 30
0.0
 11
46.56974886
 21
-13.94079849
 31
0.0
  0
LINE
  5
52C
100
AcDbEntity
  8
レイヤー_1
  6
CONTINUOUS
 62
       3
100
AcDbLine
 10
46.56974886
 20
-13.94079849
 30
0.0
 11
46.55742387
 21
-14.03937398
 31
0.0
  0
LINE
  5
52D
100
AcDbEntity
  8
レイヤー_1
  6
CONTINUOUS
 62
       3
100
AcDbLine
 10
46.55742387
 20
-14.03937398
 30
0.0
 11
46.55491233
 21
-14.14053096
 31
0.0
  0
LINE
  5
52E
100
AcDbEntity
  8
レイヤー_1
  6
CONTINUOUS
 62
       3
100
AcDbLine
 10
46.55491233
 20
-14.14053096
 30
0.0
 11
46.5623894
 21
-14.24053128
 31
0.0
  0
LINE
  5
52F
100
AcDbEntity
  8
レイヤー_1
  6
CONTINUOUS
 62
       3
100
AcDbLine
 10
46.5623894
 20
-14.24053128
 30
0.0
 11
46.57944221
 21
-14.33756182
 31
0.0
  0
LINE
  5
530
100
AcDbEntity
  8
レイヤー_1
  6
CONTINUOUS
 62
       3
100
AcDbLine
 10
46.57944221
 20
-14.33756182
 30
0.0
 11
46.60559032
 21
-14.43114214
 31
0.0
  0
LINE
  5
531
100
AcDbEntity
  8
レイヤー_1
  6
CONTINUOUS
 62
       3
100
AcDbLine
 10
46.60559032
 20
-14.43114214
 30
0.0
 11
46.64035331
 21
-14.5207918
 31
0.0
  0
LINE
  5
532
100
AcDbEntity
  8
レイヤー_1
  6
CONTINUOUS
 62
       3
100
AcDbLine
 10
46.64035331
 20
-14.5207918
 30
0.0
 11
46.68325073
 21
-14.60603038
 31
0.0
  0
LINE
  5
533
100
AcDbEntity
  8
レイヤー_1
  6
CONTINUOUS
 62
       3
100
AcDbLine
 10
46.68325073
 20
-14.60603038
 30
0.0
 11
46.73380217
 21
-14.68637744
 31
0.0
  0
LINE
  5
534
100
AcDbEntity
  8
レイヤー_1
  6
CONTINUOUS
 62
       3
100
AcDbLine
 10
46.73380217
 20
-14.68637744
 30
0.0
 11
46.79152718
 21
-14.76135255
 31
0.0
  0
LINE
  5
535
100
AcDbEntity
  8
レイヤー_1
  6
CONTINUOUS
 62
       3
100
AcDbLine
 10
46.79152718
 20
-14.76135255
 30
0.0
 11
46.85594533
 21
-14.83047527
 31
0.0
  0
LINE
  5
536
100
AcDbEntity
  8
レイヤー_1
  6
CONTINUOUS
 62
       3
100
AcDbLine
 10
46.85594533
 20
-14.83047527
 30
0.0
 11
46.92657619
 21
-14.89326517
 31
0.0
  0
LINE
  5
537
100
AcDbEntity
  8
レイヤー_1
  6
CONTINUOUS
 62
       3
100
AcDbLine
 10
46.92657619
 20
-14.89326517
 30
0.0
 11
47.00293932
 21
-14.94924183
 31
0.0
  0
LINE
  5
538
100
AcDbEntity
  8
レイヤー_1
  6
CONTINUOUS
 62
       3
100
AcDbLine
 10
47.00293932
 20
-14.94924183
 30
0.0
 11
47.0845543
 21
-14.9979248
 31
0.0
  0
LINE
  5
539
100
AcDbEntity
  8
レイヤー_1
  6
CONTINUOUS
 62
       3
100
AcDbLine
 10
47.0845543
 20
-14.9979248
 30
0.0
 11
47.17094069
 21
-15.03883366
 31
0.0
  0
LINE
  5
53A
100
AcDbEntity
  8
レイヤー_1
  6
CONTINUOUS
 62
       3
100
AcDbLine
 10
47.17094069
 20
-15.03883366
 30
0.0
 11
47.26161806
 21
-15.07148797
 31
0.0
  0
LINE
  5
53B
100
AcDbEntity
  8
レイヤー_1
  6
CONTINUOUS
 62
       3
100
AcDbLine
 10
47.26161806
 20
-15.07148797
 30
0.0
 11
47.35610597
 21
-15.0954073
 31
0.0
  0
LINE
  5
53C
100
AcDbEntity
  8
レイヤー_1
  6
CONTINUOUS
 62
       3
100
AcDbLine
 10
47.35610597
 20
-15.0954073
 30
0.0
 11
47.453924
 21
-15.11011121
 31
0.0
  0
LINE
  5
53D
100
AcDbEntity
  8
レイヤー_1
  6
CONTINUOUS
 62
       3
100
AcDbLine
 10
47.453924
 20
-15.11011121
 30
0.0
 11
47.5545917
 21
-15.11511928
 31
0.0
  0
LINE
  5
53E
100
AcDbEntity
  8
レイヤー_1
  6
CONTINUOUS
 62
       3
100
AcDbLine
 10
47.5545917
 20
-10.11513862
 30
0.0
 11
47.65525941
 21
-10.11013055
 31
0.0
  0
LINE
  5
53F
100
AcDbEntity
  8
レイヤー_1
  6
CONTINUOUS
 62
       3
100
AcDbLine
 10
47.65525941
 20
-10.11013055
 30
0.0
 11
47.75307743
 21
-10.09542663
 31
0.0
  0
LINE
  5
540
100
AcDbEntity
  8
レイヤー_1
  6
CONTINUOUS
 62
       3
100
AcDbLine
 10
47.75307743
 20
-10.09542663
 30
0.0
 11
47.84756534
 21
-10.07150731
 31
0.0
  0
LINE
  5
541
100
AcDbEntity
  8
レイヤー_1
  6
CONTINUOUS
 62
       3
100
AcDbLine
 10
47.84756534
 20
-10.07150731
 30
0.0
 11
47.93824271
 21
-10.038853
 31
0.0
  0
LINE
  5
542
100
AcDbEntity
  8
レイヤー_1
  6
CONTINUOUS
 62
       3
100
AcDbLine
 10
47.93824271
 20
-10.038853
 30
0.0
 11
48.0246291
 21
-9.99794414
 31
0.0
  0
LINE
  5
543
100
AcDbEntity
  8
レイヤー_1
  6
CONTINUOUS
 62
       3
100
AcDbLine
 10
48.0246291
 20
-9.99794414
 30
0.0
 11
48.10624408
 21
-9.94926117
 31
0.0
  0
LINE
  5
544
100
AcDbEntity
  8
レイヤー_1
  6
CONTINUOUS
 62
       3
100
AcDbLine
 10
48.10624408
 20
-9.94926117
 30
0.0
 11
48.18260722
 21
-9.89328451
 31
0.0
  0
LINE
  5
545
100
AcDbEntity
  8
レイヤー_1
  6
CONTINUOUS
 62
       3
100
AcDbLine
 10
48.18260722
 20
-9.89328451
 30
0.0
 11
48.25323808
 21
-9.8304946
 31
0.0
  0
LINE
  5
546
100
AcDbEntity
  8
レイヤー_1
  6
CONTINUOUS
 62
       3
100
AcDbLine
 10
48.25323808
 20
-9.8304946
 30
0.0
 11
48.31765623
 21
-9.76137188
 31
0.0
  0
LINE
  5
547
100
AcDbEntity
  8
レイヤー_1
  6
CONTINUOUS
 62
       3
100
AcDbLine
 10
48.31765623
 20
-9.76137188
 30
0.0
 11
48.37538124
 21
-9.68639677
 31
0.0
  0
LINE
  5
548
100
AcDbEntity
  8
レイヤー_1
  6
CONTINUOUS
 62
       3
100
AcDbLine
 10
48.37538124
 20
-9.68639677
 30
0.0
 11
48.42593267
 21
-9.60604971
 31
0.0
  0
LINE
  5
549
100
AcDbEntity
  8
レイヤー_1
  6
CONTINUOUS
 62
       3
100
AcDbLine
 10
48.42593267
 20
-9.60604971
 30
0.0
 11
48.4688301
 21
-9.52081114
 31
0.0
  0
LINE
  5
54A
100
AcDbEntity
  8
レイヤー_1
  6
CONTINUOUS
 62
       3
100
AcDbLine
 10
48.4688301
 20
-9.52081114
 30
0.0
 11
48.50359309
 21
-9.43116147
 31
0.0
  0
LINE
  5
54B
100
AcDbEntity
  8
レイヤー_1
  6
CONTINUOUS
 62
       3
100
AcDbLine
 10
48.50359309
 20
-9.43116147
 30
0.0
 11
48.5297412
 21
-9.33758116
 31
0.0
  0
LINE
  5
54C
100
AcDbEntity
  8
レイヤー_1
  6
CONTINUOUS
 62
       3
100
AcDbLine
 10
48.5297412
 20
-9.33758116
 30
0.0
 11
48.54679401
 21
-9.24055062
 31
0.0
  0
LINE
  5
54D
100
AcDbEntity
  8
レイヤー_1
  6
CONTINUOUS
 62
       3
100
AcDbLine
 10
48.54679401
 20
-9.24055062
 30
0.0
 11
48.55427108
 21
-9.14055029
 31
0.0
  0
LINE
  5
54E
100
AcDbEntity
  8
レイヤー_1
  6
CONTINUOUS
 62
       3
100
AcDbLine
 10
48.55427108
 20
-9.14055029
 30
0.0
 11
48.55175954
 21
-9.03939331
 31
0.0
  0
LINE
  5
54F
100
AcDbEntity
  8
レイヤー_1
  6
CONTINUOUS
 62
       3
100
AcDbLine
 10
48.55175954
 20
-9.03939331
 30
0.0
 11
48.53943454
 21
-8.94081783
 31
0.0
  0
LINE
  5
550
100
AcDbEntity
  8
レイヤー_1
  6
CONTINUOUS
 62
       3
100
AcDbLine
 10
48.53943454
 20
-8.94081783
 30
0.0
 11
48.51777403
 21
-8.84545235
 31
0.0
  0
LINE
  5
551
100
AcDbEntity
  8
レイヤー_1
  6
CONTINUOUS
 62
       3
100
AcDbLine
 10
48.51777403
 20
-8.84545235
 30
0.0
 11
48.48725842
 21
-8.7537773
 31
0.0
  0
LINE
  5
552
100
AcDbEntity
  8
レイヤー_1
  6
CONTINUOUS
 62
       3
100
AcDbLine
 10
48.48725842
 20
-8.7537773
 30
0.0
 11
48.44836816
 21
-8.66627313
 31
0.0
  0
LINE
  5
553
100
AcDbEntity
  8
レイヤー_1
  6
CONTINUOUS
 62
       3
100
AcDbLine
 10
48.44836816
 20
-8.66627313
 30
0.0
 11
48.40158368
 21
-8.58342026
 31
0.0
  0
LINE
  5
554
100
AcDbEntity
  8
レイヤー_1
  6
CONTINUOUS
 62
       3
100
AcDbLine
 10
48.40158368
 20
-8.58342026
 30
0.0
 11
48.3473854
 21
-8.50569912
 31
0.0
  0
LINE
  5
555
100
AcDbEntity
  8
レイヤー_1
  6
CONTINUOUS
 62
       3
100
AcDbLine
 10
48.3473854
 20
-8.50569912
 30
0.0
 11
48.28625377
 21
-8.43359015
 31
0.0
  0
LINE
  5
556
100
AcDbEntity
  8
レイヤー_1
  6
CONTINUOUS
 62
       3
100
AcDbLine
 10
48.28625377
 20
-8.43359015
 30
0.0
 11
48.21866921
 21
-8.36757378
 31
0.0
  0
LINE
  5
557
100
AcDbEntity
  8
レイヤー_1
  6
CONTINUOUS
 62
       3
100
AcDbLine
 10
48.21866921
 20
-8.36757378
 30
0.0
 11
48.14511216
 21
-8.30813045
 31
0.0
  0
LINE
  5
558
100
AcDbEntity
  8
レイヤー_1
  6
CONTINUOUS
 62
       3
100
AcDbLine
 10
48.14511216
 20
-8.30813045
 30
0.0
 11
48.06606304
 21
-8.25574058
 31
0.0
  0
LINE
  5
559
100
AcDbEntity
  8
レイヤー_1
  6
CONTINUOUS
 62
       3
100
AcDbLine
 10
48.06606304
 20
-8.25574058
 30
0.0
 11
47.98200231
 21
-8.21088461
 31
0.0
  0
LINE
  5
55A
100
AcDbEntity
  8
レイヤー_1
  6
CONTINUOUS
 62
       3
100
AcDbLine
 10
47.98200231
 20
-8.21088461
 30
0.0
 11
47.89341037
 21
-8.17404297
 31
0.0
  0
LINE
  5
55B
100
AcDbEntity
  8
レイヤー_1
  6
CONTINUOUS
 62
       3
100
AcDbLine
 10
47.89341037
 20
-8.17404297
 30
0.0
 11
47.80076768
 21
-8.1456961
 31
0.0
  0
LINE
  5
55C
100
AcDbEntity
  8
レイヤー_1
  6
CONTINUOUS
 62
       3
100
AcDbLine
 10
47.80076768
 20
-8.1456961
 30
0.0
 11
47.70455466
 21
-8.12632442
 31
0.0
  0
LINE
  5
55D
100
AcDbEntity
  8
レイヤー_1
  6
CONTINUOUS
 62
       3
100
AcDbLine
 10
47.70455466
 20
-8.12632442
 30
0.0
 11
47.60525174
 21
-8.11640838
 31
0.0
  0
LINE
  5
55E
100
AcDbEntity
  8
レイヤー_1
  6
CONTINUOUS
 62
       3
100
AcDbLine
 10
47.60525174
 20
-8.11640838
 30
0.0
 11
47.50393167
 21
-8.11640838
 31
0.0
  0
LINE
  5
55F
100
AcDbEntity
  8
レイヤー_1
  6
CONTINUOUS
 62
       3
100
AcDbLine
 10
47.50393167
 20
-8.11640838
 30
0.0
 11
47.40462875
 21
-8.12632442
 31
0.0
  0
LINE
  5
560
100
AcDbEntity
  8
レイヤー_1
  6
CONTINUOUS
 62
       3
100
AcDbLine
 10
47.40462875
 20
-8.12632442
 30
0.0
 11
47.30841573
 21
-8.1456961
 31
0.0
  0
LINE
  5
561
100
AcDbEntity
  8
レイヤー_1
  6
CONTINUOUS
 62
       3
100
AcDbLine
 10
47.30841573
 20
-8.1456961
 30
0.0
 11
47.21577303
 21
-8.17404297
 31
0.0
  0
LINE
  5
562
100
AcDbEntity
  8
レイヤー_1
  6
CONTINUOUS
 62
       3
100
AcDbLine
 10
47.21577303
 20
-8.17404297
 30
0.0
 11
47.1271811
 21
-8.21088461
 31
0.0
  0
LINE
  5
563
100
AcDbEntity
  8
レイヤー_1
  6
CONTINUOUS
 62
       3
100
AcDbLine
 10
47.1271811
 20
-8.21088461
 30
0.0
 11
47.04312036
 21
-8.25574058
 31
0.0
  0
LINE
  5
564
100
AcDbEntity
  8
レイヤー_1
  6
CONTINUOUS
 62
       3
100
AcDbLine
 10
47.04312036
 20
-8.25574058
 30
0.0
 11
46.96407125
 21
-8.30813045
 31
0.0
  0
LINE
  5
565
100
AcDbEntity
  8
レイヤー_1
  6
CONTINUOUS
 62
       3
100
AcDbLine
 10
46.96407125
 20
-8.30813045
 30
0.0
 11
46.8905142
 21
-8.36757378
 31
0.0
  0
LINE
  5
566
100
AcDbEntity
  8
レイヤー_1
  6
CONTINUOUS
 62
       3
100
AcDbLine
 10
46.8905142
 20
-8.36757378
 30
0.0
 11
46.82292964
 21
-8.43359015
 31
0.0
  0
LINE
  5
567
100
AcDbEntity
  8
レイヤー_1
  6
CONTINUOUS
 62
       3
100
AcDbLine
 10
46.82292964
 20
-8.43359015
 30
0.0
 11
46.761798
 21
-8.50569912
 31
0.0
  0
LINE
  5
568
100
AcDbEntity
  8
レイヤー_1
  6
CONTINUOUS
 62
       3
100
AcDbLine
 10
46.761798
 20
-8.50569912
 30
0.0
 11
46.70759973
 21
-8.58342026
 31
0.0
  0
LINE
  5
569
100
AcDbEntity
  8
レイヤー_1
  6
CONTINUOUS
 62
       3
100
AcDbLine
 10
46.70759973
 20
-8.58342026
 30
0.0
 11
46.66081524
 21
-8.66627313
 31
0.0
  0
LINE
  5
56A
100
AcDbEntity
  8
レイヤー_1
  6
CONTINUOUS
 62
       3
100
AcDbLine
 10
46.66081524
 20
-8.66627313
 30
0.0
 11
46.62192498
 21
-8.7537773
 31
0.0
  0
LINE
  5
56B
100
AcDbEntity
  8
レイヤー_1
  6
CONTINUOUS
 62
       3
100
AcDbLine
 10
46.62192498
 20
-8.7537773
 30
0.0
 11
46.59140938
 21
-8.84545235
 31
0.0
  0
LINE
  5
56C
100
AcDbEntity
  8
レイヤー_1
  6
CONTINUOUS
 62
       3
100
AcDbLine
 10
46.59140938
 20
-8.84545235
 30
0.0
 11
46.56974886
 21
-8.94081783
 31
0.0
  0
LINE
  5
56D
100
AcDbEntity
  8
レイヤー_1
  6
CONTINUOUS
 62
       3
100
AcDbLine
 10
46.56974886
 20
-8.94081783
 30
0.0
 11
46.55742387
 21
-9.03939331
 31
0.0
  0
LINE
  5
56E
100
AcDbEntity
  8
レイヤー_1
  6
CONTINUOUS
 62
       3
100
AcDbLine
 10
46.55742387
 20
-9.03939331
 30
0.0
 11
46.55491233
 21
-9.14055029
 31
0.0
  0
LINE
  5
56F
100
AcDbEntity
  8
レイヤー_1
  6
CONTINUOUS
 62
       3
100
AcDbLine
 10
46.55491233
 20
-9.14055029
 30
0.0
 11
46.5623894
 21
-9.24055062
 31
0.0
  0
LINE
  5
570
100
AcDbEntity
  8
レイヤー_1
  6
CONTINUOUS
 62
       3
100
AcDbLine
 10
46.5623894
 20
-9.24055062
 30
0.0
 11
46.57944221
 21
-9.33758116
 31
0.0
  0
LINE
  5
571
100
AcDbEntity
  8
レイヤー_1
  6
CONTINUOUS
 62
       3
100
AcDbLine
 10
46.57944221
 20
-9.33758116
 30
0.0
 11
46.60559032
 21
-9.43116147
 31
0.0
  0
LINE
  5
572
100
AcDbEntity
  8
レイヤー_1
  6
CONTINUOUS
 62
       3
100
AcDbLine
 10
46.60559032
 20
-9.43116147
 30
0.0
 11
46.64035331
 21
-9.52081114
 31
0.0
  0
LINE
  5
573
100
AcDbEntity
  8
レイヤー_1
  6
CONTINUOUS
 62
       3
100
AcDbLine
 10
46.64035331
 20
-9.52081114
 30
0.0
 11
46.68325073
 21
-9.60604971
 31
0.0
  0
LINE
  5
574
100
AcDbEntity
  8
レイヤー_1
  6
CONTINUOUS
 62
       3
100
AcDbLine
 10
46.68325073
 20
-9.60604971
 30
0.0
 11
46.73380217
 21
-9.68639677
 31
0.0
  0
LINE
  5
575
100
AcDbEntity
  8
レイヤー_1
  6
CONTINUOUS
 62
       3
100
AcDbLine
 10
46.73380217
 20
-9.68639677
 30
0.0
 11
46.79152718
 21
-9.76137188
 31
0.0
  0
LINE
  5
576
100
AcDbEntity
  8
レイヤー_1
  6
CONTINUOUS
 62
       3
100
AcDbLine
 10
46.79152718
 20
-9.76137188
 30
0.0
 11
46.85594533
 21
-9.8304946
 31
0.0
  0
LINE
  5
577
100
AcDbEntity
  8
レイヤー_1
  6
CONTINUOUS
 62
       3
100
AcDbLine
 10
46.85594533
 20
-9.8304946
 30
0.0
 11
46.92657619
 21
-9.89328451
 31
0.0
  0
LINE
  5
578
100
AcDbEntity
  8
レイヤー_1
  6
CONTINUOUS
 62
       3
100
AcDbLine
 10
46.92657619
 20
-9.89328451
 30
0.0
 11
47.00293932
 21
-9.94926117
 31
0.0
  0
LINE
  5
579
100
AcDbEntity
  8
レイヤー_1
  6
CONTINUOUS
 62
       3
100
AcDbLine
 10
47.00293932
 20
-9.94926117
 30
0.0
 11
47.0845543
 21
-9.99794414
 31
0.0
  0
LINE
  5
57A
100
AcDbEntity
  8
レイヤー_1
  6
CONTINUOUS
 62
       3
100
AcDbLine
 10
47.0845543
 20
-9.99794414
 30
0.0
 11
47.17094069
 21
-10.038853
 31
0.0
  0
LINE
  5
57B
100
AcDbEntity
  8
レイヤー_1
  6
CONTINUOUS
 62
       3
100
AcDbLine
 10
47.17094069
 20
-10.038853
 30
0.0
 11
47.26161806
 21
-10.07150731
 31
0.0
  0
LINE
  5
57C
100
AcDbEntity
  8
レイヤー_1
  6
CONTINUOUS
 62
       3
100
AcDbLine
 10
47.26161806
 20
-10.07150731
 30
0.0
 11
47.35610597
 21
-10.09542663
 31
0.0
  0
LINE
  5
57D
100
AcDbEntity
  8
レイヤー_1
  6
CONTINUOUS
 62
       3
100
AcDbLine
 10
47.35610597
 20
-10.09542663
 30
0.0
 11
47.453924
 21
-10.11013055
 31
0.0
  0
LINE
  5
57E
100
AcDbEntity
  8
レイヤー_1
  6
CONTINUOUS
 62
       3
100
AcDbLine
 10
47.453924
 20
-10.11013055
 30
0.0
 11
47.5545917
 21
-10.11513862
 31
0.0
  0
LINE
  5
57F
100
AcDbEntity
  8
レイヤー_1
  6
CONTINUOUS
 62
       3
100
AcDbLine
 10
47.5545917
 20
-5.11515795
 30
0.0
 11
47.65525941
 21
-5.11014988
 31
0.0
  0
LINE
  5
580
100
AcDbEntity
  8
レイヤー_1
  6
CONTINUOUS
 62
       3
100
AcDbLine
 10
47.65525941
 20
-5.11014988
 30
0.0
 11
47.75307743
 21
-5.09544597
 31
0.0
  0
LINE
  5
581
100
AcDbEntity
  8
レイヤー_1
  6
CONTINUOUS
 62
       3
100
AcDbLine
 10
47.75307743
 20
-5.09544597
 30
0.0
 11
47.84756534
 21
-5.07152664
 31
0.0
  0
LINE
  5
582
100
AcDbEntity
  8
レイヤー_1
  6
CONTINUOUS
 62
       3
100
AcDbLine
 10
47.84756534
 20
-5.07152664
 30
0.0
 11
47.93824271
 21
-5.03887233
 31
0.0
  0
LINE
  5
583
100
AcDbEntity
  8
レイヤー_1
  6
CONTINUOUS
 62
       3
100
AcDbLine
 10
47.93824271
 20
-5.03887233
 30
0.0
 11
48.0246291
 21
-4.99796347
 31
0.0
  0
LINE
  5
584
100
AcDbEntity
  8
レイヤー_1
  6
CONTINUOUS
 62
       3
100
AcDbLine
 10
48.0246291
 20
-4.99796347
 30
0.0
 11
48.10624408
 21
-4.9492805
 31
0.0
  0
LINE
  5
585
100
AcDbEntity
  8
レイヤー_1
  6
CONTINUOUS
 62
       3
100
AcDbLine
 10
48.10624408
 20
-4.9492805
 30
0.0
 11
48.18260722
 21
-4.89330385
 31
0.0
  0
LINE
  5
586
100
AcDbEntity
  8
レイヤー_1
  6
CONTINUOUS
 62
       3
100
AcDbLine
 10
48.18260722
 20
-4.89330385
 30
0.0
 11
48.25323808
 21
-4.83051394
 31
0.0
  0
LINE
  5
587
100
AcDbEntity
  8
レイヤー_1
  6
CONTINUOUS
 62
       3
100
AcDbLine
 10
48.25323808
 20
-4.83051394
 30
0.0
 11
48.31765623
 21
-4.76139122
 31
0.0
  0
LINE
  5
588
100
AcDbEntity
  8
レイヤー_1
  6
CONTINUOUS
 62
       3
100
AcDbLine
 10
48.31765623
 20
-4.76139122
 30
0.0
 11
48.37538124
 21
-4.68641611
 31
0.0
  0
LINE
  5
589
100
AcDbEntity
  8
レイヤー_1
  6
CONTINUOUS
 62
       3
100
AcDbLine
 10
48.37538124
 20
-4.68641611
 30
0.0
 11
48.42593267
 21
-4.60606905
 31
0.0
  0
LINE
  5
58A
100
AcDbEntity
  8
レイヤー_1
  6
CONTINUOUS
 62
       3
100
AcDbLine
 10
48.42593267
 20
-4.60606905
 30
0.0
 11
48.4688301
 21
-4.52083047
 31
0.0
  0
LINE
  5
58B
100
AcDbEntity
  8
レイヤー_1
  6
CONTINUOUS
 62
       3
100
AcDbLine
 10
48.4688301
 20
-4.52083047
 30
0.0
 11
48.50359309
 21
-4.43118081
 31
0.0
  0
LINE
  5
58C
100
AcDbEntity
  8
レイヤー_1
  6
CONTINUOUS
 62
       3
100
AcDbLine
 10
48.50359309
 20
-4.43118081
 30
0.0
 11
48.5297412
 21
-4.33760049
 31
0.0
  0
LINE
  5
58D
100
AcDbEntity
  8
レイヤー_1
  6
CONTINUOUS
 62
       3
100
AcDbLine
 10
48.5297412
 20
-4.33760049
 30
0.0
 11
48.54679401
 21
-4.24056995
 31
0.0
  0
LINE
  5
58E
100
AcDbEntity
  8
レイヤー_1
  6
CONTINUOUS
 62
       3
100
AcDbLine
 10
48.54679401
 20
-4.24056995
 30
0.0
 11
48.55427108
 21
-4.14056963
 31
0.0
  0
LINE
  5
58F
100
AcDbEntity
  8
レイヤー_1
  6
CONTINUOUS
 62
       3
100
AcDbLine
 10
48.55427108
 20
-4.14056963
 30
0.0
 11
48.55175954
 21
-4.03938372
 31
0.0
  0
LINE
  5
590
100
AcDbEntity
  8
レイヤー_1
  6
CONTINUOUS
 62
       3
100
AcDbLine
 10
48.55175954
 20
-4.03938372
 30
0.0
 11
48.53943454
 21
-3.94077808
 31
0.0
  0
LINE
  5
591
100
AcDbEntity
  8
レイヤー_1
  6
CONTINUOUS
 62
       3
100
AcDbLine
 10
48.53943454
 20
-3.94077808
 30
0.0
 11
48.51777403
 21
-3.84539121
 31
0.0
  0
LINE
  5
592
100
AcDbEntity
  8
レイヤー_1
  6
CONTINUOUS
 62
       3
100
AcDbLine
 10
48.51777403
 20
-3.84539121
 30
0.0
 11
48.48725842
 21
-3.75370255
 31
0.0
  0
LINE
  5
593
100
AcDbEntity
  8
レイヤー_1
  6
CONTINUOUS
 62
       3
100
AcDbLine
 10
48.48725842
 20
-3.75370255
 30
0.0
 11
48.44836816
 21
-3.66619159
 31
0.0
  0
LINE
  5
594
100
AcDbEntity
  8
レイヤー_1
  6
CONTINUOUS
 62
       3
100
AcDbLine
 10
48.44836816
 20
-3.66619159
 30
0.0
 11
48.40158368
 21
-3.5833378
 31
0.0
  0
LINE
  5
595
100
AcDbEntity
  8
レイヤー_1
  6
CONTINUOUS
 62
       3
100
AcDbLine
 10
48.40158368
 20
-3.5833378
 30
0.0
 11
48.3473854
 21
-3.50562064
 31
0.0
  0
LINE
  5
596
100
AcDbEntity
  8
レイヤー_1
  6
CONTINUOUS
 62
       3
100
AcDbLine
 10
48.3473854
 20
-3.50562064
 30
0.0
 11
48.28625377
 21
-3.43351957
 31
0.0
  0
LINE
  5
597
100
AcDbEntity
  8
レイヤー_1
  6
CONTINUOUS
 62
       3
100
AcDbLine
 10
48.28625377
 20
-3.43351957
 30
0.0
 11
48.21866921
 21
-3.36751408
 31
0.0
  0
LINE
  5
598
100
AcDbEntity
  8
レイヤー_1
  6
CONTINUOUS
 62
       3
100
AcDbLine
 10
48.21866921
 20
-3.36751408
 30
0.0
 11
48.14511216
 21
-3.30808364
 31
0.0
  0
LINE
  5
599
100
AcDbEntity
  8
レイヤー_1
  6
CONTINUOUS
 62
       3
100
AcDbLine
 10
48.14511216
 20
-3.30808364
 30
0.0
 11
48.06606304
 21
-3.2557077
 31
0.0
  0
LINE
  5
59A
100
AcDbEntity
  8
レイヤー_1
  6
CONTINUOUS
 62
       3
100
AcDbLine
 10
48.06606304
 20
-3.2557077
 30
0.0
 11
47.98200231
 21
-3.21086574
 31
0.0
  0
LINE
  5
59B
100
AcDbEntity
  8
レイヤー_1
  6
CONTINUOUS
 62
       3
100
AcDbLine
 10
47.98200231
 20
-3.21086574
 30
0.0
 11
47.89341037
 21
-3.17403723
 31
0.0
  0
LINE
  5
59C
100
AcDbEntity
  8
レイヤー_1
  6
CONTINUOUS
 62
       3
100
AcDbLine
 10
47.89341037
 20
-3.17403723
 30
0.0
 11
47.80076768
 21
-3.14570163
 31
0.0
  0
LINE
  5
59D
100
AcDbEntity
  8
レイヤー_1
  6
CONTINUOUS
 62
       3
100
AcDbLine
 10
47.80076768
 20
-3.14570163
 30
0.0
 11
47.70455466
 21
-3.12633843
 31
0.0
  0
LINE
  5
59E
100
AcDbEntity
  8
レイヤー_1
  6
CONTINUOUS
 62
       3
100
AcDbLine
 10
47.70455466
 20
-3.12633843
 30
0.0
 11
47.60525174
 21
-3.11642708
 31
0.0
  0
LINE
  5
59F
100
AcDbEntity
  8
レイヤー_1
  6
CONTINUOUS
 62
       3
100
AcDbLine
 10
47.60525174
 20
-3.11642708
 30
0.0
 11
47.50393167
 21
-3.11642708
 31
0.0
  0
LINE
  5
5A0
100
AcDbEntity
  8
レイヤー_1
  6
CONTINUOUS
 62
       3
100
AcDbLine
 10
47.50393167
 20
-3.11642708
 30
0.0
 11
47.40462875
 21
-3.12633843
 31
0.0
  0
LINE
  5
5A1
100
AcDbEntity
  8
レイヤー_1
  6
CONTINUOUS
 62
       3
100
AcDbLine
 10
47.40462875
 20
-3.12633843
 30
0.0
 11
47.30841573
 21
-3.14570163
 31
0.0
  0
LINE
  5
5A2
100
AcDbEntity
  8
レイヤー_1
  6
CONTINUOUS
 62
       3
100
AcDbLine
 10
47.30841573
 20
-3.14570163
 30
0.0
 11
47.21577303
 21
-3.17403723
 31
0.0
  0
LINE
  5
5A3
100
AcDbEntity
  8
レイヤー_1
  6
CONTINUOUS
 62
       3
100
AcDbLine
 10
47.21577303
 20
-3.17403723
 30
0.0
 11
47.1271811
 21
-3.21086574
 31
0.0
  0
LINE
  5
5A4
100
AcDbEntity
  8
レイヤー_1
  6
CONTINUOUS
 62
       3
100
AcDbLine
 10
47.1271811
 20
-3.21086574
 30
0.0
 11
47.04312036
 21
-3.2557077
 31
0.0
  0
LINE
  5
5A5
100
AcDbEntity
  8
レイヤー_1
  6
CONTINUOUS
 62
       3
100
AcDbLine
 10
47.04312036
 20
-3.2557077
 30
0.0
 11
46.96407125
 21
-3.30808364
 31
0.0
  0
LINE
  5
5A6
100
AcDbEntity
  8
レイヤー_1
  6
CONTINUOUS
 62
       3
100
AcDbLine
 10
46.96407125
 20
-3.30808364
 30
0.0
 11
46.8905142
 21
-3.36751408
 31
0.0
  0
LINE
  5
5A7
100
AcDbEntity
  8
レイヤー_1
  6
CONTINUOUS
 62
       3
100
AcDbLine
 10
46.8905142
 20
-3.36751408
 30
0.0
 11
46.82292964
 21
-3.43351957
 31
0.0
  0
LINE
  5
5A8
100
AcDbEntity
  8
レイヤー_1
  6
CONTINUOUS
 62
       3
100
AcDbLine
 10
46.82292964
 20
-3.43351957
 30
0.0
 11
46.761798
 21
-3.50562064
 31
0.0
  0
LINE
  5
5A9
100
AcDbEntity
  8
レイヤー_1
  6
CONTINUOUS
 62
       3
100
AcDbLine
 10
46.761798
 20
-3.50562064
 30
0.0
 11
46.70759973
 21
-3.5833378
 31
0.0
  0
LINE
  5
5AA
100
AcDbEntity
  8
レイヤー_1
  6
CONTINUOUS
 62
       3
100
AcDbLine
 10
46.70759973
 20
-3.5833378
 30
0.0
 11
46.66081524
 21
-3.66619159
 31
0.0
  0
LINE
  5
5AB
100
AcDbEntity
  8
レイヤー_1
  6
CONTINUOUS
 62
       3
100
AcDbLine
 10
46.66081524
 20
-3.66619159
 30
0.0
 11
46.62192498
 21
-3.75370255
 31
0.0
  0
LINE
  5
5AC
100
AcDbEntity
  8
レイヤー_1
  6
CONTINUOUS
 62
       3
100
AcDbLine
 10
46.62192498
 20
-3.75370255
 30
0.0
 11
46.59140938
 21
-3.84539121
 31
0.0
  0
LINE
  5
5AD
100
AcDbEntity
  8
レイヤー_1
  6
CONTINUOUS
 62
       3
100
AcDbLine
 10
46.59140938
 20
-3.84539121
 30
0.0
 11
46.56974886
 21
-3.94077808
 31
0.0
  0
LINE
  5
5AE
100
AcDbEntity
  8
レイヤー_1
  6
CONTINUOUS
 62
       3
100
AcDbLine
 10
46.56974886
 20
-3.94077808
 30
0.0
 11
46.55742387
 21
-4.03938372
 31
0.0
  0
LINE
  5
5AF
100
AcDbEntity
  8
レイヤー_1
  6
CONTINUOUS
 62
       3
100
AcDbLine
 10
46.55742387
 20
-4.03938372
 30
0.0
 11
46.55491233
 21
-4.14056963
 31
0.0
  0
LINE
  5
5B0
100
AcDbEntity
  8
レイヤー_1
  6
CONTINUOUS
 62
       3
100
AcDbLine
 10
46.55491233
 20
-4.14056963
 30
0.0
 11
46.5623894
 21
-4.24056995
 31
0.0
  0
LINE
  5
5B1
100
AcDbEntity
  8
レイヤー_1
  6
CONTINUOUS
 62
       3
100
AcDbLine
 10
46.5623894
 20
-4.24056995
 30
0.0
 11
46.57944221
 21
-4.33760049
 31
0.0
  0
LINE
  5
5B2
100
AcDbEntity
  8
レイヤー_1
  6
CONTINUOUS
 62
       3
100
AcDbLine
 10
46.57944221
 20
-4.33760049
 30
0.0
 11
46.60559032
 21
-4.43118081
 31
0.0
  0
LINE
  5
5B3
100
AcDbEntity
  8
レイヤー_1
  6
CONTINUOUS
 62
       3
100
AcDbLine
 10
46.60559032
 20
-4.43118081
 30
0.0
 11
46.64035331
 21
-4.52083047
 31
0.0
  0
LINE
  5
5B4
100
AcDbEntity
  8
レイヤー_1
  6
CONTINUOUS
 62
       3
100
AcDbLine
 10
46.64035331
 20
-4.52083047
 30
0.0
 11
46.68325073
 21
-4.60606905
 31
0.0
  0
LINE
  5
5B5
100
AcDbEntity
  8
レイヤー_1
  6
CONTINUOUS
 62
       3
100
AcDbLine
 10
46.68325073
 20
-4.60606905
 30
0.0
 11
46.73380217
 21
-4.68641611
 31
0.0
  0
LINE
  5
5B6
100
AcDbEntity
  8
レイヤー_1
  6
CONTINUOUS
 62
       3
100
AcDbLine
 10
46.73380217
 20
-4.68641611
 30
0.0
 11
46.79152718
 21
-4.76139122
 31
0.0
  0
LINE
  5
5B7
100
AcDbEntity
  8
レイヤー_1
  6
CONTINUOUS
 62
       3
100
AcDbLine
 10
46.79152718
 20
-4.76139122
 30
0.0
 11
46.85594533
 21
-4.83051394
 31
0.0
  0
LINE
  5
5B8
100
AcDbEntity
  8
レイヤー_1
  6
CONTINUOUS
 62
       3
100
AcDbLine
 10
46.85594533
 20
-4.83051394
 30
0.0
 11
46.92657619
 21
-4.89330385
 31
0.0
  0
LINE
  5
5B9
100
AcDbEntity
  8
レイヤー_1
  6
CONTINUOUS
 62
       3
100
AcDbLine
 10
46.92657619
 20
-4.89330385
 30
0.0
 11
47.00293932
 21
-4.9492805
 31
0.0
  0
LINE
  5
5BA
100
AcDbEntity
  8
レイヤー_1
  6
CONTINUOUS
 62
       3
100
AcDbLine
 10
47.00293932
 20
-4.9492805
 30
0.0
 11
47.0845543
 21
-4.99796347
 31
0.0
  0
LINE
  5
5BB
100
AcDbEntity
  8
レイヤー_1
  6
CONTINUOUS
 62
       3
100
AcDbLine
 10
47.0845543
 20
-4.99796347
 30
0.0
 11
47.17094069
 21
-5.03887233
 31
0.0
  0
LINE
  5
5BC
100
AcDbEntity
  8
レイヤー_1
  6
CONTINUOUS
 62
       3
100
AcDbLine
 10
47.17094069
 20
-5.03887233
 30
0.0
 11
47.26161806
 21
-5.07152664
 31
0.0
  0
LINE
  5
5BD
100
AcDbEntity
  8
レイヤー_1
  6
CONTINUOUS
 62
       3
100
AcDbLine
 10
47.26161806
 20
-5.07152664
 30
0.0
 11
47.35610597
 21
-5.09544597
 31
0.0
  0
LINE
  5
5BE
100
AcDbEntity
  8
レイヤー_1
  6
CONTINUOUS
 62
       3
100
AcDbLine
 10
47.35610597
 20
-5.09544597
 30
0.0
 11
47.453924
 21
-5.11014988
 31
0.0
  0
LINE
  5
5BF
100
AcDbEntity
  8
レイヤー_1
  6
CONTINUOUS
 62
       3
100
AcDbLine
 10
47.453924
 20
-5.11014988
 30
0.0
 11
47.5545917
 21
-5.11515795
 31
0.0
  0
LINE
  5
5C0
100
AcDbEntity
  8
レイヤー_1
  6
CONTINUOUS
 62
       3
100
AcDbLine
 10
51.55411689
 20
4.88503305
 30
0.0
 11
51.65493396
 21
4.89003867
 31
0.0
  0
LINE
  5
5C1
100
AcDbEntity
  8
レイヤー_1
  6
CONTINUOUS
 62
       3
100
AcDbLine
 10
51.65493396
 20
4.89003867
 30
0.0
 11
51.75286347
 21
4.90473588
 31
0.0
  0
LINE
  5
5C2
100
AcDbEntity
  8
レイヤー_1
  6
CONTINUOUS
 62
       3
100
AcDbLine
 10
51.75286347
 20
4.90473588
 30
0.0
 11
51.84742882
 21
4.92864521
 31
0.0
  0
LINE
  5
5C3
100
AcDbEntity
  8
レイヤー_1
  6
CONTINUOUS
 62
       3
100
AcDbLine
 10
51.84742882
 20
4.92864521
 30
0.0
 11
51.93815343
 21
4.9612872
 31
0.0
  0
LINE
  5
5C4
100
AcDbEntity
  8
レイヤー_1
  6
CONTINUOUS
 62
       3
100
AcDbLine
 10
51.93815343
 20
4.9612872
 30
0.0
 11
52.02456074
 21
5.00218237
 31
0.0
  0
LINE
  5
5C5
100
AcDbEntity
  8
レイヤー_1
  6
CONTINUOUS
 62
       3
100
AcDbLine
 10
52.02456074
 20
5.00218237
 30
0.0
 11
52.10617415
 21
5.05085125
 31
0.0
  0
LINE
  5
5C6
100
AcDbEntity
  8
レイヤー_1
  6
CONTINUOUS
 62
       3
100
AcDbLine
 10
52.10617415
 20
5.05085125
 30
0.0
 11
52.18251709
 21
5.10681438
 31
0.0
  0
LINE
  5
5C7
100
AcDbEntity
  8
レイヤー_1
  6
CONTINUOUS
 62
       3
100
AcDbLine
 10
52.18251709
 20
5.10681438
 30
0.0
 11
52.25311299
 21
5.16959228
 31
0.0
  0
LINE
  5
5C8
100
AcDbEntity
  8
レイヤー_1
  6
CONTINUOUS
 62
       3
100
AcDbLine
 10
52.25311299
 20
5.16959228
 30
0.0
 11
52.31748526
 21
5.23870549
 31
0.0
  0
LINE
  5
5C9
100
AcDbEntity
  8
レイヤー_1
  6
CONTINUOUS
 62
       3
100
AcDbLine
 10
52.31748526
 20
5.23870549
 30
0.0
 11
52.37515732
 21
5.31367453
 31
0.0
  0
LINE
  5
5CA
100
AcDbEntity
  8
レイヤー_1
  6
CONTINUOUS
 62
       3
100
AcDbLine
 10
52.37515732
 20
5.31367453
 30
0.0
 11
52.42565259
 21
5.39401995
 31
0.0
  0
LINE
  5
5CB
100
AcDbEntity
  8
レイヤー_1
  6
CONTINUOUS
 62
       3
100
AcDbLine
 10
52.42565259
 20
5.39401995
 30
0.0
 11
52.4684945
 21
5.47926226
 31
0.0
  0
LINE
  5
5CC
100
AcDbEntity
  8
レイヤー_1
  6
CONTINUOUS
 62
       3
100
AcDbLine
 10
52.4684945
 20
5.47926226
 30
0.0
 11
52.50320647
 21
5.568922
 31
0.0
  0
LINE
  5
5CD
100
AcDbEntity
  8
レイヤー_1
  6
CONTINUOUS
 62
       3
100
AcDbLine
 10
52.50320647
 20
5.568922
 30
0.0
 11
52.52931191
 21
5.6625197
 31
0.0
  0
LINE
  5
5CE
100
AcDbEntity
  8
レイヤー_1
  6
CONTINUOUS
 62
       3
100
AcDbLine
 10
52.52931191
 20
5.6625197
 30
0.0
 11
52.54633425
 21
5.75957589
 31
0.0
  0
LINE
  5
5CF
100
AcDbEntity
  8
レイヤー_1
  6
CONTINUOUS
 62
       3
100
AcDbLine
 10
52.54633425
 20
5.75957589
 30
0.0
 11
52.55379691
 21
5.8596111
 31
0.0
  0
LINE
  5
5D0
100
AcDbEntity
  8
レイヤー_1
  6
CONTINUOUS
 62
       3
100
AcDbLine
 10
52.55379691
 20
5.8596111
 30
0.0
 11
52.55129032
 21
5.96077835
 31
0.0
  0
LINE
  5
5D1
100
AcDbEntity
  8
レイヤー_1
  6
CONTINUOUS
 62
       3
100
AcDbLine
 10
52.55129032
 20
5.96077835
 30
0.0
 11
52.53898825
 21
6.05935384
 31
0.0
  0
LINE
  5
5D2
100
AcDbEntity
  8
レイヤー_1
  6
CONTINUOUS
 62
       3
100
AcDbLine
 10
52.53898825
 20
6.05935384
 30
0.0
 11
52.51736479
 21
6.15471932
 31
0.0
  0
LINE
  5
5D3
100
AcDbEntity
  8
レイヤー_1
  6
CONTINUOUS
 62
       3
100
AcDbLine
 10
52.51736479
 20
6.15471932
 30
0.0
 11
52.48689651
 21
6.24639436
 31
0.0
  0
LINE
  5
5D4
100
AcDbEntity
  8
レイヤー_1
  6
CONTINUOUS
 62
       3
100
AcDbLine
 10
52.48689651
 20
6.24639436
 30
0.0
 11
52.44806
 21
6.33389854
 31
0.0
  0
LINE
  5
5D5
100
AcDbEntity
  8
レイヤー_1
  6
CONTINUOUS
 62
       3
100
AcDbLine
 10
52.44806
 20
6.33389854
 30
0.0
 11
52.40133184
 21
6.41675141
 31
0.0
  0
LINE
  5
5D6
100
AcDbEntity
  8
レイヤー_1
  6
CONTINUOUS
 62
       3
100
AcDbLine
 10
52.40133184
 20
6.41675141
 30
0.0
 11
52.3471886
 21
6.49447255
 31
0.0
  0
LINE
  5
5D7
100
AcDbEntity
  8
レイヤー_1
  6
CONTINUOUS
 62
       3
100
AcDbLine
 10
52.3471886
 20
6.49447255
 30
0.0
 11
52.28610686
 21
6.56658152
 31
0.0
  0
LINE
  5
5D8
100
AcDbEntity
  8
レイヤー_1
  6
CONTINUOUS
 62
       3
100
AcDbLine
 10
52.28610686
 20
6.56658152
 30
0.0
 11
52.21856321
 21
6.63259788
 31
0.0
  0
LINE
  5
5D9
100
AcDbEntity
  8
レイヤー_1
  6
CONTINUOUS
 62
       3
100
AcDbLine
 10
52.21856321
 20
6.63259788
 30
0.0
 11
52.14503422
 21
6.69204122
 31
0.0
  0
LINE
  5
5DA
100
AcDbEntity
  8
レイヤー_1
  6
CONTINUOUS
 62
       3
100
AcDbLine
 10
52.14503422
 20
6.69204122
 30
0.0
 11
52.06599647
 21
6.74443109
 31
0.0
  0
LINE
  5
5DB
100
AcDbEntity
  8
レイヤー_1
  6
CONTINUOUS
 62
       3
100
AcDbLine
 10
52.06599647
 20
6.74443109
 30
0.0
 11
51.98192653
 21
6.78928706
 31
0.0
  0
LINE
  5
5DC
100
AcDbEntity
  8
レイヤー_1
  6
CONTINUOUS
 62
       3
100
AcDbLine
 10
51.98192653
 20
6.78928706
 30
0.0
 11
51.893301
 21
6.8261287
 31
0.0
  0
LINE
  5
5DD
100
AcDbEntity
  8
レイヤー_1
  6
CONTINUOUS
 62
       3
100
AcDbLine
 10
51.893301
 20
6.8261287
 30
0.0
 11
51.80059645
 21
6.85447557
 31
0.0
  0
LINE
  5
5DE
100
AcDbEntity
  8
レイヤー_1
  6
CONTINUOUS
 62
       3
100
AcDbLine
 10
51.80059645
 20
6.85447557
 30
0.0
 11
51.70428945
 21
6.87384724
 31
0.0
  0
LINE
  5
5DF
100
AcDbEntity
  8
レイヤー_1
  6
CONTINUOUS
 62
       3
100
AcDbLine
 10
51.70428945
 20
6.87384724
 30
0.0
 11
51.60485659
 21
6.88376329
 31
0.0
  0
LINE
  5
5E0
100
AcDbEntity
  8
レイヤー_1
  6
CONTINUOUS
 62
       3
100
AcDbLine
 10
51.60485659
 20
6.88376329
 30
0.0
 11
51.50345813
 21
6.88376329
 31
0.0
  0
LINE
  5
5E1
100
AcDbEntity
  8
レイヤー_1
  6
CONTINUOUS
 62
       3
100
AcDbLine
 10
51.50345813
 20
6.88376329
 30
0.0
 11
51.40416495
 21
6.87384724
 31
0.0
  0
LINE
  5
5E2
100
AcDbEntity
  8
レイヤー_1
  6
CONTINUOUS
 62
       3
100
AcDbLine
 10
51.40416495
 20
6.87384724
 30
0.0
 11
51.30797018
 21
6.85447557
 31
0.0
  0
LINE
  5
5E3
100
AcDbEntity
  8
レイヤー_1
  6
CONTINUOUS
 62
       3
100
AcDbLine
 10
51.30797018
 20
6.85447557
 30
0.0
 11
51.21535297
 21
6.8261287
 31
0.0
  0
LINE
  5
5E4
100
AcDbEntity
  8
レイヤー_1
  6
CONTINUOUS
 62
       3
100
AcDbLine
 10
51.21535297
 20
6.8261287
 30
0.0
 11
51.12679245
 21
6.78928706
 31
0.0
  0
LINE
  5
5E5
100
AcDbEntity
  8
レイヤー_1
  6
CONTINUOUS
 62
       3
100
AcDbLine
 10
51.12679245
 20
6.78928706
 30
0.0
 11
51.04276779
 21
6.74443109
 31
0.0
  0
LINE
  5
5E6
100
AcDbEntity
  8
レイヤー_1
  6
CONTINUOUS
 62
       3
100
AcDbLine
 10
51.04276779
 20
6.74443109
 30
0.0
 11
50.96375812
 21
6.69204122
 31
0.0
  0
LINE
  5
5E7
100
AcDbEntity
  8
レイヤー_1
  6
CONTINUOUS
 62
       3
100
AcDbLine
 10
50.96375812
 20
6.69204122
 30
0.0
 11
50.89024261
 21
6.63259788
 31
0.0
  0
LINE
  5
5E8
100
AcDbEntity
  8
レイヤー_1
  6
CONTINUOUS
 62
       3
100
AcDbLine
 10
50.89024261
 20
6.63259788
 30
0.0
 11
50.82270038
 21
6.56658152
 31
0.0
  0
LINE
  5
5E9
100
AcDbEntity
  8
レイヤー_1
  6
CONTINUOUS
 62
       3
100
AcDbLine
 10
50.82270038
 20
6.56658152
 30
0.0
 11
50.76161061
 21
6.49447255
 31
0.0
  0
LINE
  5
5EA
100
AcDbEntity
  8
レイヤー_1
  6
CONTINUOUS
 62
       3
100
AcDbLine
 10
50.76161061
 20
6.49447255
 30
0.0
 11
50.70745242
 21
6.41675141
 31
0.0
  0
LINE
  5
5EB
100
AcDbEntity
  8
レイヤー_1
  6
CONTINUOUS
 62
       3
100
AcDbLine
 10
50.70745242
 20
6.41675141
 30
0.0
 11
50.66070497
 21
6.33389854
 31
0.0
  0
LINE
  5
5EC
100
AcDbEntity
  8
レイヤー_1
  6
CONTINUOUS
 62
       3
100
AcDbLine
 10
50.66070497
 20
6.33389854
 30
0.0
 11
50.62184742
 21
6.24639436
 31
0.0
  0
LINE
  5
5ED
100
AcDbEntity
  8
レイヤー_1
  6
CONTINUOUS
 62
       3
100
AcDbLine
 10
50.62184742
 20
6.24639436
 30
0.0
 11
50.59135889
 21
6.15471932
 31
0.0
  0
LINE
  5
5EE
100
AcDbEntity
  8
レイヤー_1
  6
CONTINUOUS
 62
       3
100
AcDbLine
 10
50.59135889
 20
6.15471932
 30
0.0
 11
50.56971856
 21
6.05935384
 31
0.0
  0
LINE
  5
5EF
100
AcDbEntity
  8
レイヤー_1
  6
CONTINUOUS
 62
       3
100
AcDbLine
 10
50.56971856
 20
6.05935384
 30
0.0
 11
50.55740555
 21
5.96077835
 31
0.0
  0
LINE
  5
5F0
100
AcDbEntity
  8
レイヤー_1
  6
CONTINUOUS
 62
       3
100
AcDbLine
 10
50.55740555
 20
5.96077835
 30
0.0
 11
50.55489654
 21
5.8596111
 31
0.0
  0
LINE
  5
5F1
100
AcDbEntity
  8
レイヤー_1
  6
CONTINUOUS
 62
       3
100
AcDbLine
 10
50.55489654
 20
5.8596111
 30
0.0
 11
50.56236619
 21
5.75957589
 31
0.0
  0
LINE
  5
5F2
100
AcDbEntity
  8
レイヤー_1
  6
CONTINUOUS
 62
       3
100
AcDbLine
 10
50.56236619
 20
5.75957589
 30
0.0
 11
50.57940276
 21
5.6625197
 31
0.0
  0
LINE
  5
5F3
100
AcDbEntity
  8
レイヤー_1
  6
CONTINUOUS
 62
       3
100
AcDbLine
 10
50.57940276
 20
5.6625197
 30
0.0
 11
50.60552708
 21
5.568922
 31
0.0
  0
LINE
  5
5F4
100
AcDbEntity
  8
レイヤー_1
  6
CONTINUOUS
 62
       3
100
AcDbLine
 10
50.60552708
 20
5.568922
 30
0.0
 11
50.64026001
 21
5.47926226
 31
0.0
  0
LINE
  5
5F5
100
AcDbEntity
  8
レイヤー_1
  6
CONTINUOUS
 62
       3
100
AcDbLine
 10
50.64026001
 20
5.47926226
 30
0.0
 11
50.68312241
 21
5.39401995
 31
0.0
  0
LINE
  5
5F6
100
AcDbEntity
  8
レイヤー_1
  6
CONTINUOUS
 62
       3
100
AcDbLine
 10
50.68312241
 20
5.39401995
 30
0.0
 11
50.73363512
 21
5.31367453
 31
0.0
  0
LINE
  5
5F7
100
AcDbEntity
  8
レイヤー_1
  6
CONTINUOUS
 62
       3
100
AcDbLine
 10
50.73363512
 20
5.31367453
 30
0.0
 11
50.79131899
 21
5.23870549
 31
0.0
  0
LINE
  5
5F8
100
AcDbEntity
  8
レイヤー_1
  6
CONTINUOUS
 62
       3
100
AcDbLine
 10
50.79131899
 20
5.23870549
 30
0.0
 11
50.85569489
 21
5.16959228
 31
0.0
  0
LINE
  5
5F9
100
AcDbEntity
  8
レイヤー_1
  6
CONTINUOUS
 62
       3
100
AcDbLine
 10
50.85569489
 20
5.16959228
 30
0.0
 11
50.92628365
 21
5.10681438
 31
0.0
  0
LINE
  5
5FA
100
AcDbEntity
  8
レイヤー_1
  6
CONTINUOUS
 62
       3
100
AcDbLine
 10
50.92628365
 20
5.10681438
 30
0.0
 11
51.00260613
 21
5.05085125
 31
0.0
  0
LINE
  5
5FB
100
AcDbEntity
  8
レイヤー_1
  6
CONTINUOUS
 62
       3
100
AcDbLine
 10
51.00260613
 20
5.05085125
 30
0.0
 11
51.08418319
 21
5.00218237
 31
0.0
  0
LINE
  5
5FC
100
AcDbEntity
  8
レイヤー_1
  6
CONTINUOUS
 62
       3
100
AcDbLine
 10
51.08418319
 20
5.00218237
 30
0.0
 11
51.17053567
 21
4.9612872
 31
0.0
  0
LINE
  5
5FD
100
AcDbEntity
  8
レイヤー_1
  6
CONTINUOUS
 62
       3
100
AcDbLine
 10
51.17053567
 20
4.9612872
 30
0.0
 11
51.26118443
 21
4.92864521
 31
0.0
  0
LINE
  5
5FE
100
AcDbEntity
  8
レイヤー_1
  6
CONTINUOUS
 62
       3
100
AcDbLine
 10
51.26118443
 20
4.92864521
 30
0.0
 11
51.35565032
 21
4.90473588
 31
0.0
  0
LINE
  5
5FF
100
AcDbEntity
  8
レイヤー_1
  6
CONTINUOUS
 62
       3
100
AcDbLine
 10
51.35565032
 20
4.90473588
 30
0.0
 11
51.45345419
 21
4.89003867
 31
0.0
  0
LINE
  5
600
100
AcDbEntity
  8
レイヤー_1
  6
CONTINUOUS
 62
       3
100
AcDbLine
 10
51.45345419
 20
4.89003867
 30
0.0
 11
51.55411689
 21
4.88503305
 31
0.0
  0
LINE
  5
601
100
AcDbEntity
  8
レイヤー_1
  6
CONTINUOUS
 62
       3
100
AcDbLine
 10
51.55411689
 20
9.88501371
 30
0.0
 11
51.65493396
 21
9.89002178
 31
0.0
  0
LINE
  5
602
100
AcDbEntity
  8
レイヤー_1
  6
CONTINUOUS
 62
       3
100
AcDbLine
 10
51.65493396
 20
9.89002178
 30
0.0
 11
51.75286347
 21
9.9047257
 31
0.0
  0
LINE
  5
603
100
AcDbEntity
  8
レイヤー_1
  6
CONTINUOUS
 62
       3
100
AcDbLine
 10
51.75286347
 20
9.9047257
 30
0.0
 11
51.84742882
 21
9.92864502
 31
0.0
  0
LINE
  5
604
100
AcDbEntity
  8
レイヤー_1
  6
CONTINUOUS
 62
       3
100
AcDbLine
 10
51.84742882
 20
9.92864502
 30
0.0
 11
51.93815343
 21
9.96129933
 31
0.0
  0
LINE
  5
605
100
AcDbEntity
  8
レイヤー_1
  6
CONTINUOUS
 62
       3
100
AcDbLine
 10
51.93815343
 20
9.96129933
 30
0.0
 11
52.02456074
 21
10.00220819
 31
0.0
  0
LINE
  5
606
100
AcDbEntity
  8
レイヤー_1
  6
CONTINUOUS
 62
       3
100
AcDbLine
 10
52.02456074
 20
10.00220819
 30
0.0
 11
52.10617415
 21
10.05089116
 31
0.0
  0
LINE
  5
607
100
AcDbEntity
  8
レイヤー_1
  6
CONTINUOUS
 62
       3
100
AcDbLine
 10
52.10617415
 20
10.05089116
 30
0.0
 11
52.18251709
 21
10.10686782
 31
0.0
  0
LINE
  5
608
100
AcDbEntity
  8
レイヤー_1
  6
CONTINUOUS
 62
       3
100
AcDbLine
 10
52.18251709
 20
10.10686782
 30
0.0
 11
52.25311299
 21
10.16965773
 31
0.0
  0
LINE
  5
609
100
AcDbEntity
  8
レイヤー_1
  6
CONTINUOUS
 62
       3
100
AcDbLine
 10
52.25311299
 20
10.16965773
 30
0.0
 11
52.31748526
 21
10.23878045
 31
0.0
  0
LINE
  5
60A
100
AcDbEntity
  8
レイヤー_1
  6
CONTINUOUS
 62
       3
100
AcDbLine
 10
52.31748526
 20
10.23878045
 30
0.0
 11
52.37515732
 21
10.31375556
 31
0.0
  0
LINE
  5
60B
100
AcDbEntity
  8
レイヤー_1
  6
CONTINUOUS
 62
       3
100
AcDbLine
 10
52.37515732
 20
10.31375556
 30
0.0
 11
52.42565259
 21
10.39410262
 31
0.0
  0
LINE
  5
60C
100
AcDbEntity
  8
レイヤー_1
  6
CONTINUOUS
 62
       3
100
AcDbLine
 10
52.42565259
 20
10.39410262
 30
0.0
 11
52.4684945
 21
10.47934119
 31
0.0
  0
LINE
  5
60D
100
AcDbEntity
  8
レイヤー_1
  6
CONTINUOUS
 62
       3
100
AcDbLine
 10
52.4684945
 20
10.47934119
 30
0.0
 11
52.50320647
 21
10.56899086
 31
0.0
  0
LINE
  5
60E
100
AcDbEntity
  8
レイヤー_1
  6
CONTINUOUS
 62
       3
100
AcDbLine
 10
52.50320647
 20
10.56899086
 30
0.0
 11
52.52931191
 21
10.66257117
 31
0.0
  0
LINE
  5
60F
100
AcDbEntity
  8
レイヤー_1
  6
CONTINUOUS
 62
       3
100
AcDbLine
 10
52.52931191
 20
10.66257117
 30
0.0
 11
52.54633425
 21
10.75960171
 31
0.0
  0
LINE
  5
610
100
AcDbEntity
  8
レイヤー_1
  6
CONTINUOUS
 62
       3
100
AcDbLine
 10
52.54633425
 20
10.75960171
 30
0.0
 11
52.55379691
 21
10.85960204
 31
0.0
  0
LINE
  5
611
100
AcDbEntity
  8
レイヤー_1
  6
CONTINUOUS
 62
       3
100
AcDbLine
 10
52.55379691
 20
10.85960204
 30
0.0
 11
52.55129032
 21
10.96078795
 31
0.0
  0
LINE
  5
612
100
AcDbEntity
  8
レイヤー_1
  6
CONTINUOUS
 62
       3
100
AcDbLine
 10
52.55129032
 20
10.96078795
 30
0.0
 11
52.53898825
 21
11.05939358
 31
0.0
  0
LINE
  5
613
100
AcDbEntity
  8
レイヤー_1
  6
CONTINUOUS
 62
       3
100
AcDbLine
 10
52.53898825
 20
11.05939358
 30
0.0
 11
52.51736479
 21
11.15478046
 31
0.0
  0
LINE
  5
614
100
AcDbEntity
  8
レイヤー_1
  6
CONTINUOUS
 62
       3
100
AcDbLine
 10
52.51736479
 20
11.15478046
 30
0.0
 11
52.48689651
 21
11.24646911
 31
0.0
  0
LINE
  5
615
100
AcDbEntity
  8
レイヤー_1
  6
CONTINUOUS
 62
       3
100
AcDbLine
 10
52.48689651
 20
11.24646911
 30
0.0
 11
52.44806
 21
11.33398007
 31
0.0
  0
LINE
  5
616
100
AcDbEntity
  8
レイヤー_1
  6
CONTINUOUS
 62
       3
100
AcDbLine
 10
52.44806
 20
11.33398007
 30
0.0
 11
52.40133184
 21
11.41683387
 31
0.0
  0
LINE
  5
617
100
AcDbEntity
  8
レイヤー_1
  6
CONTINUOUS
 62
       3
100
AcDbLine
 10
52.40133184
 20
11.41683387
 30
0.0
 11
52.3471886
 21
11.49455103
 31
0.0
  0
LINE
  5
618
100
AcDbEntity
  8
レイヤー_1
  6
CONTINUOUS
 62
       3
100
AcDbLine
 10
52.3471886
 20
11.49455103
 30
0.0
 11
52.28610686
 21
11.56665209
 31
0.0
  0
LINE
  5
619
100
AcDbEntity
  8
レイヤー_1
  6
CONTINUOUS
 62
       3
100
AcDbLine
 10
52.28610686
 20
11.56665209
 30
0.0
 11
52.21856321
 21
11.63265758
 31
0.0
  0
LINE
  5
61A
100
AcDbEntity
  8
レイヤー_1
  6
CONTINUOUS
 62
       3
100
AcDbLine
 10
52.21856321
 20
11.63265758
 30
0.0
 11
52.14503422
 21
11.69208803
 31
0.0
  0
LINE
  5
61B
100
AcDbEntity
  8
レイヤー_1
  6
CONTINUOUS
 62
       3
100
AcDbLine
 10
52.14503422
 20
11.69208803
 30
0.0
 11
52.06599647
 21
11.74446397
 31
0.0
  0
LINE
  5
61C
100
AcDbEntity
  8
レイヤー_1
  6
CONTINUOUS
 62
       3
100
AcDbLine
 10
52.06599647
 20
11.74446397
 30
0.0
 11
51.98192653
 21
11.78930593
 31
0.0
  0
LINE
  5
61D
100
AcDbEntity
  8
レイヤー_1
  6
CONTINUOUS
 62
       3
100
AcDbLine
 10
51.98192653
 20
11.78930593
 30
0.0
 11
51.893301
 21
11.82613444
 31
0.0
  0
LINE
  5
61E
100
AcDbEntity
  8
レイヤー_1
  6
CONTINUOUS
 62
       3
100
AcDbLine
 10
51.893301
 20
11.82613444
 30
0.0
 11
51.80059645
 21
11.85447003
 31
0.0
  0
LINE
  5
61F
100
AcDbEntity
  8
レイヤー_1
  6
CONTINUOUS
 62
       3
100
AcDbLine
 10
51.80059645
 20
11.85447003
 30
0.0
 11
51.70428945
 21
11.87383324
 31
0.0
  0
LINE
  5
620
100
AcDbEntity
  8
レイヤー_1
  6
CONTINUOUS
 62
       3
100
AcDbLine
 10
51.70428945
 20
11.87383324
 30
0.0
 11
51.60485659
 21
11.88374459
 31
0.0
  0
LINE
  5
621
100
AcDbEntity
  8
レイヤー_1
  6
CONTINUOUS
 62
       3
100
AcDbLine
 10
51.60485659
 20
11.88374459
 30
0.0
 11
51.50345813
 21
11.88374459
 31
0.0
  0
LINE
  5
622
100
AcDbEntity
  8
レイヤー_1
  6
CONTINUOUS
 62
       3
100
AcDbLine
 10
51.50345813
 20
11.88374459
 30
0.0
 11
51.40416495
 21
11.87383324
 31
0.0
  0
LINE
  5
623
100
AcDbEntity
  8
レイヤー_1
  6
CONTINUOUS
 62
       3
100
AcDbLine
 10
51.40416495
 20
11.87383324
 30
0.0
 11
51.30797018
 21
11.85447003
 31
0.0
  0
LINE
  5
624
100
AcDbEntity
  8
レイヤー_1
  6
CONTINUOUS
 62
       3
100
AcDbLine
 10
51.30797018
 20
11.85447003
 30
0.0
 11
51.21535297
 21
11.82613444
 31
0.0
  0
LINE
  5
625
100
AcDbEntity
  8
レイヤー_1
  6
CONTINUOUS
 62
       3
100
AcDbLine
 10
51.21535297
 20
11.82613444
 30
0.0
 11
51.12679245
 21
11.78930593
 31
0.0
  0
LINE
  5
626
100
AcDbEntity
  8
レイヤー_1
  6
CONTINUOUS
 62
       3
100
AcDbLine
 10
51.12679245
 20
11.78930593
 30
0.0
 11
51.04276779
 21
11.74446397
 31
0.0
  0
LINE
  5
627
100
AcDbEntity
  8
レイヤー_1
  6
CONTINUOUS
 62
       3
100
AcDbLine
 10
51.04276779
 20
11.74446397
 30
0.0
 11
50.96375812
 21
11.69208803
 31
0.0
  0
LINE
  5
628
100
AcDbEntity
  8
レイヤー_1
  6
CONTINUOUS
 62
       3
100
AcDbLine
 10
50.96375812
 20
11.69208803
 30
0.0
 11
50.89024261
 21
11.63265758
 31
0.0
  0
LINE
  5
629
100
AcDbEntity
  8
レイヤー_1
  6
CONTINUOUS
 62
       3
100
AcDbLine
 10
50.89024261
 20
11.63265758
 30
0.0
 11
50.82270038
 21
11.56665209
 31
0.0
  0
LINE
  5
62A
100
AcDbEntity
  8
レイヤー_1
  6
CONTINUOUS
 62
       3
100
AcDbLine
 10
50.82270038
 20
11.56665209
 30
0.0
 11
50.76161061
 21
11.49455103
 31
0.0
  0
LINE
  5
62B
100
AcDbEntity
  8
レイヤー_1
  6
CONTINUOUS
 62
       3
100
AcDbLine
 10
50.76161061
 20
11.49455103
 30
0.0
 11
50.70745242
 21
11.41683387
 31
0.0
  0
LINE
  5
62C
100
AcDbEntity
  8
レイヤー_1
  6
CONTINUOUS
 62
       3
100
AcDbLine
 10
50.70745242
 20
11.41683387
 30
0.0
 11
50.66070497
 21
11.33398007
 31
0.0
  0
LINE
  5
62D
100
AcDbEntity
  8
レイヤー_1
  6
CONTINUOUS
 62
       3
100
AcDbLine
 10
50.66070497
 20
11.33398007
 30
0.0
 11
50.62184742
 21
11.24646911
 31
0.0
  0
LINE
  5
62E
100
AcDbEntity
  8
レイヤー_1
  6
CONTINUOUS
 62
       3
100
AcDbLine
 10
50.62184742
 20
11.24646911
 30
0.0
 11
50.59135889
 21
11.15478046
 31
0.0
  0
LINE
  5
62F
100
AcDbEntity
  8
レイヤー_1
  6
CONTINUOUS
 62
       3
100
AcDbLine
 10
50.59135889
 20
11.15478046
 30
0.0
 11
50.56971856
 21
11.05939358
 31
0.0
  0
LINE
  5
630
100
AcDbEntity
  8
レイヤー_1
  6
CONTINUOUS
 62
       3
100
AcDbLine
 10
50.56971856
 20
11.05939358
 30
0.0
 11
50.55740555
 21
10.96078795
 31
0.0
  0
LINE
  5
631
100
AcDbEntity
  8
レイヤー_1
  6
CONTINUOUS
 62
       3
100
AcDbLine
 10
50.55740555
 20
10.96078795
 30
0.0
 11
50.55489654
 21
10.85960204
 31
0.0
  0
LINE
  5
632
100
AcDbEntity
  8
レイヤー_1
  6
CONTINUOUS
 62
       3
100
AcDbLine
 10
50.55489654
 20
10.85960204
 30
0.0
 11
50.56236619
 21
10.75960171
 31
0.0
  0
LINE
  5
633
100
AcDbEntity
  8
レイヤー_1
  6
CONTINUOUS
 62
       3
100
AcDbLine
 10
50.56236619
 20
10.75960171
 30
0.0
 11
50.57940276
 21
10.66257117
 31
0.0
  0
LINE
  5
634
100
AcDbEntity
  8
レイヤー_1
  6
CONTINUOUS
 62
       3
100
AcDbLine
 10
50.57940276
 20
10.66257117
 30
0.0
 11
50.60552708
 21
10.56899086
 31
0.0
  0
LINE
  5
635
100
AcDbEntity
  8
レイヤー_1
  6
CONTINUOUS
 62
       3
100
AcDbLine
 10
50.60552708
 20
10.56899086
 30
0.0
 11
50.64026001
 21
10.47934119
 31
0.0
  0
LINE
  5
636
100
AcDbEntity
  8
レイヤー_1
  6
CONTINUOUS
 62
       3
100
AcDbLine
 10
50.64026001
 20
10.47934119
 30
0.0
 11
50.68312241
 21
10.39410262
 31
0.0
  0
LINE
  5
637
100
AcDbEntity
  8
レイヤー_1
  6
CONTINUOUS
 62
       3
100
AcDbLine
 10
50.68312241
 20
10.39410262
 30
0.0
 11
50.73363512
 21
10.31375556
 31
0.0
  0
LINE
  5
638
100
AcDbEntity
  8
レイヤー_1
  6
CONTINUOUS
 62
       3
100
AcDbLine
 10
50.73363512
 20
10.31375556
 30
0.0
 11
50.79131899
 21
10.23878045
 31
0.0
  0
LINE
  5
639
100
AcDbEntity
  8
レイヤー_1
  6
CONTINUOUS
 62
       3
100
AcDbLine
 10
50.79131899
 20
10.23878045
 30
0.0
 11
50.85569489
 21
10.16965773
 31
0.0
  0
LINE
  5
63A
100
AcDbEntity
  8
レイヤー_1
  6
CONTINUOUS
 62
       3
100
AcDbLine
 10
50.85569489
 20
10.16965773
 30
0.0
 11
50.92628365
 21
10.10686782
 31
0.0
  0
LINE
  5
63B
100
AcDbEntity
  8
レイヤー_1
  6
CONTINUOUS
 62
       3
100
AcDbLine
 10
50.92628365
 20
10.10686782
 30
0.0
 11
51.00260613
 21
10.05089116
 31
0.0
  0
LINE
  5
63C
100
AcDbEntity
  8
レイヤー_1
  6
CONTINUOUS
 62
       3
100
AcDbLine
 10
51.00260613
 20
10.05089116
 30
0.0
 11
51.08418319
 21
10.00220819
 31
0.0
  0
LINE
  5
63D
100
AcDbEntity
  8
レイヤー_1
  6
CONTINUOUS
 62
       3
100
AcDbLine
 10
51.08418319
 20
10.00220819
 30
0.0
 11
51.17053567
 21
9.96129933
 31
0.0
  0
LINE
  5
63E
100
AcDbEntity
  8
レイヤー_1
  6
CONTINUOUS
 62
       3
100
AcDbLine
 10
51.17053567
 20
9.96129933
 30
0.0
 11
51.26118443
 21
9.92864502
 31
0.0
  0
LINE
  5
63F
100
AcDbEntity
  8
レイヤー_1
  6
CONTINUOUS
 62
       3
100
AcDbLine
 10
51.26118443
 20
9.92864502
 30
0.0
 11
51.35565032
 21
9.9047257
 31
0.0
  0
LINE
  5
640
100
AcDbEntity
  8
レイヤー_1
  6
CONTINUOUS
 62
       3
100
AcDbLine
 10
51.35565032
 20
9.9047257
 30
0.0
 11
51.45345419
 21
9.89002178
 31
0.0
  0
LINE
  5
641
100
AcDbEntity
  8
レイヤー_1
  6
CONTINUOUS
 62
       3
100
AcDbLine
 10
51.45345419
 20
9.89002178
 30
0.0
 11
51.55411689
 21
9.88501371
 31
0.0
  0
LINE
  5
642
100
AcDbEntity
  8
レイヤー_1
  6
CONTINUOUS
 62
       3
100
AcDbLine
 10
51.55411689
 20
14.88499438
 30
0.0
 11
51.65493396
 21
14.89000245
 31
0.0
  0
LINE
  5
643
100
AcDbEntity
  8
レイヤー_1
  6
CONTINUOUS
 62
       3
100
AcDbLine
 10
51.65493396
 20
14.89000245
 30
0.0
 11
51.75286347
 21
14.90470636
 31
0.0
  0
LINE
  5
644
100
AcDbEntity
  8
レイヤー_1
  6
CONTINUOUS
 62
       3
100
AcDbLine
 10
51.75286347
 20
14.90470636
 30
0.0
 11
51.84742882
 21
14.92862569
 31
0.0
  0
LINE
  5
645
100
AcDbEntity
  8
レイヤー_1
  6
CONTINUOUS
 62
       3
100
AcDbLine
 10
51.84742882
 20
14.92862569
 30
0.0
 11
51.93815343
 21
14.96128
 31
0.0
  0
LINE
  5
646
100
AcDbEntity
  8
レイヤー_1
  6
CONTINUOUS
 62
       3
100
AcDbLine
 10
51.93815343
 20
14.96128
 30
0.0
 11
52.02456074
 21
15.00218886
 31
0.0
  0
LINE
  5
647
100
AcDbEntity
  8
レイヤー_1
  6
CONTINUOUS
 62
       3
100
AcDbLine
 10
52.02456074
 20
15.00218886
 30
0.0
 11
52.10617415
 21
15.05087183
 31
0.0
  0
LINE
  5
648
100
AcDbEntity
  8
レイヤー_1
  6
CONTINUOUS
 62
       3
100
AcDbLine
 10
52.10617415
 20
15.05087183
 30
0.0
 11
52.18251709
 21
15.10684848
 31
0.0
  0
LINE
  5
649
100
AcDbEntity
  8
レイヤー_1
  6
CONTINUOUS
 62
       3
100
AcDbLine
 10
52.18251709
 20
15.10684848
 30
0.0
 11
52.25311299
 21
15.16963839
 31
0.0
  0
LINE
  5
64A
100
AcDbEntity
  8
レイヤー_1
  6
CONTINUOUS
 62
       3
100
AcDbLine
 10
52.25311299
 20
15.16963839
 30
0.0
 11
52.31748526
 21
15.23876111
 31
0.0
  0
LINE
  5
64B
100
AcDbEntity
  8
レイヤー_1
  6
CONTINUOUS
 62
       3
100
AcDbLine
 10
52.31748526
 20
15.23876111
 30
0.0
 11
52.37515732
 21
15.31373622
 31
0.0
  0
LINE
  5
64C
100
AcDbEntity
  8
レイヤー_1
  6
CONTINUOUS
 62
       3
100
AcDbLine
 10
52.37515732
 20
15.31373622
 30
0.0
 11
52.42565259
 21
15.39408328
 31
0.0
  0
LINE
  5
64D
100
AcDbEntity
  8
レイヤー_1
  6
CONTINUOUS
 62
       3
100
AcDbLine
 10
52.42565259
 20
15.39408328
 30
0.0
 11
52.4684945
 21
15.47932186
 31
0.0
  0
LINE
  5
64E
100
AcDbEntity
  8
レイヤー_1
  6
CONTINUOUS
 62
       3
100
AcDbLine
 10
52.4684945
 20
15.47932186
 30
0.0
 11
52.50320647
 21
15.56897152
 31
0.0
  0
LINE
  5
64F
100
AcDbEntity
  8
レイヤー_1
  6
CONTINUOUS
 62
       3
100
AcDbLine
 10
52.50320647
 20
15.56897152
 30
0.0
 11
52.52931191
 21
15.66255184
 31
0.0
  0
LINE
  5
650
100
AcDbEntity
  8
レイヤー_1
  6
CONTINUOUS
 62
       3
100
AcDbLine
 10
52.52931191
 20
15.66255184
 30
0.0
 11
52.54633425
 21
15.75958238
 31
0.0
  0
LINE
  5
651
100
AcDbEntity
  8
レイヤー_1
  6
CONTINUOUS
 62
       3
100
AcDbLine
 10
52.54633425
 20
15.75958238
 30
0.0
 11
52.55379691
 21
15.8595827
 31
0.0
  0
LINE
  5
652
100
AcDbEntity
  8
レイヤー_1
  6
CONTINUOUS
 62
       3
100
AcDbLine
 10
52.55379691
 20
15.8595827
 30
0.0
 11
52.55129032
 21
15.96076861
 31
0.0
  0
LINE
  5
653
100
AcDbEntity
  8
レイヤー_1
  6
CONTINUOUS
 62
       3
100
AcDbLine
 10
52.55129032
 20
15.96076861
 30
0.0
 11
52.53898825
 21
16.05937425
 31
0.0
  0
LINE
  5
654
100
AcDbEntity
  8
レイヤー_1
  6
CONTINUOUS
 62
       3
100
AcDbLine
 10
52.53898825
 20
16.05937425
 30
0.0
 11
52.51736479
 21
16.15476112
 31
0.0
  0
LINE
  5
655
100
AcDbEntity
  8
レイヤー_1
  6
CONTINUOUS
 62
       3
100
AcDbLine
 10
52.51736479
 20
16.15476112
 30
0.0
 11
52.48689651
 21
16.24644978
 31
0.0
  0
LINE
  5
656
100
AcDbEntity
  8
レイヤー_1
  6
CONTINUOUS
 62
       3
100
AcDbLine
 10
52.48689651
 20
16.24644978
 30
0.0
 11
52.44806
 21
16.33396074
 31
0.0
  0
LINE
  5
657
100
AcDbEntity
  8
レイヤー_1
  6
CONTINUOUS
 62
       3
100
AcDbLine
 10
52.44806
 20
16.33396074
 30
0.0
 11
52.40133184
 21
16.41681453
 31
0.0
  0
LINE
  5
658
100
AcDbEntity
  8
レイヤー_1
  6
CONTINUOUS
 62
       3
100
AcDbLine
 10
52.40133184
 20
16.41681453
 30
0.0
 11
52.3471886
 21
16.49453169
 31
0.0
  0
LINE
  5
659
100
AcDbEntity
  8
レイヤー_1
  6
CONTINUOUS
 62
       3
100
AcDbLine
 10
52.3471886
 20
16.49453169
 30
0.0
 11
52.28610686
 21
16.56663276
 31
0.0
  0
LINE
  5
65A
100
AcDbEntity
  8
レイヤー_1
  6
CONTINUOUS
 62
       3
100
AcDbLine
 10
52.28610686
 20
16.56663276
 30
0.0
 11
52.21856321
 21
16.63263825
 31
0.0
  0
LINE
  5
65B
100
AcDbEntity
  8
レイヤー_1
  6
CONTINUOUS
 62
       3
100
AcDbLine
 10
52.21856321
 20
16.63263825
 30
0.0
 11
52.14503422
 21
16.69206869
 31
0.0
  0
LINE
  5
65C
100
AcDbEntity
  8
レイヤー_1
  6
CONTINUOUS
 62
       3
100
AcDbLine
 10
52.14503422
 20
16.69206869
 30
0.0
 11
52.06599647
 21
16.74444463
 31
0.0
  0
LINE
  5
65D
100
AcDbEntity
  8
レイヤー_1
  6
CONTINUOUS
 62
       3
100
AcDbLine
 10
52.06599647
 20
16.74444463
 30
0.0
 11
51.98192653
 21
16.78928659
 31
0.0
  0
LINE
  5
65E
100
AcDbEntity
  8
レイヤー_1
  6
CONTINUOUS
 62
       3
100
AcDbLine
 10
51.98192653
 20
16.78928659
 30
0.0
 11
51.893301
 21
16.8261151
 31
0.0
  0
LINE
  5
65F
100
AcDbEntity
  8
レイヤー_1
  6
CONTINUOUS
 62
       3
100
AcDbLine
 10
51.893301
 20
16.8261151
 30
0.0
 11
51.80059645
 21
16.8544507
 31
0.0
  0
LINE
  5
660
100
AcDbEntity
  8
レイヤー_1
  6
CONTINUOUS
 62
       3
100
AcDbLine
 10
51.80059645
 20
16.8544507
 30
0.0
 11
51.70428945
 21
16.8738139
 31
0.0
  0
LINE
  5
661
100
AcDbEntity
  8
レイヤー_1
  6
CONTINUOUS
 62
       3
100
AcDbLine
 10
51.70428945
 20
16.8738139
 30
0.0
 11
51.60485659
 21
16.88372525
 31
0.0
  0
LINE
  5
662
100
AcDbEntity
  8
レイヤー_1
  6
CONTINUOUS
 62
       3
100
AcDbLine
 10
51.60485659
 20
16.88372525
 30
0.0
 11
51.50345813
 21
16.88372525
 31
0.0
  0
LINE
  5
663
100
AcDbEntity
  8
レイヤー_1
  6
CONTINUOUS
 62
       3
100
AcDbLine
 10
51.50345813
 20
16.88372525
 30
0.0
 11
51.40416495
 21
16.8738139
 31
0.0
  0
LINE
  5
664
100
AcDbEntity
  8
レイヤー_1
  6
CONTINUOUS
 62
       3
100
AcDbLine
 10
51.40416495
 20
16.8738139
 30
0.0
 11
51.30797018
 21
16.8544507
 31
0.0
  0
LINE
  5
665
100
AcDbEntity
  8
レイヤー_1
  6
CONTINUOUS
 62
       3
100
AcDbLine
 10
51.30797018
 20
16.8544507
 30
0.0
 11
51.21535297
 21
16.8261151
 31
0.0
  0
LINE
  5
666
100
AcDbEntity
  8
レイヤー_1
  6
CONTINUOUS
 62
       3
100
AcDbLine
 10
51.21535297
 20
16.8261151
 30
0.0
 11
51.12679245
 21
16.78928659
 31
0.0
  0
LINE
  5
667
100
AcDbEntity
  8
レイヤー_1
  6
CONTINUOUS
 62
       3
100
AcDbLine
 10
51.12679245
 20
16.78928659
 30
0.0
 11
51.04276779
 21
16.74444463
 31
0.0
  0
LINE
  5
668
100
AcDbEntity
  8
レイヤー_1
  6
CONTINUOUS
 62
       3
100
AcDbLine
 10
51.04276779
 20
16.74444463
 30
0.0
 11
50.96375812
 21
16.69206869
 31
0.0
  0
LINE
  5
669
100
AcDbEntity
  8
レイヤー_1
  6
CONTINUOUS
 62
       3
100
AcDbLine
 10
50.96375812
 20
16.69206869
 30
0.0
 11
50.89024261
 21
16.63263825
 31
0.0
  0
LINE
  5
66A
100
AcDbEntity
  8
レイヤー_1
  6
CONTINUOUS
 62
       3
100
AcDbLine
 10
50.89024261
 20
16.63263825
 30
0.0
 11
50.82270038
 21
16.56663276
 31
0.0
  0
LINE
  5
66B
100
AcDbEntity
  8
レイヤー_1
  6
CONTINUOUS
 62
       3
100
AcDbLine
 10
50.82270038
 20
16.56663276
 30
0.0
 11
50.76161061
 21
16.49453169
 31
0.0
  0
LINE
  5
66C
100
AcDbEntity
  8
レイヤー_1
  6
CONTINUOUS
 62
       3
100
AcDbLine
 10
50.76161061
 20
16.49453169
 30
0.0
 11
50.70745242
 21
16.41681453
 31
0.0
  0
LINE
  5
66D
100
AcDbEntity
  8
レイヤー_1
  6
CONTINUOUS
 62
       3
100
AcDbLine
 10
50.70745242
 20
16.41681453
 30
0.0
 11
50.66070497
 21
16.33396074
 31
0.0
  0
LINE
  5
66E
100
AcDbEntity
  8
レイヤー_1
  6
CONTINUOUS
 62
       3
100
AcDbLine
 10
50.66070497
 20
16.33396074
 30
0.0
 11
50.62184742
 21
16.24644978
 31
0.0
  0
LINE
  5
66F
100
AcDbEntity
  8
レイヤー_1
  6
CONTINUOUS
 62
       3
100
AcDbLine
 10
50.62184742
 20
16.24644978
 30
0.0
 11
50.59135889
 21
16.15476112
 31
0.0
  0
LINE
  5
670
100
AcDbEntity
  8
レイヤー_1
  6
CONTINUOUS
 62
       3
100
AcDbLine
 10
50.59135889
 20
16.15476112
 30
0.0
 11
50.56971856
 21
16.05937425
 31
0.0
  0
LINE
  5
671
100
AcDbEntity
  8
レイヤー_1
  6
CONTINUOUS
 62
       3
100
AcDbLine
 10
50.56971856
 20
16.05937425
 30
0.0
 11
50.55740555
 21
15.96076861
 31
0.0
  0
LINE
  5
672
100
AcDbEntity
  8
レイヤー_1
  6
CONTINUOUS
 62
       3
100
AcDbLine
 10
50.55740555
 20
15.96076861
 30
0.0
 11
50.55489654
 21
15.8595827
 31
0.0
  0
LINE
  5
673
100
AcDbEntity
  8
レイヤー_1
  6
CONTINUOUS
 62
       3
100
AcDbLine
 10
50.55489654
 20
15.8595827
 30
0.0
 11
50.56236619
 21
15.75958238
 31
0.0
  0
LINE
  5
674
100
AcDbEntity
  8
レイヤー_1
  6
CONTINUOUS
 62
       3
100
AcDbLine
 10
50.56236619
 20
15.75958238
 30
0.0
 11
50.57940276
 21
15.66255184
 31
0.0
  0
LINE
  5
675
100
AcDbEntity
  8
レイヤー_1
  6
CONTINUOUS
 62
       3
100
AcDbLine
 10
50.57940276
 20
15.66255184
 30
0.0
 11
50.60552708
 21
15.56897152
 31
0.0
  0
LINE
  5
676
100
AcDbEntity
  8
レイヤー_1
  6
CONTINUOUS
 62
       3
100
AcDbLine
 10
50.60552708
 20
15.56897152
 30
0.0
 11
50.64026001
 21
15.47932186
 31
0.0
  0
LINE
  5
677
100
AcDbEntity
  8
レイヤー_1
  6
CONTINUOUS
 62
       3
100
AcDbLine
 10
50.64026001
 20
15.47932186
 30
0.0
 11
50.68312241
 21
15.39408328
 31
0.0
  0
LINE
  5
678
100
AcDbEntity
  8
レイヤー_1
  6
CONTINUOUS
 62
       3
100
AcDbLine
 10
50.68312241
 20
15.39408328
 30
0.0
 11
50.73363512
 21
15.31373622
 31
0.0
  0
LINE
  5
679
100
AcDbEntity
  8
レイヤー_1
  6
CONTINUOUS
 62
       3
100
AcDbLine
 10
50.73363512
 20
15.31373622
 30
0.0
 11
50.79131899
 21
15.23876111
 31
0.0
  0
LINE
  5
67A
100
AcDbEntity
  8
レイヤー_1
  6
CONTINUOUS
 62
       3
100
AcDbLine
 10
50.79131899
 20
15.23876111
 30
0.0
 11
50.85569489
 21
15.16963839
 31
0.0
  0
LINE
  5
67B
100
AcDbEntity
  8
レイヤー_1
  6
CONTINUOUS
 62
       3
100
AcDbLine
 10
50.85569489
 20
15.16963839
 30
0.0
 11
50.92628365
 21
15.10684848
 31
0.0
  0
LINE
  5
67C
100
AcDbEntity
  8
レイヤー_1
  6
CONTINUOUS
 62
       3
100
AcDbLine
 10
50.92628365
 20
15.10684848
 30
0.0
 11
51.00260613
 21
15.05087183
 31
0.0
  0
LINE
  5
67D
100
AcDbEntity
  8
レイヤー_1
  6
CONTINUOUS
 62
       3
100
AcDbLine
 10
51.00260613
 20
15.05087183
 30
0.0
 11
51.08418319
 21
15.00218886
 31
0.0
  0
LINE
  5
67E
100
AcDbEntity
  8
レイヤー_1
  6
CONTINUOUS
 62
       3
100
AcDbLine
 10
51.08418319
 20
15.00218886
 30
0.0
 11
51.17053567
 21
14.96128
 31
0.0
  0
LINE
  5
67F
100
AcDbEntity
  8
レイヤー_1
  6
CONTINUOUS
 62
       3
100
AcDbLine
 10
51.17053567
 20
14.96128
 30
0.0
 11
51.26118443
 21
14.92862569
 31
0.0
  0
LINE
  5
680
100
AcDbEntity
  8
レイヤー_1
  6
CONTINUOUS
 62
       3
100
AcDbLine
 10
51.26118443
 20
14.92862569
 30
0.0
 11
51.35565032
 21
14.90470636
 31
0.0
  0
LINE
  5
681
100
AcDbEntity
  8
レイヤー_1
  6
CONTINUOUS
 62
       3
100
AcDbLine
 10
51.35565032
 20
14.90470636
 30
0.0
 11
51.45345419
 21
14.89000245
 31
0.0
  0
LINE
  5
682
100
AcDbEntity
  8
レイヤー_1
  6
CONTINUOUS
 62
       3
100
AcDbLine
 10
51.45345419
 20
14.89000245
 30
0.0
 11
51.55411689
 21
14.88499438
 31
0.0
  0
LINE
  5
683
100
AcDbEntity
  8
レイヤー_1
  6
CONTINUOUS
 62
       3
100
AcDbLine
 10
47.5545917
 20
2.38504272
 30
0.0
 11
47.65525941
 21
2.39004834
 31
0.0
  0
LINE
  5
684
100
AcDbEntity
  8
レイヤー_1
  6
CONTINUOUS
 62
       3
100
AcDbLine
 10
47.65525941
 20
2.39004834
 30
0.0
 11
47.75307743
 21
2.40474555
 31
0.0
  0
LINE
  5
685
100
AcDbEntity
  8
レイヤー_1
  6
CONTINUOUS
 62
       3
100
AcDbLine
 10
47.75307743
 20
2.40474555
 30
0.0
 11
47.84756534
 21
2.42865488
 31
0.0
  0
LINE
  5
686
100
AcDbEntity
  8
レイヤー_1
  6
CONTINUOUS
 62
       3
100
AcDbLine
 10
47.84756534
 20
2.42865488
 30
0.0
 11
47.93824271
 21
2.46129686
 31
0.0
  0
LINE
  5
687
100
AcDbEntity
  8
レイヤー_1
  6
CONTINUOUS
 62
       3
100
AcDbLine
 10
47.93824271
 20
2.46129686
 30
0.0
 11
48.0246291
 21
2.50219203
 31
0.0
  0
LINE
  5
688
100
AcDbEntity
  8
レイヤー_1
  6
CONTINUOUS
 62
       3
100
AcDbLine
 10
48.0246291
 20
2.50219203
 30
0.0
 11
48.10624408
 21
2.55086092
 31
0.0
  0
LINE
  5
689
100
AcDbEntity
  8
レイヤー_1
  6
CONTINUOUS
 62
       3
100
AcDbLine
 10
48.10624408
 20
2.55086092
 30
0.0
 11
48.18260722
 21
2.60682404
 31
0.0
  0
LINE
  5
68A
100
AcDbEntity
  8
レイヤー_1
  6
CONTINUOUS
 62
       3
100
AcDbLine
 10
48.18260722
 20
2.60682404
 30
0.0
 11
48.25323808
 21
2.66960195
 31
0.0
  0
LINE
  5
68B
100
AcDbEntity
  8
レイヤー_1
  6
CONTINUOUS
 62
       3
100
AcDbLine
 10
48.25323808
 20
2.66960195
 30
0.0
 11
48.31765623
 21
2.73871516
 31
0.0
  0
LINE
  5
68C
100
AcDbEntity
  8
レイヤー_1
  6
CONTINUOUS
 62
       3
100
AcDbLine
 10
48.31765623
 20
2.73871516
 30
0.0
 11
48.37538124
 21
2.8136842
 31
0.0
  0
LINE
  5
68D
100
AcDbEntity
  8
レイヤー_1
  6
CONTINUOUS
 62
       3
100
AcDbLine
 10
48.37538124
 20
2.8136842
 30
0.0
 11
48.42593267
 21
2.89402962
 31
0.0
  0
LINE
  5
68E
100
AcDbEntity
  8
レイヤー_1
  6
CONTINUOUS
 62
       3
100
AcDbLine
 10
48.42593267
 20
2.89402962
 30
0.0
 11
48.4688301
 21
2.97927193
 31
0.0
  0
LINE
  5
68F
100
AcDbEntity
  8
レイヤー_1
  6
CONTINUOUS
 62
       3
100
AcDbLine
 10
48.4688301
 20
2.97927193
 30
0.0
 11
48.50359309
 21
3.06893167
 31
0.0
  0
LINE
  5
690
100
AcDbEntity
  8
レイヤー_1
  6
CONTINUOUS
 62
       3
100
AcDbLine
 10
48.50359309
 20
3.06893167
 30
0.0
 11
48.5297412
 21
3.16252937
 31
0.0
  0
LINE
  5
691
100
AcDbEntity
  8
レイヤー_1
  6
CONTINUOUS
 62
       3
100
AcDbLine
 10
48.5297412
 20
3.16252937
 30
0.0
 11
48.54679401
 21
3.25958555
 31
0.0
  0
LINE
  5
692
100
AcDbEntity
  8
レイヤー_1
  6
CONTINUOUS
 62
       3
100
AcDbLine
 10
48.54679401
 20
3.25958555
 30
0.0
 11
48.55427108
 21
3.35962076
 31
0.0
  0
LINE
  5
693
100
AcDbEntity
  8
レイヤー_1
  6
CONTINUOUS
 62
       3
100
AcDbLine
 10
48.55427108
 20
3.35962076
 30
0.0
 11
48.55175954
 21
3.46078802
 31
0.0
  0
LINE
  5
694
100
AcDbEntity
  8
レイヤー_1
  6
CONTINUOUS
 62
       3
100
AcDbLine
 10
48.55175954
 20
3.46078802
 30
0.0
 11
48.53943454
 21
3.5593635
 31
0.0
  0
LINE
  5
695
100
AcDbEntity
  8
レイヤー_1
  6
CONTINUOUS
 62
       3
100
AcDbLine
 10
48.53943454
 20
3.5593635
 30
0.0
 11
48.51777403
 21
3.65472899
 31
0.0
  0
LINE
  5
696
100
AcDbEntity
  8
レイヤー_1
  6
CONTINUOUS
 62
       3
100
AcDbLine
 10
48.51777403
 20
3.65472899
 30
0.0
 11
48.48725842
 21
3.74640403
 31
0.0
  0
LINE
  5
697
100
AcDbEntity
  8
レイヤー_1
  6
CONTINUOUS
 62
       3
100
AcDbLine
 10
48.48725842
 20
3.74640403
 30
0.0
 11
48.44836816
 21
3.8339082
 31
0.0
  0
LINE
  5
698
100
AcDbEntity
  8
レイヤー_1
  6
CONTINUOUS
 62
       3
100
AcDbLine
 10
48.44836816
 20
3.8339082
 30
0.0
 11
48.40158368
 21
3.91676108
 31
0.0
  0
LINE
  5
699
100
AcDbEntity
  8
レイヤー_1
  6
CONTINUOUS
 62
       3
100
AcDbLine
 10
48.40158368
 20
3.91676108
 30
0.0
 11
48.3473854
 21
3.99448221
 31
0.0
  0
LINE
  5
69A
100
AcDbEntity
  8
レイヤー_1
  6
CONTINUOUS
 62
       3
100
AcDbLine
 10
48.3473854
 20
3.99448221
 30
0.0
 11
48.28625377
 21
4.06659118
 31
0.0
  0
LINE
  5
69B
100
AcDbEntity
  8
レイヤー_1
  6
CONTINUOUS
 62
       3
100
AcDbLine
 10
48.28625377
 20
4.06659118
 30
0.0
 11
48.21866921
 21
4.13260755
 31
0.0
  0
LINE
  5
69C
100
AcDbEntity
  8
レイヤー_1
  6
CONTINUOUS
 62
       3
100
AcDbLine
 10
48.21866921
 20
4.13260755
 30
0.0
 11
48.14511216
 21
4.19205089
 31
0.0
  0
LINE
  5
69D
100
AcDbEntity
  8
レイヤー_1
  6
CONTINUOUS
 62
       3
100
AcDbLine
 10
48.14511216
 20
4.19205089
 30
0.0
 11
48.06606304
 21
4.24444076
 31
0.0
  0
LINE
  5
69E
100
AcDbEntity
  8
レイヤー_1
  6
CONTINUOUS
 62
       3
100
AcDbLine
 10
48.06606304
 20
4.24444076
 30
0.0
 11
47.98200231
 21
4.28929673
 31
0.0
  0
LINE
  5
69F
100
AcDbEntity
  8
レイヤー_1
  6
CONTINUOUS
 62
       3
100
AcDbLine
 10
47.98200231
 20
4.28929673
 30
0.0
 11
47.89341037
 21
4.32613836
 31
0.0
  0
LINE
  5
6A0
100
AcDbEntity
  8
レイヤー_1
  6
CONTINUOUS
 62
       3
100
AcDbLine
 10
47.89341037
 20
4.32613836
 30
0.0
 11
47.80076768
 21
4.35448524
 31
0.0
  0
LINE
  5
6A1
100
AcDbEntity
  8
レイヤー_1
  6
CONTINUOUS
 62
       3
100
AcDbLine
 10
47.80076768
 20
4.35448524
 30
0.0
 11
47.70455466
 21
4.37385691
 31
0.0
  0
LINE
  5
6A2
100
AcDbEntity
  8
レイヤー_1
  6
CONTINUOUS
 62
       3
100
AcDbLine
 10
47.70455466
 20
4.37385691
 30
0.0
 11
47.60525174
 21
4.38377296
 31
0.0
  0
LINE
  5
6A3
100
AcDbEntity
  8
レイヤー_1
  6
CONTINUOUS
 62
       3
100
AcDbLine
 10
47.60525174
 20
4.38377296
 30
0.0
 11
47.50393167
 21
4.38377296
 31
0.0
  0
LINE
  5
6A4
100
AcDbEntity
  8
レイヤー_1
  6
CONTINUOUS
 62
       3
100
AcDbLine
 10
47.50393167
 20
4.38377296
 30
0.0
 11
47.40462875
 21
4.37385691
 31
0.0
  0
LINE
  5
6A5
100
AcDbEntity
  8
レイヤー_1
  6
CONTINUOUS
 62
       3
100
AcDbLine
 10
47.40462875
 20
4.37385691
 30
0.0
 11
47.30841573
 21
4.35448524
 31
0.0
  0
LINE
  5
6A6
100
AcDbEntity
  8
レイヤー_1
  6
CONTINUOUS
 62
       3
100
AcDbLine
 10
47.30841573
 20
4.35448524
 30
0.0
 11
47.21577303
 21
4.32613836
 31
0.0
  0
LINE
  5
6A7
100
AcDbEntity
  8
レイヤー_1
  6
CONTINUOUS
 62
       3
100
AcDbLine
 10
47.21577303
 20
4.32613836
 30
0.0
 11
47.1271811
 21
4.28929673
 31
0.0
  0
LINE
  5
6A8
100
AcDbEntity
  8
レイヤー_1
  6
CONTINUOUS
 62
       3
100
AcDbLine
 10
47.1271811
 20
4.28929673
 30
0.0
 11
47.04312036
 21
4.24444076
 31
0.0
  0
LINE
  5
6A9
100
AcDbEntity
  8
レイヤー_1
  6
CONTINUOUS
 62
       3
100
AcDbLine
 10
47.04312036
 20
4.24444076
 30
0.0
 11
46.96407125
 21
4.19205089
 31
0.0
  0
LINE
  5
6AA
100
AcDbEntity
  8
レイヤー_1
  6
CONTINUOUS
 62
       3
100
AcDbLine
 10
46.96407125
 20
4.19205089
 30
0.0
 11
46.8905142
 21
4.13260755
 31
0.0
  0
LINE
  5
6AB
100
AcDbEntity
  8
レイヤー_1
  6
CONTINUOUS
 62
       3
100
AcDbLine
 10
46.8905142
 20
4.13260755
 30
0.0
 11
46.82292964
 21
4.06659118
 31
0.0
  0
LINE
  5
6AC
100
AcDbEntity
  8
レイヤー_1
  6
CONTINUOUS
 62
       3
100
AcDbLine
 10
46.82292964
 20
4.06659118
 30
0.0
 11
46.761798
 21
3.99448221
 31
0.0
  0
LINE
  5
6AD
100
AcDbEntity
  8
レイヤー_1
  6
CONTINUOUS
 62
       3
100
AcDbLine
 10
46.761798
 20
3.99448221
 30
0.0
 11
46.70759973
 21
3.91676108
 31
0.0
  0
LINE
  5
6AE
100
AcDbEntity
  8
レイヤー_1
  6
CONTINUOUS
 62
       3
100
AcDbLine
 10
46.70759973
 20
3.91676108
 30
0.0
 11
46.66081524
 21
3.8339082
 31
0.0
  0
LINE
  5
6AF
100
AcDbEntity
  8
レイヤー_1
  6
CONTINUOUS
 62
       3
100
AcDbLine
 10
46.66081524
 20
3.8339082
 30
0.0
 11
46.62192498
 21
3.74640403
 31
0.0
  0
LINE
  5
6B0
100
AcDbEntity
  8
レイヤー_1
  6
CONTINUOUS
 62
       3
100
AcDbLine
 10
46.62192498
 20
3.74640403
 30
0.0
 11
46.59140938
 21
3.65472899
 31
0.0
  0
LINE
  5
6B1
100
AcDbEntity
  8
レイヤー_1
  6
CONTINUOUS
 62
       3
100
AcDbLine
 10
46.59140938
 20
3.65472899
 30
0.0
 11
46.56974886
 21
3.5593635
 31
0.0
  0
LINE
  5
6B2
100
AcDbEntity
  8
レイヤー_1
  6
CONTINUOUS
 62
       3
100
AcDbLine
 10
46.56974886
 20
3.5593635
 30
0.0
 11
46.55742387
 21
3.46078802
 31
0.0
  0
LINE
  5
6B3
100
AcDbEntity
  8
レイヤー_1
  6
CONTINUOUS
 62
       3
100
AcDbLine
 10
46.55742387
 20
3.46078802
 30
0.0
 11
46.55491233
 21
3.35962076
 31
0.0
  0
LINE
  5
6B4
100
AcDbEntity
  8
レイヤー_1
  6
CONTINUOUS
 62
       3
100
AcDbLine
 10
46.55491233
 20
3.35962076
 30
0.0
 11
46.5623894
 21
3.25958555
 31
0.0
  0
LINE
  5
6B5
100
AcDbEntity
  8
レイヤー_1
  6
CONTINUOUS
 62
       3
100
AcDbLine
 10
46.5623894
 20
3.25958555
 30
0.0
 11
46.57944221
 21
3.16252937
 31
0.0
  0
LINE
  5
6B6
100
AcDbEntity
  8
レイヤー_1
  6
CONTINUOUS
 62
       3
100
AcDbLine
 10
46.57944221
 20
3.16252937
 30
0.0
 11
46.60559032
 21
3.06893167
 31
0.0
  0
LINE
  5
6B7
100
AcDbEntity
  8
レイヤー_1
  6
CONTINUOUS
 62
       3
100
AcDbLine
 10
46.60559032
 20
3.06893167
 30
0.0
 11
46.64035331
 21
2.97927193
 31
0.0
  0
LINE
  5
6B8
100
AcDbEntity
  8
レイヤー_1
  6
CONTINUOUS
 62
       3
100
AcDbLine
 10
46.64035331
 20
2.97927193
 30
0.0
 11
46.68325073
 21
2.89402962
 31
0.0
  0
LINE
  5
6B9
100
AcDbEntity
  8
レイヤー_1
  6
CONTINUOUS
 62
       3
100
AcDbLine
 10
46.68325073
 20
2.89402962
 30
0.0
 11
46.73380217
 21
2.8136842
 31
0.0
  0
LINE
  5
6BA
100
AcDbEntity
  8
レイヤー_1
  6
CONTINUOUS
 62
       3
100
AcDbLine
 10
46.73380217
 20
2.8136842
 30
0.0
 11
46.79152718
 21
2.73871516
 31
0.0
  0
LINE
  5
6BB
100
AcDbEntity
  8
レイヤー_1
  6
CONTINUOUS
 62
       3
100
AcDbLine
 10
46.79152718
 20
2.73871516
 30
0.0
 11
46.85594533
 21
2.66960195
 31
0.0
  0
LINE
  5
6BC
100
AcDbEntity
  8
レイヤー_1
  6
CONTINUOUS
 62
       3
100
AcDbLine
 10
46.85594533
 20
2.66960195
 30
0.0
 11
46.92657619
 21
2.60682404
 31
0.0
  0
LINE
  5
6BD
100
AcDbEntity
  8
レイヤー_1
  6
CONTINUOUS
 62
       3
100
AcDbLine
 10
46.92657619
 20
2.60682404
 30
0.0
 11
47.00293932
 21
2.55086092
 31
0.0
  0
LINE
  5
6BE
100
AcDbEntity
  8
レイヤー_1
  6
CONTINUOUS
 62
       3
100
AcDbLine
 10
47.00293932
 20
2.55086092
 30
0.0
 11
47.0845543
 21
2.50219203
 31
0.0
  0
LINE
  5
6BF
100
AcDbEntity
  8
レイヤー_1
  6
CONTINUOUS
 62
       3
100
AcDbLine
 10
47.0845543
 20
2.50219203
 30
0.0
 11
47.17094069
 21
2.46129686
 31
0.0
  0
LINE
  5
6C0
100
AcDbEntity
  8
レイヤー_1
  6
CONTINUOUS
 62
       3
100
AcDbLine
 10
47.17094069
 20
2.46129686
 30
0.0
 11
47.26161806
 21
2.42865488
 31
0.0
  0
LINE
  5
6C1
100
AcDbEntity
  8
レイヤー_1
  6
CONTINUOUS
 62
       3
100
AcDbLine
 10
47.26161806
 20
2.42865488
 30
0.0
 11
47.35610597
 21
2.40474555
 31
0.0
  0
LINE
  5
6C2
100
AcDbEntity
  8
レイヤー_1
  6
CONTINUOUS
 62
       3
100
AcDbLine
 10
47.35610597
 20
2.40474555
 30
0.0
 11
47.453924
 21
2.39004834
 31
0.0
  0
LINE
  5
6C3
100
AcDbEntity
  8
レイヤー_1
  6
CONTINUOUS
 62
       3
100
AcDbLine
 10
47.453924
 20
2.39004834
 30
0.0
 11
47.5545917
 21
2.38504272
 31
0.0
  0
LINE
  5
6C4
100
AcDbEntity
  8
レイヤー_1
  6
CONTINUOUS
 62
       3
100
AcDbLine
 10
47.5545917
 20
7.38502338
 30
0.0
 11
47.65525941
 21
7.39003145
 31
0.0
  0
LINE
  5
6C5
100
AcDbEntity
  8
レイヤー_1
  6
CONTINUOUS
 62
       3
100
AcDbLine
 10
47.65525941
 20
7.39003145
 30
0.0
 11
47.75307743
 21
7.40473536
 31
0.0
  0
LINE
  5
6C6
100
AcDbEntity
  8
レイヤー_1
  6
CONTINUOUS
 62
       3
100
AcDbLine
 10
47.75307743
 20
7.40473536
 30
0.0
 11
47.84756534
 21
7.42865469
 31
0.0
  0
LINE
  5
6C7
100
AcDbEntity
  8
レイヤー_1
  6
CONTINUOUS
 62
       3
100
AcDbLine
 10
47.84756534
 20
7.42865469
 30
0.0
 11
47.93824271
 21
7.461309
 31
0.0
  0
LINE
  5
6C8
100
AcDbEntity
  8
レイヤー_1
  6
CONTINUOUS
 62
       3
100
AcDbLine
 10
47.93824271
 20
7.461309
 30
0.0
 11
48.0246291
 21
7.50221786
 31
0.0
  0
LINE
  5
6C9
100
AcDbEntity
  8
レイヤー_1
  6
CONTINUOUS
 62
       3
100
AcDbLine
 10
48.0246291
 20
7.50221786
 30
0.0
 11
48.10624408
 21
7.55090083
 31
0.0
  0
LINE
  5
6CA
100
AcDbEntity
  8
レイヤー_1
  6
CONTINUOUS
 62
       3
100
AcDbLine
 10
48.10624408
 20
7.55090083
 30
0.0
 11
48.18260722
 21
7.60687749
 31
0.0
  0
LINE
  5
6CB
100
AcDbEntity
  8
レイヤー_1
  6
CONTINUOUS
 62
       3
100
AcDbLine
 10
48.18260722
 20
7.60687749
 30
0.0
 11
48.25323808
 21
7.66966739
 31
0.0
  0
LINE
  5
6CC
100
AcDbEntity
  8
レイヤー_1
  6
CONTINUOUS
 62
       3
100
AcDbLine
 10
48.25323808
 20
7.66966739
 30
0.0
 11
48.31765623
 21
7.73879012
 31
0.0
  0
LINE
  5
6CD
100
AcDbEntity
  8
レイヤー_1
  6
CONTINUOUS
 62
       3
100
AcDbLine
 10
48.31765623
 20
7.73879012
 30
0.0
 11
48.37538124
 21
7.81376522
 31
0.0
  0
LINE
  5
6CE
100
AcDbEntity
  8
レイヤー_1
  6
CONTINUOUS
 62
       3
100
AcDbLine
 10
48.37538124
 20
7.81376522
 30
0.0
 11
48.42593267
 21
7.89411228
 31
0.0
  0
LINE
  5
6CF
100
AcDbEntity
  8
レイヤー_1
  6
CONTINUOUS
 62
       3
100
AcDbLine
 10
48.42593267
 20
7.89411228
 30
0.0
 11
48.4688301
 21
7.97935086
 31
0.0
  0
LINE
  5
6D0
100
AcDbEntity
  8
レイヤー_1
  6
CONTINUOUS
 62
       3
100
AcDbLine
 10
48.4688301
 20
7.97935086
 30
0.0
 11
48.50359309
 21
8.06900053
 31
0.0
  0
LINE
  5
6D1
100
AcDbEntity
  8
レイヤー_1
  6
CONTINUOUS
 62
       3
100
AcDbLine
 10
48.50359309
 20
8.06900053
 30
0.0
 11
48.5297412
 21
8.16258084
 31
0.0
  0
LINE
  5
6D2
100
AcDbEntity
  8
レイヤー_1
  6
CONTINUOUS
 62
       3
100
AcDbLine
 10
48.5297412
 20
8.16258084
 30
0.0
 11
48.54679401
 21
8.25961138
 31
0.0
  0
LINE
  5
6D3
100
AcDbEntity
  8
レイヤー_1
  6
CONTINUOUS
 62
       3
100
AcDbLine
 10
48.54679401
 20
8.25961138
 30
0.0
 11
48.55427108
 21
8.3596117
 31
0.0
  0
LINE
  5
6D4
100
AcDbEntity
  8
レイヤー_1
  6
CONTINUOUS
 62
       3
100
AcDbLine
 10
48.55427108
 20
8.3596117
 30
0.0
 11
48.55175954
 21
8.46076868
 31
0.0
  0
LINE
  5
6D5
100
AcDbEntity
  8
レイヤー_1
  6
CONTINUOUS
 62
       3
100
AcDbLine
 10
48.55175954
 20
8.46076868
 30
0.0
 11
48.53943454
 21
8.55934417
 31
0.0
  0
LINE
  5
6D6
100
AcDbEntity
  8
レイヤー_1
  6
CONTINUOUS
 62
       3
100
AcDbLine
 10
48.53943454
 20
8.55934417
 30
0.0
 11
48.51777403
 21
8.65470965
 31
0.0
  0
LINE
  5
6D7
100
AcDbEntity
  8
レイヤー_1
  6
CONTINUOUS
 62
       3
100
AcDbLine
 10
48.51777403
 20
8.65470965
 30
0.0
 11
48.48725842
 21
8.74638469
 31
0.0
  0
LINE
  5
6D8
100
AcDbEntity
  8
レイヤー_1
  6
CONTINUOUS
 62
       3
100
AcDbLine
 10
48.48725842
 20
8.74638469
 30
0.0
 11
48.44836816
 21
8.83388887
 31
0.0
  0
LINE
  5
6D9
100
AcDbEntity
  8
レイヤー_1
  6
CONTINUOUS
 62
       3
100
AcDbLine
 10
48.44836816
 20
8.83388887
 30
0.0
 11
48.40158368
 21
8.91674174
 31
0.0
  0
LINE
  5
6DA
100
AcDbEntity
  8
レイヤー_1
  6
CONTINUOUS
 62
       3
100
AcDbLine
 10
48.40158368
 20
8.91674174
 30
0.0
 11
48.3473854
 21
8.99446288
 31
0.0
  0
LINE
  5
6DB
100
AcDbEntity
  8
レイヤー_1
  6
CONTINUOUS
 62
       3
100
AcDbLine
 10
48.3473854
 20
8.99446288
 30
0.0
 11
48.28625377
 21
9.06657185
 31
0.0
  0
LINE
  5
6DC
100
AcDbEntity
  8
レイヤー_1
  6
CONTINUOUS
 62
       3
100
AcDbLine
 10
48.28625377
 20
9.06657185
 30
0.0
 11
48.21866921
 21
9.13258822
 31
0.0
  0
LINE
  5
6DD
100
AcDbEntity
  8
レイヤー_1
  6
CONTINUOUS
 62
       3
100
AcDbLine
 10
48.21866921
 20
9.13258822
 30
0.0
 11
48.14511216
 21
9.19203155
 31
0.0
  0
LINE
  5
6DE
100
AcDbEntity
  8
レイヤー_1
  6
CONTINUOUS
 62
       3
100
AcDbLine
 10
48.14511216
 20
9.19203155
 30
0.0
 11
48.06606304
 21
9.24442142
 31
0.0
  0
LINE
  5
6DF
100
AcDbEntity
  8
レイヤー_1
  6
CONTINUOUS
 62
       3
100
AcDbLine
 10
48.06606304
 20
9.24442142
 30
0.0
 11
47.98200231
 21
9.28927739
 31
0.0
  0
LINE
  5
6E0
100
AcDbEntity
  8
レイヤー_1
  6
CONTINUOUS
 62
       3
100
AcDbLine
 10
47.98200231
 20
9.28927739
 30
0.0
 11
47.89341037
 21
9.32611903
 31
0.0
  0
LINE
  5
6E1
100
AcDbEntity
  8
レイヤー_1
  6
CONTINUOUS
 62
       3
100
AcDbLine
 10
47.89341037
 20
9.32611903
 30
0.0
 11
47.80076768
 21
9.3544659
 31
0.0
  0
LINE
  5
6E2
100
AcDbEntity
  8
レイヤー_1
  6
CONTINUOUS
 62
       3
100
AcDbLine
 10
47.80076768
 20
9.3544659
 30
0.0
 11
47.70455466
 21
9.37383758
 31
0.0
  0
LINE
  5
6E3
100
AcDbEntity
  8
レイヤー_1
  6
CONTINUOUS
 62
       3
100
AcDbLine
 10
47.70455466
 20
9.37383758
 30
0.0
 11
47.60525174
 21
9.38375362
 31
0.0
  0
LINE
  5
6E4
100
AcDbEntity
  8
レイヤー_1
  6
CONTINUOUS
 62
       3
100
AcDbLine
 10
47.60525174
 20
9.38375362
 30
0.0
 11
47.50393167
 21
9.38375362
 31
0.0
  0
LINE
  5
6E5
100
AcDbEntity
  8
レイヤー_1
  6
CONTINUOUS
 62
       3
100
AcDbLine
 10
47.50393167
 20
9.38375362
 30
0.0
 11
47.40462875
 21
9.37383758
 31
0.0
  0
LINE
  5
6E6
100
AcDbEntity
  8
レイヤー_1
  6
CONTINUOUS
 62
       3
100
AcDbLine
 10
47.40462875
 20
9.37383758
 30
0.0
 11
47.30841573
 21
9.3544659
 31
0.0
  0
LINE
  5
6E7
100
AcDbEntity
  8
レイヤー_1
  6
CONTINUOUS
 62
       3
100
AcDbLine
 10
47.30841573
 20
9.3544659
 30
0.0
 11
47.21577303
 21
9.32611903
 31
0.0
  0
LINE
  5
6E8
100
AcDbEntity
  8
レイヤー_1
  6
CONTINUOUS
 62
       3
100
AcDbLine
 10
47.21577303
 20
9.32611903
 30
0.0
 11
47.1271811
 21
9.28927739
 31
0.0
  0
LINE
  5
6E9
100
AcDbEntity
  8
レイヤー_1
  6
CONTINUOUS
 62
       3
100
AcDbLine
 10
47.1271811
 20
9.28927739
 30
0.0
 11
47.04312036
 21
9.24442142
 31
0.0
  0
LINE
  5
6EA
100
AcDbEntity
  8
レイヤー_1
  6
CONTINUOUS
 62
       3
100
AcDbLine
 10
47.04312036
 20
9.24442142
 30
0.0
 11
46.96407125
 21
9.19203155
 31
0.0
  0
LINE
  5
6EB
100
AcDbEntity
  8
レイヤー_1
  6
CONTINUOUS
 62
       3
100
AcDbLine
 10
46.96407125
 20
9.19203155
 30
0.0
 11
46.8905142
 21
9.13258822
 31
0.0
  0
LINE
  5
6EC
100
AcDbEntity
  8
レイヤー_1
  6
CONTINUOUS
 62
       3
100
AcDbLine
 10
46.8905142
 20
9.13258822
 30
0.0
 11
46.82292964
 21
9.06657185
 31
0.0
  0
LINE
  5
6ED
100
AcDbEntity
  8
レイヤー_1
  6
CONTINUOUS
 62
       3
100
AcDbLine
 10
46.82292964
 20
9.06657185
 30
0.0
 11
46.761798
 21
8.99446288
 31
0.0
  0
LINE
  5
6EE
100
AcDbEntity
  8
レイヤー_1
  6
CONTINUOUS
 62
       3
100
AcDbLine
 10
46.761798
 20
8.99446288
 30
0.0
 11
46.70759973
 21
8.91674174
 31
0.0
  0
LINE
  5
6EF
100
AcDbEntity
  8
レイヤー_1
  6
CONTINUOUS
 62
       3
100
AcDbLine
 10
46.70759973
 20
8.91674174
 30
0.0
 11
46.66081524
 21
8.83388887
 31
0.0
  0
LINE
  5
6F0
100
AcDbEntity
  8
レイヤー_1
  6
CONTINUOUS
 62
       3
100
AcDbLine
 10
46.66081524
 20
8.83388887
 30
0.0
 11
46.62192498
 21
8.74638469
 31
0.0
  0
LINE
  5
6F1
100
AcDbEntity
  8
レイヤー_1
  6
CONTINUOUS
 62
       3
100
AcDbLine
 10
46.62192498
 20
8.74638469
 30
0.0
 11
46.59140938
 21
8.65470965
 31
0.0
  0
LINE
  5
6F2
100
AcDbEntity
  8
レイヤー_1
  6
CONTINUOUS
 62
       3
100
AcDbLine
 10
46.59140938
 20
8.65470965
 30
0.0
 11
46.56974886
 21
8.55934417
 31
0.0
  0
LINE
  5
6F3
100
AcDbEntity
  8
レイヤー_1
  6
CONTINUOUS
 62
       3
100
AcDbLine
 10
46.56974886
 20
8.55934417
 30
0.0
 11
46.55742387
 21
8.46076868
 31
0.0
  0
LINE
  5
6F4
100
AcDbEntity
  8
レイヤー_1
  6
CONTINUOUS
 62
       3
100
AcDbLine
 10
46.55742387
 20
8.46076868
 30
0.0
 11
46.55491233
 21
8.3596117
 31
0.0
  0
LINE
  5
6F5
100
AcDbEntity
  8
レイヤー_1
  6
CONTINUOUS
 62
       3
100
AcDbLine
 10
46.55491233
 20
8.3596117
 30
0.0
 11
46.5623894
 21
8.25961138
 31
0.0
  0
LINE
  5
6F6
100
AcDbEntity
  8
レイヤー_1
  6
CONTINUOUS
 62
       3
100
AcDbLine
 10
46.5623894
 20
8.25961138
 30
0.0
 11
46.57944221
 21
8.16258084
 31
0.0
  0
LINE
  5
6F7
100
AcDbEntity
  8
レイヤー_1
  6
CONTINUOUS
 62
       3
100
AcDbLine
 10
46.57944221
 20
8.16258084
 30
0.0
 11
46.60559032
 21
8.06900053
 31
0.0
  0
LINE
  5
6F8
100
AcDbEntity
  8
レイヤー_1
  6
CONTINUOUS
 62
       3
100
AcDbLine
 10
46.60559032
 20
8.06900053
 30
0.0
 11
46.64035331
 21
7.97935086
 31
0.0
  0
LINE
  5
6F9
100
AcDbEntity
  8
レイヤー_1
  6
CONTINUOUS
 62
       3
100
AcDbLine
 10
46.64035331
 20
7.97935086
 30
0.0
 11
46.68325073
 21
7.89411228
 31
0.0
  0
LINE
  5
6FA
100
AcDbEntity
  8
レイヤー_1
  6
CONTINUOUS
 62
       3
100
AcDbLine
 10
46.68325073
 20
7.89411228
 30
0.0
 11
46.73380217
 21
7.81376522
 31
0.0
  0
LINE
  5
6FB
100
AcDbEntity
  8
レイヤー_1
  6
CONTINUOUS
 62
       3
100
AcDbLine
 10
46.73380217
 20
7.81376522
 30
0.0
 11
46.79152718
 21
7.73879012
 31
0.0
  0
LINE
  5
6FC
100
AcDbEntity
  8
レイヤー_1
  6
CONTINUOUS
 62
       3
100
AcDbLine
 10
46.79152718
 20
7.73879012
 30
0.0
 11
46.85594533
 21
7.66966739
 31
0.0
  0
LINE
  5
6FD
100
AcDbEntity
  8
レイヤー_1
  6
CONTINUOUS
 62
       3
100
AcDbLine
 10
46.85594533
 20
7.66966739
 30
0.0
 11
46.92657619
 21
7.60687749
 31
0.0
  0
LINE
  5
6FE
100
AcDbEntity
  8
レイヤー_1
  6
CONTINUOUS
 62
       3
100
AcDbLine
 10
46.92657619
 20
7.60687749
 30
0.0
 11
47.00293932
 21
7.55090083
 31
0.0
  0
LINE
  5
6FF
100
AcDbEntity
  8
レイヤー_1
  6
CONTINUOUS
 62
       3
100
AcDbLine
 10
47.00293932
 20
7.55090083
 30
0.0
 11
47.0845543
 21
7.50221786
 31
0.0
  0
LINE
  5
700
100
AcDbEntity
  8
レイヤー_1
  6
CONTINUOUS
 62
       3
100
AcDbLine
 10
47.0845543
 20
7.50221786
 30
0.0
 11
47.17094069
 21
7.461309
 31
0.0
  0
LINE
  5
701
100
AcDbEntity
  8
レイヤー_1
  6
CONTINUOUS
 62
       3
100
AcDbLine
 10
47.17094069
 20
7.461309
 30
0.0
 11
47.26161806
 21
7.42865469
 31
0.0
  0
LINE
  5
702
100
AcDbEntity
  8
レイヤー_1
  6
CONTINUOUS
 62
       3
100
AcDbLine
 10
47.26161806
 20
7.42865469
 30
0.0
 11
47.35610597
 21
7.40473536
 31
0.0
  0
LINE
  5
703
100
AcDbEntity
  8
レイヤー_1
  6
CONTINUOUS
 62
       3
100
AcDbLine
 10
47.35610597
 20
7.40473536
 30
0.0
 11
47.453924
 21
7.39003145
 31
0.0
  0
LINE
  5
704
100
AcDbEntity
  8
レイヤー_1
  6
CONTINUOUS
 62
       3
100
AcDbLine
 10
47.453924
 20
7.39003145
 30
0.0
 11
47.5545917
 21
7.38502338
 31
0.0
  0
LINE
  5
705
100
AcDbEntity
  8
レイヤー_1
  6
CONTINUOUS
 62
       3
100
AcDbLine
 10
47.5545917
 20
12.38500405
 30
0.0
 11
47.65525941
 21
12.39001211
 31
0.0
  0
LINE
  5
706
100
AcDbEntity
  8
レイヤー_1
  6
CONTINUOUS
 62
       3
100
AcDbLine
 10
47.65525941
 20
12.39001211
 30
0.0
 11
47.75307743
 21
12.40471603
 31
0.0
  0
LINE
  5
707
100
AcDbEntity
  8
レイヤー_1
  6
CONTINUOUS
 62
       3
100
AcDbLine
 10
47.75307743
 20
12.40471603
 30
0.0
 11
47.84756534
 21
12.42863536
 31
0.0
  0
LINE
  5
708
100
AcDbEntity
  8
レイヤー_1
  6
CONTINUOUS
 62
       3
100
AcDbLine
 10
47.84756534
 20
12.42863536
 30
0.0
 11
47.93824271
 21
12.46128967
 31
0.0
  0
LINE
  5
709
100
AcDbEntity
  8
レイヤー_1
  6
CONTINUOUS
 62
       3
100
AcDbLine
 10
47.93824271
 20
12.46128967
 30
0.0
 11
48.0246291
 21
12.50219852
 31
0.0
  0
LINE
  5
70A
100
AcDbEntity
  8
レイヤー_1
  6
CONTINUOUS
 62
       3
100
AcDbLine
 10
48.0246291
 20
12.50219852
 30
0.0
 11
48.10624408
 21
12.5508815
 31
0.0
  0
LINE
  5
70B
100
AcDbEntity
  8
レイヤー_1
  6
CONTINUOUS
 62
       3
100
AcDbLine
 10
48.10624408
 20
12.5508815
 30
0.0
 11
48.18260722
 21
12.60685815
 31
0.0
  0
LINE
  5
70C
100
AcDbEntity
  8
レイヤー_1
  6
CONTINUOUS
 62
       3
100
AcDbLine
 10
48.18260722
 20
12.60685815
 30
0.0
 11
48.25323808
 21
12.66964806
 31
0.0
  0
LINE
  5
70D
100
AcDbEntity
  8
レイヤー_1
  6
CONTINUOUS
 62
       3
100
AcDbLine
 10
48.25323808
 20
12.66964806
 30
0.0
 11
48.31765623
 21
12.73877078
 31
0.0
  0
LINE
  5
70E
100
AcDbEntity
  8
レイヤー_1
  6
CONTINUOUS
 62
       3
100
AcDbLine
 10
48.31765623
 20
12.73877078
 30
0.0
 11
48.37538124
 21
12.81374589
 31
0.0
  0
LINE
  5
70F
100
AcDbEntity
  8
レイヤー_1
  6
CONTINUOUS
 62
       3
100
AcDbLine
 10
48.37538124
 20
12.81374589
 30
0.0
 11
48.42593267
 21
12.89409295
 31
0.0
  0
LINE
  5
710
100
AcDbEntity
  8
レイヤー_1
  6
CONTINUOUS
 62
       3
100
AcDbLine
 10
48.42593267
 20
12.89409295
 30
0.0
 11
48.4688301
 21
12.97933153
 31
0.0
  0
LINE
  5
711
100
AcDbEntity
  8
レイヤー_1
  6
CONTINUOUS
 62
       3
100
AcDbLine
 10
48.4688301
 20
12.97933153
 30
0.0
 11
48.50359309
 21
13.06898119
 31
0.0
  0
LINE
  5
712
100
AcDbEntity
  8
レイヤー_1
  6
CONTINUOUS
 62
       3
100
AcDbLine
 10
48.50359309
 20
13.06898119
 30
0.0
 11
48.5297412
 21
13.16256151
 31
0.0
  0
LINE
  5
713
100
AcDbEntity
  8
レイヤー_1
  6
CONTINUOUS
 62
       3
100
AcDbLine
 10
48.5297412
 20
13.16256151
 30
0.0
 11
48.54679401
 21
13.25959204
 31
0.0
  0
LINE
  5
714
100
AcDbEntity
  8
レイヤー_1
  6
CONTINUOUS
 62
       3
100
AcDbLine
 10
48.54679401
 20
13.25959204
 30
0.0
 11
48.55427108
 21
13.35959237
 31
0.0
  0
LINE
  5
715
100
AcDbEntity
  8
レイヤー_1
  6
CONTINUOUS
 62
       3
100
AcDbLine
 10
48.55427108
 20
13.35959237
 30
0.0
 11
48.55175954
 21
13.46077828
 31
0.0
  0
LINE
  5
716
100
AcDbEntity
  8
レイヤー_1
  6
CONTINUOUS
 62
       3
100
AcDbLine
 10
48.55175954
 20
13.46077828
 30
0.0
 11
48.53943454
 21
13.55938391
 31
0.0
  0
LINE
  5
717
100
AcDbEntity
  8
レイヤー_1
  6
CONTINUOUS
 62
       3
100
AcDbLine
 10
48.53943454
 20
13.55938391
 30
0.0
 11
48.51777403
 21
13.65477079
 31
0.0
  0
LINE
  5
718
100
AcDbEntity
  8
レイヤー_1
  6
CONTINUOUS
 62
       3
100
AcDbLine
 10
48.51777403
 20
13.65477079
 30
0.0
 11
48.48725842
 21
13.74645944
 31
0.0
  0
LINE
  5
719
100
AcDbEntity
  8
レイヤー_1
  6
CONTINUOUS
 62
       3
100
AcDbLine
 10
48.48725842
 20
13.74645944
 30
0.0
 11
48.44836816
 21
13.8339704
 31
0.0
  0
LINE
  5
71A
100
AcDbEntity
  8
レイヤー_1
  6
CONTINUOUS
 62
       3
100
AcDbLine
 10
48.44836816
 20
13.8339704
 30
0.0
 11
48.40158368
 21
13.9168242
 31
0.0
  0
LINE
  5
71B
100
AcDbEntity
  8
レイヤー_1
  6
CONTINUOUS
 62
       3
100
AcDbLine
 10
48.40158368
 20
13.9168242
 30
0.0
 11
48.3473854
 21
13.99454136
 31
0.0
  0
LINE
  5
71C
100
AcDbEntity
  8
レイヤー_1
  6
CONTINUOUS
 62
       3
100
AcDbLine
 10
48.3473854
 20
13.99454136
 30
0.0
 11
48.28625377
 21
14.06664242
 31
0.0
  0
LINE
  5
71D
100
AcDbEntity
  8
レイヤー_1
  6
CONTINUOUS
 62
       3
100
AcDbLine
 10
48.28625377
 20
14.06664242
 30
0.0
 11
48.21866921
 21
14.13264791
 31
0.0
  0
LINE
  5
71E
100
AcDbEntity
  8
レイヤー_1
  6
CONTINUOUS
 62
       3
100
AcDbLine
 10
48.21866921
 20
14.13264791
 30
0.0
 11
48.14511216
 21
14.19207836
 31
0.0
  0
LINE
  5
71F
100
AcDbEntity
  8
レイヤー_1
  6
CONTINUOUS
 62
       3
100
AcDbLine
 10
48.14511216
 20
14.19207836
 30
0.0
 11
48.06606304
 21
14.2444543
 31
0.0
  0
LINE
  5
720
100
AcDbEntity
  8
レイヤー_1
  6
CONTINUOUS
 62
       3
100
AcDbLine
 10
48.06606304
 20
14.2444543
 30
0.0
 11
47.98200231
 21
14.28929626
 31
0.0
  0
LINE
  5
721
100
AcDbEntity
  8
レイヤー_1
  6
CONTINUOUS
 62
       3
100
AcDbLine
 10
47.98200231
 20
14.28929626
 30
0.0
 11
47.89341037
 21
14.32612477
 31
0.0
  0
LINE
  5
722
100
AcDbEntity
  8
レイヤー_1
  6
CONTINUOUS
 62
       3
100
AcDbLine
 10
47.89341037
 20
14.32612477
 30
0.0
 11
47.80076768
 21
14.35446036
 31
0.0
  0
LINE
  5
723
100
AcDbEntity
  8
レイヤー_1
  6
CONTINUOUS
 62
       3
100
AcDbLine
 10
47.80076768
 20
14.35446036
 30
0.0
 11
47.70455466
 21
14.37382357
 31
0.0
  0
LINE
  5
724
100
AcDbEntity
  8
レイヤー_1
  6
CONTINUOUS
 62
       3
100
AcDbLine
 10
47.70455466
 20
14.37382357
 30
0.0
 11
47.60525174
 21
14.38373492
 31
0.0
  0
LINE
  5
725
100
AcDbEntity
  8
レイヤー_1
  6
CONTINUOUS
 62
       3
100
AcDbLine
 10
47.60525174
 20
14.38373492
 30
0.0
 11
47.50393167
 21
14.38373492
 31
0.0
  0
LINE
  5
726
100
AcDbEntity
  8
レイヤー_1
  6
CONTINUOUS
 62
       3
100
AcDbLine
 10
47.50393167
 20
14.38373492
 30
0.0
 11
47.40462875
 21
14.37382357
 31
0.0
  0
LINE
  5
727
100
AcDbEntity
  8
レイヤー_1
  6
CONTINUOUS
 62
       3
100
AcDbLine
 10
47.40462875
 20
14.37382357
 30
0.0
 11
47.30841573
 21
14.35446036
 31
0.0
  0
LINE
  5
728
100
AcDbEntity
  8
レイヤー_1
  6
CONTINUOUS
 62
       3
100
AcDbLine
 10
47.30841573
 20
14.35446036
 30
0.0
 11
47.21577303
 21
14.32612477
 31
0.0
  0
LINE
  5
729
100
AcDbEntity
  8
レイヤー_1
  6
CONTINUOUS
 62
       3
100
AcDbLine
 10
47.21577303
 20
14.32612477
 30
0.0
 11
47.1271811
 21
14.28929626
 31
0.0
  0
LINE
  5
72A
100
AcDbEntity
  8
レイヤー_1
  6
CONTINUOUS
 62
       3
100
AcDbLine
 10
47.1271811
 20
14.28929626
 30
0.0
 11
47.04312036
 21
14.2444543
 31
0.0
  0
LINE
  5
72B
100
AcDbEntity
  8
レイヤー_1
  6
CONTINUOUS
 62
       3
100
AcDbLine
 10
47.04312036
 20
14.2444543
 30
0.0
 11
46.96407125
 21
14.19207836
 31
0.0
  0
LINE
  5
72C
100
AcDbEntity
  8
レイヤー_1
  6
CONTINUOUS
 62
       3
100
AcDbLine
 10
46.96407125
 20
14.19207836
 30
0.0
 11
46.8905142
 21
14.13264791
 31
0.0
  0
LINE
  5
72D
100
AcDbEntity
  8
レイヤー_1
  6
CONTINUOUS
 62
       3
100
AcDbLine
 10
46.8905142
 20
14.13264791
 30
0.0
 11
46.82292964
 21
14.06664242
 31
0.0
  0
LINE
  5
72E
100
AcDbEntity
  8
レイヤー_1
  6
CONTINUOUS
 62
       3
100
AcDbLine
 10
46.82292964
 20
14.06664242
 30
0.0
 11
46.761798
 21
13.99454136
 31
0.0
  0
LINE
  5
72F
100
AcDbEntity
  8
レイヤー_1
  6
CONTINUOUS
 62
       3
100
AcDbLine
 10
46.761798
 20
13.99454136
 30
0.0
 11
46.70759973
 21
13.9168242
 31
0.0
  0
LINE
  5
730
100
AcDbEntity
  8
レイヤー_1
  6
CONTINUOUS
 62
       3
100
AcDbLine
 10
46.70759973
 20
13.9168242
 30
0.0
 11
46.66081524
 21
13.8339704
 31
0.0
  0
LINE
  5
731
100
AcDbEntity
  8
レイヤー_1
  6
CONTINUOUS
 62
       3
100
AcDbLine
 10
46.66081524
 20
13.8339704
 30
0.0
 11
46.62192498
 21
13.74645944
 31
0.0
  0
LINE
  5
732
100
AcDbEntity
  8
レイヤー_1
  6
CONTINUOUS
 62
       3
100
AcDbLine
 10
46.62192498
 20
13.74645944
 30
0.0
 11
46.59140938
 21
13.65477079
 31
0.0
  0
LINE
  5
733
100
AcDbEntity
  8
レイヤー_1
  6
CONTINUOUS
 62
       3
100
AcDbLine
 10
46.59140938
 20
13.65477079
 30
0.0
 11
46.56974886
 21
13.55938391
 31
0.0
  0
LINE
  5
734
100
AcDbEntity
  8
レイヤー_1
  6
CONTINUOUS
 62
       3
100
AcDbLine
 10
46.56974886
 20
13.55938391
 30
0.0
 11
46.55742387
 21
13.46077828
 31
0.0
  0
LINE
  5
735
100
AcDbEntity
  8
レイヤー_1
  6
CONTINUOUS
 62
       3
100
AcDbLine
 10
46.55742387
 20
13.46077828
 30
0.0
 11
46.55491233
 21
13.35959237
 31
0.0
  0
LINE
  5
736
100
AcDbEntity
  8
レイヤー_1
  6
CONTINUOUS
 62
       3
100
AcDbLine
 10
46.55491233
 20
13.35959237
 30
0.0
 11
46.5623894
 21
13.25959204
 31
0.0
  0
LINE
  5
737
100
AcDbEntity
  8
レイヤー_1
  6
CONTINUOUS
 62
       3
100
AcDbLine
 10
46.5623894
 20
13.25959204
 30
0.0
 11
46.57944221
 21
13.16256151
 31
0.0
  0
LINE
  5
738
100
AcDbEntity
  8
レイヤー_1
  6
CONTINUOUS
 62
       3
100
AcDbLine
 10
46.57944221
 20
13.16256151
 30
0.0
 11
46.60559032
 21
13.06898119
 31
0.0
  0
LINE
  5
739
100
AcDbEntity
  8
レイヤー_1
  6
CONTINUOUS
 62
       3
100
AcDbLine
 10
46.60559032
 20
13.06898119
 30
0.0
 11
46.64035331
 21
12.97933153
 31
0.0
  0
LINE
  5
73A
100
AcDbEntity
  8
レイヤー_1
  6
CONTINUOUS
 62
       3
100
AcDbLine
 10
46.64035331
 20
12.97933153
 30
0.0
 11
46.68325073
 21
12.89409295
 31
0.0
  0
LINE
  5
73B
100
AcDbEntity
  8
レイヤー_1
  6
CONTINUOUS
 62
       3
100
AcDbLine
 10
46.68325073
 20
12.89409295
 30
0.0
 11
46.73380217
 21
12.81374589
 31
0.0
  0
LINE
  5
73C
100
AcDbEntity
  8
レイヤー_1
  6
CONTINUOUS
 62
       3
100
AcDbLine
 10
46.73380217
 20
12.81374589
 30
0.0
 11
46.79152718
 21
12.73877078
 31
0.0
  0
LINE
  5
73D
100
AcDbEntity
  8
レイヤー_1
  6
CONTINUOUS
 62
       3
100
AcDbLine
 10
46.79152718
 20
12.73877078
 30
0.0
 11
46.85594533
 21
12.66964806
 31
0.0
  0
LINE
  5
73E
100
AcDbEntity
  8
レイヤー_1
  6
CONTINUOUS
 62
       3
100
AcDbLine
 10
46.85594533
 20
12.66964806
 30
0.0
 11
46.92657619
 21
12.60685815
 31
0.0
  0
LINE
  5
73F
100
AcDbEntity
  8
レイヤー_1
  6
CONTINUOUS
 62
       3
100
AcDbLine
 10
46.92657619
 20
12.60685815
 30
0.0
 11
47.00293932
 21
12.5508815
 31
0.0
  0
LINE
  5
740
100
AcDbEntity
  8
レイヤー_1
  6
CONTINUOUS
 62
       3
100
AcDbLine
 10
47.00293932
 20
12.5508815
 30
0.0
 11
47.0845543
 21
12.50219852
 31
0.0
  0
LINE
  5
741
100
AcDbEntity
  8
レイヤー_1
  6
CONTINUOUS
 62
       3
100
AcDbLine
 10
47.0845543
 20
12.50219852
 30
0.0
 11
47.17094069
 21
12.46128967
 31
0.0
  0
LINE
  5
742
100
AcDbEntity
  8
レイヤー_1
  6
CONTINUOUS
 62
       3
100
AcDbLine
 10
47.17094069
 20
12.46128967
 30
0.0
 11
47.26161806
 21
12.42863536
 31
0.0
  0
LINE
  5
743
100
AcDbEntity
  8
レイヤー_1
  6
CONTINUOUS
 62
       3
100
AcDbLine
 10
47.26161806
 20
12.42863536
 30
0.0
 11
47.35610597
 21
12.40471603
 31
0.0
  0
LINE
  5
744
100
AcDbEntity
  8
レイヤー_1
  6
CONTINUOUS
 62
       3
100
AcDbLine
 10
47.35610597
 20
12.40471603
 30
0.0
 11
47.453924
 21
12.39001211
 31
0.0
  0
LINE
  5
745
100
AcDbEntity
  8
レイヤー_1
  6
CONTINUOUS
 62
       3
100
AcDbLine
 10
47.453924
 20
12.39001211
 30
0.0
 11
47.5545917
 21
12.38500405
 31
0.0
  0
LINE
  5
746
100
AcDbEntity
  8
レイヤー_1
  6
CONTINUOUS
 62
       3
100
AcDbLine
 10
-30.04164859
 20
36.03534897
 30
0.0
 11
-29.97883516
 21
35.91339189
 31
0.0
  0
LINE
  5
747
100
AcDbEntity
  8
レイヤー_1
  6
CONTINUOUS
 62
       3
100
AcDbLine
 10
-29.97883516
 20
35.91339189
 30
0.0
 11
-29.8012917
 21
35.56883238
 31
0.0
  0
LINE
  5
748
100
AcDbEntity
  8
レイヤー_1
  6
CONTINUOUS
 62
       3
100
AcDbLine
 10
-29.8012917
 20
35.56883238
 30
0.0
 11
-29.52536344
 21
35.03363804
 31
0.0
  0
LINE
  5
749
100
AcDbEntity
  8
レイヤー_1
  6
CONTINUOUS
 62
       3
100
AcDbLine
 10
-29.52536344
 20
35.03363804
 30
0.0
 11
-29.16739559
 21
34.33977646
 31
0.0
  0
LINE
  5
74A
100
AcDbEntity
  8
レイヤー_1
  6
CONTINUOUS
 62
       3
100
AcDbLine
 10
-29.16739559
 20
34.33977646
 30
0.0
 11
-28.74373337
 21
33.51921525
 31
0.0
  0
LINE
  5
74B
100
AcDbEntity
  8
レイヤー_1
  6
CONTINUOUS
 62
       3
100
AcDbLine
 10
-28.74373337
 20
33.51921525
 30
0.0
 11
-28.27072201
 21
32.60392199
 31
0.0
  0
LINE
  5
74C
100
AcDbEntity
  8
レイヤー_1
  6
CONTINUOUS
 62
       3
100
AcDbLine
 10
-28.27072201
 20
32.60392199
 30
0.0
 11
-27.76470674
 21
31.62586429
 31
0.0
  0
LINE
  5
74D
100
AcDbEntity
  8
レイヤー_1
  6
CONTINUOUS
 62
       3
100
AcDbLine
 10
-27.76470674
 20
31.62586429
 30
0.0
 11
-27.24203278
 21
30.61700974
 31
0.0
  0
LINE
  5
74E
100
AcDbEntity
  8
レイヤー_1
  6
CONTINUOUS
 62
       3
100
AcDbLine
 10
-27.24203278
 20
30.61700974
 30
0.0
 11
-26.71904534
 21
29.60932594
 31
0.0
  0
LINE
  5
74F
100
AcDbEntity
  8
レイヤー_1
  6
CONTINUOUS
 62
       3
100
AcDbLine
 10
-26.71904534
 20
29.60932594
 30
0.0
 11
-26.21208966
 21
28.63478048
 31
0.0
  0
LINE
  5
750
100
AcDbEntity
  8
レイヤー_1
  6
CONTINUOUS
 62
       3
100
AcDbLine
 10
-26.21208966
 20
28.63478048
 30
0.0
 11
-25.73751096
 21
27.72534096
 31
0.0
  0
LINE
  5
751
100
AcDbEntity
  8
レイヤー_1
  6
CONTINUOUS
 62
       3
100
AcDbLine
 10
-25.73751096
 20
27.72534096
 30
0.0
 11
-25.31165445
 21
26.91297498
 31
0.0
  0
LINE
  5
752
100
AcDbEntity
  8
レイヤー_1
  6
CONTINUOUS
 62
       3
100
AcDbLine
 10
-25.31165445
 20
26.91297498
 30
0.0
 11
-24.95086537
 21
26.22965014
 31
0.0
  0
LINE
  5
753
100
AcDbEntity
  8
レイヤー_1
  6
CONTINUOUS
 62
       3
100
AcDbLine
 10
-24.95086537
 20
26.22965014
 30
0.0
 11
-24.67148894
 21
25.70733402
 31
0.0
  0
LINE
  5
754
100
AcDbEntity
  8
レイヤー_1
  6
CONTINUOUS
 62
       3
100
AcDbLine
 10
-24.67148894
 20
25.70733402
 30
0.0
 11
-24.48987038
 21
25.37799423
 31
0.0
  0
LINE
  5
755
100
AcDbEntity
  8
レイヤー_1
  6
CONTINUOUS
 62
       3
100
AcDbLine
 10
-24.48987038
 20
25.37799423
 30
0.0
 11
-24.41655838
 21
25.25901999
 31
0.0
  0
LINE
  5
756
100
AcDbEntity
  8
レイヤー_1
  6
CONTINUOUS
 62
       3
100
AcDbLine
 10
-24.41655838
 20
25.25901999
 30
0.0
 11
-24.3774757
 21
25.18520173
 31
0.0
  0
LINE
  5
757
100
AcDbEntity
  8
レイヤー_1
  6
CONTINUOUS
 62
       3
100
AcDbLine
 10
-24.3774757
 20
25.18520173
 30
0.0
 11
-24.34636388
 21
25.10371831
 31
0.0
  0
LINE
  5
758
100
AcDbEntity
  8
レイヤー_1
  6
CONTINUOUS
 62
       3
100
AcDbLine
 10
-24.34636388
 20
25.10371831
 30
0.0
 11
-24.3232482
 21
25.01637596
 31
0.0
  0
LINE
  5
759
100
AcDbEntity
  8
レイヤー_1
  6
CONTINUOUS
 62
       3
100
AcDbLine
 10
-24.3232482
 20
25.01637596
 30
0.0
 11
-24.30815396
 21
24.92498091
 31
0.0
  0
LINE
  5
75A
100
AcDbEntity
  8
レイヤー_1
  6
CONTINUOUS
 62
       3
100
AcDbLine
 10
-24.30815396
 20
24.92498091
 30
0.0
 11
-24.30110643
 21
24.83133936
 31
0.0
  0
LINE
  5
75B
100
AcDbEntity
  8
レイヤー_1
  6
CONTINUOUS
 62
       3
100
AcDbLine
 10
-24.30110643
 20
24.83133936
 30
0.0
 11
-24.3021309
 21
24.73725755
 31
0.0
  0
LINE
  5
75C
100
AcDbEntity
  8
レイヤー_1
  6
CONTINUOUS
 62
       3
100
AcDbLine
 10
-24.3021309
 20
24.73725755
 30
0.0
 11
-24.31125267
 21
24.64454169
 31
0.0
  0
LINE
  5
75D
100
AcDbEntity
  8
レイヤー_1
  6
CONTINUOUS
 62
       3
100
AcDbLine
 10
-24.31125267
 20
24.64454169
 30
0.0
 11
-24.32849702
 21
24.55499802
 31
0.0
  0
LINE
  5
75E
100
AcDbEntity
  8
レイヤー_1
  6
CONTINUOUS
 62
       3
100
AcDbLine
 10
-24.32849702
 20
24.55499802
 30
0.0
 11
-24.35388923
 21
24.47043273
 31
0.0
  0
LINE
  5
75F
100
AcDbEntity
  8
レイヤー_1
  6
CONTINUOUS
 62
       3
100
AcDbLine
 10
-24.35388923
 20
24.47043273
 30
0.0
 11
-24.3874546
 21
24.39265207
 31
0.0
  0
LINE
  5
760
100
AcDbEntity
  8
レイヤー_1
  6
CONTINUOUS
 62
       3
100
AcDbLine
 10
-24.3874546
 20
24.39265207
 30
0.0
 11
-24.42921841
 21
24.32346226
 31
0.0
  0
LINE
  5
761
100
AcDbEntity
  8
レイヤー_1
  6
CONTINUOUS
 62
       3
100
AcDbLine
 10
-24.42921841
 20
24.32346226
 30
0.0
 11
-24.47920594
 21
24.2646695
 31
0.0
  0
LINE
  5
762
100
AcDbEntity
  8
レイヤー_1
  6
CONTINUOUS
 62
       3
100
AcDbLine
 10
-24.47920594
 20
24.2646695
 30
0.0
 11
-24.53744249
 21
24.21808003
 31
0.0
  0
LINE
  5
763
100
AcDbEntity
  8
レイヤー_1
  6
CONTINUOUS
 62
       3
100
AcDbLine
 10
-24.53744249
 20
24.21808003
 30
0.0
 11
-24.60395334
 21
24.18550007
 31
0.0
  0
LINE
  5
764
100
AcDbEntity
  8
レイヤー_1
  6
CONTINUOUS
 62
       3
100
AcDbLine
 10
-24.60395334
 20
24.18550007
 30
0.0
 11
-24.67876379
 21
24.16873584
 31
0.0
  0
LINE
  5
765
100
AcDbEntity
  8
レイヤー_1
  6
CONTINUOUS
 62
       3
100
AcDbLine
 10
-24.67876379
 20
24.16873584
 30
0.0
 11
-24.70957993
 21
24.16722766
 31
0.0
  0
LINE
  5
766
100
AcDbEntity
  8
レイヤー_1
  6
CONTINUOUS
 62
       3
100
AcDbLine
 10
-24.70957993
 20
24.16722766
 30
0.0
 11
-24.75504602
 21
24.16722766
 31
0.0
  0
LINE
  5
767
100
AcDbEntity
  8
レイヤー_1
  6
CONTINUOUS
 62
       3
100
AcDbLine
 10
-24.75504602
 20
24.16722766
 30
0.0
 11
-24.8313348
 21
24.16722766
 31
0.0
  0
LINE
  5
768
100
AcDbEntity
  8
レイヤー_1
  6
CONTINUOUS
 62
       3
100
AcDbLine
 10
-24.8313348
 20
24.16722766
 30
0.0
 11
-24.9333621
 21
24.16722766
 31
0.0
  0
LINE
  5
769
100
AcDbEntity
  8
レイヤー_1
  6
CONTINUOUS
 62
       3
100
AcDbLine
 10
-24.9333621
 20
24.16722766
 30
0.0
 11
-25.05604377
 21
24.16722766
 31
0.0
  0
LINE
  5
76A
100
AcDbEntity
  8
レイヤー_1
  6
CONTINUOUS
 62
       3
100
AcDbLine
 10
-25.05604377
 20
24.16722766
 30
0.0
 11
-25.19429566
 21
24.16722766
 31
0.0
  0
LINE
  5
76B
100
AcDbEntity
  8
レイヤー_1
  6
CONTINUOUS
 62
       3
100
AcDbLine
 10
-25.19429566
 20
24.16722766
 30
0.0
 11
-25.34303362
 21
24.16722766
 31
0.0
  0
LINE
  5
76C
100
AcDbEntity
  8
レイヤー_1
  6
CONTINUOUS
 62
       3
100
AcDbLine
 10
-25.34303362
 20
24.16722766
 30
0.0
 11
-25.49717349
 21
24.16722766
 31
0.0
  0
LINE
  5
76D
100
AcDbEntity
  8
レイヤー_1
  6
CONTINUOUS
 62
       3
100
AcDbLine
 10
-25.49717349
 20
24.16722766
 30
0.0
 11
-25.65163112
 21
24.16722766
 31
0.0
  0
LINE
  5
76E
100
AcDbEntity
  8
レイヤー_1
  6
CONTINUOUS
 62
       3
100
AcDbLine
 10
-25.65163112
 20
24.16722766
 30
0.0
 11
-25.80132235
 21
24.16722766
 31
0.0
  0
LINE
  5
76F
100
AcDbEntity
  8
レイヤー_1
  6
CONTINUOUS
 62
       3
100
AcDbLine
 10
-25.80132235
 20
24.16722766
 30
0.0
 11
-25.94116304
 21
24.16722766
 31
0.0
  0
LINE
  5
770
100
AcDbEntity
  8
レイヤー_1
  6
CONTINUOUS
 62
       3
100
AcDbLine
 10
-25.94116304
 20
24.16722766
 30
0.0
 11
-26.06606903
 21
24.16722766
 31
0.0
  0
LINE
  5
771
100
AcDbEntity
  8
レイヤー_1
  6
CONTINUOUS
 62
       3
100
AcDbLine
 10
-26.06606903
 20
24.16722766
 30
0.0
 11
-26.17095616
 21
24.16722766
 31
0.0
  0
LINE
  5
772
100
AcDbEntity
  8
レイヤー_1
  6
CONTINUOUS
 62
       3
100
AcDbLine
 10
-26.17095616
 20
24.16722766
 30
0.0
 11
-26.2507403
 21
24.16722766
 31
0.0
  0
LINE
  5
773
100
AcDbEntity
  8
レイヤー_1
  6
CONTINUOUS
 62
       3
100
AcDbLine
 10
-26.2507403
 20
24.16722766
 30
0.0
 11
-26.30033727
 21
24.16722766
 31
0.0
  0
LINE
  5
774
100
AcDbEntity
  8
レイヤー_1
  6
CONTINUOUS
 62
       3
100
AcDbLine
 10
-26.30033727
 20
24.16722766
 30
0.0
 11
-26.31509087
 21
24.16720873
 31
0.0
  0
LINE
  5
775
100
AcDbEntity
  8
レイヤー_1
  6
CONTINUOUS
 62
       3
100
AcDbLine
 10
-26.31509087
 20
24.16720873
 30
0.0
 11
-26.32396562
 21
24.16560351
 31
0.0
  0
LINE
  5
776
100
AcDbEntity
  8
レイヤー_1
  6
CONTINUOUS
 62
       3
100
AcDbLine
 10
-26.32396562
 20
24.16560351
 30
0.0
 11
-26.34561523
 21
24.16110771
 31
0.0
  0
LINE
  5
777
100
AcDbEntity
  8
レイヤー_1
  6
CONTINUOUS
 62
       3
100
AcDbLine
 10
-26.34561523
 20
24.16110771
 30
0.0
 11
-26.37812945
 21
24.15328927
 31
0.0
  0
LINE
  5
778
100
AcDbEntity
  8
レイヤー_1
  6
CONTINUOUS
 62
       3
100
AcDbLine
 10
-26.37812945
 20
24.15328927
 30
0.0
 11
-26.41959801
 21
24.14171614
 31
0.0
  0
LINE
  5
779
100
AcDbEntity
  8
レイヤー_1
  6
CONTINUOUS
 62
       3
100
AcDbLine
 10
-26.41959801
 20
24.14171614
 30
0.0
 11
-26.46811066
 21
24.12595628
 31
0.0
  0
LINE
  5
77A
100
AcDbEntity
  8
レイヤー_1
  6
CONTINUOUS
 62
       3
100
AcDbLine
 10
-26.46811066
 20
24.12595628
 30
0.0
 11
-26.52175714
 21
24.10557765
 31
0.0
  0
LINE
  5
77B
100
AcDbEntity
  8
レイヤー_1
  6
CONTINUOUS
 62
       3
100
AcDbLine
 10
-26.52175714
 20
24.10557765
 30
0.0
 11
-26.57862717
 21
24.08014818
 31
0.0
  0
LINE
  5
77C
100
AcDbEntity
  8
レイヤー_1
  6
CONTINUOUS
 62
       3
100
AcDbLine
 10
-26.57862717
 20
24.08014818
 30
0.0
 11
-26.63681051
 21
24.04923584
 31
0.0
  0
LINE
  5
77D
100
AcDbEntity
  8
レイヤー_1
  6
CONTINUOUS
 62
       3
100
AcDbLine
 10
-26.63681051
 20
24.04923584
 30
0.0
 11
-26.6943969
 21
24.01240857
 31
0.0
  0
LINE
  5
77E
100
AcDbEntity
  8
レイヤー_1
  6
CONTINUOUS
 62
       3
100
AcDbLine
 10
-26.6943969
 20
24.01240857
 30
0.0
 11
-26.74947606
 21
23.96923433
 31
0.0
  0
LINE
  5
77F
100
AcDbEntity
  8
レイヤー_1
  6
CONTINUOUS
 62
       3
100
AcDbLine
 10
-26.74947606
 20
23.96923433
 30
0.0
 11
-26.80013775
 21
23.91928107
 31
0.0
  0
LINE
  5
780
100
AcDbEntity
  8
レイヤー_1
  6
CONTINUOUS
 62
       3
100
AcDbLine
 10
-26.80013775
 20
23.91928107
 30
0.0
 11
-26.84447171
 21
23.86211674
 31
0.0
  0
LINE
  5
781
100
AcDbEntity
  8
レイヤー_1
  6
CONTINUOUS
 62
       3
100
AcDbLine
 10
-26.84447171
 20
23.86211674
 30
0.0
 11
-26.88056767
 21
23.7973093
 31
0.0
  0
LINE
  5
782
100
AcDbEntity
  8
レイヤー_1
  6
CONTINUOUS
 62
       3
100
AcDbLine
 10
-26.88056767
 20
23.7973093
 30
0.0
 11
-26.90651537
 21
23.72442668
 31
0.0
  0
LINE
  5
783
100
AcDbEntity
  8
レイヤー_1
  6
CONTINUOUS
 62
       3
100
AcDbLine
 10
-26.90651537
 20
23.72442668
 30
0.0
 11
-26.92040455
 21
23.64303685
 31
0.0
  0
LINE
  5
784
100
AcDbEntity
  8
レイヤー_1
  6
CONTINUOUS
 62
       3
100
AcDbLine
 10
-26.92040455
 20
23.64303685
 30
0.0
 11
-26.92223024
 21
23.58796866
 31
0.0
  0
LINE
  5
785
100
AcDbEntity
  8
レイヤー_1
  6
CONTINUOUS
 62
       3
100
AcDbLine
 10
-26.92223024
 20
23.58796866
 30
0.0
 11
-26.92223024
 21
23.50391914
 31
0.0
  0
LINE
  5
786
100
AcDbEntity
  8
レイヤー_1
  6
CONTINUOUS
 62
       3
100
AcDbLine
 10
-26.92223024
 20
23.50391914
 30
0.0
 11
-26.92223024
 21
23.34689826
 31
0.0
  0
LINE
  5
787
100
AcDbEntity
  8
レイヤー_1
  6
CONTINUOUS
 62
       3
100
AcDbLine
 10
-26.92223024
 20
23.34689826
 30
0.0
 11
-26.92223024
 21
23.12846585
 31
0.0
  0
LINE
  5
788
100
AcDbEntity
  8
レイヤー_1
  6
CONTINUOUS
 62
       3
100
AcDbLine
 10
-26.92223024
 20
23.12846585
 30
0.0
 11
-26.92223024
 21
22.8601817
 31
0.0
  0
LINE
  5
789
100
AcDbEntity
  8
レイヤー_1
  6
CONTINUOUS
 62
       3
100
AcDbLine
 10
-26.92223024
 20
22.8601817
 30
0.0
 11
-26.92223024
 21
22.55360566
 31
0.0
  0
LINE
  5
78A
100
AcDbEntity
  8
レイヤー_1
  6
CONTINUOUS
 62
       3
100
AcDbLine
 10
-26.92223024
 20
22.55360566
 30
0.0
 11
-26.92223024
 21
22.22029754
 31
0.0
  0
LINE
  5
78B
100
AcDbEntity
  8
レイヤー_1
  6
CONTINUOUS
 62
       3
100
AcDbLine
 10
-26.92223024
 20
22.22029754
 30
0.0
 11
-26.92223024
 21
21.87181715
 31
0.0
  0
LINE
  5
78C
100
AcDbEntity
  8
レイヤー_1
  6
CONTINUOUS
 62
       3
100
AcDbLine
 10
-26.92223024
 20
21.87181715
 30
0.0
 11
-26.92223024
 21
21.51972432
 31
0.0
  0
LINE
  5
78D
100
AcDbEntity
  8
レイヤー_1
  6
CONTINUOUS
 62
       3
100
AcDbLine
 10
-26.92223024
 20
21.51972432
 30
0.0
 11
-26.92223024
 21
21.17557887
 31
0.0
  0
LINE
  5
78E
100
AcDbEntity
  8
レイヤー_1
  6
CONTINUOUS
 62
       3
100
AcDbLine
 10
-26.92223024
 20
21.17557887
 30
0.0
 11
-26.92223024
 21
20.85094061
 31
0.0
  0
LINE
  5
78F
100
AcDbEntity
  8
レイヤー_1
  6
CONTINUOUS
 62
       3
100
AcDbLine
 10
-26.92223024
 20
20.85094061
 30
0.0
 11
-26.92223024
 21
20.55736936
 31
0.0
  0
LINE
  5
790
100
AcDbEntity
  8
レイヤー_1
  6
CONTINUOUS
 62
       3
100
AcDbLine
 10
-26.92223024
 20
20.55736936
 30
0.0
 11
-26.92223024
 21
20.30642495
 31
0.0
  0
LINE
  5
791
100
AcDbEntity
  8
レイヤー_1
  6
CONTINUOUS
 62
       3
100
AcDbLine
 10
-26.92223024
 20
20.30642495
 30
0.0
 11
-26.92223024
 21
20.10966719
 31
0.0
  0
LINE
  5
792
100
AcDbEntity
  8
レイヤー_1
  6
CONTINUOUS
 62
       3
100
AcDbLine
 10
-26.92223024
 20
20.10966719
 30
0.0
 11
-26.92223024
 21
19.97865591
 31
0.0
  0
LINE
  5
793
100
AcDbEntity
  8
レイヤー_1
  6
CONTINUOUS
 62
       3
100
AcDbLine
 10
-26.92223024
 20
19.97865591
 30
0.0
 11
-26.92223024
 21
19.92495091
 31
0.0
  0
LINE
  5
794
100
AcDbEntity
  8
レイヤー_1
  6
CONTINUOUS
 62
       3
100
AcDbLine
 10
-26.92223024
 20
19.92495091
 30
0.0
 11
-26.92281098
 21
19.91928185
 31
0.0
  0
LINE
  5
795
100
AcDbEntity
  8
レイヤー_1
  6
CONTINUOUS
 62
       3
100
AcDbLine
 10
-26.92281098
 20
19.91928185
 30
0.0
 11
-26.9250417
 21
19.90245116
 31
0.0
  0
LINE
  5
796
100
AcDbEntity
  8
レイヤー_1
  6
CONTINUOUS
 62
       3
100
AcDbLine
 10
-26.9250417
 20
19.90245116
 30
0.0
 11
-26.92918069
 21
19.87537649
 31
0.0
  0
LINE
  5
797
100
AcDbEntity
  8
レイヤー_1
  6
CONTINUOUS
 62
       3
100
AcDbLine
 10
-26.92918069
 20
19.87537649
 30
0.0
 11
-26.93547505
 21
19.83978313
 31
0.0
  0
LINE
  5
798
100
AcDbEntity
  8
レイヤー_1
  6
CONTINUOUS
 62
       3
100
AcDbLine
 10
-26.93547505
 20
19.83978313
 30
0.0
 11
-26.94417186
 21
19.79739638
 31
0.0
  0
LINE
  5
799
100
AcDbEntity
  8
レイヤー_1
  6
CONTINUOUS
 62
       3
100
AcDbLine
 10
-26.94417186
 20
19.79739638
 30
0.0
 11
-26.95551822
 21
19.74994156
 31
0.0
  0
LINE
  5
79A
100
AcDbEntity
  8
レイヤー_1
  6
CONTINUOUS
 62
       3
100
AcDbLine
 10
-26.95551822
 20
19.74994156
 30
0.0
 11
-26.96976121
 21
19.69914397
 31
0.0
  0
LINE
  5
79B
100
AcDbEntity
  8
レイヤー_1
  6
CONTINUOUS
 62
       3
100
AcDbLine
 10
-26.96976121
 20
19.69914397
 30
0.0
 11
-26.98714794
 21
19.6467289
 31
0.0
  0
LINE
  5
79C
100
AcDbEntity
  8
レイヤー_1
  6
CONTINUOUS
 62
       3
100
AcDbLine
 10
-26.98714794
 20
19.6467289
 30
0.0
 11
-27.00792548
 21
19.59442167
 31
0.0
  0
LINE
  5
79D
100
AcDbEntity
  8
レイヤー_1
  6
CONTINUOUS
 62
       3
100
AcDbLine
 10
-27.00792548
 20
19.59442167
 30
0.0
 11
-27.03234094
 21
19.54394757
 31
0.0
  0
LINE
  5
79E
100
AcDbEntity
  8
レイヤー_1
  6
CONTINUOUS
 62
       3
100
AcDbLine
 10
-27.03234094
 20
19.54394757
 30
0.0
 11
-27.0606414
 21
19.49703191
 31
0.0
  0
LINE
  5
79F
100
AcDbEntity
  8
レイヤー_1
  6
CONTINUOUS
 62
       3
100
AcDbLine
 10
-27.0606414
 20
19.49703191
 30
0.0
 11
-27.09307395
 21
19.45539999
 31
0.0
  0
LINE
  5
7A0
100
AcDbEntity
  8
レイヤー_1
  6
CONTINUOUS
 62
       3
100
AcDbLine
 10
-27.09307395
 20
19.45539999
 30
0.0
 11
-27.12988569
 21
19.42077711
 31
0.0
  0
LINE
  5
7A1
100
AcDbEntity
  8
レイヤー_1
  6
CONTINUOUS
 62
       3
100
AcDbLine
 10
-27.12988569
 20
19.42077711
 30
0.0
 11
-27.1713237
 21
19.39488858
 31
0.0
  0
LINE
  5
7A2
100
AcDbEntity
  8
レイヤー_1
  6
CONTINUOUS
 62
       3
100
AcDbLine
 10
-27.1713237
 20
19.39488858
 30
0.0
 11
-27.21763508
 21
19.3794597
 31
0.0
  0
LINE
  5
7A3
100
AcDbEntity
  8
レイヤー_1
  6
CONTINUOUS
 62
       3
100
AcDbLine
 10
-27.21763508
 20
19.3794597
 30
0.0
 11
-27.25726398
 21
19.37564103
 31
0.0
  0
LINE
  5
7A4
100
AcDbEntity
  8
レイヤー_1
  6
CONTINUOUS
 62
       3
100
AcDbLine
 10
-27.25726398
 20
19.37564103
 30
0.0
 11
-27.29276023
 21
19.372225
 31
0.0
  0
LINE
  5
7A5
100
AcDbEntity
  8
レイヤー_1
  6
CONTINUOUS
 62
       3
100
AcDbLine
 10
-27.29276023
 20
19.372225
 30
0.0
 11
-27.37033107
 21
19.36475988
 31
0.0
  0
LINE
  5
7A6
100
AcDbEntity
  8
レイヤー_1
  6
CONTINUOUS
 62
       3
100
AcDbLine
 10
-27.37033107
 20
19.36475988
 30
0.0
 11
-27.48356512
 21
19.35386267
 31
0.0
  0
LINE
  5
7A7
100
AcDbEntity
  8
レイヤー_1
  6
CONTINUOUS
 62
       3
100
AcDbLine
 10
-27.48356512
 20
19.35386267
 30
0.0
 11
-27.62605102
 21
19.34015037
 31
0.0
  0
LINE
  5
7A8
100
AcDbEntity
  8
レイヤー_1
  6
CONTINUOUS
 62
       3
100
AcDbLine
 10
-27.62605102
 20
19.34015037
 30
0.0
 11
-27.79137742
 21
19.32423998
 31
0.0
  0
LINE
  5
7A9
100
AcDbEntity
  8
レイヤー_1
  6
CONTINUOUS
 62
       3
100
AcDbLine
 10
-27.79137742
 20
19.32423998
 30
0.0
 11
-27.97313293
 21
19.30674852
 31
0.0
  0
LINE
  5
7AA
100
AcDbEntity
  8
レイヤー_1
  6
CONTINUOUS
 62
       3
100
AcDbLine
 10
-27.97313293
 20
19.30674852
 30
0.0
 11
-28.1649062
 21
19.28829299
 31
0.0
  0
LINE
  5
7AB
100
AcDbEntity
  8
レイヤー_1
  6
CONTINUOUS
 62
       3
100
AcDbLine
 10
-28.1649062
 20
19.28829299
 30
0.0
 11
-28.36028586
 21
19.2694904
 31
0.0
  0
LINE
  5
7AC
100
AcDbEntity
  8
レイヤー_1
  6
CONTINUOUS
 62
       3
100
AcDbLine
 10
-28.36028586
 20
19.2694904
 30
0.0
 11
-28.55286056
 21
19.25095774
 31
0.0
  0
LINE
  5
7AD
100
AcDbEntity
  8
レイヤー_1
  6
CONTINUOUS
 62
       3
100
AcDbLine
 10
-28.55286056
 20
19.25095774
 30
0.0
 11
-28.73621891
 21
19.23331203
 31
0.0
  0
LINE
  5
7AE
100
AcDbEntity
  8
レイヤー_1
  6
CONTINUOUS
 62
       3
100
AcDbLine
 10
-28.73621891
 20
19.23331203
 30
0.0
 11
-28.90394956
 21
19.21717027
 31
0.0
  0
LINE
  5
7AF
100
AcDbEntity
  8
レイヤー_1
  6
CONTINUOUS
 62
       3
100
AcDbLine
 10
-28.90394956
 20
19.21717027
 30
0.0
 11
-29.04964115
 21
19.20314947
 31
0.0
  0
LINE
  5
7B0
100
AcDbEntity
  8
レイヤー_1
  6
CONTINUOUS
 62
       3
100
AcDbLine
 10
-29.04964115
 20
19.20314947
 30
0.0
 11
-29.1668823
 21
19.19186662
 31
0.0
  0
LINE
  5
7B1
100
AcDbEntity
  8
レイヤー_1
  6
CONTINUOUS
 62
       3
100
AcDbLine
 10
-29.1668823
 20
19.19186662
 30
0.0
 11
-29.24926166
 21
19.18393875
 31
0.0
  0
LINE
  5
7B2
100
AcDbEntity
  8
レイヤー_1
  6
CONTINUOUS
 62
       3
100
AcDbLine
 10
-29.24926166
 20
19.18393875
 30
0.0
 11
-29.29036786
 21
19.17998284
 31
0.0
  0
LINE
  5
7B3
100
AcDbEntity
  8
レイヤー_1
  6
CONTINUOUS
 62
       3
100
AcDbLine
 10
-29.29036786
 20
19.17998284
 30
0.0
 11
-29.29586647
 21
19.18046994
 31
0.0
  0
LINE
  5
7B4
100
AcDbEntity
  8
レイヤー_1
  6
CONTINUOUS
 62
       3
100
AcDbLine
 10
-29.29586647
 20
19.18046994
 30
0.0
 11
-29.30719771
 21
19.18542747
 31
0.0
  0
LINE
  5
7B5
100
AcDbEntity
  8
レイヤー_1
  6
CONTINUOUS
 62
       3
100
AcDbLine
 10
-29.30719771
 20
19.18542747
 30
0.0
 11
-29.3277173
 21
19.19532958
 31
0.0
  0
LINE
  5
7B6
100
AcDbEntity
  8
レイヤー_1
  6
CONTINUOUS
 62
       3
100
AcDbLine
 10
-29.3277173
 20
19.19532958
 30
0.0
 11
-29.35656329
 21
19.21070079
 31
0.0
  0
LINE
  5
7B7
100
AcDbEntity
  8
レイヤー_1
  6
CONTINUOUS
 62
       3
100
AcDbLine
 10
-29.35656329
 20
19.21070079
 30
0.0
 11
-29.39287377
 21
19.23206564
 31
0.0
  0
LINE
  5
7B8
100
AcDbEntity
  8
レイヤー_1
  6
CONTINUOUS
 62
       3
100
AcDbLine
 10
-29.39287377
 20
19.23206564
 30
0.0
 11
-29.4357868
 21
19.25994864
 31
0.0
  0
LINE
  5
7B9
100
AcDbEntity
  8
レイヤー_1
  6
CONTINUOUS
 62
       3
100
AcDbLine
 10
-29.4357868
 20
19.25994864
 30
0.0
 11
-29.48444046
 21
19.29487432
 31
0.0
  0
LINE
  5
7BA
100
AcDbEntity
  8
レイヤー_1
  6
CONTINUOUS
 62
       3
100
AcDbLine
 10
-29.48444046
 20
19.29487432
 30
0.0
 11
-29.53797281
 21
19.33736722
 31
0.0
  0
LINE
  5
7BB
100
AcDbEntity
  8
レイヤー_1
  6
CONTINUOUS
 62
       3
100
AcDbLine
 10
-29.53797281
 20
19.33736722
 30
0.0
 11
-29.59552192
 21
19.38795186
 31
0.0
  0
LINE
  5
7BC
100
AcDbEntity
  8
レイヤー_1
  6
CONTINUOUS
 62
       3
100
AcDbLine
 10
-29.59552192
 20
19.38795186
 30
0.0
 11
-29.65622588
 21
19.44715275
 31
0.0
  0
LINE
  5
7BD
100
AcDbEntity
  8
レイヤー_1
  6
CONTINUOUS
 62
       3
100
AcDbLine
 10
-29.65622588
 20
19.44715275
 30
0.0
 11
-29.71922274
 21
19.51549445
 31
0.0
  0
LINE
  5
7BE
100
AcDbEntity
  8
レイヤー_1
  6
CONTINUOUS
 62
       3
100
AcDbLine
 10
-29.71922274
 20
19.51549445
 30
0.0
 11
-29.78365058
 21
19.59350146
 31
0.0
  0
LINE
  5
7BF
100
AcDbEntity
  8
レイヤー_1
  6
CONTINUOUS
 62
       3
100
AcDbLine
 10
-29.78365058
 20
19.59350146
 30
0.0
 11
-29.84864748
 21
19.68169831
 31
0.0
  0
LINE
  5
7C0
100
AcDbEntity
  8
レイヤー_1
  6
CONTINUOUS
 62
       3
100
AcDbLine
 10
-29.84864748
 20
19.68169831
 30
0.0
 11
-29.91335149
 21
19.78060954
 31
0.0
  0
LINE
  5
7C1
100
AcDbEntity
  8
レイヤー_1
  6
CONTINUOUS
 62
       3
100
AcDbLine
 10
-29.91335149
 20
19.78060954
 30
0.0
 11
-29.9769007
 21
19.89075966
 31
0.0
  0
LINE
  5
7C2
100
AcDbEntity
  8
レイヤー_1
  6
CONTINUOUS
 62
       3
100
AcDbLine
 10
-29.9769007
 20
19.89075966
 30
0.0
 11
-30.03843316
 21
20.01267322
 31
0.0
  0
CIRCLE
  5
7C3
100
AcDbEntity
  8
0
  6
CONTINUOUS
 62
       3
100
AcDbCircle
 10
45.56565559
 20
51.50781806
 30
0.0
 40
2.3
  0
CIRCLE
  5
7C4
100
AcDbEntity
  8
0
  6
CONTINUOUS
 62
       3
100
AcDbCircle
 10
49.95195416
 20
42.88891839
 30
0.0
 40
2.3
  0
CIRCLE
  5
7C5
100
AcDbEntity
  8
0
  6
CONTINUOUS
 62
       3
100
AcDbCircle
 10
54.26520854
 20
51.50781806
 30
0.0
 40
2.3
  0
CIRCLE
  5
7C6
100
AcDbEntity
  8
0
  6
CONTINUOUS
 62
       3
100
AcDbCircle
 10
58.65150711
 20
42.88891839
 30
0.0
 40
2.3
  0
CIRCLE
  5
7C7
100
AcDbEntity
  8
0
  6
CONTINUOUS
 62
       3
100
AcDbCircle
 10
49.77431813
 20
-30.41572681
 30
0.0
 40
2.3
  0
CIRCLE
  5
7C8
100
AcDbEntity
  8
0
  6
CONTINUOUS
 62
       3
100
AcDbCircle
 10
54.16131226
 20
-39.03468422
 30
0.0
 40
2.3
  0
TEXT
  5
7C9
100
AcDbEntity
  8
SLD-0
 62
       3
100
AcDbText
 10
64.36552994
 20
-67.64682301
 30
0.0
 40
5.0
  1
000
 72
       5
 11
79.36552994
 21
-67.64682301
 31
0.0
100
AcDbText
  0
ENDSEC
  0
SECTION
  2
OBJECTS
  0
DICTIONARY
  5
19
100
AcDbDictionary
  3
ACAD_GROUP
350
1A
  3
ACAD_MLINESTYLE
350
1B
  0
DICTIONARY
  5
1A
102
{ACAD_REACTORS
330
19
102
}
100
AcDbDictionary
  0
DICTIONARY
  5
1B
102
{ACAD_REACTORS
330
19
102
}
100
AcDbDictionary
  3
STANDARD
350
1C
  0
MLINESTYLE
  5
1C
102
{ACAD_REACTORS
330
1B
102
}
100
AcDbMlineStyle
  2
STANDARD
 70
       0
  3

 62
       0
 51
90.0
 52
90.0
 71
       2
 49
0.5
 62
     256
  6
BYLAYER
 49
-0.5
 62
     256
  6
BYLAYER
  0
ENDSEC
  0
EOF
