  0
SECTION
  2
HEADER
  9
$ACADVER
  1
AC1014
  9
$ACADMAINTVER
 70
       0
  9
$DWGCODEPAGE
  3
ANSI_932
  9
$INSBASE
 10
0.0
 20
0.0
 30
0.0
  9
$EXTMIN
 10
-54.91557975
 20
-52.4504176
 30
0.0
  9
$EXTMAX
 10
54.91557975
 20
49.9504176
 30
0.0
  9
$LIMMIN
 10
-58.34780348
 20
-55.6504437
  9
$LIMMAX
 10
58.34780348
 20
53.1504437
  9
$ORTHOMODE
 70
       0
  9
$REGENMODE
 70
       1
  9
$FILLMODE
 70
       1
  9
$QTEXTMODE
 70
       0
  9
$MIRRTEXT
 70
       1
  9
$DRAGMODE
 70
       2
  9
$LTSCALE
 40
1.0
  9
$OSMODE
 70
       0
  9
$ATTMODE
 70
       1
  9
$TEXTSIZE
 40
0.2
  9
$TRACEWID
 40
0.05
  9
$TEXTSTYLE
  7
STANDARD
  9
$CLAYER
  8
0
  9
$CELTYPE
  6
CONTINUOUS
  9
$CECOLOR
 62
     256
  9
$CELTSCALE
 40
1.0
  9
$DELOBJ
 70
       1
  9
$DISPSILH
 70
       0
  9
$DIMSCALE
 40
1.0
  9
$DIMASZ
 40
0.18
  9
$DIMEXO
 40
0.0625
  9
$DIMDLI
 40
0.38
  9
$DIMRND
 40
0.0
  9
$DIMDLE
 40
0.0
  9
$DIMEXE
 40
0.18
  9
$DIMTP
 40
0.0
  9
$DIMTM
 40
0.0
  9
$DIMTXT
 40
0.18
  9
$DIMCEN
 40
0.09
  9
$DIMTSZ
 40
0.0
  9
$DIMTOL
 70
       0
  9
$DIMLIM
 70
       0
  9
$DIMTIH
 70
       1
  9
$DIMTOH
 70
       1
  9
$DIMSE1
 70
       0
  9
$DIMSE2
 70
       0
  9
$DIMTAD
 70
       0
  9
$DIMZIN
 70
       0
  9
$DIMBLK
  1

  9
$DIMASO
 70
       1
  9
$DIMSHO
 70
       1
  9
$DIMPOST
  1

  9
$DIMAPOST
  1

  9
$DIMALT
 70
       0
  9
$DIMALTD
 70
       2
  9
$DIMALTF
 40
25.4
  9
$DIMLFAC
 40
1.0
  9
$DIMTOFL
 70
       0
  9
$DIMTVP
 40
0.0
  9
$DIMTIX
 70
       0
  9
$DIMSOXD
 70
       0
  9
$DIMSAH
 70
       0
  9
$DIMBLK1
  1

  9
$DIMBLK2
  1

  9
$DIMSTYLE
  2
STANDARD
  9
$DIMCLRD
 70
       0
  9
$DIMCLRE
 70
       0
  9
$DIMCLRT
 70
       0
  9
$DIMTFAC
 40
1.0
  9
$DIMGAP
 40
0.09
  9
$DIMJUST
 70
       0
  9
$DIMSD1
 70
       0
  9
$DIMSD2
 70
       0
  9
$DIMTOLJ
 70
       1
  9
$DIMTZIN
 70
       0
  9
$DIMALTZ
 70
       0
  9
$DIMALTTZ
 70
       0
  9
$DIMFIT
 70
       3
  9
$DIMUPT
 70
       0
  9
$DIMUNIT
 70
       2
  9
$DIMDEC
 70
       4
  9
$DIMTDEC
 70
       4
  9
$DIMALTU
 70
       2
  9
$DIMALTTD
 70
       2
  9
$DIMTXSTY
  7
STANDARD
  9
$DIMAUNIT
 70
       0
  9
$LUNITS
 70
       2
  9
$LUPREC
 70
       4
  9
$SKETCHINC
 40
0.1
  9
$FILLETRAD
 40
0.0
  9
$AUNITS
 70
       0
  9
$AUPREC
 70
       0
  9
$MENU
  1
acad
  9
$ELEVATION
 40
0.0
  9
$PELEVATION
 40
0.0
  9
$THICKNESS
 40
0.0
  9
$LIMCHECK
 70
       0
  9
$BLIPMODE
 70
       1
  9
$CHAMFERA
 40
0.0
  9
$CHAMFERB
 40
0.0
  9
$CHAMFERC
 40
0.0
  9
$CHAMFERD
 40
0.0
  9
$SKPOLY
 70
       0
  9
$TDCREATE
 40
0.000000000
  9
$TDUPDATE
 40
0.000000000
  9
$TDINDWG
 40
0.0000000000
  9
$TDUSRTIMER
 40
0.0000000000
  9
$USRTIMER
 70
       1
  9
$ANGBASE
 50
0.0
  9
$ANGDIR
 70
       0
  9
$PDMODE
 70
       0
  9
$PDSIZE
 40
1.0
  9
$PLINEWID
 40
0.0
  9
$COORDS
 70
       1
  9
$SPLFRAME
 70
       0
  9
$SPLINETYPE
 70
       6
  9
$SPLINESEGS
 70
       8
  9
$ATTDIA
 70
       0
  9
$ATTREQ
 70
       1
  9
$HANDLING
 70
       1
  9
$HANDSEED
  5
78D
  9
$SURFTAB1
 70
       6
  9
$SURFTAB2
 70
       6
  9
$SURFTYPE
 70
       6
  9
$SURFU
 70
       6
  9
$SURFV
 70
       6
  9
$UCSNAME
  2

  9
$UCSORG
 10
0.0
 20
0.0
 30
0.0
  9
$UCSXDIR
 10
1.0
 20
0.0
 30
0.0
  9
$UCSYDIR
 10
0.0
 20
1.0
 30
0.0
  9
$PUCSNAME
  2

  9
$PUCSORG
 10
0.0
 20
0.0
 30
0.0
  9
$PUCSXDIR
 10
1.0
 20
0.0
 30
0.0
  9
$PUCSYDIR
 10
0.0
 20
1.0
 30
0.0
  9
$USERI1
 70
       0
  9
$USERI2
 70
       0
  9
$USERI3
 70
       0
  9
$USERI4
 70
       0
  9
$USERI5
 70
       0
  9
$USERR1
 40
0.0
  9
$USERR2
 40
0.0
  9
$USERR3
 40
0.0
  9
$USERR4
 40
0.0
  9
$USERR5
 40
0.0
  9
$WORLDVIEW
 70
       1
  9
$SHADEDGE
 70
       3
  9
$SHADEDIF
 70
      70
  9
$TILEMODE
 70
       1
  9
$MAXACTVP
 70
      16
  9
$PINSBASE
 10
0.0
 20
0.0
 30
0.0
  9
$PLIMCHECK
 70
       0
  9
$PEXTMIN
 10
1.00000000E+20
 20
1.00000000E+20
 30
1.00000000E+20
  9
$PEXTMAX
 10
-1.00000000E+20
 20
-1.00000000E+20
 30
-1.00000000E+20
  9
$PLIMMIN
 10
0.0
 20
0.0
  9
$PLIMMAX
 10
12.0
 20
9.0
  9
$UNITMODE
 70
       0
  9
$VISRETAIN
 70
       0
  9
$PLINEGEN
 70
       1
  9
$PSLTSCALE
 70
       0
  9
$TREEDEPTH
 70
    3020
  9
$PICKSTYLE
 70
       1
  9
$CMLSTYLE
  2
STANDARD
  9
$CMLJUST
 70
       0
  9
$CMLSCALE
 40
1.0
  9
$PROXYGRAPHICS
 70
       0
  9
$MEASUREMENT
 70
       0
  0
ENDSEC
  0
SECTION
  2
CLASSES
  0
CLASS
  1
LWPOLYLINE
  2
AcDbPolyline
  3
"AutoCAD"
 90
        0
280
       0
281
       1
  0
CLASS
  1
IMAGE
  2
AcDbRasterImage
  3
ISM
 90
      127
280
       0
281
       1
  0
CLASS
  1
OLE2FRAME
  2
AcDbOle2Frame
  3
""
 90
        0
280
       0
281
       1
  0
CLASS
  1
HATCH
  2
AcDbHatch
  3
"ACAD_SEDONA"
 90
        0
280
       0
281
       1
  0
CLASS
  1
DICTIONARYVAR
  2
AcDbDictionaryVar
  3
"AutoCAD"
 90
        0
280
       0
281
       0
  0
CLASS
  1
RASTERVARIABLES
  2
AcDbRasterVariables
  3
ISM
 90
        0
280
       0
281
       0
  0
CLASS
  1
IMAGEDEF
  2
AcDbRasterImageDef
  3
ISM
 90
        0
280
       0
281
       0
  0
CLASS
  1
IMAGEDEF_REACTOR
  2
AcDbRasterImageDefReactor
  3
ISM
 90
        1
280
       0
281
       0
  0
CLASS
  1
IDBUFFER
  2
AcDbIdBuffer
  3
"Acad"
 90
        0
280
       0
281
       0
  0
CLASS
  1
SPATIAL_FILTER
  2
AcDbSpatialFilter
  3
"Acad"
 90
        0
280
       0
281
       0
  0
CLASS
  1
XRECORD
  2
AcDbXrecord
  3
"<Built In>"
 90
        0
280
       0
281
       0
  0
CLASS
  1
SORTENTSTABLE
  2
AcDbSortentsTable
  3
"AutoCAD"
 90
        0
280
       0
281
       0
  0
CLASS
  1
LAYER_INDEX
  2
AcDbLayerIndex
  3
"Acad"
 90
        0
280
       0
281
       0
  0
CLASS
  1
SPATIAL_INDEX
  2
AcDbSpatialIndex
  3
"Acad"
 90
        0
280
       0
281
       0
  0
CLASS
  1
OBJECT_PTR
  2
CAseDLPNTableRecord
  3
"ASE-LPNTableRecord"
 90
        1
280
       0
281
       0
  0
CLASS
  1
LAYOUT
  2
AcDbLayout
  3
"AutoCAD 2000"
 90
        1
280
       0
281
       0
  0
CLASS
  1
PLOTSETTINGS
  2
AcDbPlotSettings
  3
"AutoCAD 2000"
 90
        1
280
       0
281
       0
  0
CLASS
  1
ACDBDICTIONARYWDFLT
  2
AcDbDictionaryWithDefault
  3
"AutoCAD 2000"
 90
        1
280
       0
281
       0
  0
CLASS
  1
ACDBPLACEHOLDER
  2
AcDbPlaceHolder
  3
"AutoCAD 2000"
 90
        1
280
       0
281
       0
  0
CLASS
  1
VBA_PROJECT
  2
AcDbVbaProject
  3
"acadvba"
 90
        1
280
       0
281
       0
  0
CLASS
  1
WIPEOUT
  2
AcDbWipeout
  3
WipeOut|AutoCAD Express Tool|expresstools@autodesk.com
 90
      127
280
       0
281
       1
  0
CLASS
  1
WIPEOUTVARIABLES
  2
AcDbWipeoutVariables
  3
WipeOut|AutoCAD Express Tool|expresstools@autodesk.com
 90
        0
280
       0
281
       0
  0
CLASS
  1
RTEXT
  2
RText
  3
RText|AutoCAD Express Tool|expresstools@autodesk.com
 90
        0
280
       0
281
       1
  0
CLASS
  1
ARCALIGNEDTEXT
  2
AcDbArcAlignedText
  3
ATEXT|AutoCAD Express Tool|expresstools@autodesk.com
 90
        0
280
       0
281
       1
  0
ENDSEC
  0
SECTION
  2
TABLES
  0
TABLE
  2
VPORT
  5
7
100
AcDbSymbolTable
 70
       1
  0
VPORT
  5
15
100
AcDbSymbolTableRecord
100
AcDbViewportTableRecord
  2
*ACTIVE
 70
       0
 10
0.0
 20
0.0
 11
1.0
 21
1.0
 12
0.0
 22
-1.25
 13
0.0
 23
0.0
 14
1.0
 24
1.0
 15
0.0
 25
0.0
 16
0.0
 26
0.0
 36
1.0
 17
0.0
 27
0.0
 37
0.0
 40
108.80088741
 41
1.07256117
 42
50.0
 43
0.0
 44
0.0
 50
0.0
 51
0.0
 71
       0
 72
     100
 73
       1
 74
       1
 75
       0
 76
       0
 77
       0
 78
       0
  0
ENDTAB
  0
TABLE
  2
LTYPE
  5
4
100
AcDbSymbolTable
 70
      30
  0
LTYPE
  5
11
100
AcDbSymbolTableRecord
100
AcDbLinetypeTableRecord
  2
BYBLOCK
 70
      64
  3

 72
      65
 73
       0
 40
0.0
  0
LTYPE
  5
12
100
AcDbSymbolTableRecord
100
AcDbLinetypeTableRecord
  2
BYLAYER
 70
      64
  3

 72
      65
 73
       0
 40
0.0
  0
LTYPE
  5
13
100
AcDbSymbolTableRecord
100
AcDbLinetypeTableRecord
  2
CONTINUOUS
 70
      64
  3
Solid line
 72
      65
 73
       0
 40
0.0
  0
LTYPE
  5
1D
100
AcDbSymbolTableRecord
100
AcDbLinetypeTableRecord
  2
HIDDENX2
 70
      64
  3
CADPAC LINETYPE
 72
      65
 73
       2
 40
5.6439093
 49
4.23293198
 74
       0
 49
-1.41097733
 74
       0
  0
LTYPE
  5
1E
100
AcDbSymbolTableRecord
100
AcDbLinetypeTableRecord
  2
HIDDEN
 70
      64
  3
CADPAC LINETYPE
 72
      65
 73
       2
 40
4.23293198
 49
2.82195465
 74
       0
 49
-1.41097733
 74
       0
  0
LTYPE
  5
1F
100
AcDbSymbolTableRecord
100
AcDbLinetypeTableRecord
  2
HIDDEN2
 70
      64
  3
CADPAC LINETYPE
 72
      65
 73
       2
 40
3.52744331
 49
2.11646599
 74
       0
 49
-1.41097733
 74
       0
  0
LTYPE
  5
20
100
AcDbSymbolTableRecord
100
AcDbLinetypeTableRecord
  2
DASHED
 70
      64
  3
CADPAC LINETYPE
 72
      65
 73
       2
 40
4.23293198
 49
2.82195465
 74
       0
 49
-1.41097733
 74
       0
  0
LTYPE
  5
21
100
AcDbSymbolTableRecord
100
AcDbLinetypeTableRecord
  2
DASHED2
 70
      64
  3
CADPAC LINETYPE
 72
      65
 73
       2
 40
3.17469898
 49
2.11646599
 74
       0
 49
-1.05823299
 74
       0
  0
LTYPE
  5
22
100
AcDbSymbolTableRecord
100
AcDbLinetypeTableRecord
  2
DASHEDX2
 70
      64
  3
CADPAC LINETYPE
 72
      65
 73
       2
 40
6.34939796
 49
4.23293198
 74
       0
 49
-2.11646599
 74
       0
  0
LTYPE
  5
23
100
AcDbSymbolTableRecord
100
AcDbLinetypeTableRecord
  2
DOTX2
 70
      64
  3
CADPAC LINETYPE
 72
      65
 73
       2
 40
1.76372166
 49
0.0
 74
       0
 49
-1.76372166
 74
       0
  0
LTYPE
  5
24
100
AcDbSymbolTableRecord
100
AcDbLinetypeTableRecord
  2
DOT
 70
      64
  3
CADPAC LINETYPE
 72
      65
 73
       2
 40
1.41097733
 49
0.0
 74
       0
 49
-1.41097733
 74
       0
  0
LTYPE
  5
25
100
AcDbSymbolTableRecord
100
AcDbLinetypeTableRecord
  2
DOT2
 70
      64
  3
CADPAC LINETYPE
 72
      65
 73
       2
 40
1.05823299
 49
0.0
 74
       0
 49
-1.05823299
 74
       0
  0
LTYPE
  5
26
100
AcDbSymbolTableRecord
100
AcDbLinetypeTableRecord
  2
CENTERX2
 70
      64
  3
CADPAC LINETYPE
 72
      65
 73
       4
 40
8.46586395
 49
3.52744331
 74
       0
 49
-1.76372166
 74
       0
 49
1.41097733
 74
       0
 49
-1.76372166
 74
       0
  0
LTYPE
  5
27
100
AcDbSymbolTableRecord
100
AcDbLinetypeTableRecord
  2
CENTER
 70
      64
  3
CADPAC LINETYPE
 72
      65
 73
       4
 40
6.4904957
 49
2.82195465
 74
       0
 49
-1.41097733
 74
       0
 49
0.8465864
 74
       0
 49
-1.41097733
 74
       0
  0
LTYPE
  5
28
100
AcDbSymbolTableRecord
100
AcDbLinetypeTableRecord
  2
CENTER2
 70
      64
  3
CADPAC LINETYPE
 72
      65
 73
       4
 40
4.51512744
 49
2.11646599
 74
       0
 49
-1.05823299
 74
       0
 49
0.28219547
 74
       0
 49
-1.05823299
 74
       0
  0
LTYPE
  5
29
100
AcDbSymbolTableRecord
100
AcDbLinetypeTableRecord
  2
DASHDOTX2
 70
      64
  3
CADPAC LINETYPE
 72
      65
 73
       4
 40
7.05488663
 49
3.52744331
 74
       0
 49
-1.76372166
 74
       0
 49
0.0
 74
       0
 49
-1.76372166
 74
       0
  0
LTYPE
  5
2A
100
AcDbSymbolTableRecord
100
AcDbLinetypeTableRecord
  2
DASHDOT
 70
      64
  3
CADPAC LINETYPE
 72
      65
 73
       4
 40
5.6439093
 49
2.82195465
 74
       0
 49
-1.41097733
 74
       0
 49
0.0
 74
       0
 49
-1.41097733
 74
       0
  0
LTYPE
  5
2B
100
AcDbSymbolTableRecord
100
AcDbLinetypeTableRecord
  2
DASHDOT2
 70
      64
  3
CADPAC LINETYPE
 72
      65
 73
       4
 40
4.23293198
 49
2.11646599
 74
       0
 49
-1.05823299
 74
       0
 49
0.0
 74
       0
 49
-1.05823299
 74
       0
  0
LTYPE
  5
2C
100
AcDbSymbolTableRecord
100
AcDbLinetypeTableRecord
  2
DIVIDEX2
 70
      64
  3
CADPAC LINETYPE
 72
      65
 73
       6
 40
8.81860828
 49
3.52744331
 74
       0
 49
-1.76372166
 74
       0
 49
0.0
 74
       0
 49
-1.76372166
 74
       0
 49
0.0
 74
       0
 49
-1.76372166
 74
       0
  0
LTYPE
  5
2D
100
AcDbSymbolTableRecord
100
AcDbLinetypeTableRecord
  2
DIVIDE
 70
      64
  3
CADPAC LINETYPE
 72
      65
 73
       6
 40
7.05488663
 49
2.82195465
 74
       0
 49
-1.41097733
 74
       0
 49
0.0
 74
       0
 49
-1.41097733
 74
       0
 49
0.0
 74
       0
 49
-1.41097733
 74
       0
  0
LTYPE
  5
2E
100
AcDbSymbolTableRecord
100
AcDbLinetypeTableRecord
  2
DIVIDE2
 70
      64
  3
CADPAC LINETYPE
 72
      65
 73
       6
 40
5.29116497
 49
2.11646599
 74
       0
 49
-1.05823299
 74
       0
 49
0.0
 74
       0
 49
-1.05823299
 74
       0
 49
0.0
 74
       0
 49
-1.05823299
 74
       0
  0
LTYPE
  5
2F
100
AcDbSymbolTableRecord
100
AcDbLinetypeTableRecord
  2
BORDERX2
 70
      64
  3
CADPAC LINETYPE
 72
      65
 73
       6
 40
12.3460516
 49
3.52744331
 74
       0
 49
-1.76372166
 74
       0
 49
3.52744331
 74
       0
 49
-1.76372166
 74
       0
 49
0.0
 74
       0
 49
-1.76372166
 74
       0
  0
LTYPE
  5
30
100
AcDbSymbolTableRecord
100
AcDbLinetypeTableRecord
  2
BORDER
 70
      64
  3
CADPAC LINETYPE
 72
      65
 73
       6
 40
9.87684128
 49
2.82195465
 74
       0
 49
-1.41097733
 74
       0
 49
2.82195465
 74
       0
 49
-1.41097733
 74
       0
 49
0.0
 74
       0
 49
-1.41097733
 74
       0
  0
LTYPE
  5
31
100
AcDbSymbolTableRecord
100
AcDbLinetypeTableRecord
  2
BORDER2
 70
      64
  3
CADPAC LINETYPE
 72
      65
 73
       6
 40
7.40763096
 49
2.11646599
 74
       0
 49
-1.05823299
 74
       0
 49
2.11646599
 74
       0
 49
-1.05823299
 74
       0
 49
0.0
 74
       0
 49
-1.05823299
 74
       0
  0
LTYPE
  5
32
100
AcDbSymbolTableRecord
100
AcDbLinetypeTableRecord
  2
PHANTOMX2
 70
      64
  3
CADPAC LINETYPE
 72
      65
 73
       6
 40
10.58232994
 49
3.52744331
 74
       0
 49
-1.41097733
 74
       0
 49
1.41097733
 74
       0
 49
-1.41097733
 74
       0
 49
1.41097733
 74
       0
 49
-1.41097733
 74
       0
  0
LTYPE
  5
33
100
AcDbSymbolTableRecord
100
AcDbLinetypeTableRecord
  2
PHANTOM
 70
      64
  3
CADPAC LINETYPE
 72
      65
 73
       6
 40
8.74805942
 49
2.82195465
 74
       0
 49
-1.41097733
 74
       0
 49
0.8465864
 74
       0
 49
-1.41097733
 74
       0
 49
0.8465864
 74
       0
 49
-1.41097733
 74
       0
  0
LTYPE
  5
34
100
AcDbSymbolTableRecord
100
AcDbLinetypeTableRecord
  2
PHANTOM2
 70
      64
  3
CADPAC LINETYPE
 72
      65
 73
       6
 40
7.47817982
 49
2.11646599
 74
       0
 49
-1.41097733
 74
       0
 49
0.56439093
 74
       0
 49
-1.41097733
 74
       0
 49
0.56439093
 74
       0
 49
-1.41097733
 74
       0
  0
LTYPE
  5
35
100
AcDbSymbolTableRecord
100
AcDbLinetypeTableRecord
  2
ACAD_ISO06W100
 70
      64
  3
CADPAC LINETYPE
 72
      65
 73
       8
 40
9.52409695
 49
3.52744331
 74
       0
 49
-1.76372166
 74
       0
 49
0.0
 74
       0
 49
-1.41097733
 74
       0
 49
0.0
 74
       0
 49
-1.41097733
 74
       0
 49
0.0
 74
       0
 49
-1.41097733
 74
       0
  0
LTYPE
  5
36
100
AcDbSymbolTableRecord
100
AcDbLinetypeTableRecord
  2
ACAD_ISO13W100
 70
      64
  3
CADPAC LINETYPE
 72
      65
 73
       8
 40
11.2878186
 49
2.82195465
 74
       0
 49
-1.41097733
 74
       0
 49
2.82195465
 74
       0
 49
-1.41097733
 74
       0
 49
0.0
 74
       0
 49
-1.41097733
 74
       0
 49
0.0
 74
       0
 49
-1.41097733
 74
       0
  0
LTYPE
  5
37
100
AcDbSymbolTableRecord
100
AcDbLinetypeTableRecord
  2
ACAD_ISO14W100
 70
      64
  3
CADPAC LINETYPE
 72
      65
 73
       8
 40
8.46586395
 49
2.82195465
 74
       0
 49
-1.41097733
 74
       0
 49
0.0
 74
       0
 49
-1.41097733
 74
       0
 49
0.0
 74
       0
 49
-1.41097733
 74
       0
 49
0.0
 74
       0
 49
-1.41097733
 74
       0
  0
ENDTAB
  0
TABLE
  2
LAYER
  5
2
100
AcDbSymbolTable
 70
       4
  0
LAYER
  5
14
100
AcDbSymbolTableRecord
100
AcDbLayerTableRecord
  2
0
 70
       0
 62
       7
  6
CONTINUOUS
  0
LAYER
  5
38
100
AcDbSymbolTableRecord
100
AcDbLayerTableRecord
  2
SLD-0_1
 70
       0
 62
       7
  6
CONTINUOUS
  0
LAYER
  5
39
100
AcDbSymbolTableRecord
100
AcDbLayerTableRecord
  2
SLD-0
 70
       0
 62
       7
  6
CONTINUOUS
  0
LAYER
  5
3A
100
AcDbSymbolTableRecord
100
AcDbLayerTableRecord
  2
レイヤー_1
 70
       0
 62
       7
  6
CONTINUOUS
  0
ENDTAB
  0
TABLE
  2
STYLE
  5
3
100
AcDbSymbolTable
 70
       1
  0
STYLE
  5
17
100
AcDbSymbolTableRecord
100
AcDbTextStyleTableRecord
  2
STANDARD
 70
       0
 40
0.0
 41
1.0
 50
0.0
 71
       0
 42
5.0
  3
txt.shx
  4
bigfont.shx
  0
ENDTAB
  0
TABLE
  2
VIEW
  5
5
100
AcDbSymbolTable
 70
       1
  0
VIEW
  5
3B
100
AcDbSymbolTableRecord
100
AcDbViewTableRecord
  2
QQQQ
 70
       0
 40
108.80088741
 10
0.0
 20
-1.25
 41
116.69560697
 11
0.0
 21
0.0
 31
1.0
 12
100.0
 22
100.0
 32
0.0
 42
50.0
 43
0.0
 44
0.0
 50
0.0
 71
       0
  0
ENDTAB
  0
TABLE
  2
UCS
  5
6
100
AcDbSymbolTable
 70
       0
  0
ENDTAB
  0
TABLE
  2
APPID
  5
8
100
AcDbSymbolTable
 70
       1
  0
APPID
  5
16
100
AcDbSymbolTableRecord
100
AcDbRegAppTableRecord
  2
ACAD
 70
       0
  0
ENDTAB
  0
TABLE
  2
DIMSTYLE
  5
9
100
AcDbSymbolTable
 70
       1
  0
DIMSTYLE
105
18
100
AcDbSymbolTableRecord
100
AcDbDimStyleTableRecord
  2
STANDARD
 70
       0
  3

  4

  5

  6

  7

 40
1.0
 41
0.18
 42
0.0625
 43
0.38
 44
0.18
 45
0.0
 46
0.0
 47
0.0
 48
0.0
 71
       0
 72
       0
 73
       1
 74
       1
 75
       0
 76
       0
 77
       0
 78
       0
140
0.18
141
0.09
142
0.0
143
25.4
144
1.0
145
0.0
146
1.0
147
0.09
170
       0
171
       2
172
       0
173
       0
174
       0
175
       0
176
       0
177
       0
178
       0
270
       2
271
       4
272
       4
273
       2
274
       2
275
       0
280
       0
281
       0
282
       0
283
       1
284
       0
285
       0
286
       0
287
       0
288
       0
340
17
  0
ENDTAB
  0
TABLE
  2
BLOCK_RECORD
  5
1
100
AcDbSymbolTable
 70
       0
  0
BLOCK_RECORD
  5
A
100
AcDbSymbolTableRecord
100
AcDbBlockTableRecord
  2
*MODEL_SPACE
  0
BLOCK_RECORD
  5
B
100
AcDbSymbolTableRecord
100
AcDbBlockTableRecord
  2
*PAPER_SPACE
  0
ENDTAB
  0
ENDSEC
  0
SECTION
  2
BLOCKS
  0
BLOCK
  5
D
100
AcDbEntity
  8
0
100
AcDbBlockBegin
  2
*MODEL_SPACE
 70
       0
 10
0.0
 20
0.0
 30
0.0
  3
*MODEL_SPACE
  1

  0
ENDBLK
  5
E
100
AcDbEntity
  8
0
100
AcDbBlockEnd
  0
BLOCK
  5
F
100
AcDbEntity
 67
       1
  8
0
100
AcDbBlockBegin
  2
*PAPER_SPACE
 70
       0
 10
0.0
 20
0.0
 30
0.0
  3
*PAPER_SPACE
  1

  0
ENDBLK
  5
10
100
AcDbEntity
 67
       1
  8
0
100
AcDbBlockEnd
  0
ENDSEC
  0
SECTION
  2
ENTITIES
  0
LINE
  5
3C
100
AcDbEntity
  8
レイヤー_1
  6
CONTINUOUS
 62
       3
100
AcDbLine
 10
43.56839439
 20
39.42503009
 30
0.0
 11
21.0688086
 21
39.42503009
 31
0.0
  0
LINE
  5
3D
100
AcDbEntity
  8
レイヤー_1
  6
CONTINUOUS
 62
       3
100
AcDbLine
 10
21.0688086
 20
-33.5825269
 30
0.0
 11
43.56839439
 21
-33.5825269
 31
0.0
  0
LINE
  5
3E
100
AcDbEntity
  8
レイヤー_1
  6
CONTINUOUS
 62
       3
100
AcDbLine
 10
42.31854499
 20
-24.78167632
 30
0.0
 11
22.31911733
 21
-24.78167632
 31
0.0
  0
LINE
  5
3F
100
AcDbEntity
  8
レイヤー_1
  6
CONTINUOUS
 62
       3
100
AcDbLine
 10
22.31911733
 20
-29.58218203
 30
0.0
 11
42.31854499
 21
-29.58218203
 31
0.0
  0
LINE
  5
40
100
AcDbEntity
  8
レイヤー_1
  6
CONTINUOUS
 62
       3
100
AcDbLine
 10
23.81884474
 20
-19.78136007
 30
0.0
 11
22.31911733
 21
-19.78136007
 31
0.0
  0
LINE
  5
41
100
AcDbEntity
  8
レイヤー_1
  6
CONTINUOUS
 62
       3
100
AcDbLine
 10
22.31911733
 20
-19.78136007
 30
0.0
 11
22.31911733
 21
-31.5821248
 31
0.0
  0
LINE
  5
42
100
AcDbEntity
  8
レイヤー_1
  6
CONTINUOUS
 62
       3
100
AcDbLine
 10
22.31911733
 20
-31.5821248
 30
0.0
 11
42.31854499
 21
-31.5821248
 31
0.0
  0
LINE
  5
43
100
AcDbEntity
  8
レイヤー_1
  6
CONTINUOUS
 62
       3
100
AcDbLine
 10
42.31854499
 20
-31.5821248
 30
0.0
 11
42.31854499
 21
-19.78136007
 31
0.0
  0
LINE
  5
44
100
AcDbEntity
  8
レイヤー_1
  6
CONTINUOUS
 62
       3
100
AcDbLine
 10
42.31854499
 20
-19.78136007
 30
0.0
 11
40.81881758
 21
-19.78136007
 31
0.0
  0
LINE
  5
45
100
AcDbEntity
  8
レイヤー_1
  6
CONTINUOUS
 62
       3
100
AcDbLine
 10
40.81881758
 20
-19.78136007
 30
0.0
 11
40.81881758
 21
24.62343255
 31
0.0
  0
LINE
  5
46
100
AcDbEntity
  8
レイヤー_1
  6
CONTINUOUS
 62
       3
100
AcDbLine
 10
40.81881758
 20
24.62343255
 30
0.0
 11
42.31854499
 21
24.62343255
 31
0.0
  0
LINE
  5
47
100
AcDbEntity
  8
レイヤー_1
  6
CONTINUOUS
 62
       3
100
AcDbLine
 10
42.31854499
 20
24.62343255
 30
0.0
 11
42.31854499
 21
37.42508732
 31
0.0
  0
LINE
  5
48
100
AcDbEntity
  8
レイヤー_1
  6
CONTINUOUS
 62
       3
100
AcDbLine
 10
42.31854499
 20
37.42508732
 30
0.0
 11
22.31911733
 21
37.42508732
 31
0.0
  0
LINE
  5
49
100
AcDbEntity
  8
レイヤー_1
  6
CONTINUOUS
 62
       3
100
AcDbLine
 10
22.31911733
 20
37.42508732
 30
0.0
 11
22.31911733
 21
24.62343255
 31
0.0
  0
LINE
  5
4A
100
AcDbEntity
  8
レイヤー_1
  6
CONTINUOUS
 62
       3
100
AcDbLine
 10
22.31911733
 20
24.62343255
 30
0.0
 11
23.81884474
 21
24.62343255
 31
0.0
  0
LINE
  5
4B
100
AcDbEntity
  8
レイヤー_1
  6
CONTINUOUS
 62
       3
100
AcDbLine
 10
23.81884474
 20
24.62343255
 30
0.0
 11
23.81884474
 21
-19.78136007
 31
0.0
  0
LINE
  5
4C
100
AcDbEntity
  8
レイヤー_1
  6
CONTINUOUS
 62
       3
100
AcDbLine
 10
42.31854499
 20
-21.78130284
 30
0.0
 11
22.31911733
 21
-21.78130284
 31
0.0
  0
LINE
  5
4D
100
AcDbEntity
  8
レイヤー_1
  6
CONTINUOUS
 62
       3
100
AcDbLine
 10
42.31854499
 20
35.42468522
 30
0.0
 11
22.31911733
 21
35.42468522
 31
0.0
  0
LINE
  5
4E
100
AcDbEntity
  8
レイヤー_1
  6
CONTINUOUS
 62
       3
100
AcDbLine
 10
22.31911733
 20
30.62417951
 30
0.0
 11
42.31854499
 21
30.62417951
 31
0.0
  0
LINE
  5
4F
100
AcDbEntity
  8
レイヤー_1
  6
CONTINUOUS
 62
       3
100
AcDbLine
 10
22.31911733
 20
27.62380603
 30
0.0
 11
42.31854499
 21
27.62380603
 31
0.0
  0
LINE
  5
50
100
AcDbEntity
  8
レイヤー_1
  6
CONTINUOUS
 62
       3
100
AcDbLine
 10
38.86848295
 20
-23.58143506
 30
0.0
 11
40.66861518
 21
-23.58143506
 31
0.0
  0
LINE
  5
51
100
AcDbEntity
  8
レイヤー_1
  6
CONTINUOUS
 62
       3
100
AcDbLine
 10
40.66861518
 20
-23.58143506
 30
0.0
 11
40.66861518
 21
-22.08124832
 31
0.0
  0
LINE
  5
52
100
AcDbEntity
  8
レイヤー_1
  6
CONTINUOUS
 62
       3
100
AcDbLine
 10
40.66861518
 20
-22.08124832
 30
0.0
 11
38.86848295
 21
-22.08124832
 31
0.0
  0
LINE
  5
53
100
AcDbEntity
  8
レイヤー_1
  6
CONTINUOUS
 62
       3
100
AcDbLine
 10
38.86848295
 20
-22.08124832
 30
0.0
 11
38.86848295
 21
-23.58143506
 31
0.0
  0
LINE
  5
54
100
AcDbEntity
  8
レイヤー_1
  6
CONTINUOUS
 62
       3
100
AcDbLine
 10
33.96876098
 20
-23.58143506
 30
0.0
 11
35.7688932
 21
-23.58143506
 31
0.0
  0
LINE
  5
55
100
AcDbEntity
  8
レイヤー_1
  6
CONTINUOUS
 62
       3
100
AcDbLine
 10
35.7688932
 20
-23.58143506
 30
0.0
 11
35.7688932
 21
-22.08124832
 31
0.0
  0
LINE
  5
56
100
AcDbEntity
  8
レイヤー_1
  6
CONTINUOUS
 62
       3
100
AcDbLine
 10
35.7688932
 20
-22.08124832
 30
0.0
 11
33.96876098
 21
-22.08124832
 31
0.0
  0
LINE
  5
57
100
AcDbEntity
  8
レイヤー_1
  6
CONTINUOUS
 62
       3
100
AcDbLine
 10
33.96876098
 20
-22.08124832
 30
0.0
 11
33.96876098
 21
-23.58143506
 31
0.0
  0
LINE
  5
58
100
AcDbEntity
  8
レイヤー_1
  6
CONTINUOUS
 62
       3
100
AcDbLine
 10
28.86876912
 20
-23.58143506
 30
0.0
 11
30.66890135
 21
-23.58143506
 31
0.0
  0
LINE
  5
59
100
AcDbEntity
  8
レイヤー_1
  6
CONTINUOUS
 62
       3
100
AcDbLine
 10
30.66890135
 20
-23.58143506
 30
0.0
 11
30.66890135
 21
-22.08124832
 31
0.0
  0
LINE
  5
5A
100
AcDbEntity
  8
レイヤー_1
  6
CONTINUOUS
 62
       3
100
AcDbLine
 10
30.66890135
 20
-22.08124832
 30
0.0
 11
28.86876912
 21
-22.08124832
 31
0.0
  0
LINE
  5
5B
100
AcDbEntity
  8
レイヤー_1
  6
CONTINUOUS
 62
       3
100
AcDbLine
 10
28.86876912
 20
-22.08124832
 30
0.0
 11
28.86876912
 21
-23.58143506
 31
0.0
  0
LINE
  5
5C
100
AcDbEntity
  8
レイヤー_1
  6
CONTINUOUS
 62
       3
100
AcDbLine
 10
23.96904715
 20
-23.58143506
 30
0.0
 11
25.76917937
 21
-23.58143506
 31
0.0
  0
LINE
  5
5D
100
AcDbEntity
  8
レイヤー_1
  6
CONTINUOUS
 62
       3
100
AcDbLine
 10
25.76917937
 20
-23.58143506
 30
0.0
 11
25.76917937
 21
-22.08124832
 31
0.0
  0
LINE
  5
5E
100
AcDbEntity
  8
レイヤー_1
  6
CONTINUOUS
 62
       3
100
AcDbLine
 10
25.76917937
 20
-22.08124832
 30
0.0
 11
23.96904715
 21
-22.08124832
 31
0.0
  0
LINE
  5
5F
100
AcDbEntity
  8
レイヤー_1
  6
CONTINUOUS
 62
       3
100
AcDbLine
 10
23.96904715
 20
-22.08124832
 30
0.0
 11
23.96904715
 21
-23.58143506
 31
0.0
  0
LINE
  5
60
100
AcDbEntity
  8
レイヤー_1
  6
CONTINUOUS
 62
       3
100
AcDbLine
 10
38.86848295
 20
27.92375151
 30
0.0
 11
40.66861518
 21
27.92375151
 31
0.0
  0
LINE
  5
61
100
AcDbEntity
  8
レイヤー_1
  6
CONTINUOUS
 62
       3
100
AcDbLine
 10
40.66861518
 20
27.92375151
 30
0.0
 11
40.66861518
 21
29.42393825
 31
0.0
  0
LINE
  5
62
100
AcDbEntity
  8
レイヤー_1
  6
CONTINUOUS
 62
       3
100
AcDbLine
 10
40.66861518
 20
29.42393825
 30
0.0
 11
38.86848295
 21
29.42393825
 31
0.0
  0
LINE
  5
63
100
AcDbEntity
  8
レイヤー_1
  6
CONTINUOUS
 62
       3
100
AcDbLine
 10
38.86848295
 20
29.42393825
 30
0.0
 11
38.86848295
 21
27.92375151
 31
0.0
  0
LINE
  5
64
100
AcDbEntity
  8
レイヤー_1
  6
CONTINUOUS
 62
       3
100
AcDbLine
 10
33.96876098
 20
27.92375151
 30
0.0
 11
35.7688932
 21
27.92375151
 31
0.0
  0
LINE
  5
65
100
AcDbEntity
  8
レイヤー_1
  6
CONTINUOUS
 62
       3
100
AcDbLine
 10
35.7688932
 20
27.92375151
 30
0.0
 11
35.7688932
 21
29.42393825
 31
0.0
  0
LINE
  5
66
100
AcDbEntity
  8
レイヤー_1
  6
CONTINUOUS
 62
       3
100
AcDbLine
 10
35.7688932
 20
29.42393825
 30
0.0
 11
33.96876098
 21
29.42393825
 31
0.0
  0
LINE
  5
67
100
AcDbEntity
  8
レイヤー_1
  6
CONTINUOUS
 62
       3
100
AcDbLine
 10
33.96876098
 20
29.42393825
 30
0.0
 11
33.96876098
 21
27.92375151
 31
0.0
  0
LINE
  5
68
100
AcDbEntity
  8
レイヤー_1
  6
CONTINUOUS
 62
       3
100
AcDbLine
 10
28.86876912
 20
27.92375151
 30
0.0
 11
30.66890135
 21
27.92375151
 31
0.0
  0
LINE
  5
69
100
AcDbEntity
  8
レイヤー_1
  6
CONTINUOUS
 62
       3
100
AcDbLine
 10
30.66890135
 20
27.92375151
 30
0.0
 11
30.66890135
 21
29.42393825
 31
0.0
  0
LINE
  5
6A
100
AcDbEntity
  8
レイヤー_1
  6
CONTINUOUS
 62
       3
100
AcDbLine
 10
30.66890135
 20
29.42393825
 30
0.0
 11
28.86876912
 21
29.42393825
 31
0.0
  0
LINE
  5
6B
100
AcDbEntity
  8
レイヤー_1
  6
CONTINUOUS
 62
       3
100
AcDbLine
 10
28.86876912
 20
29.42393825
 30
0.0
 11
28.86876912
 21
27.92375151
 31
0.0
  0
LINE
  5
6C
100
AcDbEntity
  8
レイヤー_1
  6
CONTINUOUS
 62
       3
100
AcDbLine
 10
23.96904715
 20
27.92375151
 30
0.0
 11
25.76917937
 21
27.92375151
 31
0.0
  0
LINE
  5
6D
100
AcDbEntity
  8
レイヤー_1
  6
CONTINUOUS
 62
       3
100
AcDbLine
 10
25.76917937
 20
27.92375151
 30
0.0
 11
25.76917937
 21
29.42393825
 31
0.0
  0
LINE
  5
6E
100
AcDbEntity
  8
レイヤー_1
  6
CONTINUOUS
 62
       3
100
AcDbLine
 10
25.76917937
 20
29.42393825
 30
0.0
 11
23.96904715
 21
29.42393825
 31
0.0
  0
LINE
  5
6F
100
AcDbEntity
  8
レイヤー_1
  6
CONTINUOUS
 62
       3
100
AcDbLine
 10
23.96904715
 20
29.42393825
 30
0.0
 11
23.96904715
 21
27.92375151
 31
0.0
  0
LINE
  5
70
100
AcDbEntity
  8
レイヤー_1
  6
CONTINUOUS
 62
       3
100
AcDbLine
 10
-43.82000966
 20
-21.77854683
 30
0.0
 11
-40.82009551
 21
-21.77854683
 31
0.0
  0
LINE
  5
71
100
AcDbEntity
  8
レイヤー_1
  6
CONTINUOUS
 62
       3
100
AcDbLine
 10
-40.82009551
 20
-31.5821248
 30
0.0
 11
-46.31993812
 21
-31.5821248
 31
0.0
  0
LINE
  5
72
100
AcDbEntity
  8
レイヤー_1
  6
CONTINUOUS
 62
       3
100
AcDbLine
 10
-46.31993812
 20
-31.5821248
 30
0.0
 11
-52.80344207
 21
-29.58055241
 31
0.0
  0
LINE
  5
73
100
AcDbEntity
  8
レイヤー_1
  6
CONTINUOUS
 62
       3
100
AcDbLine
 10
-52.80344207
 20
-24.78344201
 30
0.0
 11
-43.82000966
 21
-21.77854683
 31
0.0
  0
LINE
  5
74
100
AcDbEntity
  8
レイヤー_1
  6
CONTINUOUS
 62
       3
100
AcDbLine
 10
-43.82000966
 20
27.62105002
 30
0.0
 11
-40.82009551
 21
27.62105002
 31
0.0
  0
LINE
  5
75
100
AcDbEntity
  8
レイヤー_1
  6
CONTINUOUS
 62
       3
100
AcDbLine
 10
-40.82009551
 20
37.42508732
 30
0.0
 11
-46.31993812
 21
37.42508732
 31
0.0
  0
LINE
  5
76
100
AcDbEntity
  8
レイヤー_1
  6
CONTINUOUS
 62
       3
100
AcDbLine
 10
-46.31993812
 20
37.42508732
 30
0.0
 11
-52.80344207
 21
35.42305522
 31
0.0
  0
LINE
  5
77
100
AcDbEntity
  8
レイヤー_1
  6
CONTINUOUS
 62
       3
100
AcDbLine
 10
-52.80344207
 20
30.62594519
 30
0.0
 11
-43.82000966
 21
27.62105002
 31
0.0
  0
LINE
  5
78
100
AcDbEntity
  8
レイヤー_1
  6
CONTINUOUS
 62
       3
100
AcDbLine
 10
-30.27866026
 20
-35.57897808
 30
0.0
 11
-25.30331403
 21
-28.59782802
 31
0.0
  0
LINE
  5
79
100
AcDbEntity
  8
レイヤー_1
  6
CONTINUOUS
 62
       3
100
AcDbLine
 10
-25.30331403
 20
-28.59782802
 30
0.0
 11
-25.30331403
 21
34.42471384
 31
0.0
  0
LINE
  5
7A
100
AcDbEntity
  8
レイヤー_1
  6
CONTINUOUS
 62
       3
100
AcDbLine
 10
-25.30331403
 20
34.42471384
 30
0.0
 11
-30.28946313
 21
41.42102192
 31
0.0
  0
LINE
  5
7B
100
AcDbEntity
  8
レイヤー_1
  6
CONTINUOUS
 62
       3
100
AcDbLine
 10
-35.83126173
 20
41.42102192
 30
0.0
 11
-40.82009551
 21
39.42503009
 31
0.0
  0
LINE
  5
7C
100
AcDbEntity
  8
レイヤー_1
  6
CONTINUOUS
 62
       3
100
AcDbLine
 10
-40.82009551
 20
39.42503009
 30
0.0
 11
-40.82009551
 21
-33.5825269
 31
0.0
  0
LINE
  5
7D
100
AcDbEntity
  8
レイヤー_1
  6
CONTINUOUS
 62
       3
100
AcDbLine
 10
-40.82009551
 20
-33.5825269
 30
0.0
 11
-35.86876922
 21
-35.57897808
 31
0.0
  0
LINE
  5
7E
100
AcDbEntity
  8
レイヤー_1
  6
CONTINUOUS
 62
       3
100
AcDbLine
 10
-37.32019567
 20
-28.58978967
 30
0.0
 11
-30.82038168
 21
-28.58978967
 31
0.0
  0
LINE
  5
7F
100
AcDbEntity
  8
レイヤー_1
  6
CONTINUOUS
 62
       3
100
AcDbLine
 10
-30.82038168
 20
-28.58978967
 30
0.0
 11
-30.82038168
 21
34.41713482
 31
0.0
  0
LINE
  5
80
100
AcDbEntity
  8
レイヤー_1
  6
CONTINUOUS
 62
       3
100
AcDbLine
 10
-30.82038168
 20
34.41713482
 30
0.0
 11
-37.32019567
 21
34.41713482
 31
0.0
  0
LINE
  5
81
100
AcDbEntity
  8
レイヤー_1
  6
CONTINUOUS
 62
       3
100
AcDbLine
 10
-37.32019567
 20
34.41713482
 30
0.0
 11
-37.32019567
 21
-28.58978967
 31
0.0
  0
LINE
  5
82
100
AcDbEntity
  8
レイヤー_1
  6
CONTINUOUS
 62
       3
100
AcDbLine
 10
-21.28505511
 20
17.61031216
 30
0.0
 11
-21.28505511
 21
21.90761684
 31
0.0
  0
LINE
  5
83
100
AcDbEntity
  8
レイヤー_1
  6
CONTINUOUS
 62
       3
100
AcDbLine
 10
-21.28505511
 20
21.90761684
 30
0.0
 11
-23.79256259
 21
21.90761684
 31
0.0
  0
LINE
  5
84
100
AcDbEntity
  8
レイヤー_1
  6
CONTINUOUS
 62
       3
100
AcDbLine
 10
-23.79256259
 20
21.90761684
 30
0.0
 11
-23.79256259
 21
16.24402145
 31
0.0
  0
LINE
  5
85
100
AcDbEntity
  8
レイヤー_1
  6
CONTINUOUS
 62
       3
100
AcDbLine
 10
-23.79256259
 20
16.24402145
 30
0.0
 11
-21.28505511
 21
17.61031216
 31
0.0
  0
LINE
  5
86
100
AcDbEntity
  8
レイヤー_1
  6
CONTINUOUS
 62
       3
100
AcDbLine
 10
-23.79256259
 20
-27.59762697
 30
0.0
 11
-13.80341346
 21
-27.59762697
 31
0.0
  0
LINE
  5
87
100
AcDbEntity
  8
レイヤー_1
  6
CONTINUOUS
 62
       3
100
AcDbLine
 10
-13.80341346
 20
-27.59762697
 30
0.0
 11
-13.80341346
 21
-15.59659237
 31
0.0
  0
LINE
  5
88
100
AcDbEntity
  8
レイヤー_1
  6
CONTINUOUS
 62
       3
100
AcDbLine
 10
-13.80341346
 20
-15.59659237
 30
0.0
 11
-23.79256259
 21
-15.59659237
 31
0.0
  0
LINE
  5
89
100
AcDbEntity
  8
レイヤー_1
  6
CONTINUOUS
 62
       3
100
AcDbLine
 10
32.1746001
 20
-6.82950289
 30
0.0
 11
32.27526532
 21
-6.82449985
 31
0.0
  0
LINE
  5
8A
100
AcDbEntity
  8
レイヤー_1
  6
CONTINUOUS
 62
       3
100
AcDbLine
 10
32.27526532
 20
-6.82449985
 30
0.0
 11
32.37308092
 21
-6.8098097
 31
0.0
  0
LINE
  5
8B
100
AcDbEntity
  8
レイヤー_1
  6
CONTINUOUS
 62
       3
100
AcDbLine
 10
32.37308092
 20
-6.8098097
 30
0.0
 11
32.46756649
 21
-6.78591096
 31
0.0
  0
LINE
  5
8C
100
AcDbEntity
  8
レイヤー_1
  6
CONTINUOUS
 62
       3
100
AcDbLine
 10
32.46756649
 20
-6.78591096
 30
0.0
 11
32.55824162
 21
-6.7532821
 31
0.0
  0
LINE
  5
8D
100
AcDbEntity
  8
レイヤー_1
  6
CONTINUOUS
 62
       3
100
AcDbLine
 10
32.55824162
 20
-6.7532821
 30
0.0
 11
32.64462587
 21
-6.71240163
 31
0.0
  0
LINE
  5
8E
100
AcDbEntity
  8
レイヤー_1
  6
CONTINUOUS
 62
       3
100
AcDbLine
 10
32.64462587
 20
-6.71240163
 30
0.0
 11
32.72623883
 21
-6.66374805
 31
0.0
  0
LINE
  5
8F
100
AcDbEntity
  8
レイヤー_1
  6
CONTINUOUS
 62
       3
100
AcDbLine
 10
32.72623883
 20
-6.66374805
 30
0.0
 11
32.80260007
 21
-6.60779983
 31
0.0
  0
LINE
  5
90
100
AcDbEntity
  8
レイヤー_1
  6
CONTINUOUS
 62
       3
100
AcDbLine
 10
32.80260007
 20
-6.60779983
 30
0.0
 11
32.87322919
 21
-6.54503548
 31
0.0
  0
LINE
  5
91
100
AcDbEntity
  8
レイヤー_1
  6
CONTINUOUS
 62
       3
100
AcDbLine
 10
32.87322919
 20
-6.54503548
 30
0.0
 11
32.93764574
 21
-6.4759335
 31
0.0
  0
LINE
  5
92
100
AcDbEntity
  8
レイヤー_1
  6
CONTINUOUS
 62
       3
100
AcDbLine
 10
32.93764574
 20
-6.4759335
 30
0.0
 11
32.99536932
 21
-6.40097237
 31
0.0
  0
LINE
  5
93
100
AcDbEntity
  8
レイヤー_1
  6
CONTINUOUS
 62
       3
100
AcDbLine
 10
32.99536932
 20
-6.40097237
 30
0.0
 11
33.04591951
 21
-6.32063059
 31
0.0
  0
LINE
  5
94
100
AcDbEntity
  8
レイヤー_1
  6
CONTINUOUS
 62
       3
100
AcDbLine
 10
33.04591951
 20
-6.32063059
 30
0.0
 11
33.08881587
 21
-6.23538666
 31
0.0
  0
LINE
  5
95
100
AcDbEntity
  8
レイヤー_1
  6
CONTINUOUS
 62
       3
100
AcDbLine
 10
33.08881587
 20
-6.23538666
 30
0.0
 11
33.123578
 21
-6.14571906
 31
0.0
  0
LINE
  5
96
100
AcDbEntity
  8
レイヤー_1
  6
CONTINUOUS
 62
       3
100
AcDbLine
 10
33.123578
 20
-6.14571906
 30
0.0
 11
33.14972546
 21
-6.0521063
 31
0.0
  0
LINE
  5
97
100
AcDbEntity
  8
レイヤー_1
  6
CONTINUOUS
 62
       3
100
AcDbLine
 10
33.14972546
 20
-6.0521063
 30
0.0
 11
33.16677785
 21
-5.95502686
 31
0.0
  0
LINE
  5
98
100
AcDbEntity
  8
レイヤー_1
  6
CONTINUOUS
 62
       3
100
AcDbLine
 10
33.16677785
 20
-5.95502686
 30
0.0
 11
33.17425474
 21
-5.85495924
 31
0.0
  0
LINE
  5
99
100
AcDbEntity
  8
レイヤー_1
  6
CONTINUOUS
 62
       3
100
AcDbLine
 10
33.17425474
 20
-5.85495924
 30
0.0
 11
33.17174326
 21
-5.75378421
 31
0.0
  0
LINE
  5
9A
100
AcDbEntity
  8
レイヤー_1
  6
CONTINUOUS
 62
       3
100
AcDbLine
 10
33.17174326
 20
-5.75378421
 30
0.0
 11
33.15941857
 21
-5.65521117
 31
0.0
  0
LINE
  5
9B
100
AcDbEntity
  8
レイヤー_1
  6
CONTINUOUS
 62
       3
100
AcDbLine
 10
33.15941857
 20
-5.65521117
 30
0.0
 11
33.13775859
 21
-5.55984805
 31
0.0
  0
LINE
  5
9C
100
AcDbEntity
  8
レイヤー_1
  6
CONTINUOUS
 62
       3
100
AcDbLine
 10
33.13775859
 20
-5.55984805
 30
0.0
 11
33.10724374
 21
-5.46817527
 31
0.0
  0
LINE
  5
9D
100
AcDbEntity
  8
レイヤー_1
  6
CONTINUOUS
 62
       3
100
AcDbLine
 10
33.10724374
 20
-5.46817527
 30
0.0
 11
33.06835444
 21
-5.38067326
 31
0.0
  0
LINE
  5
9E
100
AcDbEntity
  8
レイヤー_1
  6
CONTINUOUS
 62
       3
100
AcDbLine
 10
33.06835444
 20
-5.38067326
 30
0.0
 11
33.02157111
 21
-5.29782244
 31
0.0
  0
LINE
  5
9F
100
AcDbEntity
  8
レイヤー_1
  6
CONTINUOUS
 62
       3
100
AcDbLine
 10
33.02157111
 20
-5.29782244
 30
0.0
 11
32.96737418
 21
-5.22010323
 31
0.0
  0
LINE
  5
A0
100
AcDbEntity
  8
レイヤー_1
  6
CONTINUOUS
 62
       3
100
AcDbLine
 10
32.96737418
 20
-5.22010323
 30
0.0
 11
32.90624406
 21
-5.14799604
 31
0.0
  0
LINE
  5
A1
100
AcDbEntity
  8
レイヤー_1
  6
CONTINUOUS
 62
       3
100
AcDbLine
 10
32.90624406
 20
-5.14799604
 30
0.0
 11
32.83866117
 21
-5.08198131
 31
0.0
  0
LINE
  5
A2
100
AcDbEntity
  8
レイヤー_1
  6
CONTINUOUS
 62
       3
100
AcDbLine
 10
32.83866117
 20
-5.08198131
 30
0.0
 11
32.76510594
 21
-5.02253944
 31
0.0
  0
LINE
  5
A3
100
AcDbEntity
  8
レイヤー_1
  6
CONTINUOUS
 62
       3
100
AcDbLine
 10
32.76510594
 20
-5.02253944
 30
0.0
 11
32.68605879
 21
-4.97015087
 31
0.0
  0
LINE
  5
A4
100
AcDbEntity
  8
レイヤー_1
  6
CONTINUOUS
 62
       3
100
AcDbLine
 10
32.68605879
 20
-4.97015087
 30
0.0
 11
32.60200013
 21
-4.92529601
 31
0.0
  0
LINE
  5
A5
100
AcDbEntity
  8
レイヤー_1
  6
CONTINUOUS
 62
       3
100
AcDbLine
 10
32.60200013
 20
-4.92529601
 30
0.0
 11
32.51341039
 21
-4.88845529
 31
0.0
  0
LINE
  5
A6
100
AcDbEntity
  8
レイヤー_1
  6
CONTINUOUS
 62
       3
100
AcDbLine
 10
32.51341039
 20
-4.88845529
 30
0.0
 11
32.42076999
 21
-4.86010912
 31
0.0
  0
LINE
  5
A7
100
AcDbEntity
  8
レイヤー_1
  6
CONTINUOUS
 62
       3
100
AcDbLine
 10
32.42076999
 20
-4.86010912
 30
0.0
 11
32.32455934
 21
-4.84073792
 31
0.0
  0
LINE
  5
A8
100
AcDbEntity
  8
レイヤー_1
  6
CONTINUOUS
 62
       3
100
AcDbLine
 10
32.32455934
 20
-4.84073792
 30
0.0
 11
32.22525888
 21
-4.83082212
 31
0.0
  0
LINE
  5
A9
100
AcDbEntity
  8
レイヤー_1
  6
CONTINUOUS
 62
       3
100
AcDbLine
 10
32.22525888
 20
-4.83082212
 30
0.0
 11
32.12390149
 21
-4.83082212
 31
0.0
  0
LINE
  5
AA
100
AcDbEntity
  8
レイヤー_1
  6
CONTINUOUS
 62
       3
100
AcDbLine
 10
32.12390149
 20
-4.83082212
 30
0.0
 11
32.02453606
 21
-4.84073792
 31
0.0
  0
LINE
  5
AB
100
AcDbEntity
  8
レイヤー_1
  6
CONTINUOUS
 62
       3
100
AcDbLine
 10
32.02453606
 20
-4.84073792
 30
0.0
 11
31.92827843
 21
-4.86010912
 31
0.0
  0
LINE
  5
AC
100
AcDbEntity
  8
レイヤー_1
  6
CONTINUOUS
 62
       3
100
AcDbLine
 10
31.92827843
 20
-4.86010912
 30
0.0
 11
31.8356071
 21
-4.88845529
 31
0.0
  0
LINE
  5
AD
100
AcDbEntity
  8
レイヤー_1
  6
CONTINUOUS
 62
       3
100
AcDbLine
 10
31.8356071
 20
-4.88845529
 30
0.0
 11
31.74700056
 21
-4.92529601
 31
0.0
  0
LINE
  5
AE
100
AcDbEntity
  8
レイヤー_1
  6
CONTINUOUS
 62
       3
100
AcDbLine
 10
31.74700056
 20
-4.92529601
 30
0.0
 11
31.66293731
 21
-4.97015087
 31
0.0
  0
LINE
  5
AF
100
AcDbEntity
  8
レイヤー_1
  6
CONTINUOUS
 62
       3
100
AcDbLine
 10
31.66293731
 20
-4.97015087
 30
0.0
 11
31.58389583
 21
-5.02253944
 31
0.0
  0
LINE
  5
B0
100
AcDbEntity
  8
レイヤー_1
  6
CONTINUOUS
 62
       3
100
AcDbLine
 10
31.58389583
 20
-5.02253944
 30
0.0
 11
31.51035463
 21
-5.08198131
 31
0.0
  0
LINE
  5
B1
100
AcDbEntity
  8
レイヤー_1
  6
CONTINUOUS
 62
       3
100
AcDbLine
 10
31.51035463
 20
-5.08198131
 30
0.0
 11
31.4427922
 21
-5.14799604
 31
0.0
  0
LINE
  5
B2
100
AcDbEntity
  8
レイヤー_1
  6
CONTINUOUS
 62
       3
100
AcDbLine
 10
31.4427922
 20
-5.14799604
 30
0.0
 11
31.38168702
 21
-5.22010323
 31
0.0
  0
LINE
  5
B3
100
AcDbEntity
  8
レイヤー_1
  6
CONTINUOUS
 62
       3
100
AcDbLine
 10
31.38168702
 20
-5.22010323
 30
0.0
 11
31.32751761
 21
-5.29782244
 31
0.0
  0
LINE
  5
B4
100
AcDbEntity
  8
レイヤー_1
  6
CONTINUOUS
 62
       3
100
AcDbLine
 10
31.32751761
 20
-5.29782244
 30
0.0
 11
31.28076244
 21
-5.38067326
 31
0.0
  0
LINE
  5
B5
100
AcDbEntity
  8
レイヤー_1
  6
CONTINUOUS
 62
       3
100
AcDbLine
 10
31.28076244
 20
-5.38067326
 30
0.0
 11
31.24190001
 21
-5.46817527
 31
0.0
  0
LINE
  5
B6
100
AcDbEntity
  8
レイヤー_1
  6
CONTINUOUS
 62
       3
100
AcDbLine
 10
31.24190001
 20
-5.46817527
 30
0.0
 11
31.21140883
 21
-5.55984805
 31
0.0
  0
LINE
  5
B7
100
AcDbEntity
  8
レイヤー_1
  6
CONTINUOUS
 62
       3
100
AcDbLine
 10
31.21140883
 20
-5.55984805
 30
0.0
 11
31.18976738
 21
-5.65521117
 31
0.0
  0
LINE
  5
B8
100
AcDbEntity
  8
レイヤー_1
  6
CONTINUOUS
 62
       3
100
AcDbLine
 10
31.18976738
 20
-5.65521117
 30
0.0
 11
31.17745415
 21
-5.75378421
 31
0.0
  0
LINE
  5
B9
100
AcDbEntity
  8
レイヤー_1
  6
CONTINUOUS
 62
       3
100
AcDbLine
 10
31.17745415
 20
-5.75378421
 30
0.0
 11
31.17494515
 21
-5.85495924
 31
0.0
  0
LINE
  5
BA
100
AcDbEntity
  8
レイヤー_1
  6
CONTINUOUS
 62
       3
100
AcDbLine
 10
31.17494515
 20
-5.85495924
 30
0.0
 11
31.18241483
 21
-5.95502686
 31
0.0
  0
LINE
  5
BB
100
AcDbEntity
  8
レイヤー_1
  6
CONTINUOUS
 62
       3
100
AcDbLine
 10
31.18241483
 20
-5.95502686
 30
0.0
 11
31.19945198
 21
-6.0521063
 31
0.0
  0
LINE
  5
BC
100
AcDbEntity
  8
レイヤー_1
  6
CONTINUOUS
 62
       3
100
AcDbLine
 10
31.19945198
 20
-6.0521063
 30
0.0
 11
31.22557811
 21
-6.14571906
 31
0.0
  0
LINE
  5
BD
100
AcDbEntity
  8
レイヤー_1
  6
CONTINUOUS
 62
       3
100
AcDbLine
 10
31.22557811
 20
-6.14571906
 30
0.0
 11
31.26031473
 21
-6.23538666
 31
0.0
  0
LINE
  5
BE
100
AcDbEntity
  8
レイヤー_1
  6
CONTINUOUS
 62
       3
100
AcDbLine
 10
31.26031473
 20
-6.23538666
 30
0.0
 11
31.30318333
 21
-6.32063059
 31
0.0
  0
LINE
  5
BF
100
AcDbEntity
  8
レイヤー_1
  6
CONTINUOUS
 62
       3
100
AcDbLine
 10
31.30318333
 20
-6.32063059
 30
0.0
 11
31.35370544
 21
-6.40097237
 31
0.0
  0
LINE
  5
C0
100
AcDbEntity
  8
レイヤー_1
  6
CONTINUOUS
 62
       3
100
AcDbLine
 10
31.35370544
 20
-6.40097237
 30
0.0
 11
31.41140255
 21
-6.4759335
 31
0.0
  0
LINE
  5
C1
100
AcDbEntity
  8
レイヤー_1
  6
CONTINUOUS
 62
       3
100
AcDbLine
 10
31.41140255
 20
-6.4759335
 30
0.0
 11
31.47579616
 21
-6.54503548
 31
0.0
  0
LINE
  5
C2
100
AcDbEntity
  8
レイヤー_1
  6
CONTINUOUS
 62
       3
100
AcDbLine
 10
31.47579616
 20
-6.54503548
 30
0.0
 11
31.54640779
 21
-6.60779983
 31
0.0
  0
LINE
  5
C3
100
AcDbEntity
  8
レイヤー_1
  6
CONTINUOUS
 62
       3
100
AcDbLine
 10
31.54640779
 20
-6.60779983
 30
0.0
 11
31.62275894
 21
-6.66374805
 31
0.0
  0
LINE
  5
C4
100
AcDbEntity
  8
レイヤー_1
  6
CONTINUOUS
 62
       3
100
AcDbLine
 10
31.62275894
 20
-6.66374805
 30
0.0
 11
31.70437112
 21
-6.71240163
 31
0.0
  0
LINE
  5
C5
100
AcDbEntity
  8
レイヤー_1
  6
CONTINUOUS
 62
       3
100
AcDbLine
 10
31.70437112
 20
-6.71240163
 30
0.0
 11
31.79076583
 21
-6.7532821
 31
0.0
  0
LINE
  5
C6
100
AcDbEntity
  8
レイヤー_1
  6
CONTINUOUS
 62
       3
100
AcDbLine
 10
31.79076583
 20
-6.7532821
 30
0.0
 11
31.88146457
 21
-6.78591096
 31
0.0
  0
LINE
  5
C7
100
AcDbEntity
  8
レイヤー_1
  6
CONTINUOUS
 62
       3
100
AcDbLine
 10
31.88146457
 20
-6.78591096
 30
0.0
 11
31.97598886
 21
-6.8098097
 31
0.0
  0
LINE
  5
C8
100
AcDbEntity
  8
レイヤー_1
  6
CONTINUOUS
 62
       3
100
AcDbLine
 10
31.97598886
 20
-6.8098097
 30
0.0
 11
32.07386021
 21
-6.82449985
 31
0.0
  0
LINE
  5
C9
100
AcDbEntity
  8
レイヤー_1
  6
CONTINUOUS
 62
       3
100
AcDbLine
 10
32.07386021
 20
-6.82449985
 30
0.0
 11
32.1746001
 21
-6.82950289
 31
0.0
  0
LINE
  5
CA
100
AcDbEntity
  8
レイヤー_1
  6
CONTINUOUS
 62
       3
100
AcDbLine
 10
32.1746001
 20
-1.82918664
 30
0.0
 11
32.27526532
 21
-1.8241787
 31
0.0
  0
LINE
  5
CB
100
AcDbEntity
  8
レイヤー_1
  6
CONTINUOUS
 62
       3
100
AcDbLine
 10
32.27526532
 20
-1.8241787
 30
0.0
 11
32.37308092
 21
-1.80947515
 31
0.0
  0
LINE
  5
CC
100
AcDbEntity
  8
レイヤー_1
  6
CONTINUOUS
 62
       3
100
AcDbLine
 10
32.37308092
 20
-1.80947515
 30
0.0
 11
32.46756649
 21
-1.78555641
 31
0.0
  0
LINE
  5
CD
100
AcDbEntity
  8
レイヤー_1
  6
CONTINUOUS
 62
       3
100
AcDbLine
 10
32.46756649
 20
-1.78555641
 30
0.0
 11
32.55824162
 21
-1.75290291
 31
0.0
  0
LINE
  5
CE
100
AcDbEntity
  8
レイヤー_1
  6
CONTINUOUS
 62
       3
100
AcDbLine
 10
32.55824162
 20
-1.75290291
 30
0.0
 11
32.64462587
 21
-1.71199507
 31
0.0
  0
LINE
  5
CF
100
AcDbEntity
  8
レイヤー_1
  6
CONTINUOUS
 62
       3
100
AcDbLine
 10
32.64462587
 20
-1.71199507
 30
0.0
 11
32.72623883
 21
-1.6633133
 31
0.0
  0
LINE
  5
D0
100
AcDbEntity
  8
レイヤー_1
  6
CONTINUOUS
 62
       3
100
AcDbLine
 10
32.72623883
 20
-1.6633133
 30
0.0
 11
32.80260007
 21
-1.60733803
 31
0.0
  0
LINE
  5
D1
100
AcDbEntity
  8
レイヤー_1
  6
CONTINUOUS
 62
       3
100
AcDbLine
 10
32.80260007
 20
-1.60733803
 30
0.0
 11
32.87322919
 21
-1.54454968
 31
0.0
  0
LINE
  5
D2
100
AcDbEntity
  8
レイヤー_1
  6
CONTINUOUS
 62
       3
100
AcDbLine
 10
32.87322919
 20
-1.54454968
 30
0.0
 11
32.93764574
 21
-1.47542866
 31
0.0
  0
LINE
  5
D3
100
AcDbEntity
  8
レイヤー_1
  6
CONTINUOUS
 62
       3
100
AcDbLine
 10
32.93764574
 20
-1.47542866
 30
0.0
 11
32.99536932
 21
-1.40045541
 31
0.0
  0
LINE
  5
D4
100
AcDbEntity
  8
レイヤー_1
  6
CONTINUOUS
 62
       3
100
AcDbLine
 10
32.99536932
 20
-1.40045541
 30
0.0
 11
33.04591951
 21
-1.32011034
 31
0.0
  0
LINE
  5
D5
100
AcDbEntity
  8
レイヤー_1
  6
CONTINUOUS
 62
       3
100
AcDbLine
 10
33.04591951
 20
-1.32011034
 30
0.0
 11
33.08881587
 21
-1.23487387
 31
0.0
  0
LINE
  5
D6
100
AcDbEntity
  8
レイヤー_1
  6
CONTINUOUS
 62
       3
100
AcDbLine
 10
33.08881587
 20
-1.23487387
 30
0.0
 11
33.123578
 21
-1.14522643
 31
0.0
  0
LINE
  5
D7
100
AcDbEntity
  8
レイヤー_1
  6
CONTINUOUS
 62
       3
100
AcDbLine
 10
33.123578
 20
-1.14522643
 30
0.0
 11
33.14972546
 21
-1.05164843
 31
0.0
  0
LINE
  5
D8
100
AcDbEntity
  8
レイヤー_1
  6
CONTINUOUS
 62
       3
100
AcDbLine
 10
33.14972546
 20
-1.05164843
 30
0.0
 11
33.16677785
 21
-0.95462029
 31
0.0
  0
LINE
  5
D9
100
AcDbEntity
  8
レイヤー_1
  6
CONTINUOUS
 62
       3
100
AcDbLine
 10
33.16677785
 20
-0.95462029
 30
0.0
 11
33.17425474
 21
-0.85462244
 31
0.0
  0
LINE
  5
DA
100
AcDbEntity
  8
レイヤー_1
  6
CONTINUOUS
 62
       3
100
AcDbLine
 10
33.17425474
 20
-0.85462244
 30
0.0
 11
33.17174326
 21
-0.75343903
 31
0.0
  0
LINE
  5
DB
100
AcDbEntity
  8
レイヤー_1
  6
CONTINUOUS
 62
       3
100
AcDbLine
 10
33.17174326
 20
-0.75343903
 30
0.0
 11
33.15941857
 21
-0.65483584
 31
0.0
  0
LINE
  5
DC
100
AcDbEntity
  8
レイヤー_1
  6
CONTINUOUS
 62
       3
100
AcDbLine
 10
33.15941857
 20
-0.65483584
 30
0.0
 11
33.13775859
 21
-0.55945132
 31
0.0
  0
LINE
  5
DD
100
AcDbEntity
  8
レイヤー_1
  6
CONTINUOUS
 62
       3
100
AcDbLine
 10
33.13775859
 20
-0.55945132
 30
0.0
 11
33.10724374
 21
-0.46776494
 31
0.0
  0
LINE
  5
DE
100
AcDbEntity
  8
レイヤー_1
  6
CONTINUOUS
 62
       3
100
AcDbLine
 10
33.10724374
 20
-0.46776494
 30
0.0
 11
33.06835444
 21
-0.38025615
 31
0.0
  0
LINE
  5
DF
100
AcDbEntity
  8
レイヤー_1
  6
CONTINUOUS
 62
       3
100
AcDbLine
 10
33.06835444
 20
-0.38025615
 30
0.0
 11
33.02157111
 21
-0.2974044
 31
0.0
  0
LINE
  5
E0
100
AcDbEntity
  8
レイヤー_1
  6
CONTINUOUS
 62
       3
100
AcDbLine
 10
33.02157111
 20
-0.2974044
 30
0.0
 11
32.96737418
 21
-0.21968916
 31
0.0
  0
LINE
  5
E1
100
AcDbEntity
  8
レイヤー_1
  6
CONTINUOUS
 62
       3
100
AcDbLine
 10
32.96737418
 20
-0.21968916
 30
0.0
 11
32.90624406
 21
-0.14758989
 31
0.0
  0
LINE
  5
E2
100
AcDbEntity
  8
レイヤー_1
  6
CONTINUOUS
 62
       3
100
AcDbLine
 10
32.90624406
 20
-0.14758989
 30
0.0
 11
32.83866117
 21
-0.08158603
 31
0.0
  0
LINE
  5
E3
100
AcDbEntity
  8
レイヤー_1
  6
CONTINUOUS
 62
       3
100
AcDbLine
 10
32.83866117
 20
-0.08158603
 30
0.0
 11
32.76510594
 21
-0.02215705
 31
0.0
  0
LINE
  5
E4
100
AcDbEntity
  8
レイヤー_1
  6
CONTINUOUS
 62
       3
100
AcDbLine
 10
32.76510594
 20
-0.02215705
 30
0.0
 11
32.68605879
 21
0.03021759
 31
0.0
  0
LINE
  5
E5
100
AcDbEntity
  8
レイヤー_1
  6
CONTINUOUS
 62
       3
100
AcDbLine
 10
32.68605879
 20
0.03021759
 30
0.0
 11
32.60200013
 21
0.07505844
 31
0.0
  0
LINE
  5
E6
100
AcDbEntity
  8
レイヤー_1
  6
CONTINUOUS
 62
       3
100
AcDbLine
 10
32.60200013
 20
0.07505844
 30
0.0
 11
32.51341039
 21
0.11188604
 31
0.0
  0
LINE
  5
E7
100
AcDbEntity
  8
レイヤー_1
  6
CONTINUOUS
 62
       3
100
AcDbLine
 10
32.51341039
 20
0.11188604
 30
0.0
 11
32.42076999
 21
0.14022093
 31
0.0
  0
LINE
  5
E8
100
AcDbEntity
  8
レイヤー_1
  6
CONTINUOUS
 62
       3
100
AcDbLine
 10
32.42076999
 20
0.14022093
 30
0.0
 11
32.32455934
 21
0.15958366
 31
0.0
  0
LINE
  5
E9
100
AcDbEntity
  8
レイヤー_1
  6
CONTINUOUS
 62
       3
100
AcDbLine
 10
32.32455934
 20
0.15958366
 30
0.0
 11
32.22525888
 21
0.16949476
 31
0.0
  0
LINE
  5
EA
100
AcDbEntity
  8
レイヤー_1
  6
CONTINUOUS
 62
       3
100
AcDbLine
 10
32.22525888
 20
0.16949476
 30
0.0
 11
32.12390149
 21
0.16949476
 31
0.0
  0
LINE
  5
EB
100
AcDbEntity
  8
レイヤー_1
  6
CONTINUOUS
 62
       3
100
AcDbLine
 10
32.12390149
 20
0.16949476
 30
0.0
 11
32.02453606
 21
0.15958366
 31
0.0
  0
LINE
  5
EC
100
AcDbEntity
  8
レイヤー_1
  6
CONTINUOUS
 62
       3
100
AcDbLine
 10
32.02453606
 20
0.15958366
 30
0.0
 11
31.92827843
 21
0.14022093
 31
0.0
  0
LINE
  5
ED
100
AcDbEntity
  8
レイヤー_1
  6
CONTINUOUS
 62
       3
100
AcDbLine
 10
31.92827843
 20
0.14022093
 30
0.0
 11
31.8356071
 21
0.11188604
 31
0.0
  0
LINE
  5
EE
100
AcDbEntity
  8
レイヤー_1
  6
CONTINUOUS
 62
       3
100
AcDbLine
 10
31.8356071
 20
0.11188604
 30
0.0
 11
31.74700056
 21
0.07505844
 31
0.0
  0
LINE
  5
EF
100
AcDbEntity
  8
レイヤー_1
  6
CONTINUOUS
 62
       3
100
AcDbLine
 10
31.74700056
 20
0.07505844
 30
0.0
 11
31.66293731
 21
0.03021759
 31
0.0
  0
LINE
  5
F0
100
AcDbEntity
  8
レイヤー_1
  6
CONTINUOUS
 62
       3
100
AcDbLine
 10
31.66293731
 20
0.03021759
 30
0.0
 11
31.58389583
 21
-0.02215705
 31
0.0
  0
LINE
  5
F1
100
AcDbEntity
  8
レイヤー_1
  6
CONTINUOUS
 62
       3
100
AcDbLine
 10
31.58389583
 20
-0.02215705
 30
0.0
 11
31.51035463
 21
-0.08158603
 31
0.0
  0
LINE
  5
F2
100
AcDbEntity
  8
レイヤー_1
  6
CONTINUOUS
 62
       3
100
AcDbLine
 10
31.51035463
 20
-0.08158603
 30
0.0
 11
31.4427922
 21
-0.14758989
 31
0.0
  0
LINE
  5
F3
100
AcDbEntity
  8
レイヤー_1
  6
CONTINUOUS
 62
       3
100
AcDbLine
 10
31.4427922
 20
-0.14758989
 30
0.0
 11
31.38168702
 21
-0.21968916
 31
0.0
  0
LINE
  5
F4
100
AcDbEntity
  8
レイヤー_1
  6
CONTINUOUS
 62
       3
100
AcDbLine
 10
31.38168702
 20
-0.21968916
 30
0.0
 11
31.32751761
 21
-0.2974044
 31
0.0
  0
LINE
  5
F5
100
AcDbEntity
  8
レイヤー_1
  6
CONTINUOUS
 62
       3
100
AcDbLine
 10
31.32751761
 20
-0.2974044
 30
0.0
 11
31.28076244
 21
-0.38025615
 31
0.0
  0
LINE
  5
F6
100
AcDbEntity
  8
レイヤー_1
  6
CONTINUOUS
 62
       3
100
AcDbLine
 10
31.28076244
 20
-0.38025615
 30
0.0
 11
31.24190001
 21
-0.46776494
 31
0.0
  0
LINE
  5
F7
100
AcDbEntity
  8
レイヤー_1
  6
CONTINUOUS
 62
       3
100
AcDbLine
 10
31.24190001
 20
-0.46776494
 30
0.0
 11
31.21140883
 21
-0.55945132
 31
0.0
  0
LINE
  5
F8
100
AcDbEntity
  8
レイヤー_1
  6
CONTINUOUS
 62
       3
100
AcDbLine
 10
31.21140883
 20
-0.55945132
 30
0.0
 11
31.18976738
 21
-0.65483584
 31
0.0
  0
LINE
  5
F9
100
AcDbEntity
  8
レイヤー_1
  6
CONTINUOUS
 62
       3
100
AcDbLine
 10
31.18976738
 20
-0.65483584
 30
0.0
 11
31.17745415
 21
-0.75343903
 31
0.0
  0
LINE
  5
FA
100
AcDbEntity
  8
レイヤー_1
  6
CONTINUOUS
 62
       3
100
AcDbLine
 10
31.17745415
 20
-0.75343903
 30
0.0
 11
31.17494515
 21
-0.85462244
 31
0.0
  0
LINE
  5
FB
100
AcDbEntity
  8
レイヤー_1
  6
CONTINUOUS
 62
       3
100
AcDbLine
 10
31.17494515
 20
-0.85462244
 30
0.0
 11
31.18241483
 21
-0.95462029
 31
0.0
  0
LINE
  5
FC
100
AcDbEntity
  8
レイヤー_1
  6
CONTINUOUS
 62
       3
100
AcDbLine
 10
31.18241483
 20
-0.95462029
 30
0.0
 11
31.19945198
 21
-1.05164843
 31
0.0
  0
LINE
  5
FD
100
AcDbEntity
  8
レイヤー_1
  6
CONTINUOUS
 62
       3
100
AcDbLine
 10
31.19945198
 20
-1.05164843
 30
0.0
 11
31.22557811
 21
-1.14522643
 31
0.0
  0
LINE
  5
FE
100
AcDbEntity
  8
レイヤー_1
  6
CONTINUOUS
 62
       3
100
AcDbLine
 10
31.22557811
 20
-1.14522643
 30
0.0
 11
31.26031473
 21
-1.23487387
 31
0.0
  0
LINE
  5
FF
100
AcDbEntity
  8
レイヤー_1
  6
CONTINUOUS
 62
       3
100
AcDbLine
 10
31.26031473
 20
-1.23487387
 30
0.0
 11
31.30318333
 21
-1.32011034
 31
0.0
  0
LINE
  5
100
100
AcDbEntity
  8
レイヤー_1
  6
CONTINUOUS
 62
       3
100
AcDbLine
 10
31.30318333
 20
-1.32011034
 30
0.0
 11
31.35370544
 21
-1.40045541
 31
0.0
  0
LINE
  5
101
100
AcDbEntity
  8
レイヤー_1
  6
CONTINUOUS
 62
       3
100
AcDbLine
 10
31.35370544
 20
-1.40045541
 30
0.0
 11
31.41140255
 21
-1.47542866
 31
0.0
  0
LINE
  5
102
100
AcDbEntity
  8
レイヤー_1
  6
CONTINUOUS
 62
       3
100
AcDbLine
 10
31.41140255
 20
-1.47542866
 30
0.0
 11
31.47579616
 21
-1.54454968
 31
0.0
  0
LINE
  5
103
100
AcDbEntity
  8
レイヤー_1
  6
CONTINUOUS
 62
       3
100
AcDbLine
 10
31.47579616
 20
-1.54454968
 30
0.0
 11
31.54640779
 21
-1.60733803
 31
0.0
  0
LINE
  5
104
100
AcDbEntity
  8
レイヤー_1
  6
CONTINUOUS
 62
       3
100
AcDbLine
 10
31.54640779
 20
-1.60733803
 30
0.0
 11
31.62275894
 21
-1.6633133
 31
0.0
  0
LINE
  5
105
100
AcDbEntity
  8
レイヤー_1
  6
CONTINUOUS
 62
       3
100
AcDbLine
 10
31.62275894
 20
-1.6633133
 30
0.0
 11
31.70437112
 21
-1.71199507
 31
0.0
  0
LINE
  5
106
100
AcDbEntity
  8
レイヤー_1
  6
CONTINUOUS
 62
       3
100
AcDbLine
 10
31.70437112
 20
-1.71199507
 30
0.0
 11
31.79076583
 21
-1.75290291
 31
0.0
  0
LINE
  5
107
100
AcDbEntity
  8
レイヤー_1
  6
CONTINUOUS
 62
       3
100
AcDbLine
 10
31.79076583
 20
-1.75290291
 30
0.0
 11
31.88146457
 21
-1.78555641
 31
0.0
  0
LINE
  5
108
100
AcDbEntity
  8
レイヤー_1
  6
CONTINUOUS
 62
       3
100
AcDbLine
 10
31.88146457
 20
-1.78555641
 30
0.0
 11
31.97598886
 21
-1.80947515
 31
0.0
  0
LINE
  5
109
100
AcDbEntity
  8
レイヤー_1
  6
CONTINUOUS
 62
       3
100
AcDbLine
 10
31.97598886
 20
-1.80947515
 30
0.0
 11
32.07386021
 21
-1.8241787
 31
0.0
  0
LINE
  5
10A
100
AcDbEntity
  8
レイヤー_1
  6
CONTINUOUS
 62
       3
100
AcDbLine
 10
32.07386021
 20
-1.8241787
 30
0.0
 11
32.1746001
 21
-1.82918664
 31
0.0
  0
LINE
  5
10B
100
AcDbEntity
  8
レイヤー_1
  6
CONTINUOUS
 62
       3
100
AcDbLine
 10
36.17448563
 20
8.17167552
 30
0.0
 11
36.27515085
 21
8.17668113
 31
0.0
  0
LINE
  5
10C
100
AcDbEntity
  8
レイヤー_1
  6
CONTINUOUS
 62
       3
100
AcDbLine
 10
36.27515085
 20
8.17668113
 30
0.0
 11
36.37296645
 21
8.19137872
 31
0.0
  0
LINE
  5
10D
100
AcDbEntity
  8
レイヤー_1
  6
CONTINUOUS
 62
       3
100
AcDbLine
 10
36.37296645
 20
8.19137872
 30
0.0
 11
36.46745203
 21
8.2152895
 31
0.0
  0
LINE
  5
10E
100
AcDbEntity
  8
レイヤー_1
  6
CONTINUOUS
 62
       3
100
AcDbLine
 10
36.46745203
 20
8.2152895
 30
0.0
 11
36.55812715
 21
8.24793463
 31
0.0
  0
LINE
  5
10F
100
AcDbEntity
  8
レイヤー_1
  6
CONTINUOUS
 62
       3
100
AcDbLine
 10
36.55812715
 20
8.24793463
 30
0.0
 11
36.6445114
 21
8.28883532
 31
0.0
  0
LINE
  5
110
100
AcDbEntity
  8
レイヤー_1
  6
CONTINUOUS
 62
       3
100
AcDbLine
 10
36.6445114
 20
8.28883532
 30
0.0
 11
36.72612436
 21
8.33751274
 31
0.0
  0
LINE
  5
111
100
AcDbEntity
  8
レイヤー_1
  6
CONTINUOUS
 62
       3
100
AcDbLine
 10
36.72612436
 20
8.33751274
 30
0.0
 11
36.80248561
 21
8.39348808
 31
0.0
  0
LINE
  5
112
100
AcDbEntity
  8
レイヤー_1
  6
CONTINUOUS
 62
       3
100
AcDbLine
 10
36.80248561
 20
8.39348808
 30
0.0
 11
36.87311472
 21
8.45628252
 31
0.0
  0
LINE
  5
113
100
AcDbEntity
  8
レイヤー_1
  6
CONTINUOUS
 62
       3
100
AcDbLine
 10
36.87311472
 20
8.45628252
 30
0.0
 11
36.93753127
 21
8.52541725
 31
0.0
  0
LINE
  5
114
100
AcDbEntity
  8
レイヤー_1
  6
CONTINUOUS
 62
       3
100
AcDbLine
 10
36.93753127
 20
8.52541725
 30
0.0
 11
36.99525485
 21
8.60041345
 31
0.0
  0
LINE
  5
115
100
AcDbEntity
  8
レイヤー_1
  6
CONTINUOUS
 62
       3
100
AcDbLine
 10
36.99525485
 20
8.60041345
 30
0.0
 11
37.04580504
 21
8.6807923
 31
0.0
  0
LINE
  5
116
100
AcDbEntity
  8
レイヤー_1
  6
CONTINUOUS
 62
       3
100
AcDbLine
 10
37.04580504
 20
8.6807923
 30
0.0
 11
37.0887014
 21
8.766075
 31
0.0
  0
LINE
  5
117
100
AcDbEntity
  8
レイヤー_1
  6
CONTINUOUS
 62
       3
100
AcDbLine
 10
37.0887014
 20
8.766075
 30
0.0
 11
37.12346353
 21
8.85578273
 31
0.0
  0
LINE
  5
118
100
AcDbEntity
  8
レイヤー_1
  6
CONTINUOUS
 62
       3
100
AcDbLine
 10
37.12346353
 20
8.85578273
 30
0.0
 11
37.149611
 21
8.94943666
 31
0.0
  0
LINE
  5
119
100
AcDbEntity
  8
レイヤー_1
  6
CONTINUOUS
 62
       3
100
AcDbLine
 10
37.149611
 20
8.94943666
 30
0.0
 11
37.16666338
 21
9.04655799
 31
0.0
  0
LINE
  5
11A
100
AcDbEntity
  8
レイヤー_1
  6
CONTINUOUS
 62
       3
100
AcDbLine
 10
37.16666338
 20
9.04655799
 30
0.0
 11
37.17414027
 21
9.14666791
 31
0.0
  0
LINE
  5
11B
100
AcDbEntity
  8
レイヤー_1
  6
CONTINUOUS
 62
       3
100
AcDbLine
 10
37.17414027
 20
9.14666791
 30
0.0
 11
37.17162879
 21
9.24785353
 31
0.0
  0
LINE
  5
11C
100
AcDbEntity
  8
レイヤー_1
  6
CONTINUOUS
 62
       3
100
AcDbLine
 10
37.17162879
 20
9.24785353
 30
0.0
 11
37.1593041
 21
9.34642658
 31
0.0
  0
LINE
  5
11D
100
AcDbEntity
  8
レイヤー_1
  6
CONTINUOUS
 62
       3
100
AcDbLine
 10
37.1593041
 20
9.34642658
 30
0.0
 11
37.13764412
 21
9.4417897
 31
0.0
  0
LINE
  5
11E
100
AcDbEntity
  8
レイヤー_1
  6
CONTINUOUS
 62
       3
100
AcDbLine
 10
37.13764412
 20
9.4417897
 30
0.0
 11
37.10712927
 21
9.53346248
 31
0.0
  0
LINE
  5
11F
100
AcDbEntity
  8
レイヤー_1
  6
CONTINUOUS
 62
       3
100
AcDbLine
 10
37.10712927
 20
9.53346248
 30
0.0
 11
37.06823997
 21
9.62096449
 31
0.0
  0
LINE
  5
120
100
AcDbEntity
  8
レイヤー_1
  6
CONTINUOUS
 62
       3
100
AcDbLine
 10
37.06823997
 20
9.62096449
 30
0.0
 11
37.02145665
 21
9.70381531
 31
0.0
  0
LINE
  5
121
100
AcDbEntity
  8
レイヤー_1
  6
CONTINUOUS
 62
       3
100
AcDbLine
 10
37.02145665
 20
9.70381531
 30
0.0
 11
36.96725971
 21
9.78153452
 31
0.0
  0
LINE
  5
122
100
AcDbEntity
  8
レイヤー_1
  6
CONTINUOUS
 62
       3
100
AcDbLine
 10
36.96725971
 20
9.78153452
 30
0.0
 11
36.90612959
 21
9.85364171
 31
0.0
  0
LINE
  5
123
100
AcDbEntity
  8
レイヤー_1
  6
CONTINUOUS
 62
       3
100
AcDbLine
 10
36.90612959
 20
9.85364171
 30
0.0
 11
36.8385467
 21
9.91965644
 31
0.0
  0
LINE
  5
124
100
AcDbEntity
  8
レイヤー_1
  6
CONTINUOUS
 62
       3
100
AcDbLine
 10
36.8385467
 20
9.91965644
 30
0.0
 11
36.76499147
 21
9.9790983
 31
0.0
  0
LINE
  5
125
100
AcDbEntity
  8
レイヤー_1
  6
CONTINUOUS
 62
       3
100
AcDbLine
 10
36.76499147
 20
9.9790983
 30
0.0
 11
36.68594432
 21
10.03148688
 31
0.0
  0
LINE
  5
126
100
AcDbEntity
  8
レイヤー_1
  6
CONTINUOUS
 62
       3
100
AcDbLine
 10
36.68594432
 20
10.03148688
 30
0.0
 11
36.60188566
 21
10.07634174
 31
0.0
  0
LINE
  5
127
100
AcDbEntity
  8
レイヤー_1
  6
CONTINUOUS
 62
       3
100
AcDbLine
 10
36.60188566
 20
10.07634174
 30
0.0
 11
36.51329592
 21
10.11318246
 31
0.0
  0
LINE
  5
128
100
AcDbEntity
  8
レイヤー_1
  6
CONTINUOUS
 62
       3
100
AcDbLine
 10
36.51329592
 20
10.11318246
 30
0.0
 11
36.42065552
 21
10.14152863
 31
0.0
  0
LINE
  5
129
100
AcDbEntity
  8
レイヤー_1
  6
CONTINUOUS
 62
       3
100
AcDbLine
 10
36.42065552
 20
10.14152863
 30
0.0
 11
36.32444488
 21
10.16089983
 31
0.0
  0
LINE
  5
12A
100
AcDbEntity
  8
レイヤー_1
  6
CONTINUOUS
 62
       3
100
AcDbLine
 10
36.32444488
 20
10.16089983
 30
0.0
 11
36.22514442
 21
10.17081563
 31
0.0
  0
LINE
  5
12B
100
AcDbEntity
  8
レイヤー_1
  6
CONTINUOUS
 62
       3
100
AcDbLine
 10
36.22514442
 20
10.17081563
 30
0.0
 11
36.12374719
 21
10.17081563
 31
0.0
  0
LINE
  5
12C
100
AcDbEntity
  8
レイヤー_1
  6
CONTINUOUS
 62
       3
100
AcDbLine
 10
36.12374719
 20
10.17081563
 30
0.0
 11
36.02431679
 21
10.16089983
 31
0.0
  0
LINE
  5
12D
100
AcDbEntity
  8
レイヤー_1
  6
CONTINUOUS
 62
       3
100
AcDbLine
 10
36.02431679
 20
10.16089983
 30
0.0
 11
35.92801218
 21
10.14152863
 31
0.0
  0
LINE
  5
12E
100
AcDbEntity
  8
レイヤー_1
  6
CONTINUOUS
 62
       3
100
AcDbLine
 10
35.92801218
 20
10.14152863
 30
0.0
 11
35.83530992
 21
10.11318246
 31
0.0
  0
LINE
  5
12F
100
AcDbEntity
  8
レイヤー_1
  6
CONTINUOUS
 62
       3
100
AcDbLine
 10
35.83530992
 20
10.11318246
 30
0.0
 11
35.74668658
 21
10.07634174
 31
0.0
  0
LINE
  5
130
100
AcDbEntity
  8
レイヤー_1
  6
CONTINUOUS
 62
       3
100
AcDbLine
 10
35.74668658
 20
10.07634174
 30
0.0
 11
35.66261873
 21
10.03148688
 31
0.0
  0
LINE
  5
131
100
AcDbEntity
  8
レイヤー_1
  6
CONTINUOUS
 62
       3
100
AcDbLine
 10
35.66261873
 20
10.03148688
 30
0.0
 11
35.58358293
 21
9.9790983
 31
0.0
  0
LINE
  5
132
100
AcDbEntity
  8
レイヤー_1
  6
CONTINUOUS
 62
       3
100
AcDbLine
 10
35.58358293
 20
9.9790983
 30
0.0
 11
35.51005576
 21
9.91965644
 31
0.0
  0
LINE
  5
133
100
AcDbEntity
  8
レイヤー_1
  6
CONTINUOUS
 62
       3
100
AcDbLine
 10
35.51005576
 20
9.91965644
 30
0.0
 11
35.44251378
 21
9.85364171
 31
0.0
  0
LINE
  5
134
100
AcDbEntity
  8
レイヤー_1
  6
CONTINUOUS
 62
       3
100
AcDbLine
 10
35.44251378
 20
9.85364171
 30
0.0
 11
35.38143355
 21
9.78153452
 31
0.0
  0
LINE
  5
135
100
AcDbEntity
  8
レイヤー_1
  6
CONTINUOUS
 62
       3
100
AcDbLine
 10
35.38143355
 20
9.78153452
 30
0.0
 11
35.32729165
 21
9.70381531
 31
0.0
  0
LINE
  5
136
100
AcDbEntity
  8
レイヤー_1
  6
CONTINUOUS
 62
       3
100
AcDbLine
 10
35.32729165
 20
9.70381531
 30
0.0
 11
35.28056465
 21
9.62096449
 31
0.0
  0
LINE
  5
137
100
AcDbEntity
  8
レイヤー_1
  6
CONTINUOUS
 62
       3
100
AcDbLine
 10
35.28056465
 20
9.62096449
 30
0.0
 11
35.2417291
 21
9.53346248
 31
0.0
  0
LINE
  5
138
100
AcDbEntity
  8
レイヤー_1
  6
CONTINUOUS
 62
       3
100
AcDbLine
 10
35.2417291
 20
9.53346248
 30
0.0
 11
35.21126157
 21
9.4417897
 31
0.0
  0
LINE
  5
139
100
AcDbEntity
  8
レイヤー_1
  6
CONTINUOUS
 62
       3
100
AcDbLine
 10
35.21126157
 20
9.4417897
 30
0.0
 11
35.18963865
 21
9.34642658
 31
0.0
  0
LINE
  5
13A
100
AcDbEntity
  8
レイヤー_1
  6
CONTINUOUS
 62
       3
100
AcDbLine
 10
35.18963865
 20
9.34642658
 30
0.0
 11
35.17733688
 21
9.24785353
 31
0.0
  0
LINE
  5
13B
100
AcDbEntity
  8
レイヤー_1
  6
CONTINUOUS
 62
       3
100
AcDbLine
 10
35.17733688
 20
9.24785353
 30
0.0
 11
35.17483036
 21
9.14666791
 31
0.0
  0
LINE
  5
13C
100
AcDbEntity
  8
レイヤー_1
  6
CONTINUOUS
 62
       3
100
AcDbLine
 10
35.17483036
 20
9.14666791
 30
0.0
 11
35.18229283
 21
9.04655799
 31
0.0
  0
LINE
  5
13D
100
AcDbEntity
  8
レイヤー_1
  6
CONTINUOUS
 62
       3
100
AcDbLine
 10
35.18229283
 20
9.04655799
 30
0.0
 11
35.19931475
 21
8.94943666
 31
0.0
  0
LINE
  5
13E
100
AcDbEntity
  8
レイヤー_1
  6
CONTINUOUS
 62
       3
100
AcDbLine
 10
35.19931475
 20
8.94943666
 30
0.0
 11
35.22541955
 21
8.85578273
 31
0.0
  0
LINE
  5
13F
100
AcDbEntity
  8
レイヤー_1
  6
CONTINUOUS
 62
       3
100
AcDbLine
 10
35.22541955
 20
8.85578273
 30
0.0
 11
35.26013065
 21
8.766075
 31
0.0
  0
LINE
  5
140
100
AcDbEntity
  8
レイヤー_1
  6
CONTINUOUS
 62
       3
100
AcDbLine
 10
35.26013065
 20
8.766075
 30
0.0
 11
35.3029715
 21
8.6807923
 31
0.0
  0
LINE
  5
141
100
AcDbEntity
  8
レイヤー_1
  6
CONTINUOUS
 62
       3
100
AcDbLine
 10
35.3029715
 20
8.6807923
 30
0.0
 11
35.35346553
 21
8.60041345
 31
0.0
  0
LINE
  5
142
100
AcDbEntity
  8
レイヤー_1
  6
CONTINUOUS
 62
       3
100
AcDbLine
 10
35.35346553
 20
8.60041345
 30
0.0
 11
35.41113616
 21
8.52541725
 31
0.0
  0
LINE
  5
143
100
AcDbEntity
  8
レイヤー_1
  6
CONTINUOUS
 62
       3
100
AcDbLine
 10
35.41113616
 20
8.52541725
 30
0.0
 11
35.47550683
 21
8.45628252
 31
0.0
  0
LINE
  5
144
100
AcDbEntity
  8
レイヤー_1
  6
CONTINUOUS
 62
       3
100
AcDbLine
 10
35.47550683
 20
8.45628252
 30
0.0
 11
35.54610098
 21
8.39348808
 31
0.0
  0
LINE
  5
145
100
AcDbEntity
  8
レイヤー_1
  6
CONTINUOUS
 62
       3
100
AcDbLine
 10
35.54610098
 20
8.39348808
 30
0.0
 11
35.62244204
 21
8.33751274
 31
0.0
  0
LINE
  5
146
100
AcDbEntity
  8
レイヤー_1
  6
CONTINUOUS
 62
       3
100
AcDbLine
 10
35.62244204
 20
8.33751274
 30
0.0
 11
35.70405343
 21
8.28883532
 31
0.0
  0
LINE
  5
147
100
AcDbEntity
  8
レイヤー_1
  6
CONTINUOUS
 62
       3
100
AcDbLine
 10
35.70405343
 20
8.28883532
 30
0.0
 11
35.7904586
 21
8.24793463
 31
0.0
  0
LINE
  5
148
100
AcDbEntity
  8
レイヤー_1
  6
CONTINUOUS
 62
       3
100
AcDbLine
 10
35.7904586
 20
8.24793463
 30
0.0
 11
35.88118097
 21
8.2152895
 31
0.0
  0
LINE
  5
149
100
AcDbEntity
  8
レイヤー_1
  6
CONTINUOUS
 62
       3
100
AcDbLine
 10
35.88118097
 20
8.2152895
 30
0.0
 11
35.97574397
 21
8.19137872
 31
0.0
  0
LINE
  5
14A
100
AcDbEntity
  8
レイヤー_1
  6
CONTINUOUS
 62
       3
100
AcDbLine
 10
35.97574397
 20
8.19137872
 30
0.0
 11
36.07367105
 21
8.17668113
 31
0.0
  0
LINE
  5
14B
100
AcDbEntity
  8
レイヤー_1
  6
CONTINUOUS
 62
       3
100
AcDbLine
 10
36.07367105
 20
8.17668113
 30
0.0
 11
36.17448563
 21
8.17167552
 31
0.0
  0
LINE
  5
14C
100
AcDbEntity
  8
レイヤー_1
  6
CONTINUOUS
 62
       3
100
AcDbLine
 10
36.17448563
 20
13.17245111
 30
0.0
 11
36.27515085
 21
13.17745905
 31
0.0
  0
LINE
  5
14D
100
AcDbEntity
  8
レイヤー_1
  6
CONTINUOUS
 62
       3
100
AcDbLine
 10
36.27515085
 20
13.17745905
 30
0.0
 11
36.37296645
 21
13.1921626
 31
0.0
  0
LINE
  5
14E
100
AcDbEntity
  8
レイヤー_1
  6
CONTINUOUS
 62
       3
100
AcDbLine
 10
36.37296645
 20
13.1921626
 30
0.0
 11
36.46745203
 21
13.21608134
 31
0.0
  0
LINE
  5
14F
100
AcDbEntity
  8
レイヤー_1
  6
CONTINUOUS
 62
       3
100
AcDbLine
 10
36.46745203
 20
13.21608134
 30
0.0
 11
36.55812715
 21
13.24873484
 31
0.0
  0
LINE
  5
150
100
AcDbEntity
  8
レイヤー_1
  6
CONTINUOUS
 62
       3
100
AcDbLine
 10
36.55812715
 20
13.24873484
 30
0.0
 11
36.6445114
 21
13.28964268
 31
0.0
  0
LINE
  5
151
100
AcDbEntity
  8
レイヤー_1
  6
CONTINUOUS
 62
       3
100
AcDbLine
 10
36.6445114
 20
13.28964268
 30
0.0
 11
36.72612436
 21
13.33832445
 31
0.0
  0
LINE
  5
152
100
AcDbEntity
  8
レイヤー_1
  6
CONTINUOUS
 62
       3
100
AcDbLine
 10
36.72612436
 20
13.33832445
 30
0.0
 11
36.80248561
 21
13.39429972
 31
0.0
  0
LINE
  5
153
100
AcDbEntity
  8
レイヤー_1
  6
CONTINUOUS
 62
       3
100
AcDbLine
 10
36.80248561
 20
13.39429972
 30
0.0
 11
36.87311472
 21
13.45708807
 31
0.0
  0
LINE
  5
154
100
AcDbEntity
  8
レイヤー_1
  6
CONTINUOUS
 62
       3
100
AcDbLine
 10
36.87311472
 20
13.45708807
 30
0.0
 11
36.93753127
 21
13.52620909
 31
0.0
  0
LINE
  5
155
100
AcDbEntity
  8
レイヤー_1
  6
CONTINUOUS
 62
       3
100
AcDbLine
 10
36.93753127
 20
13.52620909
 30
0.0
 11
36.99525485
 21
13.60118234
 31
0.0
  0
LINE
  5
156
100
AcDbEntity
  8
レイヤー_1
  6
CONTINUOUS
 62
       3
100
AcDbLine
 10
36.99525485
 20
13.60118234
 30
0.0
 11
37.04580504
 21
13.68152741
 31
0.0
  0
LINE
  5
157
100
AcDbEntity
  8
レイヤー_1
  6
CONTINUOUS
 62
       3
100
AcDbLine
 10
37.04580504
 20
13.68152741
 30
0.0
 11
37.0887014
 21
13.76676388
 31
0.0
  0
LINE
  5
158
100
AcDbEntity
  8
レイヤー_1
  6
CONTINUOUS
 62
       3
100
AcDbLine
 10
37.0887014
 20
13.76676388
 30
0.0
 11
37.12346353
 21
13.85641132
 31
0.0
  0
LINE
  5
159
100
AcDbEntity
  8
レイヤー_1
  6
CONTINUOUS
 62
       3
100
AcDbLine
 10
37.12346353
 20
13.85641132
 30
0.0
 11
37.149611
 21
13.94998932
 31
0.0
  0
LINE
  5
15A
100
AcDbEntity
  8
レイヤー_1
  6
CONTINUOUS
 62
       3
100
AcDbLine
 10
37.149611
 20
13.94998932
 30
0.0
 11
37.16666338
 21
14.04701746
 31
0.0
  0
LINE
  5
15B
100
AcDbEntity
  8
レイヤー_1
  6
CONTINUOUS
 62
       3
100
AcDbLine
 10
37.16666338
 20
14.04701746
 30
0.0
 11
37.17414027
 21
14.14701531
 31
0.0
  0
LINE
  5
15C
100
AcDbEntity
  8
レイヤー_1
  6
CONTINUOUS
 62
       3
100
AcDbLine
 10
37.17414027
 20
14.14701531
 30
0.0
 11
37.17162879
 21
14.24819872
 31
0.0
  0
LINE
  5
15D
100
AcDbEntity
  8
レイヤー_1
  6
CONTINUOUS
 62
       3
100
AcDbLine
 10
37.17162879
 20
14.24819872
 30
0.0
 11
37.1593041
 21
14.34680191
 31
0.0
  0
LINE
  5
15E
100
AcDbEntity
  8
レイヤー_1
  6
CONTINUOUS
 62
       3
100
AcDbLine
 10
37.1593041
 20
14.34680191
 30
0.0
 11
37.13764412
 21
14.44218643
 31
0.0
  0
LINE
  5
15F
100
AcDbEntity
  8
レイヤー_1
  6
CONTINUOUS
 62
       3
100
AcDbLine
 10
37.13764412
 20
14.44218643
 30
0.0
 11
37.10712927
 21
14.53387281
 31
0.0
  0
LINE
  5
160
100
AcDbEntity
  8
レイヤー_1
  6
CONTINUOUS
 62
       3
100
AcDbLine
 10
37.10712927
 20
14.53387281
 30
0.0
 11
37.06823997
 21
14.6213816
 31
0.0
  0
LINE
  5
161
100
AcDbEntity
  8
レイヤー_1
  6
CONTINUOUS
 62
       3
100
AcDbLine
 10
37.06823997
 20
14.6213816
 30
0.0
 11
37.02145665
 21
14.70423335
 31
0.0
  0
LINE
  5
162
100
AcDbEntity
  8
レイヤー_1
  6
CONTINUOUS
 62
       3
100
AcDbLine
 10
37.02145665
 20
14.70423335
 30
0.0
 11
36.96725971
 21
14.78194859
 31
0.0
  0
LINE
  5
163
100
AcDbEntity
  8
レイヤー_1
  6
CONTINUOUS
 62
       3
100
AcDbLine
 10
36.96725971
 20
14.78194859
 30
0.0
 11
36.90612959
 21
14.85404786
 31
0.0
  0
LINE
  5
164
100
AcDbEntity
  8
レイヤー_1
  6
CONTINUOUS
 62
       3
100
AcDbLine
 10
36.90612959
 20
14.85404786
 30
0.0
 11
36.8385467
 21
14.92005172
 31
0.0
  0
LINE
  5
165
100
AcDbEntity
  8
レイヤー_1
  6
CONTINUOUS
 62
       3
100
AcDbLine
 10
36.8385467
 20
14.92005172
 30
0.0
 11
36.76499147
 21
14.9794807
 31
0.0
  0
LINE
  5
166
100
AcDbEntity
  8
レイヤー_1
  6
CONTINUOUS
 62
       3
100
AcDbLine
 10
36.76499147
 20
14.9794807
 30
0.0
 11
36.68594432
 21
15.03185534
 31
0.0
  0
LINE
  5
167
100
AcDbEntity
  8
レイヤー_1
  6
CONTINUOUS
 62
       3
100
AcDbLine
 10
36.68594432
 20
15.03185534
 30
0.0
 11
36.60188566
 21
15.07669619
 31
0.0
  0
LINE
  5
168
100
AcDbEntity
  8
レイヤー_1
  6
CONTINUOUS
 62
       3
100
AcDbLine
 10
36.60188566
 20
15.07669619
 30
0.0
 11
36.51329592
 21
15.11352379
 31
0.0
  0
LINE
  5
169
100
AcDbEntity
  8
レイヤー_1
  6
CONTINUOUS
 62
       3
100
AcDbLine
 10
36.51329592
 20
15.11352379
 30
0.0
 11
36.42065552
 21
15.14185868
 31
0.0
  0
LINE
  5
16A
100
AcDbEntity
  8
レイヤー_1
  6
CONTINUOUS
 62
       3
100
AcDbLine
 10
36.42065552
 20
15.14185868
 30
0.0
 11
36.32444488
 21
15.16122141
 31
0.0
  0
LINE
  5
16B
100
AcDbEntity
  8
レイヤー_1
  6
CONTINUOUS
 62
       3
100
AcDbLine
 10
36.32444488
 20
15.16122141
 30
0.0
 11
36.22514442
 21
15.17113251
 31
0.0
  0
LINE
  5
16C
100
AcDbEntity
  8
レイヤー_1
  6
CONTINUOUS
 62
       3
100
AcDbLine
 10
36.22514442
 20
15.17113251
 30
0.0
 11
36.12374719
 21
15.17113251
 31
0.0
  0
LINE
  5
16D
100
AcDbEntity
  8
レイヤー_1
  6
CONTINUOUS
 62
       3
100
AcDbLine
 10
36.12374719
 20
15.17113251
 30
0.0
 11
36.02431679
 21
15.16122141
 31
0.0
  0
LINE
  5
16E
100
AcDbEntity
  8
レイヤー_1
  6
CONTINUOUS
 62
       3
100
AcDbLine
 10
36.02431679
 20
15.16122141
 30
0.0
 11
35.92801218
 21
15.14185868
 31
0.0
  0
LINE
  5
16F
100
AcDbEntity
  8
レイヤー_1
  6
CONTINUOUS
 62
       3
100
AcDbLine
 10
35.92801218
 20
15.14185868
 30
0.0
 11
35.83530992
 21
15.11352379
 31
0.0
  0
LINE
  5
170
100
AcDbEntity
  8
レイヤー_1
  6
CONTINUOUS
 62
       3
100
AcDbLine
 10
35.83530992
 20
15.11352379
 30
0.0
 11
35.74668658
 21
15.07669619
 31
0.0
  0
LINE
  5
171
100
AcDbEntity
  8
レイヤー_1
  6
CONTINUOUS
 62
       3
100
AcDbLine
 10
35.74668658
 20
15.07669619
 30
0.0
 11
35.66261873
 21
15.03185534
 31
0.0
  0
LINE
  5
172
100
AcDbEntity
  8
レイヤー_1
  6
CONTINUOUS
 62
       3
100
AcDbLine
 10
35.66261873
 20
15.03185534
 30
0.0
 11
35.58358293
 21
14.9794807
 31
0.0
  0
LINE
  5
173
100
AcDbEntity
  8
レイヤー_1
  6
CONTINUOUS
 62
       3
100
AcDbLine
 10
35.58358293
 20
14.9794807
 30
0.0
 11
35.51005576
 21
14.92005172
 31
0.0
  0
LINE
  5
174
100
AcDbEntity
  8
レイヤー_1
  6
CONTINUOUS
 62
       3
100
AcDbLine
 10
35.51005576
 20
14.92005172
 30
0.0
 11
35.44251378
 21
14.85404786
 31
0.0
  0
LINE
  5
175
100
AcDbEntity
  8
レイヤー_1
  6
CONTINUOUS
 62
       3
100
AcDbLine
 10
35.44251378
 20
14.85404786
 30
0.0
 11
35.38143355
 21
14.78194859
 31
0.0
  0
LINE
  5
176
100
AcDbEntity
  8
レイヤー_1
  6
CONTINUOUS
 62
       3
100
AcDbLine
 10
35.38143355
 20
14.78194859
 30
0.0
 11
35.32729165
 21
14.70423335
 31
0.0
  0
LINE
  5
177
100
AcDbEntity
  8
レイヤー_1
  6
CONTINUOUS
 62
       3
100
AcDbLine
 10
35.32729165
 20
14.70423335
 30
0.0
 11
35.28056465
 21
14.6213816
 31
0.0
  0
LINE
  5
178
100
AcDbEntity
  8
レイヤー_1
  6
CONTINUOUS
 62
       3
100
AcDbLine
 10
35.28056465
 20
14.6213816
 30
0.0
 11
35.2417291
 21
14.53387281
 31
0.0
  0
LINE
  5
179
100
AcDbEntity
  8
レイヤー_1
  6
CONTINUOUS
 62
       3
100
AcDbLine
 10
35.2417291
 20
14.53387281
 30
0.0
 11
35.21126157
 21
14.44218643
 31
0.0
  0
LINE
  5
17A
100
AcDbEntity
  8
レイヤー_1
  6
CONTINUOUS
 62
       3
100
AcDbLine
 10
35.21126157
 20
14.44218643
 30
0.0
 11
35.18963865
 21
14.34680191
 31
0.0
  0
LINE
  5
17B
100
AcDbEntity
  8
レイヤー_1
  6
CONTINUOUS
 62
       3
100
AcDbLine
 10
35.18963865
 20
14.34680191
 30
0.0
 11
35.17733688
 21
14.24819872
 31
0.0
  0
LINE
  5
17C
100
AcDbEntity
  8
レイヤー_1
  6
CONTINUOUS
 62
       3
100
AcDbLine
 10
35.17733688
 20
14.24819872
 30
0.0
 11
35.17483036
 21
14.14701531
 31
0.0
  0
LINE
  5
17D
100
AcDbEntity
  8
レイヤー_1
  6
CONTINUOUS
 62
       3
100
AcDbLine
 10
35.17483036
 20
14.14701531
 30
0.0
 11
35.18229283
 21
14.04701746
 31
0.0
  0
LINE
  5
17E
100
AcDbEntity
  8
レイヤー_1
  6
CONTINUOUS
 62
       3
100
AcDbLine
 10
35.18229283
 20
14.04701746
 30
0.0
 11
35.19931475
 21
13.94998932
 31
0.0
  0
LINE
  5
17F
100
AcDbEntity
  8
レイヤー_1
  6
CONTINUOUS
 62
       3
100
AcDbLine
 10
35.19931475
 20
13.94998932
 30
0.0
 11
35.22541955
 21
13.85641132
 31
0.0
  0
LINE
  5
180
100
AcDbEntity
  8
レイヤー_1
  6
CONTINUOUS
 62
       3
100
AcDbLine
 10
35.22541955
 20
13.85641132
 30
0.0
 11
35.26013065
 21
13.76676388
 31
0.0
  0
LINE
  5
181
100
AcDbEntity
  8
レイヤー_1
  6
CONTINUOUS
 62
       3
100
AcDbLine
 10
35.26013065
 20
13.76676388
 30
0.0
 11
35.3029715
 21
13.68152741
 31
0.0
  0
LINE
  5
182
100
AcDbEntity
  8
レイヤー_1
  6
CONTINUOUS
 62
       3
100
AcDbLine
 10
35.3029715
 20
13.68152741
 30
0.0
 11
35.35346553
 21
13.60118234
 31
0.0
  0
LINE
  5
183
100
AcDbEntity
  8
レイヤー_1
  6
CONTINUOUS
 62
       3
100
AcDbLine
 10
35.35346553
 20
13.60118234
 30
0.0
 11
35.41113616
 21
13.52620909
 31
0.0
  0
LINE
  5
184
100
AcDbEntity
  8
レイヤー_1
  6
CONTINUOUS
 62
       3
100
AcDbLine
 10
35.41113616
 20
13.52620909
 30
0.0
 11
35.47550683
 21
13.45708807
 31
0.0
  0
LINE
  5
185
100
AcDbEntity
  8
レイヤー_1
  6
CONTINUOUS
 62
       3
100
AcDbLine
 10
35.47550683
 20
13.45708807
 30
0.0
 11
35.54610098
 21
13.39429972
 31
0.0
  0
LINE
  5
186
100
AcDbEntity
  8
レイヤー_1
  6
CONTINUOUS
 62
       3
100
AcDbLine
 10
35.54610098
 20
13.39429972
 30
0.0
 11
35.62244204
 21
13.33832445
 31
0.0
  0
LINE
  5
187
100
AcDbEntity
  8
レイヤー_1
  6
CONTINUOUS
 62
       3
100
AcDbLine
 10
35.62244204
 20
13.33832445
 30
0.0
 11
35.70405343
 21
13.28964268
 31
0.0
  0
LINE
  5
188
100
AcDbEntity
  8
レイヤー_1
  6
CONTINUOUS
 62
       3
100
AcDbLine
 10
35.70405343
 20
13.28964268
 30
0.0
 11
35.7904586
 21
13.24873484
 31
0.0
  0
LINE
  5
189
100
AcDbEntity
  8
レイヤー_1
  6
CONTINUOUS
 62
       3
100
AcDbLine
 10
35.7904586
 20
13.24873484
 30
0.0
 11
35.88118097
 21
13.21608134
 31
0.0
  0
LINE
  5
18A
100
AcDbEntity
  8
レイヤー_1
  6
CONTINUOUS
 62
       3
100
AcDbLine
 10
35.88118097
 20
13.21608134
 30
0.0
 11
35.97574397
 21
13.1921626
 31
0.0
  0
LINE
  5
18B
100
AcDbEntity
  8
レイヤー_1
  6
CONTINUOUS
 62
       3
100
AcDbLine
 10
35.97574397
 20
13.1921626
 30
0.0
 11
36.07367105
 21
13.17745905
 31
0.0
  0
LINE
  5
18C
100
AcDbEntity
  8
レイヤー_1
  6
CONTINUOUS
 62
       3
100
AcDbLine
 10
36.07367105
 20
13.17745905
 30
0.0
 11
36.17448563
 21
13.17245111
 31
0.0
  0
LINE
  5
18D
100
AcDbEntity
  8
レイヤー_1
  6
CONTINUOUS
 62
       3
100
AcDbLine
 10
36.17448563
 20
18.17299702
 30
0.0
 11
36.27515085
 21
18.17800252
 31
0.0
  0
LINE
  5
18E
100
AcDbEntity
  8
レイヤー_1
  6
CONTINUOUS
 62
       3
100
AcDbLine
 10
36.27515085
 20
18.17800252
 30
0.0
 11
36.37296645
 21
18.19269937
 31
0.0
  0
LINE
  5
18F
100
AcDbEntity
  8
レイヤー_1
  6
CONTINUOUS
 62
       3
100
AcDbLine
 10
36.37296645
 20
18.19269937
 30
0.0
 11
36.46745203
 21
18.21660811
 31
0.0
  0
LINE
  5
190
100
AcDbEntity
  8
レイヤー_1
  6
CONTINUOUS
 62
       3
100
AcDbLine
 10
36.46745203
 20
18.21660811
 30
0.0
 11
36.55812715
 21
18.24924928
 31
0.0
  0
LINE
  5
191
100
AcDbEntity
  8
レイヤー_1
  6
CONTINUOUS
 62
       3
100
AcDbLine
 10
36.55812715
 20
18.24924928
 30
0.0
 11
36.6445114
 21
18.29014344
 31
0.0
  0
LINE
  5
192
100
AcDbEntity
  8
レイヤー_1
  6
CONTINUOUS
 62
       3
100
AcDbLine
 10
36.6445114
 20
18.29014344
 30
0.0
 11
36.72612436
 21
18.33881112
 31
0.0
  0
LINE
  5
193
100
AcDbEntity
  8
レイヤー_1
  6
CONTINUOUS
 62
       3
100
AcDbLine
 10
36.72612436
 20
18.33881112
 30
0.0
 11
36.80248561
 21
18.39477286
 31
0.0
  0
LINE
  5
194
100
AcDbEntity
  8
レイヤー_1
  6
CONTINUOUS
 62
       3
100
AcDbLine
 10
36.80248561
 20
18.39477286
 30
0.0
 11
36.87311472
 21
18.45754921
 31
0.0
  0
LINE
  5
195
100
AcDbEntity
  8
レイヤー_1
  6
CONTINUOUS
 62
       3
100
AcDbLine
 10
36.87311472
 20
18.45754921
 30
0.0
 11
36.93753127
 21
18.52666071
 31
0.0
  0
LINE
  5
196
100
AcDbEntity
  8
レイヤー_1
  6
CONTINUOUS
 62
       3
100
AcDbLine
 10
36.93753127
 20
18.52666071
 30
0.0
 11
36.99525485
 21
18.6016279
 31
0.0
  0
LINE
  5
197
100
AcDbEntity
  8
レイヤー_1
  6
CONTINUOUS
 62
       3
100
AcDbLine
 10
36.99525485
 20
18.6016279
 30
0.0
 11
37.04580504
 21
18.68197132
 31
0.0
  0
LINE
  5
198
100
AcDbEntity
  8
レイヤー_1
  6
CONTINUOUS
 62
       3
100
AcDbLine
 10
37.04580504
 20
18.68197132
 30
0.0
 11
37.0887014
 21
18.76721153
 31
0.0
  0
LINE
  5
199
100
AcDbEntity
  8
レイヤー_1
  6
CONTINUOUS
 62
       3
100
AcDbLine
 10
37.0887014
 20
18.76721153
 30
0.0
 11
37.12346353
 21
18.85686905
 31
0.0
  0
LINE
  5
19A
100
AcDbEntity
  8
レイヤー_1
  6
CONTINUOUS
 62
       3
100
AcDbLine
 10
37.12346353
 20
18.85686905
 30
0.0
 11
37.149611
 21
18.95046443
 31
0.0
  0
LINE
  5
19B
100
AcDbEntity
  8
レイヤー_1
  6
CONTINUOUS
 62
       3
100
AcDbLine
 10
37.149611
 20
18.95046443
 30
0.0
 11
37.16666338
 21
19.04751822
 31
0.0
  0
LINE
  5
19C
100
AcDbEntity
  8
レイヤー_1
  6
CONTINUOUS
 62
       3
100
AcDbLine
 10
37.16666338
 20
19.04751822
 30
0.0
 11
37.17414027
 21
19.14755095
 31
0.0
  0
LINE
  5
19D
100
AcDbEntity
  8
レイヤー_1
  6
CONTINUOUS
 62
       3
100
AcDbLine
 10
37.17414027
 20
19.14755095
 30
0.0
 11
37.17162879
 21
19.24877641
 31
0.0
  0
LINE
  5
19E
100
AcDbEntity
  8
レイヤー_1
  6
CONTINUOUS
 62
       3
100
AcDbLine
 10
37.17162879
 20
19.24877641
 30
0.0
 11
37.1593041
 21
19.34742174
 31
0.0
  0
LINE
  5
19F
100
AcDbEntity
  8
レイヤー_1
  6
CONTINUOUS
 62
       3
100
AcDbLine
 10
37.1593041
 20
19.34742174
 30
0.0
 11
37.13764412
 21
19.44284783
 31
0.0
  0
LINE
  5
1A0
100
AcDbEntity
  8
レイヤー_1
  6
CONTINUOUS
 62
       3
100
AcDbLine
 10
37.13764412
 20
19.44284783
 30
0.0
 11
37.10712927
 21
19.5345749
 31
0.0
  0
LINE
  5
1A1
100
AcDbEntity
  8
レイヤー_1
  6
CONTINUOUS
 62
       3
100
AcDbLine
 10
37.10712927
 20
19.5345749
 30
0.0
 11
37.06823997
 21
19.62212318
 31
0.0
  0
LINE
  5
1A2
100
AcDbEntity
  8
レイヤー_1
  6
CONTINUOUS
 62
       3
100
AcDbLine
 10
37.06823997
 20
19.62212318
 30
0.0
 11
37.02145665
 21
19.70501289
 31
0.0
  0
LINE
  5
1A3
100
AcDbEntity
  8
レイヤー_1
  6
CONTINUOUS
 62
       3
100
AcDbLine
 10
37.02145665
 20
19.70501289
 30
0.0
 11
36.96725971
 21
19.78276424
 31
0.0
  0
LINE
  5
1A4
100
AcDbEntity
  8
レイヤー_1
  6
CONTINUOUS
 62
       3
100
AcDbLine
 10
36.96725971
 20
19.78276424
 30
0.0
 11
36.90612959
 21
19.85489747
 31
0.0
  0
LINE
  5
1A5
100
AcDbEntity
  8
レイヤー_1
  6
CONTINUOUS
 62
       3
100
AcDbLine
 10
36.90612959
 20
19.85489747
 30
0.0
 11
36.8385467
 21
19.92093278
 31
0.0
  0
LINE
  5
1A6
100
AcDbEntity
  8
レイヤー_1
  6
CONTINUOUS
 62
       3
100
AcDbLine
 10
36.8385467
 20
19.92093278
 30
0.0
 11
36.76499147
 21
19.98039041
 31
0.0
  0
LINE
  5
1A7
100
AcDbEntity
  8
レイヤー_1
  6
CONTINUOUS
 62
       3
100
AcDbLine
 10
36.76499147
 20
19.98039041
 30
0.0
 11
36.68594432
 21
20.03279057
 31
0.0
  0
LINE
  5
1A8
100
AcDbEntity
  8
レイヤー_1
  6
CONTINUOUS
 62
       3
100
AcDbLine
 10
36.68594432
 20
20.03279057
 30
0.0
 11
36.60188566
 21
20.07765348
 31
0.0
  0
LINE
  5
1A9
100
AcDbEntity
  8
レイヤー_1
  6
CONTINUOUS
 62
       3
100
AcDbLine
 10
36.60188566
 20
20.07765348
 30
0.0
 11
36.51329592
 21
20.11449937
 31
0.0
  0
LINE
  5
1AA
100
AcDbEntity
  8
レイヤー_1
  6
CONTINUOUS
 62
       3
100
AcDbLine
 10
36.51329592
 20
20.11449937
 30
0.0
 11
36.42065552
 21
20.14284846
 31
0.0
  0
LINE
  5
1AB
100
AcDbEntity
  8
レイヤー_1
  6
CONTINUOUS
 62
       3
100
AcDbLine
 10
36.42065552
 20
20.14284846
 30
0.0
 11
36.32444488
 21
20.16222097
 31
0.0
  0
LINE
  5
1AC
100
AcDbEntity
  8
レイヤー_1
  6
CONTINUOUS
 62
       3
100
AcDbLine
 10
36.32444488
 20
20.16222097
 30
0.0
 11
36.22514442
 21
20.17213712
 31
0.0
  0
LINE
  5
1AD
100
AcDbEntity
  8
レイヤー_1
  6
CONTINUOUS
 62
       3
100
AcDbLine
 10
36.22514442
 20
20.17213712
 30
0.0
 11
36.12374719
 21
20.17213712
 31
0.0
  0
LINE
  5
1AE
100
AcDbEntity
  8
レイヤー_1
  6
CONTINUOUS
 62
       3
100
AcDbLine
 10
36.12374719
 20
20.17213712
 30
0.0
 11
36.02431679
 21
20.16222097
 31
0.0
  0
LINE
  5
1AF
100
AcDbEntity
  8
レイヤー_1
  6
CONTINUOUS
 62
       3
100
AcDbLine
 10
36.02431679
 20
20.16222097
 30
0.0
 11
35.92801218
 21
20.14284846
 31
0.0
  0
LINE
  5
1B0
100
AcDbEntity
  8
レイヤー_1
  6
CONTINUOUS
 62
       3
100
AcDbLine
 10
35.92801218
 20
20.14284846
 30
0.0
 11
35.83530992
 21
20.11449937
 31
0.0
  0
LINE
  5
1B1
100
AcDbEntity
  8
レイヤー_1
  6
CONTINUOUS
 62
       3
100
AcDbLine
 10
35.83530992
 20
20.11449937
 30
0.0
 11
35.74668658
 21
20.07765348
 31
0.0
  0
LINE
  5
1B2
100
AcDbEntity
  8
レイヤー_1
  6
CONTINUOUS
 62
       3
100
AcDbLine
 10
35.74668658
 20
20.07765348
 30
0.0
 11
35.66261873
 21
20.03279057
 31
0.0
  0
LINE
  5
1B3
100
AcDbEntity
  8
レイヤー_1
  6
CONTINUOUS
 62
       3
100
AcDbLine
 10
35.66261873
 20
20.03279057
 30
0.0
 11
35.58358293
 21
19.98039041
 31
0.0
  0
LINE
  5
1B4
100
AcDbEntity
  8
レイヤー_1
  6
CONTINUOUS
 62
       3
100
AcDbLine
 10
35.58358293
 20
19.98039041
 30
0.0
 11
35.51005576
 21
19.92093278
 31
0.0
  0
LINE
  5
1B5
100
AcDbEntity
  8
レイヤー_1
  6
CONTINUOUS
 62
       3
100
AcDbLine
 10
35.51005576
 20
19.92093278
 30
0.0
 11
35.44251378
 21
19.85489747
 31
0.0
  0
LINE
  5
1B6
100
AcDbEntity
  8
レイヤー_1
  6
CONTINUOUS
 62
       3
100
AcDbLine
 10
35.44251378
 20
19.85489747
 30
0.0
 11
35.38143355
 21
19.78276424
 31
0.0
  0
LINE
  5
1B7
100
AcDbEntity
  8
レイヤー_1
  6
CONTINUOUS
 62
       3
100
AcDbLine
 10
35.38143355
 20
19.78276424
 30
0.0
 11
35.32729165
 21
19.70501289
 31
0.0
  0
LINE
  5
1B8
100
AcDbEntity
  8
レイヤー_1
  6
CONTINUOUS
 62
       3
100
AcDbLine
 10
35.32729165
 20
19.70501289
 30
0.0
 11
35.28056465
 21
19.62212318
 31
0.0
  0
LINE
  5
1B9
100
AcDbEntity
  8
レイヤー_1
  6
CONTINUOUS
 62
       3
100
AcDbLine
 10
35.28056465
 20
19.62212318
 30
0.0
 11
35.2417291
 21
19.5345749
 31
0.0
  0
LINE
  5
1BA
100
AcDbEntity
  8
レイヤー_1
  6
CONTINUOUS
 62
       3
100
AcDbLine
 10
35.2417291
 20
19.5345749
 30
0.0
 11
35.21126157
 21
19.44284783
 31
0.0
  0
LINE
  5
1BB
100
AcDbEntity
  8
レイヤー_1
  6
CONTINUOUS
 62
       3
100
AcDbLine
 10
35.21126157
 20
19.44284783
 30
0.0
 11
35.18963865
 21
19.34742174
 31
0.0
  0
LINE
  5
1BC
100
AcDbEntity
  8
レイヤー_1
  6
CONTINUOUS
 62
       3
100
AcDbLine
 10
35.18963865
 20
19.34742174
 30
0.0
 11
35.17733688
 21
19.24877641
 31
0.0
  0
LINE
  5
1BD
100
AcDbEntity
  8
レイヤー_1
  6
CONTINUOUS
 62
       3
100
AcDbLine
 10
35.17733688
 20
19.24877641
 30
0.0
 11
35.17483036
 21
19.14755095
 31
0.0
  0
LINE
  5
1BE
100
AcDbEntity
  8
レイヤー_1
  6
CONTINUOUS
 62
       3
100
AcDbLine
 10
35.17483036
 20
19.14755095
 30
0.0
 11
35.18229283
 21
19.04751822
 31
0.0
  0
LINE
  5
1BF
100
AcDbEntity
  8
レイヤー_1
  6
CONTINUOUS
 62
       3
100
AcDbLine
 10
35.18229283
 20
19.04751822
 30
0.0
 11
35.19931475
 21
18.95046443
 31
0.0
  0
LINE
  5
1C0
100
AcDbEntity
  8
レイヤー_1
  6
CONTINUOUS
 62
       3
100
AcDbLine
 10
35.19931475
 20
18.95046443
 30
0.0
 11
35.22541955
 21
18.85686905
 31
0.0
  0
LINE
  5
1C1
100
AcDbEntity
  8
レイヤー_1
  6
CONTINUOUS
 62
       3
100
AcDbLine
 10
35.22541955
 20
18.85686905
 30
0.0
 11
35.26013065
 21
18.76721153
 31
0.0
  0
LINE
  5
1C2
100
AcDbEntity
  8
レイヤー_1
  6
CONTINUOUS
 62
       3
100
AcDbLine
 10
35.26013065
 20
18.76721153
 30
0.0
 11
35.3029715
 21
18.68197132
 31
0.0
  0
LINE
  5
1C3
100
AcDbEntity
  8
レイヤー_1
  6
CONTINUOUS
 62
       3
100
AcDbLine
 10
35.3029715
 20
18.68197132
 30
0.0
 11
35.35346553
 21
18.6016279
 31
0.0
  0
LINE
  5
1C4
100
AcDbEntity
  8
レイヤー_1
  6
CONTINUOUS
 62
       3
100
AcDbLine
 10
35.35346553
 20
18.6016279
 30
0.0
 11
35.41113616
 21
18.52666071
 31
0.0
  0
LINE
  5
1C5
100
AcDbEntity
  8
レイヤー_1
  6
CONTINUOUS
 62
       3
100
AcDbLine
 10
35.41113616
 20
18.52666071
 30
0.0
 11
35.47550683
 21
18.45754921
 31
0.0
  0
LINE
  5
1C6
100
AcDbEntity
  8
レイヤー_1
  6
CONTINUOUS
 62
       3
100
AcDbLine
 10
35.47550683
 20
18.45754921
 30
0.0
 11
35.54610098
 21
18.39477286
 31
0.0
  0
LINE
  5
1C7
100
AcDbEntity
  8
レイヤー_1
  6
CONTINUOUS
 62
       3
100
AcDbLine
 10
35.54610098
 20
18.39477286
 30
0.0
 11
35.62244204
 21
18.33881112
 31
0.0
  0
LINE
  5
1C8
100
AcDbEntity
  8
レイヤー_1
  6
CONTINUOUS
 62
       3
100
AcDbLine
 10
35.62244204
 20
18.33881112
 30
0.0
 11
35.70405343
 21
18.29014344
 31
0.0
  0
LINE
  5
1C9
100
AcDbEntity
  8
レイヤー_1
  6
CONTINUOUS
 62
       3
100
AcDbLine
 10
35.70405343
 20
18.29014344
 30
0.0
 11
35.7904586
 21
18.24924928
 31
0.0
  0
LINE
  5
1CA
100
AcDbEntity
  8
レイヤー_1
  6
CONTINUOUS
 62
       3
100
AcDbLine
 10
35.7904586
 20
18.24924928
 30
0.0
 11
35.88118097
 21
18.21660811
 31
0.0
  0
LINE
  5
1CB
100
AcDbEntity
  8
レイヤー_1
  6
CONTINUOUS
 62
       3
100
AcDbLine
 10
35.88118097
 20
18.21660811
 30
0.0
 11
35.97574397
 21
18.19269937
 31
0.0
  0
LINE
  5
1CC
100
AcDbEntity
  8
レイヤー_1
  6
CONTINUOUS
 62
       3
100
AcDbLine
 10
35.97574397
 20
18.19269937
 30
0.0
 11
36.07367105
 21
18.17800252
 31
0.0
  0
LINE
  5
1CD
100
AcDbEntity
  8
レイヤー_1
  6
CONTINUOUS
 62
       3
100
AcDbLine
 10
36.07367105
 20
18.17800252
 30
0.0
 11
36.17448563
 21
18.17299702
 31
0.0
  0
LINE
  5
1CE
100
AcDbEntity
  8
レイヤー_1
  6
CONTINUOUS
 62
       3
100
AcDbLine
 10
32.1746001
 20
5.67174707
 30
0.0
 11
32.27526532
 21
5.67675256
 31
0.0
  0
LINE
  5
1CF
100
AcDbEntity
  8
レイヤー_1
  6
CONTINUOUS
 62
       3
100
AcDbLine
 10
32.27526532
 20
5.67675256
 30
0.0
 11
32.37308092
 21
5.69144941
 31
0.0
  0
LINE
  5
1D0
100
AcDbEntity
  8
レイヤー_1
  6
CONTINUOUS
 62
       3
100
AcDbLine
 10
32.37308092
 20
5.69144941
 30
0.0
 11
32.46756649
 21
5.71535815
 31
0.0
  0
LINE
  5
1D1
100
AcDbEntity
  8
レイヤー_1
  6
CONTINUOUS
 62
       3
100
AcDbLine
 10
32.46756649
 20
5.71535815
 30
0.0
 11
32.55824162
 21
5.74799933
 31
0.0
  0
LINE
  5
1D2
100
AcDbEntity
  8
レイヤー_1
  6
CONTINUOUS
 62
       3
100
AcDbLine
 10
32.55824162
 20
5.74799933
 30
0.0
 11
32.64462587
 21
5.78889348
 31
0.0
  0
LINE
  5
1D3
100
AcDbEntity
  8
レイヤー_1
  6
CONTINUOUS
 62
       3
100
AcDbLine
 10
32.64462587
 20
5.78889348
 30
0.0
 11
32.72623883
 21
5.83756116
 31
0.0
  0
LINE
  5
1D4
100
AcDbEntity
  8
レイヤー_1
  6
CONTINUOUS
 62
       3
100
AcDbLine
 10
32.72623883
 20
5.83756116
 30
0.0
 11
32.80260007
 21
5.8935229
 31
0.0
  0
LINE
  5
1D5
100
AcDbEntity
  8
レイヤー_1
  6
CONTINUOUS
 62
       3
100
AcDbLine
 10
32.80260007
 20
5.8935229
 30
0.0
 11
32.87322919
 21
5.95629925
 31
0.0
  0
LINE
  5
1D6
100
AcDbEntity
  8
レイヤー_1
  6
CONTINUOUS
 62
       3
100
AcDbLine
 10
32.87322919
 20
5.95629925
 30
0.0
 11
32.93764574
 21
6.02541075
 31
0.0
  0
LINE
  5
1D7
100
AcDbEntity
  8
レイヤー_1
  6
CONTINUOUS
 62
       3
100
AcDbLine
 10
32.93764574
 20
6.02541075
 30
0.0
 11
32.99536932
 21
6.10037794
 31
0.0
  0
LINE
  5
1D8
100
AcDbEntity
  8
レイヤー_1
  6
CONTINUOUS
 62
       3
100
AcDbLine
 10
32.99536932
 20
6.10037794
 30
0.0
 11
33.04591951
 21
6.18072137
 31
0.0
  0
LINE
  5
1D9
100
AcDbEntity
  8
レイヤー_1
  6
CONTINUOUS
 62
       3
100
AcDbLine
 10
33.04591951
 20
6.18072137
 30
0.0
 11
33.08881587
 21
6.26596157
 31
0.0
  0
LINE
  5
1DA
100
AcDbEntity
  8
レイヤー_1
  6
CONTINUOUS
 62
       3
100
AcDbLine
 10
33.08881587
 20
6.26596157
 30
0.0
 11
33.123578
 21
6.35561909
 31
0.0
  0
LINE
  5
1DB
100
AcDbEntity
  8
レイヤー_1
  6
CONTINUOUS
 62
       3
100
AcDbLine
 10
33.123578
 20
6.35561909
 30
0.0
 11
33.14972546
 21
6.44921447
 31
0.0
  0
LINE
  5
1DC
100
AcDbEntity
  8
レイヤー_1
  6
CONTINUOUS
 62
       3
100
AcDbLine
 10
33.14972546
 20
6.44921447
 30
0.0
 11
33.16677785
 21
6.54626826
 31
0.0
  0
LINE
  5
1DD
100
AcDbEntity
  8
レイヤー_1
  6
CONTINUOUS
 62
       3
100
AcDbLine
 10
33.16677785
 20
6.54626826
 30
0.0
 11
33.17425474
 21
6.64630099
 31
0.0
  0
LINE
  5
1DE
100
AcDbEntity
  8
レイヤー_1
  6
CONTINUOUS
 62
       3
100
AcDbLine
 10
33.17425474
 20
6.64630099
 30
0.0
 11
33.17174326
 21
6.74746574
 31
0.0
  0
LINE
  5
1DF
100
AcDbEntity
  8
レイヤー_1
  6
CONTINUOUS
 62
       3
100
AcDbLine
 10
33.17174326
 20
6.74746574
 30
0.0
 11
33.15941857
 21
6.84603879
 31
0.0
  0
LINE
  5
1E0
100
AcDbEntity
  8
レイヤー_1
  6
CONTINUOUS
 62
       3
100
AcDbLine
 10
33.15941857
 20
6.84603879
 30
0.0
 11
33.13775859
 21
6.94140191
 31
0.0
  0
LINE
  5
1E1
100
AcDbEntity
  8
レイヤー_1
  6
CONTINUOUS
 62
       3
100
AcDbLine
 10
33.13775859
 20
6.94140191
 30
0.0
 11
33.10724374
 21
7.03307468
 31
0.0
  0
LINE
  5
1E2
100
AcDbEntity
  8
レイヤー_1
  6
CONTINUOUS
 62
       3
100
AcDbLine
 10
33.10724374
 20
7.03307468
 30
0.0
 11
33.06835444
 21
7.12057669
 31
0.0
  0
LINE
  5
1E3
100
AcDbEntity
  8
レイヤー_1
  6
CONTINUOUS
 62
       3
100
AcDbLine
 10
33.06835444
 20
7.12057669
 30
0.0
 11
33.02157111
 21
7.20342752
 31
0.0
  0
LINE
  5
1E4
100
AcDbEntity
  8
レイヤー_1
  6
CONTINUOUS
 62
       3
100
AcDbLine
 10
33.02157111
 20
7.20342752
 30
0.0
 11
32.96737418
 21
7.28114673
 31
0.0
  0
LINE
  5
1E5
100
AcDbEntity
  8
レイヤー_1
  6
CONTINUOUS
 62
       3
100
AcDbLine
 10
32.96737418
 20
7.28114673
 30
0.0
 11
32.90624406
 21
7.35325391
 31
0.0
  0
LINE
  5
1E6
100
AcDbEntity
  8
レイヤー_1
  6
CONTINUOUS
 62
       3
100
AcDbLine
 10
32.90624406
 20
7.35325391
 30
0.0
 11
32.83866117
 21
7.41926865
 31
0.0
  0
LINE
  5
1E7
100
AcDbEntity
  8
レイヤー_1
  6
CONTINUOUS
 62
       3
100
AcDbLine
 10
32.83866117
 20
7.41926865
 30
0.0
 11
32.76510594
 21
7.47871051
 31
0.0
  0
LINE
  5
1E8
100
AcDbEntity
  8
レイヤー_1
  6
CONTINUOUS
 62
       3
100
AcDbLine
 10
32.76510594
 20
7.47871051
 30
0.0
 11
32.68605879
 21
7.53109909
 31
0.0
  0
LINE
  5
1E9
100
AcDbEntity
  8
レイヤー_1
  6
CONTINUOUS
 62
       3
100
AcDbLine
 10
32.68605879
 20
7.53109909
 30
0.0
 11
32.60200013
 21
7.57595394
 31
0.0
  0
LINE
  5
1EA
100
AcDbEntity
  8
レイヤー_1
  6
CONTINUOUS
 62
       3
100
AcDbLine
 10
32.60200013
 20
7.57595394
 30
0.0
 11
32.51341039
 21
7.61279467
 31
0.0
  0
LINE
  5
1EB
100
AcDbEntity
  8
レイヤー_1
  6
CONTINUOUS
 62
       3
100
AcDbLine
 10
32.51341039
 20
7.61279467
 30
0.0
 11
32.42076999
 21
7.64114084
 31
0.0
  0
LINE
  5
1EC
100
AcDbEntity
  8
レイヤー_1
  6
CONTINUOUS
 62
       3
100
AcDbLine
 10
32.42076999
 20
7.64114084
 30
0.0
 11
32.32455934
 21
7.66051204
 31
0.0
  0
LINE
  5
1ED
100
AcDbEntity
  8
レイヤー_1
  6
CONTINUOUS
 62
       3
100
AcDbLine
 10
32.32455934
 20
7.66051204
 30
0.0
 11
32.22525888
 21
7.67042784
 31
0.0
  0
LINE
  5
1EE
100
AcDbEntity
  8
レイヤー_1
  6
CONTINUOUS
 62
       3
100
AcDbLine
 10
32.22525888
 20
7.67042784
 30
0.0
 11
32.12390149
 21
7.67042784
 31
0.0
  0
LINE
  5
1EF
100
AcDbEntity
  8
レイヤー_1
  6
CONTINUOUS
 62
       3
100
AcDbLine
 10
32.12390149
 20
7.67042784
 30
0.0
 11
32.02453606
 21
7.66051204
 31
0.0
  0
LINE
  5
1F0
100
AcDbEntity
  8
レイヤー_1
  6
CONTINUOUS
 62
       3
100
AcDbLine
 10
32.02453606
 20
7.66051204
 30
0.0
 11
31.92827843
 21
7.64114084
 31
0.0
  0
LINE
  5
1F1
100
AcDbEntity
  8
レイヤー_1
  6
CONTINUOUS
 62
       3
100
AcDbLine
 10
31.92827843
 20
7.64114084
 30
0.0
 11
31.8356071
 21
7.61279467
 31
0.0
  0
LINE
  5
1F2
100
AcDbEntity
  8
レイヤー_1
  6
CONTINUOUS
 62
       3
100
AcDbLine
 10
31.8356071
 20
7.61279467
 30
0.0
 11
31.74700056
 21
7.57595394
 31
0.0
  0
LINE
  5
1F3
100
AcDbEntity
  8
レイヤー_1
  6
CONTINUOUS
 62
       3
100
AcDbLine
 10
31.74700056
 20
7.57595394
 30
0.0
 11
31.66293731
 21
7.53109909
 31
0.0
  0
LINE
  5
1F4
100
AcDbEntity
  8
レイヤー_1
  6
CONTINUOUS
 62
       3
100
AcDbLine
 10
31.66293731
 20
7.53109909
 30
0.0
 11
31.58389583
 21
7.47871051
 31
0.0
  0
LINE
  5
1F5
100
AcDbEntity
  8
レイヤー_1
  6
CONTINUOUS
 62
       3
100
AcDbLine
 10
31.58389583
 20
7.47871051
 30
0.0
 11
31.51035463
 21
7.41926865
 31
0.0
  0
LINE
  5
1F6
100
AcDbEntity
  8
レイヤー_1
  6
CONTINUOUS
 62
       3
100
AcDbLine
 10
31.51035463
 20
7.41926865
 30
0.0
 11
31.4427922
 21
7.35325391
 31
0.0
  0
LINE
  5
1F7
100
AcDbEntity
  8
レイヤー_1
  6
CONTINUOUS
 62
       3
100
AcDbLine
 10
31.4427922
 20
7.35325391
 30
0.0
 11
31.38168702
 21
7.28114673
 31
0.0
  0
LINE
  5
1F8
100
AcDbEntity
  8
レイヤー_1
  6
CONTINUOUS
 62
       3
100
AcDbLine
 10
31.38168702
 20
7.28114673
 30
0.0
 11
31.32751761
 21
7.20342752
 31
0.0
  0
LINE
  5
1F9
100
AcDbEntity
  8
レイヤー_1
  6
CONTINUOUS
 62
       3
100
AcDbLine
 10
31.32751761
 20
7.20342752
 30
0.0
 11
31.28076244
 21
7.12057669
 31
0.0
  0
LINE
  5
1FA
100
AcDbEntity
  8
レイヤー_1
  6
CONTINUOUS
 62
       3
100
AcDbLine
 10
31.28076244
 20
7.12057669
 30
0.0
 11
31.24190001
 21
7.03307468
 31
0.0
  0
LINE
  5
1FB
100
AcDbEntity
  8
レイヤー_1
  6
CONTINUOUS
 62
       3
100
AcDbLine
 10
31.24190001
 20
7.03307468
 30
0.0
 11
31.21140883
 21
6.94140191
 31
0.0
  0
LINE
  5
1FC
100
AcDbEntity
  8
レイヤー_1
  6
CONTINUOUS
 62
       3
100
AcDbLine
 10
31.21140883
 20
6.94140191
 30
0.0
 11
31.18976738
 21
6.84603879
 31
0.0
  0
LINE
  5
1FD
100
AcDbEntity
  8
レイヤー_1
  6
CONTINUOUS
 62
       3
100
AcDbLine
 10
31.18976738
 20
6.84603879
 30
0.0
 11
31.17745415
 21
6.74746574
 31
0.0
  0
LINE
  5
1FE
100
AcDbEntity
  8
レイヤー_1
  6
CONTINUOUS
 62
       3
100
AcDbLine
 10
31.17745415
 20
6.74746574
 30
0.0
 11
31.17494515
 21
6.64630099
 31
0.0
  0
LINE
  5
1FF
100
AcDbEntity
  8
レイヤー_1
  6
CONTINUOUS
 62
       3
100
AcDbLine
 10
31.17494515
 20
6.64630099
 30
0.0
 11
31.18241483
 21
6.54626826
 31
0.0
  0
LINE
  5
200
100
AcDbEntity
  8
レイヤー_1
  6
CONTINUOUS
 62
       3
100
AcDbLine
 10
31.18241483
 20
6.54626826
 30
0.0
 11
31.19945198
 21
6.44921447
 31
0.0
  0
LINE
  5
201
100
AcDbEntity
  8
レイヤー_1
  6
CONTINUOUS
 62
       3
100
AcDbLine
 10
31.19945198
 20
6.44921447
 30
0.0
 11
31.22557811
 21
6.35561909
 31
0.0
  0
LINE
  5
202
100
AcDbEntity
  8
レイヤー_1
  6
CONTINUOUS
 62
       3
100
AcDbLine
 10
31.22557811
 20
6.35561909
 30
0.0
 11
31.26031473
 21
6.26596157
 31
0.0
  0
LINE
  5
203
100
AcDbEntity
  8
レイヤー_1
  6
CONTINUOUS
 62
       3
100
AcDbLine
 10
31.26031473
 20
6.26596157
 30
0.0
 11
31.30318333
 21
6.18072137
 31
0.0
  0
LINE
  5
204
100
AcDbEntity
  8
レイヤー_1
  6
CONTINUOUS
 62
       3
100
AcDbLine
 10
31.30318333
 20
6.18072137
 30
0.0
 11
31.35370544
 21
6.10037794
 31
0.0
  0
LINE
  5
205
100
AcDbEntity
  8
レイヤー_1
  6
CONTINUOUS
 62
       3
100
AcDbLine
 10
31.35370544
 20
6.10037794
 30
0.0
 11
31.41140255
 21
6.02541075
 31
0.0
  0
LINE
  5
206
100
AcDbEntity
  8
レイヤー_1
  6
CONTINUOUS
 62
       3
100
AcDbLine
 10
31.41140255
 20
6.02541075
 30
0.0
 11
31.47579616
 21
5.95629925
 31
0.0
  0
LINE
  5
207
100
AcDbEntity
  8
レイヤー_1
  6
CONTINUOUS
 62
       3
100
AcDbLine
 10
31.47579616
 20
5.95629925
 30
0.0
 11
31.54640779
 21
5.8935229
 31
0.0
  0
LINE
  5
208
100
AcDbEntity
  8
レイヤー_1
  6
CONTINUOUS
 62
       3
100
AcDbLine
 10
31.54640779
 20
5.8935229
 30
0.0
 11
31.62275894
 21
5.83756116
 31
0.0
  0
LINE
  5
209
100
AcDbEntity
  8
レイヤー_1
  6
CONTINUOUS
 62
       3
100
AcDbLine
 10
31.62275894
 20
5.83756116
 30
0.0
 11
31.70437112
 21
5.78889348
 31
0.0
  0
LINE
  5
20A
100
AcDbEntity
  8
レイヤー_1
  6
CONTINUOUS
 62
       3
100
AcDbLine
 10
31.70437112
 20
5.78889348
 30
0.0
 11
31.79076583
 21
5.74799933
 31
0.0
  0
LINE
  5
20B
100
AcDbEntity
  8
レイヤー_1
  6
CONTINUOUS
 62
       3
100
AcDbLine
 10
31.79076583
 20
5.74799933
 30
0.0
 11
31.88146457
 21
5.71535815
 31
0.0
  0
LINE
  5
20C
100
AcDbEntity
  8
レイヤー_1
  6
CONTINUOUS
 62
       3
100
AcDbLine
 10
31.88146457
 20
5.71535815
 30
0.0
 11
31.97598886
 21
5.69144941
 31
0.0
  0
LINE
  5
20D
100
AcDbEntity
  8
レイヤー_1
  6
CONTINUOUS
 62
       3
100
AcDbLine
 10
31.97598886
 20
5.69144941
 30
0.0
 11
32.07386021
 21
5.67675256
 31
0.0
  0
LINE
  5
20E
100
AcDbEntity
  8
レイヤー_1
  6
CONTINUOUS
 62
       3
100
AcDbLine
 10
32.07386021
 20
5.67675256
 30
0.0
 11
32.1746001
 21
5.67174707
 31
0.0
  0
LINE
  5
20F
100
AcDbEntity
  8
レイヤー_1
  6
CONTINUOUS
 62
       3
100
AcDbLine
 10
32.1746001
 20
10.67206332
 30
0.0
 11
32.27526532
 21
10.67707126
 31
0.0
  0
LINE
  5
210
100
AcDbEntity
  8
レイヤー_1
  6
CONTINUOUS
 62
       3
100
AcDbLine
 10
32.27526532
 20
10.67707126
 30
0.0
 11
32.37308092
 21
10.69177481
 31
0.0
  0
LINE
  5
211
100
AcDbEntity
  8
レイヤー_1
  6
CONTINUOUS
 62
       3
100
AcDbLine
 10
32.37308092
 20
10.69177481
 30
0.0
 11
32.46756649
 21
10.71569355
 31
0.0
  0
LINE
  5
212
100
AcDbEntity
  8
レイヤー_1
  6
CONTINUOUS
 62
       3
100
AcDbLine
 10
32.46756649
 20
10.71569355
 30
0.0
 11
32.55824162
 21
10.74834705
 31
0.0
  0
LINE
  5
213
100
AcDbEntity
  8
レイヤー_1
  6
CONTINUOUS
 62
       3
100
AcDbLine
 10
32.55824162
 20
10.74834705
 30
0.0
 11
32.64462587
 21
10.78925489
 31
0.0
  0
LINE
  5
214
100
AcDbEntity
  8
レイヤー_1
  6
CONTINUOUS
 62
       3
100
AcDbLine
 10
32.64462587
 20
10.78925489
 30
0.0
 11
32.72623883
 21
10.83793666
 31
0.0
  0
LINE
  5
215
100
AcDbEntity
  8
レイヤー_1
  6
CONTINUOUS
 62
       3
100
AcDbLine
 10
32.72623883
 20
10.83793666
 30
0.0
 11
32.80260007
 21
10.89391193
 31
0.0
  0
LINE
  5
216
100
AcDbEntity
  8
レイヤー_1
  6
CONTINUOUS
 62
       3
100
AcDbLine
 10
32.80260007
 20
10.89391193
 30
0.0
 11
32.87322919
 21
10.95670028
 31
0.0
  0
LINE
  5
217
100
AcDbEntity
  8
レイヤー_1
  6
CONTINUOUS
 62
       3
100
AcDbLine
 10
32.87322919
 20
10.95670028
 30
0.0
 11
32.93764574
 21
11.0258213
 31
0.0
  0
LINE
  5
218
100
AcDbEntity
  8
レイヤー_1
  6
CONTINUOUS
 62
       3
100
AcDbLine
 10
32.93764574
 20
11.0258213
 30
0.0
 11
32.99536932
 21
11.10079455
 31
0.0
  0
LINE
  5
219
100
AcDbEntity
  8
レイヤー_1
  6
CONTINUOUS
 62
       3
100
AcDbLine
 10
32.99536932
 20
11.10079455
 30
0.0
 11
33.04591951
 21
11.18113962
 31
0.0
  0
LINE
  5
21A
100
AcDbEntity
  8
レイヤー_1
  6
CONTINUOUS
 62
       3
100
AcDbLine
 10
33.04591951
 20
11.18113962
 30
0.0
 11
33.08881587
 21
11.26637609
 31
0.0
  0
LINE
  5
21B
100
AcDbEntity
  8
レイヤー_1
  6
CONTINUOUS
 62
       3
100
AcDbLine
 10
33.08881587
 20
11.26637609
 30
0.0
 11
33.123578
 21
11.35602353
 31
0.0
  0
LINE
  5
21C
100
AcDbEntity
  8
レイヤー_1
  6
CONTINUOUS
 62
       3
100
AcDbLine
 10
33.123578
 20
11.35602353
 30
0.0
 11
33.14972546
 21
11.44960153
 31
0.0
  0
LINE
  5
21D
100
AcDbEntity
  8
レイヤー_1
  6
CONTINUOUS
 62
       3
100
AcDbLine
 10
33.14972546
 20
11.44960153
 30
0.0
 11
33.16677785
 21
11.54662967
 31
0.0
  0
LINE
  5
21E
100
AcDbEntity
  8
レイヤー_1
  6
CONTINUOUS
 62
       3
100
AcDbLine
 10
33.16677785
 20
11.54662967
 30
0.0
 11
33.17425474
 21
11.64662752
 31
0.0
  0
LINE
  5
21F
100
AcDbEntity
  8
レイヤー_1
  6
CONTINUOUS
 62
       3
100
AcDbLine
 10
33.17425474
 20
11.64662752
 30
0.0
 11
33.17174326
 21
11.7478427
 31
0.0
  0
LINE
  5
220
100
AcDbEntity
  8
レイヤー_1
  6
CONTINUOUS
 62
       3
100
AcDbLine
 10
33.17174326
 20
11.7478427
 30
0.0
 11
33.15941857
 21
11.84648803
 31
0.0
  0
LINE
  5
221
100
AcDbEntity
  8
レイヤー_1
  6
CONTINUOUS
 62
       3
100
AcDbLine
 10
33.15941857
 20
11.84648803
 30
0.0
 11
33.13775859
 21
11.94191412
 31
0.0
  0
LINE
  5
222
100
AcDbEntity
  8
レイヤー_1
  6
CONTINUOUS
 62
       3
100
AcDbLine
 10
33.13775859
 20
11.94191412
 30
0.0
 11
33.10724374
 21
12.0336412
 31
0.0
  0
LINE
  5
223
100
AcDbEntity
  8
レイヤー_1
  6
CONTINUOUS
 62
       3
100
AcDbLine
 10
33.10724374
 20
12.0336412
 30
0.0
 11
33.06835444
 21
12.12118947
 31
0.0
  0
LINE
  5
224
100
AcDbEntity
  8
レイヤー_1
  6
CONTINUOUS
 62
       3
100
AcDbLine
 10
33.06835444
 20
12.12118947
 30
0.0
 11
33.02157111
 21
12.20407918
 31
0.0
  0
LINE
  5
225
100
AcDbEntity
  8
レイヤー_1
  6
CONTINUOUS
 62
       3
100
AcDbLine
 10
33.02157111
 20
12.20407918
 30
0.0
 11
32.96737418
 21
12.28183054
 31
0.0
  0
LINE
  5
226
100
AcDbEntity
  8
レイヤー_1
  6
CONTINUOUS
 62
       3
100
AcDbLine
 10
32.96737418
 20
12.28183054
 30
0.0
 11
32.90624406
 21
12.35396376
 31
0.0
  0
LINE
  5
227
100
AcDbEntity
  8
レイヤー_1
  6
CONTINUOUS
 62
       3
100
AcDbLine
 10
32.90624406
 20
12.35396376
 30
0.0
 11
32.83866117
 21
12.41999907
 31
0.0
  0
LINE
  5
228
100
AcDbEntity
  8
レイヤー_1
  6
CONTINUOUS
 62
       3
100
AcDbLine
 10
32.83866117
 20
12.41999907
 30
0.0
 11
32.76510594
 21
12.4794567
 31
0.0
  0
LINE
  5
229
100
AcDbEntity
  8
レイヤー_1
  6
CONTINUOUS
 62
       3
100
AcDbLine
 10
32.76510594
 20
12.4794567
 30
0.0
 11
32.68605879
 21
12.53185686
 31
0.0
  0
LINE
  5
22A
100
AcDbEntity
  8
レイヤー_1
  6
CONTINUOUS
 62
       3
100
AcDbLine
 10
32.68605879
 20
12.53185686
 30
0.0
 11
32.60200013
 21
12.57671977
 31
0.0
  0
LINE
  5
22B
100
AcDbEntity
  8
レイヤー_1
  6
CONTINUOUS
 62
       3
100
AcDbLine
 10
32.60200013
 20
12.57671977
 30
0.0
 11
32.51341039
 21
12.61356566
 31
0.0
  0
LINE
  5
22C
100
AcDbEntity
  8
レイヤー_1
  6
CONTINUOUS
 62
       3
100
AcDbLine
 10
32.51341039
 20
12.61356566
 30
0.0
 11
32.42076999
 21
12.64191475
 31
0.0
  0
LINE
  5
22D
100
AcDbEntity
  8
レイヤー_1
  6
CONTINUOUS
 62
       3
100
AcDbLine
 10
32.42076999
 20
12.64191475
 30
0.0
 11
32.32455934
 21
12.66128726
 31
0.0
  0
LINE
  5
22E
100
AcDbEntity
  8
レイヤー_1
  6
CONTINUOUS
 62
       3
100
AcDbLine
 10
32.32455934
 20
12.66128726
 30
0.0
 11
32.22525888
 21
12.67120341
 31
0.0
  0
LINE
  5
22F
100
AcDbEntity
  8
レイヤー_1
  6
CONTINUOUS
 62
       3
100
AcDbLine
 10
32.22525888
 20
12.67120341
 30
0.0
 11
32.12390149
 21
12.67120341
 31
0.0
  0
LINE
  5
230
100
AcDbEntity
  8
レイヤー_1
  6
CONTINUOUS
 62
       3
100
AcDbLine
 10
32.12390149
 20
12.67120341
 30
0.0
 11
32.02453606
 21
12.66128726
 31
0.0
  0
LINE
  5
231
100
AcDbEntity
  8
レイヤー_1
  6
CONTINUOUS
 62
       3
100
AcDbLine
 10
32.02453606
 20
12.66128726
 30
0.0
 11
31.92827843
 21
12.64191475
 31
0.0
  0
LINE
  5
232
100
AcDbEntity
  8
レイヤー_1
  6
CONTINUOUS
 62
       3
100
AcDbLine
 10
31.92827843
 20
12.64191475
 30
0.0
 11
31.8356071
 21
12.61356566
 31
0.0
  0
LINE
  5
233
100
AcDbEntity
  8
レイヤー_1
  6
CONTINUOUS
 62
       3
100
AcDbLine
 10
31.8356071
 20
12.61356566
 30
0.0
 11
31.74700056
 21
12.57671977
 31
0.0
  0
LINE
  5
234
100
AcDbEntity
  8
レイヤー_1
  6
CONTINUOUS
 62
       3
100
AcDbLine
 10
31.74700056
 20
12.57671977
 30
0.0
 11
31.66293731
 21
12.53185686
 31
0.0
  0
LINE
  5
235
100
AcDbEntity
  8
レイヤー_1
  6
CONTINUOUS
 62
       3
100
AcDbLine
 10
31.66293731
 20
12.53185686
 30
0.0
 11
31.58389583
 21
12.4794567
 31
0.0
  0
LINE
  5
236
100
AcDbEntity
  8
レイヤー_1
  6
CONTINUOUS
 62
       3
100
AcDbLine
 10
31.58389583
 20
12.4794567
 30
0.0
 11
31.51035463
 21
12.41999907
 31
0.0
  0
LINE
  5
237
100
AcDbEntity
  8
レイヤー_1
  6
CONTINUOUS
 62
       3
100
AcDbLine
 10
31.51035463
 20
12.41999907
 30
0.0
 11
31.4427922
 21
12.35396376
 31
0.0
  0
LINE
  5
238
100
AcDbEntity
  8
レイヤー_1
  6
CONTINUOUS
 62
       3
100
AcDbLine
 10
31.4427922
 20
12.35396376
 30
0.0
 11
31.38168702
 21
12.28183054
 31
0.0
  0
LINE
  5
239
100
AcDbEntity
  8
レイヤー_1
  6
CONTINUOUS
 62
       3
100
AcDbLine
 10
31.38168702
 20
12.28183054
 30
0.0
 11
31.32751761
 21
12.20407918
 31
0.0
  0
LINE
  5
23A
100
AcDbEntity
  8
レイヤー_1
  6
CONTINUOUS
 62
       3
100
AcDbLine
 10
31.32751761
 20
12.20407918
 30
0.0
 11
31.28076244
 21
12.12118947
 31
0.0
  0
LINE
  5
23B
100
AcDbEntity
  8
レイヤー_1
  6
CONTINUOUS
 62
       3
100
AcDbLine
 10
31.28076244
 20
12.12118947
 30
0.0
 11
31.24190001
 21
12.0336412
 31
0.0
  0
LINE
  5
23C
100
AcDbEntity
  8
レイヤー_1
  6
CONTINUOUS
 62
       3
100
AcDbLine
 10
31.24190001
 20
12.0336412
 30
0.0
 11
31.21140883
 21
11.94191412
 31
0.0
  0
LINE
  5
23D
100
AcDbEntity
  8
レイヤー_1
  6
CONTINUOUS
 62
       3
100
AcDbLine
 10
31.21140883
 20
11.94191412
 30
0.0
 11
31.18976738
 21
11.84648803
 31
0.0
  0
LINE
  5
23E
100
AcDbEntity
  8
レイヤー_1
  6
CONTINUOUS
 62
       3
100
AcDbLine
 10
31.18976738
 20
11.84648803
 30
0.0
 11
31.17745415
 21
11.7478427
 31
0.0
  0
LINE
  5
23F
100
AcDbEntity
  8
レイヤー_1
  6
CONTINUOUS
 62
       3
100
AcDbLine
 10
31.17745415
 20
11.7478427
 30
0.0
 11
31.17494515
 21
11.64662752
 31
0.0
  0
LINE
  5
240
100
AcDbEntity
  8
レイヤー_1
  6
CONTINUOUS
 62
       3
100
AcDbLine
 10
31.17494515
 20
11.64662752
 30
0.0
 11
31.18241483
 21
11.54662967
 31
0.0
  0
LINE
  5
241
100
AcDbEntity
  8
レイヤー_1
  6
CONTINUOUS
 62
       3
100
AcDbLine
 10
31.18241483
 20
11.54662967
 30
0.0
 11
31.19945198
 21
11.44960153
 31
0.0
  0
LINE
  5
242
100
AcDbEntity
  8
レイヤー_1
  6
CONTINUOUS
 62
       3
100
AcDbLine
 10
31.19945198
 20
11.44960153
 30
0.0
 11
31.22557811
 21
11.35602353
 31
0.0
  0
LINE
  5
243
100
AcDbEntity
  8
レイヤー_1
  6
CONTINUOUS
 62
       3
100
AcDbLine
 10
31.22557811
 20
11.35602353
 30
0.0
 11
31.26031473
 21
11.26637609
 31
0.0
  0
LINE
  5
244
100
AcDbEntity
  8
レイヤー_1
  6
CONTINUOUS
 62
       3
100
AcDbLine
 10
31.26031473
 20
11.26637609
 30
0.0
 11
31.30318333
 21
11.18113962
 31
0.0
  0
LINE
  5
245
100
AcDbEntity
  8
レイヤー_1
  6
CONTINUOUS
 62
       3
100
AcDbLine
 10
31.30318333
 20
11.18113962
 30
0.0
 11
31.35370544
 21
11.10079455
 31
0.0
  0
LINE
  5
246
100
AcDbEntity
  8
レイヤー_1
  6
CONTINUOUS
 62
       3
100
AcDbLine
 10
31.35370544
 20
11.10079455
 30
0.0
 11
31.41140255
 21
11.0258213
 31
0.0
  0
LINE
  5
247
100
AcDbEntity
  8
レイヤー_1
  6
CONTINUOUS
 62
       3
100
AcDbLine
 10
31.41140255
 20
11.0258213
 30
0.0
 11
31.47579616
 21
10.95670028
 31
0.0
  0
LINE
  5
248
100
AcDbEntity
  8
レイヤー_1
  6
CONTINUOUS
 62
       3
100
AcDbLine
 10
31.47579616
 20
10.95670028
 30
0.0
 11
31.54640779
 21
10.89391193
 31
0.0
  0
LINE
  5
249
100
AcDbEntity
  8
レイヤー_1
  6
CONTINUOUS
 62
       3
100
AcDbLine
 10
31.54640779
 20
10.89391193
 30
0.0
 11
31.62275894
 21
10.83793666
 31
0.0
  0
LINE
  5
24A
100
AcDbEntity
  8
レイヤー_1
  6
CONTINUOUS
 62
       3
100
AcDbLine
 10
31.62275894
 20
10.83793666
 30
0.0
 11
31.70437112
 21
10.78925489
 31
0.0
  0
LINE
  5
24B
100
AcDbEntity
  8
レイヤー_1
  6
CONTINUOUS
 62
       3
100
AcDbLine
 10
31.70437112
 20
10.78925489
 30
0.0
 11
31.79076583
 21
10.74834705
 31
0.0
  0
LINE
  5
24C
100
AcDbEntity
  8
レイヤー_1
  6
CONTINUOUS
 62
       3
100
AcDbLine
 10
31.79076583
 20
10.74834705
 30
0.0
 11
31.88146457
 21
10.71569355
 31
0.0
  0
LINE
  5
24D
100
AcDbEntity
  8
レイヤー_1
  6
CONTINUOUS
 62
       3
100
AcDbLine
 10
31.88146457
 20
10.71569355
 30
0.0
 11
31.97598886
 21
10.69177481
 31
0.0
  0
LINE
  5
24E
100
AcDbEntity
  8
レイヤー_1
  6
CONTINUOUS
 62
       3
100
AcDbLine
 10
31.97598886
 20
10.69177481
 30
0.0
 11
32.07386021
 21
10.67707126
 31
0.0
  0
LINE
  5
24F
100
AcDbEntity
  8
レイヤー_1
  6
CONTINUOUS
 62
       3
100
AcDbLine
 10
32.07386021
 20
10.67707126
 30
0.0
 11
32.1746001
 21
10.67206332
 31
0.0
  0
LINE
  5
250
100
AcDbEntity
  8
レイヤー_1
  6
CONTINUOUS
 62
       3
100
AcDbLine
 10
32.1746001
 20
15.67237956
 30
0.0
 11
32.27526532
 21
15.67738762
 31
0.0
  0
LINE
  5
251
100
AcDbEntity
  8
レイヤー_1
  6
CONTINUOUS
 62
       3
100
AcDbLine
 10
32.27526532
 20
15.67738762
 30
0.0
 11
32.37308092
 21
15.69209192
 31
0.0
  0
LINE
  5
252
100
AcDbEntity
  8
レイヤー_1
  6
CONTINUOUS
 62
       3
100
AcDbLine
 10
32.37308092
 20
15.69209192
 30
0.0
 11
32.46756649
 21
15.71601269
 31
0.0
  0
LINE
  5
253
100
AcDbEntity
  8
レイヤー_1
  6
CONTINUOUS
 62
       3
100
AcDbLine
 10
32.46756649
 20
15.71601269
 30
0.0
 11
32.55824162
 21
15.74867015
 31
0.0
  0
LINE
  5
254
100
AcDbEntity
  8
レイヤー_1
  6
CONTINUOUS
 62
       3
100
AcDbLine
 10
32.55824162
 20
15.74867015
 30
0.0
 11
32.64462587
 21
15.78958452
 31
0.0
  0
LINE
  5
255
100
AcDbEntity
  8
レイヤー_1
  6
CONTINUOUS
 62
       3
100
AcDbLine
 10
32.64462587
 20
15.78958452
 30
0.0
 11
32.72623883
 21
15.83827603
 31
0.0
  0
LINE
  5
256
100
AcDbEntity
  8
レイヤー_1
  6
CONTINUOUS
 62
       3
100
AcDbLine
 10
32.72623883
 20
15.83827603
 30
0.0
 11
32.80260007
 21
15.8942649
 31
0.0
  0
LINE
  5
257
100
AcDbEntity
  8
レイヤー_1
  6
CONTINUOUS
 62
       3
100
AcDbLine
 10
32.80260007
 20
15.8942649
 30
0.0
 11
32.87322919
 21
15.95707134
 31
0.0
  0
LINE
  5
258
100
AcDbEntity
  8
レイヤー_1
  6
CONTINUOUS
 62
       3
100
AcDbLine
 10
32.87322919
 20
15.95707134
 30
0.0
 11
32.93764574
 21
16.02621558
 31
0.0
  0
LINE
  5
259
100
AcDbEntity
  8
レイヤー_1
  6
CONTINUOUS
 62
       3
100
AcDbLine
 10
32.93764574
 20
16.02621558
 30
0.0
 11
32.99536932
 21
16.10121784
 31
0.0
  0
LINE
  5
25A
100
AcDbEntity
  8
レイヤー_1
  6
CONTINUOUS
 62
       3
100
AcDbLine
 10
32.99536932
 20
16.10121784
 30
0.0
 11
33.04591951
 21
16.18159834
 31
0.0
  0
LINE
  5
25B
100
AcDbEntity
  8
レイヤー_1
  6
CONTINUOUS
 62
       3
100
AcDbLine
 10
33.04591951
 20
16.18159834
 30
0.0
 11
33.08881587
 21
16.26687731
 31
0.0
  0
LINE
  5
25C
100
AcDbEntity
  8
レイヤー_1
  6
CONTINUOUS
 62
       3
100
AcDbLine
 10
33.08881587
 20
16.26687731
 30
0.0
 11
33.123578
 21
16.35657496
 31
0.0
  0
LINE
  5
25D
100
AcDbEntity
  8
レイヤー_1
  6
CONTINUOUS
 62
       3
100
AcDbLine
 10
33.123578
 20
16.35657496
 30
0.0
 11
33.14972546
 21
16.45021151
 31
0.0
  0
LINE
  5
25E
100
AcDbEntity
  8
レイヤー_1
  6
CONTINUOUS
 62
       3
100
AcDbLine
 10
33.14972546
 20
16.45021151
 30
0.0
 11
33.16677785
 21
16.5473072
 31
0.0
  0
LINE
  5
25F
100
AcDbEntity
  8
レイヤー_1
  6
CONTINUOUS
 62
       3
100
AcDbLine
 10
33.16677785
 20
16.5473072
 30
0.0
 11
33.17425474
 21
16.64738223
 31
0.0
  0
LINE
  5
260
100
AcDbEntity
  8
レイヤー_1
  6
CONTINUOUS
 62
       3
100
AcDbLine
 10
33.17425474
 20
16.64738223
 30
0.0
 11
33.17174326
 21
16.74858651
 31
0.0
  0
LINE
  5
261
100
AcDbEntity
  8
レイヤー_1
  6
CONTINUOUS
 62
       3
100
AcDbLine
 10
33.17174326
 20
16.74858651
 30
0.0
 11
33.15941857
 21
16.8471897
 31
0.0
  0
LINE
  5
262
100
AcDbEntity
  8
レイヤー_1
  6
CONTINUOUS
 62
       3
100
AcDbLine
 10
33.15941857
 20
16.8471897
 30
0.0
 11
33.13775859
 21
16.94257422
 31
0.0
  0
LINE
  5
263
100
AcDbEntity
  8
レイヤー_1
  6
CONTINUOUS
 62
       3
100
AcDbLine
 10
33.13775859
 20
16.94257422
 30
0.0
 11
33.10724374
 21
17.0342606
 31
0.0
  0
LINE
  5
264
100
AcDbEntity
  8
レイヤー_1
  6
CONTINUOUS
 62
       3
100
AcDbLine
 10
33.10724374
 20
17.0342606
 30
0.0
 11
33.06835444
 21
17.12176939
 31
0.0
  0
LINE
  5
265
100
AcDbEntity
  8
レイヤー_1
  6
CONTINUOUS
 62
       3
100
AcDbLine
 10
33.06835444
 20
17.12176939
 30
0.0
 11
33.02157111
 21
17.20462114
 31
0.0
  0
LINE
  5
266
100
AcDbEntity
  8
レイヤー_1
  6
CONTINUOUS
 62
       3
100
AcDbLine
 10
33.02157111
 20
17.20462114
 30
0.0
 11
32.96737418
 21
17.28233638
 31
0.0
  0
LINE
  5
267
100
AcDbEntity
  8
レイヤー_1
  6
CONTINUOUS
 62
       3
100
AcDbLine
 10
32.96737418
 20
17.28233638
 30
0.0
 11
32.90624406
 21
17.35443566
 31
0.0
  0
LINE
  5
268
100
AcDbEntity
  8
レイヤー_1
  6
CONTINUOUS
 62
       3
100
AcDbLine
 10
32.90624406
 20
17.35443566
 30
0.0
 11
32.83866117
 21
17.42043951
 31
0.0
  0
LINE
  5
269
100
AcDbEntity
  8
レイヤー_1
  6
CONTINUOUS
 62
       3
100
AcDbLine
 10
32.83866117
 20
17.42043951
 30
0.0
 11
32.76510594
 21
17.47986849
 31
0.0
  0
LINE
  5
26A
100
AcDbEntity
  8
レイヤー_1
  6
CONTINUOUS
 62
       3
100
AcDbLine
 10
32.76510594
 20
17.47986849
 30
0.0
 11
32.68605879
 21
17.53224313
 31
0.0
  0
LINE
  5
26B
100
AcDbEntity
  8
レイヤー_1
  6
CONTINUOUS
 62
       3
100
AcDbLine
 10
32.68605879
 20
17.53224313
 30
0.0
 11
32.60200013
 21
17.57708398
 31
0.0
  0
LINE
  5
26C
100
AcDbEntity
  8
レイヤー_1
  6
CONTINUOUS
 62
       3
100
AcDbLine
 10
32.60200013
 20
17.57708398
 30
0.0
 11
32.51341039
 21
17.61391158
 31
0.0
  0
LINE
  5
26D
100
AcDbEntity
  8
レイヤー_1
  6
CONTINUOUS
 62
       3
100
AcDbLine
 10
32.51341039
 20
17.61391158
 30
0.0
 11
32.42076999
 21
17.64224647
 31
0.0
  0
LINE
  5
26E
100
AcDbEntity
  8
レイヤー_1
  6
CONTINUOUS
 62
       3
100
AcDbLine
 10
32.42076999
 20
17.64224647
 30
0.0
 11
32.32455934
 21
17.6616092
 31
0.0
  0
LINE
  5
26F
100
AcDbEntity
  8
レイヤー_1
  6
CONTINUOUS
 62
       3
100
AcDbLine
 10
32.32455934
 20
17.6616092
 30
0.0
 11
32.22525888
 21
17.6715203
 31
0.0
  0
LINE
  5
270
100
AcDbEntity
  8
レイヤー_1
  6
CONTINUOUS
 62
       3
100
AcDbLine
 10
32.22525888
 20
17.6715203
 30
0.0
 11
32.12390149
 21
17.6715203
 31
0.0
  0
LINE
  5
271
100
AcDbEntity
  8
レイヤー_1
  6
CONTINUOUS
 62
       3
100
AcDbLine
 10
32.12390149
 20
17.6715203
 30
0.0
 11
32.02453606
 21
17.6616092
 31
0.0
  0
LINE
  5
272
100
AcDbEntity
  8
レイヤー_1
  6
CONTINUOUS
 62
       3
100
AcDbLine
 10
32.02453606
 20
17.6616092
 30
0.0
 11
31.92827843
 21
17.64224647
 31
0.0
  0
LINE
  5
273
100
AcDbEntity
  8
レイヤー_1
  6
CONTINUOUS
 62
       3
100
AcDbLine
 10
31.92827843
 20
17.64224647
 30
0.0
 11
31.8356071
 21
17.61391158
 31
0.0
  0
LINE
  5
274
100
AcDbEntity
  8
レイヤー_1
  6
CONTINUOUS
 62
       3
100
AcDbLine
 10
31.8356071
 20
17.61391158
 30
0.0
 11
31.74700056
 21
17.57708398
 31
0.0
  0
LINE
  5
275
100
AcDbEntity
  8
レイヤー_1
  6
CONTINUOUS
 62
       3
100
AcDbLine
 10
31.74700056
 20
17.57708398
 30
0.0
 11
31.66293731
 21
17.53224313
 31
0.0
  0
LINE
  5
276
100
AcDbEntity
  8
レイヤー_1
  6
CONTINUOUS
 62
       3
100
AcDbLine
 10
31.66293731
 20
17.53224313
 30
0.0
 11
31.58389583
 21
17.47986849
 31
0.0
  0
LINE
  5
277
100
AcDbEntity
  8
レイヤー_1
  6
CONTINUOUS
 62
       3
100
AcDbLine
 10
31.58389583
 20
17.47986849
 30
0.0
 11
31.51035463
 21
17.42043951
 31
0.0
  0
LINE
  5
278
100
AcDbEntity
  8
レイヤー_1
  6
CONTINUOUS
 62
       3
100
AcDbLine
 10
31.51035463
 20
17.42043951
 30
0.0
 11
31.4427922
 21
17.35443566
 31
0.0
  0
LINE
  5
279
100
AcDbEntity
  8
レイヤー_1
  6
CONTINUOUS
 62
       3
100
AcDbLine
 10
31.4427922
 20
17.35443566
 30
0.0
 11
31.38168702
 21
17.28233638
 31
0.0
  0
LINE
  5
27A
100
AcDbEntity
  8
レイヤー_1
  6
CONTINUOUS
 62
       3
100
AcDbLine
 10
31.38168702
 20
17.28233638
 30
0.0
 11
31.32751761
 21
17.20462114
 31
0.0
  0
LINE
  5
27B
100
AcDbEntity
  8
レイヤー_1
  6
CONTINUOUS
 62
       3
100
AcDbLine
 10
31.32751761
 20
17.20462114
 30
0.0
 11
31.28076244
 21
17.12176939
 31
0.0
  0
LINE
  5
27C
100
AcDbEntity
  8
レイヤー_1
  6
CONTINUOUS
 62
       3
100
AcDbLine
 10
31.28076244
 20
17.12176939
 30
0.0
 11
31.24190001
 21
17.0342606
 31
0.0
  0
LINE
  5
27D
100
AcDbEntity
  8
レイヤー_1
  6
CONTINUOUS
 62
       3
100
AcDbLine
 10
31.24190001
 20
17.0342606
 30
0.0
 11
31.21140883
 21
16.94257422
 31
0.0
  0
LINE
  5
27E
100
AcDbEntity
  8
レイヤー_1
  6
CONTINUOUS
 62
       3
100
AcDbLine
 10
31.21140883
 20
16.94257422
 30
0.0
 11
31.18976738
 21
16.8471897
 31
0.0
  0
LINE
  5
27F
100
AcDbEntity
  8
レイヤー_1
  6
CONTINUOUS
 62
       3
100
AcDbLine
 10
31.18976738
 20
16.8471897
 30
0.0
 11
31.17745415
 21
16.74858651
 31
0.0
  0
LINE
  5
280
100
AcDbEntity
  8
レイヤー_1
  6
CONTINUOUS
 62
       3
100
AcDbLine
 10
31.17745415
 20
16.74858651
 30
0.0
 11
31.17494515
 21
16.64738223
 31
0.0
  0
LINE
  5
281
100
AcDbEntity
  8
レイヤー_1
  6
CONTINUOUS
 62
       3
100
AcDbLine
 10
31.17494515
 20
16.64738223
 30
0.0
 11
31.18241483
 21
16.5473072
 31
0.0
  0
LINE
  5
282
100
AcDbEntity
  8
レイヤー_1
  6
CONTINUOUS
 62
       3
100
AcDbLine
 10
31.18241483
 20
16.5473072
 30
0.0
 11
31.19945198
 21
16.45021151
 31
0.0
  0
LINE
  5
283
100
AcDbEntity
  8
レイヤー_1
  6
CONTINUOUS
 62
       3
100
AcDbLine
 10
31.19945198
 20
16.45021151
 30
0.0
 11
31.22557811
 21
16.35657496
 31
0.0
  0
LINE
  5
284
100
AcDbEntity
  8
レイヤー_1
  6
CONTINUOUS
 62
       3
100
AcDbLine
 10
31.22557811
 20
16.35657496
 30
0.0
 11
31.26031473
 21
16.26687731
 31
0.0
  0
LINE
  5
285
100
AcDbEntity
  8
レイヤー_1
  6
CONTINUOUS
 62
       3
100
AcDbLine
 10
31.26031473
 20
16.26687731
 30
0.0
 11
31.30318333
 21
16.18159834
 31
0.0
  0
LINE
  5
286
100
AcDbEntity
  8
レイヤー_1
  6
CONTINUOUS
 62
       3
100
AcDbLine
 10
31.30318333
 20
16.18159834
 30
0.0
 11
31.35370544
 21
16.10121784
 31
0.0
  0
LINE
  5
287
100
AcDbEntity
  8
レイヤー_1
  6
CONTINUOUS
 62
       3
100
AcDbLine
 10
31.35370544
 20
16.10121784
 30
0.0
 11
31.41140255
 21
16.02621558
 31
0.0
  0
LINE
  5
288
100
AcDbEntity
  8
レイヤー_1
  6
CONTINUOUS
 62
       3
100
AcDbLine
 10
31.41140255
 20
16.02621558
 30
0.0
 11
31.47579616
 21
15.95707134
 31
0.0
  0
LINE
  5
289
100
AcDbEntity
  8
レイヤー_1
  6
CONTINUOUS
 62
       3
100
AcDbLine
 10
31.47579616
 20
15.95707134
 30
0.0
 11
31.54640779
 21
15.8942649
 31
0.0
  0
LINE
  5
28A
100
AcDbEntity
  8
レイヤー_1
  6
CONTINUOUS
 62
       3
100
AcDbLine
 10
31.54640779
 20
15.8942649
 30
0.0
 11
31.62275894
 21
15.83827603
 31
0.0
  0
LINE
  5
28B
100
AcDbEntity
  8
レイヤー_1
  6
CONTINUOUS
 62
       3
100
AcDbLine
 10
31.62275894
 20
15.83827603
 30
0.0
 11
31.70437112
 21
15.78958452
 31
0.0
  0
LINE
  5
28C
100
AcDbEntity
  8
レイヤー_1
  6
CONTINUOUS
 62
       3
100
AcDbLine
 10
31.70437112
 20
15.78958452
 30
0.0
 11
31.79076583
 21
15.74867015
 31
0.0
  0
LINE
  5
28D
100
AcDbEntity
  8
レイヤー_1
  6
CONTINUOUS
 62
       3
100
AcDbLine
 10
31.79076583
 20
15.74867015
 30
0.0
 11
31.88146457
 21
15.71601269
 31
0.0
  0
LINE
  5
28E
100
AcDbEntity
  8
レイヤー_1
  6
CONTINUOUS
 62
       3
100
AcDbLine
 10
31.88146457
 20
15.71601269
 30
0.0
 11
31.97598886
 21
15.69209192
 31
0.0
  0
LINE
  5
28F
100
AcDbEntity
  8
レイヤー_1
  6
CONTINUOUS
 62
       3
100
AcDbLine
 10
31.97598886
 20
15.69209192
 30
0.0
 11
32.07386021
 21
15.67738762
 31
0.0
  0
LINE
  5
290
100
AcDbEntity
  8
レイヤー_1
  6
CONTINUOUS
 62
       3
100
AcDbLine
 10
32.07386021
 20
15.67738762
 30
0.0
 11
32.1746001
 21
15.67237956
 31
0.0
  0
LINE
  5
291
100
AcDbEntity
  8
レイヤー_1
  6
CONTINUOUS
 62
       3
100
AcDbLine
 10
37.42387569
 20
1.6714022
 30
0.0
 11
37.54982299
 21
1.67766093
 31
0.0
  0
LINE
  5
292
100
AcDbEntity
  8
レイヤー_1
  6
CONTINUOUS
 62
       3
100
AcDbLine
 10
37.54982299
 20
1.67766093
 30
0.0
 11
37.67218672
 21
1.69603721
 31
0.0
  0
LINE
  5
293
100
AcDbEntity
  8
レイヤー_1
  6
CONTINUOUS
 62
       3
100
AcDbLine
 10
37.67218672
 20
1.69603721
 30
0.0
 11
37.79036828
 21
1.72593114
 31
0.0
  0
LINE
  5
294
100
AcDbEntity
  8
レイヤー_1
  6
CONTINUOUS
 62
       3
100
AcDbLine
 10
37.79036828
 20
1.72593114
 30
0.0
 11
37.90376908
 21
1.76674284
 31
0.0
  0
LINE
  5
295
100
AcDbEntity
  8
レイヤー_1
  6
CONTINUOUS
 62
       3
100
AcDbLine
 10
37.90376908
 20
1.76674284
 30
0.0
 11
38.01179051
 21
1.81787244
 31
0.0
  0
LINE
  5
296
100
AcDbEntity
  8
レイヤー_1
  6
CONTINUOUS
 62
       3
100
AcDbLine
 10
38.01179051
 20
1.81787244
 30
0.0
 11
38.11383397
 21
1.87872004
 31
0.0
  0
LINE
  5
297
100
AcDbEntity
  8
レイヤー_1
  6
CONTINUOUS
 62
       3
100
AcDbLine
 10
38.11383397
 20
1.87872004
 30
0.0
 11
38.20930087
 21
1.94868576
 31
0.0
  0
LINE
  5
298
100
AcDbEntity
  8
レイヤー_1
  6
CONTINUOUS
 62
       3
100
AcDbLine
 10
38.20930087
 20
1.94868576
 30
0.0
 11
38.29759261
 21
2.02716972
 31
0.0
  0
LINE
  5
299
100
AcDbEntity
  8
レイヤー_1
  6
CONTINUOUS
 62
       3
100
AcDbLine
 10
38.29759261
 20
2.02716972
 30
0.0
 11
38.37811059
 21
2.11357204
 31
0.0
  0
LINE
  5
29A
100
AcDbEntity
  8
レイヤー_1
  6
CONTINUOUS
 62
       3
100
AcDbLine
 10
38.37811059
 20
2.11357204
 30
0.0
 11
38.4502562
 21
2.20729282
 31
0.0
  0
LINE
  5
29B
100
AcDbEntity
  8
レイヤー_1
  6
CONTINUOUS
 62
       3
100
AcDbLine
 10
38.4502562
 20
2.20729282
 30
0.0
 11
38.51343086
 21
2.3077322
 31
0.0
  0
LINE
  5
29C
100
AcDbEntity
  8
レイヤー_1
  6
CONTINUOUS
 62
       3
100
AcDbLine
 10
38.51343086
 20
2.3077322
 30
0.0
 11
38.56703595
 21
2.41429027
 31
0.0
  0
LINE
  5
29D
100
AcDbEntity
  8
レイヤー_1
  6
CONTINUOUS
 62
       3
100
AcDbLine
 10
38.56703595
 20
2.41429027
 30
0.0
 11
38.61047288
 21
2.52636717
 31
0.0
  0
LINE
  5
29E
100
AcDbEntity
  8
レイヤー_1
  6
CONTINUOUS
 62
       3
100
AcDbLine
 10
38.61047288
 20
2.52636717
 30
0.0
 11
38.64314305
 21
2.643363
 31
0.0
  0
LINE
  5
29F
100
AcDbEntity
  8
レイヤー_1
  6
CONTINUOUS
 62
       3
100
AcDbLine
 10
38.64314305
 20
2.643363
 30
0.0
 11
38.66444787
 21
2.76467788
 31
0.0
  0
LINE
  5
2A0
100
AcDbEntity
  8
レイヤー_1
  6
CONTINUOUS
 62
       3
100
AcDbLine
 10
38.66444787
 20
2.76467788
 30
0.0
 11
38.67378873
 21
2.88971193
 31
0.0
  0
LINE
  5
2A1
100
AcDbEntity
  8
レイヤー_1
  6
CONTINUOUS
 62
       3
100
AcDbLine
 10
38.67378873
 20
2.88971193
 30
0.0
 11
38.67065121
 21
3.01616467
 31
0.0
  0
LINE
  5
2A2
100
AcDbEntity
  8
レイヤー_1
  6
CONTINUOUS
 62
       3
100
AcDbLine
 10
38.67065121
 20
3.01616467
 30
0.0
 11
38.65525354
 21
3.13937798
 31
0.0
  0
LINE
  5
2A3
100
AcDbEntity
  8
レイヤー_1
  6
CONTINUOUS
 62
       3
100
AcDbLine
 10
38.65525354
 20
3.13937798
 30
0.0
 11
38.62819122
 21
3.25857683
 31
0.0
  0
LINE
  5
2A4
100
AcDbEntity
  8
レイヤー_1
  6
CONTINUOUS
 62
       3
100
AcDbLine
 10
38.62819122
 20
3.25857683
 30
0.0
 11
38.59006285
 21
3.37316103
 31
0.0
  0
LINE
  5
2A5
100
AcDbEntity
  8
レイヤー_1
  6
CONTINUOUS
 62
       3
100
AcDbLine
 10
38.59006285
 20
3.37316103
 30
0.0
 11
38.54146701
 21
3.48253037
 31
0.0
  0
LINE
  5
2A6
100
AcDbEntity
  8
レイヤー_1
  6
CONTINUOUS
 62
       3
100
AcDbLine
 10
38.54146701
 20
3.48253037
 30
0.0
 11
38.48300231
 21
3.58608464
 31
0.0
  0
LINE
  5
2A7
100
AcDbEntity
  8
レイヤー_1
  6
CONTINUOUS
 62
       3
100
AcDbLine
 10
38.48300231
 20
3.58608464
 30
0.0
 11
38.41526735
 21
3.68322363
 31
0.0
  0
LINE
  5
2A8
100
AcDbEntity
  8
レイヤー_1
  6
CONTINUOUS
 62
       3
100
AcDbLine
 10
38.41526735
 20
3.68322363
 30
0.0
 11
38.33886073
 21
3.77334715
 31
0.0
  0
LINE
  5
2A9
100
AcDbEntity
  8
レイヤー_1
  6
CONTINUOUS
 62
       3
100
AcDbLine
 10
38.33886073
 20
3.77334715
 30
0.0
 11
38.25438105
 21
3.85585498
 31
0.0
  0
LINE
  5
2AA
100
AcDbEntity
  8
レイヤー_1
  6
CONTINUOUS
 62
       3
100
AcDbLine
 10
38.25438105
 20
3.85585498
 30
0.0
 11
38.16242691
 21
3.93014693
 31
0.0
  0
LINE
  5
2AB
100
AcDbEntity
  8
レイヤー_1
  6
CONTINUOUS
 62
       3
100
AcDbLine
 10
38.16242691
 20
3.93014693
 30
0.0
 11
38.0635969
 21
3.99562278
 31
0.0
  0
LINE
  5
2AC
100
AcDbEntity
  8
レイヤー_1
  6
CONTINUOUS
 62
       3
100
AcDbLine
 10
38.0635969
 20
3.99562278
 30
0.0
 11
37.95848962
 21
4.05168234
 31
0.0
  0
LINE
  5
2AD
100
AcDbEntity
  8
レイヤー_1
  6
CONTINUOUS
 62
       3
100
AcDbLine
 10
37.95848962
 20
4.05168234
 30
0.0
 11
37.84770369
 21
4.09772539
 31
0.0
  0
LINE
  5
2AE
100
AcDbEntity
  8
レイヤー_1
  6
CONTINUOUS
 62
       3
100
AcDbLine
 10
37.84770369
 20
4.09772539
 30
0.0
 11
37.73183768
 21
4.13315174
 31
0.0
  0
LINE
  5
2AF
100
AcDbEntity
  8
レイヤー_1
  6
CONTINUOUS
 62
       3
100
AcDbLine
 10
37.73183768
 20
4.13315174
 30
0.0
 11
37.61149021
 21
4.15736117
 31
0.0
  0
LINE
  5
2B0
100
AcDbEntity
  8
レイヤー_1
  6
CONTINUOUS
 62
       3
100
AcDbLine
 10
37.61149021
 20
4.15736117
 30
0.0
 11
37.48725988
 21
4.16975348
 31
0.0
  0
LINE
  5
2B1
100
AcDbEntity
  8
レイヤー_1
  6
CONTINUOUS
 62
       3
100
AcDbLine
 10
37.48725988
 20
4.16975348
 30
0.0
 11
37.3605339
 21
4.16975348
 31
0.0
  0
LINE
  5
2B2
100
AcDbEntity
  8
レイヤー_1
  6
CONTINUOUS
 62
       3
100
AcDbLine
 10
37.3605339
 20
4.16975348
 30
0.0
 11
37.23638802
 21
4.15736117
 31
0.0
  0
LINE
  5
2B3
100
AcDbEntity
  8
レイヤー_1
  6
CONTINUOUS
 62
       3
100
AcDbLine
 10
37.23638802
 20
4.15736117
 30
0.0
 11
37.11612403
 21
4.13315174
 31
0.0
  0
LINE
  5
2B4
100
AcDbEntity
  8
レイヤー_1
  6
CONTINUOUS
 62
       3
100
AcDbLine
 10
37.11612403
 20
4.13315174
 30
0.0
 11
37.00033991
 21
4.09772539
 31
0.0
  0
LINE
  5
2B5
100
AcDbEntity
  8
レイヤー_1
  6
CONTINUOUS
 62
       3
100
AcDbLine
 10
37.00033991
 20
4.09772539
 30
0.0
 11
36.88963361
 21
4.05168234
 31
0.0
  0
LINE
  5
2B6
100
AcDbEntity
  8
レイヤー_1
  6
CONTINUOUS
 62
       3
100
AcDbLine
 10
36.88963361
 20
4.05168234
 30
0.0
 11
36.78460308
 21
3.99562278
 31
0.0
  0
LINE
  5
2B7
100
AcDbEntity
  8
レイヤー_1
  6
CONTINUOUS
 62
       3
100
AcDbLine
 10
36.78460308
 20
3.99562278
 30
0.0
 11
36.68584629
 21
3.93014693
 31
0.0
  0
LINE
  5
2B8
100
AcDbEntity
  8
レイヤー_1
  6
CONTINUOUS
 62
       3
100
AcDbLine
 10
36.68584629
 20
3.93014693
 30
0.0
 11
36.59396118
 21
3.85585498
 31
0.0
  0
LINE
  5
2B9
100
AcDbEntity
  8
レイヤー_1
  6
CONTINUOUS
 62
       3
100
AcDbLine
 10
36.59396118
 20
3.85585498
 30
0.0
 11
36.50954572
 21
3.77334715
 31
0.0
  0
LINE
  5
2BA
100
AcDbEntity
  8
レイヤー_1
  6
CONTINUOUS
 62
       3
100
AcDbLine
 10
36.50954572
 20
3.77334715
 30
0.0
 11
36.43319786
 21
3.68322363
 31
0.0
  0
LINE
  5
2BB
100
AcDbEntity
  8
レイヤー_1
  6
CONTINUOUS
 62
       3
100
AcDbLine
 10
36.43319786
 20
3.68322363
 30
0.0
 11
36.36551556
 21
3.58608464
 31
0.0
  0
LINE
  5
2BC
100
AcDbEntity
  8
レイヤー_1
  6
CONTINUOUS
 62
       3
100
AcDbLine
 10
36.36551556
 20
3.58608464
 30
0.0
 11
36.30709678
 21
3.48253037
 31
0.0
  0
LINE
  5
2BD
100
AcDbEntity
  8
レイヤー_1
  6
CONTINUOUS
 62
       3
100
AcDbLine
 10
36.30709678
 20
3.48253037
 30
0.0
 11
36.25853947
 21
3.37316103
 31
0.0
  0
LINE
  5
2BE
100
AcDbEntity
  8
レイヤー_1
  6
CONTINUOUS
 62
       3
100
AcDbLine
 10
36.25853947
 20
3.37316103
 30
0.0
 11
36.2204416
 21
3.25857683
 31
0.0
  0
LINE
  5
2BF
100
AcDbEntity
  8
レイヤー_1
  6
CONTINUOUS
 62
       3
100
AcDbLine
 10
36.2204416
 20
3.25857683
 30
0.0
 11
36.19340111
 21
3.13937798
 31
0.0
  0
LINE
  5
2C0
100
AcDbEntity
  8
レイヤー_1
  6
CONTINUOUS
 62
       3
100
AcDbLine
 10
36.19340111
 20
3.13937798
 30
0.0
 11
36.17801596
 21
3.01616467
 31
0.0
  0
LINE
  5
2C1
100
AcDbEntity
  8
レイヤー_1
  6
CONTINUOUS
 62
       3
100
AcDbLine
 10
36.17801596
 20
3.01616467
 30
0.0
 11
36.17488101
 21
2.88971193
 31
0.0
  0
LINE
  5
2C2
100
AcDbEntity
  8
レイヤー_1
  6
CONTINUOUS
 62
       3
100
AcDbLine
 10
36.17488101
 20
2.88971193
 30
0.0
 11
36.18421424
 21
2.76467788
 31
0.0
  0
LINE
  5
2C3
100
AcDbEntity
  8
レイヤー_1
  6
CONTINUOUS
 62
       3
100
AcDbLine
 10
36.18421424
 20
2.76467788
 30
0.0
 11
36.20550181
 21
2.643363
 31
0.0
  0
LINE
  5
2C4
100
AcDbEntity
  8
レイヤー_1
  6
CONTINUOUS
 62
       3
100
AcDbLine
 10
36.20550181
 20
2.643363
 30
0.0
 11
36.23814573
 21
2.52636717
 31
0.0
  0
LINE
  5
2C5
100
AcDbEntity
  8
レイヤー_1
  6
CONTINUOUS
 62
       3
100
AcDbLine
 10
36.23814573
 20
2.52636717
 30
0.0
 11
36.28154807
 21
2.41429027
 31
0.0
  0
LINE
  5
2C6
100
AcDbEntity
  8
レイヤー_1
  6
CONTINUOUS
 62
       3
100
AcDbLine
 10
36.28154807
 20
2.41429027
 30
0.0
 11
36.33511086
 21
2.3077322
 31
0.0
  0
LINE
  5
2C7
100
AcDbEntity
  8
レイヤー_1
  6
CONTINUOUS
 62
       3
100
AcDbLine
 10
36.33511086
 20
2.3077322
 30
0.0
 11
36.39823614
 21
2.20729282
 31
0.0
  0
LINE
  5
2C8
100
AcDbEntity
  8
レイヤー_1
  6
CONTINUOUS
 62
       3
100
AcDbLine
 10
36.39823614
 20
2.20729282
 30
0.0
 11
36.47032597
 21
2.11357204
 31
0.0
  0
LINE
  5
2C9
100
AcDbEntity
  8
レイヤー_1
  6
CONTINUOUS
 62
       3
100
AcDbLine
 10
36.47032597
 20
2.11357204
 30
0.0
 11
36.55078237
 21
2.02716972
 31
0.0
  0
LINE
  5
2CA
100
AcDbEntity
  8
レイヤー_1
  6
CONTINUOUS
 62
       3
100
AcDbLine
 10
36.55078237
 20
2.02716972
 30
0.0
 11
36.6390074
 21
1.94868576
 31
0.0
  0
LINE
  5
2CB
100
AcDbEntity
  8
レイヤー_1
  6
CONTINUOUS
 62
       3
100
AcDbLine
 10
36.6390074
 20
1.94868576
 30
0.0
 11
36.7344031
 21
1.87872004
 31
0.0
  0
LINE
  5
2CC
100
AcDbEntity
  8
レイヤー_1
  6
CONTINUOUS
 62
       3
100
AcDbLine
 10
36.7344031
 20
1.87872004
 30
0.0
 11
36.8363715
 21
1.81787244
 31
0.0
  0
LINE
  5
2CD
100
AcDbEntity
  8
レイヤー_1
  6
CONTINUOUS
 62
       3
100
AcDbLine
 10
36.8363715
 20
1.81787244
 30
0.0
 11
36.94431466
 21
1.76674284
 31
0.0
  0
LINE
  5
2CE
100
AcDbEntity
  8
レイヤー_1
  6
CONTINUOUS
 62
       3
100
AcDbLine
 10
36.94431466
 20
1.76674284
 30
0.0
 11
37.05763462
 21
1.72593114
 31
0.0
  0
LINE
  5
2CF
100
AcDbEntity
  8
レイヤー_1
  6
CONTINUOUS
 62
       3
100
AcDbLine
 10
37.05763462
 20
1.72593114
 30
0.0
 11
37.17573341
 21
1.69603721
 31
0.0
  0
LINE
  5
2D0
100
AcDbEntity
  8
レイヤー_1
  6
CONTINUOUS
 62
       3
100
AcDbLine
 10
37.17573341
 20
1.69603721
 30
0.0
 11
37.29801309
 21
1.67766093
 31
0.0
  0
LINE
  5
2D1
100
AcDbEntity
  8
レイヤー_1
  6
CONTINUOUS
 62
       3
100
AcDbLine
 10
37.29801309
 20
1.67766093
 30
0.0
 11
37.42387569
 21
1.6714022
 31
0.0
  0
LINE
  5
2D2
100
AcDbEntity
  8
レイヤー_1
  6
CONTINUOUS
 62
       3
100
AcDbLine
 10
37.42387569
 20
0.42109347
 30
0.0
 11
37.67561591
 21
0.43361099
 31
0.0
  0
LINE
  5
2D3
100
AcDbEntity
  8
レイヤー_1
  6
CONTINUOUS
 62
       3
100
AcDbLine
 10
37.67561591
 20
0.43361099
 30
0.0
 11
37.92021774
 21
0.47036391
 31
0.0
  0
LINE
  5
2D4
100
AcDbEntity
  8
レイヤー_1
  6
CONTINUOUS
 62
       3
100
AcDbLine
 10
37.92021774
 20
0.47036391
 30
0.0
 11
38.1564814
 21
0.53015279
 31
0.0
  0
LINE
  5
2D5
100
AcDbEntity
  8
レイヤー_1
  6
CONTINUOUS
 62
       3
100
AcDbLine
 10
38.1564814
 20
0.53015279
 30
0.0
 11
38.38320714
 21
0.61177818
 31
0.0
  0
LINE
  5
2D6
100
AcDbEntity
  8
レイヤー_1
  6
CONTINUOUS
 62
       3
100
AcDbLine
 10
38.38320714
 20
0.61177818
 30
0.0
 11
38.59919518
 21
0.71404063
 31
0.0
  0
LINE
  5
2D7
100
AcDbEntity
  8
レイヤー_1
  6
CONTINUOUS
 62
       3
100
AcDbLine
 10
38.59919518
 20
0.71404063
 30
0.0
 11
38.80324576
 21
0.8357407
 31
0.0
  0
LINE
  5
2D8
100
AcDbEntity
  8
レイヤー_1
  6
CONTINUOUS
 62
       3
100
AcDbLine
 10
38.80324576
 20
0.8357407
 30
0.0
 11
38.9941591
 21
0.97567895
 31
0.0
  0
LINE
  5
2D9
100
AcDbEntity
  8
レイヤー_1
  6
CONTINUOUS
 62
       3
100
AcDbLine
 10
38.9941591
 20
0.97567895
 30
0.0
 11
39.17073544
 21
1.13265592
 31
0.0
  0
LINE
  5
2DA
100
AcDbEntity
  8
レイヤー_1
  6
CONTINUOUS
 62
       3
100
AcDbLine
 10
39.17073544
 20
1.13265592
 30
0.0
 11
39.33177502
 21
1.30547216
 31
0.0
  0
LINE
  5
2DB
100
AcDbEntity
  8
レイヤー_1
  6
CONTINUOUS
 62
       3
100
AcDbLine
 10
39.33177502
 20
1.30547216
 30
0.0
 11
39.47607807
 21
1.49292824
 31
0.0
  0
LINE
  5
2DC
100
AcDbEntity
  8
レイヤー_1
  6
CONTINUOUS
 62
       3
100
AcDbLine
 10
39.47607807
 20
1.49292824
 30
0.0
 11
39.60244481
 21
1.6938247
 31
0.0
  0
LINE
  5
2DD
100
AcDbEntity
  8
レイヤー_1
  6
CONTINUOUS
 62
       3
100
AcDbLine
 10
39.60244481
 20
1.6938247
 30
0.0
 11
39.70967548
 21
1.9069621
 31
0.0
  0
LINE
  5
2DE
100
AcDbEntity
  8
レイヤー_1
  6
CONTINUOUS
 62
       3
100
AcDbLine
 10
39.70967548
 20
1.9069621
 30
0.0
 11
39.79657031
 21
2.131141
 31
0.0
  0
LINE
  5
2DF
100
AcDbEntity
  8
レイヤー_1
  6
CONTINUOUS
 62
       3
100
AcDbLine
 10
39.79657031
 20
2.131141
 30
0.0
 11
39.86192954
 21
2.36516193
 31
0.0
  0
LINE
  5
2E0
100
AcDbEntity
  8
レイヤー_1
  6
CONTINUOUS
 62
       3
100
AcDbLine
 10
39.86192954
 20
2.36516193
 30
0.0
 11
39.90455339
 21
2.60782547
 31
0.0
  0
LINE
  5
2E1
100
AcDbEntity
  8
レイヤー_1
  6
CONTINUOUS
 62
       3
100
AcDbLine
 10
39.90455339
 20
2.60782547
 30
0.0
 11
39.9232421
 21
2.85793216
 31
0.0
  0
LINE
  5
2E2
100
AcDbEntity
  8
レイヤー_1
  6
CONTINUOUS
 62
       3
100
AcDbLine
 10
39.9232421
 20
2.85793216
 30
0.0
 11
39.91696463
 21
3.11087843
 31
0.0
  0
LINE
  5
2E3
100
AcDbEntity
  8
レイヤー_1
  6
CONTINUOUS
 62
       3
100
AcDbLine
 10
39.91696463
 20
3.11087843
 30
0.0
 11
39.88615837
 21
3.35734119
 31
0.0
  0
LINE
  5
2E4
100
AcDbEntity
  8
レイヤー_1
  6
CONTINUOUS
 62
       3
100
AcDbLine
 10
39.88615837
 20
3.35734119
 30
0.0
 11
39.83201686
 21
3.59577039
 31
0.0
  0
LINE
  5
2E5
100
AcDbEntity
  8
レイヤー_1
  6
CONTINUOUS
 62
       3
100
AcDbLine
 10
39.83201686
 20
3.59577039
 30
0.0
 11
39.75573986
 21
3.82496594
 31
0.0
  0
LINE
  5
2E6
100
AcDbEntity
  8
レイヤー_1
  6
CONTINUOUS
 62
       3
100
AcDbLine
 10
39.75573986
 20
3.82496594
 30
0.0
 11
39.65852714
 21
4.04372774
 31
0.0
  0
LINE
  5
2E7
100
AcDbEntity
  8
レイヤー_1
  6
CONTINUOUS
 62
       3
100
AcDbLine
 10
39.65852714
 20
4.04372774
 30
0.0
 11
39.54157846
 21
4.25085572
 31
0.0
  0
LINE
  5
2E8
100
AcDbEntity
  8
レイヤー_1
  6
CONTINUOUS
 62
       3
100
AcDbLine
 10
39.54157846
 20
4.25085572
 30
0.0
 11
39.4060936
 21
4.44514978
 31
0.0
  0
LINE
  5
2E9
100
AcDbEntity
  8
レイヤー_1
  6
CONTINUOUS
 62
       3
100
AcDbLine
 10
39.4060936
 20
4.44514978
 30
0.0
 11
39.25327232
 21
4.62540983
 31
0.0
  0
LINE
  5
2EA
100
AcDbEntity
  8
レイヤー_1
  6
CONTINUOUS
 62
       3
100
AcDbLine
 10
39.25327232
 20
4.62540983
 30
0.0
 11
39.08431438
 21
4.79043579
 31
0.0
  0
LINE
  5
2EB
100
AcDbEntity
  8
レイヤー_1
  6
CONTINUOUS
 62
       3
100
AcDbLine
 10
39.08431438
 20
4.79043579
 30
0.0
 11
38.90041957
 21
4.93902757
 31
0.0
  0
LINE
  5
2EC
100
AcDbEntity
  8
レイヤー_1
  6
CONTINUOUS
 62
       3
100
AcDbLine
 10
38.90041957
 20
4.93902757
 30
0.0
 11
38.70278764
 21
5.06998507
 31
0.0
  0
LINE
  5
2ED
100
AcDbEntity
  8
レイヤー_1
  6
CONTINUOUS
 62
       3
100
AcDbLine
 10
38.70278764
 20
5.06998507
 30
0.0
 11
38.49261836
 21
5.18210821
 31
0.0
  0
LINE
  5
2EE
100
AcDbEntity
  8
レイヤー_1
  6
CONTINUOUS
 62
       3
100
AcDbLine
 10
38.49261836
 20
5.18210821
 30
0.0
 11
38.2711115
 21
5.27419689
 31
0.0
  0
LINE
  5
2EF
100
AcDbEntity
  8
レイヤー_1
  6
CONTINUOUS
 62
       3
100
AcDbLine
 10
38.2711115
 20
5.27419689
 30
0.0
 11
38.03946683
 21
5.34505104
 31
0.0
  0
LINE
  5
2F0
100
AcDbEntity
  8
レイヤー_1
  6
CONTINUOUS
 62
       3
100
AcDbLine
 10
38.03946683
 20
5.34505104
 30
0.0
 11
37.79888411
 21
5.39347056
 31
0.0
  0
LINE
  5
2F1
100
AcDbEntity
  8
レイヤー_1
  6
CONTINUOUS
 62
       3
100
AcDbLine
 10
37.79888411
 20
5.39347056
 30
0.0
 11
37.55056312
 21
5.41825536
 31
0.0
  0
LINE
  5
2F2
100
AcDbEntity
  8
レイヤー_1
  6
CONTINUOUS
 62
       3
100
AcDbLine
 10
37.55056312
 20
5.41825536
 30
0.0
 11
37.29722938
 21
5.41825536
 31
0.0
  0
LINE
  5
2F3
100
AcDbEntity
  8
レイヤー_1
  6
CONTINUOUS
 62
       3
100
AcDbLine
 10
37.29722938
 20
5.41825536
 30
0.0
 11
37.0489831
 21
5.39347056
 31
0.0
  0
LINE
  5
2F4
100
AcDbEntity
  8
レイヤー_1
  6
CONTINUOUS
 62
       3
100
AcDbLine
 10
37.0489831
 20
5.39347056
 30
0.0
 11
36.80846562
 21
5.34505104
 31
0.0
  0
LINE
  5
2F5
100
AcDbEntity
  8
レイヤー_1
  6
CONTINUOUS
 62
       3
100
AcDbLine
 10
36.80846562
 20
5.34505104
 30
0.0
 11
36.57687736
 21
5.27419689
 31
0.0
  0
LINE
  5
2F6
100
AcDbEntity
  8
レイヤー_1
  6
CONTINUOUS
 62
       3
100
AcDbLine
 10
36.57687736
 20
5.27419689
 30
0.0
 11
36.35541871
 21
5.18210821
 31
0.0
  0
LINE
  5
2F7
100
AcDbEntity
  8
レイヤー_1
  6
CONTINUOUS
 62
       3
100
AcDbLine
 10
36.35541871
 20
5.18210821
 30
0.0
 11
36.14529011
 21
5.06998507
 31
0.0
  0
LINE
  5
2F8
100
AcDbEntity
  8
レイヤー_1
  6
CONTINUOUS
 62
       3
100
AcDbLine
 10
36.14529011
 20
5.06998507
 30
0.0
 11
35.94769194
 21
4.93902757
 31
0.0
  0
LINE
  5
2F9
100
AcDbEntity
  8
レイヤー_1
  6
CONTINUOUS
 62
       3
100
AcDbLine
 10
35.94769194
 20
4.93902757
 30
0.0
 11
35.76382463
 21
4.79043579
 31
0.0
  0
LINE
  5
2FA
100
AcDbEntity
  8
レイヤー_1
  6
CONTINUOUS
 62
       3
100
AcDbLine
 10
35.76382463
 20
4.79043579
 30
0.0
 11
35.59488858
 21
4.62540983
 31
0.0
  0
LINE
  5
2FB
100
AcDbEntity
  8
レイヤー_1
  6
CONTINUOUS
 62
       3
100
AcDbLine
 10
35.59488858
 20
4.62540983
 30
0.0
 11
35.44208421
 21
4.44514978
 31
0.0
  0
LINE
  5
2FC
100
AcDbEntity
  8
レイヤー_1
  6
CONTINUOUS
 62
       3
100
AcDbLine
 10
35.44208421
 20
4.44514978
 30
0.0
 11
35.30661191
 21
4.25085572
 31
0.0
  0
LINE
  5
2FD
100
AcDbEntity
  8
レイヤー_1
  6
CONTINUOUS
 62
       3
100
AcDbLine
 10
35.30661191
 20
4.25085572
 30
0.0
 11
35.18967212
 21
4.04372774
 31
0.0
  0
LINE
  5
2FE
100
AcDbEntity
  8
レイヤー_1
  6
CONTINUOUS
 62
       3
100
AcDbLine
 10
35.18967212
 20
4.04372774
 30
0.0
 11
35.09246522
 21
3.82496594
 31
0.0
  0
LINE
  5
2FF
100
AcDbEntity
  8
レイヤー_1
  6
CONTINUOUS
 62
       3
100
AcDbLine
 10
35.09246522
 20
3.82496594
 30
0.0
 11
35.01619164
 21
3.59577039
 31
0.0
  0
LINE
  5
300
100
AcDbEntity
  8
レイヤー_1
  6
CONTINUOUS
 62
       3
100
AcDbLine
 10
35.01619164
 20
3.59577039
 30
0.0
 11
34.96205178
 21
3.35734119
 31
0.0
  0
LINE
  5
301
100
AcDbEntity
  8
レイヤー_1
  6
CONTINUOUS
 62
       3
100
AcDbLine
 10
34.96205178
 20
3.35734119
 30
0.0
 11
34.93124605
 21
3.11087843
 31
0.0
  0
LINE
  5
302
100
AcDbEntity
  8
レイヤー_1
  6
CONTINUOUS
 62
       3
100
AcDbLine
 10
34.93124605
 20
3.11087843
 30
0.0
 11
34.92496862
 21
2.85793216
 31
0.0
  0
LINE
  5
303
100
AcDbEntity
  8
レイヤー_1
  6
CONTINUOUS
 62
       3
100
AcDbLine
 10
34.92496862
 20
2.85793216
 30
0.0
 11
34.94365712
 21
2.60782547
 31
0.0
  0
LINE
  5
304
100
AcDbEntity
  8
レイヤー_1
  6
CONTINUOUS
 62
       3
100
AcDbLine
 10
34.94365712
 20
2.60782547
 30
0.0
 11
34.98627997
 21
2.36516193
 31
0.0
  0
LINE
  5
305
100
AcDbEntity
  8
レイヤー_1
  6
CONTINUOUS
 62
       3
100
AcDbLine
 10
34.98627997
 20
2.36516193
 30
0.0
 11
35.05163674
 21
2.131141
 31
0.0
  0
LINE
  5
306
100
AcDbEntity
  8
レイヤー_1
  6
CONTINUOUS
 62
       3
100
AcDbLine
 10
35.05163674
 20
2.131141
 30
0.0
 11
35.13852703
 21
1.9069621
 31
0.0
  0
LINE
  5
307
100
AcDbEntity
  8
レイヤー_1
  6
CONTINUOUS
 62
       3
100
AcDbLine
 10
35.13852703
 20
1.9069621
 30
0.0
 11
35.24575043
 21
1.6938247
 31
0.0
  0
LINE
  5
308
100
AcDbEntity
  8
レイヤー_1
  6
CONTINUOUS
 62
       3
100
AcDbLine
 10
35.24575043
 20
1.6938247
 30
0.0
 11
35.37210652
 21
1.49292824
 31
0.0
  0
LINE
  5
309
100
AcDbEntity
  8
レイヤー_1
  6
CONTINUOUS
 62
       3
100
AcDbLine
 10
35.37210652
 20
1.49292824
 30
0.0
 11
35.51639491
 21
1.30547216
 31
0.0
  0
LINE
  5
30A
100
AcDbEntity
  8
レイヤー_1
  6
CONTINUOUS
 62
       3
100
AcDbLine
 10
35.51639491
 20
1.30547216
 30
0.0
 11
35.67741517
 21
1.13265592
 31
0.0
  0
LINE
  5
30B
100
AcDbEntity
  8
レイヤー_1
  6
CONTINUOUS
 62
       3
100
AcDbLine
 10
35.67741517
 20
1.13265592
 30
0.0
 11
35.8539669
 21
0.97567895
 31
0.0
  0
LINE
  5
30C
100
AcDbEntity
  8
レイヤー_1
  6
CONTINUOUS
 62
       3
100
AcDbLine
 10
35.8539669
 20
0.97567895
 30
0.0
 11
36.04484969
 21
0.8357407
 31
0.0
  0
LINE
  5
30D
100
AcDbEntity
  8
レイヤー_1
  6
CONTINUOUS
 62
       3
100
AcDbLine
 10
36.04484969
 20
0.8357407
 30
0.0
 11
36.24886313
 21
0.71404063
 31
0.0
  0
LINE
  5
30E
100
AcDbEntity
  8
レイヤー_1
  6
CONTINUOUS
 62
       3
100
AcDbLine
 10
36.24886313
 20
0.71404063
 30
0.0
 11
36.46480681
 21
0.61177818
 31
0.0
  0
LINE
  5
30F
100
AcDbEntity
  8
レイヤー_1
  6
CONTINUOUS
 62
       3
100
AcDbLine
 10
36.46480681
 20
0.61177818
 30
0.0
 11
36.69148031
 21
0.53015279
 31
0.0
  0
LINE
  5
310
100
AcDbEntity
  8
レイヤー_1
  6
CONTINUOUS
 62
       3
100
AcDbLine
 10
36.69148031
 20
0.53015279
 30
0.0
 11
36.92768323
 21
0.47036391
 31
0.0
  0
LINE
  5
311
100
AcDbEntity
  8
レイヤー_1
  6
CONTINUOUS
 62
       3
100
AcDbLine
 10
36.92768323
 20
0.47036391
 30
0.0
 11
37.17221517
 21
0.43361099
 31
0.0
  0
LINE
  5
312
100
AcDbEntity
  8
レイヤー_1
  6
CONTINUOUS
 62
       3
100
AcDbLine
 10
37.17221517
 20
0.43361099
 30
0.0
 11
37.42387569
 21
0.42109347
 31
0.0
  0
LINE
  5
313
100
AcDbEntity
  8
レイヤー_1
  6
CONTINUOUS
 62
       3
100
AcDbLine
 10
36.17448563
 20
-14.3304366
 30
0.0
 11
36.27515085
 21
-14.3254286
 31
0.0
  0
LINE
  5
314
100
AcDbEntity
  8
レイヤー_1
  6
CONTINUOUS
 62
       3
100
AcDbLine
 10
36.27515085
 20
-14.3254286
 30
0.0
 11
36.37296645
 21
-14.31072468
 31
0.0
  0
LINE
  5
315
100
AcDbEntity
  8
レイヤー_1
  6
CONTINUOUS
 62
       3
100
AcDbLine
 10
36.37296645
 20
-14.31072468
 30
0.0
 11
36.46745203
 21
-14.28680492
 31
0.0
  0
LINE
  5
316
100
AcDbEntity
  8
レイヤー_1
  6
CONTINUOUS
 62
       3
100
AcDbLine
 10
36.46745203
 20
-14.28680492
 30
0.0
 11
36.55812715
 21
-14.25414944
 31
0.0
  0
LINE
  5
317
100
AcDbEntity
  8
レイヤー_1
  6
CONTINUOUS
 62
       3
100
AcDbLine
 10
36.55812715
 20
-14.25414944
 30
0.0
 11
36.6445114
 21
-14.21323833
 31
0.0
  0
LINE
  5
318
100
AcDbEntity
  8
レイヤー_1
  6
CONTINUOUS
 62
       3
100
AcDbLine
 10
36.6445114
 20
-14.21323833
 30
0.0
 11
36.72612436
 21
-14.16455169
 31
0.0
  0
LINE
  5
319
100
AcDbEntity
  8
レイヤー_1
  6
CONTINUOUS
 62
       3
100
AcDbLine
 10
36.72612436
 20
-14.16455169
 30
0.0
 11
36.80248561
 21
-14.10856963
 31
0.0
  0
LINE
  5
31A
100
AcDbEntity
  8
レイヤー_1
  6
CONTINUOUS
 62
       3
100
AcDbLine
 10
36.80248561
 20
-14.10856963
 30
0.0
 11
36.87311472
 21
-14.04577223
 31
0.0
  0
LINE
  5
31B
100
AcDbEntity
  8
レイヤー_1
  6
CONTINUOUS
 62
       3
100
AcDbLine
 10
36.87311472
 20
-14.04577223
 30
0.0
 11
36.93753127
 21
-13.9766396
 31
0.0
  0
LINE
  5
31C
100
AcDbEntity
  8
レイヤー_1
  6
CONTINUOUS
 62
       3
100
AcDbLine
 10
36.93753127
 20
-13.9766396
 30
0.0
 11
36.99525485
 21
-13.90165185
 31
0.0
  0
LINE
  5
31D
100
AcDbEntity
  8
レイヤー_1
  6
CONTINUOUS
 62
       3
100
AcDbLine
 10
36.99525485
 20
-13.90165185
 30
0.0
 11
37.04580504
 21
-13.82128906
 31
0.0
  0
LINE
  5
31E
100
AcDbEntity
  8
レイヤー_1
  6
CONTINUOUS
 62
       3
100
AcDbLine
 10
37.04580504
 20
-13.82128906
 30
0.0
 11
37.0887014
 21
-13.73603134
 31
0.0
  0
LINE
  5
31F
100
AcDbEntity
  8
レイヤー_1
  6
CONTINUOUS
 62
       3
100
AcDbLine
 10
37.0887014
 20
-13.73603134
 30
0.0
 11
37.12346353
 21
-13.6463588
 31
0.0
  0
LINE
  5
320
100
AcDbEntity
  8
レイヤー_1
  6
CONTINUOUS
 62
       3
100
AcDbLine
 10
37.12346353
 20
-13.6463588
 30
0.0
 11
37.149611
 21
-13.55275152
 31
0.0
  0
LINE
  5
321
100
AcDbEntity
  8
レイヤー_1
  6
CONTINUOUS
 62
       3
100
AcDbLine
 10
37.149611
 20
-13.55275152
 30
0.0
 11
37.16666338
 21
-13.45568961
 31
0.0
  0
LINE
  5
322
100
AcDbEntity
  8
レイヤー_1
  6
CONTINUOUS
 62
       3
100
AcDbLine
 10
37.16666338
 20
-13.45568961
 30
0.0
 11
37.17414027
 21
-13.35565317
 31
0.0
  0
LINE
  5
323
100
AcDbEntity
  8
レイヤー_1
  6
CONTINUOUS
 62
       3
100
AcDbLine
 10
37.17414027
 20
-13.35565317
 30
0.0
 11
37.17162879
 21
-13.25448826
 31
0.0
  0
LINE
  5
324
100
AcDbEntity
  8
レイヤー_1
  6
CONTINUOUS
 62
       3
100
AcDbLine
 10
37.17162879
 20
-13.25448826
 30
0.0
 11
37.1593041
 21
-13.15591521
 31
0.0
  0
LINE
  5
325
100
AcDbEntity
  8
レイヤー_1
  6
CONTINUOUS
 62
       3
100
AcDbLine
 10
37.1593041
 20
-13.15591521
 30
0.0
 11
37.13764412
 21
-13.06055209
 31
0.0
  0
LINE
  5
326
100
AcDbEntity
  8
レイヤー_1
  6
CONTINUOUS
 62
       3
100
AcDbLine
 10
37.13764412
 20
-13.06055209
 30
0.0
 11
37.10712927
 21
-12.96887931
 31
0.0
  0
LINE
  5
327
100
AcDbEntity
  8
レイヤー_1
  6
CONTINUOUS
 62
       3
100
AcDbLine
 10
37.10712927
 20
-12.96887931
 30
0.0
 11
37.06823997
 21
-12.8813773
 31
0.0
  0
LINE
  5
328
100
AcDbEntity
  8
レイヤー_1
  6
CONTINUOUS
 62
       3
100
AcDbLine
 10
37.06823997
 20
-12.8813773
 30
0.0
 11
37.02145665
 21
-12.79852648
 31
0.0
  0
LINE
  5
329
100
AcDbEntity
  8
レイヤー_1
  6
CONTINUOUS
 62
       3
100
AcDbLine
 10
37.02145665
 20
-12.79852648
 30
0.0
 11
36.96725971
 21
-12.72080727
 31
0.0
  0
LINE
  5
32A
100
AcDbEntity
  8
レイヤー_1
  6
CONTINUOUS
 62
       3
100
AcDbLine
 10
36.96725971
 20
-12.72080727
 30
0.0
 11
36.90612959
 21
-12.64870008
 31
0.0
  0
LINE
  5
32B
100
AcDbEntity
  8
レイヤー_1
  6
CONTINUOUS
 62
       3
100
AcDbLine
 10
36.90612959
 20
-12.64870008
 30
0.0
 11
36.8385467
 21
-12.58268535
 31
0.0
  0
LINE
  5
32C
100
AcDbEntity
  8
レイヤー_1
  6
CONTINUOUS
 62
       3
100
AcDbLine
 10
36.8385467
 20
-12.58268535
 30
0.0
 11
36.76499147
 21
-12.52324349
 31
0.0
  0
LINE
  5
32D
100
AcDbEntity
  8
レイヤー_1
  6
CONTINUOUS
 62
       3
100
AcDbLine
 10
36.76499147
 20
-12.52324349
 30
0.0
 11
36.68594432
 21
-12.47085491
 31
0.0
  0
LINE
  5
32E
100
AcDbEntity
  8
レイヤー_1
  6
CONTINUOUS
 62
       3
100
AcDbLine
 10
36.68594432
 20
-12.47085491
 30
0.0
 11
36.60188566
 21
-12.42600005
 31
0.0
  0
LINE
  5
32F
100
AcDbEntity
  8
レイヤー_1
  6
CONTINUOUS
 62
       3
100
AcDbLine
 10
36.60188566
 20
-12.42600005
 30
0.0
 11
36.51329592
 21
-12.38915933
 31
0.0
  0
LINE
  5
330
100
AcDbEntity
  8
レイヤー_1
  6
CONTINUOUS
 62
       3
100
AcDbLine
 10
36.51329592
 20
-12.38915933
 30
0.0
 11
36.42065552
 21
-12.36081316
 31
0.0
  0
LINE
  5
331
100
AcDbEntity
  8
レイヤー_1
  6
CONTINUOUS
 62
       3
100
AcDbLine
 10
36.42065552
 20
-12.36081316
 30
0.0
 11
36.32444488
 21
-12.34144196
 31
0.0
  0
LINE
  5
332
100
AcDbEntity
  8
レイヤー_1
  6
CONTINUOUS
 62
       3
100
AcDbLine
 10
36.32444488
 20
-12.34144196
 30
0.0
 11
36.22514442
 21
-12.33152616
 31
0.0
  0
LINE
  5
333
100
AcDbEntity
  8
レイヤー_1
  6
CONTINUOUS
 62
       3
100
AcDbLine
 10
36.22514442
 20
-12.33152616
 30
0.0
 11
36.12374719
 21
-12.33152616
 31
0.0
  0
LINE
  5
334
100
AcDbEntity
  8
レイヤー_1
  6
CONTINUOUS
 62
       3
100
AcDbLine
 10
36.12374719
 20
-12.33152616
 30
0.0
 11
36.02431679
 21
-12.34144196
 31
0.0
  0
LINE
  5
335
100
AcDbEntity
  8
レイヤー_1
  6
CONTINUOUS
 62
       3
100
AcDbLine
 10
36.02431679
 20
-12.34144196
 30
0.0
 11
35.92801218
 21
-12.36081316
 31
0.0
  0
LINE
  5
336
100
AcDbEntity
  8
レイヤー_1
  6
CONTINUOUS
 62
       3
100
AcDbLine
 10
35.92801218
 20
-12.36081316
 30
0.0
 11
35.83530992
 21
-12.38915933
 31
0.0
  0
LINE
  5
337
100
AcDbEntity
  8
レイヤー_1
  6
CONTINUOUS
 62
       3
100
AcDbLine
 10
35.83530992
 20
-12.38915933
 30
0.0
 11
35.74668658
 21
-12.42600005
 31
0.0
  0
LINE
  5
338
100
AcDbEntity
  8
レイヤー_1
  6
CONTINUOUS
 62
       3
100
AcDbLine
 10
35.74668658
 20
-12.42600005
 30
0.0
 11
35.66261873
 21
-12.47085491
 31
0.0
  0
LINE
  5
339
100
AcDbEntity
  8
レイヤー_1
  6
CONTINUOUS
 62
       3
100
AcDbLine
 10
35.66261873
 20
-12.47085491
 30
0.0
 11
35.58358293
 21
-12.52324349
 31
0.0
  0
LINE
  5
33A
100
AcDbEntity
  8
レイヤー_1
  6
CONTINUOUS
 62
       3
100
AcDbLine
 10
35.58358293
 20
-12.52324349
 30
0.0
 11
35.51005576
 21
-12.58268535
 31
0.0
  0
LINE
  5
33B
100
AcDbEntity
  8
レイヤー_1
  6
CONTINUOUS
 62
       3
100
AcDbLine
 10
35.51005576
 20
-12.58268535
 30
0.0
 11
35.44251378
 21
-12.64870008
 31
0.0
  0
LINE
  5
33C
100
AcDbEntity
  8
レイヤー_1
  6
CONTINUOUS
 62
       3
100
AcDbLine
 10
35.44251378
 20
-12.64870008
 30
0.0
 11
35.38143355
 21
-12.72080727
 31
0.0
  0
LINE
  5
33D
100
AcDbEntity
  8
レイヤー_1
  6
CONTINUOUS
 62
       3
100
AcDbLine
 10
35.38143355
 20
-12.72080727
 30
0.0
 11
35.32729165
 21
-12.79852648
 31
0.0
  0
LINE
  5
33E
100
AcDbEntity
  8
レイヤー_1
  6
CONTINUOUS
 62
       3
100
AcDbLine
 10
35.32729165
 20
-12.79852648
 30
0.0
 11
35.28056465
 21
-12.8813773
 31
0.0
  0
LINE
  5
33F
100
AcDbEntity
  8
レイヤー_1
  6
CONTINUOUS
 62
       3
100
AcDbLine
 10
35.28056465
 20
-12.8813773
 30
0.0
 11
35.2417291
 21
-12.96887931
 31
0.0
  0
LINE
  5
340
100
AcDbEntity
  8
レイヤー_1
  6
CONTINUOUS
 62
       3
100
AcDbLine
 10
35.2417291
 20
-12.96887931
 30
0.0
 11
35.21126157
 21
-13.06055209
 31
0.0
  0
LINE
  5
341
100
AcDbEntity
  8
レイヤー_1
  6
CONTINUOUS
 62
       3
100
AcDbLine
 10
35.21126157
 20
-13.06055209
 30
0.0
 11
35.18963865
 21
-13.15591521
 31
0.0
  0
LINE
  5
342
100
AcDbEntity
  8
レイヤー_1
  6
CONTINUOUS
 62
       3
100
AcDbLine
 10
35.18963865
 20
-13.15591521
 30
0.0
 11
35.17733688
 21
-13.25448826
 31
0.0
  0
LINE
  5
343
100
AcDbEntity
  8
レイヤー_1
  6
CONTINUOUS
 62
       3
100
AcDbLine
 10
35.17733688
 20
-13.25448826
 30
0.0
 11
35.17483036
 21
-13.35565317
 31
0.0
  0
LINE
  5
344
100
AcDbEntity
  8
レイヤー_1
  6
CONTINUOUS
 62
       3
100
AcDbLine
 10
35.17483036
 20
-13.35565317
 30
0.0
 11
35.18229283
 21
-13.45568961
 31
0.0
  0
LINE
  5
345
100
AcDbEntity
  8
レイヤー_1
  6
CONTINUOUS
 62
       3
100
AcDbLine
 10
35.18229283
 20
-13.45568961
 30
0.0
 11
35.19931475
 21
-13.55275152
 31
0.0
  0
LINE
  5
346
100
AcDbEntity
  8
レイヤー_1
  6
CONTINUOUS
 62
       3
100
AcDbLine
 10
35.19931475
 20
-13.55275152
 30
0.0
 11
35.22541955
 21
-13.6463588
 31
0.0
  0
LINE
  5
347
100
AcDbEntity
  8
レイヤー_1
  6
CONTINUOUS
 62
       3
100
AcDbLine
 10
35.22541955
 20
-13.6463588
 30
0.0
 11
35.26013065
 21
-13.73603134
 31
0.0
  0
LINE
  5
348
100
AcDbEntity
  8
レイヤー_1
  6
CONTINUOUS
 62
       3
100
AcDbLine
 10
35.26013065
 20
-13.73603134
 30
0.0
 11
35.3029715
 21
-13.82128906
 31
0.0
  0
LINE
  5
349
100
AcDbEntity
  8
レイヤー_1
  6
CONTINUOUS
 62
       3
100
AcDbLine
 10
35.3029715
 20
-13.82128906
 30
0.0
 11
35.35346553
 21
-13.90165185
 31
0.0
  0
LINE
  5
34A
100
AcDbEntity
  8
レイヤー_1
  6
CONTINUOUS
 62
       3
100
AcDbLine
 10
35.35346553
 20
-13.90165185
 30
0.0
 11
35.41113616
 21
-13.9766396
 31
0.0
  0
LINE
  5
34B
100
AcDbEntity
  8
レイヤー_1
  6
CONTINUOUS
 62
       3
100
AcDbLine
 10
35.41113616
 20
-13.9766396
 30
0.0
 11
35.47550683
 21
-14.04577223
 31
0.0
  0
LINE
  5
34C
100
AcDbEntity
  8
レイヤー_1
  6
CONTINUOUS
 62
       3
100
AcDbLine
 10
35.47550683
 20
-14.04577223
 30
0.0
 11
35.54610098
 21
-14.10856963
 31
0.0
  0
LINE
  5
34D
100
AcDbEntity
  8
レイヤー_1
  6
CONTINUOUS
 62
       3
100
AcDbLine
 10
35.54610098
 20
-14.10856963
 30
0.0
 11
35.62244204
 21
-14.16455169
 31
0.0
  0
LINE
  5
34E
100
AcDbEntity
  8
レイヤー_1
  6
CONTINUOUS
 62
       3
100
AcDbLine
 10
35.62244204
 20
-14.16455169
 30
0.0
 11
35.70405343
 21
-14.21323833
 31
0.0
  0
LINE
  5
34F
100
AcDbEntity
  8
レイヤー_1
  6
CONTINUOUS
 62
       3
100
AcDbLine
 10
35.70405343
 20
-14.21323833
 30
0.0
 11
35.7904586
 21
-14.25414944
 31
0.0
  0
LINE
  5
350
100
AcDbEntity
  8
レイヤー_1
  6
CONTINUOUS
 62
       3
100
AcDbLine
 10
35.7904586
 20
-14.25414944
 30
0.0
 11
35.88118097
 21
-14.28680492
 31
0.0
  0
LINE
  5
351
100
AcDbEntity
  8
レイヤー_1
  6
CONTINUOUS
 62
       3
100
AcDbLine
 10
35.88118097
 20
-14.28680492
 30
0.0
 11
35.97574397
 21
-14.31072468
 31
0.0
  0
LINE
  5
352
100
AcDbEntity
  8
レイヤー_1
  6
CONTINUOUS
 62
       3
100
AcDbLine
 10
35.97574397
 20
-14.31072468
 30
0.0
 11
36.07367105
 21
-14.3254286
 31
0.0
  0
LINE
  5
353
100
AcDbEntity
  8
レイヤー_1
  6
CONTINUOUS
 62
       3
100
AcDbLine
 10
36.07367105
 20
-14.3254286
 30
0.0
 11
36.17448563
 21
-14.3304366
 31
0.0
  0
LINE
  5
354
100
AcDbEntity
  8
レイヤー_1
  6
CONTINUOUS
 62
       3
100
AcDbLine
 10
36.17448563
 20
-9.58022803
 30
0.0
 11
36.30027355
 21
-9.57396924
 31
0.0
  0
LINE
  5
355
100
AcDbEntity
  8
レイヤー_1
  6
CONTINUOUS
 62
       3
100
AcDbLine
 10
36.30027355
 20
-9.57396924
 30
0.0
 11
36.42249749
 21
-9.5555926
 31
0.0
  0
LINE
  5
356
100
AcDbEntity
  8
レイヤー_1
  6
CONTINUOUS
 62
       3
100
AcDbLine
 10
36.42249749
 20
-9.5555926
 30
0.0
 11
36.54055757
 21
-9.52569765
 31
0.0
  0
LINE
  5
357
100
AcDbEntity
  8
レイヤー_1
  6
CONTINUOUS
 62
       3
100
AcDbLine
 10
36.54055757
 20
-9.52569765
 30
0.0
 11
36.6538539
 21
-9.48488396
 31
0.0
  0
LINE
  5
358
100
AcDbEntity
  8
レイヤー_1
  6
CONTINUOUS
 62
       3
100
AcDbLine
 10
36.6538539
 20
-9.48488396
 30
0.0
 11
36.76178661
 21
-9.4337511
 31
0.0
  0
LINE
  5
359
100
AcDbEntity
  8
レイヤー_1
  6
CONTINUOUS
 62
       3
100
AcDbLine
 10
36.76178661
 20
-9.4337511
 30
0.0
 11
36.8637558
 21
-9.37289863
 31
0.0
  0
LINE
  5
35A
100
AcDbEntity
  8
レイヤー_1
  6
CONTINUOUS
 62
       3
100
AcDbLine
 10
36.8637558
 20
-9.37289863
 30
0.0
 11
36.95916159
 21
-9.30292611
 31
0.0
  0
LINE
  5
35B
100
AcDbEntity
  8
レイヤー_1
  6
CONTINUOUS
 62
       3
100
AcDbLine
 10
36.95916159
 20
-9.30292611
 30
0.0
 11
37.0474041
 21
-9.22443311
 31
0.0
  0
LINE
  5
35C
100
AcDbEntity
  8
レイヤー_1
  6
CONTINUOUS
 62
       3
100
AcDbLine
 10
37.0474041
 20
-9.22443311
 30
0.0
 11
37.12788344
 21
-9.13801918
 31
0.0
  0
LINE
  5
35D
100
AcDbEntity
  8
レイヤー_1
  6
CONTINUOUS
 62
       3
100
AcDbLine
 10
37.12788344
 20
-9.13801918
 30
0.0
 11
37.19999974
 21
-9.04428388
 31
0.0
  0
LINE
  5
35E
100
AcDbEntity
  8
レイヤー_1
  6
CONTINUOUS
 62
       3
100
AcDbLine
 10
37.19999974
 20
-9.04428388
 30
0.0
 11
37.26315311
 21
-8.9438268
 31
0.0
  0
LINE
  5
35F
100
AcDbEntity
  8
レイヤー_1
  6
CONTINUOUS
 62
       3
100
AcDbLine
 10
37.26315311
 20
-8.9438268
 30
0.0
 11
37.31674365
 21
-8.83724747
 31
0.0
  0
LINE
  5
360
100
AcDbEntity
  8
レイヤー_1
  6
CONTINUOUS
 62
       3
100
AcDbLine
 10
37.31674365
 20
-8.83724747
 30
0.0
 11
37.3601715
 21
-8.72514547
 31
0.0
  0
LINE
  5
361
100
AcDbEntity
  8
レイヤー_1
  6
CONTINUOUS
 62
       3
100
AcDbLine
 10
37.3601715
 20
-8.72514547
 30
0.0
 11
37.39283676
 21
-8.60812037
 31
0.0
  0
LINE
  5
362
100
AcDbEntity
  8
レイヤー_1
  6
CONTINUOUS
 62
       3
100
AcDbLine
 10
37.39283676
 20
-8.60812037
 30
0.0
 11
37.41413956
 21
-8.48677171
 31
0.0
  0
LINE
  5
363
100
AcDbEntity
  8
レイヤー_1
  6
CONTINUOUS
 62
       3
100
AcDbLine
 10
37.41413956
 20
-8.48677171
 30
0.0
 11
37.42348
 21
-8.36169907
 31
0.0
  0
LINE
  5
364
100
AcDbEntity
  8
レイヤー_1
  6
CONTINUOUS
 62
       3
100
AcDbLine
 10
37.42348
 20
-8.36169907
 30
0.0
 11
37.42034257
 21
-8.23520554
 31
0.0
  0
LINE
  5
365
100
AcDbEntity
  8
レイヤー_1
  6
CONTINUOUS
 62
       3
100
AcDbLine
 10
37.42034257
 20
-8.23520554
 30
0.0
 11
37.40494596
 21
-8.11195609
 31
0.0
  0
LINE
  5
366
100
AcDbEntity
  8
レイヤー_1
  6
CONTINUOUS
 62
       3
100
AcDbLine
 10
37.40494596
 20
-8.11195609
 30
0.0
 11
37.37788695
 21
-7.99272575
 31
0.0
  0
LINE
  5
367
100
AcDbEntity
  8
レイヤー_1
  6
CONTINUOUS
 62
       3
100
AcDbLine
 10
37.37788695
 20
-7.99272575
 30
0.0
 11
37.33976541
 21
-7.8781144
 31
0.0
  0
LINE
  5
368
100
AcDbEntity
  8
レイヤー_1
  6
CONTINUOUS
 62
       3
100
AcDbLine
 10
37.33976541
 20
-7.8781144
 30
0.0
 11
37.29118122
 21
-7.76872193
 31
0.0
  0
LINE
  5
369
100
AcDbEntity
  8
レイヤー_1
  6
CONTINUOUS
 62
       3
100
AcDbLine
 10
37.29118122
 20
-7.76872193
 30
0.0
 11
37.23273428
 21
-7.66514822
 31
0.0
  0
LINE
  5
36A
100
AcDbEntity
  8
レイヤー_1
  6
CONTINUOUS
 62
       3
100
AcDbLine
 10
37.23273428
 20
-7.66514822
 30
0.0
 11
37.16502447
 21
-7.56799315
 31
0.0
  0
LINE
  5
36B
100
AcDbEntity
  8
レイヤー_1
  6
CONTINUOUS
 62
       3
100
AcDbLine
 10
37.16502447
 20
-7.56799315
 30
0.0
 11
37.08865166
 21
-7.47785662
 31
0.0
  0
LINE
  5
36C
100
AcDbEntity
  8
レイヤー_1
  6
CONTINUOUS
 62
       3
100
AcDbLine
 10
37.08865166
 20
-7.47785662
 30
0.0
 11
37.00421575
 21
-7.39533849
 31
0.0
  0
LINE
  5
36D
100
AcDbEntity
  8
レイヤー_1
  6
CONTINUOUS
 62
       3
100
AcDbLine
 10
37.00421575
 20
-7.39533849
 30
0.0
 11
36.91231661
 21
-7.32103866
 31
0.0
  0
LINE
  5
36E
100
AcDbEntity
  8
レイヤー_1
  6
CONTINUOUS
 62
       3
100
AcDbLine
 10
36.91231661
 20
-7.32103866
 30
0.0
 11
36.81355413
 21
-7.25555702
 31
0.0
  0
LINE
  5
36F
100
AcDbEntity
  8
レイヤー_1
  6
CONTINUOUS
 62
       3
100
AcDbLine
 10
36.81355413
 20
-7.25555702
 30
0.0
 11
36.7085282
 21
-7.19949343
 31
0.0
  0
LINE
  5
370
100
AcDbEntity
  8
レイヤー_1
  6
CONTINUOUS
 62
       3
100
AcDbLine
 10
36.7085282
 20
-7.19949343
 30
0.0
 11
36.5978387
 21
-7.1534478
 31
0.0
  0
LINE
  5
371
100
AcDbEntity
  8
レイヤー_1
  6
CONTINUOUS
 62
       3
100
AcDbLine
 10
36.5978387
 20
-7.1534478
 30
0.0
 11
36.48208551
 21
-7.11802
 31
0.0
  0
LINE
  5
372
100
AcDbEntity
  8
レイヤー_1
  6
CONTINUOUS
 62
       3
100
AcDbLine
 10
36.48208551
 20
-7.11802
 30
0.0
 11
36.36186851
 21
-7.09380991
 31
0.0
  0
LINE
  5
373
100
AcDbEntity
  8
レイヤー_1
  6
CONTINUOUS
 62
       3
100
AcDbLine
 10
36.36186851
 20
-7.09380991
 30
0.0
 11
36.2377876
 21
-7.08141742
 31
0.0
  0
LINE
  5
374
100
AcDbEntity
  8
レイヤー_1
  6
CONTINUOUS
 62
       3
100
AcDbLine
 10
36.2377876
 20
-7.08141742
 30
0.0
 11
36.11110145
 21
-7.08141742
 31
0.0
  0
LINE
  5
375
100
AcDbEntity
  8
レイヤー_1
  6
CONTINUOUS
 62
       3
100
AcDbLine
 10
36.11110145
 20
-7.08141742
 30
0.0
 11
35.98687112
 21
-7.09380991
 31
0.0
  0
LINE
  5
376
100
AcDbEntity
  8
レイヤー_1
  6
CONTINUOUS
 62
       3
100
AcDbLine
 10
35.98687112
 20
-7.09380991
 30
0.0
 11
35.86652365
 21
-7.11802
 31
0.0
  0
LINE
  5
377
100
AcDbEntity
  8
レイヤー_1
  6
CONTINUOUS
 62
       3
100
AcDbLine
 10
35.86652365
 20
-7.11802
 30
0.0
 11
35.75065764
 21
-7.1534478
 31
0.0
  0
LINE
  5
378
100
AcDbEntity
  8
レイヤー_1
  6
CONTINUOUS
 62
       3
100
AcDbLine
 10
35.75065764
 20
-7.1534478
 30
0.0
 11
35.6398717
 21
-7.19949343
 31
0.0
  0
LINE
  5
379
100
AcDbEntity
  8
レイヤー_1
  6
CONTINUOUS
 62
       3
100
AcDbLine
 10
35.6398717
 20
-7.19949343
 30
0.0
 11
35.53476443
 21
-7.25555702
 31
0.0
  0
LINE
  5
37A
100
AcDbEntity
  8
レイヤー_1
  6
CONTINUOUS
 62
       3
100
AcDbLine
 10
35.53476443
 20
-7.25555702
 30
0.0
 11
35.43593442
 21
-7.32103866
 31
0.0
  0
LINE
  5
37B
100
AcDbEntity
  8
レイヤー_1
  6
CONTINUOUS
 62
       3
100
AcDbLine
 10
35.43593442
 20
-7.32103866
 30
0.0
 11
35.34398028
 21
-7.39533849
 31
0.0
  0
LINE
  5
37C
100
AcDbEntity
  8
レイヤー_1
  6
CONTINUOUS
 62
       3
100
AcDbLine
 10
35.34398028
 20
-7.39533849
 30
0.0
 11
35.2595006
 21
-7.47785662
 31
0.0
  0
LINE
  5
37D
100
AcDbEntity
  8
レイヤー_1
  6
CONTINUOUS
 62
       3
100
AcDbLine
 10
35.2595006
 20
-7.47785662
 30
0.0
 11
35.18309398
 21
-7.56799315
 31
0.0
  0
LINE
  5
37E
100
AcDbEntity
  8
レイヤー_1
  6
CONTINUOUS
 62
       3
100
AcDbLine
 10
35.18309398
 20
-7.56799315
 30
0.0
 11
35.11535902
 21
-7.66514822
 31
0.0
  0
LINE
  5
37F
100
AcDbEntity
  8
レイヤー_1
  6
CONTINUOUS
 62
       3
100
AcDbLine
 10
35.11535902
 20
-7.66514822
 30
0.0
 11
35.05689432
 21
-7.76872193
 31
0.0
  0
LINE
  5
380
100
AcDbEntity
  8
レイヤー_1
  6
CONTINUOUS
 62
       3
100
AcDbLine
 10
35.05689432
 20
-7.76872193
 30
0.0
 11
35.00829848
 21
-7.8781144
 31
0.0
  0
LINE
  5
381
100
AcDbEntity
  8
レイヤー_1
  6
CONTINUOUS
 62
       3
100
AcDbLine
 10
35.00829848
 20
-7.8781144
 30
0.0
 11
34.9701701
 21
-7.99272575
 31
0.0
  0
LINE
  5
382
100
AcDbEntity
  8
レイヤー_1
  6
CONTINUOUS
 62
       3
100
AcDbLine
 10
34.9701701
 20
-7.99272575
 30
0.0
 11
34.94310779
 21
-8.11195609
 31
0.0
  0
LINE
  5
383
100
AcDbEntity
  8
レイヤー_1
  6
CONTINUOUS
 62
       3
100
AcDbLine
 10
34.94310779
 20
-8.11195609
 30
0.0
 11
34.92771012
 21
-8.23520554
 31
0.0
  0
LINE
  5
384
100
AcDbEntity
  8
レイヤー_1
  6
CONTINUOUS
 62
       3
100
AcDbLine
 10
34.92771012
 20
-8.23520554
 30
0.0
 11
34.9245726
 21
-8.36169907
 31
0.0
  0
LINE
  5
385
100
AcDbEntity
  8
レイヤー_1
  6
CONTINUOUS
 62
       3
100
AcDbLine
 10
34.9245726
 20
-8.36169907
 30
0.0
 11
34.93391346
 21
-8.48677171
 31
0.0
  0
LINE
  5
386
100
AcDbEntity
  8
レイヤー_1
  6
CONTINUOUS
 62
       3
100
AcDbLine
 10
34.93391346
 20
-8.48677171
 30
0.0
 11
34.95521828
 21
-8.60812037
 31
0.0
  0
LINE
  5
387
100
AcDbEntity
  8
レイヤー_1
  6
CONTINUOUS
 62
       3
100
AcDbLine
 10
34.95521828
 20
-8.60812037
 30
0.0
 11
34.98788845
 21
-8.72514547
 31
0.0
  0
LINE
  5
388
100
AcDbEntity
  8
レイヤー_1
  6
CONTINUOUS
 62
       3
100
AcDbLine
 10
34.98788845
 20
-8.72514547
 30
0.0
 11
35.03132538
 21
-8.83724747
 31
0.0
  0
LINE
  5
389
100
AcDbEntity
  8
レイヤー_1
  6
CONTINUOUS
 62
       3
100
AcDbLine
 10
35.03132538
 20
-8.83724747
 30
0.0
 11
35.08493047
 21
-8.9438268
 31
0.0
  0
LINE
  5
38A
100
AcDbEntity
  8
レイヤー_1
  6
CONTINUOUS
 62
       3
100
AcDbLine
 10
35.08493047
 20
-8.9438268
 30
0.0
 11
35.14810513
 21
-9.04428388
 31
0.0
  0
LINE
  5
38B
100
AcDbEntity
  8
レイヤー_1
  6
CONTINUOUS
 62
       3
100
AcDbLine
 10
35.14810513
 20
-9.04428388
 30
0.0
 11
35.22025074
 21
-9.13801918
 31
0.0
  0
LINE
  5
38C
100
AcDbEntity
  8
レイヤー_1
  6
CONTINUOUS
 62
       3
100
AcDbLine
 10
35.22025074
 20
-9.13801918
 30
0.0
 11
35.30076872
 21
-9.22443311
 31
0.0
  0
LINE
  5
38D
100
AcDbEntity
  8
レイヤー_1
  6
CONTINUOUS
 62
       3
100
AcDbLine
 10
35.30076872
 20
-9.22443311
 30
0.0
 11
35.38906046
 21
-9.30292611
 31
0.0
  0
LINE
  5
38E
100
AcDbEntity
  8
レイヤー_1
  6
CONTINUOUS
 62
       3
100
AcDbLine
 10
35.38906046
 20
-9.30292611
 30
0.0
 11
35.48452736
 21
-9.37289863
 31
0.0
  0
LINE
  5
38F
100
AcDbEntity
  8
レイヤー_1
  6
CONTINUOUS
 62
       3
100
AcDbLine
 10
35.48452736
 20
-9.37289863
 30
0.0
 11
35.58657082
 21
-9.4337511
 31
0.0
  0
LINE
  5
390
100
AcDbEntity
  8
レイヤー_1
  6
CONTINUOUS
 62
       3
100
AcDbLine
 10
35.58657082
 20
-9.4337511
 30
0.0
 11
35.69459225
 21
-9.48488396
 31
0.0
  0
LINE
  5
391
100
AcDbEntity
  8
レイヤー_1
  6
CONTINUOUS
 62
       3
100
AcDbLine
 10
35.69459225
 20
-9.48488396
 30
0.0
 11
35.80799305
 21
-9.52569765
 31
0.0
  0
LINE
  5
392
100
AcDbEntity
  8
レイヤー_1
  6
CONTINUOUS
 62
       3
100
AcDbLine
 10
35.80799305
 20
-9.52569765
 30
0.0
 11
35.92617461
 21
-9.5555926
 31
0.0
  0
LINE
  5
393
100
AcDbEntity
  8
レイヤー_1
  6
CONTINUOUS
 62
       3
100
AcDbLine
 10
35.92617461
 20
-9.5555926
 30
0.0
 11
36.04853834
 21
-9.57396924
 31
0.0
  0
LINE
  5
394
100
AcDbEntity
  8
レイヤー_1
  6
CONTINUOUS
 62
       3
100
AcDbLine
 10
36.04853834
 20
-9.57396924
 30
0.0
 11
36.17448563
 21
-9.58022803
 31
0.0
  0
LINE
  5
395
100
AcDbEntity
  8
レイヤー_1
  6
CONTINUOUS
 62
       3
100
AcDbLine
 10
36.17448563
 20
-4.32957443
 30
0.0
 11
36.27515085
 21
-4.32456649
 31
0.0
  0
LINE
  5
396
100
AcDbEntity
  8
レイヤー_1
  6
CONTINUOUS
 62
       3
100
AcDbLine
 10
36.27515085
 20
-4.32456649
 30
0.0
 11
36.37296645
 21
-4.30986294
 31
0.0
  0
LINE
  5
397
100
AcDbEntity
  8
レイヤー_1
  6
CONTINUOUS
 62
       3
100
AcDbLine
 10
36.37296645
 20
-4.30986294
 30
0.0
 11
36.46745203
 21
-4.2859442
 31
0.0
  0
LINE
  5
398
100
AcDbEntity
  8
レイヤー_1
  6
CONTINUOUS
 62
       3
100
AcDbLine
 10
36.46745203
 20
-4.2859442
 30
0.0
 11
36.55812715
 21
-4.2532907
 31
0.0
  0
LINE
  5
399
100
AcDbEntity
  8
レイヤー_1
  6
CONTINUOUS
 62
       3
100
AcDbLine
 10
36.55812715
 20
-4.2532907
 30
0.0
 11
36.6445114
 21
-4.21238286
 31
0.0
  0
LINE
  5
39A
100
AcDbEntity
  8
レイヤー_1
  6
CONTINUOUS
 62
       3
100
AcDbLine
 10
36.6445114
 20
-4.21238286
 30
0.0
 11
36.72612436
 21
-4.16370109
 31
0.0
  0
LINE
  5
39B
100
AcDbEntity
  8
レイヤー_1
  6
CONTINUOUS
 62
       3
100
AcDbLine
 10
36.72612436
 20
-4.16370109
 30
0.0
 11
36.80248561
 21
-4.10772582
 31
0.0
  0
LINE
  5
39C
100
AcDbEntity
  8
レイヤー_1
  6
CONTINUOUS
 62
       3
100
AcDbLine
 10
36.80248561
 20
-4.10772582
 30
0.0
 11
36.87311472
 21
-4.04493747
 31
0.0
  0
LINE
  5
39D
100
AcDbEntity
  8
レイヤー_1
  6
CONTINUOUS
 62
       3
100
AcDbLine
 10
36.87311472
 20
-4.04493747
 30
0.0
 11
36.93753127
 21
-3.97581645
 31
0.0
  0
LINE
  5
39E
100
AcDbEntity
  8
レイヤー_1
  6
CONTINUOUS
 62
       3
100
AcDbLine
 10
36.93753127
 20
-3.97581645
 30
0.0
 11
36.99525485
 21
-3.9008432
 31
0.0
  0
LINE
  5
39F
100
AcDbEntity
  8
レイヤー_1
  6
CONTINUOUS
 62
       3
100
AcDbLine
 10
36.99525485
 20
-3.9008432
 30
0.0
 11
37.04580504
 21
-3.82049813
 31
0.0
  0
LINE
  5
3A0
100
AcDbEntity
  8
レイヤー_1
  6
CONTINUOUS
 62
       3
100
AcDbLine
 10
37.04580504
 20
-3.82049813
 30
0.0
 11
37.0887014
 21
-3.73526166
 31
0.0
  0
LINE
  5
3A1
100
AcDbEntity
  8
レイヤー_1
  6
CONTINUOUS
 62
       3
100
AcDbLine
 10
37.0887014
 20
-3.73526166
 30
0.0
 11
37.12346353
 21
-3.64561422
 31
0.0
  0
LINE
  5
3A2
100
AcDbEntity
  8
レイヤー_1
  6
CONTINUOUS
 62
       3
100
AcDbLine
 10
37.12346353
 20
-3.64561422
 30
0.0
 11
37.149611
 21
-3.55203622
 31
0.0
  0
LINE
  5
3A3
100
AcDbEntity
  8
レイヤー_1
  6
CONTINUOUS
 62
       3
100
AcDbLine
 10
37.149611
 20
-3.55203622
 30
0.0
 11
37.16666338
 21
-3.45500808
 31
0.0
  0
LINE
  5
3A4
100
AcDbEntity
  8
レイヤー_1
  6
CONTINUOUS
 62
       3
100
AcDbLine
 10
37.16666338
 20
-3.45500808
 30
0.0
 11
37.17414027
 21
-3.35501023
 31
0.0
  0
LINE
  5
3A5
100
AcDbEntity
  8
レイヤー_1
  6
CONTINUOUS
 62
       3
100
AcDbLine
 10
37.17414027
 20
-3.35501023
 30
0.0
 11
37.17162879
 21
-3.25376612
 31
0.0
  0
LINE
  5
3A6
100
AcDbEntity
  8
レイヤー_1
  6
CONTINUOUS
 62
       3
100
AcDbLine
 10
37.17162879
 20
-3.25376612
 30
0.0
 11
37.1593041
 21
-3.15509064
 31
0.0
  0
LINE
  5
3A7
100
AcDbEntity
  8
レイヤー_1
  6
CONTINUOUS
 62
       3
100
AcDbLine
 10
37.1593041
 20
-3.15509064
 30
0.0
 11
37.13764412
 21
-3.05964315
 31
0.0
  0
LINE
  5
3A8
100
AcDbEntity
  8
レイヤー_1
  6
CONTINUOUS
 62
       3
100
AcDbLine
 10
37.13764412
 20
-3.05964315
 30
0.0
 11
37.10712927
 21
-2.96790247
 31
0.0
  0
LINE
  5
3A9
100
AcDbEntity
  8
レイヤー_1
  6
CONTINUOUS
 62
       3
100
AcDbLine
 10
37.10712927
 20
-2.96790247
 30
0.0
 11
37.06823997
 21
-2.88034741
 31
0.0
  0
LINE
  5
3AA
100
AcDbEntity
  8
レイヤー_1
  6
CONTINUOUS
 62
       3
100
AcDbLine
 10
37.06823997
 20
-2.88034741
 30
0.0
 11
37.02145665
 21
-2.79745678
 31
0.0
  0
LINE
  5
3AB
100
AcDbEntity
  8
レイヤー_1
  6
CONTINUOUS
 62
       3
100
AcDbLine
 10
37.02145665
 20
-2.79745678
 30
0.0
 11
36.96725971
 21
-2.7197094
 31
0.0
  0
LINE
  5
3AC
100
AcDbEntity
  8
レイヤー_1
  6
CONTINUOUS
 62
       3
100
AcDbLine
 10
36.96725971
 20
-2.7197094
 30
0.0
 11
36.90612959
 21
-2.64758408
 31
0.0
  0
LINE
  5
3AD
100
AcDbEntity
  8
レイヤー_1
  6
CONTINUOUS
 62
       3
100
AcDbLine
 10
36.90612959
 20
-2.64758408
 30
0.0
 11
36.8385467
 21
-2.58155965
 31
0.0
  0
LINE
  5
3AE
100
AcDbEntity
  8
レイヤー_1
  6
CONTINUOUS
 62
       3
100
AcDbLine
 10
36.8385467
 20
-2.58155965
 30
0.0
 11
36.76499147
 21
-2.52211491
 31
0.0
  0
LINE
  5
3AF
100
AcDbEntity
  8
レイヤー_1
  6
CONTINUOUS
 62
       3
100
AcDbLine
 10
36.76499147
 20
-2.52211491
 30
0.0
 11
36.68594432
 21
-2.46972868
 31
0.0
  0
LINE
  5
3B0
100
AcDbEntity
  8
レイヤー_1
  6
CONTINUOUS
 62
       3
100
AcDbLine
 10
36.68594432
 20
-2.46972868
 30
0.0
 11
36.60188566
 21
-2.42487977
 31
0.0
  0
LINE
  5
3B1
100
AcDbEntity
  8
レイヤー_1
  6
CONTINUOUS
 62
       3
100
AcDbLine
 10
36.60188566
 20
-2.42487977
 30
0.0
 11
36.51329592
 21
-2.38804701
 31
0.0
  0
LINE
  5
3B2
100
AcDbEntity
  8
レイヤー_1
  6
CONTINUOUS
 62
       3
100
AcDbLine
 10
36.51329592
 20
-2.38804701
 30
0.0
 11
36.42065552
 21
-2.3597092
 31
0.0
  0
LINE
  5
3B3
100
AcDbEntity
  8
レイヤー_1
  6
CONTINUOUS
 62
       3
100
AcDbLine
 10
36.42065552
 20
-2.3597092
 30
0.0
 11
36.32444488
 21
-2.34034516
 31
0.0
  0
LINE
  5
3B4
100
AcDbEntity
  8
レイヤー_1
  6
CONTINUOUS
 62
       3
100
AcDbLine
 10
36.32444488
 20
-2.34034516
 30
0.0
 11
36.22514442
 21
-2.33043371
 31
0.0
  0
LINE
  5
3B5
100
AcDbEntity
  8
レイヤー_1
  6
CONTINUOUS
 62
       3
100
AcDbLine
 10
36.22514442
 20
-2.33043371
 30
0.0
 11
36.12374719
 21
-2.33043371
 31
0.0
  0
LINE
  5
3B6
100
AcDbEntity
  8
レイヤー_1
  6
CONTINUOUS
 62
       3
100
AcDbLine
 10
36.12374719
 20
-2.33043371
 30
0.0
 11
36.02431679
 21
-2.34034516
 31
0.0
  0
LINE
  5
3B7
100
AcDbEntity
  8
レイヤー_1
  6
CONTINUOUS
 62
       3
100
AcDbLine
 10
36.02431679
 20
-2.34034516
 30
0.0
 11
35.92801218
 21
-2.3597092
 31
0.0
  0
LINE
  5
3B8
100
AcDbEntity
  8
レイヤー_1
  6
CONTINUOUS
 62
       3
100
AcDbLine
 10
35.92801218
 20
-2.3597092
 30
0.0
 11
35.83530992
 21
-2.38804701
 31
0.0
  0
LINE
  5
3B9
100
AcDbEntity
  8
レイヤー_1
  6
CONTINUOUS
 62
       3
100
AcDbLine
 10
35.83530992
 20
-2.38804701
 30
0.0
 11
35.74668658
 21
-2.42487977
 31
0.0
  0
LINE
  5
3BA
100
AcDbEntity
  8
レイヤー_1
  6
CONTINUOUS
 62
       3
100
AcDbLine
 10
35.74668658
 20
-2.42487977
 30
0.0
 11
35.66261873
 21
-2.46972868
 31
0.0
  0
LINE
  5
3BB
100
AcDbEntity
  8
レイヤー_1
  6
CONTINUOUS
 62
       3
100
AcDbLine
 10
35.66261873
 20
-2.46972868
 30
0.0
 11
35.58358293
 21
-2.52211491
 31
0.0
  0
LINE
  5
3BC
100
AcDbEntity
  8
レイヤー_1
  6
CONTINUOUS
 62
       3
100
AcDbLine
 10
35.58358293
 20
-2.52211491
 30
0.0
 11
35.51005576
 21
-2.58155965
 31
0.0
  0
LINE
  5
3BD
100
AcDbEntity
  8
レイヤー_1
  6
CONTINUOUS
 62
       3
100
AcDbLine
 10
35.51005576
 20
-2.58155965
 30
0.0
 11
35.44251378
 21
-2.64758408
 31
0.0
  0
LINE
  5
3BE
100
AcDbEntity
  8
レイヤー_1
  6
CONTINUOUS
 62
       3
100
AcDbLine
 10
35.44251378
 20
-2.64758408
 30
0.0
 11
35.38143355
 21
-2.7197094
 31
0.0
  0
LINE
  5
3BF
100
AcDbEntity
  8
レイヤー_1
  6
CONTINUOUS
 62
       3
100
AcDbLine
 10
35.38143355
 20
-2.7197094
 30
0.0
 11
35.32729165
 21
-2.79745678
 31
0.0
  0
LINE
  5
3C0
100
AcDbEntity
  8
レイヤー_1
  6
CONTINUOUS
 62
       3
100
AcDbLine
 10
35.32729165
 20
-2.79745678
 30
0.0
 11
35.28056465
 21
-2.88034741
 31
0.0
  0
LINE
  5
3C1
100
AcDbEntity
  8
レイヤー_1
  6
CONTINUOUS
 62
       3
100
AcDbLine
 10
35.28056465
 20
-2.88034741
 30
0.0
 11
35.2417291
 21
-2.96790247
 31
0.0
  0
LINE
  5
3C2
100
AcDbEntity
  8
レイヤー_1
  6
CONTINUOUS
 62
       3
100
AcDbLine
 10
35.2417291
 20
-2.96790247
 30
0.0
 11
35.21126157
 21
-3.05964315
 31
0.0
  0
LINE
  5
3C3
100
AcDbEntity
  8
レイヤー_1
  6
CONTINUOUS
 62
       3
100
AcDbLine
 10
35.21126157
 20
-3.05964315
 30
0.0
 11
35.18963865
 21
-3.15509064
 31
0.0
  0
LINE
  5
3C4
100
AcDbEntity
  8
レイヤー_1
  6
CONTINUOUS
 62
       3
100
AcDbLine
 10
35.18963865
 20
-3.15509064
 30
0.0
 11
35.17733688
 21
-3.25376612
 31
0.0
  0
LINE
  5
3C5
100
AcDbEntity
  8
レイヤー_1
  6
CONTINUOUS
 62
       3
100
AcDbLine
 10
35.17733688
 20
-3.25376612
 30
0.0
 11
35.17483036
 21
-3.35501023
 31
0.0
  0
LINE
  5
3C6
100
AcDbEntity
  8
レイヤー_1
  6
CONTINUOUS
 62
       3
100
AcDbLine
 10
35.17483036
 20
-3.35501023
 30
0.0
 11
35.18229283
 21
-3.45500808
 31
0.0
  0
LINE
  5
3C7
100
AcDbEntity
  8
レイヤー_1
  6
CONTINUOUS
 62
       3
100
AcDbLine
 10
35.18229283
 20
-3.45500808
 30
0.0
 11
35.19931475
 21
-3.55203622
 31
0.0
  0
LINE
  5
3C8
100
AcDbEntity
  8
レイヤー_1
  6
CONTINUOUS
 62
       3
100
AcDbLine
 10
35.19931475
 20
-3.55203622
 30
0.0
 11
35.22541955
 21
-3.64561422
 31
0.0
  0
LINE
  5
3C9
100
AcDbEntity
  8
レイヤー_1
  6
CONTINUOUS
 62
       3
100
AcDbLine
 10
35.22541955
 20
-3.64561422
 30
0.0
 11
35.26013065
 21
-3.73526166
 31
0.0
  0
LINE
  5
3CA
100
AcDbEntity
  8
レイヤー_1
  6
CONTINUOUS
 62
       3
100
AcDbLine
 10
35.26013065
 20
-3.73526166
 30
0.0
 11
35.3029715
 21
-3.82049813
 31
0.0
  0
LINE
  5
3CB
100
AcDbEntity
  8
レイヤー_1
  6
CONTINUOUS
 62
       3
100
AcDbLine
 10
35.3029715
 20
-3.82049813
 30
0.0
 11
35.35346553
 21
-3.9008432
 31
0.0
  0
LINE
  5
3CC
100
AcDbEntity
  8
レイヤー_1
  6
CONTINUOUS
 62
       3
100
AcDbLine
 10
35.35346553
 20
-3.9008432
 30
0.0
 11
35.41113616
 21
-3.97581645
 31
0.0
  0
LINE
  5
3CD
100
AcDbEntity
  8
レイヤー_1
  6
CONTINUOUS
 62
       3
100
AcDbLine
 10
35.41113616
 20
-3.97581645
 30
0.0
 11
35.47550683
 21
-4.04493747
 31
0.0
  0
LINE
  5
3CE
100
AcDbEntity
  8
レイヤー_1
  6
CONTINUOUS
 62
       3
100
AcDbLine
 10
35.47550683
 20
-4.04493747
 30
0.0
 11
35.54610098
 21
-4.10772582
 31
0.0
  0
LINE
  5
3CF
100
AcDbEntity
  8
レイヤー_1
  6
CONTINUOUS
 62
       3
100
AcDbLine
 10
35.54610098
 20
-4.10772582
 30
0.0
 11
35.62244204
 21
-4.16370109
 31
0.0
  0
LINE
  5
3D0
100
AcDbEntity
  8
レイヤー_1
  6
CONTINUOUS
 62
       3
100
AcDbLine
 10
35.62244204
 20
-4.16370109
 30
0.0
 11
35.70405343
 21
-4.21238286
 31
0.0
  0
LINE
  5
3D1
100
AcDbEntity
  8
レイヤー_1
  6
CONTINUOUS
 62
       3
100
AcDbLine
 10
35.70405343
 20
-4.21238286
 30
0.0
 11
35.7904586
 21
-4.2532907
 31
0.0
  0
LINE
  5
3D2
100
AcDbEntity
  8
レイヤー_1
  6
CONTINUOUS
 62
       3
100
AcDbLine
 10
35.7904586
 20
-4.2532907
 30
0.0
 11
35.88118097
 21
-4.2859442
 31
0.0
  0
LINE
  5
3D3
100
AcDbEntity
  8
レイヤー_1
  6
CONTINUOUS
 62
       3
100
AcDbLine
 10
35.88118097
 20
-4.2859442
 30
0.0
 11
35.97574397
 21
-4.30986294
 31
0.0
  0
LINE
  5
3D4
100
AcDbEntity
  8
レイヤー_1
  6
CONTINUOUS
 62
       3
100
AcDbLine
 10
35.97574397
 20
-4.30986294
 30
0.0
 11
36.07367105
 21
-4.32456649
 31
0.0
  0
LINE
  5
3D5
100
AcDbEntity
  8
レイヤー_1
  6
CONTINUOUS
 62
       3
100
AcDbLine
 10
36.07367105
 20
-4.32456649
 30
0.0
 11
36.17448563
 21
-4.32957443
 31
0.0
  0
LINE
  5
3D6
100
AcDbEntity
  8
レイヤー_1
  6
CONTINUOUS
 62
       3
100
AcDbLine
 10
32.1746001
 20
-11.83027848
 30
0.0
 11
32.27526532
 21
-11.82527287
 31
0.0
  0
LINE
  5
3D7
100
AcDbEntity
  8
レイヤー_1
  6
CONTINUOUS
 62
       3
100
AcDbLine
 10
32.27526532
 20
-11.82527287
 30
0.0
 11
32.37308092
 21
-11.81057528
 31
0.0
  0
LINE
  5
3D8
100
AcDbEntity
  8
レイヤー_1
  6
CONTINUOUS
 62
       3
100
AcDbLine
 10
32.37308092
 20
-11.81057528
 30
0.0
 11
32.46756649
 21
-11.7866645
 31
0.0
  0
LINE
  5
3D9
100
AcDbEntity
  8
レイヤー_1
  6
CONTINUOUS
 62
       3
100
AcDbLine
 10
32.46756649
 20
-11.7866645
 30
0.0
 11
32.55824162
 21
-11.75401936
 31
0.0
  0
LINE
  5
3DA
100
AcDbEntity
  8
レイヤー_1
  6
CONTINUOUS
 62
       3
100
AcDbLine
 10
32.55824162
 20
-11.75401936
 30
0.0
 11
32.64462587
 21
-11.71311868
 31
0.0
  0
LINE
  5
3DB
100
AcDbEntity
  8
レイヤー_1
  6
CONTINUOUS
 62
       3
100
AcDbLine
 10
32.64462587
 20
-11.71311868
 30
0.0
 11
32.72623883
 21
-11.66444126
 31
0.0
  0
LINE
  5
3DC
100
AcDbEntity
  8
レイヤー_1
  6
CONTINUOUS
 62
       3
100
AcDbLine
 10
32.72623883
 20
-11.66444126
 30
0.0
 11
32.80260007
 21
-11.60846592
 31
0.0
  0
LINE
  5
3DD
100
AcDbEntity
  8
レイヤー_1
  6
CONTINUOUS
 62
       3
100
AcDbLine
 10
32.80260007
 20
-11.60846592
 30
0.0
 11
32.87322919
 21
-11.54567148
 31
0.0
  0
LINE
  5
3DE
100
AcDbEntity
  8
レイヤー_1
  6
CONTINUOUS
 62
       3
100
AcDbLine
 10
32.87322919
 20
-11.54567148
 30
0.0
 11
32.93764574
 21
-11.47653675
 31
0.0
  0
LINE
  5
3DF
100
AcDbEntity
  8
レイヤー_1
  6
CONTINUOUS
 62
       3
100
AcDbLine
 10
32.93764574
 20
-11.47653675
 30
0.0
 11
32.99536932
 21
-11.40154055
 31
0.0
  0
LINE
  5
3E0
100
AcDbEntity
  8
レイヤー_1
  6
CONTINUOUS
 62
       3
100
AcDbLine
 10
32.99536932
 20
-11.40154055
 30
0.0
 11
33.04591951
 21
-11.3211617
 31
0.0
  0
LINE
  5
3E1
100
AcDbEntity
  8
レイヤー_1
  6
CONTINUOUS
 62
       3
100
AcDbLine
 10
33.04591951
 20
-11.3211617
 30
0.0
 11
33.08881587
 21
-11.235879
 31
0.0
  0
LINE
  5
3E2
100
AcDbEntity
  8
レイヤー_1
  6
CONTINUOUS
 62
       3
100
AcDbLine
 10
33.08881587
 20
-11.235879
 30
0.0
 11
33.123578
 21
-11.14617127
 31
0.0
  0
LINE
  5
3E3
100
AcDbEntity
  8
レイヤー_1
  6
CONTINUOUS
 62
       3
100
AcDbLine
 10
33.123578
 20
-11.14617127
 30
0.0
 11
33.14972546
 21
-11.05251734
 31
0.0
  0
LINE
  5
3E4
100
AcDbEntity
  8
レイヤー_1
  6
CONTINUOUS
 62
       3
100
AcDbLine
 10
33.14972546
 20
-11.05251734
 30
0.0
 11
33.16677785
 21
-10.955396
 31
0.0
  0
LINE
  5
3E5
100
AcDbEntity
  8
レイヤー_1
  6
CONTINUOUS
 62
       3
100
AcDbLine
 10
33.16677785
 20
-10.955396
 30
0.0
 11
33.17425474
 21
-10.85528609
 31
0.0
  0
LINE
  5
3E6
100
AcDbEntity
  8
レイヤー_1
  6
CONTINUOUS
 62
       3
100
AcDbLine
 10
33.17425474
 20
-10.85528609
 30
0.0
 11
33.17174326
 21
-10.75410046
 31
0.0
  0
LINE
  5
3E7
100
AcDbEntity
  8
レイヤー_1
  6
CONTINUOUS
 62
       3
100
AcDbLine
 10
33.17174326
 20
-10.75410046
 30
0.0
 11
33.15941857
 21
-10.65552742
 31
0.0
  0
LINE
  5
3E8
100
AcDbEntity
  8
レイヤー_1
  6
CONTINUOUS
 62
       3
100
AcDbLine
 10
33.15941857
 20
-10.65552742
 30
0.0
 11
33.13775859
 21
-10.5601643
 31
0.0
  0
LINE
  5
3E9
100
AcDbEntity
  8
レイヤー_1
  6
CONTINUOUS
 62
       3
100
AcDbLine
 10
33.13775859
 20
-10.5601643
 30
0.0
 11
33.10724374
 21
-10.46849152
 31
0.0
  0
LINE
  5
3EA
100
AcDbEntity
  8
レイヤー_1
  6
CONTINUOUS
 62
       3
100
AcDbLine
 10
33.10724374
 20
-10.46849152
 30
0.0
 11
33.06835444
 21
-10.38098951
 31
0.0
  0
LINE
  5
3EB
100
AcDbEntity
  8
レイヤー_1
  6
CONTINUOUS
 62
       3
100
AcDbLine
 10
33.06835444
 20
-10.38098951
 30
0.0
 11
33.02157111
 21
-10.29813869
 31
0.0
  0
LINE
  5
3EC
100
AcDbEntity
  8
レイヤー_1
  6
CONTINUOUS
 62
       3
100
AcDbLine
 10
33.02157111
 20
-10.29813869
 30
0.0
 11
32.96737418
 21
-10.22041948
 31
0.0
  0
LINE
  5
3ED
100
AcDbEntity
  8
レイヤー_1
  6
CONTINUOUS
 62
       3
100
AcDbLine
 10
32.96737418
 20
-10.22041948
 30
0.0
 11
32.90624406
 21
-10.14831229
 31
0.0
  0
LINE
  5
3EE
100
AcDbEntity
  8
レイヤー_1
  6
CONTINUOUS
 62
       3
100
AcDbLine
 10
32.90624406
 20
-10.14831229
 30
0.0
 11
32.83866117
 21
-10.08229756
 31
0.0
  0
LINE
  5
3EF
100
AcDbEntity
  8
レイヤー_1
  6
CONTINUOUS
 62
       3
100
AcDbLine
 10
32.83866117
 20
-10.08229756
 30
0.0
 11
32.76510594
 21
-10.02285569
 31
0.0
  0
LINE
  5
3F0
100
AcDbEntity
  8
レイヤー_1
  6
CONTINUOUS
 62
       3
100
AcDbLine
 10
32.76510594
 20
-10.02285569
 30
0.0
 11
32.68605879
 21
-9.97046712
 31
0.0
  0
LINE
  5
3F1
100
AcDbEntity
  8
レイヤー_1
  6
CONTINUOUS
 62
       3
100
AcDbLine
 10
32.68605879
 20
-9.97046712
 30
0.0
 11
32.60200013
 21
-9.92561226
 31
0.0
  0
LINE
  5
3F2
100
AcDbEntity
  8
レイヤー_1
  6
CONTINUOUS
 62
       3
100
AcDbLine
 10
32.60200013
 20
-9.92561226
 30
0.0
 11
32.51341039
 21
-9.88877154
 31
0.0
  0
LINE
  5
3F3
100
AcDbEntity
  8
レイヤー_1
  6
CONTINUOUS
 62
       3
100
AcDbLine
 10
32.51341039
 20
-9.88877154
 30
0.0
 11
32.42076999
 21
-9.86042537
 31
0.0
  0
LINE
  5
3F4
100
AcDbEntity
  8
レイヤー_1
  6
CONTINUOUS
 62
       3
100
AcDbLine
 10
32.42076999
 20
-9.86042537
 30
0.0
 11
32.32455934
 21
-9.84105417
 31
0.0
  0
LINE
  5
3F5
100
AcDbEntity
  8
レイヤー_1
  6
CONTINUOUS
 62
       3
100
AcDbLine
 10
32.32455934
 20
-9.84105417
 30
0.0
 11
32.22525888
 21
-9.83113837
 31
0.0
  0
LINE
  5
3F6
100
AcDbEntity
  8
レイヤー_1
  6
CONTINUOUS
 62
       3
100
AcDbLine
 10
32.22525888
 20
-9.83113837
 30
0.0
 11
32.12390149
 21
-9.83113837
 31
0.0
  0
LINE
  5
3F7
100
AcDbEntity
  8
レイヤー_1
  6
CONTINUOUS
 62
       3
100
AcDbLine
 10
32.12390149
 20
-9.83113837
 30
0.0
 11
32.02453606
 21
-9.84105417
 31
0.0
  0
LINE
  5
3F8
100
AcDbEntity
  8
レイヤー_1
  6
CONTINUOUS
 62
       3
100
AcDbLine
 10
32.02453606
 20
-9.84105417
 30
0.0
 11
31.92827843
 21
-9.86042537
 31
0.0
  0
LINE
  5
3F9
100
AcDbEntity
  8
レイヤー_1
  6
CONTINUOUS
 62
       3
100
AcDbLine
 10
31.92827843
 20
-9.86042537
 30
0.0
 11
31.8356071
 21
-9.88877154
 31
0.0
  0
LINE
  5
3FA
100
AcDbEntity
  8
レイヤー_1
  6
CONTINUOUS
 62
       3
100
AcDbLine
 10
31.8356071
 20
-9.88877154
 30
0.0
 11
31.74700056
 21
-9.92561226
 31
0.0
  0
LINE
  5
3FB
100
AcDbEntity
  8
レイヤー_1
  6
CONTINUOUS
 62
       3
100
AcDbLine
 10
31.74700056
 20
-9.92561226
 30
0.0
 11
31.66293731
 21
-9.97046712
 31
0.0
  0
LINE
  5
3FC
100
AcDbEntity
  8
レイヤー_1
  6
CONTINUOUS
 62
       3
100
AcDbLine
 10
31.66293731
 20
-9.97046712
 30
0.0
 11
31.58389583
 21
-10.02285569
 31
0.0
  0
LINE
  5
3FD
100
AcDbEntity
  8
レイヤー_1
  6
CONTINUOUS
 62
       3
100
AcDbLine
 10
31.58389583
 20
-10.02285569
 30
0.0
 11
31.51035463
 21
-10.08229756
 31
0.0
  0
LINE
  5
3FE
100
AcDbEntity
  8
レイヤー_1
  6
CONTINUOUS
 62
       3
100
AcDbLine
 10
31.51035463
 20
-10.08229756
 30
0.0
 11
31.4427922
 21
-10.14831229
 31
0.0
  0
LINE
  5
3FF
100
AcDbEntity
  8
レイヤー_1
  6
CONTINUOUS
 62
       3
100
AcDbLine
 10
31.4427922
 20
-10.14831229
 30
0.0
 11
31.38168702
 21
-10.22041948
 31
0.0
  0
LINE
  5
400
100
AcDbEntity
  8
レイヤー_1
  6
CONTINUOUS
 62
       3
100
AcDbLine
 10
31.38168702
 20
-10.22041948
 30
0.0
 11
31.32751761
 21
-10.29813869
 31
0.0
  0
LINE
  5
401
100
AcDbEntity
  8
レイヤー_1
  6
CONTINUOUS
 62
       3
100
AcDbLine
 10
31.32751761
 20
-10.29813869
 30
0.0
 11
31.28076244
 21
-10.38098951
 31
0.0
  0
LINE
  5
402
100
AcDbEntity
  8
レイヤー_1
  6
CONTINUOUS
 62
       3
100
AcDbLine
 10
31.28076244
 20
-10.38098951
 30
0.0
 11
31.24190001
 21
-10.46849152
 31
0.0
  0
LINE
  5
403
100
AcDbEntity
  8
レイヤー_1
  6
CONTINUOUS
 62
       3
100
AcDbLine
 10
31.24190001
 20
-10.46849152
 30
0.0
 11
31.21140883
 21
-10.5601643
 31
0.0
  0
LINE
  5
404
100
AcDbEntity
  8
レイヤー_1
  6
CONTINUOUS
 62
       3
100
AcDbLine
 10
31.21140883
 20
-10.5601643
 30
0.0
 11
31.18976738
 21
-10.65552742
 31
0.0
  0
LINE
  5
405
100
AcDbEntity
  8
レイヤー_1
  6
CONTINUOUS
 62
       3
100
AcDbLine
 10
31.18976738
 20
-10.65552742
 30
0.0
 11
31.17745415
 21
-10.75410046
 31
0.0
  0
LINE
  5
406
100
AcDbEntity
  8
レイヤー_1
  6
CONTINUOUS
 62
       3
100
AcDbLine
 10
31.17745415
 20
-10.75410046
 30
0.0
 11
31.17494515
 21
-10.85528609
 31
0.0
  0
LINE
  5
407
100
AcDbEntity
  8
レイヤー_1
  6
CONTINUOUS
 62
       3
100
AcDbLine
 10
31.17494515
 20
-10.85528609
 30
0.0
 11
31.18241483
 21
-10.955396
 31
0.0
  0
LINE
  5
408
100
AcDbEntity
  8
レイヤー_1
  6
CONTINUOUS
 62
       3
100
AcDbLine
 10
31.18241483
 20
-10.955396
 30
0.0
 11
31.19945198
 21
-11.05251734
 31
0.0
  0
LINE
  5
409
100
AcDbEntity
  8
レイヤー_1
  6
CONTINUOUS
 62
       3
100
AcDbLine
 10
31.19945198
 20
-11.05251734
 30
0.0
 11
31.22557811
 21
-11.14617127
 31
0.0
  0
LINE
  5
40A
100
AcDbEntity
  8
レイヤー_1
  6
CONTINUOUS
 62
       3
100
AcDbLine
 10
31.22557811
 20
-11.14617127
 30
0.0
 11
31.26031473
 21
-11.235879
 31
0.0
  0
LINE
  5
40B
100
AcDbEntity
  8
レイヤー_1
  6
CONTINUOUS
 62
       3
100
AcDbLine
 10
31.26031473
 20
-11.235879
 30
0.0
 11
31.30318333
 21
-11.3211617
 31
0.0
  0
LINE
  5
40C
100
AcDbEntity
  8
レイヤー_1
  6
CONTINUOUS
 62
       3
100
AcDbLine
 10
31.30318333
 20
-11.3211617
 30
0.0
 11
31.35370544
 21
-11.40154055
 31
0.0
  0
LINE
  5
40D
100
AcDbEntity
  8
レイヤー_1
  6
CONTINUOUS
 62
       3
100
AcDbLine
 10
31.35370544
 20
-11.40154055
 30
0.0
 11
31.41140255
 21
-11.47653675
 31
0.0
  0
LINE
  5
40E
100
AcDbEntity
  8
レイヤー_1
  6
CONTINUOUS
 62
       3
100
AcDbLine
 10
31.41140255
 20
-11.47653675
 30
0.0
 11
31.47579616
 21
-11.54567148
 31
0.0
  0
LINE
  5
40F
100
AcDbEntity
  8
レイヤー_1
  6
CONTINUOUS
 62
       3
100
AcDbLine
 10
31.47579616
 20
-11.54567148
 30
0.0
 11
31.54640779
 21
-11.60846592
 31
0.0
  0
LINE
  5
410
100
AcDbEntity
  8
レイヤー_1
  6
CONTINUOUS
 62
       3
100
AcDbLine
 10
31.54640779
 20
-11.60846592
 30
0.0
 11
31.62275894
 21
-11.66444126
 31
0.0
  0
LINE
  5
411
100
AcDbEntity
  8
レイヤー_1
  6
CONTINUOUS
 62
       3
100
AcDbLine
 10
31.62275894
 20
-11.66444126
 30
0.0
 11
31.70437112
 21
-11.71311868
 31
0.0
  0
LINE
  5
412
100
AcDbEntity
  8
レイヤー_1
  6
CONTINUOUS
 62
       3
100
AcDbLine
 10
31.70437112
 20
-11.71311868
 30
0.0
 11
31.79076583
 21
-11.75401936
 31
0.0
  0
LINE
  5
413
100
AcDbEntity
  8
レイヤー_1
  6
CONTINUOUS
 62
       3
100
AcDbLine
 10
31.79076583
 20
-11.75401936
 30
0.0
 11
31.88146457
 21
-11.7866645
 31
0.0
  0
LINE
  5
414
100
AcDbEntity
  8
レイヤー_1
  6
CONTINUOUS
 62
       3
100
AcDbLine
 10
31.88146457
 20
-11.7866645
 30
0.0
 11
31.97598886
 21
-11.81057528
 31
0.0
  0
LINE
  5
415
100
AcDbEntity
  8
レイヤー_1
  6
CONTINUOUS
 62
       3
100
AcDbLine
 10
31.97598886
 20
-11.81057528
 30
0.0
 11
32.07386021
 21
-11.82527287
 31
0.0
  0
LINE
  5
416
100
AcDbEntity
  8
レイヤー_1
  6
CONTINUOUS
 62
       3
100
AcDbLine
 10
32.07386021
 20
-11.82527287
 30
0.0
 11
32.1746001
 21
-11.83027848
 31
0.0
  0
LINE
  5
417
100
AcDbEntity
  8
レイヤー_1
  6
CONTINUOUS
 62
       3
100
AcDbLine
 10
-16.80355727
 20
22.40806186
 30
0.0
 11
-16.80979476
 21
22.50749256
 31
0.0
  0
LINE
  5
418
100
AcDbEntity
  8
レイヤー_1
  6
CONTINUOUS
 62
       3
100
AcDbLine
 10
-16.80979476
 20
22.50749256
 30
0.0
 11
-16.82798661
 21
22.60604555
 31
0.0
  0
LINE
  5
419
100
AcDbEntity
  8
レイヤー_1
  6
CONTINUOUS
 62
       3
100
AcDbLine
 10
-16.82798661
 20
22.60604555
 30
0.0
 11
-16.85735186
 21
22.70284313
 31
0.0
  0
LINE
  5
41A
100
AcDbEntity
  8
レイヤー_1
  6
CONTINUOUS
 62
       3
100
AcDbLine
 10
-16.85735186
 20
22.70284313
 30
0.0
 11
-16.89710957
 21
22.79700759
 31
0.0
  0
LINE
  5
41B
100
AcDbEntity
  8
レイヤー_1
  6
CONTINUOUS
 62
       3
100
AcDbLine
 10
-16.89710957
 20
22.79700759
 30
0.0
 11
-16.9464788
 21
22.88766122
 31
0.0
  0
LINE
  5
41C
100
AcDbEntity
  8
レイヤー_1
  6
CONTINUOUS
 62
       3
100
AcDbLine
 10
-16.9464788
 20
22.88766122
 30
0.0
 11
-17.00467861
 21
22.97392633
 31
0.0
  0
LINE
  5
41D
100
AcDbEntity
  8
レイヤー_1
  6
CONTINUOUS
 62
       3
100
AcDbLine
 10
-17.00467861
 20
22.97392633
 30
0.0
 11
-17.07092804
 21
23.05492519
 31
0.0
  0
LINE
  5
41E
100
AcDbEntity
  8
レイヤー_1
  6
CONTINUOUS
 62
       3
100
AcDbLine
 10
-17.07092804
 20
23.05492519
 30
0.0
 11
-17.14444615
 21
23.12978011
 31
0.0
  0
LINE
  5
41F
100
AcDbEntity
  8
レイヤー_1
  6
CONTINUOUS
 62
       3
100
AcDbLine
 10
-17.14444615
 20
23.12978011
 30
0.0
 11
-17.224452
 21
23.19761339
 31
0.0
  0
LINE
  5
420
100
AcDbEntity
  8
レイヤー_1
  6
CONTINUOUS
 62
       3
100
AcDbLine
 10
-17.224452
 20
23.19761339
 30
0.0
 11
-17.31016465
 21
23.2575473
 31
0.0
  0
LINE
  5
421
100
AcDbEntity
  8
レイヤー_1
  6
CONTINUOUS
 62
       3
100
AcDbLine
 10
-17.31016465
 20
23.2575473
 30
0.0
 11
-17.40080314
 21
23.30870415
 31
0.0
  0
LINE
  5
422
100
AcDbEntity
  8
レイヤー_1
  6
CONTINUOUS
 62
       3
100
AcDbLine
 10
-17.40080314
 20
23.30870415
 30
0.0
 11
-17.49558654
 21
23.35020623
 31
0.0
  0
LINE
  5
423
100
AcDbEntity
  8
レイヤー_1
  6
CONTINUOUS
 62
       3
100
AcDbLine
 10
-17.49558654
 20
23.35020623
 30
0.0
 11
-17.59373389
 21
23.38117584
 31
0.0
  0
LINE
  5
424
100
AcDbEntity
  8
レイヤー_1
  6
CONTINUOUS
 62
       3
100
AcDbLine
 10
-17.59373389
 20
23.38117584
 30
0.0
 11
-17.69446426
 21
23.40073526
 31
0.0
  0
LINE
  5
425
100
AcDbEntity
  8
レイヤー_1
  6
CONTINUOUS
 62
       3
100
AcDbLine
 10
-17.69446426
 20
23.40073526
 30
0.0
 11
-17.7969967
 21
23.4080068
 31
0.0
  0
LINE
  5
426
100
AcDbEntity
  8
レイヤー_1
  6
CONTINUOUS
 62
       3
100
AcDbLine
 10
-17.7969967
 20
23.4080068
 30
0.0
 11
-17.87028168
 21
23.40803324
 31
0.0
  0
LINE
  5
427
100
AcDbEntity
  8
レイヤー_1
  6
CONTINUOUS
 62
       3
100
AcDbLine
 10
-17.87028168
 20
23.40803324
 30
0.0
 11
-18.07629271
 21
23.40803324
 31
0.0
  0
LINE
  5
428
100
AcDbEntity
  8
レイヤー_1
  6
CONTINUOUS
 62
       3
100
AcDbLine
 10
-18.07629271
 20
23.40803324
 30
0.0
 11
-18.40173383
 21
23.40803324
 31
0.0
  0
LINE
  5
429
100
AcDbEntity
  8
レイヤー_1
  6
CONTINUOUS
 62
       3
100
AcDbLine
 10
-18.40173383
 20
23.40803324
 30
0.0
 11
-18.82645892
 21
23.40803324
 31
0.0
  0
LINE
  5
42A
100
AcDbEntity
  8
レイヤー_1
  6
CONTINUOUS
 62
       3
100
AcDbLine
 10
-18.82645892
 20
23.40803324
 30
0.0
 11
-19.33032186
 21
23.40803324
 31
0.0
  0
LINE
  5
42B
100
AcDbEntity
  8
レイヤー_1
  6
CONTINUOUS
 62
       3
100
AcDbLine
 10
-19.33032186
 20
23.40803324
 30
0.0
 11
-19.89317652
 21
23.40803324
 31
0.0
  0
LINE
  5
42C
100
AcDbEntity
  8
レイヤー_1
  6
CONTINUOUS
 62
       3
100
AcDbLine
 10
-19.89317652
 20
23.40803324
 30
0.0
 11
-20.49487678
 21
23.40803324
 31
0.0
  0
LINE
  5
42D
100
AcDbEntity
  8
レイヤー_1
  6
CONTINUOUS
 62
       3
100
AcDbLine
 10
-20.49487678
 20
23.40803324
 30
0.0
 11
-21.11527653
 21
23.40803324
 31
0.0
  0
LINE
  5
42E
100
AcDbEntity
  8
レイヤー_1
  6
CONTINUOUS
 62
       3
100
AcDbLine
 10
-21.11527653
 20
23.40803324
 30
0.0
 11
-21.73422964
 21
23.40803324
 31
0.0
  0
LINE
  5
42F
100
AcDbEntity
  8
レイヤー_1
  6
CONTINUOUS
 62
       3
100
AcDbLine
 10
-21.73422964
 20
23.40803324
 30
0.0
 11
-22.33158999
 21
23.40803324
 31
0.0
  0
LINE
  5
430
100
AcDbEntity
  8
レイヤー_1
  6
CONTINUOUS
 62
       3
100
AcDbLine
 10
-22.33158999
 20
23.40803324
 30
0.0
 11
-22.88721146
 21
23.40803324
 31
0.0
  0
LINE
  5
431
100
AcDbEntity
  8
レイヤー_1
  6
CONTINUOUS
 62
       3
100
AcDbLine
 10
-22.88721146
 20
23.40803324
 30
0.0
 11
-23.38094792
 21
23.40803324
 31
0.0
  0
LINE
  5
432
100
AcDbEntity
  8
レイヤー_1
  6
CONTINUOUS
 62
       3
100
AcDbLine
 10
-23.38094792
 20
23.40803324
 30
0.0
 11
-23.79265326
 21
23.40803324
 31
0.0
  0
LINE
  5
433
100
AcDbEntity
  8
レイヤー_1
  6
CONTINUOUS
 62
       3
100
AcDbLine
 10
-23.79265326
 20
23.40803324
 30
0.0
 11
-24.10218136
 21
23.40803324
 31
0.0
  0
LINE
  5
434
100
AcDbEntity
  8
レイヤー_1
  6
CONTINUOUS
 62
       3
100
AcDbLine
 10
-24.10218136
 20
23.40803324
 30
0.0
 11
-24.28938609
 21
23.40803324
 31
0.0
  0
LINE
  5
435
100
AcDbEntity
  8
レイヤー_1
  6
CONTINUOUS
 62
       3
100
AcDbLine
 10
-24.28938609
 20
23.40803324
 30
0.0
 11
-24.39145829
 21
23.40327108
 31
0.0
  0
LINE
  5
436
100
AcDbEntity
  8
レイヤー_1
  6
CONTINUOUS
 62
       3
100
AcDbLine
 10
-24.39145829
 20
23.40327108
 30
0.0
 11
-24.49122965
 21
23.38657788
 31
0.0
  0
LINE
  5
437
100
AcDbEntity
  8
レイヤー_1
  6
CONTINUOUS
 62
       3
100
AcDbLine
 10
-24.49122965
 20
23.38657788
 30
0.0
 11
-24.58901089
 21
23.35862764
 31
0.0
  0
LINE
  5
438
100
AcDbEntity
  8
レイヤー_1
  6
CONTINUOUS
 62
       3
100
AcDbLine
 10
-24.58901089
 20
23.35862764
 30
0.0
 11
-24.68396663
 21
23.32019647
 31
0.0
  0
LINE
  5
439
100
AcDbEntity
  8
レイヤー_1
  6
CONTINUOUS
 62
       3
100
AcDbLine
 10
-24.68396663
 20
23.32019647
 30
0.0
 11
-24.7752615
 21
23.27206049
 31
0.0
  0
LINE
  5
43A
100
AcDbEntity
  8
レイヤー_1
  6
CONTINUOUS
 62
       3
100
AcDbLine
 10
-24.7752615
 20
23.27206049
 30
0.0
 11
-24.86206014
 21
23.2149958
 31
0.0
  0
LINE
  5
43B
100
AcDbEntity
  8
レイヤー_1
  6
CONTINUOUS
 62
       3
100
AcDbLine
 10
-24.86206014
 20
23.2149958
 30
0.0
 11
-24.94352716
 21
23.1497785
 31
0.0
  0
LINE
  5
43C
100
AcDbEntity
  8
レイヤー_1
  6
CONTINUOUS
 62
       3
100
AcDbLine
 10
-24.94352716
 20
23.1497785
 30
0.0
 11
-25.0188272
 21
23.0771847
 31
0.0
  0
LINE
  5
43D
100
AcDbEntity
  8
レイヤー_1
  6
CONTINUOUS
 62
       3
100
AcDbLine
 10
-25.0188272
 20
23.0771847
 30
0.0
 11
-25.08712487
 21
22.99799051
 31
0.0
  0
LINE
  5
43E
100
AcDbEntity
  8
レイヤー_1
  6
CONTINUOUS
 62
       3
100
AcDbLine
 10
-25.08712487
 20
22.99799051
 30
0.0
 11
-25.14758482
 21
22.91297203
 31
0.0
  0
LINE
  5
43F
100
AcDbEntity
  8
レイヤー_1
  6
CONTINUOUS
 62
       3
100
AcDbLine
 10
-25.14758482
 20
22.91297203
 30
0.0
 11
-25.19937166
 21
22.82290538
 31
0.0
  0
LINE
  5
440
100
AcDbEntity
  8
レイヤー_1
  6
CONTINUOUS
 62
       3
100
AcDbLine
 10
-25.19937166
 20
22.82290538
 30
0.0
 11
-25.24165002
 21
22.72856666
 31
0.0
  0
LINE
  5
441
100
AcDbEntity
  8
レイヤー_1
  6
CONTINUOUS
 62
       3
100
AcDbLine
 10
-25.24165002
 20
22.72856666
 30
0.0
 11
-25.27358452
 21
22.63073197
 31
0.0
  0
LINE
  5
442
100
AcDbEntity
  8
レイヤー_1
  6
CONTINUOUS
 62
       3
100
AcDbLine
 10
-25.27358452
 20
22.63073197
 30
0.0
 11
-25.2943398
 21
22.53017743
 31
0.0
  0
LINE
  5
443
100
AcDbEntity
  8
レイヤー_1
  6
CONTINUOUS
 62
       3
100
AcDbLine
 10
-25.2943398
 20
22.53017743
 30
0.0
 11
-25.30308049
 21
22.42767914
 31
0.0
  0
LINE
  5
444
100
AcDbEntity
  8
レイヤー_1
  6
CONTINUOUS
 62
       3
100
AcDbLine
 10
-25.29943345
 20
-9.84340772
 30
0.0
 11
-25.30331403
 21
-9.91696522
 31
0.0
  0
LINE
  5
445
100
AcDbEntity
  8
レイヤー_1
  6
CONTINUOUS
 62
       3
100
AcDbLine
 10
-25.30331403
 20
-28.59782802
 30
0.0
 11
-13.80341346
 21
-28.59782802
 31
0.0
  0
LINE
  5
446
100
AcDbEntity
  8
レイヤー_1
  6
CONTINUOUS
 62
       3
100
AcDbLine
 10
-13.80341346
 20
-28.59782802
 30
0.0
 11
-13.80341346
 21
-34.46463865
 31
0.0
  0
LINE
  5
447
100
AcDbEntity
  8
レイヤー_1
  6
CONTINUOUS
 62
       3
100
AcDbLine
 10
-13.80341346
 20
-34.46463865
 30
0.0
 11
-13.80702517
 21
-34.49961725
 31
0.0
  0
LINE
  5
448
100
AcDbEntity
  8
レイヤー_1
  6
CONTINUOUS
 62
       3
100
AcDbLine
 10
-13.80702517
 20
-34.49961725
 30
0.0
 11
-13.86695118
 21
-34.47119793
 31
0.0
  0
LINE
  5
449
100
AcDbEntity
  8
レイヤー_1
  6
CONTINUOUS
 62
       3
100
AcDbLine
 10
-13.86695118
 20
-34.47119793
 30
0.0
 11
-13.99247687
 21
-34.4116686
 31
0.0
  0
LINE
  5
44A
100
AcDbEntity
  8
レイヤー_1
  6
CONTINUOUS
 62
       3
100
AcDbLine
 10
-13.99247687
 20
-34.4116686
 30
0.0
 11
-14.17306895
 21
-34.32602457
 31
0.0
  0
LINE
  5
44B
100
AcDbEntity
  8
レイヤー_1
  6
CONTINUOUS
 62
       3
100
AcDbLine
 10
-14.17306895
 20
-34.32602457
 30
0.0
 11
-14.39819415
 21
-34.21926114
 31
0.0
  0
LINE
  5
44C
100
AcDbEntity
  8
レイヤー_1
  6
CONTINUOUS
 62
       3
100
AcDbLine
 10
-14.39819415
 20
-34.21926114
 30
0.0
 11
-14.65731919
 21
-34.09637362
 31
0.0
  0
LINE
  5
44D
100
AcDbEntity
  8
レイヤー_1
  6
CONTINUOUS
 62
       3
100
AcDbLine
 10
-14.65731919
 20
-34.09637362
 30
0.0
 11
-14.93991078
 21
-33.96235733
 31
0.0
  0
LINE
  5
44E
100
AcDbEntity
  8
レイヤー_1
  6
CONTINUOUS
 62
       3
100
AcDbLine
 10
-14.93991078
 20
-33.96235733
 30
0.0
 11
-15.23543564
 21
-33.82220755
 31
0.0
  0
LINE
  5
44F
100
AcDbEntity
  8
レイヤー_1
  6
CONTINUOUS
 62
       3
100
AcDbLine
 10
-15.23543564
 20
-33.82220755
 30
0.0
 11
-15.53336049
 21
-33.68091961
 31
0.0
  0
LINE
  5
450
100
AcDbEntity
  8
レイヤー_1
  6
CONTINUOUS
 62
       3
100
AcDbLine
 10
-15.53336049
 20
-33.68091961
 30
0.0
 11
-15.82315204
 21
-33.5434888
 31
0.0
  0
LINE
  5
451
100
AcDbEntity
  8
レイヤー_1
  6
CONTINUOUS
 62
       3
100
AcDbLine
 10
-15.82315204
 20
-33.5434888
 30
0.0
 11
-16.09427702
 21
-33.41491043
 31
0.0
  0
LINE
  5
452
100
AcDbEntity
  8
レイヤー_1
  6
CONTINUOUS
 62
       3
100
AcDbLine
 10
-16.09427702
 20
-33.41491043
 30
0.0
 11
-16.33620214
 21
-33.3001798
 31
0.0
  0
LINE
  5
453
100
AcDbEntity
  8
レイヤー_1
  6
CONTINUOUS
 62
       3
100
AcDbLine
 10
-16.33620214
 20
-33.3001798
 30
0.0
 11
-16.53839412
 21
-33.20429223
 31
0.0
  0
LINE
  5
454
100
AcDbEntity
  8
レイヤー_1
  6
CONTINUOUS
 62
       3
100
AcDbLine
 10
-16.53839412
 20
-33.20429223
 30
0.0
 11
-16.69031968
 21
-33.13224302
 31
0.0
  0
LINE
  5
455
100
AcDbEntity
  8
レイヤー_1
  6
CONTINUOUS
 62
       3
100
AcDbLine
 10
-16.69031968
 20
-33.13224302
 30
0.0
 11
-16.78144554
 21
-33.08902748
 31
0.0
  0
LINE
  5
456
100
AcDbEntity
  8
レイヤー_1
  6
CONTINUOUS
 62
       3
100
AcDbLine
 10
-16.78144554
 20
-33.08902748
 30
0.0
 11
-16.80431389
 21
-33.0785412
 31
0.0
  0
LINE
  5
457
100
AcDbEntity
  8
レイヤー_1
  6
CONTINUOUS
 62
       3
100
AcDbLine
 10
-16.80431389
 20
-33.0785412
 30
0.0
 11
-16.82278571
 21
-33.0785412
 31
0.0
  0
LINE
  5
458
100
AcDbEntity
  8
レイヤー_1
  6
CONTINUOUS
 62
       3
100
AcDbLine
 10
-16.82278571
 20
-33.0785412
 30
0.0
 11
-16.86334462
 21
-33.0785412
 31
0.0
  0
LINE
  5
459
100
AcDbEntity
  8
レイヤー_1
  6
CONTINUOUS
 62
       3
100
AcDbLine
 10
-16.86334462
 20
-33.0785412
 30
0.0
 11
-16.92247979
 21
-33.0785412
 31
0.0
  0
LINE
  5
45A
100
AcDbEntity
  8
レイヤー_1
  6
CONTINUOUS
 62
       3
100
AcDbLine
 10
-16.92247979
 20
-33.0785412
 30
0.0
 11
-16.99668041
 21
-33.0785412
 31
0.0
  0
LINE
  5
45B
100
AcDbEntity
  8
レイヤー_1
  6
CONTINUOUS
 62
       3
100
AcDbLine
 10
-16.99668041
 20
-33.0785412
 30
0.0
 11
-17.08243564
 21
-33.0785412
 31
0.0
  0
LINE
  5
45C
100
AcDbEntity
  8
レイヤー_1
  6
CONTINUOUS
 62
       3
100
AcDbLine
 10
-17.08243564
 20
-33.0785412
 30
0.0
 11
-17.17623465
 21
-33.0785412
 31
0.0
  0
LINE
  5
45D
100
AcDbEntity
  8
レイヤー_1
  6
CONTINUOUS
 62
       3
100
AcDbLine
 10
-17.17623465
 20
-33.0785412
 30
0.0
 11
-17.27456664
 21
-33.0785412
 31
0.0
  0
LINE
  5
45E
100
AcDbEntity
  8
レイヤー_1
  6
CONTINUOUS
 62
       3
100
AcDbLine
 10
-17.27456664
 20
-33.0785412
 30
0.0
 11
-17.37392076
 21
-33.0785412
 31
0.0
  0
LINE
  5
45F
100
AcDbEntity
  8
レイヤー_1
  6
CONTINUOUS
 62
       3
100
AcDbLine
 10
-17.37392076
 20
-33.0785412
 30
0.0
 11
-17.47078619
 21
-33.0785412
 31
0.0
  0
LINE
  5
460
100
AcDbEntity
  8
レイヤー_1
  6
CONTINUOUS
 62
       3
100
AcDbLine
 10
-17.47078619
 20
-33.0785412
 30
0.0
 11
-17.56165212
 21
-33.0785412
 31
0.0
  0
LINE
  5
461
100
AcDbEntity
  8
レイヤー_1
  6
CONTINUOUS
 62
       3
100
AcDbLine
 10
-17.56165212
 20
-33.0785412
 30
0.0
 11
-17.64300771
 21
-33.0785412
 31
0.0
  0
LINE
  5
462
100
AcDbEntity
  8
レイヤー_1
  6
CONTINUOUS
 62
       3
100
AcDbLine
 10
-17.64300771
 20
-33.0785412
 30
0.0
 11
-17.71134213
 21
-33.0785412
 31
0.0
  0
LINE
  5
463
100
AcDbEntity
  8
レイヤー_1
  6
CONTINUOUS
 62
       3
100
AcDbLine
 10
-17.71134213
 20
-33.0785412
 30
0.0
 11
-17.76314457
 21
-33.0785412
 31
0.0
  0
LINE
  5
464
100
AcDbEntity
  8
レイヤー_1
  6
CONTINUOUS
 62
       3
100
AcDbLine
 10
-17.76314457
 20
-33.0785412
 30
0.0
 11
-17.7949042
 21
-33.0785412
 31
0.0
  0
LINE
  5
465
100
AcDbEntity
  8
レイヤー_1
  6
CONTINUOUS
 62
       3
100
AcDbLine
 10
-17.7949042
 20
-33.0785412
 30
0.0
 11
-17.80352866
 21
-33.0793144
 31
0.0
  0
LINE
  5
466
100
AcDbEntity
  8
レイヤー_1
  6
CONTINUOUS
 62
       3
100
AcDbLine
 10
-17.80352866
 20
-33.0793144
 30
0.0
 11
-17.80352866
 21
-33.1111386
 31
0.0
  0
LINE
  5
467
100
AcDbEntity
  8
レイヤー_1
  6
CONTINUOUS
 62
       3
100
AcDbLine
 10
-17.80352866
 20
-33.1111386
 30
0.0
 11
-17.80352866
 21
-33.18483499
 31
0.0
  0
LINE
  5
468
100
AcDbEntity
  8
レイヤー_1
  6
CONTINUOUS
 62
       3
100
AcDbLine
 10
-17.80352866
 20
-33.18483499
 30
0.0
 11
-17.80352866
 21
-33.29381413
 31
0.0
  0
LINE
  5
469
100
AcDbEntity
  8
レイヤー_1
  6
CONTINUOUS
 62
       3
100
AcDbLine
 10
-17.80352866
 20
-33.29381413
 30
0.0
 11
-17.80352866
 21
-33.43148657
 31
0.0
  0
LINE
  5
46A
100
AcDbEntity
  8
レイヤー_1
  6
CONTINUOUS
 62
       3
100
AcDbLine
 10
-17.80352866
 20
-33.43148657
 30
0.0
 11
-17.80352866
 21
-33.59126287
 31
0.0
  0
LINE
  5
46B
100
AcDbEntity
  8
レイヤー_1
  6
CONTINUOUS
 62
       3
100
AcDbLine
 10
-17.80352866
 20
-33.59126287
 30
0.0
 11
-17.80352866
 21
-33.76655356
 31
0.0
  0
LINE
  5
46C
100
AcDbEntity
  8
レイヤー_1
  6
CONTINUOUS
 62
       3
100
AcDbLine
 10
-17.80352866
 20
-33.76655356
 30
0.0
 11
-17.80352866
 21
-33.9507692
 31
0.0
  0
LINE
  5
46D
100
AcDbEntity
  8
レイヤー_1
  6
CONTINUOUS
 62
       3
100
AcDbLine
 10
-17.80352866
 20
-33.9507692
 30
0.0
 11
-17.80352866
 21
-34.13732034
 31
0.0
  0
LINE
  5
46E
100
AcDbEntity
  8
レイヤー_1
  6
CONTINUOUS
 62
       3
100
AcDbLine
 10
-17.80352866
 20
-34.13732034
 30
0.0
 11
-17.80352866
 21
-34.31961754
 31
0.0
  0
LINE
  5
46F
100
AcDbEntity
  8
レイヤー_1
  6
CONTINUOUS
 62
       3
100
AcDbLine
 10
-17.80352866
 20
-34.31961754
 30
0.0
 11
-17.80352866
 21
-34.49107134
 31
0.0
  0
LINE
  5
470
100
AcDbEntity
  8
レイヤー_1
  6
CONTINUOUS
 62
       3
100
AcDbLine
 10
-17.80352866
 20
-34.49107134
 30
0.0
 11
-17.80352866
 21
-34.64509229
 31
0.0
  0
LINE
  5
471
100
AcDbEntity
  8
レイヤー_1
  6
CONTINUOUS
 62
       3
100
AcDbLine
 10
-17.80352866
 20
-34.64509229
 30
0.0
 11
-17.80352866
 21
-34.77509094
 31
0.0
  0
LINE
  5
472
100
AcDbEntity
  8
レイヤー_1
  6
CONTINUOUS
 62
       3
100
AcDbLine
 10
-17.80352866
 20
-34.77509094
 30
0.0
 11
-17.80352866
 21
-34.87447784
 31
0.0
  0
LINE
  5
473
100
AcDbEntity
  8
レイヤー_1
  6
CONTINUOUS
 62
       3
100
AcDbLine
 10
-17.80352866
 20
-34.87447784
 30
0.0
 11
-17.80352866
 21
-34.93666355
 31
0.0
  0
LINE
  5
474
100
AcDbEntity
  8
レイヤー_1
  6
CONTINUOUS
 62
       3
100
AcDbLine
 10
-17.80352866
 20
-34.93666355
 30
0.0
 11
-17.80352476
 21
-34.95548876
 31
0.0
  0
LINE
  5
475
100
AcDbEntity
  8
レイヤー_1
  6
CONTINUOUS
 62
       3
100
AcDbLine
 10
-17.80352476
 20
-34.95548876
 30
0.0
 11
-17.80299411
 21
-34.96510765
 31
0.0
  0
LINE
  5
476
100
AcDbEntity
  8
レイヤー_1
  6
CONTINUOUS
 62
       3
100
AcDbLine
 10
-17.80299411
 20
-34.96510765
 30
0.0
 11
-17.80102044
 21
-34.98877639
 31
0.0
  0
LINE
  5
477
100
AcDbEntity
  8
レイヤー_1
  6
CONTINUOUS
 62
       3
100
AcDbLine
 10
-17.80102044
 20
-34.98877639
 30
0.0
 11
-17.79682077
 21
-35.02430574
 31
0.0
  0
LINE
  5
478
100
AcDbEntity
  8
レイヤー_1
  6
CONTINUOUS
 62
       3
100
AcDbLine
 10
-17.79682077
 20
-35.02430574
 30
0.0
 11
-17.78961215
 21
-35.06950648
 31
0.0
  0
LINE
  5
479
100
AcDbEntity
  8
レイヤー_1
  6
CONTINUOUS
 62
       3
100
AcDbLine
 10
-17.78961215
 20
-35.06950648
 30
0.0
 11
-17.77861162
 21
-35.12218939
 31
0.0
  0
LINE
  5
47A
100
AcDbEntity
  8
レイヤー_1
  6
CONTINUOUS
 62
       3
100
AcDbLine
 10
-17.77861162
 20
-35.12218939
 30
0.0
 11
-17.76303621
 21
-35.18016524
 31
0.0
  0
LINE
  5
47B
100
AcDbEntity
  8
レイヤー_1
  6
CONTINUOUS
 62
       3
100
AcDbLine
 10
-17.76303621
 20
-35.18016524
 30
0.0
 11
-17.74210297
 21
-35.2412448
 31
0.0
  0
LINE
  5
47C
100
AcDbEntity
  8
レイヤー_1
  6
CONTINUOUS
 62
       3
100
AcDbLine
 10
-17.74210297
 20
-35.2412448
 30
0.0
 11
-17.71502894
 21
-35.30323884
 31
0.0
  0
LINE
  5
47D
100
AcDbEntity
  8
レイヤー_1
  6
CONTINUOUS
 62
       3
100
AcDbLine
 10
-17.71502894
 20
-35.30323884
 30
0.0
 11
-17.68103114
 21
-35.36395815
 31
0.0
  0
LINE
  5
47E
100
AcDbEntity
  8
レイヤー_1
  6
CONTINUOUS
 62
       3
100
AcDbLine
 10
-17.68103114
 20
-35.36395815
 30
0.0
 11
-17.63932664
 21
-35.42121349
 31
0.0
  0
LINE
  5
47F
100
AcDbEntity
  8
レイヤー_1
  6
CONTINUOUS
 62
       3
100
AcDbLine
 10
-17.63932664
 20
-35.42121349
 30
0.0
 11
-17.58913245
 21
-35.47281565
 31
0.0
  0
LINE
  5
480
100
AcDbEntity
  8
レイヤー_1
  6
CONTINUOUS
 62
       3
100
AcDbLine
 10
-17.58913245
 20
-35.47281565
 30
0.0
 11
-17.52966563
 21
-35.51657538
 31
0.0
  0
LINE
  5
481
100
AcDbEntity
  8
レイヤー_1
  6
CONTINUOUS
 62
       3
100
AcDbLine
 10
-17.52966563
 20
-35.51657538
 30
0.0
 11
-17.4601432
 21
-35.55030347
 31
0.0
  0
LINE
  5
482
100
AcDbEntity
  8
レイヤー_1
  6
CONTINUOUS
 62
       3
100
AcDbLine
 10
-17.4601432
 20
-35.55030347
 30
0.0
 11
-17.37978222
 21
-35.57181069
 31
0.0
  0
LINE
  5
483
100
AcDbEntity
  8
レイヤー_1
  6
CONTINUOUS
 62
       3
100
AcDbLine
 10
-17.37978222
 20
-35.57181069
 30
0.0
 11
-17.28771895
 21
-35.578929
 31
0.0
  0
LINE
  5
484
100
AcDbEntity
  8
レイヤー_1
  6
CONTINUOUS
 62
       3
100
AcDbLine
 10
-17.28771895
 20
-35.578929
 30
0.0
 11
-17.15078681
 21
-35.578929
 31
0.0
  0
LINE
  5
485
100
AcDbEntity
  8
レイヤー_1
  6
CONTINUOUS
 62
       3
100
AcDbLine
 10
-17.15078681
 20
-35.578929
 30
0.0
 11
-16.94973065
 21
-35.578929
 31
0.0
  0
LINE
  5
486
100
AcDbEntity
  8
レイヤー_1
  6
CONTINUOUS
 62
       3
100
AcDbLine
 10
-16.94973065
 20
-35.578929
 30
0.0
 11
-16.69544259
 21
-35.578929
 31
0.0
  0
LINE
  5
487
100
AcDbEntity
  8
レイヤー_1
  6
CONTINUOUS
 62
       3
100
AcDbLine
 10
-16.69544259
 20
-35.578929
 30
0.0
 11
-16.39881471
 21
-35.578929
 31
0.0
  0
LINE
  5
488
100
AcDbEntity
  8
レイヤー_1
  6
CONTINUOUS
 62
       3
100
AcDbLine
 10
-16.39881471
 20
-35.578929
 30
0.0
 11
-16.07073913
 21
-35.578929
 31
0.0
  0
LINE
  5
489
100
AcDbEntity
  8
レイヤー_1
  6
CONTINUOUS
 62
       3
100
AcDbLine
 10
-16.07073913
 20
-35.578929
 30
0.0
 11
-15.72210796
 21
-35.578929
 31
0.0
  0
LINE
  5
48A
100
AcDbEntity
  8
レイヤー_1
  6
CONTINUOUS
 62
       3
100
AcDbLine
 10
-15.72210796
 20
-35.578929
 30
0.0
 11
-15.36381329
 21
-35.578929
 31
0.0
  0
LINE
  5
48B
100
AcDbEntity
  8
レイヤー_1
  6
CONTINUOUS
 62
       3
100
AcDbLine
 10
-15.36381329
 20
-35.578929
 30
0.0
 11
-15.00674724
 21
-35.578929
 31
0.0
  0
LINE
  5
48C
100
AcDbEntity
  8
レイヤー_1
  6
CONTINUOUS
 62
       3
100
AcDbLine
 10
-15.00674724
 20
-35.578929
 30
0.0
 11
-14.66180191
 21
-35.578929
 31
0.0
  0
LINE
  5
48D
100
AcDbEntity
  8
レイヤー_1
  6
CONTINUOUS
 62
       3
100
AcDbLine
 10
-14.66180191
 20
-35.578929
 30
0.0
 11
-14.3398694
 21
-35.578929
 31
0.0
  0
LINE
  5
48E
100
AcDbEntity
  8
レイヤー_1
  6
CONTINUOUS
 62
       3
100
AcDbLine
 10
-14.3398694
 20
-35.578929
 30
0.0
 11
-14.05184183
 21
-35.578929
 31
0.0
  0
LINE
  5
48F
100
AcDbEntity
  8
レイヤー_1
  6
CONTINUOUS
 62
       3
100
AcDbLine
 10
-14.05184183
 20
-35.578929
 30
0.0
 11
-13.80861129
 21
-35.578929
 31
0.0
  0
LINE
  5
490
100
AcDbEntity
  8
レイヤー_1
  6
CONTINUOUS
 62
       3
100
AcDbLine
 10
-13.80861129
 20
-35.578929
 30
0.0
 11
-13.62106989
 21
-35.578929
 31
0.0
  0
LINE
  5
491
100
AcDbEntity
  8
レイヤー_1
  6
CONTINUOUS
 62
       3
100
AcDbLine
 10
-13.62106989
 20
-35.578929
 30
0.0
 11
-13.50010974
 21
-35.578929
 31
0.0
  0
LINE
  5
492
100
AcDbEntity
  8
レイヤー_1
  6
CONTINUOUS
 62
       3
100
AcDbLine
 10
-13.50010974
 20
-35.578929
 30
0.0
 11
-13.45662293
 21
-35.578929
 31
0.0
  0
LINE
  5
493
100
AcDbEntity
  8
レイヤー_1
  6
CONTINUOUS
 62
       3
100
AcDbLine
 10
-13.45662293
 20
-35.578929
 30
0.0
 11
-13.44856502
 21
-35.57871602
 31
0.0
  0
LINE
  5
494
100
AcDbEntity
  8
レイヤー_1
  6
CONTINUOUS
 62
       3
100
AcDbLine
 10
-13.44856502
 20
-35.57871602
 30
0.0
 11
-13.42550789
 21
-35.5771922
 31
0.0
  0
LINE
  5
495
100
AcDbEntity
  8
レイヤー_1
  6
CONTINUOUS
 62
       3
100
AcDbLine
 10
-13.42550789
 20
-35.5771922
 30
0.0
 11
-13.38973631
 21
-35.57302989
 31
0.0
  0
LINE
  5
496
100
AcDbEntity
  8
レイヤー_1
  6
CONTINUOUS
 62
       3
100
AcDbLine
 10
-13.38973631
 20
-35.57302989
 30
0.0
 11
-13.34354353
 21
-35.56490145
 31
0.0
  0
LINE
  5
497
100
AcDbEntity
  8
レイヤー_1
  6
CONTINUOUS
 62
       3
100
AcDbLine
 10
-13.34354353
 20
-35.56490145
 30
0.0
 11
-13.2892228
 21
-35.55147923
 31
0.0
  0
LINE
  5
498
100
AcDbEntity
  8
レイヤー_1
  6
CONTINUOUS
 62
       3
100
AcDbLine
 10
-13.2892228
 20
-35.55147923
 30
0.0
 11
-13.22906735
 21
-35.53143558
 31
0.0
  0
LINE
  5
499
100
AcDbEntity
  8
レイヤー_1
  6
CONTINUOUS
 62
       3
100
AcDbLine
 10
-13.22906735
 20
-35.53143558
 30
0.0
 11
-13.16537044
 21
-35.50344285
 31
0.0
  0
LINE
  5
49A
100
AcDbEntity
  8
レイヤー_1
  6
CONTINUOUS
 62
       3
100
AcDbLine
 10
-13.16537044
 20
-35.50344285
 30
0.0
 11
-13.10042531
 21
-35.46617341
 31
0.0
  0
LINE
  5
49B
100
AcDbEntity
  8
レイヤー_1
  6
CONTINUOUS
 62
       3
100
AcDbLine
 10
-13.10042531
 20
-35.46617341
 30
0.0
 11
-13.0365252
 21
-35.4182996
 31
0.0
  0
LINE
  5
49C
100
AcDbEntity
  8
レイヤー_1
  6
CONTINUOUS
 62
       3
100
AcDbLine
 10
-13.0365252
 20
-35.4182996
 30
0.0
 11
-12.97596336
 21
-35.35849377
 31
0.0
  0
LINE
  5
49D
100
AcDbEntity
  8
レイヤー_1
  6
CONTINUOUS
 62
       3
100
AcDbLine
 10
-12.97596336
 20
-35.35849377
 30
0.0
 11
-12.92103303
 21
-35.28542828
 31
0.0
  0
LINE
  5
49E
100
AcDbEntity
  8
レイヤー_1
  6
CONTINUOUS
 62
       3
100
AcDbLine
 10
-12.92103303
 20
-35.28542828
 30
0.0
 11
-12.87402746
 21
-35.19777548
 31
0.0
  0
LINE
  5
49F
100
AcDbEntity
  8
レイヤー_1
  6
CONTINUOUS
 62
       3
100
AcDbLine
 10
-12.87402746
 20
-35.19777548
 30
0.0
 11
-12.83723988
 21
-35.09420773
 31
0.0
  0
LINE
  5
4A0
100
AcDbEntity
  8
レイヤー_1
  6
CONTINUOUS
 62
       3
100
AcDbLine
 10
-12.83723988
 20
-35.09420773
 30
0.0
 11
-12.81296356
 21
-34.97339737
 31
0.0
  0
LINE
  5
4A1
100
AcDbEntity
  8
レイヤー_1
  6
CONTINUOUS
 62
       3
100
AcDbLine
 10
-12.81296356
 20
-34.97339737
 30
0.0
 11
-12.80349172
 21
-34.83401677
 31
0.0
  0
LINE
  5
4A2
100
AcDbEntity
  8
レイヤー_1
  6
CONTINUOUS
 62
       3
100
AcDbLine
 10
-12.80349172
 20
-34.83401677
 30
0.0
 11
-12.80344207
 21
-34.46285043
 31
0.0
  0
LINE
  5
4A3
100
AcDbEntity
  8
レイヤー_1
  6
CONTINUOUS
 62
       3
100
AcDbLine
 10
-12.80344207
 20
-34.46285043
 30
0.0
 11
-12.80344207
 21
-15.04202583
 31
0.0
  0
LINE
  5
4A4
100
AcDbEntity
  8
レイヤー_1
  6
CONTINUOUS
 62
       3
100
AcDbLine
 10
-12.80344207
 20
-15.04202583
 30
0.0
 11
-12.80917693
 21
-14.93682808
 31
0.0
  0
LINE
  5
4A5
100
AcDbEntity
  8
レイヤー_1
  6
CONTINUOUS
 62
       3
100
AcDbLine
 10
-12.80917693
 20
-14.93682808
 30
0.0
 11
-12.82900925
 21
-14.84095474
 31
0.0
  0
LINE
  5
4A6
100
AcDbEntity
  8
レイヤー_1
  6
CONTINUOUS
 62
       3
100
AcDbLine
 10
-12.82900925
 20
-14.84095474
 30
0.0
 11
-12.86095919
 21
-14.75207304
 31
0.0
  0
LINE
  5
4A7
100
AcDbEntity
  8
レイヤー_1
  6
CONTINUOUS
 62
       3
100
AcDbLine
 10
-12.86095919
 20
-14.75207304
 30
0.0
 11
-12.90288995
 21
-14.67018379
 31
0.0
  0
LINE
  5
4A8
100
AcDbEntity
  8
レイヤー_1
  6
CONTINUOUS
 62
       3
100
AcDbLine
 10
-12.90288995
 20
-14.67018379
 30
0.0
 11
-12.95266471
 21
-14.5952878
 31
0.0
  0
LINE
  5
4A9
100
AcDbEntity
  8
レイヤー_1
  6
CONTINUOUS
 62
       3
100
AcDbLine
 10
-12.95266471
 20
-14.5952878
 30
0.0
 11
-13.00814666
 21
-14.52738587
 31
0.0
  0
LINE
  5
4AA
100
AcDbEntity
  8
レイヤー_1
  6
CONTINUOUS
 62
       3
100
AcDbLine
 10
-13.00814666
 20
-14.52738587
 30
0.0
 11
-13.06719898
 21
-14.4664788
 31
0.0
  0
LINE
  5
4AB
100
AcDbEntity
  8
レイヤー_1
  6
CONTINUOUS
 62
       3
100
AcDbLine
 10
-13.06719898
 20
-14.4664788
 30
0.0
 11
-13.12768485
 21
-14.41256741
 31
0.0
  0
LINE
  5
4AC
100
AcDbEntity
  8
レイヤー_1
  6
CONTINUOUS
 62
       3
100
AcDbLine
 10
-13.12768485
 20
-14.41256741
 30
0.0
 11
-13.18746747
 21
-14.3656525
 31
0.0
  0
LINE
  5
4AD
100
AcDbEntity
  8
レイヤー_1
  6
CONTINUOUS
 62
       3
100
AcDbLine
 10
-13.18746747
 20
-14.3656525
 30
0.0
 11
-13.24441003
 21
-14.32573488
 31
0.0
  0
LINE
  5
4AE
100
AcDbEntity
  8
レイヤー_1
  6
CONTINUOUS
 62
       3
100
AcDbLine
 10
-13.24441003
 20
-14.32573488
 30
0.0
 11
-13.2963757
 21
-14.29281535
 31
0.0
  0
LINE
  5
4AF
100
AcDbEntity
  8
レイヤー_1
  6
CONTINUOUS
 62
       3
100
AcDbLine
 10
-13.2963757
 20
-14.29281535
 30
0.0
 11
-13.34122767
 21
-14.26689471
 31
0.0
  0
LINE
  5
4B0
100
AcDbEntity
  8
レイヤー_1
  6
CONTINUOUS
 62
       3
100
AcDbLine
 10
-13.34122767
 20
-14.26689471
 30
0.0
 11
-13.37682913
 21
-14.24797379
 31
0.0
  0
LINE
  5
4B1
100
AcDbEntity
  8
レイヤー_1
  6
CONTINUOUS
 62
       3
100
AcDbLine
 10
-13.37682913
 20
-14.24797379
 30
0.0
 11
-13.40104327
 21
-14.23605337
 31
0.0
  0
LINE
  5
4B2
100
AcDbEntity
  8
レイヤー_1
  6
CONTINUOUS
 62
       3
100
AcDbLine
 10
-13.40104327
 20
-14.23605337
 30
0.0
 11
-13.41173328
 21
-14.23113428
 31
0.0
  0
LINE
  5
4B3
100
AcDbEntity
  8
レイヤー_1
  6
CONTINUOUS
 62
       3
100
AcDbLine
 10
-13.41173328
 20
-14.23113428
 30
0.0
 11
-13.45474071
 21
-14.22387231
 31
0.0
  0
LINE
  5
4B4
100
AcDbEntity
  8
レイヤー_1
  6
CONTINUOUS
 62
       3
100
AcDbLine
 10
-13.45474071
 20
-14.22387231
 30
0.0
 11
-13.61894472
 21
-14.19648586
 31
0.0
  0
LINE
  5
4B5
100
AcDbEntity
  8
レイヤー_1
  6
CONTINUOUS
 62
       3
100
AcDbLine
 10
-13.61894472
 20
-14.19648586
 30
0.0
 11
-13.88907826
 21
-14.15143216
 31
0.0
  0
LINE
  5
4B6
100
AcDbEntity
  8
レイヤー_1
  6
CONTINUOUS
 62
       3
100
AcDbLine
 10
-13.88907826
 20
-14.15143216
 30
0.0
 11
-14.24666795
 21
-14.09179226
 31
0.0
  0
LINE
  5
4B7
100
AcDbEntity
  8
レイヤー_1
  6
CONTINUOUS
 62
       3
100
AcDbLine
 10
-14.24666795
 20
-14.09179226
 30
0.0
 11
-14.67324043
 21
-14.02064719
 31
0.0
  0
LINE
  5
4B8
100
AcDbEntity
  8
レイヤー_1
  6
CONTINUOUS
 62
       3
100
AcDbLine
 10
-14.67324043
 20
-14.02064719
 30
0.0
 11
-15.15032235
 21
-13.94107801
 31
0.0
  0
LINE
  5
4B9
100
AcDbEntity
  8
レイヤー_1
  6
CONTINUOUS
 62
       3
100
AcDbLine
 10
-15.15032235
 20
-13.94107801
 30
0.0
 11
-15.65944036
 21
-13.85616575
 31
0.0
  0
LINE
  5
4BA
100
AcDbEntity
  8
レイヤー_1
  6
CONTINUOUS
 62
       3
100
AcDbLine
 10
-15.65944036
 20
-13.85616575
 30
0.0
 11
-16.18212108
 21
-13.76899145
 31
0.0
  0
LINE
  5
4BB
100
AcDbEntity
  8
レイヤー_1
  6
CONTINUOUS
 62
       3
100
AcDbLine
 10
-16.18212108
 20
-13.76899145
 30
0.0
 11
-16.69989116
 21
-13.68263617
 31
0.0
  0
LINE
  5
4BC
100
AcDbEntity
  8
レイヤー_1
  6
CONTINUOUS
 62
       3
100
AcDbLine
 10
-16.69989116
 20
-13.68263617
 30
0.0
 11
-17.19427724
 21
-13.60018095
 31
0.0
  0
LINE
  5
4BD
100
AcDbEntity
  8
レイヤー_1
  6
CONTINUOUS
 62
       3
100
AcDbLine
 10
-17.19427724
 20
-13.60018095
 30
0.0
 11
-17.64680596
 21
-13.52470682
 31
0.0
  0
LINE
  5
4BE
100
AcDbEntity
  8
レイヤー_1
  6
CONTINUOUS
 62
       3
100
AcDbLine
 10
-17.64680596
 20
-13.52470682
 30
0.0
 11
-18.03900397
 21
-13.45929484
 31
0.0
  0
LINE
  5
4BF
100
AcDbEntity
  8
レイヤー_1
  6
CONTINUOUS
 62
       3
100
AcDbLine
 10
-18.03900397
 20
-13.45929484
 30
0.0
 11
-18.3523979
 21
-13.40702604
 31
0.0
  0
LINE
  5
4C0
100
AcDbEntity
  8
レイヤー_1
  6
CONTINUOUS
 62
       3
100
AcDbLine
 10
-18.3523979
 20
-13.40702604
 30
0.0
 11
-18.5685144
 21
-13.37098146
 31
0.0
  0
LINE
  5
4C1
100
AcDbEntity
  8
レイヤー_1
  6
CONTINUOUS
 62
       3
100
AcDbLine
 10
-18.5685144
 20
-13.37098146
 30
0.0
 11
-18.6688801
 21
-13.35424217
 31
0.0
  0
LINE
  5
4C2
100
AcDbEntity
  8
レイヤー_1
  6
CONTINUOUS
 62
       3
100
AcDbLine
 10
-18.6688801
 20
-13.35424217
 30
0.0
 11
-18.67373802
 21
-13.36009243
 31
0.0
  0
LINE
  5
4C3
100
AcDbEntity
  8
レイヤー_1
  6
CONTINUOUS
 62
       3
100
AcDbLine
 10
-18.67373802
 20
-13.36009243
 30
0.0
 11
-18.67373802
 21
-13.38889335
 31
0.0
  0
LINE
  5
4C4
100
AcDbEntity
  8
レイヤー_1
  6
CONTINUOUS
 62
       3
100
AcDbLine
 10
-18.67373802
 20
-13.38889335
 30
0.0
 11
-18.67373802
 21
-13.43735629
 31
0.0
  0
LINE
  5
4C5
100
AcDbEntity
  8
レイヤー_1
  6
CONTINUOUS
 62
       3
100
AcDbLine
 10
-18.67373802
 20
-13.43735629
 30
0.0
 11
-18.67373802
 21
-13.50208979
 31
0.0
  0
LINE
  5
4C6
100
AcDbEntity
  8
レイヤー_1
  6
CONTINUOUS
 62
       3
100
AcDbLine
 10
-18.67373802
 20
-13.50208979
 30
0.0
 11
-18.67373802
 21
-13.57970235
 31
0.0
  0
LINE
  5
4C7
100
AcDbEntity
  8
レイヤー_1
  6
CONTINUOUS
 62
       3
100
AcDbLine
 10
-18.67373802
 20
-13.57970235
 30
0.0
 11
-18.67373802
 21
-13.66680248
 31
0.0
  0
LINE
  5
4C8
100
AcDbEntity
  8
レイヤー_1
  6
CONTINUOUS
 62
       3
100
AcDbLine
 10
-18.67373802
 20
-13.66680248
 30
0.0
 11
-18.67373802
 21
-13.7599987
 31
0.0
  0
LINE
  5
4C9
100
AcDbEntity
  8
レイヤー_1
  6
CONTINUOUS
 62
       3
100
AcDbLine
 10
-18.67373802
 20
-13.7599987
 30
0.0
 11
-18.67373802
 21
-13.85589952
 31
0.0
  0
LINE
  5
4CA
100
AcDbEntity
  8
レイヤー_1
  6
CONTINUOUS
 62
       3
100
AcDbLine
 10
-18.67373802
 20
-13.85589952
 30
0.0
 11
-18.67373802
 21
-13.95111347
 31
0.0
  0
LINE
  5
4CB
100
AcDbEntity
  8
レイヤー_1
  6
CONTINUOUS
 62
       3
100
AcDbLine
 10
-18.67373802
 20
-13.95111347
 30
0.0
 11
-18.67373802
 21
-14.04224904
 31
0.0
  0
LINE
  5
4CC
100
AcDbEntity
  8
レイヤー_1
  6
CONTINUOUS
 62
       3
100
AcDbLine
 10
-18.67373802
 20
-14.04224904
 30
0.0
 11
-18.67373802
 21
-14.12591475
 31
0.0
  0
LINE
  5
4CD
100
AcDbEntity
  8
レイヤー_1
  6
CONTINUOUS
 62
       3
100
AcDbLine
 10
-18.67373802
 20
-14.12591475
 30
0.0
 11
-18.67373802
 21
-14.19871913
 31
0.0
  0
LINE
  5
4CE
100
AcDbEntity
  8
レイヤー_1
  6
CONTINUOUS
 62
       3
100
AcDbLine
 10
-18.67373802
 20
-14.19871913
 30
0.0
 11
-18.67373802
 21
-14.25727067
 31
0.0
  0
LINE
  5
4CF
100
AcDbEntity
  8
レイヤー_1
  6
CONTINUOUS
 62
       3
100
AcDbLine
 10
-18.67373802
 20
-14.25727067
 30
0.0
 11
-18.67373802
 21
-14.29817791
 31
0.0
  0
LINE
  5
4D0
100
AcDbEntity
  8
レイヤー_1
  6
CONTINUOUS
 62
       3
100
AcDbLine
 10
-18.67373802
 20
-14.29817791
 30
0.0
 11
-18.67373802
 21
-14.31804934
 31
0.0
  0
LINE
  5
4D1
100
AcDbEntity
  8
レイヤー_1
  6
CONTINUOUS
 62
       3
100
AcDbLine
 10
-18.67373802
 20
-14.31804934
 30
0.0
 11
-18.68026128
 21
-14.32195742
 31
0.0
  0
LINE
  5
4D2
100
AcDbEntity
  8
レイヤー_1
  6
CONTINUOUS
 62
       3
100
AcDbLine
 10
-18.68026128
 20
-14.32195742
 30
0.0
 11
-18.71235567
 21
-14.33447808
 31
0.0
  0
LINE
  5
4D3
100
AcDbEntity
  8
レイヤー_1
  6
CONTINUOUS
 62
       3
100
AcDbLine
 10
-18.71235567
 20
-14.33447808
 30
0.0
 11
-18.76769623
 21
-14.35606754
 31
0.0
  0
LINE
  5
4D4
100
AcDbEntity
  8
レイヤー_1
  6
CONTINUOUS
 62
       3
100
AcDbLine
 10
-18.76769623
 20
-14.35606754
 30
0.0
 11
-18.84231655
 21
-14.38517842
 31
0.0
  0
LINE
  5
4D5
100
AcDbEntity
  8
レイヤー_1
  6
CONTINUOUS
 62
       3
100
AcDbLine
 10
-18.84231655
 20
-14.38517842
 30
0.0
 11
-18.93225023
 21
-14.42026334
 31
0.0
  0
LINE
  5
4D6
100
AcDbEntity
  8
レイヤー_1
  6
CONTINUOUS
 62
       3
100
AcDbLine
 10
-18.93225023
 20
-14.42026334
 30
0.0
 11
-19.03353086
 21
-14.45977493
 31
0.0
  0
LINE
  5
4D7
100
AcDbEntity
  8
レイヤー_1
  6
CONTINUOUS
 62
       3
100
AcDbLine
 10
-19.03353086
 20
-14.45977493
 30
0.0
 11
-19.14219202
 21
-14.50216582
 31
0.0
  0
LINE
  5
4D8
100
AcDbEntity
  8
レイヤー_1
  6
CONTINUOUS
 62
       3
100
AcDbLine
 10
-19.14219202
 20
-14.50216582
 30
0.0
 11
-19.25426731
 21
-14.54588862
 31
0.0
  0
LINE
  5
4D9
100
AcDbEntity
  8
レイヤー_1
  6
CONTINUOUS
 62
       3
100
AcDbLine
 10
-19.25426731
 20
-14.54588862
 30
0.0
 11
-19.36579031
 21
-14.58939597
 31
0.0
  0
LINE
  5
4DA
100
AcDbEntity
  8
レイヤー_1
  6
CONTINUOUS
 62
       3
100
AcDbLine
 10
-19.36579031
 20
-14.58939597
 30
0.0
 11
-19.47279461
 21
-14.63114048
 31
0.0
  0
LINE
  5
4DB
100
AcDbEntity
  8
レイヤー_1
  6
CONTINUOUS
 62
       3
100
AcDbLine
 10
-19.47279461
 20
-14.63114048
 30
0.0
 11
-19.57131382
 21
-14.66957479
 31
0.0
  0
LINE
  5
4DC
100
AcDbEntity
  8
レイヤー_1
  6
CONTINUOUS
 62
       3
100
AcDbLine
 10
-19.57131382
 20
-14.66957479
 30
0.0
 11
-19.6573815
 21
-14.70315151
 31
0.0
  0
LINE
  5
4DD
100
AcDbEntity
  8
レイヤー_1
  6
CONTINUOUS
 62
       3
100
AcDbLine
 10
-19.6573815
 20
-14.70315151
 30
0.0
 11
-19.72703126
 21
-14.73032327
 31
0.0
  0
LINE
  5
4DE
100
AcDbEntity
  8
レイヤー_1
  6
CONTINUOUS
 62
       3
100
AcDbLine
 10
-19.72703126
 20
-14.73032327
 30
0.0
 11
-19.77629669
 21
-14.7495427
 31
0.0
  0
LINE
  5
4DF
100
AcDbEntity
  8
レイヤー_1
  6
CONTINUOUS
 62
       3
100
AcDbLine
 10
-19.77629669
 20
-14.7495427
 30
0.0
 11
-19.80121137
 21
-14.75926241
 31
0.0
  0
LINE
  5
4E0
100
AcDbEntity
  8
レイヤー_1
  6
CONTINUOUS
 62
       3
100
AcDbLine
 10
-19.80121137
 20
-14.75926241
 30
0.0
 11
-19.80347142
 21
-14.75334802
 31
0.0
  0
LINE
  5
4E1
100
AcDbEntity
  8
レイヤー_1
  6
CONTINUOUS
 62
       3
100
AcDbLine
 10
-19.80347142
 20
-14.75334802
 30
0.0
 11
-19.80347142
 21
-14.71473235
 31
0.0
  0
LINE
  5
4E2
100
AcDbEntity
  8
レイヤー_1
  6
CONTINUOUS
 62
       3
100
AcDbLine
 10
-19.80347142
 20
-14.71473235
 30
0.0
 11
-19.80347142
 21
-14.64635704
 31
0.0
  0
LINE
  5
4E3
100
AcDbEntity
  8
レイヤー_1
  6
CONTINUOUS
 62
       3
100
AcDbLine
 10
-19.80347142
 20
-14.64635704
 30
0.0
 11
-19.80347142
 21
-14.55324563
 31
0.0
  0
LINE
  5
4E4
100
AcDbEntity
  8
レイヤー_1
  6
CONTINUOUS
 62
       3
100
AcDbLine
 10
-19.80347142
 20
-14.55324563
 30
0.0
 11
-19.80347142
 21
-14.44042164
 31
0.0
  0
LINE
  5
4E5
100
AcDbEntity
  8
レイヤー_1
  6
CONTINUOUS
 62
       3
100
AcDbLine
 10
-19.80347142
 20
-14.44042164
 30
0.0
 11
-19.80347142
 21
-14.3129086
 31
0.0
  0
LINE
  5
4E6
100
AcDbEntity
  8
レイヤー_1
  6
CONTINUOUS
 62
       3
100
AcDbLine
 10
-19.80347142
 20
-14.3129086
 30
0.0
 11
-19.80347142
 21
-14.17573003
 31
0.0
  0
LINE
  5
4E7
100
AcDbEntity
  8
レイヤー_1
  6
CONTINUOUS
 62
       3
100
AcDbLine
 10
-19.80347142
 20
-14.17573003
 30
0.0
 11
-19.80347142
 21
-14.03390948
 31
0.0
  0
LINE
  5
4E8
100
AcDbEntity
  8
レイヤー_1
  6
CONTINUOUS
 62
       3
100
AcDbLine
 10
-19.80347142
 20
-14.03390948
 30
0.0
 11
-19.80347142
 21
-13.89247045
 31
0.0
  0
LINE
  5
4E9
100
AcDbEntity
  8
レイヤー_1
  6
CONTINUOUS
 62
       3
100
AcDbLine
 10
-19.80347142
 20
-13.89247045
 30
0.0
 11
-19.80347142
 21
-13.75643649
 31
0.0
  0
LINE
  5
4EA
100
AcDbEntity
  8
レイヤー_1
  6
CONTINUOUS
 62
       3
100
AcDbLine
 10
-19.80347142
 20
-13.75643649
 30
0.0
 11
-19.80347142
 21
-13.63083112
 31
0.0
  0
LINE
  5
4EB
100
AcDbEntity
  8
レイヤー_1
  6
CONTINUOUS
 62
       3
100
AcDbLine
 10
-19.80347142
 20
-13.63083112
 30
0.0
 11
-19.80347142
 21
-13.52067786
 31
0.0
  0
LINE
  5
4EC
100
AcDbEntity
  8
レイヤー_1
  6
CONTINUOUS
 62
       3
100
AcDbLine
 10
-19.80347142
 20
-13.52067786
 30
0.0
 11
-19.80347142
 21
-13.43100025
 31
0.0
  0
LINE
  5
4ED
100
AcDbEntity
  8
レイヤー_1
  6
CONTINUOUS
 62
       3
100
AcDbLine
 10
-19.80347142
 20
-13.43100025
 30
0.0
 11
-19.80347142
 21
-13.36682182
 31
0.0
  0
LINE
  5
4EE
100
AcDbEntity
  8
レイヤー_1
  6
CONTINUOUS
 62
       3
100
AcDbLine
 10
-19.80347142
 20
-13.36682182
 30
0.0
 11
-19.80347142
 21
-13.33316609
 31
0.0
  0
LINE
  5
4EF
100
AcDbEntity
  8
レイヤー_1
  6
CONTINUOUS
 62
       3
100
AcDbLine
 10
-19.80347142
 20
-13.33316609
 30
0.0
 11
-19.81022555
 21
-13.32931688
 31
0.0
  0
LINE
  5
4F0
100
AcDbEntity
  8
レイヤー_1
  6
CONTINUOUS
 62
       3
100
AcDbLine
 10
-19.81022555
 20
-13.32931688
 30
0.0
 11
-19.85537483
 21
-13.32931688
 31
0.0
  0
LINE
  5
4F1
100
AcDbEntity
  8
レイヤー_1
  6
CONTINUOUS
 62
       3
100
AcDbLine
 10
-19.85537483
 20
-13.32931688
 30
0.0
 11
-19.93766486
 21
-13.32931688
 31
0.0
  0
LINE
  5
4F2
100
AcDbEntity
  8
レイヤー_1
  6
CONTINUOUS
 62
       3
100
AcDbLine
 10
-19.93766486
 20
-13.32931688
 30
0.0
 11
-20.05089242
 21
-13.32931688
 31
0.0
  0
LINE
  5
4F3
100
AcDbEntity
  8
レイヤー_1
  6
CONTINUOUS
 62
       3
100
AcDbLine
 10
-20.05089242
 20
-13.32931688
 30
0.0
 11
-20.1888543
 21
-13.32931688
 31
0.0
  0
LINE
  5
4F4
100
AcDbEntity
  8
レイヤー_1
  6
CONTINUOUS
 62
       3
100
AcDbLine
 10
-20.1888543
 20
-13.32931688
 30
0.0
 11
-20.34534729
 21
-13.32931688
 31
0.0
  0
LINE
  5
4F5
100
AcDbEntity
  8
レイヤー_1
  6
CONTINUOUS
 62
       3
100
AcDbLine
 10
-20.34534729
 20
-13.32931688
 30
0.0
 11
-20.51416817
 21
-13.32931688
 31
0.0
  0
LINE
  5
4F6
100
AcDbEntity
  8
レイヤー_1
  6
CONTINUOUS
 62
       3
100
AcDbLine
 10
-20.51416817
 20
-13.32931688
 30
0.0
 11
-20.68911375
 21
-13.32931688
 31
0.0
  0
LINE
  5
4F7
100
AcDbEntity
  8
レイヤー_1
  6
CONTINUOUS
 62
       3
100
AcDbLine
 10
-20.68911375
 20
-13.32931688
 30
0.0
 11
-20.8639808
 21
-13.32931688
 31
0.0
  0
LINE
  5
4F8
100
AcDbEntity
  8
レイヤー_1
  6
CONTINUOUS
 62
       3
100
AcDbLine
 10
-20.8639808
 20
-13.32931688
 30
0.0
 11
-21.03256613
 21
-13.32931688
 31
0.0
  0
LINE
  5
4F9
100
AcDbEntity
  8
レイヤー_1
  6
CONTINUOUS
 62
       3
100
AcDbLine
 10
-21.03256613
 20
-13.32931688
 30
0.0
 11
-21.18866651
 21
-13.32931688
 31
0.0
  0
LINE
  5
4FA
100
AcDbEntity
  8
レイヤー_1
  6
CONTINUOUS
 62
       3
100
AcDbLine
 10
-21.18866651
 20
-13.32931688
 30
0.0
 11
-21.32607873
 21
-13.32931688
 31
0.0
  0
LINE
  5
4FB
100
AcDbEntity
  8
レイヤー_1
  6
CONTINUOUS
 62
       3
100
AcDbLine
 10
-21.32607873
 20
-13.32931688
 30
0.0
 11
-21.4385996
 21
-13.32931688
 31
0.0
  0
LINE
  5
4FC
100
AcDbEntity
  8
レイヤー_1
  6
CONTINUOUS
 62
       3
100
AcDbLine
 10
-21.4385996
 20
-13.32931688
 30
0.0
 11
-21.52002589
 21
-13.32931688
 31
0.0
  0
LINE
  5
4FD
100
AcDbEntity
  8
レイヤー_1
  6
CONTINUOUS
 62
       3
100
AcDbLine
 10
-21.52002589
 20
-13.32931688
 30
0.0
 11
-21.56415439
 21
-13.32931688
 31
0.0
  0
LINE
  5
4FE
100
AcDbEntity
  8
レイヤー_1
  6
CONTINUOUS
 62
       3
100
AcDbLine
 10
-21.56415439
 20
-13.32931688
 30
0.0
 11
-21.57305924
 21
-13.33310979
 31
0.0
  0
LINE
  5
4FF
100
AcDbEntity
  8
レイヤー_1
  6
CONTINUOUS
 62
       3
100
AcDbLine
 10
-21.57305924
 20
-13.33310979
 30
0.0
 11
-21.59525935
 21
-13.36364739
 31
0.0
  0
LINE
  5
500
100
AcDbEntity
  8
レイヤー_1
  6
CONTINUOUS
 62
       3
100
AcDbLine
 10
-21.59525935
 20
-13.36364739
 30
0.0
 11
-21.63702383
 21
-13.42109699
 31
0.0
  0
LINE
  5
501
100
AcDbEntity
  8
レイヤー_1
  6
CONTINUOUS
 62
       3
100
AcDbLine
 10
-21.63702383
 20
-13.42109699
 30
0.0
 11
-21.69511924
 21
-13.50101078
 31
0.0
  0
LINE
  5
502
100
AcDbEntity
  8
レイヤー_1
  6
CONTINUOUS
 62
       3
100
AcDbLine
 10
-21.69511924
 20
-13.50101078
 30
0.0
 11
-21.76631214
 21
-13.59894096
 31
0.0
  0
LINE
  5
503
100
AcDbEntity
  8
レイヤー_1
  6
CONTINUOUS
 62
       3
100
AcDbLine
 10
-21.76631214
 20
-13.59894096
 30
0.0
 11
-21.84736909
 21
-13.71043974
 31
0.0
  0
LINE
  5
504
100
AcDbEntity
  8
レイヤー_1
  6
CONTINUOUS
 62
       3
100
AcDbLine
 10
-21.84736909
 20
-13.71043974
 30
0.0
 11
-21.93505664
 21
-13.83105933
 31
0.0
  0
LINE
  5
505
100
AcDbEntity
  8
レイヤー_1
  6
CONTINUOUS
 62
       3
100
AcDbLine
 10
-21.93505664
 20
-13.83105933
 30
0.0
 11
-22.02614135
 21
-13.95635191
 31
0.0
  0
LINE
  5
506
100
AcDbEntity
  8
レイヤー_1
  6
CONTINUOUS
 62
       3
100
AcDbLine
 10
-22.02614135
 20
-13.95635191
 30
0.0
 11
-22.11738978
 21
-14.0818697
 31
0.0
  0
LINE
  5
507
100
AcDbEntity
  8
レイヤー_1
  6
CONTINUOUS
 62
       3
100
AcDbLine
 10
-22.11738978
 20
-14.0818697
 30
0.0
 11
-22.20556849
 21
-14.2031649
 31
0.0
  0
LINE
  5
508
100
AcDbEntity
  8
レイヤー_1
  6
CONTINUOUS
 62
       3
100
AcDbLine
 10
-22.20556849
 20
-14.2031649
 30
0.0
 11
-22.28744403
 21
-14.31578971
 31
0.0
  0
LINE
  5
509
100
AcDbEntity
  8
レイヤー_1
  6
CONTINUOUS
 62
       3
100
AcDbLine
 10
-22.28744403
 20
-14.31578971
 30
0.0
 11
-22.35978296
 21
-14.41529633
 31
0.0
  0
LINE
  5
50A
100
AcDbEntity
  8
レイヤー_1
  6
CONTINUOUS
 62
       3
100
AcDbLine
 10
-22.35978296
 20
-14.41529633
 30
0.0
 11
-22.41935184
 21
-14.49723696
 31
0.0
  0
LINE
  5
50B
100
AcDbEntity
  8
レイヤー_1
  6
CONTINUOUS
 62
       3
100
AcDbLine
 10
-22.41935184
 20
-14.49723696
 30
0.0
 11
-22.46291722
 21
-14.55716381
 31
0.0
  0
LINE
  5
50C
100
AcDbEntity
  8
レイヤー_1
  6
CONTINUOUS
 62
       3
100
AcDbLine
 10
-22.46291722
 20
-14.55716381
 30
0.0
 11
-22.48724567
 21
-14.59062907
 31
0.0
  0
LINE
  5
50D
100
AcDbEntity
  8
レイヤー_1
  6
CONTINUOUS
 62
       3
100
AcDbLine
 10
-22.48724567
 20
-14.59062907
 30
0.0
 11
-22.49421436
 21
-14.59616166
 31
0.0
  0
LINE
  5
50E
100
AcDbEntity
  8
レイヤー_1
  6
CONTINUOUS
 62
       3
100
AcDbLine
 10
-22.49421436
 20
-14.59616166
 30
0.0
 11
-22.52367905
 21
-14.59616166
 31
0.0
  0
LINE
  5
50F
100
AcDbEntity
  8
レイヤー_1
  6
CONTINUOUS
 62
       3
100
AcDbLine
 10
-22.52367905
 20
-14.59616166
 30
0.0
 11
-22.58107673
 21
-14.59616166
 31
0.0
  0
LINE
  5
510
100
AcDbEntity
  8
レイヤー_1
  6
CONTINUOUS
 62
       3
100
AcDbLine
 10
-22.58107673
 20
-14.59616166
 30
0.0
 11
-22.66183864
 21
-14.59616166
 31
0.0
  0
LINE
  5
511
100
AcDbEntity
  8
レイヤー_1
  6
CONTINUOUS
 62
       3
100
AcDbLine
 10
-22.66183864
 20
-14.59616166
 30
0.0
 11
-22.76139605
 21
-14.59616166
 31
0.0
  0
LINE
  5
512
100
AcDbEntity
  8
レイヤー_1
  6
CONTINUOUS
 62
       3
100
AcDbLine
 10
-22.76139605
 20
-14.59616166
 30
0.0
 11
-22.87518019
 21
-14.59616166
 31
0.0
  0
LINE
  5
513
100
AcDbEntity
  8
レイヤー_1
  6
CONTINUOUS
 62
       3
100
AcDbLine
 10
-22.87518019
 20
-14.59616166
 30
0.0
 11
-22.99862232
 21
-14.59616166
 31
0.0
  0
LINE
  5
514
100
AcDbEntity
  8
レイヤー_1
  6
CONTINUOUS
 62
       3
100
AcDbLine
 10
-22.99862232
 20
-14.59616166
 30
0.0
 11
-23.12715369
 21
-14.59616166
 31
0.0
  0
LINE
  5
515
100
AcDbEntity
  8
レイヤー_1
  6
CONTINUOUS
 62
       3
100
AcDbLine
 10
-23.12715369
 20
-14.59616166
 30
0.0
 11
-23.25620556
 21
-14.59616166
 31
0.0
  0
LINE
  5
516
100
AcDbEntity
  8
レイヤー_1
  6
CONTINUOUS
 62
       3
100
AcDbLine
 10
-23.25620556
 20
-14.59616166
 30
0.0
 11
-23.38120916
 21
-14.59616166
 31
0.0
  0
LINE
  5
517
100
AcDbEntity
  8
レイヤー_1
  6
CONTINUOUS
 62
       3
100
AcDbLine
 10
-23.38120916
 20
-14.59616166
 30
0.0
 11
-23.49759576
 21
-14.59616166
 31
0.0
  0
LINE
  5
518
100
AcDbEntity
  8
レイヤー_1
  6
CONTINUOUS
 62
       3
100
AcDbLine
 10
-23.49759576
 20
-14.59616166
 30
0.0
 11
-23.60079659
 21
-14.59616166
 31
0.0
  0
LINE
  5
519
100
AcDbEntity
  8
レイヤー_1
  6
CONTINUOUS
 62
       3
100
AcDbLine
 10
-23.60079659
 20
-14.59616166
 30
0.0
 11
-23.68624292
 21
-14.59616166
 31
0.0
  0
LINE
  5
51A
100
AcDbEntity
  8
レイヤー_1
  6
CONTINUOUS
 62
       3
100
AcDbLine
 10
-23.68624292
 20
-14.59616166
 30
0.0
 11
-23.74936599
 21
-14.59616166
 31
0.0
  0
LINE
  5
51B
100
AcDbEntity
  8
レイヤー_1
  6
CONTINUOUS
 62
       3
100
AcDbLine
 10
-23.74936599
 20
-14.59616166
 30
0.0
 11
-23.78559706
 21
-14.59616166
 31
0.0
  0
LINE
  5
51C
100
AcDbEntity
  8
レイヤー_1
  6
CONTINUOUS
 62
       3
100
AcDbLine
 10
-23.78559706
 20
-14.59616166
 30
0.0
 11
-23.79256259
 21
-14.58962133
 31
0.0
  0
LINE
  5
51D
100
AcDbEntity
  8
レイヤー_1
  6
CONTINUOUS
 62
       3
100
AcDbLine
 10
-23.79256259
 20
-14.58962133
 30
0.0
 11
-23.79256259
 21
-14.50494566
 31
0.0
  0
LINE
  5
51E
100
AcDbEntity
  8
レイヤー_1
  6
CONTINUOUS
 62
       3
100
AcDbLine
 10
-23.79256259
 20
-14.50494566
 30
0.0
 11
-23.79256259
 21
-14.33350656
 31
0.0
  0
LINE
  5
51F
100
AcDbEntity
  8
レイヤー_1
  6
CONTINUOUS
 62
       3
100
AcDbLine
 10
-23.79256259
 20
-14.33350656
 30
0.0
 11
-23.79256259
 21
-14.08934974
 31
0.0
  0
LINE
  5
520
100
AcDbEntity
  8
レイヤー_1
  6
CONTINUOUS
 62
       3
100
AcDbLine
 10
-23.79256259
 20
-14.08934974
 30
0.0
 11
-23.79256259
 21
-13.78652093
 31
0.0
  0
LINE
  5
521
100
AcDbEntity
  8
レイヤー_1
  6
CONTINUOUS
 62
       3
100
AcDbLine
 10
-23.79256259
 20
-13.78652093
 30
0.0
 11
-23.79256259
 21
-13.43906585
 31
0.0
  0
LINE
  5
522
100
AcDbEntity
  8
レイヤー_1
  6
CONTINUOUS
 62
       3
100
AcDbLine
 10
-23.79256259
 20
-13.43906585
 30
0.0
 11
-23.79256259
 21
-13.06103021
 31
0.0
  0
LINE
  5
523
100
AcDbEntity
  8
レイヤー_1
  6
CONTINUOUS
 62
       3
100
AcDbLine
 10
-23.79256259
 20
-13.06103021
 30
0.0
 11
-23.79256259
 21
-12.66645973
 31
0.0
  0
LINE
  5
524
100
AcDbEntity
  8
レイヤー_1
  6
CONTINUOUS
 62
       3
100
AcDbLine
 10
-23.79256259
 20
-12.66645973
 30
0.0
 11
-23.79256259
 21
-12.26940014
 31
0.0
  0
LINE
  5
525
100
AcDbEntity
  8
レイヤー_1
  6
CONTINUOUS
 62
       3
100
AcDbLine
 10
-23.79256259
 20
-12.26940014
 30
0.0
 11
-23.79256259
 21
-11.88389716
 31
0.0
  0
LINE
  5
526
100
AcDbEntity
  8
レイヤー_1
  6
CONTINUOUS
 62
       3
100
AcDbLine
 10
-23.79256259
 20
-11.88389716
 30
0.0
 11
-23.79256259
 21
-10.59558706
 31
0.0
  0
LINE
  5
527
100
AcDbEntity
  8
レイヤー_1
  6
CONTINUOUS
 62
       3
100
AcDbLine
 10
-23.79256259
 20
-10.59558706
 30
0.0
 11
-22.29260552
 21
-9.59561575
 31
0.0
  0
LINE
  5
528
100
AcDbEntity
  8
レイヤー_1
  6
CONTINUOUS
 62
       3
100
AcDbLine
 10
-22.30402548
 20
-9.60322905
 30
0.0
 11
-22.29260552
 21
-9.59289762
 31
0.0
  0
LINE
  5
529
100
AcDbEntity
  8
レイヤー_1
  6
CONTINUOUS
 62
       3
100
AcDbLine
 10
-22.29260552
 20
-9.59561575
 30
0.0
 11
-22.29260552
 21
-5.75897755
 31
0.0
  0
LINE
  5
52A
100
AcDbEntity
  8
レイヤー_1
  6
CONTINUOUS
 62
       3
100
AcDbLine
 10
-22.29260552
 20
-5.75897755
 30
0.0
 11
-22.29260552
 21
-5.63082175
 31
0.0
  0
LINE
  5
52B
100
AcDbEntity
  8
レイヤー_1
  6
CONTINUOUS
 62
       3
100
AcDbLine
 10
-22.29260552
 20
-5.63082175
 30
0.0
 11
-22.293137
 21
-5.59491546
 31
0.0
  0
LINE
  5
52C
100
AcDbEntity
  8
レイヤー_1
  6
CONTINUOUS
 62
       3
100
AcDbLine
 10
-22.293137
 20
-5.59491546
 30
0.0
 11
-23.78796924
 21
-4.59529951
 31
0.0
  0
LINE
  5
52D
100
AcDbEntity
  8
レイヤー_1
  6
CONTINUOUS
 62
       3
100
AcDbLine
 10
-23.78796924
 20
-4.59529951
 30
0.0
 11
-23.78796924
 21
-2.52286163
 31
0.0
  0
LINE
  5
52E
100
AcDbEntity
  8
レイヤー_1
  6
CONTINUOUS
 62
       3
100
AcDbLine
 10
-23.78796924
 20
-2.52286163
 30
0.0
 11
-23.78796924
 21
-2.34693459
 31
0.0
  0
LINE
  5
52F
100
AcDbEntity
  8
レイヤー_1
  6
CONTINUOUS
 62
       3
100
AcDbLine
 10
-23.78796924
 20
-2.34693459
 30
0.0
 11
-23.78796924
 21
-2.21112276
 31
0.0
  0
LINE
  5
530
100
AcDbEntity
  8
レイヤー_1
  6
CONTINUOUS
 62
       3
100
AcDbLine
 10
-23.78796924
 20
-2.21112276
 30
0.0
 11
-23.78796924
 21
-2.12420482
 31
0.0
  0
LINE
  5
531
100
AcDbEntity
  8
レイヤー_1
  6
CONTINUOUS
 62
       3
100
AcDbLine
 10
-23.78796924
 20
-2.12420482
 30
0.0
 11
-23.78796462
 21
-2.09490218
 31
0.0
  0
LINE
  5
532
100
AcDbEntity
  8
レイヤー_1
  6
CONTINUOUS
 62
       3
100
AcDbLine
 10
-23.78796462
 20
-2.09490218
 30
0.0
 11
-23.78450482
 21
-2.0881167
 31
0.0
  0
LINE
  5
533
100
AcDbEntity
  8
レイヤー_1
  6
CONTINUOUS
 62
       3
100
AcDbLine
 10
-23.78450482
 20
-2.0881167
 30
0.0
 11
-23.77459019
 21
-2.06993216
 31
0.0
  0
LINE
  5
534
100
AcDbEntity
  8
レイヤー_1
  6
CONTINUOUS
 62
       3
100
AcDbLine
 10
-23.77459019
 20
-2.06993216
 30
0.0
 11
-23.75818645
 21
-2.04210395
 31
0.0
  0
LINE
  5
535
100
AcDbEntity
  8
レイヤー_1
  6
CONTINUOUS
 62
       3
100
AcDbLine
 10
-23.75818645
 20
-2.04210395
 30
0.0
 11
-23.73525932
 21
-2.00638749
 31
0.0
  0
LINE
  5
536
100
AcDbEntity
  8
レイヤー_1
  6
CONTINUOUS
 62
       3
100
AcDbLine
 10
-23.73525932
 20
-2.00638749
 30
0.0
 11
-23.70577455
 21
-1.96453821
 31
0.0
  0
LINE
  5
537
100
AcDbEntity
  8
レイヤー_1
  6
CONTINUOUS
 62
       3
100
AcDbLine
 10
-23.70577455
 20
-1.96453821
 30
0.0
 11
-23.66969786
 21
-1.9183115
 31
0.0
  0
LINE
  5
538
100
AcDbEntity
  8
レイヤー_1
  6
CONTINUOUS
 62
       3
100
AcDbLine
 10
-23.66969786
 20
-1.9183115
 30
0.0
 11
-23.62699497
 21
-1.86946278
 31
0.0
  0
LINE
  5
539
100
AcDbEntity
  8
レイヤー_1
  6
CONTINUOUS
 62
       3
100
AcDbLine
 10
-23.62699497
 20
-1.86946278
 30
0.0
 11
-23.57763163
 21
-1.81974747
 31
0.0
  0
LINE
  5
53A
100
AcDbEntity
  8
レイヤー_1
  6
CONTINUOUS
 62
       3
100
AcDbLine
 10
-23.57763163
 20
-1.81974747
 30
0.0
 11
-23.52157356
 21
-1.77092097
 31
0.0
  0
LINE
  5
53B
100
AcDbEntity
  8
レイヤー_1
  6
CONTINUOUS
 62
       3
100
AcDbLine
 10
-23.52157356
 20
-1.77092097
 30
0.0
 11
-23.45878649
 21
-1.7247387
 31
0.0
  0
LINE
  5
53C
100
AcDbEntity
  8
レイヤー_1
  6
CONTINUOUS
 62
       3
100
AcDbLine
 10
-23.45878649
 20
-1.7247387
 30
0.0
 11
-23.38923616
 21
-1.68295607
 31
0.0
  0
LINE
  5
53D
100
AcDbEntity
  8
レイヤー_1
  6
CONTINUOUS
 62
       3
100
AcDbLine
 10
-23.38923616
 20
-1.68295607
 30
0.0
 11
-23.31288828
 21
-1.6473285
 31
0.0
  0
LINE
  5
53E
100
AcDbEntity
  8
レイヤー_1
  6
CONTINUOUS
 62
       3
100
AcDbLine
 10
-23.31288828
 20
-1.6473285
 30
0.0
 11
-23.2297086
 21
-1.6196114
 31
0.0
  0
LINE
  5
53F
100
AcDbEntity
  8
レイヤー_1
  6
CONTINUOUS
 62
       3
100
AcDbLine
 10
-23.2297086
 20
-1.6196114
 30
0.0
 11
-23.13966284
 21
-1.60156017
 31
0.0
  0
LINE
  5
540
100
AcDbEntity
  8
レイヤー_1
  6
CONTINUOUS
 62
       3
100
AcDbLine
 10
-23.13966284
 20
-1.60156017
 30
0.0
 11
-23.04271674
 21
-1.59493024
 31
0.0
  0
LINE
  5
541
100
AcDbEntity
  8
レイヤー_1
  6
CONTINUOUS
 62
       3
100
AcDbLine
 10
-23.04271674
 20
-1.59493024
 30
0.0
 11
-22.94496621
 21
-1.6009352
 31
0.0
  0
LINE
  5
542
100
AcDbEntity
  8
レイヤー_1
  6
CONTINUOUS
 62
       3
100
AcDbLine
 10
-22.94496621
 20
-1.6009352
 30
0.0
 11
-22.85331978
 21
-1.61845032
 31
0.0
  0
LINE
  5
543
100
AcDbEntity
  8
レイヤー_1
  6
CONTINUOUS
 62
       3
100
AcDbLine
 10
-22.85331978
 20
-1.61845032
 30
0.0
 11
-22.76786983
 21
-1.6457202
 31
0.0
  0
LINE
  5
544
100
AcDbEntity
  8
レイヤー_1
  6
CONTINUOUS
 62
       3
100
AcDbLine
 10
-22.76786983
 20
-1.6457202
 30
0.0
 11
-22.68870345
 21
-1.68098944
 31
0.0
  0
LINE
  5
545
100
AcDbEntity
  8
レイヤー_1
  6
CONTINUOUS
 62
       3
100
AcDbLine
 10
-22.68870345
 20
-1.68098944
 30
0.0
 11
-22.61590772
 21
-1.72250261
 31
0.0
  0
LINE
  5
546
100
AcDbEntity
  8
レイヤー_1
  6
CONTINUOUS
 62
       3
100
AcDbLine
 10
-22.61590772
 20
-1.72250261
 30
0.0
 11
-22.54956973
 21
-1.7685043
 31
0.0
  0
LINE
  5
547
100
AcDbEntity
  8
レイヤー_1
  6
CONTINUOUS
 62
       3
100
AcDbLine
 10
-22.54956973
 20
-1.7685043
 30
0.0
 11
-22.48977657
 21
-1.8172391
 31
0.0
  0
LINE
  5
548
100
AcDbEntity
  8
レイヤー_1
  6
CONTINUOUS
 62
       3
100
AcDbLine
 10
-22.48977657
 20
-1.8172391
 30
0.0
 11
-22.43661532
 21
-1.8669516
 31
0.0
  0
LINE
  5
549
100
AcDbEntity
  8
レイヤー_1
  6
CONTINUOUS
 62
       3
100
AcDbLine
 10
-22.43661532
 20
-1.8669516
 30
0.0
 11
-22.39017307
 21
-1.91588639
 31
0.0
  0
LINE
  5
54A
100
AcDbEntity
  8
レイヤー_1
  6
CONTINUOUS
 62
       3
100
AcDbLine
 10
-22.39017307
 20
-1.91588639
 30
0.0
 11
-22.35053689
 21
-1.96228805
 31
0.0
  0
LINE
  5
54B
100
AcDbEntity
  8
レイヤー_1
  6
CONTINUOUS
 62
       3
100
AcDbLine
 10
-22.35053689
 20
-1.96228805
 30
0.0
 11
-22.31779388
 21
-2.00440117
 31
0.0
  0
LINE
  5
54C
100
AcDbEntity
  8
レイヤー_1
  6
CONTINUOUS
 62
       3
100
AcDbLine
 10
-22.31779388
 20
-2.00440117
 30
0.0
 11
-22.29203112
 21
-2.04047034
 31
0.0
  0
LINE
  5
54D
100
AcDbEntity
  8
レイヤー_1
  6
CONTINUOUS
 62
       3
100
AcDbLine
 10
-22.29203112
 20
-2.04047034
 30
0.0
 11
-22.2733357
 21
-2.06874014
 31
0.0
  0
LINE
  5
54E
100
AcDbEntity
  8
レイヤー_1
  6
CONTINUOUS
 62
       3
100
AcDbLine
 10
-22.2733357
 20
-2.06874014
 30
0.0
 11
-22.2617947
 21
-2.08745516
 31
0.0
  0
LINE
  5
54F
100
AcDbEntity
  8
レイヤー_1
  6
CONTINUOUS
 62
       3
100
AcDbLine
 10
-22.2617947
 20
-2.08745516
 30
0.0
 11
-22.25749521
 21
-2.09486
 31
0.0
  0
LINE
  5
550
100
AcDbEntity
  8
レイヤー_1
  6
CONTINUOUS
 62
       3
100
AcDbLine
 10
-22.25749521
 20
-2.09486
 30
0.0
 11
-22.25746642
 21
-2.10235241
 31
0.0
  0
LINE
  5
551
100
AcDbEntity
  8
レイヤー_1
  6
CONTINUOUS
 62
       3
100
AcDbLine
 10
-22.25746642
 20
-2.10235241
 30
0.0
 11
-22.25746642
 21
-2.12612919
 31
0.0
  0
LINE
  5
552
100
AcDbEntity
  8
レイヤー_1
  6
CONTINUOUS
 62
       3
100
AcDbLine
 10
-22.25746642
 20
-2.12612919
 30
0.0
 11
-22.25746642
 21
-2.16383692
 31
0.0
  0
LINE
  5
553
100
AcDbEntity
  8
レイヤー_1
  6
CONTINUOUS
 62
       3
100
AcDbLine
 10
-22.25746642
 20
-2.16383692
 30
0.0
 11
-22.25746642
 21
-2.21299689
 31
0.0
  0
LINE
  5
554
100
AcDbEntity
  8
レイヤー_1
  6
CONTINUOUS
 62
       3
100
AcDbLine
 10
-22.25746642
 20
-2.21299689
 30
0.0
 11
-22.25746642
 21
-2.27113039
 31
0.0
  0
LINE
  5
555
100
AcDbEntity
  8
レイヤー_1
  6
CONTINUOUS
 62
       3
100
AcDbLine
 10
-22.25746642
 20
-2.27113039
 30
0.0
 11
-22.25746642
 21
-2.33575873
 31
0.0
  0
LINE
  5
556
100
AcDbEntity
  8
レイヤー_1
  6
CONTINUOUS
 62
       3
100
AcDbLine
 10
-22.25746642
 20
-2.33575873
 30
0.0
 11
-22.25746642
 21
-2.40440319
 31
0.0
  0
LINE
  5
557
100
AcDbEntity
  8
レイヤー_1
  6
CONTINUOUS
 62
       3
100
AcDbLine
 10
-22.25746642
 20
-2.40440319
 30
0.0
 11
-22.25746642
 21
-2.47458507
 31
0.0
  0
LINE
  5
558
100
AcDbEntity
  8
レイヤー_1
  6
CONTINUOUS
 62
       3
100
AcDbLine
 10
-22.25746642
 20
-2.47458507
 30
0.0
 11
-22.25746642
 21
-2.54382568
 31
0.0
  0
LINE
  5
559
100
AcDbEntity
  8
レイヤー_1
  6
CONTINUOUS
 62
       3
100
AcDbLine
 10
-22.25746642
 20
-2.54382568
 30
0.0
 11
-22.25746642
 21
-2.6096463
 31
0.0
  0
LINE
  5
55A
100
AcDbEntity
  8
レイヤー_1
  6
CONTINUOUS
 62
       3
100
AcDbLine
 10
-22.25746642
 20
-2.6096463
 30
0.0
 11
-22.25746642
 21
-2.66956824
 31
0.0
  0
LINE
  5
55B
100
AcDbEntity
  8
レイヤー_1
  6
CONTINUOUS
 62
       3
100
AcDbLine
 10
-22.25746642
 20
-2.66956824
 30
0.0
 11
-22.25746642
 21
-2.72111278
 31
0.0
  0
LINE
  5
55C
100
AcDbEntity
  8
レイヤー_1
  6
CONTINUOUS
 62
       3
100
AcDbLine
 10
-22.25746642
 20
-2.72111278
 30
0.0
 11
-22.25746642
 21
-2.76180123
 31
0.0
  0
LINE
  5
55D
100
AcDbEntity
  8
レイヤー_1
  6
CONTINUOUS
 62
       3
100
AcDbLine
 10
-22.25746642
 20
-2.76180123
 30
0.0
 11
-22.25746642
 21
-2.78915488
 31
0.0
  0
LINE
  5
55E
100
AcDbEntity
  8
レイヤー_1
  6
CONTINUOUS
 62
       3
100
AcDbLine
 10
-22.25746642
 20
-2.78915488
 30
0.0
 11
-22.25746642
 21
-2.80069502
 31
0.0
  0
LINE
  5
55F
100
AcDbEntity
  8
レイヤー_1
  6
CONTINUOUS
 62
       3
100
AcDbLine
 10
-22.25746642
 20
-2.80069502
 30
0.0
 11
-22.24541066
 21
-2.80090895
 31
0.0
  0
LINE
  5
560
100
AcDbEntity
  8
レイヤー_1
  6
CONTINUOUS
 62
       3
100
AcDbLine
 10
-22.24541066
 20
-2.80090895
 30
0.0
 11
-22.20285212
 21
-2.80090895
 31
0.0
  0
LINE
  5
561
100
AcDbEntity
  8
レイヤー_1
  6
CONTINUOUS
 62
       3
100
AcDbLine
 10
-22.20285212
 20
-2.80090895
 30
0.0
 11
-22.13401067
 21
-2.80090895
 31
0.0
  0
LINE
  5
562
100
AcDbEntity
  8
レイヤー_1
  6
CONTINUOUS
 62
       3
100
AcDbLine
 10
-22.13401067
 20
-2.80090895
 30
0.0
 11
-22.0435107
 21
-2.80090895
 31
0.0
  0
LINE
  5
563
100
AcDbEntity
  8
レイヤー_1
  6
CONTINUOUS
 62
       3
100
AcDbLine
 10
-22.0435107
 20
-2.80090895
 30
0.0
 11
-21.93597659
 21
-2.80090895
 31
0.0
  0
LINE
  5
564
100
AcDbEntity
  8
レイヤー_1
  6
CONTINUOUS
 62
       3
100
AcDbLine
 10
-21.93597659
 20
-2.80090895
 30
0.0
 11
-21.81603273
 21
-2.80090895
 31
0.0
  0
LINE
  5
565
100
AcDbEntity
  8
レイヤー_1
  6
CONTINUOUS
 62
       3
100
AcDbLine
 10
-21.81603273
 20
-2.80090895
 30
0.0
 11
-21.68830351
 21
-2.80090895
 31
0.0
  0
LINE
  5
566
100
AcDbEntity
  8
レイヤー_1
  6
CONTINUOUS
 62
       3
100
AcDbLine
 10
-21.68830351
 20
-2.80090895
 30
0.0
 11
-21.55741332
 21
-2.80090895
 31
0.0
  0
LINE
  5
567
100
AcDbEntity
  8
レイヤー_1
  6
CONTINUOUS
 62
       3
100
AcDbLine
 10
-21.55741332
 20
-2.80090895
 30
0.0
 11
-21.42798654
 21
-2.80090895
 31
0.0
  0
LINE
  5
568
100
AcDbEntity
  8
レイヤー_1
  6
CONTINUOUS
 62
       3
100
AcDbLine
 10
-21.42798654
 20
-2.80090895
 30
0.0
 11
-21.30464756
 21
-2.80090895
 31
0.0
  0
LINE
  5
569
100
AcDbEntity
  8
レイヤー_1
  6
CONTINUOUS
 62
       3
100
AcDbLine
 10
-21.30464756
 20
-2.80090895
 30
0.0
 11
-21.19202077
 21
-2.80090895
 31
0.0
  0
LINE
  5
56A
100
AcDbEntity
  8
レイヤー_1
  6
CONTINUOUS
 62
       3
100
AcDbLine
 10
-21.19202077
 20
-2.80090895
 30
0.0
 11
-21.09473056
 21
-2.80090895
 31
0.0
  0
LINE
  5
56B
100
AcDbEntity
  8
レイヤー_1
  6
CONTINUOUS
 62
       3
100
AcDbLine
 10
-21.09473056
 20
-2.80090895
 30
0.0
 11
-21.01740131
 21
-2.80090895
 31
0.0
  0
LINE
  5
56C
100
AcDbEntity
  8
レイヤー_1
  6
CONTINUOUS
 62
       3
100
AcDbLine
 10
-21.01740131
 20
-2.80090895
 30
0.0
 11
-20.96465741
 21
-2.80090895
 31
0.0
  0
LINE
  5
56D
100
AcDbEntity
  8
レイヤー_1
  6
CONTINUOUS
 62
       3
100
AcDbLine
 10
-20.96465741
 20
-2.80090895
 30
0.0
 11
-20.94112324
 21
-2.80090895
 31
0.0
  0
LINE
  5
56E
100
AcDbEntity
  8
レイヤー_1
  6
CONTINUOUS
 62
       3
100
AcDbLine
 10
-20.94112324
 20
-2.80090895
 30
0.0
 11
-20.93418458
 21
-2.80784142
 31
0.0
  0
LINE
  5
56F
100
AcDbEntity
  8
レイヤー_1
  6
CONTINUOUS
 62
       3
100
AcDbLine
 10
-20.93418458
 20
-2.80784142
 30
0.0
 11
-20.91002505
 21
-2.83511946
 31
0.0
  0
LINE
  5
570
100
AcDbEntity
  8
レイヤー_1
  6
CONTINUOUS
 62
       3
100
AcDbLine
 10
-20.91002505
 20
-2.83511946
 30
0.0
 11
-20.87010552
 21
-2.88019179
 31
0.0
  0
LINE
  5
571
100
AcDbEntity
  8
レイヤー_1
  6
CONTINUOUS
 62
       3
100
AcDbLine
 10
-20.87010552
 20
-2.88019179
 30
0.0
 11
-20.81716837
 21
-2.93996205
 31
0.0
  0
LINE
  5
572
100
AcDbEntity
  8
レイヤー_1
  6
CONTINUOUS
 62
       3
100
AcDbLine
 10
-20.81716837
 20
-2.93996205
 30
0.0
 11
-20.75395598
 21
-3.01133387
 31
0.0
  0
LINE
  5
573
100
AcDbEntity
  8
レイヤー_1
  6
CONTINUOUS
 62
       3
100
AcDbLine
 10
-20.75395598
 20
-3.01133387
 30
0.0
 11
-20.68321072
 21
-3.0912109
 31
0.0
  0
LINE
  5
574
100
AcDbEntity
  8
レイヤー_1
  6
CONTINUOUS
 62
       3
100
AcDbLine
 10
-20.68321072
 20
-3.0912109
 30
0.0
 11
-20.60767498
 21
-3.17649677
 31
0.0
  0
LINE
  5
575
100
AcDbEntity
  8
レイヤー_1
  6
CONTINUOUS
 62
       3
100
AcDbLine
 10
-20.60767498
 20
-3.17649677
 30
0.0
 11
-20.53009114
 21
-3.26409511
 31
0.0
  0
LINE
  5
576
100
AcDbEntity
  8
レイヤー_1
  6
CONTINUOUS
 62
       3
100
AcDbLine
 10
-20.53009114
 20
-3.26409511
 30
0.0
 11
-20.45320157
 21
-3.35090956
 31
0.0
  0
LINE
  5
577
100
AcDbEntity
  8
レイヤー_1
  6
CONTINUOUS
 62
       3
100
AcDbLine
 10
-20.45320157
 20
-3.35090956
 30
0.0
 11
-20.37974865
 21
-3.43384376
 31
0.0
  0
LINE
  5
578
100
AcDbEntity
  8
レイヤー_1
  6
CONTINUOUS
 62
       3
100
AcDbLine
 10
-20.37974865
 20
-3.43384376
 30
0.0
 11
-20.31247476
 21
-3.50980134
 31
0.0
  0
LINE
  5
579
100
AcDbEntity
  8
レイヤー_1
  6
CONTINUOUS
 62
       3
100
AcDbLine
 10
-20.31247476
 20
-3.50980134
 30
0.0
 11
-20.25412228
 21
-3.57568594
 31
0.0
  0
LINE
  5
57A
100
AcDbEntity
  8
レイヤー_1
  6
CONTINUOUS
 62
       3
100
AcDbLine
 10
-20.25412228
 20
-3.57568594
 30
0.0
 11
-20.20743359
 21
-3.62840119
 31
0.0
  0
LINE
  5
57B
100
AcDbEntity
  8
レイヤー_1
  6
CONTINUOUS
 62
       3
100
AcDbLine
 10
-20.20743359
 20
-3.62840119
 30
0.0
 11
-20.17515106
 21
-3.66485074
 31
0.0
  0
LINE
  5
57C
100
AcDbEntity
  8
レイヤー_1
  6
CONTINUOUS
 62
       3
100
AcDbLine
 10
-20.17515106
 20
-3.66485074
 30
0.0
 11
-20.16001708
 21
-3.68193821
 31
0.0
  0
LINE
  5
57D
100
AcDbEntity
  8
レイヤー_1
  6
CONTINUOUS
 62
       3
100
AcDbLine
 10
-20.16001708
 20
-3.68193821
 30
0.0
 11
-20.13524663
 21
-3.68283134
 31
0.0
  0
LINE
  5
57E
100
AcDbEntity
  8
レイヤー_1
  6
CONTINUOUS
 62
       3
100
AcDbLine
 10
-20.13524663
 20
-3.68283134
 30
0.0
 11
-20.02869974
 21
-3.68283134
 31
0.0
  0
LINE
  5
57F
100
AcDbEntity
  8
レイヤー_1
  6
CONTINUOUS
 62
       3
100
AcDbLine
 10
-20.02869974
 20
-3.68283134
 30
0.0
 11
-16.28527812
 21
-3.68283134
 31
0.0
  0
LINE
  5
580
100
AcDbEntity
  8
レイヤー_1
  6
CONTINUOUS
 62
       3
100
AcDbLine
 10
-15.80397853
 20
-3.31829609
 30
0.0
 11
-15.56990912
 21
-2.48665895
 31
0.0
  0
LINE
  5
581
100
AcDbEntity
  8
レイヤー_1
  6
CONTINUOUS
 62
       3
100
AcDbLine
 10
-15.56990912
 20
-2.48665895
 30
0.0
 11
-15.55204546
 21
-2.42319023
 31
0.0
  0
LINE
  5
582
100
AcDbEntity
  8
レイヤー_1
  6
CONTINUOUS
 62
       3
100
AcDbLine
 10
-15.55204546
 20
-2.42319023
 30
0.0
 11
-15.53923216
 21
-2.37766522
 31
0.0
  0
LINE
  5
583
100
AcDbEntity
  8
レイヤー_1
  6
CONTINUOUS
 62
       3
100
AcDbLine
 10
-15.53923216
 20
-2.37766522
 30
0.0
 11
-15.53246669
 21
-2.35362782
 31
0.0
  0
LINE
  5
584
100
AcDbEntity
  8
レイヤー_1
  6
CONTINUOUS
 62
       3
100
AcDbLine
 10
-15.53246669
 20
-2.35362782
 30
0.0
 11
-15.53667404
 21
-2.34907066
 31
0.0
  0
LINE
  5
585
100
AcDbEntity
  8
レイヤー_1
  6
CONTINUOUS
 62
       3
100
AcDbLine
 10
-15.53667404
 20
-2.34907066
 30
0.0
 11
-15.57139098
 21
-2.33736681
 31
0.0
  0
LINE
  5
586
100
AcDbEntity
  8
レイヤー_1
  6
CONTINUOUS
 62
       3
100
AcDbLine
 10
-15.57139098
 20
-2.33736681
 30
0.0
 11
-15.6350541
 21
-2.31590459
 31
0.0
  0
LINE
  5
587
100
AcDbEntity
  8
レイヤー_1
  6
CONTINUOUS
 62
       3
100
AcDbLine
 10
-15.6350541
 20
-2.31590459
 30
0.0
 11
-15.72283902
 21
-2.28631037
 31
0.0
  0
LINE
  5
588
100
AcDbEntity
  8
レイヤー_1
  6
CONTINUOUS
 62
       3
100
AcDbLine
 10
-15.72283902
 20
-2.28631037
 30
0.0
 11
-15.82992138
 21
-2.25021057
 31
0.0
  0
LINE
  5
589
100
AcDbEntity
  8
レイヤー_1
  6
CONTINUOUS
 62
       3
100
AcDbLine
 10
-15.82992138
 20
-2.25021057
 30
0.0
 11
-15.95147682
 21
-2.20923158
 31
0.0
  0
LINE
  5
58A
100
AcDbEntity
  8
レイヤー_1
  6
CONTINUOUS
 62
       3
100
AcDbLine
 10
-15.95147682
 20
-2.20923158
 30
0.0
 11
-16.08268099
 21
-2.16499978
 31
0.0
  0
LINE
  5
58B
100
AcDbEntity
  8
レイヤー_1
  6
CONTINUOUS
 62
       3
100
AcDbLine
 10
-16.08268099
 20
-2.16499978
 30
0.0
 11
-16.21870952
 21
-2.1191416
 31
0.0
  0
LINE
  5
58C
100
AcDbEntity
  8
レイヤー_1
  6
CONTINUOUS
 62
       3
100
AcDbLine
 10
-16.21870952
 20
-2.1191416
 30
0.0
 11
-16.35473804
 21
-2.07328341
 31
0.0
  0
LINE
  5
58D
100
AcDbEntity
  8
レイヤー_1
  6
CONTINUOUS
 62
       3
100
AcDbLine
 10
-16.35473804
 20
-2.07328341
 30
0.0
 11
-16.48594221
 21
-2.02905162
 31
0.0
  0
LINE
  5
58E
100
AcDbEntity
  8
レイヤー_1
  6
CONTINUOUS
 62
       3
100
AcDbLine
 10
-16.48594221
 20
-2.02905162
 30
0.0
 11
-16.60749766
 21
-1.98807262
 31
0.0
  0
LINE
  5
58F
100
AcDbEntity
  8
レイヤー_1
  6
CONTINUOUS
 62
       3
100
AcDbLine
 10
-16.60749766
 20
-1.98807262
 30
0.0
 11
-16.71458002
 21
-1.95197282
 31
0.0
  0
LINE
  5
590
100
AcDbEntity
  8
レイヤー_1
  6
CONTINUOUS
 62
       3
100
AcDbLine
 10
-16.71458002
 20
-1.95197282
 30
0.0
 11
-16.80236494
 21
-1.92237861
 31
0.0
  0
LINE
  5
591
100
AcDbEntity
  8
レイヤー_1
  6
CONTINUOUS
 62
       3
100
AcDbLine
 10
-16.80236494
 20
-1.92237861
 30
0.0
 11
-16.86602805
 21
-1.90091638
 31
0.0
  0
LINE
  5
592
100
AcDbEntity
  8
レイヤー_1
  6
CONTINUOUS
 62
       3
100
AcDbLine
 10
-16.86602805
 20
-1.90091638
 30
0.0
 11
-16.900745
 21
-1.88921254
 31
0.0
  0
LINE
  5
593
100
AcDbEntity
  8
レイヤー_1
  6
CONTINUOUS
 62
       3
100
AcDbLine
 10
-16.900745
 20
-1.88921254
 30
0.0
 11
-16.90675394
 21
-1.88974053
 31
0.0
  0
LINE
  5
594
100
AcDbEntity
  8
レイヤー_1
  6
CONTINUOUS
 62
       3
100
AcDbLine
 10
-16.90675394
 20
-1.88974053
 30
0.0
 11
-16.91509456
 21
-1.90834149
 31
0.0
  0
LINE
  5
595
100
AcDbEntity
  8
レイヤー_1
  6
CONTINUOUS
 62
       3
100
AcDbLine
 10
-16.91509456
 20
-1.90834149
 30
0.0
 11
-16.93089107
 21
-1.94357028
 31
0.0
  0
LINE
  5
596
100
AcDbEntity
  8
レイヤー_1
  6
CONTINUOUS
 62
       3
100
AcDbLine
 10
-16.93089107
 20
-1.94357028
 30
0.0
 11
-16.95291378
 21
-1.99268453
 31
0.0
  0
LINE
  5
597
100
AcDbEntity
  8
レイヤー_1
  6
CONTINUOUS
 62
       3
100
AcDbLine
 10
-16.95291378
 20
-1.99268453
 30
0.0
 11
-16.97993302
 21
-2.05294187
 31
0.0
  0
LINE
  5
598
100
AcDbEntity
  8
レイヤー_1
  6
CONTINUOUS
 62
       3
100
AcDbLine
 10
-16.97993302
 20
-2.05294187
 30
0.0
 11
-17.01071911
 21
-2.12159991
 31
0.0
  0
LINE
  5
599
100
AcDbEntity
  8
レイヤー_1
  6
CONTINUOUS
 62
       3
100
AcDbLine
 10
-17.01071911
 20
-2.12159991
 30
0.0
 11
-17.04404239
 21
-2.19591628
 31
0.0
  0
LINE
  5
59A
100
AcDbEntity
  8
レイヤー_1
  6
CONTINUOUS
 62
       3
100
AcDbLine
 10
-17.04404239
 20
-2.19591628
 30
0.0
 11
-17.07867317
 21
-2.27314859
 31
0.0
  0
LINE
  5
59B
100
AcDbEntity
  8
レイヤー_1
  6
CONTINUOUS
 62
       3
100
AcDbLine
 10
-17.07867317
 20
-2.27314859
 30
0.0
 11
-17.11338177
 21
-2.35055447
 31
0.0
  0
LINE
  5
59C
100
AcDbEntity
  8
レイヤー_1
  6
CONTINUOUS
 62
       3
100
AcDbLine
 10
-17.11338177
 20
-2.35055447
 30
0.0
 11
-17.14693853
 21
-2.42539154
 31
0.0
  0
LINE
  5
59D
100
AcDbEntity
  8
レイヤー_1
  6
CONTINUOUS
 62
       3
100
AcDbLine
 10
-17.14693853
 20
-2.42539154
 30
0.0
 11
-17.17811376
 21
-2.49491742
 31
0.0
  0
LINE
  5
59E
100
AcDbEntity
  8
レイヤー_1
  6
CONTINUOUS
 62
       3
100
AcDbLine
 10
-17.17811376
 20
-2.49491742
 30
0.0
 11
-17.2056778
 21
-2.55638974
 31
0.0
  0
LINE
  5
59F
100
AcDbEntity
  8
レイヤー_1
  6
CONTINUOUS
 62
       3
100
AcDbLine
 10
-17.2056778
 20
-2.55638974
 30
0.0
 11
-17.22840096
 21
-2.6070661
 31
0.0
  0
LINE
  5
5A0
100
AcDbEntity
  8
レイヤー_1
  6
CONTINUOUS
 62
       3
100
AcDbLine
 10
-17.22840096
 20
-2.6070661
 30
0.0
 11
-17.24505356
 21
-2.64420415
 31
0.0
  0
LINE
  5
5A1
100
AcDbEntity
  8
レイヤー_1
  6
CONTINUOUS
 62
       3
100
AcDbLine
 10
-17.24505356
 20
-2.64420415
 30
0.0
 11
-17.25440594
 21
-2.66506149
 31
0.0
  0
LINE
  5
5A2
100
AcDbEntity
  8
レイヤー_1
  6
CONTINUOUS
 62
       3
100
AcDbLine
 10
-17.25440594
 20
-2.66506149
 30
0.0
 11
-17.25821051
 21
-2.66862059
 31
0.0
  0
LINE
  5
5A3
100
AcDbEntity
  8
レイヤー_1
  6
CONTINUOUS
 62
       3
100
AcDbLine
 10
-17.25821051
 20
-2.66862059
 30
0.0
 11
-17.28137947
 21
-2.66862059
 31
0.0
  0
LINE
  5
5A4
100
AcDbEntity
  8
レイヤー_1
  6
CONTINUOUS
 62
       3
100
AcDbLine
 10
-17.28137947
 20
-2.66862059
 30
0.0
 11
-17.32684822
 21
-2.66862059
 31
0.0
  0
LINE
  5
5A5
100
AcDbEntity
  8
レイヤー_1
  6
CONTINUOUS
 62
       3
100
AcDbLine
 10
-17.32684822
 20
-2.66862059
 30
0.0
 11
-17.39097691
 21
-2.66862059
 31
0.0
  0
LINE
  5
5A6
100
AcDbEntity
  8
レイヤー_1
  6
CONTINUOUS
 62
       3
100
AcDbLine
 10
-17.39097691
 20
-2.66862059
 30
0.0
 11
-17.4701257
 21
-2.66862059
 31
0.0
  0
LINE
  5
5A7
100
AcDbEntity
  8
レイヤー_1
  6
CONTINUOUS
 62
       3
100
AcDbLine
 10
-17.4701257
 20
-2.66862059
 30
0.0
 11
-17.56065475
 21
-2.66862059
 31
0.0
  0
LINE
  5
5A8
100
AcDbEntity
  8
レイヤー_1
  6
CONTINUOUS
 62
       3
100
AcDbLine
 10
-17.56065475
 20
-2.66862059
 30
0.0
 11
-17.65892422
 21
-2.66862059
 31
0.0
  0
LINE
  5
5A9
100
AcDbEntity
  8
レイヤー_1
  6
CONTINUOUS
 62
       3
100
AcDbLine
 10
-17.65892422
 20
-2.66862059
 30
0.0
 11
-17.76129426
 21
-2.66862059
 31
0.0
  0
LINE
  5
5AA
100
AcDbEntity
  8
レイヤー_1
  6
CONTINUOUS
 62
       3
100
AcDbLine
 10
-17.76129426
 20
-2.66862059
 30
0.0
 11
-17.86412505
 21
-2.66862059
 31
0.0
  0
LINE
  5
5AB
100
AcDbEntity
  8
レイヤー_1
  6
CONTINUOUS
 62
       3
100
AcDbLine
 10
-17.86412505
 20
-2.66862059
 30
0.0
 11
-17.96377674
 21
-2.66862059
 31
0.0
  0
LINE
  5
5AC
100
AcDbEntity
  8
レイヤー_1
  6
CONTINUOUS
 62
       3
100
AcDbLine
 10
-17.96377674
 20
-2.66862059
 30
0.0
 11
-18.05660948
 21
-2.66862059
 31
0.0
  0
LINE
  5
5AD
100
AcDbEntity
  8
レイヤー_1
  6
CONTINUOUS
 62
       3
100
AcDbLine
 10
-18.05660948
 20
-2.66862059
 30
0.0
 11
-18.13898345
 21
-2.66862059
 31
0.0
  0
LINE
  5
5AE
100
AcDbEntity
  8
レイヤー_1
  6
CONTINUOUS
 62
       3
100
AcDbLine
 10
-18.13898345
 20
-2.66862059
 30
0.0
 11
-18.20725879
 21
-2.66862059
 31
0.0
  0
LINE
  5
5AF
100
AcDbEntity
  8
レイヤー_1
  6
CONTINUOUS
 62
       3
100
AcDbLine
 10
-18.20725879
 20
-2.66862059
 30
0.0
 11
-18.25779567
 21
-2.66862059
 31
0.0
  0
LINE
  5
5B0
100
AcDbEntity
  8
レイヤー_1
  6
CONTINUOUS
 62
       3
100
AcDbLine
 10
-18.25779567
 20
-2.66862059
 30
0.0
 11
-18.28695424
 21
-2.66862059
 31
0.0
  0
LINE
  5
5B1
100
AcDbEntity
  8
レイヤー_1
  6
CONTINUOUS
 62
       3
100
AcDbLine
 10
-18.28695424
 20
-2.66862059
 30
0.0
 11
-18.29271998
 21
-2.66606874
 31
0.0
  0
LINE
  5
5B2
100
AcDbEntity
  8
レイヤー_1
  6
CONTINUOUS
 62
       3
100
AcDbLine
 10
-18.29271998
 20
-2.66606874
 30
0.0
 11
-18.29271998
 21
-2.63105667
 31
0.0
  0
LINE
  5
5B3
100
AcDbEntity
  8
レイヤー_1
  6
CONTINUOUS
 62
       3
100
AcDbLine
 10
-18.29271998
 20
-2.63105667
 30
0.0
 11
-18.29271998
 21
-2.55958409
 31
0.0
  0
LINE
  5
5B4
100
AcDbEntity
  8
レイヤー_1
  6
CONTINUOUS
 62
       3
100
AcDbLine
 10
-18.29271998
 20
-2.55958409
 30
0.0
 11
-18.29271998
 21
-2.45754134
 31
0.0
  0
LINE
  5
5B5
100
AcDbEntity
  8
レイヤー_1
  6
CONTINUOUS
 62
       3
100
AcDbLine
 10
-18.29271998
 20
-2.45754134
 30
0.0
 11
-18.29271998
 21
-2.33081877
 31
0.0
  0
LINE
  5
5B6
100
AcDbEntity
  8
レイヤー_1
  6
CONTINUOUS
 62
       3
100
AcDbLine
 10
-18.29271998
 20
-2.33081877
 30
0.0
 11
-18.29271998
 21
-2.18530674
 31
0.0
  0
LINE
  5
5B7
100
AcDbEntity
  8
レイヤー_1
  6
CONTINUOUS
 62
       3
100
AcDbLine
 10
-18.29271998
 20
-2.18530674
 30
0.0
 11
-18.29271998
 21
-2.0268956
 31
0.0
  0
LINE
  5
5B8
100
AcDbEntity
  8
レイヤー_1
  6
CONTINUOUS
 62
       3
100
AcDbLine
 10
-18.29271998
 20
-2.0268956
 30
0.0
 11
-18.29271998
 21
-1.86147568
 31
0.0
  0
LINE
  5
5B9
100
AcDbEntity
  8
レイヤー_1
  6
CONTINUOUS
 62
       3
100
AcDbLine
 10
-18.29271998
 20
-1.86147568
 30
0.0
 11
-18.29271998
 21
-1.69493734
 31
0.0
  0
LINE
  5
5BA
100
AcDbEntity
  8
レイヤー_1
  6
CONTINUOUS
 62
       3
100
AcDbLine
 10
-18.29271998
 20
-1.69493734
 30
0.0
 11
-18.29271998
 21
-1.53317093
 31
0.0
  0
LINE
  5
5BB
100
AcDbEntity
  8
レイヤー_1
  6
CONTINUOUS
 62
       3
100
AcDbLine
 10
-18.29271998
 20
-1.53317093
 30
0.0
 11
-18.29271998
 21
-1.3820668
 31
0.0
  0
LINE
  5
5BC
100
AcDbEntity
  8
レイヤー_1
  6
CONTINUOUS
 62
       3
100
AcDbLine
 10
-18.29271998
 20
-1.3820668
 30
0.0
 11
-18.29271998
 21
-1.24751529
 31
0.0
  0
LINE
  5
5BD
100
AcDbEntity
  8
レイヤー_1
  6
CONTINUOUS
 62
       3
100
AcDbLine
 10
-18.29271998
 20
-1.24751529
 30
0.0
 11
-18.29271998
 21
-1.13540676
 31
0.0
  0
LINE
  5
5BE
100
AcDbEntity
  8
レイヤー_1
  6
CONTINUOUS
 62
       3
100
AcDbLine
 10
-18.29271998
 20
-1.13540676
 30
0.0
 11
-18.29271998
 21
-1.05163155
 31
0.0
  0
LINE
  5
5BF
100
AcDbEntity
  8
レイヤー_1
  6
CONTINUOUS
 62
       3
100
AcDbLine
 10
-18.29271998
 20
-1.05163155
 30
0.0
 11
-18.29271998
 21
-1.00208001
 31
0.0
  0
LINE
  5
5C0
100
AcDbEntity
  8
レイヤー_1
  6
CONTINUOUS
 62
       3
100
AcDbLine
 10
-18.29271998
 20
-1.00208001
 30
0.0
 11
-18.29273886
 21
-0.99039469
 31
0.0
  0
LINE
  5
5C1
100
AcDbEntity
  8
レイヤー_1
  6
CONTINUOUS
 62
       3
100
AcDbLine
 10
-18.29273886
 20
-0.99039469
 30
0.0
 11
-18.29333453
 21
-0.98070734
 31
0.0
  0
LINE
  5
5C2
100
AcDbEntity
  8
レイヤー_1
  6
CONTINUOUS
 62
       3
100
AcDbLine
 10
-18.29333453
 20
-0.98070734
 30
0.0
 11
-18.29536015
 21
-0.96004311
 31
0.0
  0
LINE
  5
5C3
100
AcDbEntity
  8
レイヤー_1
  6
CONTINUOUS
 62
       3
100
AcDbLine
 10
-18.29536015
 20
-0.96004311
 30
0.0
 11
-18.29961119
 21
-0.9301574
 31
0.0
  0
LINE
  5
5C4
100
AcDbEntity
  8
レイヤー_1
  6
CONTINUOUS
 62
       3
100
AcDbLine
 10
-18.29961119
 20
-0.9301574
 30
0.0
 11
-18.30688309
 21
-0.89280564
 31
0.0
  0
LINE
  5
5C5
100
AcDbEntity
  8
レイヤー_1
  6
CONTINUOUS
 62
       3
100
AcDbLine
 10
-18.30688309
 20
-0.89280564
 30
0.0
 11
-18.31797131
 21
-0.84974323
 31
0.0
  0
LINE
  5
5C6
100
AcDbEntity
  8
レイヤー_1
  6
CONTINUOUS
 62
       3
100
AcDbLine
 10
-18.31797131
 20
-0.84974323
 30
0.0
 11
-18.33367133
 21
-0.80272558
 31
0.0
  0
LINE
  5
5C7
100
AcDbEntity
  8
レイヤー_1
  6
CONTINUOUS
 62
       3
100
AcDbLine
 10
-18.33367133
 20
-0.80272558
 30
0.0
 11
-18.35477859
 21
-0.75350812
 31
0.0
  0
LINE
  5
5C8
100
AcDbEntity
  8
レイヤー_1
  6
CONTINUOUS
 62
       3
100
AcDbLine
 10
-18.35477859
 20
-0.75350812
 30
0.0
 11
-18.38208855
 21
-0.70384625
 31
0.0
  0
LINE
  5
5C9
100
AcDbEntity
  8
レイヤー_1
  6
CONTINUOUS
 62
       3
100
AcDbLine
 10
-18.38208855
 20
-0.70384625
 30
0.0
 11
-18.41639668
 21
-0.65549538
 31
0.0
  0
LINE
  5
5CA
100
AcDbEntity
  8
レイヤー_1
  6
CONTINUOUS
 62
       3
100
AcDbLine
 10
-18.41639668
 20
-0.65549538
 30
0.0
 11
-18.45849844
 21
-0.61021093
 31
0.0
  0
LINE
  5
5CB
100
AcDbEntity
  8
レイヤー_1
  6
CONTINUOUS
 62
       3
100
AcDbLine
 10
-18.45849844
 20
-0.61021093
 30
0.0
 11
-18.50918928
 21
-0.56974831
 31
0.0
  0
LINE
  5
5CC
100
AcDbEntity
  8
レイヤー_1
  6
CONTINUOUS
 62
       3
100
AcDbLine
 10
-18.50918928
 20
-0.56974831
 30
0.0
 11
-18.56926465
 21
-0.53586293
 31
0.0
  0
LINE
  5
5CD
100
AcDbEntity
  8
レイヤー_1
  6
CONTINUOUS
 62
       3
100
AcDbLine
 10
-18.56926465
 20
-0.53586293
 30
0.0
 11
-18.63952003
 21
-0.5103102
 31
0.0
  0
LINE
  5
5CE
100
AcDbEntity
  8
レイヤー_1
  6
CONTINUOUS
 62
       3
100
AcDbLine
 10
-18.63952003
 20
-0.5103102
 30
0.0
 11
-18.72075087
 21
-0.49484555
 31
0.0
  0
LINE
  5
5CF
100
AcDbEntity
  8
レイヤー_1
  6
CONTINUOUS
 62
       3
100
AcDbLine
 10
-18.72075087
 20
-0.49484555
 30
0.0
 11
-18.8156138
 21
-0.49091534
 31
0.0
  0
LINE
  5
5D0
100
AcDbEntity
  8
レイヤー_1
  6
CONTINUOUS
 62
       3
100
AcDbLine
 10
-18.8156138
 20
-0.49091534
 30
0.0
 11
-18.97495785
 21
-0.49091534
 31
0.0
  0
LINE
  5
5D1
100
AcDbEntity
  8
レイヤー_1
  6
CONTINUOUS
 62
       3
100
AcDbLine
 10
-18.97495785
 20
-0.49091534
 30
0.0
 11
-23.29256259
 21
-0.49091534
 31
0.0
  0
LINE
  5
5D2
100
AcDbEntity
  8
レイヤー_1
  6
CONTINUOUS
 62
       3
100
AcDbLine
 10
-23.79256259
 20
0.00908466
 30
0.0
 11
-23.79256259
 21
1.00902743
 31
0.0
  0
LINE
  5
5D3
100
AcDbEntity
  8
レイヤー_1
  6
CONTINUOUS
 62
       3
100
AcDbLine
 10
-23.29256259
 20
1.50902743
 30
0.0
 11
-21.78757502
 21
1.50902743
 31
0.0
  0
LINE
  5
5D4
100
AcDbEntity
  8
レイヤー_1
  6
CONTINUOUS
 62
       3
100
AcDbLine
 10
-21.78757502
 20
1.50902743
 30
0.0
 11
-21.74342177
 21
1.50902743
 31
0.0
  0
LINE
  5
5D5
100
AcDbEntity
  8
レイヤー_1
  6
CONTINUOUS
 62
       3
100
AcDbLine
 10
-21.74342177
 20
1.50902743
 30
0.0
 11
-21.72594137
 21
1.50902743
 31
0.0
  0
LINE
  5
5D6
100
AcDbEntity
  8
レイヤー_1
  6
CONTINUOUS
 62
       3
100
AcDbLine
 10
-21.72594137
 20
1.50902743
 30
0.0
 11
-21.71809477
 21
1.50893078
 31
0.0
  0
LINE
  5
5D7
100
AcDbEntity
  8
レイヤー_1
  6
CONTINUOUS
 62
       3
100
AcDbLine
 10
-21.71809477
 20
1.50893078
 30
0.0
 11
-21.69303714
 21
1.50946817
 31
0.0
  0
LINE
  5
5D8
100
AcDbEntity
  8
レイヤー_1
  6
CONTINUOUS
 62
       3
100
AcDbLine
 10
-21.69303714
 20
1.50946817
 30
0.0
 11
-21.65314511
 21
1.51208731
 31
0.0
  0
LINE
  5
5D9
100
AcDbEntity
  8
レイヤー_1
  6
CONTINUOUS
 62
       3
100
AcDbLine
 10
-21.65314511
 20
1.51208731
 30
0.0
 11
-21.60105221
 21
1.51823961
 31
0.0
  0
LINE
  5
5DA
100
AcDbEntity
  8
レイヤー_1
  6
CONTINUOUS
 62
       3
100
AcDbLine
 10
-21.60105221
 20
1.51823961
 30
0.0
 11
-21.53939195
 21
1.52937651
 31
0.0
  0
LINE
  5
5DB
100
AcDbEntity
  8
レイヤー_1
  6
CONTINUOUS
 62
       3
100
AcDbLine
 10
-21.53939195
 20
1.52937651
 30
0.0
 11
-21.47079787
 21
1.54694941
 31
0.0
  0
LINE
  5
5DC
100
AcDbEntity
  8
レイヤー_1
  6
CONTINUOUS
 62
       3
100
AcDbLine
 10
-21.47079787
 20
1.54694941
 30
0.0
 11
-21.39790347
 21
1.57240975
 31
0.0
  0
LINE
  5
5DD
100
AcDbEntity
  8
レイヤー_1
  6
CONTINUOUS
 62
       3
100
AcDbLine
 10
-21.39790347
 20
1.57240975
 30
0.0
 11
-21.32334229
 21
1.60720893
 31
0.0
  0
LINE
  5
5DE
100
AcDbEntity
  8
レイヤー_1
  6
CONTINUOUS
 62
       3
100
AcDbLine
 10
-21.32334229
 20
1.60720893
 30
0.0
 11
-21.24974785
 21
1.65279839
 31
0.0
  0
LINE
  5
5DF
100
AcDbEntity
  8
レイヤー_1
  6
CONTINUOUS
 62
       3
100
AcDbLine
 10
-21.24974785
 20
1.65279839
 30
0.0
 11
-21.17975366
 21
1.71062953
 31
0.0
  0
LINE
  5
5E0
100
AcDbEntity
  8
レイヤー_1
  6
CONTINUOUS
 62
       3
100
AcDbLine
 10
-21.17975366
 20
1.71062953
 30
0.0
 11
-21.11599325
 21
1.78215379
 31
0.0
  0
LINE
  5
5E1
100
AcDbEntity
  8
レイヤー_1
  6
CONTINUOUS
 62
       3
100
AcDbLine
 10
-21.11599325
 20
1.78215379
 30
0.0
 11
-21.06110015
 21
1.86882259
 31
0.0
  0
LINE
  5
5E2
100
AcDbEntity
  8
レイヤー_1
  6
CONTINUOUS
 62
       3
100
AcDbLine
 10
-21.06110015
 20
1.86882259
 30
0.0
 11
-21.01770787
 21
1.97208733
 31
0.0
  0
LINE
  5
5E3
100
AcDbEntity
  8
レイヤー_1
  6
CONTINUOUS
 62
       3
100
AcDbLine
 10
-21.01770787
 20
1.97208733
 30
0.0
 11
-20.98844993
 21
2.09339945
 31
0.0
  0
LINE
  5
5E4
100
AcDbEntity
  8
レイヤー_1
  6
CONTINUOUS
 62
       3
100
AcDbLine
 10
-20.97569327
 20
2.00366853
 30
0.0
 11
-20.97569327
 21
9.60247324
 31
0.0
  0
LINE
  5
5E5
100
AcDbEntity
  8
レイヤー_1
  6
CONTINUOUS
 62
       3
100
AcDbLine
 10
-20.97569327
 20
9.60247324
 30
0.0
 11
-20.97569327
 21
9.80143135
 31
0.0
  0
LINE
  5
5E6
100
AcDbEntity
  8
レイヤー_1
  6
CONTINUOUS
 62
       3
100
AcDbLine
 10
-20.97569327
 20
9.80143135
 30
0.0
 11
-20.97461624
 21
9.89444033
 31
0.0
  0
LINE
  5
5E7
100
AcDbEntity
  8
レイヤー_1
  6
CONTINUOUS
 62
       3
100
AcDbLine
 10
-20.97461624
 20
9.89444033
 30
0.0
 11
-20.96986076
 21
9.97348152
 31
0.0
  0
LINE
  5
5E8
100
AcDbEntity
  8
レイヤー_1
  6
CONTINUOUS
 62
       3
100
AcDbLine
 10
-20.96986076
 20
9.97348152
 30
0.0
 11
-20.96103131
 21
10.0432873
 31
0.0
  0
LINE
  5
5E9
100
AcDbEntity
  8
レイヤー_1
  6
CONTINUOUS
 62
       3
100
AcDbLine
 10
-20.96103131
 20
10.0432873
 30
0.0
 11
-20.94782348
 21
10.10490391
 31
0.0
  0
LINE
  5
5EA
100
AcDbEntity
  8
レイヤー_1
  6
CONTINUOUS
 62
       3
100
AcDbLine
 10
-20.94782348
 20
10.10490391
 30
0.0
 11
-20.92993287
 21
10.15937758
 31
0.0
  0
LINE
  5
5EB
100
AcDbEntity
  8
レイヤー_1
  6
CONTINUOUS
 62
       3
100
AcDbLine
 10
-20.92993287
 20
10.15937758
 30
0.0
 11
-20.90705511
 21
10.20775455
 31
0.0
  0
LINE
  5
5EC
100
AcDbEntity
  8
レイヤー_1
  6
CONTINUOUS
 62
       3
100
AcDbLine
 10
-20.90705511
 20
10.20775455
 30
0.0
 11
-20.87888578
 21
10.25108104
 31
0.0
  0
LINE
  5
5ED
100
AcDbEntity
  8
レイヤー_1
  6
CONTINUOUS
 62
       3
100
AcDbLine
 10
-20.87888578
 20
10.25108104
 30
0.0
 11
-20.84512049
 21
10.29040329
 31
0.0
  0
LINE
  5
5EE
100
AcDbEntity
  8
レイヤー_1
  6
CONTINUOUS
 62
       3
100
AcDbLine
 10
-20.84512049
 20
10.29040329
 30
0.0
 11
-20.80545486
 21
10.32676753
 31
0.0
  0
LINE
  5
5EF
100
AcDbEntity
  8
レイヤー_1
  6
CONTINUOUS
 62
       3
100
AcDbLine
 10
-20.80545486
 20
10.32676753
 30
0.0
 11
-20.75958447
 21
10.36121999
 31
0.0
  0
LINE
  5
5F0
100
AcDbEntity
  8
レイヤー_1
  6
CONTINUOUS
 62
       3
100
AcDbLine
 10
-20.75958447
 20
10.36121999
 30
0.0
 11
-20.70720495
 21
10.39480691
 31
0.0
  0
LINE
  5
5F1
100
AcDbEntity
  8
レイヤー_1
  6
CONTINUOUS
 62
       3
100
AcDbLine
 10
-20.70720495
 20
10.39480691
 30
0.0
 11
-20.64801189
 21
10.42857452
 31
0.0
  0
LINE
  5
5F2
100
AcDbEntity
  8
レイヤー_1
  6
CONTINUOUS
 62
       3
100
AcDbLine
 10
-20.64801189
 20
10.42857452
 30
0.0
 11
-20.58170089
 21
10.46356904
 31
0.0
  0
LINE
  5
5F3
100
AcDbEntity
  8
レイヤー_1
  6
CONTINUOUS
 62
       3
100
AcDbLine
 10
-20.58170089
 20
10.46356904
 30
0.0
 11
-20.50796757
 21
10.50083672
 31
0.0
  0
LINE
  5
5F4
100
AcDbEntity
  8
レイヤー_1
  6
CONTINUOUS
 62
       3
100
AcDbLine
 10
-20.50796757
 20
10.50083672
 30
0.0
 11
-20.42650753
 21
10.54142378
 31
0.0
  0
LINE
  5
5F5
100
AcDbEntity
  8
レイヤー_1
  6
CONTINUOUS
 62
       3
100
AcDbLine
 10
-20.42650753
 20
10.54142378
 30
0.0
 11
-20.38772633
 21
10.55765008
 31
0.0
  0
LINE
  5
5F6
100
AcDbEntity
  8
レイヤー_1
  6
CONTINUOUS
 62
       3
100
AcDbLine
 10
-20.38772633
 20
10.55765008
 30
0.0
 11
-20.32604135
 21
10.57417824
 31
0.0
  0
LINE
  5
5F7
100
AcDbEntity
  8
レイヤー_1
  6
CONTINUOUS
 62
       3
100
AcDbLine
 10
-20.32604135
 20
10.57417824
 30
0.0
 11
-20.22125
 21
10.60225653
 31
0.0
  0
LINE
  5
5F8
100
AcDbEntity
  8
レイヤー_1
  6
CONTINUOUS
 62
       3
100
AcDbLine
 10
-20.22125
 20
10.60225653
 30
0.0
 11
-20.08075532
 21
10.63990133
 31
0.0
  0
LINE
  5
5F9
100
AcDbEntity
  8
レイヤー_1
  6
CONTINUOUS
 62
       3
100
AcDbLine
 10
-20.08075532
 20
10.63990133
 30
0.0
 11
-19.91196037
 21
10.68512903
 31
0.0
  0
LINE
  5
5FA
100
AcDbEntity
  8
レイヤー_1
  6
CONTINUOUS
 62
       3
100
AcDbLine
 10
-19.91196037
 20
10.68512903
 30
0.0
 11
-19.7222682
 21
10.73595604
 31
0.0
  0
LINE
  5
5FB
100
AcDbEntity
  8
レイヤー_1
  6
CONTINUOUS
 62
       3
100
AcDbLine
 10
-19.7222682
 20
10.73595604
 30
0.0
 11
-19.51908186
 21
10.79039874
 31
0.0
  0
LINE
  5
5FC
100
AcDbEntity
  8
レイヤー_1
  6
CONTINUOUS
 62
       3
100
AcDbLine
 10
-19.51908186
 20
10.79039874
 30
0.0
 11
-19.30980439
 21
10.84647352
 31
0.0
  0
LINE
  5
5FD
100
AcDbEntity
  8
レイヤー_1
  6
CONTINUOUS
 62
       3
100
AcDbLine
 10
-19.30980439
 20
10.84647352
 30
0.0
 11
-19.10183887
 21
10.90219677
 31
0.0
  0
LINE
  5
5FE
100
AcDbEntity
  8
レイヤー_1
  6
CONTINUOUS
 62
       3
100
AcDbLine
 10
-19.10183887
 20
10.90219677
 30
0.0
 11
-18.90258832
 21
10.95558489
 31
0.0
  0
LINE
  5
5FF
100
AcDbEntity
  8
レイヤー_1
  6
CONTINUOUS
 62
       3
100
AcDbLine
 10
-18.90258832
 20
10.95558489
 30
0.0
 11
-18.71945582
 21
11.00465427
 31
0.0
  0
LINE
  5
600
100
AcDbEntity
  8
レイヤー_1
  6
CONTINUOUS
 62
       3
100
AcDbLine
 10
-18.71945582
 20
11.00465427
 30
0.0
 11
-18.5598444
 21
11.0474213
 31
0.0
  0
LINE
  5
601
100
AcDbEntity
  8
レイヤー_1
  6
CONTINUOUS
 62
       3
100
AcDbLine
 10
-18.5598444
 20
11.0474213
 30
0.0
 11
-18.43115712
 21
11.08190237
 31
0.0
  0
LINE
  5
602
100
AcDbEntity
  8
レイヤー_1
  6
CONTINUOUS
 62
       3
100
AcDbLine
 10
-18.43115712
 20
11.08190237
 30
0.0
 11
-18.34079703
 21
11.10611388
 31
0.0
  0
LINE
  5
603
100
AcDbEntity
  8
レイヤー_1
  6
CONTINUOUS
 62
       3
100
AcDbLine
 10
-18.34079703
 20
11.10611388
 30
0.0
 11
-18.29616718
 21
11.1180722
 31
0.0
  0
LINE
  5
604
100
AcDbEntity
  8
レイヤー_1
  6
CONTINUOUS
 62
       3
100
AcDbLine
 10
-18.29616718
 20
11.1180722
 30
0.0
 11
-18.29271998
 21
11.12505536
 31
0.0
  0
LINE
  5
605
100
AcDbEntity
  8
レイヤー_1
  6
CONTINUOUS
 62
       3
100
AcDbLine
 10
-18.29271998
 20
11.12505536
 30
0.0
 11
-18.29271998
 21
11.1565737
 31
0.0
  0
LINE
  5
606
100
AcDbEntity
  8
レイヤー_1
  6
CONTINUOUS
 62
       3
100
AcDbLine
 10
-18.29271998
 20
11.1565737
 30
0.0
 11
-18.29271998
 21
11.21148609
 31
0.0
  0
LINE
  5
607
100
AcDbEntity
  8
レイヤー_1
  6
CONTINUOUS
 62
       3
100
AcDbLine
 10
-18.29271998
 20
11.21148609
 30
0.0
 11
-18.29271998
 21
11.28581807
 31
0.0
  0
LINE
  5
608
100
AcDbEntity
  8
レイヤー_1
  6
CONTINUOUS
 62
       3
100
AcDbLine
 10
-18.29271998
 20
11.28581807
 30
0.0
 11
-18.29271998
 21
11.37559514
 31
0.0
  0
LINE
  5
609
100
AcDbEntity
  8
レイヤー_1
  6
CONTINUOUS
 62
       3
100
AcDbLine
 10
-18.29271998
 20
11.37559514
 30
0.0
 11
-18.29271998
 21
11.47684285
 31
0.0
  0
LINE
  5
60A
100
AcDbEntity
  8
レイヤー_1
  6
CONTINUOUS
 62
       3
100
AcDbLine
 10
-18.29271998
 20
11.47684285
 30
0.0
 11
-18.29271998
 21
11.58558672
 31
0.0
  0
LINE
  5
60B
100
AcDbEntity
  8
レイヤー_1
  6
CONTINUOUS
 62
       3
100
AcDbLine
 10
-18.29271998
 20
11.58558672
 30
0.0
 11
-18.29271998
 21
11.69785228
 31
0.0
  0
LINE
  5
60C
100
AcDbEntity
  8
レイヤー_1
  6
CONTINUOUS
 62
       3
100
AcDbLine
 10
-18.29271998
 20
11.69785228
 30
0.0
 11
-18.29271998
 21
11.80966505
 31
0.0
  0
LINE
  5
60D
100
AcDbEntity
  8
レイヤー_1
  6
CONTINUOUS
 62
       3
100
AcDbLine
 10
-18.29271998
 20
11.80966505
 30
0.0
 11
-18.29271998
 21
11.91705055
 31
0.0
  0
LINE
  5
60E
100
AcDbEntity
  8
レイヤー_1
  6
CONTINUOUS
 62
       3
100
AcDbLine
 10
-18.29271998
 20
11.91705055
 30
0.0
 11
-18.29271998
 21
12.01603432
 31
0.0
  0
LINE
  5
60F
100
AcDbEntity
  8
レイヤー_1
  6
CONTINUOUS
 62
       3
100
AcDbLine
 10
-18.29271998
 20
12.01603432
 30
0.0
 11
-18.29271998
 21
12.10264188
 31
0.0
  0
LINE
  5
610
100
AcDbEntity
  8
レイヤー_1
  6
CONTINUOUS
 62
       3
100
AcDbLine
 10
-18.29271998
 20
12.10264188
 30
0.0
 11
-18.29271998
 21
12.17289876
 31
0.0
  0
LINE
  5
611
100
AcDbEntity
  8
レイヤー_1
  6
CONTINUOUS
 62
       3
100
AcDbLine
 10
-18.29271998
 20
12.17289876
 30
0.0
 11
-18.29271998
 21
12.22283049
 31
0.0
  0
LINE
  5
612
100
AcDbEntity
  8
レイヤー_1
  6
CONTINUOUS
 62
       3
100
AcDbLine
 10
-18.29271998
 20
12.22283049
 30
0.0
 11
-18.29271998
 21
12.24846258
 31
0.0
  0
LINE
  5
613
100
AcDbEntity
  8
レイヤー_1
  6
CONTINUOUS
 62
       3
100
AcDbLine
 10
-18.29271998
 20
12.24846258
 30
0.0
 11
-18.2883529
 21
12.25102594
 31
0.0
  0
LINE
  5
614
100
AcDbEntity
  8
レイヤー_1
  6
CONTINUOUS
 62
       3
100
AcDbLine
 10
-18.2883529
 20
12.25102594
 30
0.0
 11
-18.26193742
 21
12.25102594
 31
0.0
  0
LINE
  5
615
100
AcDbEntity
  8
レイヤー_1
  6
CONTINUOUS
 62
       3
100
AcDbLine
 10
-18.26193742
 20
12.25102594
 30
0.0
 11
-18.21463476
 21
12.25102594
 31
0.0
  0
LINE
  5
616
100
AcDbEntity
  8
レイヤー_1
  6
CONTINUOUS
 62
       3
100
AcDbLine
 10
-18.21463476
 20
12.25102594
 30
0.0
 11
-18.14995573
 21
12.25102594
 31
0.0
  0
LINE
  5
617
100
AcDbEntity
  8
レイヤー_1
  6
CONTINUOUS
 62
       3
100
AcDbLine
 10
-18.14995573
 20
12.25102594
 30
0.0
 11
-18.07141116
 21
12.25102594
 31
0.0
  0
LINE
  5
618
100
AcDbEntity
  8
レイヤー_1
  6
CONTINUOUS
 62
       3
100
AcDbLine
 10
-18.07141116
 20
12.25102594
 30
0.0
 11
-17.98251189
 21
12.25102594
 31
0.0
  0
LINE
  5
619
100
AcDbEntity
  8
レイヤー_1
  6
CONTINUOUS
 62
       3
100
AcDbLine
 10
-17.98251189
 20
12.25102594
 30
0.0
 11
-17.88676872
 21
12.25102594
 31
0.0
  0
LINE
  5
61A
100
AcDbEntity
  8
レイヤー_1
  6
CONTINUOUS
 62
       3
100
AcDbLine
 10
-17.88676872
 20
12.25102594
 30
0.0
 11
-17.7876925
 21
12.25102594
 31
0.0
  0
LINE
  5
61B
100
AcDbEntity
  8
レイヤー_1
  6
CONTINUOUS
 62
       3
100
AcDbLine
 10
-17.7876925
 20
12.25102594
 30
0.0
 11
-17.68879403
 21
12.25102594
 31
0.0
  0
LINE
  5
61C
100
AcDbEntity
  8
レイヤー_1
  6
CONTINUOUS
 62
       3
100
AcDbLine
 10
-17.68879403
 20
12.25102594
 30
0.0
 11
-17.59358416
 21
12.25102594
 31
0.0
  0
LINE
  5
61D
100
AcDbEntity
  8
レイヤー_1
  6
CONTINUOUS
 62
       3
100
AcDbLine
 10
-17.59358416
 20
12.25102594
 30
0.0
 11
-17.5055737
 21
12.25102594
 31
0.0
  0
LINE
  5
61E
100
AcDbEntity
  8
レイヤー_1
  6
CONTINUOUS
 62
       3
100
AcDbLine
 10
-17.5055737
 20
12.25102594
 30
0.0
 11
-17.42827348
 21
12.25102594
 31
0.0
  0
LINE
  5
61F
100
AcDbEntity
  8
レイヤー_1
  6
CONTINUOUS
 62
       3
100
AcDbLine
 10
-17.42827348
 20
12.25102594
 30
0.0
 11
-17.36519432
 21
12.25102594
 31
0.0
  0
LINE
  5
620
100
AcDbEntity
  8
レイヤー_1
  6
CONTINUOUS
 62
       3
100
AcDbLine
 10
-17.36519432
 20
12.25102594
 30
0.0
 11
-17.31984705
 21
12.25102594
 31
0.0
  0
LINE
  5
621
100
AcDbEntity
  8
レイヤー_1
  6
CONTINUOUS
 62
       3
100
AcDbLine
 10
-17.31984705
 20
12.25102594
 30
0.0
 11
-17.2957425
 21
12.25102594
 31
0.0
  0
LINE
  5
622
100
AcDbEntity
  8
レイヤー_1
  6
CONTINUOUS
 62
       3
100
AcDbLine
 10
-17.2957425
 20
12.25102594
 30
0.0
 11
-17.29198226
 21
12.24816036
 31
0.0
  0
LINE
  5
623
100
AcDbEntity
  8
レイヤー_1
  6
CONTINUOUS
 62
       3
100
AcDbLine
 10
-17.29198226
 20
12.24816036
 30
0.0
 11
-17.28648126
 21
12.22759038
 31
0.0
  0
LINE
  5
624
100
AcDbEntity
  8
レイヤー_1
  6
CONTINUOUS
 62
       3
100
AcDbLine
 10
-17.28648126
 20
12.22759038
 30
0.0
 11
-17.27633075
 21
12.18963449
 31
0.0
  0
LINE
  5
625
100
AcDbEntity
  8
レイヤー_1
  6
CONTINUOUS
 62
       3
100
AcDbLine
 10
-17.27633075
 20
12.18963449
 30
0.0
 11
-17.26230404
 21
12.13718423
 31
0.0
  0
LINE
  5
626
100
AcDbEntity
  8
レイヤー_1
  6
CONTINUOUS
 62
       3
100
AcDbLine
 10
-17.26230404
 20
12.13718423
 30
0.0
 11
-17.2451744
 21
12.07313117
 31
0.0
  0
LINE
  5
627
100
AcDbEntity
  8
レイヤー_1
  6
CONTINUOUS
 62
       3
100
AcDbLine
 10
-17.2451744
 20
12.07313117
 30
0.0
 11
-17.22571512
 21
12.00036684
 31
0.0
  0
LINE
  5
628
100
AcDbEntity
  8
レイヤー_1
  6
CONTINUOUS
 62
       3
100
AcDbLine
 10
-17.22571512
 20
12.00036684
 30
0.0
 11
-17.20469948
 21
11.92178281
 31
0.0
  0
LINE
  5
629
100
AcDbEntity
  8
レイヤー_1
  6
CONTINUOUS
 62
       3
100
AcDbLine
 10
-17.20469948
 20
11.92178281
 30
0.0
 11
-17.18290076
 21
11.84027062
 31
0.0
  0
LINE
  5
62A
100
AcDbEntity
  8
レイヤー_1
  6
CONTINUOUS
 62
       3
100
AcDbLine
 10
-17.18290076
 20
11.84027062
 30
0.0
 11
-17.16109226
 21
11.75872183
 31
0.0
  0
LINE
  5
62B
100
AcDbEntity
  8
レイヤー_1
  6
CONTINUOUS
 62
       3
100
AcDbLine
 10
-17.16109226
 20
11.75872183
 30
0.0
 11
-17.14004725
 21
11.68002799
 31
0.0
  0
LINE
  5
62C
100
AcDbEntity
  8
レイヤー_1
  6
CONTINUOUS
 62
       3
100
AcDbLine
 10
-17.14004725
 20
11.68002799
 30
0.0
 11
-17.12053903
 21
11.60708066
 31
0.0
  0
LINE
  5
62D
100
AcDbEntity
  8
レイヤー_1
  6
CONTINUOUS
 62
       3
100
AcDbLine
 10
-17.12053903
 20
11.60708066
 30
0.0
 11
-17.10334087
 21
11.54277137
 31
0.0
  0
LINE
  5
62E
100
AcDbEntity
  8
レイヤー_1
  6
CONTINUOUS
 62
       3
100
AcDbLine
 10
-17.10334087
 20
11.54277137
 30
0.0
 11
-17.08922606
 21
11.4899917
 31
0.0
  0
LINE
  5
62F
100
AcDbEntity
  8
レイヤー_1
  6
CONTINUOUS
 62
       3
100
AcDbLine
 10
-17.08922606
 20
11.4899917
 30
0.0
 11
-17.07896789
 21
11.45163319
 31
0.0
  0
LINE
  5
630
100
AcDbEntity
  8
レイヤー_1
  6
CONTINUOUS
 62
       3
100
AcDbLine
 10
-17.07896789
 20
11.45163319
 30
0.0
 11
-17.07333963
 21
11.43058739
 31
0.0
  0
LINE
  5
631
100
AcDbEntity
  8
レイヤー_1
  6
CONTINUOUS
 62
       3
100
AcDbLine
 10
-17.07333963
 20
11.43058739
 30
0.0
 11
-17.06669228
 21
11.42876557
 31
0.0
  0
LINE
  5
632
100
AcDbEntity
  8
レイヤー_1
  6
CONTINUOUS
 62
       3
100
AcDbLine
 10
-17.06669228
 20
11.42876557
 30
0.0
 11
-17.01574722
 21
11.44040676
 31
0.0
  0
LINE
  5
633
100
AcDbEntity
  8
レイヤー_1
  6
CONTINUOUS
 62
       3
100
AcDbLine
 10
-17.01574722
 20
11.44040676
 30
0.0
 11
-16.91808365
 21
11.46272404
 31
0.0
  0
LINE
  5
634
100
AcDbEntity
  8
レイヤー_1
  6
CONTINUOUS
 62
       3
100
AcDbLine
 10
-16.91808365
 20
11.46272404
 30
0.0
 11
-16.78075344
 21
11.49410672
 31
0.0
  0
LINE
  5
635
100
AcDbEntity
  8
レイヤー_1
  6
CONTINUOUS
 62
       3
100
AcDbLine
 10
-16.78075344
 20
11.49410672
 30
0.0
 11
-16.61080849
 21
11.53294414
 31
0.0
  0
LINE
  5
636
100
AcDbEntity
  8
レイヤー_1
  6
CONTINUOUS
 62
       3
100
AcDbLine
 10
-16.61080849
 20
11.53294414
 30
0.0
 11
-16.41530069
 21
11.57762562
 31
0.0
  0
LINE
  5
637
100
AcDbEntity
  8
レイヤー_1
  6
CONTINUOUS
 62
       3
100
AcDbLine
 10
-16.41530069
 20
11.57762562
 30
0.0
 11
-16.20128192
 21
11.62654049
 31
0.0
  0
LINE
  5
638
100
AcDbEntity
  8
レイヤー_1
  6
CONTINUOUS
 62
       3
100
AcDbLine
 10
-16.20128192
 20
11.62654049
 30
0.0
 11
-15.97580407
 21
11.67807807
 31
0.0
  0
LINE
  5
639
100
AcDbEntity
  8
レイヤー_1
  6
CONTINUOUS
 62
       3
100
AcDbLine
 10
-15.97580407
 20
11.67807807
 30
0.0
 11
-15.74591904
 21
11.73062768
 31
0.0
  0
LINE
  5
63A
100
AcDbEntity
  8
レイヤー_1
  6
CONTINUOUS
 62
       3
100
AcDbLine
 10
-15.74591904
 20
11.73062768
 30
0.0
 11
-15.5186787
 21
11.78257867
 31
0.0
  0
LINE
  5
63B
100
AcDbEntity
  8
レイヤー_1
  6
CONTINUOUS
 62
       3
100
AcDbLine
 10
-15.5186787
 20
11.78257867
 30
0.0
 11
-15.30113495
 21
11.83232034
 31
0.0
  0
LINE
  5
63C
100
AcDbEntity
  8
レイヤー_1
  6
CONTINUOUS
 62
       3
100
AcDbLine
 10
-15.30113495
 20
11.83232034
 30
0.0
 11
-15.10033967
 21
11.87824204
 31
0.0
  0
LINE
  5
63D
100
AcDbEntity
  8
レイヤー_1
  6
CONTINUOUS
 62
       3
100
AcDbLine
 10
-15.10033967
 20
11.87824204
 30
0.0
 11
-14.92334476
 21
11.91873307
 31
0.0
  0
LINE
  5
63E
100
AcDbEntity
  8
レイヤー_1
  6
CONTINUOUS
 62
       3
100
AcDbLine
 10
-14.92334476
 20
11.91873307
 30
0.0
 11
-14.7772021
 21
11.95218278
 31
0.0
  0
LINE
  5
63F
100
AcDbEntity
  8
レイヤー_1
  6
CONTINUOUS
 62
       3
100
AcDbLine
 10
-14.7772021
 20
11.95218278
 30
0.0
 11
-14.66896358
 21
11.97698049
 31
0.0
  0
LINE
  5
640
100
AcDbEntity
  8
レイヤー_1
  6
CONTINUOUS
 62
       3
100
AcDbLine
 10
-14.66896358
 20
11.97698049
 30
0.0
 11
-14.56217634
 21
12.00361649
 31
0.0
  0
LINE
  5
641
100
AcDbEntity
  8
レイヤー_1
  6
CONTINUOUS
 62
       3
100
AcDbLine
 10
-14.56217634
 20
12.00361649
 30
0.0
 11
-14.41735502
 21
12.0592019
 31
0.0
  0
LINE
  5
642
100
AcDbEntity
  8
レイヤー_1
  6
CONTINUOUS
 62
       3
100
AcDbLine
 10
-14.41735502
 20
12.0592019
 30
0.0
 11
-14.29224363
 21
12.13177741
 31
0.0
  0
LINE
  5
643
100
AcDbEntity
  8
レイヤー_1
  6
CONTINUOUS
 62
       3
100
AcDbLine
 10
-14.29224363
 20
12.13177741
 30
0.0
 11
-14.18540042
 21
12.21816602
 31
0.0
  0
LINE
  5
644
100
AcDbEntity
  8
レイヤー_1
  6
CONTINUOUS
 62
       3
100
AcDbLine
 10
-14.18540042
 20
12.21816602
 30
0.0
 11
-14.09538364
 21
12.31519071
 31
0.0
  0
LINE
  5
645
100
AcDbEntity
  8
レイヤー_1
  6
CONTINUOUS
 62
       3
100
AcDbLine
 10
-14.09538364
 20
12.31519071
 30
0.0
 11
-14.02075155
 21
12.41967451
 31
0.0
  0
LINE
  5
646
100
AcDbEntity
  8
レイヤー_1
  6
CONTINUOUS
 62
       3
100
AcDbLine
 10
-14.02075155
 20
12.41967451
 30
0.0
 11
-13.96006241
 21
12.52844041
 31
0.0
  0
LINE
  5
647
100
AcDbEntity
  8
レイヤー_1
  6
CONTINUOUS
 62
       3
100
AcDbLine
 10
-13.96006241
 20
12.52844041
 30
0.0
 11
-13.91187447
 21
12.6383114
 31
0.0
  0
LINE
  5
648
100
AcDbEntity
  8
レイヤー_1
  6
CONTINUOUS
 62
       3
100
AcDbLine
 10
-13.91187447
 20
12.6383114
 30
0.0
 11
-13.87474599
 21
12.7461105
 31
0.0
  0
LINE
  5
649
100
AcDbEntity
  8
レイヤー_1
  6
CONTINUOUS
 62
       3
100
AcDbLine
 10
-13.87474599
 20
12.7461105
 30
0.0
 11
-13.84723522
 21
12.8486607
 31
0.0
  0
LINE
  5
64A
100
AcDbEntity
  8
レイヤー_1
  6
CONTINUOUS
 62
       3
100
AcDbLine
 10
-13.84723522
 20
12.8486607
 30
0.0
 11
-13.82790042
 21
12.94278501
 31
0.0
  0
LINE
  5
64B
100
AcDbEntity
  8
レイヤー_1
  6
CONTINUOUS
 62
       3
100
AcDbLine
 10
-13.82790042
 20
12.94278501
 30
0.0
 11
-13.81529984
 21
13.02530643
 31
0.0
  0
LINE
  5
64C
100
AcDbEntity
  8
レイヤー_1
  6
CONTINUOUS
 62
       3
100
AcDbLine
 10
-13.81529984
 20
13.02530643
 30
0.0
 11
-13.80799174
 21
13.09304795
 31
0.0
  0
LINE
  5
64D
100
AcDbEntity
  8
レイヤー_1
  6
CONTINUOUS
 62
       3
100
AcDbLine
 10
-13.80799174
 20
13.09304795
 30
0.0
 11
-13.80453438
 21
13.14283258
 31
0.0
  0
LINE
  5
64E
100
AcDbEntity
  8
レイヤー_1
  6
CONTINUOUS
 62
       3
100
AcDbLine
 10
-13.80453438
 20
13.14283258
 30
0.0
 11
-13.80348601
 21
13.17148333
 31
0.0
  0
LINE
  5
64F
100
AcDbEntity
  8
レイヤー_1
  6
CONTINUOUS
 62
       3
100
AcDbLine
 10
-13.80348601
 20
13.17148333
 30
0.0
 11
-13.80341346
 21
13.17939157
 31
0.0
  0
LINE
  5
650
100
AcDbEntity
  8
レイヤー_1
  6
CONTINUOUS
 62
       3
100
AcDbLine
 10
-13.80341346
 20
13.17939157
 30
0.0
 11
-13.80341346
 21
13.21025702
 31
0.0
  0
LINE
  5
651
100
AcDbEntity
  8
レイヤー_1
  6
CONTINUOUS
 62
       3
100
AcDbLine
 10
-13.80341346
 20
13.21025702
 30
0.0
 11
-13.80341346
 21
13.27379647
 31
0.0
  0
LINE
  5
652
100
AcDbEntity
  8
レイヤー_1
  6
CONTINUOUS
 62
       3
100
AcDbLine
 10
-13.80341346
 20
13.27379647
 30
0.0
 11
-13.80341346
 21
13.36474209
 31
0.0
  0
LINE
  5
653
100
AcDbEntity
  8
レイヤー_1
  6
CONTINUOUS
 62
       3
100
AcDbLine
 10
-13.80341346
 20
13.36474209
 30
0.0
 11
-13.80341346
 21
13.47782601
 31
0.0
  0
LINE
  5
654
100
AcDbEntity
  8
レイヤー_1
  6
CONTINUOUS
 62
       3
100
AcDbLine
 10
-13.80341346
 20
13.47782601
 30
0.0
 11
-13.80341346
 21
13.60778039
 31
0.0
  0
LINE
  5
655
100
AcDbEntity
  8
レイヤー_1
  6
CONTINUOUS
 62
       3
100
AcDbLine
 10
-13.80341346
 20
13.60778039
 30
0.0
 11
-13.80341346
 21
13.74933738
 31
0.0
  0
LINE
  5
656
100
AcDbEntity
  8
レイヤー_1
  6
CONTINUOUS
 62
       3
100
AcDbLine
 10
-13.80341346
 20
13.74933738
 30
0.0
 11
-13.80341346
 21
13.89722912
 31
0.0
  0
LINE
  5
657
100
AcDbEntity
  8
レイヤー_1
  6
CONTINUOUS
 62
       3
100
AcDbLine
 10
-13.80341346
 20
13.89722912
 30
0.0
 11
-13.80341346
 21
14.04618777
 31
0.0
  0
LINE
  5
658
100
AcDbEntity
  8
レイヤー_1
  6
CONTINUOUS
 62
       3
100
AcDbLine
 10
-13.80341346
 20
14.04618777
 30
0.0
 11
-13.80341346
 21
14.19094548
 31
0.0
  0
LINE
  5
659
100
AcDbEntity
  8
レイヤー_1
  6
CONTINUOUS
 62
       3
100
AcDbLine
 10
-13.80341346
 20
14.19094548
 30
0.0
 11
-13.80341346
 21
14.32623439
 31
0.0
  0
LINE
  5
65A
100
AcDbEntity
  8
レイヤー_1
  6
CONTINUOUS
 62
       3
100
AcDbLine
 10
-13.80341346
 20
14.32623439
 30
0.0
 11
-13.80341346
 21
14.44678666
 31
0.0
  0
LINE
  5
65B
100
AcDbEntity
  8
レイヤー_1
  6
CONTINUOUS
 62
       3
100
AcDbLine
 10
-13.80341346
 20
14.44678666
 30
0.0
 11
-13.80341346
 21
14.54733443
 31
0.0
  0
LINE
  5
65C
100
AcDbEntity
  8
レイヤー_1
  6
CONTINUOUS
 62
       3
100
AcDbLine
 10
-13.80341346
 20
14.54733443
 30
0.0
 11
-13.80341346
 21
14.62260985
 31
0.0
  0
LINE
  5
65D
100
AcDbEntity
  8
レイヤー_1
  6
CONTINUOUS
 62
       3
100
AcDbLine
 10
-13.80341346
 20
14.62260985
 30
0.0
 11
-13.80341346
 21
14.66734508
 31
0.0
  0
LINE
  5
65E
100
AcDbEntity
  8
レイヤー_1
  6
CONTINUOUS
 62
       3
100
AcDbLine
 10
-13.80341346
 20
14.66734508
 30
0.0
 11
-13.80452138
 21
14.67769053
 31
0.0
  0
LINE
  5
65F
100
AcDbEntity
  8
レイヤー_1
  6
CONTINUOUS
 62
       3
100
AcDbLine
 10
-13.80452138
 20
14.67769053
 30
0.0
 11
-13.82741142
 21
14.67769053
 31
0.0
  0
LINE
  5
660
100
AcDbEntity
  8
レイヤー_1
  6
CONTINUOUS
 62
       3
100
AcDbLine
 10
-13.82741142
 20
14.67769053
 30
0.0
 11
-13.87670032
 21
14.67769053
 31
0.0
  0
LINE
  5
661
100
AcDbEntity
  8
レイヤー_1
  6
CONTINUOUS
 62
       3
100
AcDbLine
 10
-13.87670032
 20
14.67769053
 30
0.0
 11
-13.94817493
 21
14.67769053
 31
0.0
  0
LINE
  5
662
100
AcDbEntity
  8
レイヤー_1
  6
CONTINUOUS
 62
       3
100
AcDbLine
 10
-13.94817493
 20
14.67769053
 30
0.0
 11
-14.0376221
 21
14.67769053
 31
0.0
  0
LINE
  5
663
100
AcDbEntity
  8
レイヤー_1
  6
CONTINUOUS
 62
       3
100
AcDbLine
 10
-14.0376221
 20
14.67769053
 30
0.0
 11
-14.14082867
 21
14.67769053
 31
0.0
  0
LINE
  5
664
100
AcDbEntity
  8
レイヤー_1
  6
CONTINUOUS
 62
       3
100
AcDbLine
 10
-14.14082867
 20
14.67769053
 30
0.0
 11
-14.2535815
 21
14.67769053
 31
0.0
  0
LINE
  5
665
100
AcDbEntity
  8
レイヤー_1
  6
CONTINUOUS
 62
       3
100
AcDbLine
 10
-14.2535815
 20
14.67769053
 30
0.0
 11
-14.37166743
 21
14.67769053
 31
0.0
  0
LINE
  5
666
100
AcDbEntity
  8
レイヤー_1
  6
CONTINUOUS
 62
       3
100
AcDbLine
 10
-14.37166743
 20
14.67769053
 30
0.0
 11
-14.49087331
 21
14.67769053
 31
0.0
  0
LINE
  5
667
100
AcDbEntity
  8
レイヤー_1
  6
CONTINUOUS
 62
       3
100
AcDbLine
 10
-14.49087331
 20
14.67769053
 30
0.0
 11
-14.60698599
 21
14.67769053
 31
0.0
  0
LINE
  5
668
100
AcDbEntity
  8
レイヤー_1
  6
CONTINUOUS
 62
       3
100
AcDbLine
 10
-14.60698599
 20
14.67769053
 30
0.0
 11
-14.71579233
 21
14.67769053
 31
0.0
  0
LINE
  5
669
100
AcDbEntity
  8
レイヤー_1
  6
CONTINUOUS
 62
       3
100
AcDbLine
 10
-14.71579233
 20
14.67769053
 30
0.0
 11
-14.81307915
 21
14.67769053
 31
0.0
  0
LINE
  5
66A
100
AcDbEntity
  8
レイヤー_1
  6
CONTINUOUS
 62
       3
100
AcDbLine
 10
-14.81307915
 20
14.67769053
 30
0.0
 11
-14.89463333
 21
14.67769053
 31
0.0
  0
LINE
  5
66B
100
AcDbEntity
  8
レイヤー_1
  6
CONTINUOUS
 62
       3
100
AcDbLine
 10
-14.89463333
 20
14.67769053
 30
0.0
 11
-14.9562417
 21
14.67769053
 31
0.0
  0
LINE
  5
66C
100
AcDbEntity
  8
レイヤー_1
  6
CONTINUOUS
 62
       3
100
AcDbLine
 10
-14.9562417
 20
14.67769053
 30
0.0
 11
-14.99369111
 21
14.67769053
 31
0.0
  0
LINE
  5
66D
100
AcDbEntity
  8
レイヤー_1
  6
CONTINUOUS
 62
       3
100
AcDbLine
 10
-14.99369111
 20
14.67769053
 30
0.0
 11
-15.00342505
 21
14.67697507
 31
0.0
  0
LINE
  5
66E
100
AcDbEntity
  8
レイヤー_1
  6
CONTINUOUS
 62
       3
100
AcDbLine
 10
-15.00342505
 20
14.67697507
 30
0.0
 11
-15.00342505
 21
14.65359422
 31
0.0
  0
LINE
  5
66F
100
AcDbEntity
  8
レイヤー_1
  6
CONTINUOUS
 62
       3
100
AcDbLine
 10
-15.00342505
 20
14.65359422
 30
0.0
 11
-15.00342505
 21
14.60063378
 31
0.0
  0
LINE
  5
670
100
AcDbEntity
  8
レイヤー_1
  6
CONTINUOUS
 62
       3
100
AcDbLine
 10
-15.00342505
 20
14.60063378
 30
0.0
 11
-15.00342505
 21
14.52276734
 31
0.0
  0
LINE
  5
671
100
AcDbEntity
  8
レイヤー_1
  6
CONTINUOUS
 62
       3
100
AcDbLine
 10
-15.00342505
 20
14.52276734
 30
0.0
 11
-15.00342505
 21
14.42466845
 31
0.0
  0
LINE
  5
672
100
AcDbEntity
  8
レイヤー_1
  6
CONTINUOUS
 62
       3
100
AcDbLine
 10
-15.00342505
 20
14.42466845
 30
0.0
 11
-15.00342505
 21
14.31101071
 31
0.0
  0
LINE
  5
673
100
AcDbEntity
  8
レイヤー_1
  6
CONTINUOUS
 62
       3
100
AcDbLine
 10
-15.00342505
 20
14.31101071
 30
0.0
 11
-15.00342505
 21
14.18646768
 31
0.0
  0
LINE
  5
674
100
AcDbEntity
  8
レイヤー_1
  6
CONTINUOUS
 62
       3
100
AcDbLine
 10
-15.00342505
 20
14.18646768
 30
0.0
 11
-15.00342505
 21
14.05571293
 31
0.0
  0
LINE
  5
675
100
AcDbEntity
  8
レイヤー_1
  6
CONTINUOUS
 62
       3
100
AcDbLine
 10
-15.00342505
 20
14.05571293
 30
0.0
 11
-15.00342505
 21
13.92342005
 31
0.0
  0
LINE
  5
676
100
AcDbEntity
  8
レイヤー_1
  6
CONTINUOUS
 62
       3
100
AcDbLine
 10
-15.00342505
 20
13.92342005
 30
0.0
 11
-15.00342505
 21
13.7942626
 31
0.0
  0
LINE
  5
677
100
AcDbEntity
  8
レイヤー_1
  6
CONTINUOUS
 62
       3
100
AcDbLine
 10
-15.00342505
 20
13.7942626
 30
0.0
 11
-15.00342505
 21
13.67291416
 31
0.0
  0
LINE
  5
678
100
AcDbEntity
  8
レイヤー_1
  6
CONTINUOUS
 62
       3
100
AcDbLine
 10
-15.00342505
 20
13.67291416
 30
0.0
 11
-15.00342505
 21
13.56404831
 31
0.0
  0
LINE
  5
679
100
AcDbEntity
  8
レイヤー_1
  6
CONTINUOUS
 62
       3
100
AcDbLine
 10
-15.00342505
 20
13.56404831
 30
0.0
 11
-15.00342505
 21
13.47233862
 31
0.0
  0
LINE
  5
67A
100
AcDbEntity
  8
レイヤー_1
  6
CONTINUOUS
 62
       3
100
AcDbLine
 10
-15.00342505
 20
13.47233862
 30
0.0
 11
-15.00342505
 21
13.40245866
 31
0.0
  0
LINE
  5
67B
100
AcDbEntity
  8
レイヤー_1
  6
CONTINUOUS
 62
       3
100
AcDbLine
 10
-15.00342505
 20
13.40245866
 30
0.0
 11
-15.00342505
 21
13.35908201
 31
0.0
  0
LINE
  5
67C
100
AcDbEntity
  8
レイヤー_1
  6
CONTINUOUS
 62
       3
100
AcDbLine
 10
-15.00342505
 20
13.35908201
 30
0.0
 11
-15.0037723
 21
13.34653891
 31
0.0
  0
LINE
  5
67D
100
AcDbEntity
  8
レイヤー_1
  6
CONTINUOUS
 62
       3
100
AcDbLine
 10
-15.0037723
 20
13.34653891
 30
0.0
 11
-15.02563582
 21
13.34653891
 31
0.0
  0
LINE
  5
67E
100
AcDbEntity
  8
レイヤー_1
  6
CONTINUOUS
 62
       3
100
AcDbLine
 10
-15.02563582
 20
13.34653891
 30
0.0
 11
-15.0780912
 21
13.34653891
 31
0.0
  0
LINE
  5
67F
100
AcDbEntity
  8
レイヤー_1
  6
CONTINUOUS
 62
       3
100
AcDbLine
 10
-15.0780912
 20
13.34653891
 30
0.0
 11
-15.15635277
 21
13.34653891
 31
0.0
  0
LINE
  5
680
100
AcDbEntity
  8
レイヤー_1
  6
CONTINUOUS
 62
       3
100
AcDbLine
 10
-15.15635277
 20
13.34653891
 30
0.0
 11
-15.25563488
 21
13.34653891
 31
0.0
  0
LINE
  5
681
100
AcDbEntity
  8
レイヤー_1
  6
CONTINUOUS
 62
       3
100
AcDbLine
 10
-15.25563488
 20
13.34653891
 30
0.0
 11
-15.37115188
 21
13.34653891
 31
0.0
  0
LINE
  5
682
100
AcDbEntity
  8
レイヤー_1
  6
CONTINUOUS
 62
       3
100
AcDbLine
 10
-15.37115188
 20
13.34653891
 30
0.0
 11
-15.4981181
 21
13.34653891
 31
0.0
  0
LINE
  5
683
100
AcDbEntity
  8
レイヤー_1
  6
CONTINUOUS
 62
       3
100
AcDbLine
 10
-15.4981181
 20
13.34653891
 30
0.0
 11
-15.6317479
 21
13.34653891
 31
0.0
  0
LINE
  5
684
100
AcDbEntity
  8
レイヤー_1
  6
CONTINUOUS
 62
       3
100
AcDbLine
 10
-15.6317479
 20
13.34653891
 30
0.0
 11
-15.76725561
 21
13.34653891
 31
0.0
  0
LINE
  5
685
100
AcDbEntity
  8
レイヤー_1
  6
CONTINUOUS
 62
       3
100
AcDbLine
 10
-15.76725561
 20
13.34653891
 30
0.0
 11
-15.89985558
 21
13.34653891
 31
0.0
  0
LINE
  5
686
100
AcDbEntity
  8
レイヤー_1
  6
CONTINUOUS
 62
       3
100
AcDbLine
 10
-15.89985558
 20
13.34653891
 30
0.0
 11
-16.02476216
 21
13.34653891
 31
0.0
  0
LINE
  5
687
100
AcDbEntity
  8
レイヤー_1
  6
CONTINUOUS
 62
       3
100
AcDbLine
 10
-16.02476216
 20
13.34653891
 30
0.0
 11
-16.13718968
 21
13.34653891
 31
0.0
  0
LINE
  5
688
100
AcDbEntity
  8
レイヤー_1
  6
CONTINUOUS
 62
       3
100
AcDbLine
 10
-16.13718968
 20
13.34653891
 30
0.0
 11
-16.23235249
 21
13.34653891
 31
0.0
  0
LINE
  5
689
100
AcDbEntity
  8
レイヤー_1
  6
CONTINUOUS
 62
       3
100
AcDbLine
 10
-16.23235249
 20
13.34653891
 30
0.0
 11
-16.30546494
 21
13.34653891
 31
0.0
  0
LINE
  5
68A
100
AcDbEntity
  8
レイヤー_1
  6
CONTINUOUS
 62
       3
100
AcDbLine
 10
-16.30546494
 20
13.34653891
 30
0.0
 11
-16.35174137
 21
13.34653891
 31
0.0
  0
LINE
  5
68B
100
AcDbEntity
  8
レイヤー_1
  6
CONTINUOUS
 62
       3
100
AcDbLine
 10
-16.35174137
 20
13.34653891
 30
0.0
 11
-16.36650042
 21
13.34664009
 31
0.0
  0
LINE
  5
68C
100
AcDbEntity
  8
レイヤー_1
  6
CONTINUOUS
 62
       3
100
AcDbLine
 10
-16.36650042
 20
13.34664009
 30
0.0
 11
-16.36650042
 21
13.36594346
 31
0.0
  0
LINE
  5
68D
100
AcDbEntity
  8
レイヤー_1
  6
CONTINUOUS
 62
       3
100
AcDbLine
 10
-16.36650042
 20
13.36594346
 30
0.0
 11
-16.36650042
 21
13.41541799
 31
0.0
  0
LINE
  5
68E
100
AcDbEntity
  8
レイヤー_1
  6
CONTINUOUS
 62
       3
100
AcDbLine
 10
-16.36650042
 20
13.41541799
 30
0.0
 11
-16.36650042
 21
13.49039014
 31
0.0
  0
LINE
  5
68F
100
AcDbEntity
  8
レイヤー_1
  6
CONTINUOUS
 62
       3
100
AcDbLine
 10
-16.36650042
 20
13.49039014
 30
0.0
 11
-16.36650042
 21
13.5861863
 31
0.0
  0
LINE
  5
690
100
AcDbEntity
  8
レイヤー_1
  6
CONTINUOUS
 62
       3
100
AcDbLine
 10
-16.36650042
 20
13.5861863
 30
0.0
 11
-16.36650042
 21
13.69813293
 31
0.0
  0
LINE
  5
691
100
AcDbEntity
  8
レイヤー_1
  6
CONTINUOUS
 62
       3
100
AcDbLine
 10
-16.36650042
 20
13.69813293
 30
0.0
 11
-16.36650042
 21
13.82155643
 31
0.0
  0
LINE
  5
692
100
AcDbEntity
  8
レイヤー_1
  6
CONTINUOUS
 62
       3
100
AcDbLine
 10
-16.36650042
 20
13.82155643
 30
0.0
 11
-16.36650042
 21
13.95178323
 31
0.0
  0
LINE
  5
693
100
AcDbEntity
  8
レイヤー_1
  6
CONTINUOUS
 62
       3
100
AcDbLine
 10
-16.36650042
 20
13.95178323
 30
0.0
 11
-16.36650042
 21
14.08413977
 31
0.0
  0
LINE
  5
694
100
AcDbEntity
  8
レイヤー_1
  6
CONTINUOUS
 62
       3
100
AcDbLine
 10
-16.36650042
 20
14.08413977
 30
0.0
 11
-16.36650042
 21
14.21395246
 31
0.0
  0
LINE
  5
695
100
AcDbEntity
  8
レイヤー_1
  6
CONTINUOUS
 62
       3
100
AcDbLine
 10
-16.36650042
 20
14.21395246
 30
0.0
 11
-16.36650042
 21
14.33654773
 31
0.0
  0
LINE
  5
696
100
AcDbEntity
  8
レイヤー_1
  6
CONTINUOUS
 62
       3
100
AcDbLine
 10
-16.36650042
 20
14.33654773
 30
0.0
 11
-16.36650042
 21
14.44725201
 31
0.0
  0
LINE
  5
697
100
AcDbEntity
  8
レイヤー_1
  6
CONTINUOUS
 62
       3
100
AcDbLine
 10
-16.36650042
 20
14.44725201
 30
0.0
 11
-16.36650042
 21
14.54139172
 31
0.0
  0
LINE
  5
698
100
AcDbEntity
  8
レイヤー_1
  6
CONTINUOUS
 62
       3
100
AcDbLine
 10
-16.36650042
 20
14.54139172
 30
0.0
 11
-16.36650042
 21
14.61429329
 31
0.0
  0
LINE
  5
699
100
AcDbEntity
  8
レイヤー_1
  6
CONTINUOUS
 62
       3
100
AcDbLine
 10
-16.36650042
 20
14.61429329
 30
0.0
 11
-16.36650042
 21
14.66128314
 31
0.0
  0
LINE
  5
69A
100
AcDbEntity
  8
レイヤー_1
  6
CONTINUOUS
 62
       3
100
AcDbLine
 10
-16.36650042
 20
14.66128314
 30
0.0
 11
-16.36651237
 21
14.67768619
 31
0.0
  0
LINE
  5
69B
100
AcDbEntity
  8
レイヤー_1
  6
CONTINUOUS
 62
       3
100
AcDbLine
 10
-16.36651237
 20
14.67768619
 30
0.0
 11
-16.43960408
 21
14.65115037
 31
0.0
  0
LINE
  5
69C
100
AcDbEntity
  8
レイヤー_1
  6
CONTINUOUS
 62
       3
100
AcDbLine
 10
-16.43960408
 20
14.65115037
 30
0.0
 11
-22.01126302
 21
12.6283693
 31
0.0
  0
LINE
  5
69D
100
AcDbEntity
  8
レイヤー_1
  6
CONTINUOUS
 62
       3
100
AcDbLine
 10
-22.01126302
 20
12.6283693
 30
0.0
 11
-23.46654154
 21
12.6283693
 31
0.0
  0
LINE
  5
69E
100
AcDbEntity
  8
レイヤー_1
  6
CONTINUOUS
 62
       3
100
AcDbLine
 10
-23.46654154
 20
12.6283693
 30
0.0
 11
-23.5956675
 21
12.6283693
 31
0.0
  0
LINE
  5
69F
100
AcDbEntity
  8
レイヤー_1
  6
CONTINUOUS
 62
       3
100
AcDbLine
 10
-23.5956675
 20
12.6283693
 30
0.0
 11
-23.69716498
 21
12.6283693
 31
0.0
  0
LINE
  5
6A0
100
AcDbEntity
  8
レイヤー_1
  6
CONTINUOUS
 62
       3
100
AcDbLine
 10
-23.69716498
 20
12.6283693
 30
0.0
 11
-23.76477997
 21
12.6283693
 31
0.0
  0
LINE
  5
6A1
100
AcDbEntity
  8
レイヤー_1
  6
CONTINUOUS
 62
       3
100
AcDbLine
 10
-23.76477997
 20
12.6283693
 30
0.0
 11
-23.79225846
 21
12.6283693
 31
0.0
  0
LINE
  5
6A2
100
AcDbEntity
  8
レイヤー_1
  6
CONTINUOUS
 62
       3
100
AcDbLine
 10
-23.79225846
 20
12.6283693
 30
0.0
 11
-23.77760271
 21
12.59729965
 31
0.0
  0
LINE
  5
6A3
100
AcDbEntity
  8
レイヤー_1
  6
CONTINUOUS
 62
       3
100
AcDbLine
 10
-23.77760271
 20
12.59729965
 30
0.0
 11
-23.72790437
 21
12.49408294
 31
0.0
  0
LINE
  5
6A4
100
AcDbEntity
  8
レイヤー_1
  6
CONTINUOUS
 62
       3
100
AcDbLine
 10
-23.72790437
 20
12.49408294
 30
0.0
 11
-23.64847511
 21
12.32911917
 31
0.0
  0
LINE
  5
6A5
100
AcDbEntity
  8
レイヤー_1
  6
CONTINUOUS
 62
       3
100
AcDbLine
 10
-23.64847511
 20
12.32911917
 30
0.0
 11
-23.54458118
 21
12.11334558
 31
0.0
  0
LINE
  5
6A6
100
AcDbEntity
  8
レイヤー_1
  6
CONTINUOUS
 62
       3
100
AcDbLine
 10
-23.54458118
 20
12.11334558
 30
0.0
 11
-23.42148881
 21
11.85769946
 31
0.0
  0
LINE
  5
6A7
100
AcDbEntity
  8
レイヤー_1
  6
CONTINUOUS
 62
       3
100
AcDbLine
 10
-23.42148881
 20
11.85769946
 30
0.0
 11
-23.28446425
 21
11.57311804
 31
0.0
  0
LINE
  5
6A8
100
AcDbEntity
  8
レイヤー_1
  6
CONTINUOUS
 62
       3
100
AcDbLine
 10
-23.28446425
 20
11.57311804
 30
0.0
 11
-23.13877372
 21
11.27053861
 31
0.0
  0
LINE
  5
6A9
100
AcDbEntity
  8
レイヤー_1
  6
CONTINUOUS
 62
       3
100
AcDbLine
 10
-23.13877372
 20
11.27053861
 30
0.0
 11
-22.98968347
 21
10.96089841
 31
0.0
  0
LINE
  5
6AA
100
AcDbEntity
  8
レイヤー_1
  6
CONTINUOUS
 62
       3
100
AcDbLine
 10
-22.98968347
 20
10.96089841
 30
0.0
 11
-22.84245974
 21
10.6551347
 31
0.0
  0
LINE
  5
6AB
100
AcDbEntity
  8
レイヤー_1
  6
CONTINUOUS
 62
       3
100
AcDbLine
 10
-22.84245974
 20
10.6551347
 30
0.0
 11
-22.70236875
 21
10.36418476
 31
0.0
  0
LINE
  5
6AC
100
AcDbEntity
  8
レイヤー_1
  6
CONTINUOUS
 62
       3
100
AcDbLine
 10
-22.70236875
 20
10.36418476
 30
0.0
 11
-22.57467676
 21
10.09898583
 31
0.0
  0
LINE
  5
6AD
100
AcDbEntity
  8
レイヤー_1
  6
CONTINUOUS
 62
       3
100
AcDbLine
 10
-22.57467676
 20
10.09898583
 30
0.0
 11
-22.46465
 21
9.87047519
 31
0.0
  0
LINE
  5
6AE
100
AcDbEntity
  8
レイヤー_1
  6
CONTINUOUS
 62
       3
100
AcDbLine
 10
-22.46465
 20
9.87047519
 30
0.0
 11
-22.3775547
 21
9.68959008
 31
0.0
  0
LINE
  5
6AF
100
AcDbEntity
  8
レイヤー_1
  6
CONTINUOUS
 62
       3
100
AcDbLine
 10
-22.3775547
 20
9.68959008
 30
0.0
 11
-22.3186571
 21
9.56726778
 31
0.0
  0
LINE
  5
6B0
100
AcDbEntity
  8
レイヤー_1
  6
CONTINUOUS
 62
       3
100
AcDbLine
 10
-22.3186571
 20
9.56726778
 30
0.0
 11
-22.29322345
 21
9.51444553
 31
0.0
  0
LINE
  5
6B1
100
AcDbEntity
  8
レイヤー_1
  6
CONTINUOUS
 62
       3
100
AcDbLine
 10
-22.29322345
 20
9.51444553
 30
0.0
 11
-22.29260552
 21
9.47218906
 31
0.0
  0
LINE
  5
6B2
100
AcDbEntity
  8
レイヤー_1
  6
CONTINUOUS
 62
       3
100
AcDbLine
 10
-22.29260552
 20
9.47218906
 30
0.0
 11
-22.29260552
 21
9.3213053
 31
0.0
  0
LINE
  5
6B3
100
AcDbEntity
  8
レイヤー_1
  6
CONTINUOUS
 62
       3
100
AcDbLine
 10
-22.29260552
 20
9.3213053
 30
0.0
 11
-22.29260552
 21
9.07520207
 31
0.0
  0
LINE
  5
6B4
100
AcDbEntity
  8
レイヤー_1
  6
CONTINUOUS
 62
       3
100
AcDbLine
 10
-22.29260552
 20
9.07520207
 30
0.0
 11
-22.29260552
 21
8.75055862
 31
0.0
  0
LINE
  5
6B5
100
AcDbEntity
  8
レイヤー_1
  6
CONTINUOUS
 62
       3
100
AcDbLine
 10
-22.29260552
 20
8.75055862
 30
0.0
 11
-22.29260552
 21
8.36405418
 31
0.0
  0
LINE
  5
6B6
100
AcDbEntity
  8
レイヤー_1
  6
CONTINUOUS
 62
       3
100
AcDbLine
 10
-22.29260552
 20
8.36405418
 30
0.0
 11
-22.29260552
 21
7.932368
 31
0.0
  0
LINE
  5
6B7
100
AcDbEntity
  8
レイヤー_1
  6
CONTINUOUS
 62
       3
100
AcDbLine
 10
-22.29260552
 20
7.932368
 30
0.0
 11
-22.29260552
 21
7.47217931
 31
0.0
  0
LINE
  5
6B8
100
AcDbEntity
  8
レイヤー_1
  6
CONTINUOUS
 62
       3
100
AcDbLine
 10
-22.29260552
 20
7.47217931
 30
0.0
 11
-22.29260552
 21
7.00016737
 31
0.0
  0
LINE
  5
6B9
100
AcDbEntity
  8
レイヤー_1
  6
CONTINUOUS
 62
       3
100
AcDbLine
 10
-22.29260552
 20
7.00016737
 30
0.0
 11
-22.29260552
 21
6.5330114
 31
0.0
  0
LINE
  5
6BA
100
AcDbEntity
  8
レイヤー_1
  6
CONTINUOUS
 62
       3
100
AcDbLine
 10
-22.29260552
 20
6.5330114
 30
0.0
 11
-22.29260552
 21
6.08739066
 31
0.0
  0
LINE
  5
6BB
100
AcDbEntity
  8
レイヤー_1
  6
CONTINUOUS
 62
       3
100
AcDbLine
 10
-22.29260552
 20
6.08739066
 30
0.0
 11
-22.29260552
 21
5.67998439
 31
0.0
  0
LINE
  5
6BC
100
AcDbEntity
  8
レイヤー_1
  6
CONTINUOUS
 62
       3
100
AcDbLine
 10
-22.29260552
 20
5.67998439
 30
0.0
 11
-22.29260552
 21
5.32747182
 31
0.0
  0
LINE
  5
6BD
100
AcDbEntity
  8
レイヤー_1
  6
CONTINUOUS
 62
       3
100
AcDbLine
 10
-22.29260552
 20
5.32747182
 30
0.0
 11
-22.29260552
 21
5.04653221
 31
0.0
  0
LINE
  5
6BE
100
AcDbEntity
  8
レイヤー_1
  6
CONTINUOUS
 62
       3
100
AcDbLine
 10
-22.29260552
 20
5.04653221
 30
0.0
 11
-22.29260552
 21
4.85384478
 31
0.0
  0
LINE
  5
6BF
100
AcDbEntity
  8
レイヤー_1
  6
CONTINUOUS
 62
       3
100
AcDbLine
 10
-22.29260552
 20
4.85384478
 30
0.0
 11
-22.29260552
 21
4.76608879
 31
0.0
  0
LINE
  5
6C0
100
AcDbEntity
  8
レイヤー_1
  6
CONTINUOUS
 62
       3
100
AcDbLine
 10
-22.29260552
 20
4.76608879
 30
0.0
 11
-22.29331211
 21
4.75696421
 31
0.0
  0
LINE
  5
6C1
100
AcDbEntity
  8
レイヤー_1
  6
CONTINUOUS
 62
       3
100
AcDbLine
 10
-22.29331211
 20
4.75696421
 30
0.0
 11
-22.29684834
 21
4.73417403
 31
0.0
  0
LINE
  5
6C2
100
AcDbEntity
  8
レイヤー_1
  6
CONTINUOUS
 62
       3
100
AcDbLine
 10
-22.29684834
 20
4.73417403
 30
0.0
 11
-22.30414991
 21
4.6961781
 31
0.0
  0
LINE
  5
6C3
100
AcDbEntity
  8
レイヤー_1
  6
CONTINUOUS
 62
       3
100
AcDbLine
 10
-22.30414991
 20
4.6961781
 30
0.0
 11
-22.3160901
 21
4.64561076
 31
0.0
  0
LINE
  5
6C4
100
AcDbEntity
  8
レイヤー_1
  6
CONTINUOUS
 62
       3
100
AcDbLine
 10
-22.3160901
 20
4.64561076
 30
0.0
 11
-22.33354217
 21
4.58510633
 31
0.0
  0
LINE
  5
6C5
100
AcDbEntity
  8
レイヤー_1
  6
CONTINUOUS
 62
       3
100
AcDbLine
 10
-22.33354217
 20
4.58510633
 30
0.0
 11
-22.35737941
 21
4.51729914
 31
0.0
  0
LINE
  5
6C6
100
AcDbEntity
  8
レイヤー_1
  6
CONTINUOUS
 62
       3
100
AcDbLine
 10
-22.35737941
 20
4.51729914
 30
0.0
 11
-22.38847507
 21
4.44482352
 31
0.0
  0
LINE
  5
6C7
100
AcDbEntity
  8
レイヤー_1
  6
CONTINUOUS
 62
       3
100
AcDbLine
 10
-22.38847507
 20
4.44482352
 30
0.0
 11
-22.42770243
 21
4.3703138
 31
0.0
  0
LINE
  5
6C8
100
AcDbEntity
  8
レイヤー_1
  6
CONTINUOUS
 62
       3
100
AcDbLine
 10
-22.42770243
 20
4.3703138
 30
0.0
 11
-22.47593477
 21
4.29640431
 31
0.0
  0
LINE
  5
6C9
100
AcDbEntity
  8
レイヤー_1
  6
CONTINUOUS
 62
       3
100
AcDbLine
 10
-22.47593477
 20
4.29640431
 30
0.0
 11
-22.53404535
 21
4.22572937
 31
0.0
  0
LINE
  5
6CA
100
AcDbEntity
  8
レイヤー_1
  6
CONTINUOUS
 62
       3
100
AcDbLine
 10
-22.53404535
 20
4.22572937
 30
0.0
 11
-22.60290745
 21
4.16092331
 31
0.0
  0
LINE
  5
6CB
100
AcDbEntity
  8
レイヤー_1
  6
CONTINUOUS
 62
       3
100
AcDbLine
 10
-22.60290745
 20
4.16092331
 30
0.0
 11
-22.68339434
 21
4.10462047
 31
0.0
  0
LINE
  5
6CC
100
AcDbEntity
  8
レイヤー_1
  6
CONTINUOUS
 62
       3
100
AcDbLine
 10
-22.68339434
 20
4.10462047
 30
0.0
 11
-22.77637928
 21
4.05945517
 31
0.0
  0
LINE
  5
6CD
100
AcDbEntity
  8
レイヤー_1
  6
CONTINUOUS
 62
       3
100
AcDbLine
 10
-22.77637928
 20
4.05945517
 30
0.0
 11
-22.88273555
 21
4.02806173
 31
0.0
  0
LINE
  5
6CE
100
AcDbEntity
  8
レイヤー_1
  6
CONTINUOUS
 62
       3
100
AcDbLine
 10
-22.88273555
 20
4.02806173
 30
0.0
 11
-23.00333643
 21
4.0130745
 31
0.0
  0
LINE
  5
6CF
100
AcDbEntity
  8
レイヤー_1
  6
CONTINUOUS
 62
       3
100
AcDbLine
 10
-23.00333643
 20
4.0130745
 30
0.0
 11
-23.1315947
 21
4.01683147
 31
0.0
  0
LINE
  5
6D0
100
AcDbEntity
  8
レイヤー_1
  6
CONTINUOUS
 62
       3
100
AcDbLine
 10
-23.1315947
 20
4.01683147
 30
0.0
 11
-23.24648186
 21
4.03857063
 31
0.0
  0
LINE
  5
6D1
100
AcDbEntity
  8
レイヤー_1
  6
CONTINUOUS
 62
       3
100
AcDbLine
 10
-23.24648186
 20
4.03857063
 30
0.0
 11
-23.34745297
 21
4.07568225
 31
0.0
  0
LINE
  5
6D2
100
AcDbEntity
  8
レイヤー_1
  6
CONTINUOUS
 62
       3
100
AcDbLine
 10
-23.34745297
 20
4.07568225
 30
0.0
 11
-23.43538373
 21
4.12553203
 31
0.0
  0
LINE
  5
6D3
100
AcDbEntity
  8
レイヤー_1
  6
CONTINUOUS
 62
       3
100
AcDbLine
 10
-23.43538373
 20
4.12553203
 30
0.0
 11
-23.51114983
 21
4.18548561
 31
0.0
  0
LINE
  5
6D4
100
AcDbEntity
  8
レイヤー_1
  6
CONTINUOUS
 62
       3
100
AcDbLine
 10
-23.51114983
 20
4.18548561
 30
0.0
 11
-23.57562697
 21
4.25290869
 31
0.0
  0
LINE
  5
6D5
100
AcDbEntity
  8
レイヤー_1
  6
CONTINUOUS
 62
       3
100
AcDbLine
 10
-23.57562697
 20
4.25290869
 30
0.0
 11
-23.62969082
 21
4.32516693
 31
0.0
  0
LINE
  5
6D6
100
AcDbEntity
  8
レイヤー_1
  6
CONTINUOUS
 62
       3
100
AcDbLine
 10
-23.62969082
 20
4.32516693
 30
0.0
 11
-23.67421708
 21
4.399626
 31
0.0
  0
LINE
  5
6D7
100
AcDbEntity
  8
レイヤー_1
  6
CONTINUOUS
 62
       3
100
AcDbLine
 10
-23.67421708
 20
4.399626
 30
0.0
 11
-23.71008145
 21
4.47365157
 31
0.0
  0
LINE
  5
6D8
100
AcDbEntity
  8
レイヤー_1
  6
CONTINUOUS
 62
       3
100
AcDbLine
 10
-23.71008145
 20
4.47365157
 30
0.0
 11
-23.7381596
 21
4.54460931
 31
0.0
  0
LINE
  5
6D9
100
AcDbEntity
  8
レイヤー_1
  6
CONTINUOUS
 62
       3
100
AcDbLine
 10
-23.7381596
 20
4.54460931
 30
0.0
 11
-23.75932724
 21
4.60986491
 31
0.0
  0
LINE
  5
6DA
100
AcDbEntity
  8
レイヤー_1
  6
CONTINUOUS
 62
       3
100
AcDbLine
 10
-23.75932724
 20
4.60986491
 30
0.0
 11
-23.77446005
 21
4.66678402
 31
0.0
  0
LINE
  5
6DB
100
AcDbEntity
  8
レイヤー_1
  6
CONTINUOUS
 62
       3
100
AcDbLine
 10
-23.77446005
 20
4.66678402
 30
0.0
 11
-23.78443373
 21
4.71273231
 31
0.0
  0
LINE
  5
6DC
100
AcDbEntity
  8
レイヤー_1
  6
CONTINUOUS
 62
       3
100
AcDbLine
 10
-23.78443373
 20
4.71273231
 30
0.0
 11
-23.79012395
 21
4.74507547
 31
0.0
  0
LINE
  5
6DD
100
AcDbEntity
  8
レイヤー_1
  6
CONTINUOUS
 62
       3
100
AcDbLine
 10
-23.79012395
 20
4.74507547
 30
0.0
 11
-23.79240643
 21
4.76117917
 31
0.0
  0
LINE
  5
6DE
100
AcDbEntity
  8
レイヤー_1
  6
CONTINUOUS
 62
       3
100
AcDbLine
 10
-23.79240643
 20
4.76117917
 30
0.0
 11
-23.79256259
 21
4.80366134
 31
0.0
  0
LINE
  5
6DF
100
AcDbEntity
  8
レイヤー_1
  6
CONTINUOUS
 62
       3
100
AcDbLine
 10
-23.79256259
 20
4.80366134
 30
0.0
 11
-23.79256259
 21
5.02450836
 31
0.0
  0
LINE
  5
6E0
100
AcDbEntity
  8
レイヤー_1
  6
CONTINUOUS
 62
       3
100
AcDbLine
 10
-23.79256259
 20
5.02450836
 30
0.0
 11
-23.79256259
 21
5.41246463
 31
0.0
  0
LINE
  5
6E1
100
AcDbEntity
  8
レイヤー_1
  6
CONTINUOUS
 62
       3
100
AcDbLine
 10
-23.79256259
 20
5.41246463
 30
0.0
 11
-23.79256259
 21
5.94050391
 31
0.0
  0
LINE
  5
6E2
100
AcDbEntity
  8
レイヤー_1
  6
CONTINUOUS
 62
       3
100
AcDbLine
 10
-23.79256259
 20
5.94050391
 30
0.0
 11
-23.79256259
 21
6.58159993
 31
0.0
  0
LINE
  5
6E3
100
AcDbEntity
  8
レイヤー_1
  6
CONTINUOUS
 62
       3
100
AcDbLine
 10
-23.79256259
 20
6.58159993
 30
0.0
 11
-23.79256259
 21
7.30872644
 31
0.0
  0
LINE
  5
6E4
100
AcDbEntity
  8
レイヤー_1
  6
CONTINUOUS
 62
       3
100
AcDbLine
 10
-23.79256259
 20
7.30872644
 30
0.0
 11
-23.79256259
 21
8.09485718
 31
0.0
  0
LINE
  5
6E5
100
AcDbEntity
  8
レイヤー_1
  6
CONTINUOUS
 62
       3
100
AcDbLine
 10
-23.79256259
 20
8.09485718
 30
0.0
 11
-23.79256259
 21
8.91296589
 31
0.0
  0
LINE
  5
6E6
100
AcDbEntity
  8
レイヤー_1
  6
CONTINUOUS
 62
       3
100
AcDbLine
 10
-23.79256259
 20
8.91296589
 30
0.0
 11
-23.79256259
 21
9.73602631
 31
0.0
  0
LINE
  5
6E7
100
AcDbEntity
  8
レイヤー_1
  6
CONTINUOUS
 62
       3
100
AcDbLine
 10
-23.79256259
 20
9.73602631
 30
0.0
 11
-23.79256259
 21
10.53701218
 31
0.0
  0
LINE
  5
6E8
100
AcDbEntity
  8
レイヤー_1
  6
CONTINUOUS
 62
       3
100
AcDbLine
 10
-23.79256259
 20
10.53701218
 30
0.0
 11
-23.79256259
 21
11.28889725
 31
0.0
  0
LINE
  5
6E9
100
AcDbEntity
  8
レイヤー_1
  6
CONTINUOUS
 62
       3
100
AcDbLine
 10
-23.79256259
 20
11.28889725
 30
0.0
 11
-23.79256259
 21
11.96465526
 31
0.0
  0
LINE
  5
6EA
100
AcDbEntity
  8
レイヤー_1
  6
CONTINUOUS
 62
       3
100
AcDbLine
 10
-23.79256259
 20
11.96465526
 30
0.0
 11
-23.79256259
 21
12.53725995
 31
0.0
  0
LINE
  5
6EB
100
AcDbEntity
  8
レイヤー_1
  6
CONTINUOUS
 62
       3
100
AcDbLine
 10
-23.79256259
 20
12.53725995
 30
0.0
 11
-23.79256259
 21
12.97968506
 31
0.0
  0
LINE
  5
6EC
100
AcDbEntity
  8
レイヤー_1
  6
CONTINUOUS
 62
       3
100
AcDbLine
 10
-23.79256259
 20
12.97968506
 30
0.0
 11
-23.79256259
 21
13.26490433
 31
0.0
  0
LINE
  5
6ED
100
AcDbEntity
  8
レイヤー_1
  6
CONTINUOUS
 62
       3
100
AcDbLine
 10
-23.79256259
 20
13.26490433
 30
0.0
 11
-23.78824741
 21
13.46266112
 31
0.0
  0
LINE
  5
6EE
100
AcDbEntity
  8
レイヤー_1
  6
CONTINUOUS
 62
       3
100
AcDbLine
 10
-23.78824741
 20
13.46266112
 30
0.0
 11
-23.76128468
 21
13.67919652
 31
0.0
  0
LINE
  5
6EF
100
AcDbEntity
  8
レイヤー_1
  6
CONTINUOUS
 62
       3
100
AcDbLine
 10
-23.76128468
 20
13.67919652
 30
0.0
 11
-23.71272209
 21
13.88051207
 31
0.0
  0
LINE
  5
6F0
100
AcDbEntity
  8
レイヤー_1
  6
CONTINUOUS
 62
       3
100
AcDbLine
 10
-23.71272209
 20
13.88051207
 30
0.0
 11
-23.64618255
 21
14.06656867
 31
0.0
  0
LINE
  5
6F1
100
AcDbEntity
  8
レイヤー_1
  6
CONTINUOUS
 62
       3
100
AcDbLine
 10
-23.64618255
 20
14.06656867
 30
0.0
 11
-23.56528895
 21
14.23732719
 31
0.0
  0
LINE
  5
6F2
100
AcDbEntity
  8
レイヤー_1
  6
CONTINUOUS
 62
       3
100
AcDbLine
 10
-23.56528895
 20
14.23732719
 30
0.0
 11
-23.47366421
 21
14.39274855
 31
0.0
  0
LINE
  5
6F3
100
AcDbEntity
  8
レイヤー_1
  6
CONTINUOUS
 62
       3
100
AcDbLine
 10
-23.47366421
 20
14.39274855
 30
0.0
 11
-23.37493123
 21
14.53279362
 31
0.0
  0
LINE
  5
6F4
100
AcDbEntity
  8
レイヤー_1
  6
CONTINUOUS
 62
       3
100
AcDbLine
 10
-23.37493123
 20
14.53279362
 30
0.0
 11
-23.27271293
 21
14.65742331
 31
0.0
  0
LINE
  5
6F5
100
AcDbEntity
  8
レイヤー_1
  6
CONTINUOUS
 62
       3
100
AcDbLine
 10
-23.27271293
 20
14.65742331
 30
0.0
 11
-23.17063221
 21
14.7665985
 31
0.0
  0
LINE
  5
6F6
100
AcDbEntity
  8
レイヤー_1
  6
CONTINUOUS
 62
       3
100
AcDbLine
 10
-23.17063221
 20
14.7665985
 30
0.0
 11
-23.07231197
 21
14.86028009
 31
0.0
  0
LINE
  5
6F7
100
AcDbEntity
  8
レイヤー_1
  6
CONTINUOUS
 62
       3
100
AcDbLine
 10
-23.07231197
 20
14.86028009
 30
0.0
 11
-22.98137512
 21
14.93842896
 31
0.0
  0
LINE
  5
6F8
100
AcDbEntity
  8
レイヤー_1
  6
CONTINUOUS
 62
       3
100
AcDbLine
 10
-22.98137512
 20
14.93842896
 30
0.0
 11
-22.90144458
 21
15.00100602
 31
0.0
  0
LINE
  5
6F9
100
AcDbEntity
  8
レイヤー_1
  6
CONTINUOUS
 62
       3
100
AcDbLine
 10
-22.90144458
 20
15.00100602
 30
0.0
 11
-22.83614324
 21
15.04797215
 31
0.0
  0
LINE
  5
6FA
100
AcDbEntity
  8
レイヤー_1
  6
CONTINUOUS
 62
       3
100
AcDbLine
 10
-22.83614324
 20
15.04797215
 30
0.0
 11
-22.78909401
 21
15.07928824
 31
0.0
  0
LINE
  5
6FB
100
AcDbEntity
  8
レイヤー_1
  6
CONTINUOUS
 62
       3
100
AcDbLine
 10
-22.78909401
 20
15.07928824
 30
0.0
 11
-22.76391981
 21
15.09491519
 31
0.0
  0
LINE
  5
6FC
100
AcDbEntity
  8
レイヤー_1
  6
CONTINUOUS
 62
       3
100
AcDbLine
 10
-22.76391981
 20
15.09491519
 30
0.0
 11
-22.75182729
 21
15.10048629
 31
0.0
  0
LINE
  5
6FD
100
AcDbEntity
  8
レイヤー_1
  6
CONTINUOUS
 62
       3
100
AcDbLine
 10
-22.75182729
 20
15.10048629
 30
0.0
 11
-22.68596863
 21
15.12770062
 31
0.0
  0
LINE
  5
6FE
100
AcDbEntity
  8
レイヤー_1
  6
CONTINUOUS
 62
       3
100
AcDbLine
 10
-22.68596863
 20
15.12770062
 30
0.0
 11
-22.56367383
 21
15.17823566
 31
0.0
  0
LINE
  5
6FF
100
AcDbEntity
  8
レイヤー_1
  6
CONTINUOUS
 62
       3
100
AcDbLine
 10
-22.56367383
 20
15.17823566
 30
0.0
 11
-22.3943094
 21
15.24822096
 31
0.0
  0
LINE
  5
700
100
AcDbEntity
  8
レイヤー_1
  6
CONTINUOUS
 62
       3
100
AcDbLine
 10
-22.3943094
 20
15.24822096
 30
0.0
 11
-22.18724184
 21
15.33378607
 31
0.0
  0
LINE
  5
701
100
AcDbEntity
  8
レイヤー_1
  6
CONTINUOUS
 62
       3
100
AcDbLine
 10
-22.18724184
 20
15.33378607
 30
0.0
 11
-21.95183765
 21
15.43106052
 31
0.0
  0
LINE
  5
702
100
AcDbEntity
  8
レイヤー_1
  6
CONTINUOUS
 62
       3
100
AcDbLine
 10
-21.95183765
 20
15.43106052
 30
0.0
 11
-21.69746334
 21
15.53617388
 31
0.0
  0
LINE
  5
703
100
AcDbEntity
  8
レイヤー_1
  6
CONTINUOUS
 62
       3
100
AcDbLine
 10
-21.69746334
 20
15.53617388
 30
0.0
 11
-21.43348539
 21
15.64525568
 31
0.0
  0
LINE
  5
704
100
AcDbEntity
  8
レイヤー_1
  6
CONTINUOUS
 62
       3
100
AcDbLine
 10
-21.43348539
 20
15.64525568
 30
0.0
 11
-21.16927032
 21
15.75443546
 31
0.0
  0
LINE
  5
705
100
AcDbEntity
  8
レイヤー_1
  6
CONTINUOUS
 62
       3
100
AcDbLine
 10
-21.16927032
 20
15.75443546
 30
0.0
 11
-20.91418462
 21
15.85984277
 31
0.0
  0
LINE
  5
706
100
AcDbEntity
  8
レイヤー_1
  6
CONTINUOUS
 62
       3
100
AcDbLine
 10
-20.91418462
 20
15.85984277
 30
0.0
 11
-20.6775948
 21
15.95760716
 31
0.0
  0
LINE
  5
707
100
AcDbEntity
  8
レイヤー_1
  6
CONTINUOUS
 62
       3
100
AcDbLine
 10
-20.6775948
 20
15.95760716
 30
0.0
 11
-20.46886735
 21
16.04385817
 31
0.0
  0
LINE
  5
708
100
AcDbEntity
  8
レイヤー_1
  6
CONTINUOUS
 62
       3
100
AcDbLine
 10
-20.46886735
 20
16.04385817
 30
0.0
 11
-20.29736878
 21
16.11472535
 31
0.0
  0
LINE
  5
709
100
AcDbEntity
  8
レイヤー_1
  6
CONTINUOUS
 62
       3
100
AcDbLine
 10
-20.29736878
 20
16.11472535
 30
0.0
 11
-20.1724656
 21
16.16633823
 31
0.0
  0
LINE
  5
70A
100
AcDbEntity
  8
レイヤー_1
  6
CONTINUOUS
 62
       3
100
AcDbLine
 10
-20.1724656
 20
16.16633823
 30
0.0
 11
-20.10352429
 21
16.19482638
 31
0.0
  0
LINE
  5
70B
100
AcDbEntity
  8
レイヤー_1
  6
CONTINUOUS
 62
       3
100
AcDbLine
 10
-20.10352429
 20
16.19482638
 30
0.0
 11
-20.07197573
 21
16.21813458
 31
0.0
  0
LINE
  5
70C
100
AcDbEntity
  8
レイヤー_1
  6
CONTINUOUS
 62
       3
100
AcDbLine
 10
-20.07197573
 20
16.21813458
 30
0.0
 11
-20.02846117
 21
16.25709301
 31
0.0
  0
LINE
  5
70D
100
AcDbEntity
  8
レイヤー_1
  6
CONTINUOUS
 62
       3
100
AcDbLine
 10
-20.02846117
 20
16.25709301
 30
0.0
 11
-19.98973349
 21
16.2918404
 31
0.0
  0
LINE
  5
70E
100
AcDbEntity
  8
レイヤー_1
  6
CONTINUOUS
 62
       3
100
AcDbLine
 10
-19.98973349
 20
16.2918404
 30
0.0
 11
-19.95553265
 21
16.32349877
 31
0.0
  0
LINE
  5
70F
100
AcDbEntity
  8
レイヤー_1
  6
CONTINUOUS
 62
       3
100
AcDbLine
 10
-19.95553265
 20
16.32349877
 30
0.0
 11
-19.92559859
 21
16.35319014
 31
0.0
  0
LINE
  5
710
100
AcDbEntity
  8
レイヤー_1
  6
CONTINUOUS
 62
       3
100
AcDbLine
 10
-19.92559859
 20
16.35319014
 30
0.0
 11
-19.89967128
 21
16.38203655
 31
0.0
  0
LINE
  5
711
100
AcDbEntity
  8
レイヤー_1
  6
CONTINUOUS
 62
       3
100
AcDbLine
 10
-19.89967128
 20
16.38203655
 30
0.0
 11
-19.87749066
 21
16.41116003
 31
0.0
  0
LINE
  5
712
100
AcDbEntity
  8
レイヤー_1
  6
CONTINUOUS
 62
       3
100
AcDbLine
 10
-19.87749066
 20
16.41116003
 30
0.0
 11
-19.85879669
 21
16.4416826
 31
0.0
  0
LINE
  5
713
100
AcDbEntity
  8
レイヤー_1
  6
CONTINUOUS
 62
       3
100
AcDbLine
 10
-19.85879669
 20
16.4416826
 30
0.0
 11
-19.84332933
 21
16.4747263
 31
0.0
  0
LINE
  5
714
100
AcDbEntity
  8
レイヤー_1
  6
CONTINUOUS
 62
       3
100
AcDbLine
 10
-19.84332933
 20
16.4747263
 30
0.0
 11
-19.83082852
 21
16.51141315
 31
0.0
  0
LINE
  5
715
100
AcDbEntity
  8
レイヤー_1
  6
CONTINUOUS
 62
       3
100
AcDbLine
 10
-19.83082852
 20
16.51141315
 30
0.0
 11
-19.82103423
 21
16.55286518
 31
0.0
  0
LINE
  5
716
100
AcDbEntity
  8
レイヤー_1
  6
CONTINUOUS
 62
       3
100
AcDbLine
 10
-19.82103423
 20
16.55286518
 30
0.0
 11
-19.8136864
 21
16.60020442
 31
0.0
  0
LINE
  5
717
100
AcDbEntity
  8
レイヤー_1
  6
CONTINUOUS
 62
       3
100
AcDbLine
 10
-19.8136864
 20
16.60020442
 30
0.0
 11
-19.80852499
 21
16.6545529
 31
0.0
  0
LINE
  5
718
100
AcDbEntity
  8
レイヤー_1
  6
CONTINUOUS
 62
       3
100
AcDbLine
 10
-19.80852499
 20
16.6545529
 30
0.0
 11
-19.80528995
 21
16.71703265
 31
0.0
  0
LINE
  5
719
100
AcDbEntity
  8
レイヤー_1
  6
CONTINUOUS
 62
       3
100
AcDbLine
 10
-19.80528995
 20
16.71703265
 30
0.0
 11
-19.80372125
 21
16.78876569
 31
0.0
  0
LINE
  5
71A
100
AcDbEntity
  8
レイヤー_1
  6
CONTINUOUS
 62
       3
100
AcDbLine
 10
-19.80372125
 20
16.78876569
 30
0.0
 11
-19.80347142
 21
16.87448975
 31
0.0
  0
LINE
  5
71B
100
AcDbEntity
  8
レイヤー_1
  6
CONTINUOUS
 62
       3
100
AcDbLine
 10
-19.80347142
 20
16.87448975
 30
0.0
 11
-19.80347142
 21
17.00867668
 31
0.0
  0
LINE
  5
71C
100
AcDbEntity
  8
レイヤー_1
  6
CONTINUOUS
 62
       3
100
AcDbLine
 10
-19.80347142
 20
17.00867668
 30
0.0
 11
-19.80347142
 21
17.1925006
 31
0.0
  0
LINE
  5
71D
100
AcDbEntity
  8
レイヤー_1
  6
CONTINUOUS
 62
       3
100
AcDbLine
 10
-19.80347142
 20
17.1925006
 30
0.0
 11
-19.80347142
 21
17.41699213
 31
0.0
  0
LINE
  5
71E
100
AcDbEntity
  8
レイヤー_1
  6
CONTINUOUS
 62
       3
100
AcDbLine
 10
-19.80347142
 20
17.41699213
 30
0.0
 11
-19.80347142
 21
17.6731819
 31
0.0
  0
LINE
  5
71F
100
AcDbEntity
  8
レイヤー_1
  6
CONTINUOUS
 62
       3
100
AcDbLine
 10
-19.80347142
 20
17.6731819
 30
0.0
 11
-19.80347142
 21
17.95210053
 31
0.0
  0
LINE
  5
720
100
AcDbEntity
  8
レイヤー_1
  6
CONTINUOUS
 62
       3
100
AcDbLine
 10
-19.80347142
 20
17.95210053
 30
0.0
 11
-19.80347142
 21
18.24477864
 31
0.0
  0
LINE
  5
721
100
AcDbEntity
  8
レイヤー_1
  6
CONTINUOUS
 62
       3
100
AcDbLine
 10
-19.80347142
 20
18.24477864
 30
0.0
 11
-19.80347142
 21
18.54224686
 31
0.0
  0
LINE
  5
722
100
AcDbEntity
  8
レイヤー_1
  6
CONTINUOUS
 62
       3
100
AcDbLine
 10
-19.80347142
 20
18.54224686
 30
0.0
 11
-19.80347142
 21
18.8355358
 31
0.0
  0
LINE
  5
723
100
AcDbEntity
  8
レイヤー_1
  6
CONTINUOUS
 62
       3
100
AcDbLine
 10
-19.80347142
 20
18.8355358
 30
0.0
 11
-19.80347142
 21
19.1156761
 31
0.0
  0
LINE
  5
724
100
AcDbEntity
  8
レイヤー_1
  6
CONTINUOUS
 62
       3
100
AcDbLine
 10
-19.80347142
 20
19.1156761
 30
0.0
 11
-19.80347142
 21
19.37369838
 31
0.0
  0
LINE
  5
725
100
AcDbEntity
  8
レイヤー_1
  6
CONTINUOUS
 62
       3
100
AcDbLine
 10
-19.80347142
 20
19.37369838
 30
0.0
 11
-19.80347142
 21
19.60063326
 31
0.0
  0
LINE
  5
726
100
AcDbEntity
  8
レイヤー_1
  6
CONTINUOUS
 62
       3
100
AcDbLine
 10
-19.80347142
 20
19.60063326
 30
0.0
 11
-19.80347142
 21
19.78751137
 31
0.0
  0
LINE
  5
727
100
AcDbEntity
  8
レイヤー_1
  6
CONTINUOUS
 62
       3
100
AcDbLine
 10
-19.80347142
 20
19.78751137
 30
0.0
 11
-19.80347142
 21
19.92536332
 31
0.0
  0
LINE
  5
728
100
AcDbEntity
  8
レイヤー_1
  6
CONTINUOUS
 62
       3
100
AcDbLine
 10
-19.80347142
 20
19.92536332
 30
0.0
 11
-19.80347142
 21
20.00521975
 31
0.0
  0
LINE
  5
729
100
AcDbEntity
  8
レイヤー_1
  6
CONTINUOUS
 62
       3
100
AcDbLine
 10
-19.80347142
 20
20.00521975
 30
0.0
 11
-19.80202232
 21
20.02181871
 31
0.0
  0
LINE
  5
72A
100
AcDbEntity
  8
レイヤー_1
  6
CONTINUOUS
 62
       3
100
AcDbLine
 10
-19.80202232
 20
20.02181871
 30
0.0
 11
-19.77951955
 21
20.02181871
 31
0.0
  0
LINE
  5
72B
100
AcDbEntity
  8
レイヤー_1
  6
CONTINUOUS
 62
       3
100
AcDbLine
 10
-19.77951955
 20
20.02181871
 30
0.0
 11
-19.73279578
 21
20.02181871
 31
0.0
  0
LINE
  5
72C
100
AcDbEntity
  8
レイヤー_1
  6
CONTINUOUS
 62
       3
100
AcDbLine
 10
-19.73279578
 20
20.02181871
 30
0.0
 11
-19.66574808
 21
20.02181871
 31
0.0
  0
LINE
  5
72D
100
AcDbEntity
  8
レイヤー_1
  6
CONTINUOUS
 62
       3
100
AcDbLine
 10
-19.66574808
 20
20.02181871
 30
0.0
 11
-19.58227352
 21
20.02181871
 31
0.0
  0
LINE
  5
72E
100
AcDbEntity
  8
レイヤー_1
  6
CONTINUOUS
 62
       3
100
AcDbLine
 10
-19.58227352
 20
20.02181871
 30
0.0
 11
-19.48626915
 21
20.02181871
 31
0.0
  0
LINE
  5
72F
100
AcDbEntity
  8
レイヤー_1
  6
CONTINUOUS
 62
       3
100
AcDbLine
 10
-19.48626915
 20
20.02181871
 30
0.0
 11
-19.38163205
 21
20.02181871
 31
0.0
  0
LINE
  5
730
100
AcDbEntity
  8
レイヤー_1
  6
CONTINUOUS
 62
       3
100
AcDbLine
 10
-19.38163205
 20
20.02181871
 30
0.0
 11
-19.27225927
 21
20.02181871
 31
0.0
  0
LINE
  5
731
100
AcDbEntity
  8
レイヤー_1
  6
CONTINUOUS
 62
       3
100
AcDbLine
 10
-19.27225927
 20
20.02181871
 30
0.0
 11
-19.16204788
 21
20.02181871
 31
0.0
  0
LINE
  5
732
100
AcDbEntity
  8
レイヤー_1
  6
CONTINUOUS
 62
       3
100
AcDbLine
 10
-19.16204788
 20
20.02181871
 30
0.0
 11
-19.05489495
 21
20.02181871
 31
0.0
  0
LINE
  5
733
100
AcDbEntity
  8
レイヤー_1
  6
CONTINUOUS
 62
       3
100
AcDbLine
 10
-19.05489495
 20
20.02181871
 30
0.0
 11
-18.95469754
 21
20.02181871
 31
0.0
  0
LINE
  5
734
100
AcDbEntity
  8
レイヤー_1
  6
CONTINUOUS
 62
       3
100
AcDbLine
 10
-18.95469754
 20
20.02181871
 30
0.0
 11
-18.86535272
 21
20.02181871
 31
0.0
  0
LINE
  5
735
100
AcDbEntity
  8
レイヤー_1
  6
CONTINUOUS
 62
       3
100
AcDbLine
 10
-18.86535272
 20
20.02181871
 30
0.0
 11
-18.79075754
 21
20.02181871
 31
0.0
  0
LINE
  5
736
100
AcDbEntity
  8
レイヤー_1
  6
CONTINUOUS
 62
       3
100
AcDbLine
 10
-18.79075754
 20
20.02181871
 30
0.0
 11
-18.73480907
 21
20.02181871
 31
0.0
  0
LINE
  5
737
100
AcDbEntity
  8
レイヤー_1
  6
CONTINUOUS
 62
       3
100
AcDbLine
 10
-18.73480907
 20
20.02181871
 30
0.0
 11
-18.70140439
 21
20.02181871
 31
0.0
  0
LINE
  5
738
100
AcDbEntity
  8
レイヤー_1
  6
CONTINUOUS
 62
       3
100
AcDbLine
 10
-18.70140439
 20
20.02181871
 30
0.0
 11
-18.69348941
 21
20.02098045
 31
0.0
  0
LINE
  5
739
100
AcDbEntity
  8
レイヤー_1
  6
CONTINUOUS
 62
       3
100
AcDbLine
 10
-18.69348941
 20
20.02098045
 30
0.0
 11
-18.69348941
 21
20.00219848
 31
0.0
  0
LINE
  5
73A
100
AcDbEntity
  8
レイヤー_1
  6
CONTINUOUS
 62
       3
100
AcDbLine
 10
-18.69348941
 20
20.00219848
 30
0.0
 11
-18.69348941
 21
19.96136374
 31
0.0
  0
LINE
  5
73B
100
AcDbEntity
  8
レイヤー_1
  6
CONTINUOUS
 62
       3
100
AcDbLine
 10
-18.69348941
 20
19.96136374
 30
0.0
 11
-18.69348941
 21
19.90198867
 31
0.0
  0
LINE
  5
73C
100
AcDbEntity
  8
レイヤー_1
  6
CONTINUOUS
 62
       3
100
AcDbLine
 10
-18.69348941
 20
19.90198867
 30
0.0
 11
-18.69348941
 21
19.82758569
 31
0.0
  0
LINE
  5
73D
100
AcDbEntity
  8
レイヤー_1
  6
CONTINUOUS
 62
       3
100
AcDbLine
 10
-18.69348941
 20
19.82758569
 30
0.0
 11
-18.69348941
 21
19.74166725
 31
0.0
  0
LINE
  5
73E
100
AcDbEntity
  8
レイヤー_1
  6
CONTINUOUS
 62
       3
100
AcDbLine
 10
-18.69348941
 20
19.74166725
 30
0.0
 11
-18.69348941
 21
19.64774579
 31
0.0
  0
LINE
  5
73F
100
AcDbEntity
  8
レイヤー_1
  6
CONTINUOUS
 62
       3
100
AcDbLine
 10
-18.69348941
 20
19.64774579
 30
0.0
 11
-18.69348941
 21
19.54933375
 31
0.0
  0
LINE
  5
740
100
AcDbEntity
  8
レイヤー_1
  6
CONTINUOUS
 62
       3
100
AcDbLine
 10
-18.69348941
 20
19.54933375
 30
0.0
 11
-18.69348941
 21
19.44994356
 31
0.0
  0
LINE
  5
741
100
AcDbEntity
  8
レイヤー_1
  6
CONTINUOUS
 62
       3
100
AcDbLine
 10
-18.69348941
 20
19.44994356
 30
0.0
 11
-18.69348941
 21
19.35308765
 31
0.0
  0
LINE
  5
742
100
AcDbEntity
  8
レイヤー_1
  6
CONTINUOUS
 62
       3
100
AcDbLine
 10
-18.69348941
 20
19.35308765
 30
0.0
 11
-18.69348941
 21
19.26227848
 31
0.0
  0
LINE
  5
743
100
AcDbEntity
  8
レイヤー_1
  6
CONTINUOUS
 62
       3
100
AcDbLine
 10
-18.69348941
 20
19.26227848
 30
0.0
 11
-18.69348941
 21
19.18102847
 31
0.0
  0
LINE
  5
744
100
AcDbEntity
  8
レイヤー_1
  6
CONTINUOUS
 62
       3
100
AcDbLine
 10
-18.69348941
 20
19.18102847
 30
0.0
 11
-18.69348941
 21
19.11285007
 31
0.0
  0
LINE
  5
745
100
AcDbEntity
  8
レイヤー_1
  6
CONTINUOUS
 62
       3
100
AcDbLine
 10
-18.69348941
 20
19.11285007
 30
0.0
 11
-18.69348941
 21
19.06125571
 31
0.0
  0
LINE
  5
746
100
AcDbEntity
  8
レイヤー_1
  6
CONTINUOUS
 62
       3
100
AcDbLine
 10
-18.69348941
 20
19.06125571
 30
0.0
 11
-18.69348941
 21
19.02975783
 31
0.0
  0
LINE
  5
747
100
AcDbEntity
  8
レイヤー_1
  6
CONTINUOUS
 62
       3
100
AcDbLine
 10
-18.69348941
 20
19.02975783
 30
0.0
 11
-18.69306876
 21
19.021388
 31
0.0
  0
LINE
  5
748
100
AcDbEntity
  8
レイヤー_1
  6
CONTINUOUS
 62
       3
100
AcDbLine
 10
-18.69306876
 20
19.021388
 30
0.0
 11
-18.67770751
 21
19.021388
 31
0.0
  0
LINE
  5
749
100
AcDbEntity
  8
レイヤー_1
  6
CONTINUOUS
 62
       3
100
AcDbLine
 10
-18.67770751
 20
19.021388
 30
0.0
 11
-18.64253084
 21
19.021388
 31
0.0
  0
LINE
  5
74A
100
AcDbEntity
  8
レイヤー_1
  6
CONTINUOUS
 62
       3
100
AcDbLine
 10
-18.64253084
 20
19.021388
 30
0.0
 11
-18.59066334
 21
19.021388
 31
0.0
  0
LINE
  5
74B
100
AcDbEntity
  8
レイヤー_1
  6
CONTINUOUS
 62
       3
100
AcDbLine
 10
-18.59066334
 20
19.021388
 30
0.0
 11
-18.52522961
 21
19.021388
 31
0.0
  0
LINE
  5
74C
100
AcDbEntity
  8
レイヤー_1
  6
CONTINUOUS
 62
       3
100
AcDbLine
 10
-18.52522961
 20
19.021388
 30
0.0
 11
-18.44935422
 21
19.021388
 31
0.0
  0
LINE
  5
74D
100
AcDbEntity
  8
レイヤー_1
  6
CONTINUOUS
 62
       3
100
AcDbLine
 10
-18.44935422
 20
19.021388
 30
0.0
 11
-18.36616176
 21
19.021388
 31
0.0
  0
LINE
  5
74E
100
AcDbEntity
  8
レイヤー_1
  6
CONTINUOUS
 62
       3
100
AcDbLine
 10
-18.36616176
 20
19.021388
 30
0.0
 11
-18.27877682
 21
19.021388
 31
0.0
  0
LINE
  5
74F
100
AcDbEntity
  8
レイヤー_1
  6
CONTINUOUS
 62
       3
100
AcDbLine
 10
-18.27877682
 20
19.021388
 30
0.0
 11
-18.19032398
 21
19.021388
 31
0.0
  0
LINE
  5
750
100
AcDbEntity
  8
レイヤー_1
  6
CONTINUOUS
 62
       3
100
AcDbLine
 10
-18.19032398
 20
19.021388
 30
0.0
 11
-18.10392784
 21
19.021388
 31
0.0
  0
LINE
  5
751
100
AcDbEntity
  8
レイヤー_1
  6
CONTINUOUS
 62
       3
100
AcDbLine
 10
-18.10392784
 20
19.021388
 30
0.0
 11
-18.02271296
 21
19.021388
 31
0.0
  0
LINE
  5
752
100
AcDbEntity
  8
レイヤー_1
  6
CONTINUOUS
 62
       3
100
AcDbLine
 10
-18.02271296
 20
19.021388
 30
0.0
 11
-17.94980395
 21
19.021388
 31
0.0
  0
LINE
  5
753
100
AcDbEntity
  8
レイヤー_1
  6
CONTINUOUS
 62
       3
100
AcDbLine
 10
-17.94980395
 20
19.021388
 30
0.0
 11
-17.88832539
 21
19.021388
 31
0.0
  0
LINE
  5
754
100
AcDbEntity
  8
レイヤー_1
  6
CONTINUOUS
 62
       3
100
AcDbLine
 10
-17.88832539
 20
19.021388
 30
0.0
 11
-17.84140186
 21
19.021388
 31
0.0
  0
LINE
  5
755
100
AcDbEntity
  8
レイヤー_1
  6
CONTINUOUS
 62
       3
100
AcDbLine
 10
-17.84140186
 20
19.021388
 30
0.0
 11
-17.81215795
 21
19.021388
 31
0.0
  0
LINE
  5
756
100
AcDbEntity
  8
レイヤー_1
  6
CONTINUOUS
 62
       3
100
AcDbLine
 10
-17.81215795
 20
19.021388
 30
0.0
 11
-17.803318
 21
19.02149506
 31
0.0
  0
LINE
  5
757
100
AcDbEntity
  8
レイヤー_1
  6
CONTINUOUS
 62
       3
100
AcDbLine
 10
-17.803318
 20
19.02149506
 30
0.0
 11
-17.7875852
 21
19.02958183
 31
0.0
  0
LINE
  5
758
100
AcDbEntity
  8
レイヤー_1
  6
CONTINUOUS
 62
       3
100
AcDbLine
 10
-17.7875852
 20
19.02958183
 30
0.0
 11
-17.74936534
 21
19.0495613
 31
0.0
  0
LINE
  5
759
100
AcDbEntity
  8
レイヤー_1
  6
CONTINUOUS
 62
       3
100
AcDbLine
 10
-17.74936534
 20
19.0495613
 30
0.0
 11
-17.69216924
 21
19.08007638
 31
0.0
  0
LINE
  5
75A
100
AcDbEntity
  8
レイヤー_1
  6
CONTINUOUS
 62
       3
100
AcDbLine
 10
-17.69216924
 20
19.08007638
 30
0.0
 11
-17.61950775
 21
19.11977001
 31
0.0
  0
LINE
  5
75B
100
AcDbEntity
  8
レイヤー_1
  6
CONTINUOUS
 62
       3
100
AcDbLine
 10
-17.61950775
 20
19.11977001
 30
0.0
 11
-17.53489166
 21
19.16728509
 31
0.0
  0
LINE
  5
75C
100
AcDbEntity
  8
レイヤー_1
  6
CONTINUOUS
 62
       3
100
AcDbLine
 10
-17.53489166
 20
19.16728509
 30
0.0
 11
-17.44183183
 21
19.22126457
 31
0.0
  0
LINE
  5
75D
100
AcDbEntity
  8
レイヤー_1
  6
CONTINUOUS
 62
       3
100
AcDbLine
 10
-17.44183183
 20
19.22126457
 30
0.0
 11
-17.34383906
 21
19.28035135
 31
0.0
  0
LINE
  5
75E
100
AcDbEntity
  8
レイヤー_1
  6
CONTINUOUS
 62
       3
100
AcDbLine
 10
-17.34383906
 20
19.28035135
 30
0.0
 11
-17.24442418
 21
19.34318835
 31
0.0
  0
LINE
  5
75F
100
AcDbEntity
  8
レイヤー_1
  6
CONTINUOUS
 62
       3
100
AcDbLine
 10
-17.24442418
 20
19.34318835
 30
0.0
 11
-17.14709802
 21
19.40841851
 31
0.0
  0
LINE
  5
760
100
AcDbEntity
  8
レイヤー_1
  6
CONTINUOUS
 62
       3
100
AcDbLine
 10
-17.14709802
 20
19.40841851
 30
0.0
 11
-17.05537141
 21
19.47468474
 31
0.0
  0
LINE
  5
761
100
AcDbEntity
  8
レイヤー_1
  6
CONTINUOUS
 62
       3
100
AcDbLine
 10
-17.05537141
 20
19.47468474
 30
0.0
 11
-16.97275516
 21
19.54062996
 31
0.0
  0
LINE
  5
762
100
AcDbEntity
  8
レイヤー_1
  6
CONTINUOUS
 62
       3
100
AcDbLine
 10
-16.97275516
 20
19.54062996
 30
0.0
 11
-16.90276011
 21
19.60489709
 31
0.0
  0
LINE
  5
763
100
AcDbEntity
  8
レイヤー_1
  6
CONTINUOUS
 62
       3
100
AcDbLine
 10
-16.90276011
 20
19.60489709
 30
0.0
 11
-16.84889708
 21
19.66612907
 31
0.0
  0
LINE
  5
764
100
AcDbEntity
  8
レイヤー_1
  6
CONTINUOUS
 62
       3
100
AcDbLine
 10
-16.84889708
 20
19.66612907
 30
0.0
 11
-16.8146769
 21
19.7229688
 31
0.0
  0
LINE
  5
765
100
AcDbEntity
  8
レイヤー_1
  6
CONTINUOUS
 62
       3
100
AcDbLine
 10
-16.8146769
 20
19.7229688
 30
0.0
 11
-16.80355727
 21
19.77419562
 31
0.0
  0
LINE
  5
766
100
AcDbEntity
  8
レイヤー_1
  6
CONTINUOUS
 62
       3
100
AcDbLine
 10
-16.80355727
 20
19.77419562
 30
0.0
 11
-16.80355727
 21
19.852992
 31
0.0
  0
LINE
  5
767
100
AcDbEntity
  8
レイヤー_1
  6
CONTINUOUS
 62
       3
100
AcDbLine
 10
-16.80355727
 20
19.852992
 30
0.0
 11
-16.80355727
 21
19.98019616
 31
0.0
  0
LINE
  5
768
100
AcDbEntity
  8
レイヤー_1
  6
CONTINUOUS
 62
       3
100
AcDbLine
 10
-16.80355727
 20
19.98019616
 30
0.0
 11
-16.80355727
 21
20.1478281
 31
0.0
  0
LINE
  5
769
100
AcDbEntity
  8
レイヤー_1
  6
CONTINUOUS
 62
       3
100
AcDbLine
 10
-16.80355727
 20
20.1478281
 30
0.0
 11
-16.80355727
 21
20.34790784
 31
0.0
  0
LINE
  5
76A
100
AcDbEntity
  8
レイヤー_1
  6
CONTINUOUS
 62
       3
100
AcDbLine
 10
-16.80355727
 20
20.34790784
 30
0.0
 11
-16.80355727
 21
20.57245538
 31
0.0
  0
LINE
  5
76B
100
AcDbEntity
  8
レイヤー_1
  6
CONTINUOUS
 62
       3
100
AcDbLine
 10
-16.80355727
 20
20.57245538
 30
0.0
 11
-16.80355727
 21
20.81349073
 31
0.0
  0
LINE
  5
76C
100
AcDbEntity
  8
レイヤー_1
  6
CONTINUOUS
 62
       3
100
AcDbLine
 10
-16.80355727
 20
20.81349073
 30
0.0
 11
-16.80355727
 21
21.0630339
 31
0.0
  0
LINE
  5
76D
100
AcDbEntity
  8
レイヤー_1
  6
CONTINUOUS
 62
       3
100
AcDbLine
 10
-16.80355727
 20
21.0630339
 30
0.0
 11
-16.80355727
 21
21.3131049
 31
0.0
  0
LINE
  5
76E
100
AcDbEntity
  8
レイヤー_1
  6
CONTINUOUS
 62
       3
100
AcDbLine
 10
-16.80355727
 20
21.3131049
 30
0.0
 11
-16.80355727
 21
21.55572374
 31
0.0
  0
LINE
  5
76F
100
AcDbEntity
  8
レイヤー_1
  6
CONTINUOUS
 62
       3
100
AcDbLine
 10
-16.80355727
 20
21.55572374
 30
0.0
 11
-16.80355727
 21
21.78291042
 31
0.0
  0
LINE
  5
770
100
AcDbEntity
  8
レイヤー_1
  6
CONTINUOUS
 62
       3
100
AcDbLine
 10
-16.80355727
 20
21.78291042
 30
0.0
 11
-16.80355727
 21
21.98668496
 31
0.0
  0
LINE
  5
771
100
AcDbEntity
  8
レイヤー_1
  6
CONTINUOUS
 62
       3
100
AcDbLine
 10
-16.80355727
 20
21.98668496
 30
0.0
 11
-16.80355727
 21
22.15906737
 31
0.0
  0
LINE
  5
772
100
AcDbEntity
  8
レイヤー_1
  6
CONTINUOUS
 62
       3
100
AcDbLine
 10
-16.80355727
 20
22.15906737
 30
0.0
 11
-16.80355727
 21
22.29207765
 31
0.0
  0
LINE
  5
773
100
AcDbEntity
  8
レイヤー_1
  6
CONTINUOUS
 62
       3
100
AcDbLine
 10
-16.80355727
 20
22.29207765
 30
0.0
 11
-16.80355727
 21
22.37773581
 31
0.0
  0
LINE
  5
774
100
AcDbEntity
  8
レイヤー_1
  6
CONTINUOUS
 62
       3
100
AcDbLine
 10
-16.80355727
 20
22.37773581
 30
0.0
 11
-16.80355727
 21
22.40806186
 31
0.0
  0
LINE
  5
775
100
AcDbEntity
  8
SLD-0
  6
CONTINUOUS
 62
       3
100
AcDbLine
 10
43.57939586
 20
-35.57897808
 30
0.0
 11
43.57939586
 21
41.42102192
 31
0.0
  0
LINE
  5
776
100
AcDbEntity
  8
SLD-0
  6
CONTINUOUS
 62
       3
100
AcDbLine
 10
21.07939586
 20
-35.57897808
 30
0.0
 11
21.07939586
 21
41.42102192
 31
0.0
  0
LINE
  5
777
100
AcDbEntity
  8
SLD-0
  6
CONTINUOUS
 62
       3
100
AcDbLine
 10
21.07939586
 20
-35.57897808
 30
0.0
 11
43.57939586
 21
-35.57897808
 31
0.0
  0
LINE
  5
778
100
AcDbEntity
  8
SLD-0
  6
CONTINUOUS
 62
       3
100
AcDbLine
 10
21.07939586
 20
41.42102192
 30
0.0
 11
43.57939586
 21
41.42102192
 31
0.0
  0
LINE
  5
779
100
AcDbEntity
  8
SLD-0
  6
CONTINUOUS
 62
       3
100
AcDbLine
 10
-52.80344207
 20
-29.58055241
 30
0.0
 11
-52.80344207
 21
-24.78344201
 31
0.0
  0
LINE
  5
77A
100
AcDbEntity
  8
SLD-0
  6
CONTINUOUS
 62
       3
100
AcDbLine
 10
-23.79256259
 20
-27.59762697
 30
0.0
 11
-23.79256259
 21
-15.59659237
 31
0.0
  0
LINE
  5
77B
100
AcDbEntity
  8
SLD-0
  6
CONTINUOUS
 62
       3
100
AcDbLine
 10
-52.80344207
 20
30.62594519
 30
0.0
 11
-52.80344207
 21
35.42305522
 31
0.0
  0
LINE
  5
77C
100
AcDbEntity
  8
SLD-0
  6
CONTINUOUS
 62
       3
100
AcDbLine
 10
-30.28946313
 20
41.42102192
 30
0.0
 11
-35.83126173
 21
41.42102192
 31
0.0
  0
LINE
  5
77D
100
AcDbEntity
  8
SLD-0
  6
CONTINUOUS
 62
       3
100
AcDbLine
 10
-30.27866026
 20
-35.57897808
 30
0.0
 11
-35.86876922
 21
-35.57897808
 31
0.0
  0
ARC
  5
77E
100
AcDbEntity
  8
SLD-0
  6
CONTINUOUS
 62
       3
100
AcDbCircle
 10
-23.29256259
 20
0.00908466
 30
0.0
 40
0.5
100
AcDbArc
 50
180.0
 51
270.0
  0
ARC
  5
77F
100
AcDbEntity
  8
SLD-0
  6
CONTINUOUS
 62
       3
100
AcDbCircle
 10
-23.29256259
 20
1.00902743
 30
0.0
 40
0.5
100
AcDbArc
 50
90.0
 51
180.0
  0
ARC
  5
780
100
AcDbEntity
  8
SLD-0
  6
CONTINUOUS
 62
       3
100
AcDbCircle
 10
-16.28527812
 20
-3.18283134
 30
0.0
 40
0.5
100
AcDbArc
 50
270.0
 51
344.28041564
  0
LINE
  5
781
100
AcDbEntity
  8
SLD-0
  6
CENTERX2
 62
       3
100
AcDbLine
 10
-11.58676553
 20
2.92102192
 30
0.0
 11
-44.25893813
 21
2.92102192
 31
0.0
  0
LINE
  5
782
100
AcDbEntity
  8
SLD-0
  6
CENTERX2
 62
       3
100
AcDbLine
 10
32.32939586
 20
-43.22728062
 30
0.0
 11
32.32939586
 21
47.98117077
 31
0.0
  0
LINE
  5
783
100
AcDbEntity
  8
SLD-0
  6
CENTERX2
 62
       3
100
AcDbLine
 10
12.34897683
 20
2.92102192
 30
0.0
 11
52.80344207
 21
2.92102192
 31
0.0
  0
CIRCLE
  5
784
100
AcDbEntity
  8
0
  6
CONTINUOUS
 62
       3
100
AcDbCircle
 10
24.87939994
 20
33.01524567
 30
0.0
 40
1.8999094
  0
CIRCLE
  5
785
100
AcDbEntity
  8
0
  6
CONTINUOUS
 62
       3
100
AcDbCircle
 10
24.87939994
 20
-27.19134554
 30
0.0
 40
1.90007182
  0
CIRCLE
  5
786
100
AcDbEntity
  8
0
  6
CONTINUOUS
 62
       3
100
AcDbCircle
 10
39.77939179
 20
-27.19134554
 30
0.0
 40
1.90007182
  0
CIRCLE
  5
787
100
AcDbEntity
  8
0
  6
CONTINUOUS
 62
       3
100
AcDbCircle
 10
39.77939179
 20
33.01524567
 30
0.0
 40
1.8999094
  0
CIRCLE
  5
788
100
AcDbEntity
  8
SLD-0_1
  6
CONTINUOUS
 62
       3
100
AcDbCircle
 10
29.77939994
 20
-27.19134554
 30
0.0
 40
1.90007182
  0
CIRCLE
  5
789
100
AcDbEntity
  8
SLD-0_1
  6
CONTINUOUS
 62
       3
100
AcDbCircle
 10
29.77939994
 20
33.01524567
 30
0.0
 40
1.8999094
  0
CIRCLE
  5
78A
100
AcDbEntity
  8
SLD-0_1
  6
CONTINUOUS
 62
       3
100
AcDbCircle
 10
34.87939179
 20
-27.19134554
 30
0.0
 40
1.90007182
  0
CIRCLE
  5
78B
100
AcDbEntity
  8
SLD-0_1
  6
CONTINUOUS
 62
       3
100
AcDbCircle
 10
34.87939179
 20
33.01524567
 30
0.0
 40
1.8999094
  0
TEXT
  5
78C
100
AcDbEntity
  8
SLD-0
 62
       3
100
AcDbText
 10
36.36966704
 20
-50.48117077
 30
0.0
 40
5.0
  1
000
 72
       5
 11
51.36966704
 21
-50.48117077
 31
0.0
100
AcDbText
  0
ENDSEC
  0
SECTION
  2
OBJECTS
  0
DICTIONARY
  5
19
100
AcDbDictionary
  3
ACAD_GROUP
350
1A
  3
ACAD_MLINESTYLE
350
1B
  0
DICTIONARY
  5
1A
102
{ACAD_REACTORS
330
19
102
}
100
AcDbDictionary
  0
DICTIONARY
  5
1B
102
{ACAD_REACTORS
330
19
102
}
100
AcDbDictionary
  3
STANDARD
350
1C
  0
MLINESTYLE
  5
1C
102
{ACAD_REACTORS
330
1B
102
}
100
AcDbMlineStyle
  2
STANDARD
 70
       0
  3

 62
       0
 51
90.0
 52
90.0
 71
       2
 49
0.5
 62
     256
  6
BYLAYER
 49
-0.5
 62
     256
  6
BYLAYER
  0
ENDSEC
  0
EOF
