  0
SECTION
  2
HEADER
  9
$ACADVER
  1
AC1014
  9
$ACADMAINTVER
 70
       0
  9
$DWGCODEPAGE
  3
ANSI_932
  9
$INSBASE
 10
0.0
 20
0.0
 30
0.0
  9
$EXTMIN
 10
-272.1556496
 20
-414.82016212
 30
0.0
  9
$EXTMAX
 10
272.1556496
 20
408.58392103
 30
0.0
  9
$LIMMIN
 10
-289.16537771
 20
-440.55153972
  9
$LIMMAX
 10
289.16537771
 20
434.31529863
  9
$ORTHOMODE
 70
       0
  9
$REGENMODE
 70
       1
  9
$FILLMODE
 70
       1
  9
$QTEXTMODE
 70
       0
  9
$MIRRTEXT
 70
       1
  9
$DRAGMODE
 70
       2
  9
$LTSCALE
 40
1.0
  9
$OSMODE
 70
       0
  9
$ATTMODE
 70
       1
  9
$TEXTSIZE
 40
0.2
  9
$TRACEWID
 40
0.05
  9
$TEXTSTYLE
  7
STANDARD
  9
$CLAYER
  8
0
  9
$CELTYPE
  6
CONTINUOUS
  9
$CECOLOR
 62
     256
  9
$CELTSCALE
 40
1.0
  9
$DELOBJ
 70
       1
  9
$DISPSILH
 70
       0
  9
$DIMSCALE
 40
1.0
  9
$DIMASZ
 40
0.18
  9
$DIMEXO
 40
0.0625
  9
$DIMDLI
 40
0.38
  9
$DIMRND
 40
0.0
  9
$DIMDLE
 40
0.0
  9
$DIMEXE
 40
0.18
  9
$DIMTP
 40
0.0
  9
$DIMTM
 40
0.0
  9
$DIMTXT
 40
0.18
  9
$DIMCEN
 40
0.09
  9
$DIMTSZ
 40
0.0
  9
$DIMTOL
 70
       0
  9
$DIMLIM
 70
       0
  9
$DIMTIH
 70
       1
  9
$DIMTOH
 70
       1
  9
$DIMSE1
 70
       0
  9
$DIMSE2
 70
       0
  9
$DIMTAD
 70
       0
  9
$DIMZIN
 70
       0
  9
$DIMBLK
  1

  9
$DIMASO
 70
       1
  9
$DIMSHO
 70
       1
  9
$DIMPOST
  1

  9
$DIMAPOST
  1

  9
$DIMALT
 70
       0
  9
$DIMALTD
 70
       2
  9
$DIMALTF
 40
25.4
  9
$DIMLFAC
 40
1.0
  9
$DIMTOFL
 70
       0
  9
$DIMTVP
 40
0.0
  9
$DIMTIX
 70
       0
  9
$DIMSOXD
 70
       0
  9
$DIMSAH
 70
       0
  9
$DIMBLK1
  1

  9
$DIMBLK2
  1

  9
$DIMSTYLE
  2
STANDARD
  9
$DIMCLRD
 70
       0
  9
$DIMCLRE
 70
       0
  9
$DIMCLRT
 70
       0
  9
$DIMTFAC
 40
1.0
  9
$DIMGAP
 40
0.09
  9
$DIMJUST
 70
       0
  9
$DIMSD1
 70
       0
  9
$DIMSD2
 70
       0
  9
$DIMTOLJ
 70
       1
  9
$DIMTZIN
 70
       0
  9
$DIMALTZ
 70
       0
  9
$DIMALTTZ
 70
       0
  9
$DIMFIT
 70
       3
  9
$DIMUPT
 70
       0
  9
$DIMUNIT
 70
       2
  9
$DIMDEC
 70
       4
  9
$DIMTDEC
 70
       4
  9
$DIMALTU
 70
       2
  9
$DIMALTTD
 70
       2
  9
$DIMTXSTY
  7
STANDARD
  9
$DIMAUNIT
 70
       0
  9
$LUNITS
 70
       2
  9
$LUPREC
 70
       4
  9
$SKETCHINC
 40
0.1
  9
$FILLETRAD
 40
0.0
  9
$AUNITS
 70
       0
  9
$AUPREC
 70
       0
  9
$MENU
  1
acad
  9
$ELEVATION
 40
0.0
  9
$PELEVATION
 40
0.0
  9
$THICKNESS
 40
0.0
  9
$LIMCHECK
 70
       0
  9
$BLIPMODE
 70
       1
  9
$CHAMFERA
 40
0.0
  9
$CHAMFERB
 40
0.0
  9
$CHAMFERC
 40
0.0
  9
$CHAMFERD
 40
0.0
  9
$SKPOLY
 70
       0
  9
$TDCREATE
 40
0.000000000
  9
$TDUPDATE
 40
0.000000000
  9
$TDINDWG
 40
0.0000000000
  9
$TDUSRTIMER
 40
0.0000000000
  9
$USRTIMER
 70
       1
  9
$ANGBASE
 50
0.0
  9
$ANGDIR
 70
       0
  9
$PDMODE
 70
       0
  9
$PDSIZE
 40
1.0
  9
$PLINEWID
 40
0.0
  9
$COORDS
 70
       1
  9
$SPLFRAME
 70
       0
  9
$SPLINETYPE
 70
       6
  9
$SPLINESEGS
 70
       8
  9
$ATTDIA
 70
       0
  9
$ATTREQ
 70
       1
  9
$HANDLING
 70
       1
  9
$HANDSEED
  5
4CE
  9
$SURFTAB1
 70
       6
  9
$SURFTAB2
 70
       6
  9
$SURFTYPE
 70
       6
  9
$SURFU
 70
       6
  9
$SURFV
 70
       6
  9
$UCSNAME
  2

  9
$UCSORG
 10
0.0
 20
0.0
 30
0.0
  9
$UCSXDIR
 10
1.0
 20
0.0
 30
0.0
  9
$UCSYDIR
 10
0.0
 20
1.0
 30
0.0
  9
$PUCSNAME
  2

  9
$PUCSORG
 10
0.0
 20
0.0
 30
0.0
  9
$PUCSXDIR
 10
1.0
 20
0.0
 30
0.0
  9
$PUCSYDIR
 10
0.0
 20
1.0
 30
0.0
  9
$USERI1
 70
       0
  9
$USERI2
 70
       0
  9
$USERI3
 70
       0
  9
$USERI4
 70
       0
  9
$USERI5
 70
       0
  9
$USERR1
 40
0.0
  9
$USERR2
 40
0.0
  9
$USERR3
 40
0.0
  9
$USERR4
 40
0.0
  9
$USERR5
 40
0.0
  9
$WORLDVIEW
 70
       1
  9
$SHADEDGE
 70
       3
  9
$SHADEDIF
 70
      70
  9
$TILEMODE
 70
       1
  9
$MAXACTVP
 70
      16
  9
$PINSBASE
 10
0.0
 20
0.0
 30
0.0
  9
$PLIMCHECK
 70
       0
  9
$PEXTMIN
 10
1.00000000E+20
 20
1.00000000E+20
 30
1.00000000E+20
  9
$PEXTMAX
 10
-1.00000000E+20
 20
-1.00000000E+20
 30
-1.00000000E+20
  9
$PLIMMIN
 10
0.0
 20
0.0
  9
$PLIMMAX
 10
12.0
 20
9.0
  9
$UNITMODE
 70
       0
  9
$VISRETAIN
 70
       0
  9
$PLINEGEN
 70
       1
  9
$PSLTSCALE
 70
       0
  9
$TREEDEPTH
 70
    3020
  9
$PICKSTYLE
 70
       1
  9
$CMLSTYLE
  2
STANDARD
  9
$CMLJUST
 70
       0
  9
$CMLSCALE
 40
1.0
  9
$PROXYGRAPHICS
 70
       0
  9
$MEASUREMENT
 70
       0
  0
ENDSEC
  0
SECTION
  2
CLASSES
  0
CLASS
  1
LWPOLYLINE
  2
AcDbPolyline
  3
"AutoCAD"
 90
        0
280
       0
281
       1
  0
CLASS
  1
IMAGE
  2
AcDbRasterImage
  3
ISM
 90
      127
280
       0
281
       1
  0
CLASS
  1
OLE2FRAME
  2
AcDbOle2Frame
  3
""
 90
        0
280
       0
281
       1
  0
CLASS
  1
HATCH
  2
AcDbHatch
  3
"ACAD_SEDONA"
 90
        0
280
       0
281
       1
  0
CLASS
  1
DICTIONARYVAR
  2
AcDbDictionaryVar
  3
"AutoCAD"
 90
        0
280
       0
281
       0
  0
CLASS
  1
RASTERVARIABLES
  2
AcDbRasterVariables
  3
ISM
 90
        0
280
       0
281
       0
  0
CLASS
  1
IMAGEDEF
  2
AcDbRasterImageDef
  3
ISM
 90
        0
280
       0
281
       0
  0
CLASS
  1
IMAGEDEF_REACTOR
  2
AcDbRasterImageDefReactor
  3
ISM
 90
        1
280
       0
281
       0
  0
CLASS
  1
IDBUFFER
  2
AcDbIdBuffer
  3
"Acad"
 90
        0
280
       0
281
       0
  0
CLASS
  1
SPATIAL_FILTER
  2
AcDbSpatialFilter
  3
"Acad"
 90
        0
280
       0
281
       0
  0
CLASS
  1
XRECORD
  2
AcDbXrecord
  3
"<Built In>"
 90
        0
280
       0
281
       0
  0
CLASS
  1
SORTENTSTABLE
  2
AcDbSortentsTable
  3
"AutoCAD"
 90
        0
280
       0
281
       0
  0
CLASS
  1
LAYER_INDEX
  2
AcDbLayerIndex
  3
"Acad"
 90
        0
280
       0
281
       0
  0
CLASS
  1
SPATIAL_INDEX
  2
AcDbSpatialIndex
  3
"Acad"
 90
        0
280
       0
281
       0
  0
CLASS
  1
OBJECT_PTR
  2
CAseDLPNTableRecord
  3
"ASE-LPNTableRecord"
 90
        1
280
       0
281
       0
  0
CLASS
  1
LAYOUT
  2
AcDbLayout
  3
"AutoCAD 2000"
 90
        1
280
       0
281
       0
  0
CLASS
  1
PLOTSETTINGS
  2
AcDbPlotSettings
  3
"AutoCAD 2000"
 90
        1
280
       0
281
       0
  0
CLASS
  1
ACDBDICTIONARYWDFLT
  2
AcDbDictionaryWithDefault
  3
"AutoCAD 2000"
 90
        1
280
       0
281
       0
  0
CLASS
  1
ACDBPLACEHOLDER
  2
AcDbPlaceHolder
  3
"AutoCAD 2000"
 90
        1
280
       0
281
       0
  0
CLASS
  1
VBA_PROJECT
  2
AcDbVbaProject
  3
"acadvba"
 90
        1
280
       0
281
       0
  0
CLASS
  1
WIPEOUT
  2
AcDbWipeout
  3
WipeOut|AutoCAD Express Tool|expresstools@autodesk.com
 90
      127
280
       0
281
       1
  0
CLASS
  1
WIPEOUTVARIABLES
  2
AcDbWipeoutVariables
  3
WipeOut|AutoCAD Express Tool|expresstools@autodesk.com
 90
        0
280
       0
281
       0
  0
CLASS
  1
RTEXT
  2
RText
  3
RText|AutoCAD Express Tool|expresstools@autodesk.com
 90
        0
280
       0
281
       1
  0
CLASS
  1
ARCALIGNEDTEXT
  2
AcDbArcAlignedText
  3
ATEXT|AutoCAD Express Tool|expresstools@autodesk.com
 90
        0
280
       0
281
       1
  0
ENDSEC
  0
SECTION
  2
TABLES
  0
TABLE
  2
VPORT
  5
7
100
AcDbSymbolTable
 70
       1
  0
VPORT
  5
15
100
AcDbSymbolTableRecord
100
AcDbViewportTableRecord
  2
*ACTIVE
 70
       0
 10
0.0
 20
0.0
 11
1.0
 21
1.0
 12
0.0
 22
-3.11812054
 13
0.0
 23
0.0
 14
1.0
 24
1.0
 15
0.0
 25
0.0
 16
0.0
 26
0.0
 36
1.0
 17
0.0
 27
0.0
 37
0.0
 40
874.86683835
 41
0.66105004
 42
50.0
 43
0.0
 44
0.0
 50
0.0
 51
0.0
 71
       0
 72
     100
 73
       1
 74
       1
 75
       0
 76
       0
 77
       0
 78
       0
  0
ENDTAB
  0
TABLE
  2
LTYPE
  5
4
100
AcDbSymbolTable
 70
      30
  0
LTYPE
  5
11
100
AcDbSymbolTableRecord
100
AcDbLinetypeTableRecord
  2
BYBLOCK
 70
      64
  3

 72
      65
 73
       0
 40
0.0
  0
LTYPE
  5
12
100
AcDbSymbolTableRecord
100
AcDbLinetypeTableRecord
  2
BYLAYER
 70
      64
  3

 72
      65
 73
       0
 40
0.0
  0
LTYPE
  5
13
100
AcDbSymbolTableRecord
100
AcDbLinetypeTableRecord
  2
CONTINUOUS
 70
      64
  3
Solid line
 72
      65
 73
       0
 40
0.0
  0
LTYPE
  5
1D
100
AcDbSymbolTableRecord
100
AcDbLinetypeTableRecord
  2
HIDDENX2
 70
      64
  3
CADPAC LINETYPE
 72
      65
 73
       2
 40
46.52710767
 49
34.89533075
 74
       0
 49
-11.63177692
 74
       0
  0
LTYPE
  5
1E
100
AcDbSymbolTableRecord
100
AcDbLinetypeTableRecord
  2
HIDDEN
 70
      64
  3
CADPAC LINETYPE
 72
      65
 73
       2
 40
34.89533075
 49
23.26355384
 74
       0
 49
-11.63177692
 74
       0
  0
LTYPE
  5
1F
100
AcDbSymbolTableRecord
100
AcDbLinetypeTableRecord
  2
HIDDEN2
 70
      64
  3
CADPAC LINETYPE
 72
      65
 73
       2
 40
29.0794423
 49
17.44766538
 74
       0
 49
-11.63177692
 74
       0
  0
LTYPE
  5
20
100
AcDbSymbolTableRecord
100
AcDbLinetypeTableRecord
  2
DASHED
 70
      64
  3
CADPAC LINETYPE
 72
      65
 73
       2
 40
34.89533075
 49
23.26355384
 74
       0
 49
-11.63177692
 74
       0
  0
LTYPE
  5
21
100
AcDbSymbolTableRecord
100
AcDbLinetypeTableRecord
  2
DASHED2
 70
      64
  3
CADPAC LINETYPE
 72
      65
 73
       2
 40
26.17149807
 49
17.44766538
 74
       0
 49
-8.72383269
 74
       0
  0
LTYPE
  5
22
100
AcDbSymbolTableRecord
100
AcDbLinetypeTableRecord
  2
DASHEDX2
 70
      64
  3
CADPAC LINETYPE
 72
      65
 73
       2
 40
52.34299613
 49
34.89533075
 74
       0
 49
-17.44766538
 74
       0
  0
LTYPE
  5
23
100
AcDbSymbolTableRecord
100
AcDbLinetypeTableRecord
  2
DOTX2
 70
      64
  3
CADPAC LINETYPE
 72
      65
 73
       2
 40
14.53972115
 49
0.0
 74
       0
 49
-14.53972115
 74
       0
  0
LTYPE
  5
24
100
AcDbSymbolTableRecord
100
AcDbLinetypeTableRecord
  2
DOT
 70
      64
  3
CADPAC LINETYPE
 72
      65
 73
       2
 40
11.63177692
 49
0.0
 74
       0
 49
-11.63177692
 74
       0
  0
LTYPE
  5
25
100
AcDbSymbolTableRecord
100
AcDbLinetypeTableRecord
  2
DOT2
 70
      64
  3
CADPAC LINETYPE
 72
      65
 73
       2
 40
8.72383269
 49
0.0
 74
       0
 49
-8.72383269
 74
       0
  0
LTYPE
  5
26
100
AcDbSymbolTableRecord
100
AcDbLinetypeTableRecord
  2
CENTERX2
 70
      64
  3
CADPAC LINETYPE
 72
      65
 73
       4
 40
69.79066151
 49
29.0794423
 74
       0
 49
-14.53972115
 74
       0
 49
11.63177692
 74
       0
 49
-14.53972115
 74
       0
  0
LTYPE
  5
27
100
AcDbSymbolTableRecord
100
AcDbLinetypeTableRecord
  2
CENTER
 70
      64
  3
CADPAC LINETYPE
 72
      65
 73
       4
 40
53.50617382
 49
23.26355384
 74
       0
 49
-11.63177692
 74
       0
 49
6.97906615
 74
       0
 49
-11.63177692
 74
       0
  0
LTYPE
  5
28
100
AcDbSymbolTableRecord
100
AcDbLinetypeTableRecord
  2
CENTER2
 70
      64
  3
CADPAC LINETYPE
 72
      65
 73
       4
 40
37.22168614
 49
17.44766538
 74
       0
 49
-8.72383269
 74
       0
 49
2.32635538
 74
       0
 49
-8.72383269
 74
       0
  0
LTYPE
  5
29
100
AcDbSymbolTableRecord
100
AcDbLinetypeTableRecord
  2
DASHDOTX2
 70
      64
  3
CADPAC LINETYPE
 72
      65
 73
       4
 40
58.15888459
 49
29.0794423
 74
       0
 49
-14.53972115
 74
       0
 49
0.0
 74
       0
 49
-14.53972115
 74
       0
  0
LTYPE
  5
2A
100
AcDbSymbolTableRecord
100
AcDbLinetypeTableRecord
  2
DASHDOT
 70
      64
  3
CADPAC LINETYPE
 72
      65
 73
       4
 40
46.52710767
 49
23.26355384
 74
       0
 49
-11.63177692
 74
       0
 49
0.0
 74
       0
 49
-11.63177692
 74
       0
  0
LTYPE
  5
2B
100
AcDbSymbolTableRecord
100
AcDbLinetypeTableRecord
  2
DASHDOT2
 70
      64
  3
CADPAC LINETYPE
 72
      65
 73
       4
 40
34.89533075
 49
17.44766538
 74
       0
 49
-8.72383269
 74
       0
 49
0.0
 74
       0
 49
-8.72383269
 74
       0
  0
LTYPE
  5
2C
100
AcDbSymbolTableRecord
100
AcDbLinetypeTableRecord
  2
DIVIDEX2
 70
      64
  3
CADPAC LINETYPE
 72
      65
 73
       6
 40
72.69860574
 49
29.0794423
 74
       0
 49
-14.53972115
 74
       0
 49
0.0
 74
       0
 49
-14.53972115
 74
       0
 49
0.0
 74
       0
 49
-14.53972115
 74
       0
  0
LTYPE
  5
2D
100
AcDbSymbolTableRecord
100
AcDbLinetypeTableRecord
  2
DIVIDE
 70
      64
  3
CADPAC LINETYPE
 72
      65
 73
       6
 40
58.15888459
 49
23.26355384
 74
       0
 49
-11.63177692
 74
       0
 49
0.0
 74
       0
 49
-11.63177692
 74
       0
 49
0.0
 74
       0
 49
-11.63177692
 74
       0
  0
LTYPE
  5
2E
100
AcDbSymbolTableRecord
100
AcDbLinetypeTableRecord
  2
DIVIDE2
 70
      64
  3
CADPAC LINETYPE
 72
      65
 73
       6
 40
43.61916344
 49
17.44766538
 74
       0
 49
-8.72383269
 74
       0
 49
0.0
 74
       0
 49
-8.72383269
 74
       0
 49
0.0
 74
       0
 49
-8.72383269
 74
       0
  0
LTYPE
  5
2F
100
AcDbSymbolTableRecord
100
AcDbLinetypeTableRecord
  2
BORDERX2
 70
      64
  3
CADPAC LINETYPE
 72
      65
 73
       6
 40
101.77804803
 49
29.0794423
 74
       0
 49
-14.53972115
 74
       0
 49
29.0794423
 74
       0
 49
-14.53972115
 74
       0
 49
0.0
 74
       0
 49
-14.53972115
 74
       0
  0
LTYPE
  5
30
100
AcDbSymbolTableRecord
100
AcDbLinetypeTableRecord
  2
BORDER
 70
      64
  3
CADPAC LINETYPE
 72
      65
 73
       6
 40
81.42243843
 49
23.26355384
 74
       0
 49
-11.63177692
 74
       0
 49
23.26355384
 74
       0
 49
-11.63177692
 74
       0
 49
0.0
 74
       0
 49
-11.63177692
 74
       0
  0
LTYPE
  5
31
100
AcDbSymbolTableRecord
100
AcDbLinetypeTableRecord
  2
BORDER2
 70
      64
  3
CADPAC LINETYPE
 72
      65
 73
       6
 40
61.06682882
 49
17.44766538
 74
       0
 49
-8.72383269
 74
       0
 49
17.44766538
 74
       0
 49
-8.72383269
 74
       0
 49
0.0
 74
       0
 49
-8.72383269
 74
       0
  0
LTYPE
  5
32
100
AcDbSymbolTableRecord
100
AcDbLinetypeTableRecord
  2
PHANTOMX2
 70
      64
  3
CADPAC LINETYPE
 72
      65
 73
       6
 40
87.23832689
 49
29.0794423
 74
       0
 49
-11.63177692
 74
       0
 49
11.63177692
 74
       0
 49
-11.63177692
 74
       0
 49
11.63177692
 74
       0
 49
-11.63177692
 74
       0
  0
LTYPE
  5
33
100
AcDbSymbolTableRecord
100
AcDbLinetypeTableRecord
  2
PHANTOM
 70
      64
  3
CADPAC LINETYPE
 72
      65
 73
       6
 40
72.11701689
 49
23.26355384
 74
       0
 49
-11.63177692
 74
       0
 49
6.97906615
 74
       0
 49
-11.63177692
 74
       0
 49
6.97906615
 74
       0
 49
-11.63177692
 74
       0
  0
LTYPE
  5
34
100
AcDbSymbolTableRecord
100
AcDbLinetypeTableRecord
  2
PHANTOM2
 70
      64
  3
CADPAC LINETYPE
 72
      65
 73
       6
 40
61.64841767
 49
17.44766538
 74
       0
 49
-11.63177692
 74
       0
 49
4.65271077
 74
       0
 49
-11.63177692
 74
       0
 49
4.65271077
 74
       0
 49
-11.63177692
 74
       0
  0
LTYPE
  5
35
100
AcDbSymbolTableRecord
100
AcDbLinetypeTableRecord
  2
ACAD_ISO06W100
 70
      64
  3
CADPAC LINETYPE
 72
      65
 73
       8
 40
78.5144942
 49
29.0794423
 74
       0
 49
-14.53972115
 74
       0
 49
0.0
 74
       0
 49
-11.63177692
 74
       0
 49
0.0
 74
       0
 49
-11.63177692
 74
       0
 49
0.0
 74
       0
 49
-11.63177692
 74
       0
  0
LTYPE
  5
36
100
AcDbSymbolTableRecord
100
AcDbLinetypeTableRecord
  2
ACAD_ISO13W100
 70
      64
  3
CADPAC LINETYPE
 72
      65
 73
       8
 40
93.05421534
 49
23.26355384
 74
       0
 49
-11.63177692
 74
       0
 49
23.26355384
 74
       0
 49
-11.63177692
 74
       0
 49
0.0
 74
       0
 49
-11.63177692
 74
       0
 49
0.0
 74
       0
 49
-11.63177692
 74
       0
  0
LTYPE
  5
37
100
AcDbSymbolTableRecord
100
AcDbLinetypeTableRecord
  2
ACAD_ISO14W100
 70
      64
  3
CADPAC LINETYPE
 72
      65
 73
       8
 40
69.79066151
 49
23.26355384
 74
       0
 49
-11.63177692
 74
       0
 49
0.0
 74
       0
 49
-11.63177692
 74
       0
 49
0.0
 74
       0
 49
-11.63177692
 74
       0
 49
0.0
 74
       0
 49
-11.63177692
 74
       0
  0
ENDTAB
  0
TABLE
  2
LAYER
  5
2
100
AcDbSymbolTable
 70
       6
  0
LAYER
  5
14
100
AcDbSymbolTableRecord
100
AcDbLayerTableRecord
  2
0
 70
       0
 62
       7
  6
CONTINUOUS
  0
LAYER
  5
38
100
AcDbSymbolTableRecord
100
AcDbLayerTableRecord
  2
SLD-0_1
 70
       0
 62
       7
  6
CONTINUOUS
  0
LAYER
  5
39
100
AcDbSymbolTableRecord
100
AcDbLayerTableRecord
  2
SLD-0_2
 70
       0
 62
       7
  6
CONTINUOUS
  0
LAYER
  5
3A
100
AcDbSymbolTableRecord
100
AcDbLayerTableRecord
  2
SLD-0
 70
       0
 62
       7
  6
CONTINUOUS
  0
LAYER
  5
3B
100
AcDbSymbolTableRecord
100
AcDbLayerTableRecord
  2
SLD-0_0
 70
       0
 62
       7
  6
CONTINUOUS
  0
LAYER
  5
3C
100
AcDbSymbolTableRecord
100
AcDbLayerTableRecord
  2
レイヤー_1
 70
       0
 62
       7
  6
CONTINUOUS
  0
ENDTAB
  0
TABLE
  2
STYLE
  5
3
100
AcDbSymbolTable
 70
       1
  0
STYLE
  5
17
100
AcDbSymbolTableRecord
100
AcDbTextStyleTableRecord
  2
STANDARD
 70
       0
 40
0.0
 41
1.0
 50
0.0
 71
       0
 42
6.87916667
  3
txt.shx
  4
bigfont.shx
  0
ENDTAB
  0
TABLE
  2
VIEW
  5
5
100
AcDbSymbolTable
 70
       1
  0
VIEW
  5
3D
100
AcDbSymbolTableRecord
100
AcDbViewTableRecord
  2
QQQQ
 70
       0
 40
874.86683835
 10
0.0
 20
-3.11812054
 41
578.33075541
 11
0.0
 21
0.0
 31
1.0
 12
100.0
 22
100.0
 32
0.0
 42
50.0
 43
0.0
 44
0.0
 50
0.0
 71
       0
  0
ENDTAB
  0
TABLE
  2
UCS
  5
6
100
AcDbSymbolTable
 70
       0
  0
ENDTAB
  0
TABLE
  2
APPID
  5
8
100
AcDbSymbolTable
 70
       1
  0
APPID
  5
16
100
AcDbSymbolTableRecord
100
AcDbRegAppTableRecord
  2
ACAD
 70
       0
  0
ENDTAB
  0
TABLE
  2
DIMSTYLE
  5
9
100
AcDbSymbolTable
 70
       1
  0
DIMSTYLE
105
18
100
AcDbSymbolTableRecord
100
AcDbDimStyleTableRecord
  2
STANDARD
 70
       0
  3

  4

  5

  6

  7

 40
1.0
 41
0.18
 42
0.0625
 43
0.38
 44
0.18
 45
0.0
 46
0.0
 47
0.0
 48
0.0
 71
       0
 72
       0
 73
       1
 74
       1
 75
       0
 76
       0
 77
       0
 78
       0
140
0.18
141
0.09
142
0.0
143
25.4
144
1.0
145
0.0
146
1.0
147
0.09
170
       0
171
       2
172
       0
173
       0
174
       0
175
       0
176
       0
177
       0
178
       0
270
       2
271
       4
272
       4
273
       2
274
       2
275
       0
280
       0
281
       0
282
       0
283
       1
284
       0
285
       0
286
       0
287
       0
288
       0
340
17
  0
ENDTAB
  0
TABLE
  2
BLOCK_RECORD
  5
1
100
AcDbSymbolTable
 70
       0
  0
BLOCK_RECORD
  5
A
100
AcDbSymbolTableRecord
100
AcDbBlockTableRecord
  2
*MODEL_SPACE
  0
BLOCK_RECORD
  5
B
100
AcDbSymbolTableRecord
100
AcDbBlockTableRecord
  2
*PAPER_SPACE
  0
ENDTAB
  0
ENDSEC
  0
SECTION
  2
BLOCKS
  0
BLOCK
  5
D
100
AcDbEntity
  8
0
100
AcDbBlockBegin
  2
*MODEL_SPACE
 70
       0
 10
0.0
 20
0.0
 30
0.0
  3
*MODEL_SPACE
  1

  0
ENDBLK
  5
E
100
AcDbEntity
  8
0
100
AcDbBlockEnd
  0
BLOCK
  5
F
100
AcDbEntity
 67
       1
  8
0
100
AcDbBlockBegin
  2
*PAPER_SPACE
 70
       0
 10
0.0
 20
0.0
 30
0.0
  3
*PAPER_SPACE
  1

  0
ENDBLK
  5
10
100
AcDbEntity
 67
       1
  8
0
100
AcDbBlockEnd
  0
ENDSEC
  0
SECTION
  2
ENTITIES
  0
LINE
  5
3E
100
AcDbEntity
  8
レイヤー_1
  6
CONTINUOUS
 62
       7
100
AcDbLine
 10
-29.56981413
 20
-165.22242305
 30
0.0
 11
-26.5318713
 21
-165.22242305
 31
0.0
  0
LINE
  5
3F
100
AcDbEntity
  8
レイヤー_1
  6
CONTINUOUS
 62
       7
100
AcDbLine
 10
-26.5318713
 20
-165.22242305
 30
0.0
 11
-26.5318713
 21
-175.67991807
 31
0.0
  0
LINE
  5
40
100
AcDbEntity
  8
レイヤー_1
  6
CONTINUOUS
 62
       7
100
AcDbLine
 10
-26.5318713
 20
-175.67991807
 30
0.0
 11
-29.56981413
 21
-175.67991807
 31
0.0
  0
LINE
  5
41
100
AcDbEntity
  8
レイヤー_1
  6
CONTINUOUS
 62
       7
100
AcDbLine
 10
-93.02613709
 20
-154.57847657
 30
0.0
 11
-93.02613709
 21
-165.32780866
 31
0.0
  0
LINE
  5
42
100
AcDbEntity
  8
レイヤー_1
  6
CONTINUOUS
 62
       7
100
AcDbLine
 10
-93.02613709
 20
-165.32780866
 30
0.0
 11
-97.3317472
 21
-165.32780866
 31
0.0
  0
LINE
  5
43
100
AcDbEntity
  8
レイヤー_1
  6
CONTINUOUS
 62
       7
100
AcDbLine
 10
-97.3317472
 20
-165.32780866
 30
0.0
 11
-97.3317472
 21
-154.57847657
 31
0.0
  0
LINE
  5
44
100
AcDbEntity
  8
レイヤー_1
  6
CONTINUOUS
 62
       7
100
AcDbLine
 10
40.41332331
 20
-143.82813116
 30
0.0
 11
44.71792009
 21
-143.82813116
 31
0.0
  0
LINE
  5
45
100
AcDbEntity
  8
レイヤー_1
  6
CONTINUOUS
 62
       7
100
AcDbLine
 10
44.71792009
 20
-143.82813116
 30
0.0
 11
44.71792009
 21
-154.57847657
 31
0.0
  0
LINE
  5
46
100
AcDbEntity
  8
レイヤー_1
  6
CONTINUOUS
 62
       7
100
AcDbLine
 10
40.41332331
 20
-154.57847657
 30
0.0
 11
40.41332331
 21
-143.82813116
 31
0.0
  0
LINE
  5
47
100
AcDbEntity
  8
レイヤー_1
  6
CONTINUOUS
 62
       7
100
AcDbLine
 10
59.01590989
 20
-154.57847657
 30
0.0
 11
59.01590989
 21
-165.32780866
 31
0.0
  0
LINE
  5
48
100
AcDbEntity
  8
レイヤー_1
  6
CONTINUOUS
 62
       7
100
AcDbLine
 10
54.70928645
 20
-165.32780866
 30
0.0
 11
54.70928645
 21
-154.57847657
 31
0.0
  0
LINE
  5
49
100
AcDbEntity
  8
レイヤー_1
  6
CONTINUOUS
 62
       7
100
AcDbLine
 10
192.45638361
 20
-143.82813116
 30
0.0
 11
196.76098039
 21
-143.82813116
 31
0.0
  0
LINE
  5
4A
100
AcDbEntity
  8
レイヤー_1
  6
CONTINUOUS
 62
       7
100
AcDbLine
 10
196.76098039
 20
-143.82813116
 30
0.0
 11
196.76098039
 21
-154.57847657
 31
0.0
  0
LINE
  5
4B
100
AcDbEntity
  8
レイヤー_1
  6
CONTINUOUS
 62
       7
100
AcDbLine
 10
196.76098039
 20
-154.57847657
 30
0.0
 11
192.45638361
 21
-154.57847657
 31
0.0
  0
LINE
  5
4C
100
AcDbEntity
  8
レイヤー_1
  6
CONTINUOUS
 62
       7
100
AcDbLine
 10
192.45638361
 20
-154.57847657
 30
0.0
 11
192.45638361
 21
-143.82813116
 31
0.0
  0
LINE
  5
4D
100
AcDbEntity
  8
レイヤー_1
  6
CONTINUOUS
 62
       7
100
AcDbLine
 10
-87.35152739
 20
-306.74662111
 30
0.0
 11
-87.35152739
 21
-318.99769813
 31
0.0
  0
LINE
  5
4E
100
AcDbEntity
  8
レイヤー_1
  6
CONTINUOUS
 62
       7
100
AcDbLine
 10
-88.55130202
 20
-318.99769813
 30
0.0
 11
-88.55130202
 21
-306.74662111
 31
0.0
  0
LINE
  5
4F
100
AcDbEntity
  8
レイヤー_1
  6
CONTINUOUS
 62
       7
100
AcDbLine
 10
-83.09962341
 20
-318.99769813
 30
0.0
 11
-83.09962341
 21
-331.24674849
 31
0.0
  0
LINE
  5
50
100
AcDbEntity
  8
レイヤー_1
  6
CONTINUOUS
 62
       7
100
AcDbLine
 10
-84.29939803
 20
-331.24674849
 30
0.0
 11
-84.29939803
 21
-318.99769813
 31
0.0
  0
LINE
  5
51
100
AcDbEntity
  8
レイヤー_1
  6
CONTINUOUS
 62
       7
100
AcDbLine
 10
-74.59885542
 20
-318.99769813
 30
0.0
 11
-74.59885542
 21
-331.24674849
 31
0.0
  0
LINE
  5
52
100
AcDbEntity
  8
レイヤー_1
  6
CONTINUOUS
 62
       7
100
AcDbLine
 10
-75.80065669
 20
-331.24674849
 30
0.0
 11
-75.80065669
 21
-318.99769813
 31
0.0
  0
LINE
  5
53
100
AcDbEntity
  8
レイヤー_1
  6
CONTINUOUS
 62
       7
100
AcDbLine
 10
-66.09910075
 20
-318.99769813
 30
0.0
 11
-66.09910075
 21
-331.24674849
 31
0.0
  0
LINE
  5
54
100
AcDbEntity
  8
レイヤー_1
  6
CONTINUOUS
 62
       7
100
AcDbLine
 10
-67.30090202
 20
-331.24674849
 30
0.0
 11
-67.30090202
 21
-318.99769813
 31
0.0
  0
LINE
  5
55
100
AcDbEntity
  8
レイヤー_1
  6
CONTINUOUS
 62
       7
100
AcDbLine
 10
-57.59833275
 20
-318.99769813
 30
0.0
 11
-57.59833275
 21
-331.24674849
 31
0.0
  0
LINE
  5
56
100
AcDbEntity
  8
レイヤー_1
  6
CONTINUOUS
 62
       7
100
AcDbLine
 10
-58.80013402
 20
-331.24674849
 30
0.0
 11
-58.80013402
 21
-318.99769813
 31
0.0
  0
LINE
  5
57
100
AcDbEntity
  8
レイヤー_1
  6
CONTINUOUS
 62
       7
100
AcDbLine
 10
-49.10060473
 20
-318.99769813
 30
0.0
 11
-49.10060473
 21
-331.24674849
 31
0.0
  0
LINE
  5
58
100
AcDbEntity
  8
レイヤー_1
  6
CONTINUOUS
 62
       7
100
AcDbLine
 10
-50.29936603
 20
-331.24674849
 30
0.0
 11
-50.29936603
 21
-318.99769813
 31
0.0
  0
LINE
  5
59
100
AcDbEntity
  8
レイヤー_1
  6
CONTINUOUS
 62
       7
100
AcDbLine
 10
-40.59983673
 20
-318.99769813
 30
0.0
 11
-40.59983673
 21
-331.24674849
 31
0.0
  0
LINE
  5
5A
100
AcDbEntity
  8
レイヤー_1
  6
CONTINUOUS
 62
       7
100
AcDbLine
 10
-41.79961136
 20
-331.24674849
 30
0.0
 11
-41.79961136
 21
-318.99769813
 31
0.0
  0
LINE
  5
5B
100
AcDbEntity
  8
レイヤー_1
  6
CONTINUOUS
 62
       7
100
AcDbLine
 10
-32.10008206
 20
-318.99769813
 30
0.0
 11
-32.10008206
 21
-331.24674849
 31
0.0
  0
LINE
  5
5C
100
AcDbEntity
  8
レイヤー_1
  6
CONTINUOUS
 62
       7
100
AcDbLine
 10
-33.29884336
 20
-331.24674849
 30
0.0
 11
-33.29884336
 21
-318.99769813
 31
0.0
  0
LINE
  5
5D
100
AcDbEntity
  8
レイヤー_1
  6
CONTINUOUS
 62
       7
100
AcDbLine
 10
-23.59931407
 20
-318.99769813
 30
0.0
 11
-23.59931407
 21
-331.24674849
 31
0.0
  0
LINE
  5
5E
100
AcDbEntity
  8
レイヤー_1
  6
CONTINUOUS
 62
       7
100
AcDbLine
 10
-24.80111534
 20
-331.24674849
 30
0.0
 11
-24.80111534
 21
-318.99769813
 31
0.0
  0
LINE
  5
5F
100
AcDbEntity
  8
レイヤー_1
  6
CONTINUOUS
 62
       7
100
AcDbLine
 10
-15.10057272
 20
-318.99769813
 30
0.0
 11
-15.10057272
 21
-331.24674849
 31
0.0
  0
LINE
  5
60
100
AcDbEntity
  8
レイヤー_1
  6
CONTINUOUS
 62
       7
100
AcDbLine
 10
-16.30034734
 20
-331.24674849
 30
0.0
 11
-16.30034734
 21
-318.99769813
 31
0.0
  0
LINE
  5
61
100
AcDbEntity
  8
レイヤー_1
  6
CONTINUOUS
 62
       7
100
AcDbLine
 10
-6.60081805
 20
-318.99769813
 30
0.0
 11
-6.60081805
 21
-331.24674849
 31
0.0
  0
LINE
  5
62
100
AcDbEntity
  8
レイヤー_1
  6
CONTINUOUS
 62
       7
100
AcDbLine
 10
-7.80059267
 20
-331.24674849
 30
0.0
 11
-7.80059267
 21
-318.99769813
 31
0.0
  0
LINE
  5
63
100
AcDbEntity
  8
レイヤー_1
  6
CONTINUOUS
 62
       7
100
AcDbLine
 10
1.89893662
 20
-318.99769813
 30
0.0
 11
1.89893662
 21
-331.24674849
 31
0.0
  0
LINE
  5
64
100
AcDbEntity
  8
レイヤー_1
  6
CONTINUOUS
 62
       7
100
AcDbLine
 10
0.70118864
 20
-331.24674849
 30
0.0
 11
0.70118864
 21
-318.99769813
 31
0.0
  0
LINE
  5
65
100
AcDbEntity
  8
レイヤー_1
  6
CONTINUOUS
 62
       7
100
AcDbLine
 10
10.40071794
 20
-318.99769813
 30
0.0
 11
10.40071794
 21
-331.24674849
 31
0.0
  0
LINE
  5
66
100
AcDbEntity
  8
レイヤー_1
  6
CONTINUOUS
 62
       7
100
AcDbLine
 10
9.20094331
 20
-331.24674849
 30
0.0
 11
9.20094331
 21
-318.99769813
 31
0.0
  0
LINE
  5
67
100
AcDbEntity
  8
レイヤー_1
  6
CONTINUOUS
 62
       7
100
AcDbLine
 10
18.90047261
 20
-318.99769813
 30
0.0
 11
18.90047261
 21
-331.24674849
 31
0.0
  0
LINE
  5
68
100
AcDbEntity
  8
レイヤー_1
  6
CONTINUOUS
 62
       7
100
AcDbLine
 10
17.70069798
 20
-331.24674849
 30
0.0
 11
17.70069798
 21
-318.99769813
 31
0.0
  0
LINE
  5
69
100
AcDbEntity
  8
レイヤー_1
  6
CONTINUOUS
 62
       7
100
AcDbLine
 10
27.40022728
 20
-318.99769813
 30
0.0
 11
27.40022728
 21
-331.24674849
 31
0.0
  0
LINE
  5
6A
100
AcDbEntity
  8
レイヤー_1
  6
CONTINUOUS
 62
       7
100
AcDbLine
 10
26.20045266
 20
-331.24674849
 30
0.0
 11
26.20045266
 21
-318.99769813
 31
0.0
  0
LINE
  5
6B
100
AcDbEntity
  8
レイヤー_1
  6
CONTINUOUS
 62
       7
100
AcDbLine
 10
35.90200859
 20
-318.99769813
 30
0.0
 11
35.90200859
 21
-331.24674849
 31
0.0
  0
LINE
  5
6C
100
AcDbEntity
  8
レイヤー_1
  6
CONTINUOUS
 62
       7
100
AcDbLine
 10
34.70020733
 20
-331.24674849
 30
0.0
 11
34.70020733
 21
-318.99769813
 31
0.0
  0
LINE
  5
6D
100
AcDbEntity
  8
レイヤー_1
  6
CONTINUOUS
 62
       7
100
AcDbLine
 10
-78.85177272
 20
-306.74662111
 30
0.0
 11
-78.85177272
 21
-318.99769813
 31
0.0
  0
LINE
  5
6E
100
AcDbEntity
  8
レイヤー_1
  6
CONTINUOUS
 62
       7
100
AcDbLine
 10
-80.05154734
 20
-318.99769813
 30
0.0
 11
-80.05154734
 21
-306.74662111
 31
0.0
  0
LINE
  5
6F
100
AcDbEntity
  8
レイヤー_1
  6
CONTINUOUS
 62
       7
100
AcDbLine
 10
-70.35100473
 20
-306.74662111
 30
0.0
 11
-70.35100473
 21
-318.99769813
 31
0.0
  0
LINE
  5
70
100
AcDbEntity
  8
レイヤー_1
  6
CONTINUOUS
 62
       7
100
AcDbLine
 10
-71.55077935
 20
-318.99769813
 30
0.0
 11
-71.55077935
 21
-306.74662111
 31
0.0
  0
LINE
  5
71
100
AcDbEntity
  8
レイヤー_1
  6
CONTINUOUS
 62
       7
100
AcDbLine
 10
-61.85125006
 20
-306.74662111
 30
0.0
 11
-61.85125006
 21
-318.99769813
 31
0.0
  0
LINE
  5
72
100
AcDbEntity
  8
レイヤー_1
  6
CONTINUOUS
 62
       7
100
AcDbLine
 10
-63.05001136
 20
-318.99769813
 30
0.0
 11
-63.05001136
 21
-306.74662111
 31
0.0
  0
LINE
  5
73
100
AcDbEntity
  8
レイヤー_1
  6
CONTINUOUS
 62
       7
100
AcDbLine
 10
-53.35048206
 20
-306.74662111
 30
0.0
 11
-53.35048206
 21
-318.99769813
 31
0.0
  0
LINE
  5
74
100
AcDbEntity
  8
レイヤー_1
  6
CONTINUOUS
 62
       7
100
AcDbLine
 10
-54.55025669
 20
-318.99769813
 30
0.0
 11
-54.55025669
 21
-306.74662111
 31
0.0
  0
LINE
  5
75
100
AcDbEntity
  8
レイヤー_1
  6
CONTINUOUS
 62
       7
100
AcDbLine
 10
-44.84971407
 20
-306.74662111
 30
0.0
 11
-44.84971407
 21
-318.99769813
 31
0.0
  0
LINE
  5
76
100
AcDbEntity
  8
レイヤー_1
  6
CONTINUOUS
 62
       7
100
AcDbLine
 10
-46.04948869
 20
-318.99769813
 30
0.0
 11
-46.04948869
 21
-306.74662111
 31
0.0
  0
LINE
  5
77
100
AcDbEntity
  8
レイヤー_1
  6
CONTINUOUS
 62
       7
100
AcDbLine
 10
-36.3499594
 20
-306.74662111
 30
0.0
 11
-36.3499594
 21
-318.99769813
 31
0.0
  0
LINE
  5
78
100
AcDbEntity
  8
レイヤー_1
  6
CONTINUOUS
 62
       7
100
AcDbLine
 10
-37.55176067
 20
-318.99769813
 30
0.0
 11
-37.55176067
 21
-306.74662111
 31
0.0
  0
LINE
  5
79
100
AcDbEntity
  8
レイヤー_1
  6
CONTINUOUS
 62
       7
100
AcDbLine
 10
-27.85121805
 20
-306.74662111
 30
0.0
 11
-27.85121805
 21
-318.99769813
 31
0.0
  0
LINE
  5
7A
100
AcDbEntity
  8
レイヤー_1
  6
CONTINUOUS
 62
       7
100
AcDbLine
 10
-29.05099267
 20
-318.99769813
 30
0.0
 11
-29.05099267
 21
-306.74662111
 31
0.0
  0
LINE
  5
7B
100
AcDbEntity
  8
レイヤー_1
  6
CONTINUOUS
 62
       7
100
AcDbLine
 10
-19.35146338
 20
-306.74662111
 30
0.0
 11
-19.35146338
 21
-318.99769813
 31
0.0
  0
LINE
  5
7C
100
AcDbEntity
  8
レイヤー_1
  6
CONTINUOUS
 62
       7
100
AcDbLine
 10
-20.55022468
 20
-318.99769813
 30
0.0
 11
-20.55022468
 21
-306.74662111
 31
0.0
  0
LINE
  5
7D
100
AcDbEntity
  8
レイヤー_1
  6
CONTINUOUS
 62
       7
100
AcDbLine
 10
-10.85069539
 20
-306.74662111
 30
0.0
 11
-10.85069539
 21
-318.99769813
 31
0.0
  0
LINE
  5
7E
100
AcDbEntity
  8
レイヤー_1
  6
CONTINUOUS
 62
       7
100
AcDbLine
 10
-12.05249666
 20
-318.99769813
 30
0.0
 11
-12.05249666
 21
-306.74662111
 31
0.0
  0
LINE
  5
7F
100
AcDbEntity
  8
レイヤー_1
  6
CONTINUOUS
 62
       7
100
AcDbLine
 10
-2.35094072
 20
-306.74662111
 30
0.0
 11
-2.35094072
 21
-318.99769813
 31
0.0
  0
LINE
  5
80
100
AcDbEntity
  8
レイヤー_1
  6
CONTINUOUS
 62
       7
100
AcDbLine
 10
-3.55274198
 20
-318.99769813
 30
0.0
 11
-3.55274198
 21
-306.74662111
 31
0.0
  0
LINE
  5
81
100
AcDbEntity
  8
レイヤー_1
  6
CONTINUOUS
 62
       7
100
AcDbLine
 10
6.1508406
 20
-306.74662111
 30
0.0
 11
6.1508406
 21
-318.99769813
 31
0.0
  0
LINE
  5
82
100
AcDbEntity
  8
レイヤー_1
  6
CONTINUOUS
 62
       7
100
AcDbLine
 10
4.94903933
 20
-318.99769813
 30
0.0
 11
4.94903933
 21
-306.74662111
 31
0.0
  0
LINE
  5
83
100
AcDbEntity
  8
レイヤー_1
  6
CONTINUOUS
 62
       7
100
AcDbLine
 10
14.65059527
 20
-306.74662111
 30
0.0
 11
14.65059527
 21
-318.99769813
 31
0.0
  0
LINE
  5
84
100
AcDbEntity
  8
レイヤー_1
  6
CONTINUOUS
 62
       7
100
AcDbLine
 10
13.448794
 20
-318.99769813
 30
0.0
 11
13.448794
 21
-306.74662111
 31
0.0
  0
LINE
  5
85
100
AcDbEntity
  8
レイヤー_1
  6
CONTINUOUS
 62
       7
100
AcDbLine
 10
23.1483233
 20
-306.74662111
 30
0.0
 11
23.1483233
 21
-318.99769813
 31
0.0
  0
LINE
  5
86
100
AcDbEntity
  8
レイヤー_1
  6
CONTINUOUS
 62
       7
100
AcDbLine
 10
21.94854867
 20
-318.99769813
 30
0.0
 11
21.94854867
 21
-306.74662111
 31
0.0
  0
LINE
  5
87
100
AcDbEntity
  8
レイヤー_1
  6
CONTINUOUS
 62
       7
100
AcDbLine
 10
31.64807797
 20
-306.74662111
 30
0.0
 11
31.64807797
 21
-318.99769813
 31
0.0
  0
LINE
  5
88
100
AcDbEntity
  8
レイヤー_1
  6
CONTINUOUS
 62
       7
100
AcDbLine
 10
30.45032999
 20
-318.99769813
 30
0.0
 11
30.45032999
 21
-306.74662111
 31
0.0
  0
LINE
  5
89
100
AcDbEntity
  8
レイヤー_1
  6
CONTINUOUS
 62
       7
100
AcDbLine
 10
38.95008466
 20
-306.74662111
 30
0.0
 11
44.69765363
 21
-306.74662111
 31
0.0
  0
LINE
  5
8A
100
AcDbEntity
  8
レイヤー_1
  6
CONTINUOUS
 62
       7
100
AcDbLine
 10
44.69765363
 20
-306.74662111
 30
0.0
 11
44.69765363
 21
-318.99769813
 31
0.0
  0
LINE
  5
8B
100
AcDbEntity
  8
レイヤー_1
  6
CONTINUOUS
 62
       7
100
AcDbLine
 10
38.95008466
 20
-318.99769813
 30
0.0
 11
38.95008466
 21
-306.74662111
 31
0.0
  0
LINE
  5
8C
100
AcDbEntity
  8
レイヤー_1
  6
CONTINUOUS
 62
       7
100
AcDbLine
 10
-91.60039141
 20
-318.99769813
 30
0.0
 11
-91.60039141
 21
-331.24674849
 31
0.0
  0
LINE
  5
8D
100
AcDbEntity
  8
レイヤー_1
  6
CONTINUOUS
 62
       7
100
AcDbLine
 10
-91.60039141
 20
-331.24674849
 30
0.0
 11
-97.3489737
 21
-331.24674849
 31
0.0
  0
LINE
  5
8E
100
AcDbEntity
  8
レイヤー_1
  6
CONTINUOUS
 62
       7
100
AcDbLine
 10
-97.3489737
 20
-331.24674849
 30
0.0
 11
-97.3489737
 21
-318.99769813
 31
0.0
  0
LINE
  5
8F
100
AcDbEntity
  8
レイヤー_1
  6
CONTINUOUS
 62
       7
100
AcDbLine
 10
43.199962
 20
-318.99769813
 30
0.0
 11
43.199962
 21
-331.24674849
 31
0.0
  0
LINE
  5
90
100
AcDbEntity
  8
レイヤー_1
  6
CONTINUOUS
 62
       7
100
AcDbLine
 10
64.67633306
 20
-306.74662111
 30
0.0
 11
64.67633306
 21
-318.99769813
 31
0.0
  0
LINE
  5
91
100
AcDbEntity
  8
レイヤー_1
  6
CONTINUOUS
 62
       7
100
AcDbLine
 10
63.47858509
 20
-318.99769813
 30
0.0
 11
63.47858509
 21
-306.74662111
 31
0.0
  0
LINE
  5
92
100
AcDbEntity
  8
レイヤー_1
  6
CONTINUOUS
 62
       7
100
AcDbLine
 10
68.92823704
 20
-318.99769813
 30
0.0
 11
68.92823704
 21
-331.24674849
 31
0.0
  0
LINE
  5
93
100
AcDbEntity
  8
レイヤー_1
  6
CONTINUOUS
 62
       7
100
AcDbLine
 10
67.72643577
 20
-331.24674849
 30
0.0
 11
67.72643577
 21
-318.99769813
 31
0.0
  0
LINE
  5
94
100
AcDbEntity
  8
レイヤー_1
  6
CONTINUOUS
 62
       7
100
AcDbLine
 10
77.42596507
 20
-318.99769813
 30
0.0
 11
77.42596507
 21
-331.24674849
 31
0.0
  0
LINE
  5
95
100
AcDbEntity
  8
レイヤー_1
  6
CONTINUOUS
 62
       7
100
AcDbLine
 10
76.22619045
 20
-331.24674849
 30
0.0
 11
76.22619045
 21
-318.99769813
 31
0.0
  0
LINE
  5
96
100
AcDbEntity
  8
レイヤー_1
  6
CONTINUOUS
 62
       7
100
AcDbLine
 10
85.92571974
 20
-318.99769813
 30
0.0
 11
85.92571974
 21
-331.24674849
 31
0.0
  0
LINE
  5
97
100
AcDbEntity
  8
レイヤー_1
  6
CONTINUOUS
 62
       7
100
AcDbLine
 10
84.72594512
 20
-331.24674849
 30
0.0
 11
84.72594512
 21
-318.99769813
 31
0.0
  0
LINE
  5
98
100
AcDbEntity
  8
レイヤー_1
  6
CONTINUOUS
 62
       7
100
AcDbLine
 10
94.42547441
 20
-318.99769813
 30
0.0
 11
94.42547441
 21
-331.24674849
 31
0.0
  0
LINE
  5
99
100
AcDbEntity
  8
レイヤー_1
  6
CONTINUOUS
 62
       7
100
AcDbLine
 10
93.22772643
 20
-331.24674849
 30
0.0
 11
93.22772643
 21
-318.99769813
 31
0.0
  0
LINE
  5
9A
100
AcDbEntity
  8
レイヤー_1
  6
CONTINUOUS
 62
       7
100
AcDbLine
 10
102.92522908
 20
-318.99769813
 30
0.0
 11
102.92522908
 21
-331.24674849
 31
0.0
  0
LINE
  5
9B
100
AcDbEntity
  8
レイヤー_1
  6
CONTINUOUS
 62
       7
100
AcDbLine
 10
101.72545446
 20
-331.24674849
 30
0.0
 11
101.72545446
 21
-318.99769813
 31
0.0
  0
LINE
  5
9C
100
AcDbEntity
  8
レイヤー_1
  6
CONTINUOUS
 62
       7
100
AcDbLine
 10
111.42498375
 20
-318.99769813
 30
0.0
 11
111.42498375
 21
-331.24674849
 31
0.0
  0
LINE
  5
9D
100
AcDbEntity
  8
レイヤー_1
  6
CONTINUOUS
 62
       7
100
AcDbLine
 10
110.22723577
 20
-331.24674849
 30
0.0
 11
110.22723577
 21
-318.99769813
 31
0.0
  0
LINE
  5
9E
100
AcDbEntity
  8
レイヤー_1
  6
CONTINUOUS
 62
       7
100
AcDbLine
 10
119.92676507
 20
-318.99769813
 30
0.0
 11
119.92676507
 21
-331.24674849
 31
0.0
  0
LINE
  5
9F
100
AcDbEntity
  8
レイヤー_1
  6
CONTINUOUS
 62
       7
100
AcDbLine
 10
118.72699045
 20
-331.24674849
 30
0.0
 11
118.72699045
 21
-318.99769813
 31
0.0
  0
LINE
  5
A0
100
AcDbEntity
  8
レイヤー_1
  6
CONTINUOUS
 62
       7
100
AcDbLine
 10
128.42651974
 20
-318.99769813
 30
0.0
 11
128.42651974
 21
-331.24674849
 31
0.0
  0
LINE
  5
A1
100
AcDbEntity
  8
レイヤー_1
  6
CONTINUOUS
 62
       7
100
AcDbLine
 10
127.22674512
 20
-331.24674849
 30
0.0
 11
127.22674512
 21
-318.99769813
 31
0.0
  0
LINE
  5
A2
100
AcDbEntity
  8
レイヤー_1
  6
CONTINUOUS
 62
       7
100
AcDbLine
 10
136.92627441
 20
-318.99769813
 30
0.0
 11
136.92627441
 21
-331.24674849
 31
0.0
  0
LINE
  5
A3
100
AcDbEntity
  8
レイヤー_1
  6
CONTINUOUS
 62
       7
100
AcDbLine
 10
135.72649979
 20
-331.24674849
 30
0.0
 11
135.72649979
 21
-318.99769813
 31
0.0
  0
LINE
  5
A4
100
AcDbEntity
  8
レイヤー_1
  6
CONTINUOUS
 62
       7
100
AcDbLine
 10
145.42602908
 20
-318.99769813
 30
0.0
 11
145.42602908
 21
-331.24674849
 31
0.0
  0
LINE
  5
A5
100
AcDbEntity
  8
レイヤー_1
  6
CONTINUOUS
 62
       7
100
AcDbLine
 10
144.22625446
 20
-331.24674849
 30
0.0
 11
144.22625446
 21
-318.99769813
 31
0.0
  0
LINE
  5
A6
100
AcDbEntity
  8
レイヤー_1
  6
CONTINUOUS
 62
       7
100
AcDbLine
 10
153.9278104
 20
-318.99769813
 30
0.0
 11
153.9278104
 21
-331.24674849
 31
0.0
  0
LINE
  5
A7
100
AcDbEntity
  8
レイヤー_1
  6
CONTINUOUS
 62
       7
100
AcDbLine
 10
152.72600913
 20
-331.24674849
 30
0.0
 11
152.72600913
 21
-318.99769813
 31
0.0
  0
LINE
  5
A8
100
AcDbEntity
  8
レイヤー_1
  6
CONTINUOUS
 62
       7
100
AcDbLine
 10
162.42553842
 20
-318.99769813
 30
0.0
 11
162.42553842
 21
-331.24674849
 31
0.0
  0
LINE
  5
A9
100
AcDbEntity
  8
レイヤー_1
  6
CONTINUOUS
 62
       7
100
AcDbLine
 10
161.22779045
 20
-331.24674849
 30
0.0
 11
161.22779045
 21
-318.99769813
 31
0.0
  0
LINE
  5
AA
100
AcDbEntity
  8
レイヤー_1
  6
CONTINUOUS
 62
       7
100
AcDbLine
 10
170.92731974
 20
-318.99769813
 30
0.0
 11
170.92731974
 21
-331.24674849
 31
0.0
  0
LINE
  5
AB
100
AcDbEntity
  8
レイヤー_1
  6
CONTINUOUS
 62
       7
100
AcDbLine
 10
169.72551847
 20
-331.24674849
 30
0.0
 11
169.72551847
 21
-318.99769813
 31
0.0
  0
LINE
  5
AC
100
AcDbEntity
  8
レイヤー_1
  6
CONTINUOUS
 62
       7
100
AcDbLine
 10
179.42504776
 20
-318.99769813
 30
0.0
 11
179.42504776
 21
-331.24674849
 31
0.0
  0
LINE
  5
AD
100
AcDbEntity
  8
レイヤー_1
  6
CONTINUOUS
 62
       7
100
AcDbLine
 10
178.22729979
 20
-331.24674849
 30
0.0
 11
178.22729979
 21
-318.99769813
 31
0.0
  0
LINE
  5
AE
100
AcDbEntity
  8
レイヤー_1
  6
CONTINUOUS
 62
       7
100
AcDbLine
 10
187.92885573
 20
-318.99769813
 30
0.0
 11
187.92885573
 21
-331.24674849
 31
0.0
  0
LINE
  5
AF
100
AcDbEntity
  8
レイヤー_1
  6
CONTINUOUS
 62
       7
100
AcDbLine
 10
186.72705446
 20
-331.24674849
 30
0.0
 11
186.72705446
 21
-318.99769813
 31
0.0
  0
LINE
  5
B0
100
AcDbEntity
  8
レイヤー_1
  6
CONTINUOUS
 62
       7
100
AcDbLine
 10
73.17811438
 20
-306.74662111
 30
0.0
 11
73.17811438
 21
-318.99769813
 31
0.0
  0
LINE
  5
B1
100
AcDbEntity
  8
レイヤー_1
  6
CONTINUOUS
 62
       7
100
AcDbLine
 10
71.97631311
 20
-318.99769813
 30
0.0
 11
71.97631311
 21
-306.74662111
 31
0.0
  0
LINE
  5
B2
100
AcDbEntity
  8
レイヤー_1
  6
CONTINUOUS
 62
       7
100
AcDbLine
 10
81.6758424
 20
-306.74662111
 30
0.0
 11
81.6758424
 21
-318.99769813
 31
0.0
  0
LINE
  5
B3
100
AcDbEntity
  8
レイヤー_1
  6
CONTINUOUS
 62
       7
100
AcDbLine
 10
80.47809443
 20
-318.99769813
 30
0.0
 11
80.47809443
 21
-306.74662111
 31
0.0
  0
LINE
  5
B4
100
AcDbEntity
  8
レイヤー_1
  6
CONTINUOUS
 62
       7
100
AcDbLine
 10
90.17762372
 20
-306.74662111
 30
0.0
 11
90.17762372
 21
-318.99769813
 31
0.0
  0
LINE
  5
B5
100
AcDbEntity
  8
レイヤー_1
  6
CONTINUOUS
 62
       7
100
AcDbLine
 10
88.9778491
 20
-318.99769813
 30
0.0
 11
88.9778491
 21
-306.74662111
 31
0.0
  0
LINE
  5
B6
100
AcDbEntity
  8
レイヤー_1
  6
CONTINUOUS
 62
       7
100
AcDbLine
 10
98.67737839
 20
-306.74662111
 30
0.0
 11
98.67737839
 21
-318.99769813
 31
0.0
  0
LINE
  5
B7
100
AcDbEntity
  8
レイヤー_1
  6
CONTINUOUS
 62
       7
100
AcDbLine
 10
97.47760377
 20
-318.99769813
 30
0.0
 11
97.47760377
 21
-306.74662111
 31
0.0
  0
LINE
  5
B8
100
AcDbEntity
  8
レイヤー_1
  6
CONTINUOUS
 62
       7
100
AcDbLine
 10
107.17510642
 20
-306.74662111
 30
0.0
 11
107.17510642
 21
-318.99769813
 31
0.0
  0
LINE
  5
B9
100
AcDbEntity
  8
レイヤー_1
  6
CONTINUOUS
 62
       7
100
AcDbLine
 10
105.97735844
 20
-318.99769813
 30
0.0
 11
105.97735844
 21
-306.74662111
 31
0.0
  0
LINE
  5
BA
100
AcDbEntity
  8
レイヤー_1
  6
CONTINUOUS
 62
       7
100
AcDbLine
 10
115.67688773
 20
-306.74662111
 30
0.0
 11
115.67688773
 21
-318.99769813
 31
0.0
  0
LINE
  5
BB
100
AcDbEntity
  8
レイヤー_1
  6
CONTINUOUS
 62
       7
100
AcDbLine
 10
114.47711311
 20
-318.99769813
 30
0.0
 11
114.47711311
 21
-306.74662111
 31
0.0
  0
LINE
  5
BC
100
AcDbEntity
  8
レイヤー_1
  6
CONTINUOUS
 62
       7
100
AcDbLine
 10
124.17866905
 20
-306.74662111
 30
0.0
 11
124.17866905
 21
-318.99769813
 31
0.0
  0
LINE
  5
BD
100
AcDbEntity
  8
レイヤー_1
  6
CONTINUOUS
 62
       7
100
AcDbLine
 10
122.97889443
 20
-318.99769813
 30
0.0
 11
122.97889443
 21
-306.74662111
 31
0.0
  0
LINE
  5
BE
100
AcDbEntity
  8
レイヤー_1
  6
CONTINUOUS
 62
       7
100
AcDbLine
 10
132.67437043
 20
-306.74662111
 30
0.0
 11
132.67437043
 21
-318.99769813
 31
0.0
  0
LINE
  5
BF
100
AcDbEntity
  8
レイヤー_1
  6
CONTINUOUS
 62
       7
100
AcDbLine
 10
131.47662245
 20
-318.99769813
 30
0.0
 11
131.47662245
 21
-306.74662111
 31
0.0
  0
LINE
  5
C0
100
AcDbEntity
  8
レイヤー_1
  6
CONTINUOUS
 62
       7
100
AcDbLine
 10
141.17817839
 20
-306.74662111
 30
0.0
 11
141.17817839
 21
-318.99769813
 31
0.0
  0
LINE
  5
C1
100
AcDbEntity
  8
レイヤー_1
  6
CONTINUOUS
 62
       7
100
AcDbLine
 10
139.97637712
 20
-318.99769813
 30
0.0
 11
139.97637712
 21
-306.74662111
 31
0.0
  0
LINE
  5
C2
100
AcDbEntity
  8
レイヤー_1
  6
CONTINUOUS
 62
       7
100
AcDbLine
 10
149.67590642
 20
-306.74662111
 30
0.0
 11
149.67590642
 21
-318.99769813
 31
0.0
  0
LINE
  5
C3
100
AcDbEntity
  8
レイヤー_1
  6
CONTINUOUS
 62
       7
100
AcDbLine
 10
148.47613179
 20
-318.99769813
 30
0.0
 11
148.47613179
 21
-306.74662111
 31
0.0
  0
LINE
  5
C4
100
AcDbEntity
  8
レイヤー_1
  6
CONTINUOUS
 62
       7
100
AcDbLine
 10
158.17566109
 20
-306.74662111
 30
0.0
 11
158.17566109
 21
-318.99769813
 31
0.0
  0
LINE
  5
C5
100
AcDbEntity
  8
レイヤー_1
  6
CONTINUOUS
 62
       7
100
AcDbLine
 10
156.97588646
 20
-318.99769813
 30
0.0
 11
156.97588646
 21
-306.74662111
 31
0.0
  0
LINE
  5
C6
100
AcDbEntity
  8
レイヤー_1
  6
CONTINUOUS
 62
       7
100
AcDbLine
 10
166.67946905
 20
-306.74662111
 30
0.0
 11
166.67946905
 21
-318.99769813
 31
0.0
  0
LINE
  5
C7
100
AcDbEntity
  8
レイヤー_1
  6
CONTINUOUS
 62
       7
100
AcDbLine
 10
165.47564113
 20
-318.99769813
 30
0.0
 11
165.47564113
 21
-306.74662111
 31
0.0
  0
LINE
  5
C8
100
AcDbEntity
  8
レイヤー_1
  6
CONTINUOUS
 62
       7
100
AcDbLine
 10
175.17719707
 20
-306.74662111
 30
0.0
 11
175.17719707
 21
-318.99769813
 31
0.0
  0
LINE
  5
C9
100
AcDbEntity
  8
レイヤー_1
  6
CONTINUOUS
 62
       7
100
AcDbLine
 10
173.97539581
 20
-318.99769813
 30
0.0
 11
173.97539581
 21
-306.74662111
 31
0.0
  0
LINE
  5
CA
100
AcDbEntity
  8
レイヤー_1
  6
CONTINUOUS
 62
       7
100
AcDbLine
 10
183.6749251
 20
-306.74662111
 30
0.0
 11
183.6749251
 21
-318.99769813
 31
0.0
  0
LINE
  5
CB
100
AcDbEntity
  8
レイヤー_1
  6
CONTINUOUS
 62
       7
100
AcDbLine
 10
182.47515048
 20
-318.99769813
 30
0.0
 11
182.47515048
 21
-306.74662111
 31
0.0
  0
LINE
  5
CC
100
AcDbEntity
  8
レイヤー_1
  6
CONTINUOUS
 62
       7
100
AcDbLine
 10
190.97490515
 20
-306.74662111
 30
0.0
 11
196.72652741
 21
-306.74662111
 31
0.0
  0
LINE
  5
CD
100
AcDbEntity
  8
レイヤー_1
  6
CONTINUOUS
 62
       7
100
AcDbLine
 10
196.72652741
 20
-306.74662111
 30
0.0
 11
196.72652741
 21
-318.99769813
 31
0.0
  0
LINE
  5
CE
100
AcDbEntity
  8
レイヤー_1
  6
CONTINUOUS
 62
       7
100
AcDbLine
 10
190.97490515
 20
-318.99769813
 30
0.0
 11
190.97490515
 21
-306.74662111
 31
0.0
  0
LINE
  5
CF
100
AcDbEntity
  8
レイヤー_1
  6
CONTINUOUS
 62
       7
100
AcDbLine
 10
60.42645573
 20
-318.99769813
 30
0.0
 11
60.42645573
 21
-331.24674849
 31
0.0
  0
LINE
  5
D0
100
AcDbEntity
  8
レイヤー_1
  6
CONTINUOUS
 62
       7
100
AcDbLine
 10
60.42645573
 20
-331.24674849
 30
0.0
 11
54.67888676
 21
-331.24674849
 31
0.0
  0
LINE
  5
D1
100
AcDbEntity
  8
レイヤー_1
  6
CONTINUOUS
 62
       7
100
AcDbLine
 10
54.67888676
 20
-331.24674849
 30
0.0
 11
54.67888676
 21
-318.99769813
 31
0.0
  0
LINE
  5
D2
100
AcDbEntity
  8
レイヤー_1
  6
CONTINUOUS
 62
       7
100
AcDbLine
 10
195.22478248
 20
-318.99769813
 30
0.0
 11
195.22478248
 21
-331.24674849
 31
0.0
  0
LINE
  5
D3
100
AcDbEntity
  8
レイヤー_1
  6
CONTINUOUS
 62
       7
100
AcDbLine
 10
-31.06851909
 20
-159.82850387
 30
0.0
 11
-29.06720584
 21
-154.86018041
 31
0.0
  0
LINE
  5
D4
100
AcDbEntity
  8
レイヤー_1
  6
CONTINUOUS
 62
       7
100
AcDbLine
 10
-29.06720584
 20
-154.86018041
 30
0.0
 11
-35.31839642
 21
-154.86018041
 31
0.0
  0
LINE
  5
D5
100
AcDbEntity
  8
レイヤー_1
  6
CONTINUOUS
 62
       7
100
AcDbLine
 10
-35.31839642
 20
-154.86018041
 30
0.0
 11
-35.31839642
 21
-159.82850387
 31
0.0
  0
LINE
  5
D6
100
AcDbEntity
  8
レイヤー_1
  6
CONTINUOUS
 62
       7
100
AcDbLine
 10
-43.06727863
 20
-159.82850387
 30
0.0
 11
-45.06859187
 21
-154.86018041
 31
0.0
  0
LINE
  5
D7
100
AcDbEntity
  8
レイヤー_1
  6
CONTINUOUS
 62
       7
100
AcDbLine
 10
-45.06859187
 20
-154.86018041
 30
0.0
 11
-38.81942794
 21
-154.86018041
 31
0.0
  0
LINE
  5
D8
100
AcDbEntity
  8
レイヤー_1
  6
CONTINUOUS
 62
       7
100
AcDbLine
 10
-38.81942794
 20
-154.86018041
 30
0.0
 11
-38.81942794
 21
-159.82850387
 31
0.0
  0
LINE
  5
D9
100
AcDbEntity
  8
レイヤー_1
  6
CONTINUOUS
 62
       7
100
AcDbLine
 10
-44.56801023
 20
-159.82850387
 30
0.0
 11
-29.56981413
 21
-159.82850387
 31
0.0
  0
LINE
  5
DA
100
AcDbEntity
  8
レイヤー_1
  6
CONTINUOUS
 62
       7
100
AcDbLine
 10
-29.56981413
 20
-159.82850387
 30
0.0
 11
-29.56981413
 21
-182.31009151
 31
0.0
  0
LINE
  5
DB
100
AcDbEntity
  8
レイヤー_1
  6
CONTINUOUS
 62
       7
100
AcDbLine
 10
-29.56981413
 20
-182.31009151
 30
0.0
 11
-44.56801023
 21
-182.31009151
 31
0.0
  0
LINE
  5
DC
100
AcDbEntity
  8
レイヤー_1
  6
CONTINUOUS
 62
       7
100
AcDbLine
 10
-44.56801023
 20
-182.31009151
 30
0.0
 11
-44.56801023
 21
-159.82850387
 31
0.0
  0
LINE
  5
DD
100
AcDbEntity
  8
レイヤー_1
  6
CONTINUOUS
 62
       7
100
AcDbLine
 10
-106.37362976
 20
-334.32927755
 30
0.0
 11
-106.37362976
 21
-331.32781434
 31
0.0
  0
LINE
  5
DE
100
AcDbEntity
  8
レイヤー_1
  6
CONTINUOUS
 62
       7
100
AcDbLine
 10
-106.37362976
 20
-331.32781434
 30
0.0
 11
239.6731896
 21
-331.32781434
 31
0.0
  0
LINE
  5
DF
100
AcDbEntity
  8
レイヤー_1
  6
CONTINUOUS
 62
       7
100
AcDbLine
 10
239.6731896
 20
-331.32781434
 30
0.0
 11
239.6731896
 21
-334.32927755
 31
0.0
  0
LINE
  5
E0
100
AcDbEntity
  8
レイヤー_1
  6
CONTINUOUS
 62
       7
100
AcDbLine
 10
261.68812462
 20
-347.32818705
 30
0.0
 11
-218.31187538
 21
-347.32818705
 31
0.0
  0
LINE
  5
E1
100
AcDbEntity
  8
レイヤー_1
  6
CONTINUOUS
 62
       7
100
AcDbLine
 10
-108.37291636
 20
-334.32927755
 30
0.0
 11
241.68812462
 21
-334.32927755
 31
0.0
  0
LINE
  5
E2
100
AcDbEntity
  8
レイヤー_1
  6
CONTINUOUS
 62
       7
100
AcDbLine
 10
36.41069682
 20
-77.32778543
 30
0.0
 11
36.41069682
 21
-89.64878174
 31
0.0
  0
LINE
  5
E3
100
AcDbEntity
  8
レイヤー_1
  6
CONTINUOUS
 62
       7
100
AcDbLine
 10
27.42657368
 20
-77.32778543
 30
0.0
 11
27.42657368
 21
-89.64878174
 31
0.0
  0
LINE
  5
E4
100
AcDbEntity
  8
レイヤー_1
  6
CONTINUOUS
 62
       7
100
AcDbLine
 10
18.44447718
 20
-77.32778543
 30
0.0
 11
18.44447718
 21
-89.64878174
 31
0.0
  0
LINE
  5
E5
100
AcDbEntity
  8
レイヤー_1
  6
CONTINUOUS
 62
       7
100
AcDbLine
 10
9.46035404
 20
-77.32778543
 30
0.0
 11
9.46035404
 21
-89.64878174
 31
0.0
  0
LINE
  5
E6
100
AcDbEntity
  8
レイヤー_1
  6
CONTINUOUS
 62
       7
100
AcDbLine
 10
0.47825755
 20
-77.32778543
 30
0.0
 11
0.47825755
 21
-89.64878174
 31
0.0
  0
LINE
  5
E7
100
AcDbEntity
  8
レイヤー_1
  6
CONTINUOUS
 62
       7
100
AcDbLine
 10
-8.50586559
 20
-77.32778543
 30
0.0
 11
-8.50586559
 21
-89.64878174
 31
0.0
  0
LINE
  5
E8
100
AcDbEntity
  8
レイヤー_1
  6
CONTINUOUS
 62
       7
100
AcDbLine
 10
-17.48998874
 20
-77.32778543
 30
0.0
 11
-17.48998874
 21
-89.64878174
 31
0.0
  0
LINE
  5
E9
100
AcDbEntity
  8
レイヤー_1
  6
CONTINUOUS
 62
       7
100
AcDbLine
 10
-26.47309855
 20
-77.32778543
 30
0.0
 11
-26.47309855
 21
-89.64878174
 31
0.0
  0
LINE
  5
EA
100
AcDbEntity
  8
レイヤー_1
  6
CONTINUOUS
 62
       7
100
AcDbLine
 10
-35.45722169
 20
-77.32778543
 30
0.0
 11
-35.45722169
 21
-89.64878174
 31
0.0
  0
LINE
  5
EB
100
AcDbEntity
  8
レイヤー_1
  6
CONTINUOUS
 62
       7
100
AcDbLine
 10
-44.43931819
 20
-77.32778543
 30
0.0
 11
-44.43931819
 21
-89.64878174
 31
0.0
  0
LINE
  5
EC
100
AcDbEntity
  8
レイヤー_1
  6
CONTINUOUS
 62
       7
100
AcDbLine
 10
-53.42344133
 20
-77.32778543
 30
0.0
 11
-53.42344133
 21
-89.64878174
 31
0.0
  0
LINE
  5
ED
100
AcDbEntity
  8
レイヤー_1
  6
CONTINUOUS
 62
       7
100
AcDbLine
 10
-62.4045245
 20
-77.32778543
 30
0.0
 11
-62.4045245
 21
-89.64878174
 31
0.0
  0
LINE
  5
EE
100
AcDbEntity
  8
レイヤー_1
  6
CONTINUOUS
 62
       7
100
AcDbLine
 10
-71.38864765
 20
-77.32778543
 30
0.0
 11
-71.38864765
 21
-89.64878174
 31
0.0
  0
LINE
  5
EF
100
AcDbEntity
  8
レイヤー_1
  6
CONTINUOUS
 62
       7
100
AcDbLine
 10
-80.37277079
 20
-77.32778543
 30
0.0
 11
-80.37277079
 21
-89.64878174
 31
0.0
  0
LINE
  5
F0
100
AcDbEntity
  8
レイヤー_1
  6
CONTINUOUS
 62
       7
100
AcDbLine
 10
-89.35689393
 20
-77.32778543
 30
0.0
 11
-89.35689393
 21
-89.64878174
 31
0.0
  0
LINE
  5
F1
100
AcDbEntity
  8
レイヤー_1
  6
CONTINUOUS
 62
       7
100
AcDbLine
 10
45.39279332
 20
-77.32778543
 30
0.0
 11
45.39279332
 21
-89.64878174
 31
0.0
  0
LINE
  5
F2
100
AcDbEntity
  8
レイヤー_1
  6
CONTINUOUS
 62
       7
100
AcDbLine
 10
45.39279332
 20
-89.64878174
 30
0.0
 11
-98.33899042
 21
-89.64878174
 31
0.0
  0
LINE
  5
F3
100
AcDbEntity
  8
レイヤー_1
  6
CONTINUOUS
 62
       7
100
AcDbLine
 10
-98.33899042
 20
-89.64878174
 30
0.0
 11
-98.33899042
 21
-77.32778543
 31
0.0
  0
LINE
  5
F4
100
AcDbEntity
  8
レイヤー_1
  6
CONTINUOUS
 62
       7
100
AcDbLine
 10
36.11075317
 20
-165.32780866
 30
0.0
 11
36.11075317
 21
-154.57847657
 31
0.0
  0
LINE
  5
F5
100
AcDbEntity
  8
レイヤー_1
  6
CONTINUOUS
 62
       7
100
AcDbLine
 10
27.49953295
 20
-165.32780866
 30
0.0
 11
27.49953295
 21
-154.57847657
 31
0.0
  0
LINE
  5
F6
100
AcDbEntity
  8
レイヤー_1
  6
CONTINUOUS
 62
       7
100
AcDbLine
 10
18.89033938
 20
-165.32780866
 30
0.0
 11
18.89033938
 21
-154.57847657
 31
0.0
  0
LINE
  5
F7
100
AcDbEntity
  8
レイヤー_1
  6
CONTINUOUS
 62
       7
100
AcDbLine
 10
10.2811458
 20
-165.32780866
 30
0.0
 11
10.2811458
 21
-154.57847657
 31
0.0
  0
LINE
  5
F8
100
AcDbEntity
  8
レイヤー_1
  6
CONTINUOUS
 62
       7
100
AcDbLine
 10
1.67397888
 20
-165.32780866
 30
0.0
 11
1.67397888
 21
-154.57847657
 31
0.0
  0
LINE
  5
F9
100
AcDbEntity
  8
レイヤー_1
  6
CONTINUOUS
 62
       7
100
AcDbLine
 10
-6.93724134
 20
-165.32780866
 30
0.0
 11
-6.93724134
 21
-154.57847657
 31
0.0
  0
LINE
  5
FA
100
AcDbEntity
  8
レイヤー_1
  6
CONTINUOUS
 62
       7
100
AcDbLine
 10
-15.54542159
 20
-165.32780866
 30
0.0
 11
-15.54542159
 21
-154.57847657
 31
0.0
  0
LINE
  5
FB
100
AcDbEntity
  8
レイヤー_1
  6
CONTINUOUS
 62
       7
100
AcDbLine
 10
-24.15360184
 20
-165.32780866
 30
0.0
 11
-24.15360184
 21
-154.57847657
 31
0.0
  0
LINE
  5
FC
100
AcDbEntity
  8
レイヤー_1
  6
CONTINUOUS
 62
       7
100
AcDbLine
 10
-49.98016923
 20
-165.32780866
 30
0.0
 11
-49.98016923
 21
-154.57847657
 31
0.0
  0
LINE
  5
FD
100
AcDbEntity
  8
レイヤー_1
  6
CONTINUOUS
 62
       7
100
AcDbLine
 10
-58.59037613
 20
-165.32780866
 30
0.0
 11
-58.59037613
 21
-154.57847657
 31
0.0
  0
LINE
  5
FE
100
AcDbEntity
  8
レイヤー_1
  6
CONTINUOUS
 62
       7
100
AcDbLine
 10
-67.19855638
 20
-165.32780866
 30
0.0
 11
-67.19855638
 21
-154.57847657
 31
0.0
  0
LINE
  5
FF
100
AcDbEntity
  8
レイヤー_1
  6
CONTINUOUS
 62
       7
100
AcDbLine
 10
-75.80673663
 20
-165.32780866
 30
0.0
 11
-75.80673663
 21
-154.57847657
 31
0.0
  0
LINE
  5
100
100
AcDbEntity
  8
レイヤー_1
  6
CONTINUOUS
 62
       7
100
AcDbLine
 10
-84.41795684
 20
-165.32780866
 30
0.0
 11
-84.41795684
 21
-154.57847657
 31
0.0
  0
LINE
  5
101
100
AcDbEntity
  8
レイヤー_1
  6
CONTINUOUS
 62
       7
100
AcDbLine
 10
44.71792009
 20
-165.32780866
 30
0.0
 11
44.71792009
 21
-154.57847657
 31
0.0
  0
LINE
  5
102
100
AcDbEntity
  8
レイヤー_1
  6
CONTINUOUS
 62
       7
100
AcDbLine
 10
44.71792009
 20
-154.57847657
 30
0.0
 11
-93.02613709
 21
-154.57847657
 31
0.0
  0
LINE
  5
103
100
AcDbEntity
  8
レイヤー_1
  6
CONTINUOUS
 62
       7
100
AcDbLine
 10
31.80412973
 20
-154.57847657
 30
0.0
 11
31.80412973
 21
-143.82813116
 31
0.0
  0
LINE
  5
104
100
AcDbEntity
  8
レイヤー_1
  6
CONTINUOUS
 62
       7
100
AcDbLine
 10
23.19493616
 20
-154.57847657
 30
0.0
 11
23.19493616
 21
-143.82813116
 31
0.0
  0
LINE
  5
105
100
AcDbEntity
  8
レイヤー_1
  6
CONTINUOUS
 62
       7
100
AcDbLine
 10
14.58574259
 20
-154.57847657
 30
0.0
 11
14.58574259
 21
-143.82813116
 31
0.0
  0
LINE
  5
106
100
AcDbEntity
  8
レイヤー_1
  6
CONTINUOUS
 62
       7
100
AcDbLine
 10
5.97857566
 20
-154.57847657
 30
0.0
 11
5.97857566
 21
-143.82813116
 31
0.0
  0
LINE
  5
107
100
AcDbEntity
  8
レイヤー_1
  6
CONTINUOUS
 62
       7
100
AcDbLine
 10
-2.63264456
 20
-154.57847657
 30
0.0
 11
-2.63264456
 21
-143.82813116
 31
0.0
  0
LINE
  5
108
100
AcDbEntity
  8
レイヤー_1
  6
CONTINUOUS
 62
       7
100
AcDbLine
 10
-11.24285145
 20
-154.57847657
 30
0.0
 11
-11.24285145
 21
-143.82813116
 31
0.0
  0
LINE
  5
109
100
AcDbEntity
  8
レイヤー_1
  6
CONTINUOUS
 62
       7
100
AcDbLine
 10
-19.84900505
 20
-154.57847657
 30
0.0
 11
-19.84900505
 21
-143.82813116
 31
0.0
  0
LINE
  5
10A
100
AcDbEntity
  8
レイヤー_1
  6
CONTINUOUS
 62
       7
100
AcDbLine
 10
-28.45921195
 20
-154.57847657
 30
0.0
 11
-28.45921195
 21
-143.82813116
 31
0.0
  0
LINE
  5
10B
100
AcDbEntity
  8
レイヤー_1
  6
CONTINUOUS
 62
       7
100
AcDbLine
 10
-37.06941884
 20
-154.57847657
 30
0.0
 11
-37.06941884
 21
-143.82813116
 31
0.0
  0
LINE
  5
10C
100
AcDbEntity
  8
レイヤー_1
  6
CONTINUOUS
 62
       7
100
AcDbLine
 10
-45.67658577
 20
-154.57847657
 30
0.0
 11
-45.67658577
 21
-143.82813116
 31
0.0
  0
LINE
  5
10D
100
AcDbEntity
  8
レイヤー_1
  6
CONTINUOUS
 62
       7
100
AcDbLine
 10
-54.28679266
 20
-154.57847657
 30
0.0
 11
-54.28679266
 21
-143.82813116
 31
0.0
  0
LINE
  5
10E
100
AcDbEntity
  8
レイヤー_1
  6
CONTINUOUS
 62
       7
100
AcDbLine
 10
-62.89497291
 20
-154.57847657
 30
0.0
 11
-62.89497291
 21
-143.82813116
 31
0.0
  0
LINE
  5
10F
100
AcDbEntity
  8
レイヤー_1
  6
CONTINUOUS
 62
       7
100
AcDbLine
 10
-71.50517981
 20
-154.57847657
 30
0.0
 11
-71.50517981
 21
-143.82813116
 31
0.0
  0
LINE
  5
110
100
AcDbEntity
  8
レイヤー_1
  6
CONTINUOUS
 62
       7
100
AcDbLine
 10
-80.11133341
 20
-154.57847657
 30
0.0
 11
-80.11133341
 21
-143.82813116
 31
0.0
  0
LINE
  5
111
100
AcDbEntity
  8
レイヤー_1
  6
CONTINUOUS
 62
       7
100
AcDbLine
 10
-88.72154031
 20
-154.57847657
 30
0.0
 11
-88.72154031
 21
-143.82813116
 31
0.0
  0
LINE
  5
112
100
AcDbEntity
  8
レイヤー_1
  6
CONTINUOUS
 62
       7
100
AcDbLine
 10
-97.3317472
 20
-154.57847657
 30
0.0
 11
40.41332331
 21
-154.57847657
 31
0.0
  0
LINE
  5
113
100
AcDbEntity
  8
レイヤー_1
  6
CONTINUOUS
 62
       7
100
AcDbLine
 10
40.41332331
 20
-143.82813116
 30
0.0
 11
-97.3317472
 21
-143.82813116
 31
0.0
  0
LINE
  5
114
100
AcDbEntity
  8
レイヤー_1
  6
CONTINUOUS
 62
       7
100
AcDbLine
 10
-97.3317472
 20
-143.82813116
 30
0.0
 11
-97.3317472
 21
-154.57847657
 31
0.0
  0
LINE
  5
115
100
AcDbEntity
  8
レイヤー_1
  6
CONTINUOUS
 62
       7
100
AcDbLine
 10
188.14976017
 20
-165.32780866
 30
0.0
 11
188.14976017
 21
-154.57847657
 31
0.0
  0
LINE
  5
116
100
AcDbEntity
  8
レイヤー_1
  6
CONTINUOUS
 62
       7
100
AcDbLine
 10
179.54259325
 20
-165.32780866
 30
0.0
 11
179.54259325
 21
-154.57847657
 31
0.0
  0
LINE
  5
117
100
AcDbEntity
  8
レイヤー_1
  6
CONTINUOUS
 62
       7
100
AcDbLine
 10
170.93339968
 20
-165.32780866
 30
0.0
 11
170.93339968
 21
-154.57847657
 31
0.0
  0
LINE
  5
118
100
AcDbEntity
  8
レイヤー_1
  6
CONTINUOUS
 62
       7
100
AcDbLine
 10
162.32420611
 20
-165.32780866
 30
0.0
 11
162.32420611
 21
-154.57847657
 31
0.0
  0
LINE
  5
119
100
AcDbEntity
  8
レイヤー_1
  6
CONTINUOUS
 62
       7
100
AcDbLine
 10
153.71501253
 20
-165.32780866
 30
0.0
 11
153.71501253
 21
-154.57847657
 31
0.0
  0
LINE
  5
11A
100
AcDbEntity
  8
レイヤー_1
  6
CONTINUOUS
 62
       7
100
AcDbLine
 10
145.10581896
 20
-165.32780866
 30
0.0
 11
145.10581896
 21
-154.57847657
 31
0.0
  0
LINE
  5
11B
100
AcDbEntity
  8
レイヤー_1
  6
CONTINUOUS
 62
       7
100
AcDbLine
 10
136.49662539
 20
-165.32780866
 30
0.0
 11
136.49662539
 21
-154.57847657
 31
0.0
  0
LINE
  5
11C
100
AcDbEntity
  8
レイヤー_1
  6
CONTINUOUS
 62
       7
100
AcDbLine
 10
127.88743182
 20
-165.32780866
 30
0.0
 11
127.88743182
 21
-154.57847657
 31
0.0
  0
LINE
  5
11D
100
AcDbEntity
  8
レイヤー_1
  6
CONTINUOUS
 62
       7
100
AcDbLine
 10
119.27823824
 20
-165.32780866
 30
0.0
 11
119.27823824
 21
-154.57847657
 31
0.0
  0
LINE
  5
11E
100
AcDbEntity
  8
レイヤー_1
  6
CONTINUOUS
 62
       7
100
AcDbLine
 10
110.66904467
 20
-165.32780866
 30
0.0
 11
110.66904467
 21
-154.57847657
 31
0.0
  0
LINE
  5
11F
100
AcDbEntity
  8
レイヤー_1
  6
CONTINUOUS
 62
       7
100
AcDbLine
 10
102.06187775
 20
-165.32780866
 30
0.0
 11
102.06187775
 21
-154.57847657
 31
0.0
  0
LINE
  5
120
100
AcDbEntity
  8
レイヤー_1
  6
CONTINUOUS
 62
       7
100
AcDbLine
 10
93.45065753
 20
-165.32780866
 30
0.0
 11
93.45065753
 21
-154.57847657
 31
0.0
  0
LINE
  5
121
100
AcDbEntity
  8
レイヤー_1
  6
CONTINUOUS
 62
       7
100
AcDbLine
 10
84.84146396
 20
-165.32780866
 30
0.0
 11
84.84146396
 21
-154.57847657
 31
0.0
  0
LINE
  5
122
100
AcDbEntity
  8
レイヤー_1
  6
CONTINUOUS
 62
       7
100
AcDbLine
 10
76.23429703
 20
-165.32780866
 30
0.0
 11
76.23429703
 21
-154.57847657
 31
0.0
  0
LINE
  5
123
100
AcDbEntity
  8
レイヤー_1
  6
CONTINUOUS
 62
       7
100
AcDbLine
 10
67.62307681
 20
-165.32780866
 30
0.0
 11
67.62307681
 21
-154.57847657
 31
0.0
  0
LINE
  5
124
100
AcDbEntity
  8
レイヤー_1
  6
CONTINUOUS
 62
       7
100
AcDbLine
 10
196.75895375
 20
-165.32780866
 30
0.0
 11
196.75895375
 21
-154.57847657
 31
0.0
  0
LINE
  5
125
100
AcDbEntity
  8
レイヤー_1
  6
CONTINUOUS
 62
       7
100
AcDbLine
 10
196.75895375
 20
-154.57847657
 30
0.0
 11
59.01590989
 21
-154.57847657
 31
0.0
  0
LINE
  5
126
100
AcDbEntity
  8
レイヤー_1
  6
CONTINUOUS
 62
       7
100
AcDbLine
 10
188.78612712
 20
-77.32778543
 30
0.0
 11
188.78612712
 21
-89.64878174
 31
0.0
  0
LINE
  5
127
100
AcDbEntity
  8
レイヤー_1
  6
CONTINUOUS
 62
       7
100
AcDbLine
 10
179.80200398
 20
-77.32778543
 30
0.0
 11
179.80200398
 21
-89.64878174
 31
0.0
  0
LINE
  5
128
100
AcDbEntity
  8
レイヤー_1
  6
CONTINUOUS
 62
       7
100
AcDbLine
 10
170.81788084
 20
-77.32778543
 30
0.0
 11
170.81788084
 21
-89.64878174
 31
0.0
  0
LINE
  5
129
100
AcDbEntity
  8
レイヤー_1
  6
CONTINUOUS
 62
       7
100
AcDbLine
 10
161.83578434
 20
-77.32778543
 30
0.0
 11
161.83578434
 21
-89.64878174
 31
0.0
  0
LINE
  5
12A
100
AcDbEntity
  8
レイヤー_1
  6
CONTINUOUS
 62
       7
100
AcDbLine
 10
152.8516612
 20
-77.32778543
 30
0.0
 11
152.8516612
 21
-89.64878174
 31
0.0
  0
LINE
  5
12B
100
AcDbEntity
  8
レイヤー_1
  6
CONTINUOUS
 62
       7
100
AcDbLine
 10
143.86753806
 20
-77.32778543
 30
0.0
 11
143.86753806
 21
-89.64878174
 31
0.0
  0
LINE
  5
12C
100
AcDbEntity
  8
レイヤー_1
  6
CONTINUOUS
 62
       7
100
AcDbLine
 10
134.88544156
 20
-77.32778543
 30
0.0
 11
134.88544156
 21
-89.64878174
 31
0.0
  0
LINE
  5
12D
100
AcDbEntity
  8
レイヤー_1
  6
CONTINUOUS
 62
       7
100
AcDbLine
 10
125.90131842
 20
-77.32778543
 30
0.0
 11
125.90131842
 21
-89.64878174
 31
0.0
  0
LINE
  5
12E
100
AcDbEntity
  8
レイヤー_1
  6
CONTINUOUS
 62
       7
100
AcDbLine
 10
116.91922193
 20
-77.32778543
 30
0.0
 11
116.91922193
 21
-89.64878174
 31
0.0
  0
LINE
  5
12F
100
AcDbEntity
  8
レイヤー_1
  6
CONTINUOUS
 62
       7
100
AcDbLine
 10
107.93509879
 20
-77.32778543
 30
0.0
 11
107.93509879
 21
-89.64878174
 31
0.0
  0
LINE
  5
130
100
AcDbEntity
  8
レイヤー_1
  6
CONTINUOUS
 62
       7
100
AcDbLine
 10
98.95300229
 20
-77.32778543
 30
0.0
 11
98.95300229
 21
-89.64878174
 31
0.0
  0
LINE
  5
131
100
AcDbEntity
  8
レイヤー_1
  6
CONTINUOUS
 62
       7
100
AcDbLine
 10
89.96887915
 20
-77.32778543
 30
0.0
 11
89.96887915
 21
-89.64878174
 31
0.0
  0
LINE
  5
132
100
AcDbEntity
  8
レイヤー_1
  6
CONTINUOUS
 62
       7
100
AcDbLine
 10
80.98475601
 20
-77.32778543
 30
0.0
 11
80.98475601
 21
-89.64878174
 31
0.0
  0
LINE
  5
133
100
AcDbEntity
  8
レイヤー_1
  6
CONTINUOUS
 62
       7
100
AcDbLine
 10
72.00265951
 20
-77.32778543
 30
0.0
 11
72.00265951
 21
-89.64878174
 31
0.0
  0
LINE
  5
134
100
AcDbEntity
  8
レイヤー_1
  6
CONTINUOUS
 62
       7
100
AcDbLine
 10
63.02056302
 20
-77.32778543
 30
0.0
 11
63.02056302
 21
-89.64878174
 31
0.0
  0
LINE
  5
135
100
AcDbEntity
  8
レイヤー_1
  6
CONTINUOUS
 62
       7
100
AcDbLine
 10
197.77025026
 20
-77.32778543
 30
0.0
 11
197.77025026
 21
-89.64878174
 31
0.0
  0
LINE
  5
136
100
AcDbEntity
  8
レイヤー_1
  6
CONTINUOUS
 62
       7
100
AcDbLine
 10
197.77025026
 20
-89.64878174
 30
0.0
 11
54.03441323
 21
-89.64878174
 31
0.0
  0
LINE
  5
137
100
AcDbEntity
  8
レイヤー_1
  6
CONTINUOUS
 62
       7
100
AcDbLine
 10
54.03441323
 20
-89.64878174
 30
0.0
 11
54.03441323
 21
-77.32778543
 31
0.0
  0
LINE
  5
138
100
AcDbEntity
  8
レイヤー_1
  6
CONTINUOUS
 62
       7
100
AcDbLine
 10
183.84719004
 20
-154.57847657
 30
0.0
 11
183.84719004
 21
-143.82813116
 31
0.0
  0
LINE
  5
139
100
AcDbEntity
  8
レイヤー_1
  6
CONTINUOUS
 62
       7
100
AcDbLine
 10
175.23596982
 20
-154.57847657
 30
0.0
 11
175.23596982
 21
-143.82813116
 31
0.0
  0
LINE
  5
13A
100
AcDbEntity
  8
レイヤー_1
  6
CONTINUOUS
 62
       7
100
AcDbLine
 10
166.62677624
 20
-154.57847657
 30
0.0
 11
166.62677624
 21
-143.82813116
 31
0.0
  0
LINE
  5
13B
100
AcDbEntity
  8
レイヤー_1
  6
CONTINUOUS
 62
       7
100
AcDbLine
 10
158.01960932
 20
-154.57847657
 30
0.0
 11
158.01960932
 21
-143.82813116
 31
0.0
  0
LINE
  5
13C
100
AcDbEntity
  8
レイヤー_1
  6
CONTINUOUS
 62
       7
100
AcDbLine
 10
149.41041575
 20
-154.57847657
 30
0.0
 11
149.41041575
 21
-143.82813116
 31
0.0
  0
LINE
  5
13D
100
AcDbEntity
  8
レイヤー_1
  6
CONTINUOUS
 62
       7
100
AcDbLine
 10
140.80122217
 20
-154.57847657
 30
0.0
 11
140.80122217
 21
-143.82813116
 31
0.0
  0
LINE
  5
13E
100
AcDbEntity
  8
レイヤー_1
  6
CONTINUOUS
 62
       7
100
AcDbLine
 10
132.1920286
 20
-154.57847657
 30
0.0
 11
132.1920286
 21
-143.82813116
 31
0.0
  0
LINE
  5
13F
100
AcDbEntity
  8
レイヤー_1
  6
CONTINUOUS
 62
       7
100
AcDbLine
 10
123.58283503
 20
-154.57847657
 30
0.0
 11
123.58283503
 21
-143.82813116
 31
0.0
  0
LINE
  5
140
100
AcDbEntity
  8
レイヤー_1
  6
CONTINUOUS
 62
       7
100
AcDbLine
 10
114.97364146
 20
-154.57847657
 30
0.0
 11
114.97364146
 21
-143.82813116
 31
0.0
  0
LINE
  5
141
100
AcDbEntity
  8
レイヤー_1
  6
CONTINUOUS
 62
       7
100
AcDbLine
 10
106.36647453
 20
-154.57847657
 30
0.0
 11
106.36647453
 21
-143.82813116
 31
0.0
  0
LINE
  5
142
100
AcDbEntity
  8
レイヤー_1
  6
CONTINUOUS
 62
       7
100
AcDbLine
 10
97.75525431
 20
-154.57847657
 30
0.0
 11
97.75525431
 21
-143.82813116
 31
0.0
  0
LINE
  5
143
100
AcDbEntity
  8
レイヤー_1
  6
CONTINUOUS
 62
       7
100
AcDbLine
 10
89.14606074
 20
-154.57847657
 30
0.0
 11
89.14606074
 21
-143.82813116
 31
0.0
  0
LINE
  5
144
100
AcDbEntity
  8
レイヤー_1
  6
CONTINUOUS
 62
       7
100
AcDbLine
 10
80.53686717
 20
-154.57847657
 30
0.0
 11
80.53686717
 21
-143.82813116
 31
0.0
  0
LINE
  5
145
100
AcDbEntity
  8
レイヤー_1
  6
CONTINUOUS
 62
       7
100
AcDbLine
 10
71.92970024
 20
-154.57847657
 30
0.0
 11
71.92970024
 21
-143.82813116
 31
0.0
  0
LINE
  5
146
100
AcDbEntity
  8
レイヤー_1
  6
CONTINUOUS
 62
       7
100
AcDbLine
 10
63.32050667
 20
-154.57847657
 30
0.0
 11
63.32050667
 21
-143.82813116
 31
0.0
  0
LINE
  5
147
100
AcDbEntity
  8
レイヤー_1
  6
CONTINUOUS
 62
       7
100
AcDbLine
 10
54.70928645
 20
-154.57847657
 30
0.0
 11
192.45435696
 21
-154.57847657
 31
0.0
  0
LINE
  5
148
100
AcDbEntity
  8
レイヤー_1
  6
CONTINUOUS
 62
       7
100
AcDbLine
 10
192.45435696
 20
-154.57847657
 30
0.0
 11
192.45435696
 21
-143.82813116
 31
0.0
  0
LINE
  5
149
100
AcDbEntity
  8
レイヤー_1
  6
CONTINUOUS
 62
       7
100
AcDbLine
 10
192.45435696
 20
-143.82813116
 30
0.0
 11
54.70928645
 21
-143.82813116
 31
0.0
  0
LINE
  5
14A
100
AcDbEntity
  8
レイヤー_1
  6
CONTINUOUS
 62
       7
100
AcDbLine
 10
54.70928645
 20
-143.82813116
 30
0.0
 11
54.70928645
 21
-154.57847657
 31
0.0
  0
LINE
  5
14B
100
AcDbEntity
  8
レイヤー_1
  6
CONTINUOUS
 62
       7
100
AcDbLine
 10
-91.60039141
 20
-331.24674849
 30
0.0
 11
44.69765363
 21
-331.24674849
 31
0.0
  0
LINE
  5
14C
100
AcDbEntity
  8
レイヤー_1
  6
CONTINUOUS
 62
       7
100
AcDbLine
 10
44.69765363
 20
-331.24674849
 30
0.0
 11
44.69765363
 21
-318.99769813
 31
0.0
  0
LINE
  5
14D
100
AcDbEntity
  8
レイヤー_1
  6
CONTINUOUS
 62
       7
100
AcDbLine
 10
44.69765363
 20
-318.99769813
 30
0.0
 11
-91.60039141
 21
-318.99769813
 31
0.0
  0
LINE
  5
14E
100
AcDbEntity
  8
レイヤー_1
  6
CONTINUOUS
 62
       7
100
AcDbLine
 10
-95.85229539
 20
-313.05354447
 30
0.0
 11
38.90752509
 21
-313.05354447
 31
0.0
  0
LINE
  5
14F
100
AcDbEntity
  8
レイヤー_1
  6
CONTINUOUS
 62
       7
100
AcDbLine
 10
-95.85229539
 20
-314.98088512
 30
0.0
 11
38.90752509
 21
-314.98088512
 31
0.0
  0
LINE
  5
150
100
AcDbEntity
  8
レイヤー_1
  6
CONTINUOUS
 62
       7
100
AcDbLine
 10
-95.85026874
 20
-306.74662111
 30
0.0
 11
-95.85026874
 21
-318.99769813
 31
0.0
  0
LINE
  5
151
100
AcDbEntity
  8
レイヤー_1
  6
CONTINUOUS
 62
       7
100
AcDbLine
 10
-91.60039141
 20
-325.30462148
 30
0.0
 11
43.16145572
 21
-325.30462148
 31
0.0
  0
LINE
  5
152
100
AcDbEntity
  8
レイヤー_1
  6
CONTINUOUS
 62
       7
100
AcDbLine
 10
-91.60039141
 20
-326.98065799
 30
0.0
 11
43.16145572
 21
-326.98065799
 31
0.0
  0
LINE
  5
153
100
AcDbEntity
  8
レイヤー_1
  6
CONTINUOUS
 62
       7
100
AcDbLine
 10
27.39820063
 20
-331.24674849
 30
0.0
 11
27.39820063
 21
-318.99769813
 31
0.0
  0
LINE
  5
154
100
AcDbEntity
  8
レイヤー_1
  6
CONTINUOUS
 62
       7
100
AcDbLine
 10
35.89998195
 20
-331.24674849
 30
0.0
 11
35.89998195
 21
-318.99769813
 31
0.0
  0
LINE
  5
155
100
AcDbEntity
  8
レイヤー_1
  6
CONTINUOUS
 62
       7
100
AcDbLine
 10
-97.3489737
 20
-318.99769813
 30
0.0
 11
38.95008466
 21
-318.99769813
 31
0.0
  0
LINE
  5
156
100
AcDbEntity
  8
レイヤー_1
  6
CONTINUOUS
 62
       7
100
AcDbLine
 10
38.95008466
 20
-306.74662111
 30
0.0
 11
-97.3489737
 21
-306.74662111
 31
0.0
  0
LINE
  5
157
100
AcDbEntity
  8
レイヤー_1
  6
CONTINUOUS
 62
       7
100
AcDbLine
 10
-97.3489737
 20
-306.74662111
 30
0.0
 11
-97.3489737
 21
-318.99769813
 31
0.0
  0
LINE
  5
158
100
AcDbEntity
  8
レイヤー_1
  6
CONTINUOUS
 62
       7
100
AcDbLine
 10
60.42645573
 20
-331.24674849
 30
0.0
 11
196.72652741
 21
-331.24674849
 31
0.0
  0
LINE
  5
159
100
AcDbEntity
  8
レイヤー_1
  6
CONTINUOUS
 62
       7
100
AcDbLine
 10
196.72652741
 20
-331.24674849
 30
0.0
 11
196.72652741
 21
-318.99769813
 31
0.0
  0
LINE
  5
15A
100
AcDbEntity
  8
レイヤー_1
  6
CONTINUOUS
 62
       7
100
AcDbLine
 10
196.72652741
 20
-318.99769813
 30
0.0
 11
60.42645573
 21
-318.99769813
 31
0.0
  0
LINE
  5
15B
100
AcDbEntity
  8
レイヤー_1
  6
CONTINUOUS
 62
       7
100
AcDbLine
 10
56.17657839
 20
-306.74662111
 30
0.0
 11
56.17657839
 21
-318.99769813
 31
0.0
  0
LINE
  5
15C
100
AcDbEntity
  8
レイヤー_1
  6
CONTINUOUS
 62
       7
100
AcDbLine
 10
107.17713306
 20
-318.99769813
 30
0.0
 11
107.17713306
 21
-306.74662111
 31
0.0
  0
LINE
  5
15D
100
AcDbEntity
  8
レイヤー_1
  6
CONTINUOUS
 62
       7
100
AcDbLine
 10
124.17461576
 20
-318.99769813
 30
0.0
 11
124.17461576
 21
-306.74662111
 31
0.0
  0
LINE
  5
15E
100
AcDbEntity
  8
レイヤー_1
  6
CONTINUOUS
 62
       7
100
AcDbLine
 10
132.67639707
 20
-318.99769813
 30
0.0
 11
132.67639707
 21
-306.74662111
 31
0.0
  0
LINE
  5
15F
100
AcDbEntity
  8
レイヤー_1
  6
CONTINUOUS
 62
       7
100
AcDbLine
 10
141.17615174
 20
-318.99769813
 30
0.0
 11
141.17615174
 21
-306.74662111
 31
0.0
  0
LINE
  5
160
100
AcDbEntity
  8
レイヤー_1
  6
CONTINUOUS
 62
       7
100
AcDbLine
 10
149.67387977
 20
-318.99769813
 30
0.0
 11
149.67387977
 21
-306.74662111
 31
0.0
  0
LINE
  5
161
100
AcDbEntity
  8
レイヤー_1
  6
CONTINUOUS
 62
       7
100
AcDbLine
 10
166.6774424
 20
-318.99769813
 30
0.0
 11
166.6774424
 21
-306.74662111
 31
0.0
  0
LINE
  5
162
100
AcDbEntity
  8
レイヤー_1
  6
CONTINUOUS
 62
       7
100
AcDbLine
 10
175.17517043
 20
-318.99769813
 30
0.0
 11
175.17517043
 21
-306.74662111
 31
0.0
  0
LINE
  5
163
100
AcDbEntity
  8
レイヤー_1
  6
CONTINUOUS
 62
       7
100
AcDbLine
 10
54.67888676
 20
-318.99769813
 30
0.0
 11
190.97490515
 21
-318.99769813
 31
0.0
  0
LINE
  5
164
100
AcDbEntity
  8
レイヤー_1
  6
CONTINUOUS
 62
       7
100
AcDbLine
 10
190.97490515
 20
-306.74662111
 30
0.0
 11
54.67888676
 21
-306.74662111
 31
0.0
  0
LINE
  5
165
100
AcDbEntity
  8
レイヤー_1
  6
CONTINUOUS
 62
       7
100
AcDbLine
 10
54.67888676
 20
-306.74662111
 30
0.0
 11
54.67888676
 21
-318.99769813
 31
0.0
  0
LINE
  5
166
100
AcDbEntity
  8
レイヤー_1
  6
CONTINUOUS
 62
       7
100
AcDbLine
 10
220.04511998
 20
-331.32781434
 30
0.0
 11
220.04511998
 21
-326.32605122
 31
0.0
  0
LINE
  5
167
100
AcDbEntity
  8
レイヤー_1
  6
CONTINUOUS
 62
       7
100
AcDbLine
 10
220.04511998
 20
-326.32605122
 30
0.0
 11
212.88092523
 21
-326.32605122
 31
0.0
  0
LINE
  5
168
100
AcDbEntity
  8
レイヤー_1
  6
CONTINUOUS
 62
       7
100
AcDbLine
 10
212.88092523
 20
-326.32605122
 30
0.0
 11
212.88092523
 21
-331.32781434
 31
0.0
  0
LINE
  5
169
100
AcDbEntity
  8
レイヤー_1
  6
CONTINUOUS
 62
       7
100
AcDbLine
 10
-28.29606692
 20
-175.91602236
 30
0.0
 11
-28.29201798
 21
-175.95878174
 31
0.0
  0
LINE
  5
16A
100
AcDbEntity
  8
レイヤー_1
  6
CONTINUOUS
 62
       7
100
AcDbLine
 10
-28.29201798
 20
-175.95878174
 30
0.0
 11
-28.28102677
 21
-176.08097015
 31
0.0
  0
LINE
  5
16B
100
AcDbEntity
  8
レイヤー_1
  6
CONTINUOUS
 62
       7
100
AcDbLine
 10
-28.28102677
 20
-176.08097015
 30
0.0
 11
-28.26482674
 21
-176.27345301
 31
0.0
  0
LINE
  5
16C
100
AcDbEntity
  8
レイヤー_1
  6
CONTINUOUS
 62
       7
100
AcDbLine
 10
-28.26482674
 20
-176.27345301
 30
0.0
 11
-28.24515132
 21
-176.52709572
 31
0.0
  0
LINE
  5
16D
100
AcDbEntity
  8
レイヤー_1
  6
CONTINUOUS
 62
       7
100
AcDbLine
 10
-28.24515132
 20
-176.52709572
 30
0.0
 11
-28.22373396
 21
-176.83276371
 31
0.0
  0
LINE
  5
16E
100
AcDbEntity
  8
レイヤー_1
  6
CONTINUOUS
 62
       7
100
AcDbLine
 10
-28.22373396
 20
-176.83276371
 30
0.0
 11
-28.20230809
 21
-177.1813224
 31
0.0
  0
LINE
  5
16F
100
AcDbEntity
  8
レイヤー_1
  6
CONTINUOUS
 62
       7
100
AcDbLine
 10
-28.20230809
 20
-177.1813224
 30
0.0
 11
-28.18260715
 21
-177.56363718
 31
0.0
  0
LINE
  5
170
100
AcDbEntity
  8
レイヤー_1
  6
CONTINUOUS
 62
       7
100
AcDbLine
 10
-28.18260715
 20
-177.56363718
 30
0.0
 11
-28.16636458
 21
-177.97057349
 31
0.0
  0
LINE
  5
171
100
AcDbEntity
  8
レイヤー_1
  6
CONTINUOUS
 62
       7
100
AcDbLine
 10
-28.16636458
 20
-177.97057349
 30
0.0
 11
-28.15531382
 21
-178.39299673
 31
0.0
  0
LINE
  5
172
100
AcDbEntity
  8
レイヤー_1
  6
CONTINUOUS
 62
       7
100
AcDbLine
 10
-28.15531382
 20
-178.39299673
 30
0.0
 11
-28.1511883
 21
-178.82177232
 31
0.0
  0
LINE
  5
173
100
AcDbEntity
  8
レイヤー_1
  6
CONTINUOUS
 62
       7
100
AcDbLine
 10
-28.1511883
 20
-178.82177232
 30
0.0
 11
-28.15572146
 21
-179.24776567
 31
0.0
  0
LINE
  5
174
100
AcDbEntity
  8
レイヤー_1
  6
CONTINUOUS
 62
       7
100
AcDbLine
 10
-28.15572146
 20
-179.24776567
 30
0.0
 11
-28.17064675
 21
-179.6618422
 31
0.0
  0
LINE
  5
175
100
AcDbEntity
  8
レイヤー_1
  6
CONTINUOUS
 62
       7
100
AcDbLine
 10
-28.17064675
 20
-179.6618422
 30
0.0
 11
-28.1976976
 21
-180.05486732
 31
0.0
  0
LINE
  5
176
100
AcDbEntity
  8
レイヤー_1
  6
CONTINUOUS
 62
       7
100
AcDbLine
 10
-28.1976976
 20
-180.05486732
 30
0.0
 11
-28.23860744
 21
-180.41770645
 31
0.0
  0
LINE
  5
177
100
AcDbEntity
  8
レイヤー_1
  6
CONTINUOUS
 62
       7
100
AcDbLine
 10
-28.23860744
 20
-180.41770645
 30
0.0
 11
-28.29510973
 21
-180.741225
 31
0.0
  0
LINE
  5
178
100
AcDbEntity
  8
レイヤー_1
  6
CONTINUOUS
 62
       7
100
AcDbLine
 10
-28.29510973
 20
-180.741225
 30
0.0
 11
-28.36893789
 21
-181.01628839
 31
0.0
  0
LINE
  5
179
100
AcDbEntity
  8
レイヤー_1
  6
CONTINUOUS
 62
       7
100
AcDbLine
 10
-28.36893789
 20
-181.01628839
 30
0.0
 11
-28.46182536
 21
-181.23376203
 31
0.0
  0
LINE
  5
17A
100
AcDbEntity
  8
レイヤー_1
  6
CONTINUOUS
 62
       7
100
AcDbLine
 10
-28.46182536
 20
-181.23376203
 30
0.0
 11
-28.57133304
 21
-181.38997186
 31
0.0
  0
LINE
  5
17B
100
AcDbEntity
  8
レイヤー_1
  6
CONTINUOUS
 62
       7
100
AcDbLine
 10
-28.57133304
 20
-181.38997186
 30
0.0
 11
-28.67421606
 21
-181.5123761
 31
0.0
  0
LINE
  5
17C
100
AcDbEntity
  8
レイヤー_1
  6
CONTINUOUS
 62
       7
100
AcDbLine
 10
-28.67421606
 20
-181.5123761
 30
0.0
 11
-28.76702289
 21
-181.60824557
 31
0.0
  0
LINE
  5
17D
100
AcDbEntity
  8
レイヤー_1
  6
CONTINUOUS
 62
       7
100
AcDbLine
 10
-28.76702289
 20
-181.60824557
 30
0.0
 11
-28.8502493
 21
-181.6800477
 31
0.0
  0
LINE
  5
17E
100
AcDbEntity
  8
レイヤー_1
  6
CONTINUOUS
 62
       7
100
AcDbLine
 10
-28.8502493
 20
-181.6800477
 30
0.0
 11
-28.92439104
 21
-181.73024991
 31
0.0
  0
LINE
  5
17F
100
AcDbEntity
  8
レイヤー_1
  6
CONTINUOUS
 62
       7
100
AcDbLine
 10
-28.92439104
 20
-181.73024991
 30
0.0
 11
-28.98994387
 21
-181.76131964
 31
0.0
  0
LINE
  5
180
100
AcDbEntity
  8
レイヤー_1
  6
CONTINUOUS
 62
       7
100
AcDbLine
 10
-28.98994387
 20
-181.76131964
 30
0.0
 11
-29.04740354
 21
-181.77572431
 31
0.0
  0
LINE
  5
181
100
AcDbEntity
  8
レイヤー_1
  6
CONTINUOUS
 62
       7
100
AcDbLine
 10
-29.04740354
 20
-181.77572431
 30
0.0
 11
-29.0972658
 21
-181.77593135
 31
0.0
  0
LINE
  5
182
100
AcDbEntity
  8
レイヤー_1
  6
CONTINUOUS
 62
       7
100
AcDbLine
 10
-29.0972658
 20
-181.77593135
 30
0.0
 11
-29.1400264
 21
-181.76440818
 31
0.0
  0
LINE
  5
183
100
AcDbEntity
  8
レイヤー_1
  6
CONTINUOUS
 62
       7
100
AcDbLine
 10
-29.1400264
 20
-181.76440818
 30
0.0
 11
-29.17618111
 21
-181.74362224
 31
0.0
  0
LINE
  5
184
100
AcDbEntity
  8
レイヤー_1
  6
CONTINUOUS
 62
       7
100
AcDbLine
 10
-29.17618111
 20
-181.74362224
 30
0.0
 11
-29.20622568
 21
-181.71604094
 31
0.0
  0
LINE
  5
185
100
AcDbEntity
  8
レイヤー_1
  6
CONTINUOUS
 62
       7
100
AcDbLine
 10
-29.20622568
 20
-181.71604094
 30
0.0
 11
-29.23065585
 21
-181.68413172
 31
0.0
  0
LINE
  5
186
100
AcDbEntity
  8
レイヤー_1
  6
CONTINUOUS
 62
       7
100
AcDbLine
 10
-29.23065585
 20
-181.68413172
 30
0.0
 11
-29.24996739
 21
-181.650362
 31
0.0
  0
LINE
  5
187
100
AcDbEntity
  8
レイヤー_1
  6
CONTINUOUS
 62
       7
100
AcDbLine
 10
-29.24996739
 20
-181.650362
 30
0.0
 11
-29.26465605
 21
-181.61719921
 31
0.0
  0
LINE
  5
188
100
AcDbEntity
  8
レイヤー_1
  6
CONTINUOUS
 62
       7
100
AcDbLine
 10
-29.26465605
 20
-181.61719921
 30
0.0
 11
-29.27521759
 21
-181.58711078
 31
0.0
  0
LINE
  5
189
100
AcDbEntity
  8
レイヤー_1
  6
CONTINUOUS
 62
       7
100
AcDbLine
 10
-29.27521759
 20
-181.58711078
 30
0.0
 11
-29.28214775
 21
-181.56256413
 31
0.0
  0
LINE
  5
18A
100
AcDbEntity
  8
レイヤー_1
  6
CONTINUOUS
 62
       7
100
AcDbLine
 10
-29.28214775
 20
-181.56256413
 30
0.0
 11
-29.28594229
 21
-181.5460267
 31
0.0
  0
LINE
  5
18B
100
AcDbEntity
  8
レイヤー_1
  6
CONTINUOUS
 62
       7
100
AcDbLine
 10
-29.28594229
 20
-181.5460267
 30
0.0
 11
-29.28709697
 21
-181.53996591
 31
0.0
  0
LINE
  5
18C
100
AcDbEntity
  8
レイヤー_1
  6
CONTINUOUS
 62
       7
100
AcDbLine
 10
-108.37291636
 20
-345.32818705
 30
0.0
 11
-218.31187538
 21
-345.32818705
 31
0.0
  0
LINE
  5
18D
100
AcDbEntity
  8
レイヤー_1
  6
CONTINUOUS
 62
       7
100
AcDbLine
 10
261.68812462
 20
-345.32818705
 30
0.0
 11
241.68812462
 21
-345.32818705
 31
0.0
  0
LINE
  5
18E
100
AcDbEntity
  8
レイヤー_1
  6
CONTINUOUS
 62
       7
100
AcDbLine
 10
261.68812462
 20
-345.32818705
 30
0.0
 11
261.68812462
 21
-347.32818705
 31
0.0
  0
LINE
  5
18F
100
AcDbEntity
  8
レイヤー_1
  6
CONTINUOUS
 62
       7
100
AcDbLine
 10
241.68812462
 20
-334.32927755
 30
0.0
 11
241.68812462
 21
-347.32818705
 31
0.0
  0
LINE
  5
190
100
AcDbEntity
  8
レイヤー_1
  6
CONTINUOUS
 62
       7
100
AcDbLine
 10
-218.31187538
 20
-345.32818705
 30
0.0
 11
-218.31187538
 21
-347.32818705
 31
0.0
  0
LINE
  5
191
100
AcDbEntity
  8
レイヤー_1
  6
CONTINUOUS
 62
       7
100
AcDbLine
 10
259.18812462
 20
-77.32779705
 30
0.0
 11
-215.81187538
 21
-77.32779705
 31
0.0
  0
LINE
  5
192
100
AcDbEntity
  8
レイヤー_1
  6
CONTINUOUS
 62
       7
100
AcDbLine
 10
259.18812462
 20
-165.32779705
 30
0.0
 11
-29.56981413
 21
-165.32779705
 31
0.0
  0
LINE
  5
193
100
AcDbEntity
  8
レイヤー_1
  6
CONTINUOUS
 62
       7
100
AcDbLine
 10
241.68812462
 20
-165.32779705
 30
0.0
 11
241.68812462
 21
-77.32779705
 31
0.0
  0
LINE
  5
194
100
AcDbEntity
  8
レイヤー_1
  6
CONTINUOUS
 62
       7
100
AcDbLine
 10
56.17556507
 20
-313.05354447
 30
0.0
 11
190.93538555
 21
-313.05354447
 31
0.0
  0
LINE
  5
195
100
AcDbEntity
  8
レイヤー_1
  6
CONTINUOUS
 62
       7
100
AcDbLine
 10
56.17556507
 20
-314.98088512
 30
0.0
 11
190.93538555
 21
-314.98088512
 31
0.0
  0
LINE
  5
196
100
AcDbEntity
  8
レイヤー_1
  6
CONTINUOUS
 62
       7
100
AcDbLine
 10
60.42746905
 20
-325.30462148
 30
0.0
 11
195.18931618
 21
-325.30462148
 31
0.0
  0
LINE
  5
197
100
AcDbEntity
  8
レイヤー_1
  6
CONTINUOUS
 62
       7
100
AcDbLine
 10
60.42746905
 20
-326.98065799
 30
0.0
 11
195.18931618
 21
-326.98065799
 31
0.0
  0
LINE
  5
198
100
AcDbEntity
  8
レイヤー_1
  6
PHANTOM
 62
       7
100
AcDbLine
 10
-84.31187538
 20
-93.32779705
 30
0.0
 11
-102.31187538
 21
-93.32779705
 31
0.0
  0
LINE
  5
199
100
AcDbEntity
  8
レイヤー_1
  6
PHANTOM
 62
       7
100
AcDbLine
 10
-83.31187538
 20
-141.32779705
 30
0.0
 11
-83.31187538
 21
-93.32779705
 31
0.0
  0
LINE
  5
19A
100
AcDbEntity
  8
レイヤー_1
  6
PHANTOM
 62
       7
100
AcDbLine
 10
-65.31187538
 20
-141.32779705
 30
0.0
 11
-83.31187538
 21
-141.32779705
 31
0.0
  0
LINE
  5
19B
100
AcDbEntity
  8
レイヤー_1
  6
PHANTOM
 62
       7
100
AcDbLine
 10
-65.31187538
 20
-141.32779705
 30
0.0
 11
-65.31187538
 21
-93.32779705
 31
0.0
  0
LINE
  5
19C
100
AcDbEntity
  8
レイヤー_1
  6
PHANTOM
 62
       7
100
AcDbLine
 10
-65.31187538
 20
-93.32779705
 30
0.0
 11
-83.31187538
 21
-93.32779705
 31
0.0
  0
LINE
  5
19D
100
AcDbEntity
  8
レイヤー_1
  6
PHANTOM
 62
       7
100
AcDbLine
 10
-64.31187538
 20
-141.32779705
 30
0.0
 11
-64.31187538
 21
-93.32779705
 31
0.0
  0
LINE
  5
19E
100
AcDbEntity
  8
レイヤー_1
  6
PHANTOM
 62
       7
100
AcDbLine
 10
-46.31187538
 20
-141.32779705
 30
0.0
 11
-64.31187538
 21
-141.32779705
 31
0.0
  0
LINE
  5
19F
100
AcDbEntity
  8
レイヤー_1
  6
PHANTOM
 62
       7
100
AcDbLine
 10
-46.31187538
 20
-141.32779705
 30
0.0
 11
-46.31187538
 21
-93.32779705
 31
0.0
  0
LINE
  5
1A0
100
AcDbEntity
  8
レイヤー_1
  6
PHANTOM
 62
       7
100
AcDbLine
 10
-46.31187538
 20
-93.32779705
 30
0.0
 11
-64.31187538
 21
-93.32779705
 31
0.0
  0
LINE
  5
1A1
100
AcDbEntity
  8
レイヤー_1
  6
PHANTOM
 62
       7
100
AcDbLine
 10
-45.31187538
 20
-141.32779705
 30
0.0
 11
-45.31187538
 21
-93.32779705
 31
0.0
  0
LINE
  5
1A2
100
AcDbEntity
  8
レイヤー_1
  6
PHANTOM
 62
       7
100
AcDbLine
 10
-27.31187538
 20
-141.32779705
 30
0.0
 11
-45.31187538
 21
-141.32779705
 31
0.0
  0
LINE
  5
1A3
100
AcDbEntity
  8
レイヤー_1
  6
PHANTOM
 62
       7
100
AcDbLine
 10
-27.31187538
 20
-141.32779705
 30
0.0
 11
-27.31187538
 21
-93.32779705
 31
0.0
  0
LINE
  5
1A4
100
AcDbEntity
  8
レイヤー_1
  6
PHANTOM
 62
       7
100
AcDbLine
 10
-27.31187538
 20
-93.32779705
 30
0.0
 11
-45.31187538
 21
-93.32779705
 31
0.0
  0
LINE
  5
1A5
100
AcDbEntity
  8
レイヤー_1
  6
PHANTOM
 62
       7
100
AcDbLine
 10
-26.31187538
 20
-141.32779705
 30
0.0
 11
-26.31187538
 21
-93.32779705
 31
0.0
  0
LINE
  5
1A6
100
AcDbEntity
  8
レイヤー_1
  6
PHANTOM
 62
       7
100
AcDbLine
 10
-8.31187538
 20
-141.32779705
 30
0.0
 11
-26.31187538
 21
-141.32779705
 31
0.0
  0
LINE
  5
1A7
100
AcDbEntity
  8
レイヤー_1
  6
PHANTOM
 62
       7
100
AcDbLine
 10
-8.31187538
 20
-141.32779705
 30
0.0
 11
-8.31187538
 21
-93.32779705
 31
0.0
  0
LINE
  5
1A8
100
AcDbEntity
  8
レイヤー_1
  6
PHANTOM
 62
       7
100
AcDbLine
 10
-8.31187538
 20
-93.32779705
 30
0.0
 11
-26.31187538
 21
-93.32779705
 31
0.0
  0
LINE
  5
1A9
100
AcDbEntity
  8
レイヤー_1
  6
PHANTOM
 62
       7
100
AcDbLine
 10
-7.31187538
 20
-141.32779705
 30
0.0
 11
-7.31187538
 21
-93.32779705
 31
0.0
  0
LINE
  5
1AA
100
AcDbEntity
  8
レイヤー_1
  6
PHANTOM
 62
       7
100
AcDbLine
 10
10.68812462
 20
-141.32779705
 30
0.0
 11
-7.31187538
 21
-141.32779705
 31
0.0
  0
LINE
  5
1AB
100
AcDbEntity
  8
レイヤー_1
  6
PHANTOM
 62
       7
100
AcDbLine
 10
10.68812462
 20
-141.32779705
 30
0.0
 11
10.68812462
 21
-93.32779705
 31
0.0
  0
LINE
  5
1AC
100
AcDbEntity
  8
レイヤー_1
  6
PHANTOM
 62
       7
100
AcDbLine
 10
10.68812462
 20
-93.32779705
 30
0.0
 11
-7.31187538
 21
-93.32779705
 31
0.0
  0
LINE
  5
1AD
100
AcDbEntity
  8
レイヤー_1
  6
PHANTOM
 62
       7
100
AcDbLine
 10
11.68812462
 20
-141.32779705
 30
0.0
 11
11.68812462
 21
-93.32779705
 31
0.0
  0
LINE
  5
1AE
100
AcDbEntity
  8
レイヤー_1
  6
PHANTOM
 62
       7
100
AcDbLine
 10
29.68812462
 20
-141.32779705
 30
0.0
 11
11.68812462
 21
-141.32779705
 31
0.0
  0
LINE
  5
1AF
100
AcDbEntity
  8
レイヤー_1
  6
PHANTOM
 62
       7
100
AcDbLine
 10
29.68812462
 20
-141.32779705
 30
0.0
 11
29.68812462
 21
-93.32779705
 31
0.0
  0
LINE
  5
1B0
100
AcDbEntity
  8
レイヤー_1
  6
PHANTOM
 62
       7
100
AcDbLine
 10
29.68812462
 20
-93.32779705
 30
0.0
 11
11.68812462
 21
-93.32779705
 31
0.0
  0
LINE
  5
1B1
100
AcDbEntity
  8
レイヤー_1
  6
PHANTOM
 62
       7
100
AcDbLine
 10
30.68812462
 20
-141.32779705
 30
0.0
 11
30.68812462
 21
-93.32779705
 31
0.0
  0
LINE
  5
1B2
100
AcDbEntity
  8
レイヤー_1
  6
PHANTOM
 62
       7
100
AcDbLine
 10
48.68812462
 20
-141.32779705
 30
0.0
 11
30.68812462
 21
-141.32779705
 31
0.0
  0
LINE
  5
1B3
100
AcDbEntity
  8
レイヤー_1
  6
PHANTOM
 62
       7
100
AcDbLine
 10
48.68812462
 20
-141.32779705
 30
0.0
 11
48.68812462
 21
-93.32779705
 31
0.0
  0
LINE
  5
1B4
100
AcDbEntity
  8
レイヤー_1
  6
PHANTOM
 62
       7
100
AcDbLine
 10
48.68812462
 20
-93.32779705
 30
0.0
 11
30.68812462
 21
-93.32779705
 31
0.0
  0
LINE
  5
1B5
100
AcDbEntity
  8
レイヤー_1
  6
PHANTOM
 62
       7
100
AcDbLine
 10
68.68812462
 20
-93.32779705
 30
0.0
 11
50.68812462
 21
-93.32779705
 31
0.0
  0
LINE
  5
1B6
100
AcDbEntity
  8
レイヤー_1
  6
PHANTOM
 62
       7
100
AcDbLine
 10
69.68812462
 20
-141.32779705
 30
0.0
 11
69.68812462
 21
-93.32779705
 31
0.0
  0
LINE
  5
1B7
100
AcDbEntity
  8
レイヤー_1
  6
PHANTOM
 62
       7
100
AcDbLine
 10
87.68812462
 20
-141.32779705
 30
0.0
 11
69.68812462
 21
-141.32779705
 31
0.0
  0
LINE
  5
1B8
100
AcDbEntity
  8
レイヤー_1
  6
PHANTOM
 62
       7
100
AcDbLine
 10
87.68812462
 20
-141.32779705
 30
0.0
 11
87.68812462
 21
-93.32779705
 31
0.0
  0
LINE
  5
1B9
100
AcDbEntity
  8
レイヤー_1
  6
PHANTOM
 62
       7
100
AcDbLine
 10
87.68812462
 20
-93.32779705
 30
0.0
 11
69.68812462
 21
-93.32779705
 31
0.0
  0
LINE
  5
1BA
100
AcDbEntity
  8
レイヤー_1
  6
PHANTOM
 62
       7
100
AcDbLine
 10
88.68812462
 20
-141.32779705
 30
0.0
 11
88.68812462
 21
-93.32779705
 31
0.0
  0
LINE
  5
1BB
100
AcDbEntity
  8
レイヤー_1
  6
PHANTOM
 62
       7
100
AcDbLine
 10
106.68812462
 20
-141.32779705
 30
0.0
 11
88.68812462
 21
-141.32779705
 31
0.0
  0
LINE
  5
1BC
100
AcDbEntity
  8
レイヤー_1
  6
PHANTOM
 62
       7
100
AcDbLine
 10
106.68812462
 20
-141.32779705
 30
0.0
 11
106.68812462
 21
-93.32779705
 31
0.0
  0
LINE
  5
1BD
100
AcDbEntity
  8
レイヤー_1
  6
PHANTOM
 62
       7
100
AcDbLine
 10
106.68812462
 20
-93.32779705
 30
0.0
 11
88.68812462
 21
-93.32779705
 31
0.0
  0
LINE
  5
1BE
100
AcDbEntity
  8
レイヤー_1
  6
PHANTOM
 62
       7
100
AcDbLine
 10
107.68812462
 20
-141.32779705
 30
0.0
 11
107.68812462
 21
-93.32779705
 31
0.0
  0
LINE
  5
1BF
100
AcDbEntity
  8
レイヤー_1
  6
PHANTOM
 62
       7
100
AcDbLine
 10
125.68812462
 20
-141.32779705
 30
0.0
 11
107.68812462
 21
-141.32779705
 31
0.0
  0
LINE
  5
1C0
100
AcDbEntity
  8
レイヤー_1
  6
PHANTOM
 62
       7
100
AcDbLine
 10
125.68812462
 20
-141.32779705
 30
0.0
 11
125.68812462
 21
-93.32779705
 31
0.0
  0
LINE
  5
1C1
100
AcDbEntity
  8
レイヤー_1
  6
PHANTOM
 62
       7
100
AcDbLine
 10
125.68812462
 20
-93.32779705
 30
0.0
 11
107.68812462
 21
-93.32779705
 31
0.0
  0
LINE
  5
1C2
100
AcDbEntity
  8
レイヤー_1
  6
PHANTOM
 62
       7
100
AcDbLine
 10
126.68812462
 20
-141.32779705
 30
0.0
 11
126.68812462
 21
-93.32779705
 31
0.0
  0
LINE
  5
1C3
100
AcDbEntity
  8
レイヤー_1
  6
PHANTOM
 62
       7
100
AcDbLine
 10
144.68812462
 20
-141.32779705
 30
0.0
 11
126.68812462
 21
-141.32779705
 31
0.0
  0
LINE
  5
1C4
100
AcDbEntity
  8
レイヤー_1
  6
PHANTOM
 62
       7
100
AcDbLine
 10
144.68812462
 20
-141.32779705
 30
0.0
 11
144.68812462
 21
-93.32779705
 31
0.0
  0
LINE
  5
1C5
100
AcDbEntity
  8
レイヤー_1
  6
PHANTOM
 62
       7
100
AcDbLine
 10
144.68812462
 20
-93.32779705
 30
0.0
 11
126.68812462
 21
-93.32779705
 31
0.0
  0
LINE
  5
1C6
100
AcDbEntity
  8
レイヤー_1
  6
PHANTOM
 62
       7
100
AcDbLine
 10
145.68812462
 20
-141.32779705
 30
0.0
 11
145.68812462
 21
-93.32779705
 31
0.0
  0
LINE
  5
1C7
100
AcDbEntity
  8
レイヤー_1
  6
PHANTOM
 62
       7
100
AcDbLine
 10
163.68812462
 20
-141.32779705
 30
0.0
 11
145.68812462
 21
-141.32779705
 31
0.0
  0
LINE
  5
1C8
100
AcDbEntity
  8
レイヤー_1
  6
PHANTOM
 62
       7
100
AcDbLine
 10
163.68812462
 20
-141.32779705
 30
0.0
 11
163.68812462
 21
-93.32779705
 31
0.0
  0
LINE
  5
1C9
100
AcDbEntity
  8
レイヤー_1
  6
PHANTOM
 62
       7
100
AcDbLine
 10
163.68812462
 20
-93.32779705
 30
0.0
 11
145.68812462
 21
-93.32779705
 31
0.0
  0
LINE
  5
1CA
100
AcDbEntity
  8
レイヤー_1
  6
PHANTOM
 62
       7
100
AcDbLine
 10
164.68812462
 20
-141.32779705
 30
0.0
 11
164.68812462
 21
-93.32779705
 31
0.0
  0
LINE
  5
1CB
100
AcDbEntity
  8
レイヤー_1
  6
PHANTOM
 62
       7
100
AcDbLine
 10
182.68812462
 20
-141.32779705
 30
0.0
 11
164.68812462
 21
-141.32779705
 31
0.0
  0
LINE
  5
1CC
100
AcDbEntity
  8
レイヤー_1
  6
PHANTOM
 62
       7
100
AcDbLine
 10
182.68812462
 20
-141.32779705
 30
0.0
 11
182.68812462
 21
-93.32779705
 31
0.0
  0
LINE
  5
1CD
100
AcDbEntity
  8
レイヤー_1
  6
PHANTOM
 62
       7
100
AcDbLine
 10
182.68812462
 20
-93.32779705
 30
0.0
 11
164.68812462
 21
-93.32779705
 31
0.0
  0
LINE
  5
1CE
100
AcDbEntity
  8
レイヤー_1
  6
PHANTOM
 62
       7
100
AcDbLine
 10
183.68812462
 20
-141.32779705
 30
0.0
 11
183.68812462
 21
-93.32779705
 31
0.0
  0
LINE
  5
1CF
100
AcDbEntity
  8
レイヤー_1
  6
PHANTOM
 62
       7
100
AcDbLine
 10
201.68812462
 20
-141.32779705
 30
0.0
 11
183.68812462
 21
-141.32779705
 31
0.0
  0
LINE
  5
1D0
100
AcDbEntity
  8
レイヤー_1
  6
PHANTOM
 62
       7
100
AcDbLine
 10
201.68812462
 20
-141.32779705
 30
0.0
 11
201.68812462
 21
-93.32779705
 31
0.0
  0
LINE
  5
1D1
100
AcDbEntity
  8
レイヤー_1
  6
PHANTOM
 62
       7
100
AcDbLine
 10
201.68812462
 20
-93.32779705
 30
0.0
 11
183.68812462
 21
-93.32779705
 31
0.0
  0
LINE
  5
1D2
100
AcDbEntity
  8
レイヤー_1
  6
PHANTOM
 62
       7
100
AcDbLine
 10
68.68812462
 20
-141.32779705
 30
0.0
 11
50.68812462
 21
-141.32779705
 31
0.0
  0
LINE
  5
1D3
100
AcDbEntity
  8
レイヤー_1
  6
PHANTOM
 62
       7
100
AcDbLine
 10
50.68812462
 20
-141.32779705
 30
0.0
 11
50.68812462
 21
-93.32779705
 31
0.0
  0
LINE
  5
1D4
100
AcDbEntity
  8
レイヤー_1
  6
PHANTOM
 62
       7
100
AcDbLine
 10
68.68812462
 20
-141.32779705
 30
0.0
 11
68.68812462
 21
-93.32779705
 31
0.0
  0
LINE
  5
1D5
100
AcDbEntity
  8
レイヤー_1
  6
PHANTOM
 62
       7
100
AcDbLine
 10
-84.31187538
 20
-141.32779705
 30
0.0
 11
-102.31187538
 21
-141.32779705
 31
0.0
  0
LINE
  5
1D6
100
AcDbEntity
  8
レイヤー_1
  6
PHANTOM
 62
       7
100
AcDbLine
 10
-102.31187538
 20
-141.32779705
 30
0.0
 11
-102.31187538
 21
-93.32779705
 31
0.0
  0
LINE
  5
1D7
100
AcDbEntity
  8
レイヤー_1
  6
PHANTOM
 62
       7
100
AcDbLine
 10
-84.31187538
 20
-141.32779705
 30
0.0
 11
-84.31187538
 21
-93.32779705
 31
0.0
  0
LINE
  5
1D8
100
AcDbEntity
  8
0
  6
PHANTOM
 62
       7
100
AcDbLine
 10
220.15253223
 20
-91.70481443
 30
0.0
 11
212.99036413
 21
-91.70481443
 31
0.0
  0
LINE
  5
1D9
100
AcDbEntity
  8
0
  6
PHANTOM
 62
       7
100
AcDbLine
 10
220.15253223
 20
-152.91358662
 30
0.0
 11
220.15253223
 21
-91.70481443
 31
0.0
  0
LINE
  5
1DA
100
AcDbEntity
  8
0
  6
PHANTOM
 62
       7
100
AcDbLine
 10
222.40210965
 20
-89.20697284
 30
0.0
 11
210.48948257
 21
-89.20697284
 31
0.0
  0
LINE
  5
1DB
100
AcDbEntity
  8
0
  6
PHANTOM
 62
       7
100
AcDbLine
 10
210.48948257
 20
-89.20697284
 30
0.0
 11
210.48948257
 21
-155.41446818
 31
0.0
  0
LINE
  5
1DC
100
AcDbEntity
  8
0
  6
PHANTOM
 62
       7
100
AcDbLine
 10
212.99036413
 20
-152.91358662
 30
0.0
 11
220.15253223
 21
-152.91358662
 31
0.0
  0
LINE
  5
1DD
100
AcDbEntity
  8
0
  6
PHANTOM
 62
       7
100
AcDbLine
 10
210.48948257
 20
-155.41446818
 30
0.0
 11
222.40210965
 21
-155.41446818
 31
0.0
  0
LINE
  5
1DE
100
AcDbEntity
  8
0
  6
PHANTOM
 62
       7
100
AcDbLine
 10
212.99036413
 20
-91.70481443
 30
0.0
 11
212.99036413
 21
-152.91358662
 31
0.0
  0
LINE
  5
1DF
100
AcDbEntity
  8
0
  6
PHANTOM
 62
       7
100
AcDbLine
 10
222.40210965
 20
-155.41446818
 30
0.0
 11
222.40210965
 21
-89.20697284
 31
0.0
  0
CIRCLE
  5
1E0
100
AcDbEntity
  8
0
  6
CONTINUOUS
 62
       7
100
AcDbCircle
 10
232.3144368
 20
-84.71264766
 30
0.0
 40
2.5
  0
LINE
  5
1E1
100
AcDbEntity
  8
SLD-0_2
  6
CONTINUOUS
 62
       7
100
AcDbLine
 10
259.18812462
 20
-92.82779705
 30
0.0
 11
261.68812462
 21
-90.32779705
 31
0.0
  0
LINE
  5
1E2
100
AcDbEntity
  8
SLD-0_2
  6
CONTINUOUS
 62
       7
100
AcDbLine
 10
-218.31187538
 20
-140.32779705
 30
0.0
 11
-218.31187538
 21
-102.32779705
 31
0.0
  0
LINE
  5
1E3
100
AcDbEntity
  8
SLD-0_2
  6
CONTINUOUS
 62
       7
100
AcDbLine
 10
-210.81187538
 20
-99.82779705
 30
0.0
 11
-215.81187538
 21
-99.82779705
 31
0.0
  0
LINE
  5
1E4
100
AcDbEntity
  8
SLD-0_2
  6
CONTINUOUS
 62
       7
100
AcDbLine
 10
-215.81187538
 20
-99.82779705
 30
0.0
 11
-218.31187538
 21
-102.32779705
 31
0.0
  0
LINE
  5
1E5
100
AcDbEntity
  8
SLD-0_2
  6
CONTINUOUS
 62
       7
100
AcDbLine
 10
-215.81187538
 20
-149.82779705
 30
0.0
 11
-218.31187538
 21
-152.32779705
 31
0.0
  0
LINE
  5
1E6
100
AcDbEntity
  8
SLD-0_2
  6
CONTINUOUS
 62
       7
100
AcDbLine
 10
-218.31187538
 20
-162.82779705
 30
0.0
 11
-218.31187538
 21
-152.32779705
 31
0.0
  0
LINE
  5
1E7
100
AcDbEntity
  8
SLD-0_2
  6
CONTINUOUS
 62
       7
100
AcDbLine
 10
-210.81187538
 20
-92.82779705
 30
0.0
 11
-215.81187538
 21
-92.82779705
 31
0.0
  0
LINE
  5
1E8
100
AcDbEntity
  8
SLD-0_2
  6
CONTINUOUS
 62
       7
100
AcDbLine
 10
-215.81187538
 20
-92.82779705
 30
0.0
 11
-218.31187538
 21
-90.32779705
 31
0.0
  0
LINE
  5
1E9
100
AcDbEntity
  8
SLD-0_2
  6
CONTINUOUS
 62
       7
100
AcDbLine
 10
261.68812462
 20
-162.82779705
 30
0.0
 11
261.68812462
 21
-152.32779705
 31
0.0
  0
LINE
  5
1EA
100
AcDbEntity
  8
SLD-0_2
  6
CONTINUOUS
 62
       7
100
AcDbLine
 10
254.18812462
 20
-149.82779705
 30
0.0
 11
259.18812462
 21
-149.82779705
 31
0.0
  0
LINE
  5
1EB
100
AcDbEntity
  8
SLD-0_2
  6
CONTINUOUS
 62
       7
100
AcDbLine
 10
254.18812462
 20
-142.82779705
 30
0.0
 11
259.18812462
 21
-142.82779705
 31
0.0
  0
LINE
  5
1EC
100
AcDbEntity
  8
SLD-0_2
  6
CONTINUOUS
 62
       7
100
AcDbLine
 10
259.18812462
 20
-165.32779705
 30
0.0
 11
261.68812462
 21
-162.82779705
 31
0.0
  0
LINE
  5
1ED
100
AcDbEntity
  8
SLD-0_2
  6
CONTINUOUS
 62
       7
100
AcDbLine
 10
254.18812462
 20
-99.82779705
 30
0.0
 11
259.18812462
 21
-99.82779705
 31
0.0
  0
LINE
  5
1EE
100
AcDbEntity
  8
SLD-0_2
  6
CONTINUOUS
 62
       7
100
AcDbLine
 10
261.68812462
 20
-90.32779705
 30
0.0
 11
261.68812462
 21
-79.82779705
 31
0.0
  0
LINE
  5
1EF
100
AcDbEntity
  8
SLD-0_2
  6
CONTINUOUS
 62
       7
100
AcDbLine
 10
-215.81187538
 20
-142.82779705
 30
0.0
 11
-218.31187538
 21
-140.32779705
 31
0.0
  0
LINE
  5
1F0
100
AcDbEntity
  8
SLD-0_2
  6
CONTINUOUS
 62
       7
100
AcDbLine
 10
-210.81187538
 20
-149.82779705
 30
0.0
 11
-215.81187538
 21
-149.82779705
 31
0.0
  0
LINE
  5
1F1
100
AcDbEntity
  8
SLD-0_2
  6
CONTINUOUS
 62
       7
100
AcDbLine
 10
-218.31187538
 20
-79.82779705
 30
0.0
 11
-215.81187538
 21
-77.32779705
 31
0.0
  0
LINE
  5
1F2
100
AcDbEntity
  8
SLD-0_2
  6
CONTINUOUS
 62
       7
100
AcDbLine
 10
-210.81187538
 20
-142.82779705
 30
0.0
 11
-215.81187538
 21
-142.82779705
 31
0.0
  0
LINE
  5
1F3
100
AcDbEntity
  8
SLD-0_2
  6
CONTINUOUS
 62
       7
100
AcDbLine
 10
261.68812462
 20
-140.32779705
 30
0.0
 11
261.68812462
 21
-102.32779705
 31
0.0
  0
LINE
  5
1F4
100
AcDbEntity
  8
SLD-0_2
  6
CONTINUOUS
 62
       7
100
AcDbLine
 10
259.18812462
 20
-142.82779705
 30
0.0
 11
261.68812462
 21
-140.32779705
 31
0.0
  0
LINE
  5
1F5
100
AcDbEntity
  8
SLD-0_2
  6
CONTINUOUS
 62
       7
100
AcDbLine
 10
259.18812462
 20
-99.82779705
 30
0.0
 11
261.68812462
 21
-102.32779705
 31
0.0
  0
LINE
  5
1F6
100
AcDbEntity
  8
SLD-0_2
  6
CONTINUOUS
 62
       7
100
AcDbLine
 10
261.68812462
 20
-79.82779705
 30
0.0
 11
259.18812462
 21
-77.32779705
 31
0.0
  0
LINE
  5
1F7
100
AcDbEntity
  8
SLD-0_2
  6
CONTINUOUS
 62
       7
100
AcDbLine
 10
259.18812462
 20
-149.82779705
 30
0.0
 11
261.68812462
 21
-152.32779705
 31
0.0
  0
LINE
  5
1F8
100
AcDbEntity
  8
SLD-0_2
  6
CONTINUOUS
 62
       7
100
AcDbLine
 10
254.18812462
 20
-92.82779705
 30
0.0
 11
259.18812462
 21
-92.82779705
 31
0.0
  0
LINE
  5
1F9
100
AcDbEntity
  8
SLD-0_2
  6
CONTINUOUS
 62
       7
100
AcDbLine
 10
-218.31187538
 20
-90.32779705
 30
0.0
 11
-218.31187538
 21
-79.82779705
 31
0.0
  0
LINE
  5
1FA
100
AcDbEntity
  8
SLD-0_2
  6
CONTINUOUS
 62
       7
100
AcDbLine
 10
-215.81187538
 20
-165.32779705
 30
0.0
 11
-218.31187538
 21
-162.82779705
 31
0.0
  0
LINE
  5
1FB
100
AcDbEntity
  8
SLD-0_2
  6
CONTINUOUS
 62
       7
100
AcDbLine
 10
192.45638361
 20
326.17186884
 30
0.0
 11
196.76098039
 21
326.17186884
 31
0.0
  0
LINE
  5
1FC
100
AcDbEntity
  8
SLD-0_2
  6
CONTINUOUS
 62
       7
100
AcDbLine
 10
-84.29939803
 20
138.75325151
 30
0.0
 11
-84.29939803
 21
151.00230187
 31
0.0
  0
LINE
  5
1FD
100
AcDbEntity
  8
SLD-0_2
  6
CONTINUOUS
 62
       7
100
AcDbLine
 10
-75.80065669
 20
138.75325151
 30
0.0
 11
-75.80065669
 21
151.00230187
 31
0.0
  0
LINE
  5
1FE
100
AcDbEntity
  8
SLD-0_2
  6
CONTINUOUS
 62
       7
100
AcDbLine
 10
-6.60081805
 20
151.00230187
 30
0.0
 11
-6.60081805
 21
138.75325151
 31
0.0
  0
LINE
  5
1FF
100
AcDbEntity
  8
SLD-0_2
  6
CONTINUOUS
 62
       7
100
AcDbLine
 10
-7.80059267
 20
138.75325151
 30
0.0
 11
-7.80059267
 21
151.00230187
 31
0.0
  0
LINE
  5
200
100
AcDbEntity
  8
SLD-0_2
  6
CONTINUOUS
 62
       7
100
AcDbLine
 10
34.70020733
 20
138.75325151
 30
0.0
 11
34.70020733
 21
151.00230187
 31
0.0
  0
LINE
  5
201
100
AcDbEntity
  8
SLD-0_2
  6
CONTINUOUS
 62
       7
100
AcDbLine
 10
-63.05001136
 20
151.00230187
 30
0.0
 11
-63.05001136
 21
163.25337889
 31
0.0
  0
LINE
  5
202
100
AcDbEntity
  8
SLD-0_2
  6
CONTINUOUS
 62
       7
100
AcDbLine
 10
38.95008466
 20
151.00230187
 30
0.0
 11
38.95008466
 21
163.25337889
 31
0.0
  0
LINE
  5
203
100
AcDbEntity
  8
SLD-0_2
  6
CONTINUOUS
 62
       7
100
AcDbLine
 10
67.72643577
 20
138.75325151
 30
0.0
 11
67.72643577
 21
151.00230187
 31
0.0
  0
LINE
  5
204
100
AcDbEntity
  8
SLD-0_2
  6
CONTINUOUS
 62
       7
100
AcDbLine
 10
111.42498375
 20
151.00230187
 30
0.0
 11
111.42498375
 21
138.75325151
 31
0.0
  0
LINE
  5
205
100
AcDbEntity
  8
SLD-0_2
  6
CONTINUOUS
 62
       7
100
AcDbLine
 10
131.47662245
 20
151.00230187
 30
0.0
 11
131.47662245
 21
163.25337889
 31
0.0
  0
LINE
  5
206
100
AcDbEntity
  8
SLD-0_2
  6
CONTINUOUS
 62
       7
100
AcDbLine
 10
182.47515048
 20
151.00230187
 30
0.0
 11
182.47515048
 21
163.25337889
 31
0.0
  0
LINE
  5
207
100
AcDbEntity
  8
SLD-0_2
  6
CONTINUOUS
 62
       7
100
AcDbLine
 10
-29.56981413
 20
287.68990849
 30
0.0
 11
-44.56801023
 21
287.68990849
 31
0.0
  0
LINE
  5
208
100
AcDbEntity
  8
SLD-0_2
  6
CONTINUOUS
 62
       7
100
AcDbLine
 10
-106.37362976
 20
138.67218566
 30
0.0
 11
239.6731896
 21
138.67218566
 31
0.0
  0
LINE
  5
209
100
AcDbEntity
  8
SLD-0_2
  6
CONTINUOUS
 62
       7
100
AcDbLine
 10
23.19493616
 20
315.42152343
 30
0.0
 11
23.19493616
 21
326.17186884
 31
0.0
  0
LINE
  5
20A
100
AcDbEntity
  8
SLD-0_2
  6
CONTINUOUS
 62
       7
100
AcDbLine
 10
-11.24285145
 20
315.42152343
 30
0.0
 11
-11.24285145
 21
326.17186884
 31
0.0
  0
LINE
  5
20B
100
AcDbEntity
  8
SLD-0_2
  6
CONTINUOUS
 62
       7
100
AcDbLine
 10
-97.3317472
 20
315.42152343
 30
0.0
 11
40.41332331
 21
315.42152343
 31
0.0
  0
LINE
  5
20C
100
AcDbEntity
  8
SLD-0_2
  6
CONTINUOUS
 62
       7
100
AcDbLine
 10
-97.3317472
 20
326.17186884
 30
0.0
 11
-97.3317472
 21
315.42152343
 31
0.0
  0
LINE
  5
20D
100
AcDbEntity
  8
SLD-0_2
  6
CONTINUOUS
 62
       7
100
AcDbLine
 10
93.45065753
 20
304.67219134
 30
0.0
 11
93.45065753
 21
315.42152343
 31
0.0
  0
LINE
  5
20E
100
AcDbEntity
  8
SLD-0_2
  6
CONTINUOUS
 62
       7
100
AcDbLine
 10
152.8516612
 20
392.67221457
 30
0.0
 11
152.8516612
 21
380.35121826
 31
0.0
  0
LINE
  5
20F
100
AcDbEntity
  8
SLD-0_2
  6
CONTINUOUS
 62
       7
100
AcDbLine
 10
107.93509879
 20
392.67221457
 30
0.0
 11
107.93509879
 21
380.35121826
 31
0.0
  0
LINE
  5
210
100
AcDbEntity
  8
SLD-0_2
  6
CONTINUOUS
 62
       7
100
AcDbLine
 10
140.80122217
 20
315.42152343
 30
0.0
 11
140.80122217
 21
326.17186884
 31
0.0
  0
LINE
  5
211
100
AcDbEntity
  8
SLD-0_2
  6
CONTINUOUS
 62
       7
100
AcDbLine
 10
-95.85229539
 20
156.94645553
 30
0.0
 11
38.90752509
 21
156.94645553
 31
0.0
  0
LINE
  5
212
100
AcDbEntity
  8
SLD-0_2
  6
CONTINUOUS
 62
       7
100
AcDbLine
 10
60.42645573
 20
138.75325151
 30
0.0
 11
196.72652741
 21
138.75325151
 31
0.0
  0
LINE
  5
213
100
AcDbEntity
  8
SLD-0_2
  6
CONTINUOUS
 62
       7
100
AcDbLine
 10
175.17517043
 20
151.00230187
 30
0.0
 11
175.17517043
 21
163.25337889
 31
0.0
  0
LINE
  5
214
100
AcDbEntity
  8
SLD-0_2
  6
CONTINUOUS
 62
       7
100
AcDbLine
 10
54.67888676
 20
151.00230187
 30
0.0
 11
190.97490515
 21
151.00230187
 31
0.0
  0
LINE
  5
215
100
AcDbEntity
  8
SLD-0_2
  6
CONTINUOUS
 62
       7
100
AcDbLine
 10
-28.24515132
 20
293.47290428
 30
0.0
 11
-28.22373396
 21
293.16723629
 31
0.0
  0
LINE
  5
216
100
AcDbEntity
  8
SLD-0_2
  6
CONTINUOUS
 62
       7
100
AcDbLine
 10
-29.24996739
 20
288.349638
 30
0.0
 11
-29.26465605
 21
288.38280079
 31
0.0
  0
LINE
  5
217
100
AcDbEntity
  8
SLD-0_2
  6
CONTINUOUS
 62
       7
100
AcDbLine
 10
259.18812462
 20
392.67220295
 30
0.0
 11
-215.81187538
 21
392.67220295
 31
0.0
  0
LINE
  5
218
100
AcDbEntity
  8
SLD-0_2
  6
CONTINUOUS
 62
       7
100
AcDbLine
 10
254.18812462
 20
370.17220295
 30
0.0
 11
259.18812462
 21
370.17220295
 31
0.0
  0
LINE
  5
219
100
AcDbEntity
  8
SLD-0_2
  6
CONTINUOUS
 62
       7
100
AcDbLine
 10
-218.31187538
 20
390.17220295
 30
0.0
 11
-215.81187538
 21
392.67220295
 31
0.0
  0
LINE
  5
21A
100
AcDbEntity
  8
SLD-0_2
  6
CONTINUOUS
 62
       7
100
AcDbLine
 10
-210.81187538
 20
327.17220295
 30
0.0
 11
-215.81187538
 21
327.17220295
 31
0.0
  0
LINE
  5
21B
100
AcDbEntity
  8
SLD-0_2
  6
CONTINUOUS
 62
       7
100
AcDbLine
 10
-93.02613709
 20
315.42152343
 30
0.0
 11
-93.02613709
 21
304.67219134
 31
0.0
  0
LINE
  5
21C
100
AcDbEntity
  8
SLD-0_2
  6
CONTINUOUS
 62
       7
100
AcDbLine
 10
-66.09910075
 20
151.00230187
 30
0.0
 11
-66.09910075
 21
138.75325151
 31
0.0
  0
LINE
  5
21D
100
AcDbEntity
  8
SLD-0_2
  6
CONTINUOUS
 62
       7
100
AcDbLine
 10
1.89893662
 20
151.00230187
 30
0.0
 11
1.89893662
 21
138.75325151
 31
0.0
  0
LINE
  5
21E
100
AcDbEntity
  8
SLD-0_2
  6
CONTINUOUS
 62
       7
100
AcDbLine
 10
-2.35094072
 20
163.25337889
 30
0.0
 11
-2.35094072
 21
151.00230187
 31
0.0
  0
LINE
  5
21F
100
AcDbEntity
  8
SLD-0_2
  6
CONTINUOUS
 62
       7
100
AcDbLine
 10
30.45032999
 20
151.00230187
 30
0.0
 11
30.45032999
 21
163.25337889
 31
0.0
  0
LINE
  5
220
100
AcDbEntity
  8
SLD-0_2
  6
CONTINUOUS
 62
       7
100
AcDbLine
 10
85.92571974
 20
151.00230187
 30
0.0
 11
85.92571974
 21
138.75325151
 31
0.0
  0
LINE
  5
221
100
AcDbEntity
  8
SLD-0_2
  6
CONTINUOUS
 62
       7
100
AcDbLine
 10
93.22772643
 20
138.75325151
 30
0.0
 11
93.22772643
 21
151.00230187
 31
0.0
  0
LINE
  5
222
100
AcDbEntity
  8
SLD-0_2
  6
CONTINUOUS
 62
       7
100
AcDbLine
 10
145.42602908
 20
151.00230187
 30
0.0
 11
145.42602908
 21
138.75325151
 31
0.0
  0
LINE
  5
223
100
AcDbEntity
  8
SLD-0_2
  6
CONTINUOUS
 62
       7
100
AcDbLine
 10
80.47809443
 20
151.00230187
 30
0.0
 11
80.47809443
 21
163.25337889
 31
0.0
  0
LINE
  5
224
100
AcDbEntity
  8
SLD-0_2
  6
CONTINUOUS
 62
       7
100
AcDbLine
 10
90.17762372
 20
163.25337889
 30
0.0
 11
90.17762372
 21
151.00230187
 31
0.0
  0
LINE
  5
225
100
AcDbEntity
  8
SLD-0_2
  6
CONTINUOUS
 62
       7
100
AcDbLine
 10
239.6731896
 20
138.67218566
 30
0.0
 11
239.6731896
 21
135.67072245
 31
0.0
  0
LINE
  5
226
100
AcDbEntity
  8
SLD-0_2
  6
CONTINUOUS
 62
       7
100
AcDbLine
 10
-62.4045245
 20
392.67221457
 30
0.0
 11
-62.4045245
 21
380.35121826
 31
0.0
  0
LINE
  5
227
100
AcDbEntity
  8
SLD-0_2
  6
CONTINUOUS
 62
       7
100
AcDbLine
 10
-71.38864765
 20
392.67221457
 30
0.0
 11
-71.38864765
 21
380.35121826
 31
0.0
  0
LINE
  5
228
100
AcDbEntity
  8
SLD-0_2
  6
CONTINUOUS
 62
       7
100
AcDbLine
 10
110.66904467
 20
304.67219134
 30
0.0
 11
110.66904467
 21
315.42152343
 31
0.0
  0
LINE
  5
229
100
AcDbEntity
  8
SLD-0_2
  6
CONTINUOUS
 62
       7
100
AcDbLine
 10
161.83578434
 20
392.67221457
 30
0.0
 11
161.83578434
 21
380.35121826
 31
0.0
  0
LINE
  5
22A
100
AcDbEntity
  8
SLD-0_2
  6
CONTINUOUS
 62
       7
100
AcDbLine
 10
89.14606074
 20
315.42152343
 30
0.0
 11
89.14606074
 21
326.17186884
 31
0.0
  0
LINE
  5
22B
100
AcDbEntity
  8
SLD-0_2
  6
CONTINUOUS
 62
       7
100
AcDbLine
 10
54.70928645
 20
326.17186884
 30
0.0
 11
54.70928645
 21
315.42152343
 31
0.0
  0
LINE
  5
22C
100
AcDbEntity
  8
SLD-0_2
  6
CONTINUOUS
 62
       7
100
AcDbLine
 10
54.67888676
 20
163.25337889
 30
0.0
 11
54.67888676
 21
151.00230187
 31
0.0
  0
LINE
  5
22D
100
AcDbEntity
  8
SLD-0_2
  6
CONTINUOUS
 62
       7
100
AcDbLine
 10
-28.57133304
 20
288.61002814
 30
0.0
 11
-28.67421606
 21
288.4876239
 31
0.0
  0
LINE
  5
22E
100
AcDbEntity
  8
SLD-0_2
  6
CONTINUOUS
 62
       7
100
AcDbLine
 10
-218.31187538
 20
329.67220295
 30
0.0
 11
-218.31187538
 21
367.67220295
 31
0.0
  0
LINE
  5
22F
100
AcDbEntity
  8
SLD-0_2
  6
CONTINUOUS
 62
       7
100
AcDbLine
 10
-26.5318713
 20
304.77757695
 30
0.0
 11
-26.5318713
 21
294.32008193
 31
0.0
  0
LINE
  5
230
100
AcDbEntity
  8
SLD-0_2
  6
CONTINUOUS
 62
       7
100
AcDbLine
 10
-88.55130202
 20
151.00230187
 30
0.0
 11
-88.55130202
 21
163.25337889
 31
0.0
  0
LINE
  5
231
100
AcDbEntity
  8
SLD-0_2
  6
CONTINUOUS
 62
       7
100
AcDbLine
 10
110.22723577
 20
138.75325151
 30
0.0
 11
110.22723577
 21
151.00230187
 31
0.0
  0
LINE
  5
232
100
AcDbEntity
  8
SLD-0_2
  6
CONTINUOUS
 62
       7
100
AcDbLine
 10
118.72699045
 20
138.75325151
 30
0.0
 11
118.72699045
 21
151.00230187
 31
0.0
  0
LINE
  5
233
100
AcDbEntity
  8
SLD-0_2
  6
CONTINUOUS
 62
       7
100
AcDbLine
 10
173.97539581
 20
151.00230187
 30
0.0
 11
173.97539581
 21
163.25337889
 31
0.0
  0
LINE
  5
234
100
AcDbEntity
  8
SLD-0_2
  6
CONTINUOUS
 62
       7
100
AcDbLine
 10
195.22478248
 20
151.00230187
 30
0.0
 11
195.22478248
 21
138.75325151
 31
0.0
  0
LINE
  5
235
100
AcDbEntity
  8
SLD-0_2
  6
CONTINUOUS
 62
       7
100
AcDbLine
 10
-53.42344133
 20
392.67221457
 30
0.0
 11
-53.42344133
 21
380.35121826
 31
0.0
  0
LINE
  5
236
100
AcDbEntity
  8
SLD-0_2
  6
CONTINUOUS
 62
       7
100
AcDbLine
 10
-58.59037613
 20
304.67219134
 30
0.0
 11
-58.59037613
 21
315.42152343
 31
0.0
  0
LINE
  5
237
100
AcDbEntity
  8
SLD-0_2
  6
CONTINUOUS
 62
       7
100
AcDbLine
 10
127.88743182
 20
304.67219134
 30
0.0
 11
127.88743182
 21
315.42152343
 31
0.0
  0
LINE
  5
238
100
AcDbEntity
  8
SLD-0_2
  6
CONTINUOUS
 62
       7
100
AcDbLine
 10
67.62307681
 20
304.67219134
 30
0.0
 11
67.62307681
 21
315.42152343
 31
0.0
  0
LINE
  5
239
100
AcDbEntity
  8
SLD-0_2
  6
CONTINUOUS
 62
       7
100
AcDbLine
 10
183.84719004
 20
315.42152343
 30
0.0
 11
183.84719004
 21
326.17186884
 31
0.0
  0
LINE
  5
23A
100
AcDbEntity
  8
SLD-0_2
  6
CONTINUOUS
 62
       7
100
AcDbLine
 10
166.62677624
 20
315.42152343
 30
0.0
 11
166.62677624
 21
326.17186884
 31
0.0
  0
LINE
  5
23B
100
AcDbEntity
  8
SLD-0_2
  6
CONTINUOUS
 62
       7
100
AcDbLine
 10
192.45435696
 20
326.17186884
 30
0.0
 11
54.70928645
 21
326.17186884
 31
0.0
  0
LINE
  5
23C
100
AcDbEntity
  8
SLD-0_2
  6
CONTINUOUS
 62
       7
100
AcDbLine
 10
-97.3489737
 20
151.00230187
 30
0.0
 11
38.95008466
 21
151.00230187
 31
0.0
  0
LINE
  5
23D
100
AcDbEntity
  8
SLD-0_2
  6
CONTINUOUS
 62
       7
100
AcDbLine
 10
141.17615174
 20
151.00230187
 30
0.0
 11
141.17615174
 21
163.25337889
 31
0.0
  0
LINE
  5
23E
100
AcDbEntity
  8
SLD-0_2
  6
CONTINUOUS
 62
       7
100
AcDbLine
 10
212.88092523
 20
143.67394878
 30
0.0
 11
212.88092523
 21
138.67218566
 31
0.0
  0
LINE
  5
23F
100
AcDbEntity
  8
SLD-0_2
  6
CONTINUOUS
 62
       7
100
AcDbLine
 10
-29.23065585
 20
288.31586828
 30
0.0
 11
-29.24996739
 21
288.349638
 31
0.0
  0
LINE
  5
240
100
AcDbEntity
  8
SLD-0_2
  6
CONTINUOUS
 62
       7
100
AcDbLine
 10
261.68812462
 20
307.17220295
 30
0.0
 11
261.68812462
 21
317.67220295
 31
0.0
  0
LINE
  5
241
100
AcDbEntity
  8
SLD-0_2
  6
CONTINUOUS
 62
       7
100
AcDbLine
 10
40.41332331
 20
315.42152343
 30
0.0
 11
40.41332331
 21
326.17186884
 31
0.0
  0
LINE
  5
242
100
AcDbEntity
  8
SLD-0_2
  6
CONTINUOUS
 62
       7
100
AcDbLine
 10
-58.80013402
 20
138.75325151
 30
0.0
 11
-58.80013402
 21
151.00230187
 31
0.0
  0
LINE
  5
243
100
AcDbEntity
  8
SLD-0_2
  6
CONTINUOUS
 62
       7
100
AcDbLine
 10
-49.10060473
 20
151.00230187
 30
0.0
 11
-49.10060473
 21
138.75325151
 31
0.0
  0
LINE
  5
244
100
AcDbEntity
  8
SLD-0_2
  6
CONTINUOUS
 62
       7
100
AcDbLine
 10
9.20094331
 20
138.75325151
 30
0.0
 11
9.20094331
 21
151.00230187
 31
0.0
  0
LINE
  5
245
100
AcDbEntity
  8
SLD-0_2
  6
CONTINUOUS
 62
       7
100
AcDbLine
 10
27.40022728
 20
151.00230187
 30
0.0
 11
27.40022728
 21
138.75325151
 31
0.0
  0
LINE
  5
246
100
AcDbEntity
  8
SLD-0_2
  6
CONTINUOUS
 62
       7
100
AcDbLine
 10
-44.84971407
 20
163.25337889
 30
0.0
 11
-44.84971407
 21
151.00230187
 31
0.0
  0
LINE
  5
247
100
AcDbEntity
  8
SLD-0_2
  6
CONTINUOUS
 62
       7
100
AcDbLine
 10
-46.04948869
 20
151.00230187
 30
0.0
 11
-46.04948869
 21
163.25337889
 31
0.0
  0
LINE
  5
248
100
AcDbEntity
  8
SLD-0_2
  6
CONTINUOUS
 62
       7
100
AcDbLine
 10
-29.05099267
 20
151.00230187
 30
0.0
 11
-29.05099267
 21
163.25337889
 31
0.0
  0
LINE
  5
249
100
AcDbEntity
  8
SLD-0_2
  6
CONTINUOUS
 62
       7
100
AcDbLine
 10
14.65059527
 20
163.25337889
 30
0.0
 11
14.65059527
 21
151.00230187
 31
0.0
  0
LINE
  5
24A
100
AcDbEntity
  8
SLD-0_2
  6
CONTINUOUS
 62
       7
100
AcDbLine
 10
43.199962
 20
151.00230187
 30
0.0
 11
43.199962
 21
138.75325151
 31
0.0
  0
LINE
  5
24B
100
AcDbEntity
  8
SLD-0_2
  6
CONTINUOUS
 62
       7
100
AcDbLine
 10
94.42547441
 20
151.00230187
 30
0.0
 11
94.42547441
 21
138.75325151
 31
0.0
  0
LINE
  5
24C
100
AcDbEntity
  8
SLD-0_2
  6
CONTINUOUS
 62
       7
100
AcDbLine
 10
141.17817839
 20
163.25337889
 30
0.0
 11
141.17817839
 21
151.00230187
 31
0.0
  0
LINE
  5
24D
100
AcDbEntity
  8
SLD-0_2
  6
CONTINUOUS
 62
       7
100
AcDbLine
 10
-17.48998874
 20
392.67221457
 30
0.0
 11
-17.48998874
 21
380.35121826
 31
0.0
  0
LINE
  5
24E
100
AcDbEntity
  8
SLD-0_2
  6
CONTINUOUS
 62
       7
100
AcDbLine
 10
125.90131842
 20
392.67221457
 30
0.0
 11
125.90131842
 21
380.35121826
 31
0.0
  0
LINE
  5
24F
100
AcDbEntity
  8
SLD-0_2
  6
CONTINUOUS
 62
       7
100
AcDbLine
 10
72.00265951
 20
392.67221457
 30
0.0
 11
72.00265951
 21
380.35121826
 31
0.0
  0
LINE
  5
250
100
AcDbEntity
  8
SLD-0_2
  6
CONTINUOUS
 62
       7
100
AcDbLine
 10
132.1920286
 20
315.42152343
 30
0.0
 11
132.1920286
 21
326.17186884
 31
0.0
  0
LINE
  5
251
100
AcDbEntity
  8
SLD-0_2
  6
CONTINUOUS
 62
       7
100
AcDbLine
 10
71.92970024
 20
315.42152343
 30
0.0
 11
71.92970024
 21
326.17186884
 31
0.0
  0
LINE
  5
252
100
AcDbEntity
  8
SLD-0_2
  6
CONTINUOUS
 62
       7
100
AcDbLine
 10
-91.60039141
 20
138.75325151
 30
0.0
 11
44.69765363
 21
138.75325151
 31
0.0
  0
LINE
  5
253
100
AcDbEntity
  8
SLD-0_2
  6
CONTINUOUS
 62
       7
100
AcDbLine
 10
196.72652741
 20
138.75325151
 30
0.0
 11
196.72652741
 21
151.00230187
 31
0.0
  0
LINE
  5
254
100
AcDbEntity
  8
SLD-0_2
  6
CONTINUOUS
 62
       7
100
AcDbLine
 10
149.67387977
 20
151.00230187
 30
0.0
 11
149.67387977
 21
163.25337889
 31
0.0
  0
LINE
  5
255
100
AcDbEntity
  8
SLD-0_2
  6
CONTINUOUS
 62
       7
100
AcDbLine
 10
-28.29201798
 20
294.04121826
 30
0.0
 11
-28.28102677
 21
293.91902985
 31
0.0
  0
LINE
  5
256
100
AcDbEntity
  8
SLD-0_2
  6
CONTINUOUS
 62
       7
100
AcDbLine
 10
-28.15531382
 20
291.60700327
 30
0.0
 11
-28.1511883
 21
291.17822768
 31
0.0
  0
LINE
  5
257
100
AcDbEntity
  8
SLD-0_2
  6
CONTINUOUS
 62
       7
100
AcDbLine
 10
-28.1511883
 20
291.17822768
 30
0.0
 11
-28.15572146
 21
290.75223433
 31
0.0
  0
LINE
  5
258
100
AcDbEntity
  8
SLD-0_2
  6
CONTINUOUS
 62
       7
100
AcDbLine
 10
-210.81187538
 20
377.17220295
 30
0.0
 11
-215.81187538
 21
377.17220295
 31
0.0
  0
LINE
  5
259
100
AcDbEntity
  8
SLD-0_2
  6
CONTINUOUS
 62
       7
100
AcDbLine
 10
254.18812462
 20
327.17220295
 30
0.0
 11
259.18812462
 21
327.17220295
 31
0.0
  0
LINE
  5
25A
100
AcDbEntity
  8
SLD-0_2
  6
CONTINUOUS
 62
       7
100
AcDbLine
 10
261.68812462
 20
390.17220295
 30
0.0
 11
259.18812462
 21
392.67220295
 31
0.0
  0
LINE
  5
25B
100
AcDbEntity
  8
SLD-0_2
  6
CONTINUOUS
 62
       7
100
AcDbLine
 10
-218.31187538
 20
379.67220295
 30
0.0
 11
-218.31187538
 21
390.17220295
 31
0.0
  0
LINE
  5
25C
100
AcDbEntity
  8
SLD-0_2
  6
CONTINUOUS
 62
       7
100
AcDbLine
 10
60.42746905
 20
143.01934201
 30
0.0
 11
195.18931618
 21
143.01934201
 31
0.0
  0
LINE
  5
25D
100
AcDbEntity
  8
SLD-0_2
  6
CONTINUOUS
 62
       7
100
AcDbLine
 10
-33.29884336
 20
138.75325151
 30
0.0
 11
-33.29884336
 21
151.00230187
 31
0.0
  0
LINE
  5
25E
100
AcDbEntity
  8
SLD-0_2
  6
CONTINUOUS
 62
       7
100
AcDbLine
 10
10.40071794
 20
151.00230187
 30
0.0
 11
10.40071794
 21
138.75325151
 31
0.0
  0
LINE
  5
25F
100
AcDbEntity
  8
SLD-0_2
  6
CONTINUOUS
 62
       7
100
AcDbLine
 10
-78.85177272
 20
163.25337889
 30
0.0
 11
-78.85177272
 21
151.00230187
 31
0.0
  0
LINE
  5
260
100
AcDbEntity
  8
SLD-0_2
  6
CONTINUOUS
 62
       7
100
AcDbLine
 10
-27.85121805
 20
163.25337889
 30
0.0
 11
-27.85121805
 21
151.00230187
 31
0.0
  0
LINE
  5
261
100
AcDbEntity
  8
SLD-0_2
  6
CONTINUOUS
 62
       7
100
AcDbLine
 10
-3.55274198
 20
151.00230187
 30
0.0
 11
-3.55274198
 21
163.25337889
 31
0.0
  0
LINE
  5
262
100
AcDbEntity
  8
SLD-0_2
  6
CONTINUOUS
 62
       7
100
AcDbLine
 10
64.67633306
 20
163.25337889
 30
0.0
 11
64.67633306
 21
151.00230187
 31
0.0
  0
LINE
  5
263
100
AcDbEntity
  8
SLD-0_2
  6
CONTINUOUS
 62
       7
100
AcDbLine
 10
187.92885573
 20
151.00230187
 30
0.0
 11
187.92885573
 21
138.75325151
 31
0.0
  0
LINE
  5
264
100
AcDbEntity
  8
SLD-0_2
  6
CONTINUOUS
 62
       7
100
AcDbLine
 10
114.47711311
 20
151.00230187
 30
0.0
 11
114.47711311
 21
163.25337889
 31
0.0
  0
LINE
  5
265
100
AcDbEntity
  8
SLD-0_2
  6
CONTINUOUS
 62
       7
100
AcDbLine
 10
190.97490515
 20
151.00230187
 30
0.0
 11
190.97490515
 21
163.25337889
 31
0.0
  0
LINE
  5
266
100
AcDbEntity
  8
SLD-0_2
  6
CONTINUOUS
 62
       7
100
AcDbLine
 10
60.42645573
 20
138.75325151
 30
0.0
 11
54.67888676
 21
138.75325151
 31
0.0
  0
LINE
  5
267
100
AcDbEntity
  8
SLD-0_2
  6
CONTINUOUS
 62
       7
100
AcDbLine
 10
-106.37362976
 20
135.67072245
 30
0.0
 11
-106.37362976
 21
138.67218566
 31
0.0
  0
LINE
  5
268
100
AcDbEntity
  8
SLD-0_2
  6
CONTINUOUS
 62
       7
100
AcDbLine
 10
36.41069682
 20
392.67221457
 30
0.0
 11
36.41069682
 21
380.35121826
 31
0.0
  0
LINE
  5
269
100
AcDbEntity
  8
SLD-0_2
  6
CONTINUOUS
 62
       7
100
AcDbLine
 10
36.11075317
 20
304.67219134
 30
0.0
 11
36.11075317
 21
315.42152343
 31
0.0
  0
LINE
  5
26A
100
AcDbEntity
  8
SLD-0_2
  6
CONTINUOUS
 62
       7
100
AcDbLine
 10
-84.41795684
 20
304.67219134
 30
0.0
 11
-84.41795684
 21
315.42152343
 31
0.0
  0
LINE
  5
26B
100
AcDbEntity
  8
SLD-0_2
  6
CONTINUOUS
 62
       7
100
AcDbLine
 10
63.32050667
 20
315.42152343
 30
0.0
 11
63.32050667
 21
326.17186884
 31
0.0
  0
LINE
  5
26C
100
AcDbEntity
  8
SLD-0_2
  6
CONTINUOUS
 62
       7
100
AcDbLine
 10
192.45435696
 20
315.42152343
 30
0.0
 11
192.45435696
 21
326.17186884
 31
0.0
  0
LINE
  5
26D
100
AcDbEntity
  8
SLD-0_2
  6
CONTINUOUS
 62
       7
100
AcDbLine
 10
35.89998195
 20
138.75325151
 30
0.0
 11
35.89998195
 21
151.00230187
 31
0.0
  0
LINE
  5
26E
100
AcDbEntity
  8
SLD-0_2
  6
CONTINUOUS
 62
       7
100
AcDbLine
 10
220.04511998
 20
143.67394878
 30
0.0
 11
212.88092523
 21
143.67394878
 31
0.0
  0
LINE
  5
26F
100
AcDbEntity
  8
SLD-0_2
  6
CONTINUOUS
 62
       7
100
AcDbLine
 10
-28.92439104
 20
288.26975009
 30
0.0
 11
-28.98994387
 21
288.23868036
 31
0.0
  0
LINE
  5
270
100
AcDbEntity
  8
SLD-0_2
  6
CONTINUOUS
 62
       7
100
AcDbLine
 10
-218.31187538
 20
124.67181295
 30
0.0
 11
-218.31187538
 21
122.67181295
 31
0.0
  0
LINE
  5
271
100
AcDbEntity
  8
SLD-0_2
  6
CONTINUOUS
 62
       7
100
AcDbLine
 10
259.18812462
 20
304.67220295
 30
0.0
 11
-29.56981413
 21
304.67220295
 31
0.0
  0
LINE
  5
272
100
AcDbEntity
  8
SLD-0_2
  6
CONTINUOUS
 62
       7
100
AcDbLine
 10
259.18812462
 20
377.17220295
 30
0.0
 11
261.68812462
 21
379.67220295
 31
0.0
  0
LINE
  5
273
100
AcDbEntity
  8
SLD-0_2
  6
CONTINUOUS
 62
       7
100
AcDbLine
 10
261.68812462
 20
329.67220295
 30
0.0
 11
261.68812462
 21
367.67220295
 31
0.0
  0
LINE
  5
274
100
AcDbEntity
  8
SLD-0_2
  6
CONTINUOUS
 62
       7
100
AcDbLine
 10
40.41332331
 20
326.17186884
 30
0.0
 11
44.71792009
 21
326.17186884
 31
0.0
  0
LINE
  5
275
100
AcDbEntity
  8
SLD-0_2
  6
CONTINUOUS
 62
       7
100
AcDbLine
 10
-15.10057272
 20
151.00230187
 30
0.0
 11
-15.10057272
 21
138.75325151
 31
0.0
  0
LINE
  5
276
100
AcDbEntity
  8
SLD-0_2
  6
CONTINUOUS
 62
       7
100
AcDbLine
 10
-19.35146338
 20
163.25337889
 30
0.0
 11
-19.35146338
 21
151.00230187
 31
0.0
  0
LINE
  5
277
100
AcDbEntity
  8
SLD-0_2
  6
CONTINUOUS
 62
       7
100
AcDbLine
 10
-20.55022468
 20
151.00230187
 30
0.0
 11
-20.55022468
 21
163.25337889
 31
0.0
  0
LINE
  5
278
100
AcDbEntity
  8
SLD-0_2
  6
CONTINUOUS
 62
       7
100
AcDbLine
 10
-91.60039141
 20
138.75325151
 30
0.0
 11
-97.3489737
 21
138.75325151
 31
0.0
  0
LINE
  5
279
100
AcDbEntity
  8
SLD-0_2
  6
CONTINUOUS
 62
       7
100
AcDbLine
 10
127.22674512
 20
138.75325151
 30
0.0
 11
127.22674512
 21
151.00230187
 31
0.0
  0
LINE
  5
27A
100
AcDbEntity
  8
SLD-0_2
  6
CONTINUOUS
 62
       7
100
AcDbLine
 10
135.72649979
 20
138.75325151
 30
0.0
 11
135.72649979
 21
151.00230187
 31
0.0
  0
LINE
  5
27B
100
AcDbEntity
  8
SLD-0_2
  6
CONTINUOUS
 62
       7
100
AcDbLine
 10
-31.06851909
 20
310.17149613
 30
0.0
 11
-29.06720584
 21
315.13981959
 31
0.0
  0
LINE
  5
27C
100
AcDbEntity
  8
SLD-0_2
  6
CONTINUOUS
 62
       7
100
AcDbLine
 10
-8.50586559
 20
392.67221457
 30
0.0
 11
-8.50586559
 21
380.35121826
 31
0.0
  0
LINE
  5
27D
100
AcDbEntity
  8
SLD-0_2
  6
CONTINUOUS
 62
       7
100
AcDbLine
 10
27.49953295
 20
304.67219134
 30
0.0
 11
27.49953295
 21
315.42152343
 31
0.0
  0
LINE
  5
27E
100
AcDbEntity
  8
SLD-0_2
  6
CONTINUOUS
 62
       7
100
AcDbLine
 10
18.89033938
 20
304.67219134
 30
0.0
 11
18.89033938
 21
315.42152343
 31
0.0
  0
LINE
  5
27F
100
AcDbEntity
  8
SLD-0_2
  6
CONTINUOUS
 62
       7
100
AcDbLine
 10
170.93339968
 20
304.67219134
 30
0.0
 11
170.93339968
 21
315.42152343
 31
0.0
  0
LINE
  5
280
100
AcDbEntity
  8
SLD-0_2
  6
CONTINUOUS
 62
       7
100
AcDbLine
 10
145.10581896
 20
304.67219134
 30
0.0
 11
145.10581896
 21
315.42152343
 31
0.0
  0
LINE
  5
281
100
AcDbEntity
  8
SLD-0_2
  6
CONTINUOUS
 62
       7
100
AcDbLine
 10
102.06187775
 20
304.67219134
 30
0.0
 11
102.06187775
 21
315.42152343
 31
0.0
  0
LINE
  5
282
100
AcDbEntity
  8
SLD-0_2
  6
CONTINUOUS
 62
       7
100
AcDbLine
 10
114.97364146
 20
315.42152343
 30
0.0
 11
114.97364146
 21
326.17186884
 31
0.0
  0
LINE
  5
283
100
AcDbEntity
  8
SLD-0_2
  6
CONTINUOUS
 62
       7
100
AcDbLine
 10
44.69765363
 20
151.00230187
 30
0.0
 11
-91.60039141
 21
151.00230187
 31
0.0
  0
LINE
  5
284
100
AcDbEntity
  8
SLD-0_2
  6
CONTINUOUS
 62
       7
100
AcDbLine
 10
-91.60039141
 20
143.01934201
 30
0.0
 11
43.16145572
 21
143.01934201
 31
0.0
  0
LINE
  5
285
100
AcDbEntity
  8
SLD-0_2
  6
CONTINUOUS
 62
       7
100
AcDbLine
 10
-29.1400264
 20
288.23559182
 30
0.0
 11
-29.17618111
 21
288.25637776
 31
0.0
  0
LINE
  5
286
100
AcDbEntity
  8
SLD-0_2
  6
CONTINUOUS
 62
       7
100
AcDbLine
 10
60.42746905
 20
144.69537852
 30
0.0
 11
195.18931618
 21
144.69537852
 31
0.0
  0
LINE
  5
287
100
AcDbEntity
  8
SLD-0_2
  6
CONTINUOUS
 62
       7
100
AcDbLine
 10
196.76098039
 20
326.17186884
 30
0.0
 11
196.76098039
 21
315.42152343
 31
0.0
  0
LINE
  5
288
100
AcDbEntity
  8
SLD-0_2
  6
CONTINUOUS
 62
       7
100
AcDbLine
 10
-87.35152739
 20
163.25337889
 30
0.0
 11
-87.35152739
 21
151.00230187
 31
0.0
  0
LINE
  5
289
100
AcDbEntity
  8
SLD-0_2
  6
CONTINUOUS
 62
       7
100
AcDbLine
 10
26.20045266
 20
138.75325151
 30
0.0
 11
26.20045266
 21
151.00230187
 31
0.0
  0
LINE
  5
28A
100
AcDbEntity
  8
SLD-0_2
  6
CONTINUOUS
 62
       7
100
AcDbLine
 10
44.69765363
 20
163.25337889
 30
0.0
 11
44.69765363
 21
151.00230187
 31
0.0
  0
LINE
  5
28B
100
AcDbEntity
  8
SLD-0_2
  6
CONTINUOUS
 62
       7
100
AcDbLine
 10
119.92676507
 20
151.00230187
 30
0.0
 11
119.92676507
 21
138.75325151
 31
0.0
  0
LINE
  5
28C
100
AcDbEntity
  8
SLD-0_2
  6
CONTINUOUS
 62
       7
100
AcDbLine
 10
186.72705446
 20
138.75325151
 30
0.0
 11
186.72705446
 21
151.00230187
 31
0.0
  0
LINE
  5
28D
100
AcDbEntity
  8
SLD-0_2
  6
CONTINUOUS
 62
       7
100
AcDbLine
 10
71.97631311
 20
151.00230187
 30
0.0
 11
71.97631311
 21
163.25337889
 31
0.0
  0
LINE
  5
28E
100
AcDbEntity
  8
SLD-0_2
  6
CONTINUOUS
 62
       7
100
AcDbLine
 10
97.47760377
 20
151.00230187
 30
0.0
 11
97.47760377
 21
163.25337889
 31
0.0
  0
LINE
  5
28F
100
AcDbEntity
  8
SLD-0_2
  6
CONTINUOUS
 62
       7
100
AcDbLine
 10
18.44447718
 20
392.67221457
 30
0.0
 11
18.44447718
 21
380.35121826
 31
0.0
  0
LINE
  5
290
100
AcDbEntity
  8
SLD-0_2
  6
CONTINUOUS
 62
       7
100
AcDbLine
 10
-80.37277079
 20
392.67221457
 30
0.0
 11
-80.37277079
 21
380.35121826
 31
0.0
  0
LINE
  5
291
100
AcDbEntity
  8
SLD-0_2
  6
CONTINUOUS
 62
       7
100
AcDbLine
 10
-15.54542159
 20
304.67219134
 30
0.0
 11
-15.54542159
 21
315.42152343
 31
0.0
  0
LINE
  5
292
100
AcDbEntity
  8
SLD-0_2
  6
CONTINUOUS
 62
       7
100
AcDbLine
 10
5.97857566
 20
315.42152343
 30
0.0
 11
5.97857566
 21
326.17186884
 31
0.0
  0
LINE
  5
293
100
AcDbEntity
  8
SLD-0_2
  6
CONTINUOUS
 62
       7
100
AcDbLine
 10
-80.11133341
 20
315.42152343
 30
0.0
 11
-80.11133341
 21
326.17186884
 31
0.0
  0
LINE
  5
294
100
AcDbEntity
  8
SLD-0_2
  6
CONTINUOUS
 62
       7
100
AcDbLine
 10
98.95300229
 20
392.67221457
 30
0.0
 11
98.95300229
 21
380.35121826
 31
0.0
  0
LINE
  5
295
100
AcDbEntity
  8
SLD-0_2
  6
CONTINUOUS
 62
       7
100
AcDbLine
 10
197.77025026
 20
380.35121826
 30
0.0
 11
54.03441323
 21
380.35121826
 31
0.0
  0
LINE
  5
296
100
AcDbEntity
  8
SLD-0_2
  6
CONTINUOUS
 62
       7
100
AcDbLine
 10
106.36647453
 20
315.42152343
 30
0.0
 11
106.36647453
 21
326.17186884
 31
0.0
  0
LINE
  5
297
100
AcDbEntity
  8
SLD-0_2
  6
CONTINUOUS
 62
       7
100
AcDbLine
 10
-95.85229539
 20
155.01911488
 30
0.0
 11
38.90752509
 21
155.01911488
 31
0.0
  0
LINE
  5
298
100
AcDbEntity
  8
SLD-0_2
  6
CONTINUOUS
 62
       7
100
AcDbLine
 10
196.72652741
 20
151.00230187
 30
0.0
 11
60.42645573
 21
151.00230187
 31
0.0
  0
LINE
  5
299
100
AcDbEntity
  8
SLD-0_2
  6
CONTINUOUS
 62
       7
100
AcDbLine
 10
-28.26482674
 20
293.72654699
 30
0.0
 11
-28.24515132
 21
293.47290428
 31
0.0
  0
LINE
  5
29A
100
AcDbEntity
  8
SLD-0_2
  6
CONTINUOUS
 62
       7
100
AcDbLine
 10
-28.36893789
 20
288.98371161
 30
0.0
 11
-28.46182536
 21
288.76623797
 31
0.0
  0
LINE
  5
29B
100
AcDbEntity
  8
SLD-0_2
  6
CONTINUOUS
 62
       7
100
AcDbLine
 10
-108.37291636
 20
124.67181295
 30
0.0
 11
-218.31187538
 21
124.67181295
 31
0.0
  0
LINE
  5
29C
100
AcDbEntity
  8
SLD-0_2
  6
CONTINUOUS
 62
       7
100
AcDbLine
 10
-210.81187538
 20
320.17220295
 30
0.0
 11
-215.81187538
 21
320.17220295
 31
0.0
  0
LINE
  5
29D
100
AcDbEntity
  8
SLD-0_2
  6
CONTINUOUS
 62
       7
100
AcDbLine
 10
56.17556507
 20
155.01911488
 30
0.0
 11
190.93538555
 21
155.01911488
 31
0.0
  0
LINE
  5
29E
100
AcDbEntity
  8
SLD-0_2
  6
CONTINUOUS
 62
       7
100
AcDbLine
 10
-50.29936603
 20
138.75325151
 30
0.0
 11
-50.29936603
 21
151.00230187
 31
0.0
  0
LINE
  5
29F
100
AcDbEntity
  8
SLD-0_2
  6
CONTINUOUS
 62
       7
100
AcDbLine
 10
21.94854867
 20
151.00230187
 30
0.0
 11
21.94854867
 21
163.25337889
 31
0.0
  0
LINE
  5
2A0
100
AcDbEntity
  8
SLD-0_2
  6
CONTINUOUS
 62
       7
100
AcDbLine
 10
158.17566109
 20
163.25337889
 30
0.0
 11
158.17566109
 21
151.00230187
 31
0.0
  0
LINE
  5
2A1
100
AcDbEntity
  8
SLD-0_2
  6
CONTINUOUS
 62
       7
100
AcDbLine
 10
196.72652741
 20
163.25337889
 30
0.0
 11
196.72652741
 21
151.00230187
 31
0.0
  0
LINE
  5
2A2
100
AcDbEntity
  8
SLD-0_2
  6
CONTINUOUS
 62
       7
100
AcDbLine
 10
-35.31839642
 20
315.13981959
 30
0.0
 11
-35.31839642
 21
310.17149613
 31
0.0
  0
LINE
  5
2A3
100
AcDbEntity
  8
SLD-0_2
  6
CONTINUOUS
 62
       7
100
AcDbLine
 10
-98.33899042
 20
380.35121826
 30
0.0
 11
-98.33899042
 21
392.67221457
 31
0.0
  0
LINE
  5
2A4
100
AcDbEntity
  8
SLD-0_2
  6
CONTINUOUS
 62
       7
100
AcDbLine
 10
-19.84900505
 20
315.42152343
 30
0.0
 11
-19.84900505
 21
326.17186884
 31
0.0
  0
LINE
  5
2A5
100
AcDbEntity
  8
SLD-0_2
  6
CONTINUOUS
 62
       7
100
AcDbLine
 10
-54.28679266
 20
315.42152343
 30
0.0
 11
-54.28679266
 21
326.17186884
 31
0.0
  0
LINE
  5
2A6
100
AcDbEntity
  8
SLD-0_2
  6
CONTINUOUS
 62
       7
100
AcDbLine
 10
-88.72154031
 20
315.42152343
 30
0.0
 11
-88.72154031
 21
326.17186884
 31
0.0
  0
LINE
  5
2A7
100
AcDbEntity
  8
SLD-0_2
  6
CONTINUOUS
 62
       7
100
AcDbLine
 10
54.03441323
 20
380.35121826
 30
0.0
 11
54.03441323
 21
392.67221457
 31
0.0
  0
LINE
  5
2A8
100
AcDbEntity
  8
SLD-0_2
  6
CONTINUOUS
 62
       7
100
AcDbLine
 10
175.23596982
 20
315.42152343
 30
0.0
 11
175.23596982
 21
326.17186884
 31
0.0
  0
LINE
  5
2A9
100
AcDbEntity
  8
SLD-0_2
  6
CONTINUOUS
 62
       7
100
AcDbLine
 10
-28.76702289
 20
288.39175443
 30
0.0
 11
-28.8502493
 21
288.3199523
 31
0.0
  0
LINE
  5
2AA
100
AcDbEntity
  8
SLD-0_2
  6
CONTINUOUS
 62
       7
100
AcDbLine
 10
-29.28594229
 20
288.4539733
 30
0.0
 11
-29.28709697
 21
288.46003409
 31
0.0
  0
LINE
  5
2AB
100
AcDbEntity
  8
SLD-0_2
  6
CONTINUOUS
 62
       7
100
AcDbLine
 10
261.68812462
 20
124.67181295
 30
0.0
 11
261.68812462
 21
122.67181295
 31
0.0
  0
LINE
  5
2AC
100
AcDbEntity
  8
SLD-0_2
  6
CONTINUOUS
 62
       7
100
AcDbLine
 10
259.18812462
 20
304.67220295
 30
0.0
 11
261.68812462
 21
307.17220295
 31
0.0
  0
LINE
  5
2AD
100
AcDbEntity
  8
SLD-0_2
  6
CONTINUOUS
 62
       7
100
AcDbLine
 10
196.76098039
 20
315.42152343
 30
0.0
 11
192.45638361
 21
315.42152343
 31
0.0
  0
LINE
  5
2AE
100
AcDbEntity
  8
SLD-0_2
  6
CONTINUOUS
 62
       7
100
AcDbLine
 10
-83.09962341
 20
151.00230187
 30
0.0
 11
-83.09962341
 21
138.75325151
 31
0.0
  0
LINE
  5
2AF
100
AcDbEntity
  8
SLD-0_2
  6
CONTINUOUS
 62
       7
100
AcDbLine
 10
-74.59885542
 20
151.00230187
 30
0.0
 11
-74.59885542
 21
138.75325151
 31
0.0
  0
LINE
  5
2B0
100
AcDbEntity
  8
SLD-0_2
  6
CONTINUOUS
 62
       7
100
AcDbLine
 10
17.70069798
 20
138.75325151
 30
0.0
 11
17.70069798
 21
151.00230187
 31
0.0
  0
LINE
  5
2B1
100
AcDbEntity
  8
SLD-0_2
  6
CONTINUOUS
 62
       7
100
AcDbLine
 10
-36.3499594
 20
163.25337889
 30
0.0
 11
-36.3499594
 21
151.00230187
 31
0.0
  0
LINE
  5
2B2
100
AcDbEntity
  8
SLD-0_2
  6
CONTINUOUS
 62
       7
100
AcDbLine
 10
-97.3489737
 20
138.75325151
 30
0.0
 11
-97.3489737
 21
151.00230187
 31
0.0
  0
LINE
  5
2B3
100
AcDbEntity
  8
SLD-0_2
  6
CONTINUOUS
 62
       7
100
AcDbLine
 10
63.47858509
 20
151.00230187
 30
0.0
 11
63.47858509
 21
163.25337889
 31
0.0
  0
LINE
  5
2B4
100
AcDbEntity
  8
SLD-0_2
  6
CONTINUOUS
 62
       7
100
AcDbLine
 10
77.42596507
 20
151.00230187
 30
0.0
 11
77.42596507
 21
138.75325151
 31
0.0
  0
LINE
  5
2B5
100
AcDbEntity
  8
SLD-0_2
  6
CONTINUOUS
 62
       7
100
AcDbLine
 10
261.68812462
 20
122.67181295
 30
0.0
 11
-218.31187538
 21
122.67181295
 31
0.0
  0
LINE
  5
2B6
100
AcDbEntity
  8
SLD-0_2
  6
CONTINUOUS
 62
       7
100
AcDbLine
 10
-108.37291636
 20
135.67072245
 30
0.0
 11
241.68812462
 21
135.67072245
 31
0.0
  0
LINE
  5
2B7
100
AcDbEntity
  8
SLD-0_2
  6
CONTINUOUS
 62
       7
100
AcDbLine
 10
9.46035404
 20
392.67221457
 30
0.0
 11
9.46035404
 21
380.35121826
 31
0.0
  0
LINE
  5
2B8
100
AcDbEntity
  8
SLD-0_2
  6
CONTINUOUS
 62
       7
100
AcDbLine
 10
-67.19855638
 20
304.67219134
 30
0.0
 11
-67.19855638
 21
315.42152343
 31
0.0
  0
LINE
  5
2B9
100
AcDbEntity
  8
SLD-0_2
  6
CONTINUOUS
 62
       7
100
AcDbLine
 10
44.71792009
 20
315.42152343
 30
0.0
 11
-93.02613709
 21
315.42152343
 31
0.0
  0
LINE
  5
2BA
100
AcDbEntity
  8
SLD-0_2
  6
CONTINUOUS
 62
       7
100
AcDbLine
 10
-45.67658577
 20
315.42152343
 30
0.0
 11
-45.67658577
 21
326.17186884
 31
0.0
  0
LINE
  5
2BB
100
AcDbEntity
  8
SLD-0_2
  6
CONTINUOUS
 62
       7
100
AcDbLine
 10
136.49662539
 20
304.67219134
 30
0.0
 11
136.49662539
 21
315.42152343
 31
0.0
  0
LINE
  5
2BC
100
AcDbEntity
  8
SLD-0_2
  6
CONTINUOUS
 62
       7
100
AcDbLine
 10
196.75895375
 20
315.42152343
 30
0.0
 11
59.01590989
 21
315.42152343
 31
0.0
  0
LINE
  5
2BD
100
AcDbEntity
  8
SLD-0_2
  6
CONTINUOUS
 62
       7
100
AcDbLine
 10
143.86753806
 20
392.67221457
 30
0.0
 11
143.86753806
 21
380.35121826
 31
0.0
  0
LINE
  5
2BE
100
AcDbEntity
  8
SLD-0_2
  6
CONTINUOUS
 62
       7
100
AcDbLine
 10
80.98475601
 20
392.67221457
 30
0.0
 11
80.98475601
 21
380.35121826
 31
0.0
  0
LINE
  5
2BF
100
AcDbEntity
  8
SLD-0_2
  6
CONTINUOUS
 62
       7
100
AcDbLine
 10
-91.60039141
 20
144.69537852
 30
0.0
 11
43.16145572
 21
144.69537852
 31
0.0
  0
LINE
  5
2C0
100
AcDbEntity
  8
SLD-0_2
  6
CONTINUOUS
 62
       7
100
AcDbLine
 10
38.95008466
 20
163.25337889
 30
0.0
 11
-97.3489737
 21
163.25337889
 31
0.0
  0
LINE
  5
2C1
100
AcDbEntity
  8
SLD-0_2
  6
CONTINUOUS
 62
       7
100
AcDbLine
 10
-97.3489737
 20
163.25337889
 30
0.0
 11
-97.3489737
 21
151.00230187
 31
0.0
  0
LINE
  5
2C2
100
AcDbEntity
  8
SLD-0_2
  6
CONTINUOUS
 62
       7
100
AcDbLine
 10
220.04511998
 20
138.67218566
 30
0.0
 11
220.04511998
 21
143.67394878
 31
0.0
  0
LINE
  5
2C3
100
AcDbEntity
  8
SLD-0_2
  6
CONTINUOUS
 62
       7
100
AcDbLine
 10
-28.28102677
 20
293.91902985
 30
0.0
 11
-28.26482674
 21
293.72654699
 31
0.0
  0
LINE
  5
2C4
100
AcDbEntity
  8
SLD-0_2
  6
CONTINUOUS
 62
       7
100
AcDbLine
 10
-29.27521759
 20
288.41288922
 30
0.0
 11
-29.28214775
 21
288.43743587
 31
0.0
  0
LINE
  5
2C5
100
AcDbEntity
  8
SLD-0_2
  6
CONTINUOUS
 62
       7
100
AcDbLine
 10
59.01590989
 20
315.42152343
 30
0.0
 11
59.01590989
 21
304.67219134
 31
0.0
  0
LINE
  5
2C6
100
AcDbEntity
  8
SLD-0_2
  6
CONTINUOUS
 62
       7
100
AcDbLine
 10
-57.59833275
 20
151.00230187
 30
0.0
 11
-57.59833275
 21
138.75325151
 31
0.0
  0
LINE
  5
2C7
100
AcDbEntity
  8
SLD-0_2
  6
CONTINUOUS
 62
       7
100
AcDbLine
 10
-80.05154734
 20
151.00230187
 30
0.0
 11
-80.05154734
 21
163.25337889
 31
0.0
  0
LINE
  5
2C8
100
AcDbEntity
  8
SLD-0_2
  6
CONTINUOUS
 62
       7
100
AcDbLine
 10
-54.55025669
 20
151.00230187
 30
0.0
 11
-54.55025669
 21
163.25337889
 31
0.0
  0
LINE
  5
2C9
100
AcDbEntity
  8
SLD-0_2
  6
CONTINUOUS
 62
       7
100
AcDbLine
 10
128.42651974
 20
151.00230187
 30
0.0
 11
128.42651974
 21
138.75325151
 31
0.0
  0
LINE
  5
2CA
100
AcDbEntity
  8
SLD-0_2
  6
CONTINUOUS
 62
       7
100
AcDbLine
 10
136.92627441
 20
151.00230187
 30
0.0
 11
136.92627441
 21
138.75325151
 31
0.0
  0
LINE
  5
2CB
100
AcDbEntity
  8
SLD-0_2
  6
CONTINUOUS
 62
       7
100
AcDbLine
 10
162.42553842
 20
151.00230187
 30
0.0
 11
162.42553842
 21
138.75325151
 31
0.0
  0
LINE
  5
2CC
100
AcDbEntity
  8
SLD-0_2
  6
CONTINUOUS
 62
       7
100
AcDbLine
 10
88.9778491
 20
151.00230187
 30
0.0
 11
88.9778491
 21
163.25337889
 31
0.0
  0
LINE
  5
2CD
100
AcDbEntity
  8
SLD-0_2
  6
CONTINUOUS
 62
       7
100
AcDbLine
 10
54.67888676
 20
138.75325151
 30
0.0
 11
54.67888676
 21
151.00230187
 31
0.0
  0
LINE
  5
2CE
100
AcDbEntity
  8
SLD-0_2
  6
CONTINUOUS
 62
       7
100
AcDbLine
 10
-29.06720584
 20
315.13981959
 30
0.0
 11
-35.31839642
 21
315.13981959
 31
0.0
  0
LINE
  5
2CF
100
AcDbEntity
  8
SLD-0_2
  6
CONTINUOUS
 62
       7
100
AcDbLine
 10
27.42657368
 20
392.67221457
 30
0.0
 11
27.42657368
 21
380.35121826
 31
0.0
  0
LINE
  5
2D0
100
AcDbEntity
  8
SLD-0_2
  6
CONTINUOUS
 62
       7
100
AcDbLine
 10
-35.45722169
 20
392.67221457
 30
0.0
 11
-35.45722169
 21
380.35121826
 31
0.0
  0
LINE
  5
2D1
100
AcDbEntity
  8
SLD-0_2
  6
CONTINUOUS
 62
       7
100
AcDbLine
 10
-49.98016923
 20
304.67219134
 30
0.0
 11
-49.98016923
 21
315.42152343
 31
0.0
  0
LINE
  5
2D2
100
AcDbEntity
  8
SLD-0_2
  6
CONTINUOUS
 62
       7
100
AcDbLine
 10
-28.18260715
 20
292.43636282
 30
0.0
 11
-28.16636458
 21
292.02942651
 31
0.0
  0
LINE
  5
2D3
100
AcDbEntity
  8
SLD-0_2
  6
CONTINUOUS
 62
       7
100
AcDbLine
 10
-28.98994387
 20
288.23868036
 30
0.0
 11
-29.04740354
 21
288.22427569
 31
0.0
  0
LINE
  5
2D4
100
AcDbEntity
  8
SLD-0_2
  6
CONTINUOUS
 62
       7
100
AcDbLine
 10
261.68812462
 20
379.67220295
 30
0.0
 11
261.68812462
 21
390.17220295
 31
0.0
  0
LINE
  5
2D5
100
AcDbEntity
  8
SLD-0_2
  6
CONTINUOUS
 62
       7
100
AcDbLine
 10
54.70928645
 20
304.67219134
 30
0.0
 11
54.70928645
 21
315.42152343
 31
0.0
  0
LINE
  5
2D6
100
AcDbEntity
  8
SLD-0_2
  6
CONTINUOUS
 62
       7
100
AcDbLine
 10
-23.59931407
 20
151.00230187
 30
0.0
 11
-23.59931407
 21
138.75325151
 31
0.0
  0
LINE
  5
2D7
100
AcDbEntity
  8
SLD-0_2
  6
CONTINUOUS
 62
       7
100
AcDbLine
 10
-61.85125006
 20
163.25337889
 30
0.0
 11
-61.85125006
 21
151.00230187
 31
0.0
  0
LINE
  5
2D8
100
AcDbEntity
  8
SLD-0_2
  6
CONTINUOUS
 62
       7
100
AcDbLine
 10
6.1508406
 20
163.25337889
 30
0.0
 11
6.1508406
 21
151.00230187
 31
0.0
  0
LINE
  5
2D9
100
AcDbEntity
  8
SLD-0_2
  6
CONTINUOUS
 62
       7
100
AcDbLine
 10
122.97889443
 20
151.00230187
 30
0.0
 11
122.97889443
 21
163.25337889
 31
0.0
  0
LINE
  5
2DA
100
AcDbEntity
  8
SLD-0_2
  6
CONTINUOUS
 62
       7
100
AcDbLine
 10
149.67590642
 20
163.25337889
 30
0.0
 11
149.67590642
 21
151.00230187
 31
0.0
  0
LINE
  5
2DB
100
AcDbEntity
  8
SLD-0_2
  6
CONTINUOUS
 62
       7
100
AcDbLine
 10
148.47613179
 20
151.00230187
 30
0.0
 11
148.47613179
 21
163.25337889
 31
0.0
  0
LINE
  5
2DC
100
AcDbEntity
  8
SLD-0_2
  6
CONTINUOUS
 62
       7
100
AcDbLine
 10
156.97588646
 20
151.00230187
 30
0.0
 11
156.97588646
 21
163.25337889
 31
0.0
  0
LINE
  5
2DD
100
AcDbEntity
  8
SLD-0_2
  6
CONTINUOUS
 62
       7
100
AcDbLine
 10
-44.56801023
 20
310.17149613
 30
0.0
 11
-29.56981413
 21
310.17149613
 31
0.0
  0
LINE
  5
2DE
100
AcDbEntity
  8
SLD-0_2
  6
CONTINUOUS
 62
       7
100
AcDbLine
 10
-44.56801023
 20
287.68990849
 30
0.0
 11
-44.56801023
 21
310.17149613
 31
0.0
  0
LINE
  5
2DF
100
AcDbEntity
  8
SLD-0_2
  6
CONTINUOUS
 62
       7
100
AcDbLine
 10
-44.43931819
 20
392.67221457
 30
0.0
 11
-44.43931819
 21
380.35121826
 31
0.0
  0
LINE
  5
2E0
100
AcDbEntity
  8
SLD-0_2
  6
CONTINUOUS
 62
       7
100
AcDbLine
 10
-89.35689393
 20
392.67221457
 30
0.0
 11
-89.35689393
 21
380.35121826
 31
0.0
  0
LINE
  5
2E1
100
AcDbEntity
  8
SLD-0_2
  6
CONTINUOUS
 62
       7
100
AcDbLine
 10
10.2811458
 20
304.67219134
 30
0.0
 11
10.2811458
 21
315.42152343
 31
0.0
  0
LINE
  5
2E2
100
AcDbEntity
  8
SLD-0_2
  6
CONTINUOUS
 62
       7
100
AcDbLine
 10
-24.15360184
 20
304.67219134
 30
0.0
 11
-24.15360184
 21
315.42152343
 31
0.0
  0
LINE
  5
2E3
100
AcDbEntity
  8
SLD-0_2
  6
CONTINUOUS
 62
       7
100
AcDbLine
 10
-75.80673663
 20
304.67219134
 30
0.0
 11
-75.80673663
 21
315.42152343
 31
0.0
  0
LINE
  5
2E4
100
AcDbEntity
  8
SLD-0_2
  6
CONTINUOUS
 62
       7
100
AcDbLine
 10
-2.63264456
 20
315.42152343
 30
0.0
 11
-2.63264456
 21
326.17186884
 31
0.0
  0
LINE
  5
2E5
100
AcDbEntity
  8
SLD-0_2
  6
CONTINUOUS
 62
       7
100
AcDbLine
 10
153.71501253
 20
304.67219134
 30
0.0
 11
153.71501253
 21
315.42152343
 31
0.0
  0
LINE
  5
2E6
100
AcDbEntity
  8
SLD-0_2
  6
CONTINUOUS
 62
       7
100
AcDbLine
 10
97.75525431
 20
315.42152343
 30
0.0
 11
97.75525431
 21
326.17186884
 31
0.0
  0
LINE
  5
2E7
100
AcDbEntity
  8
SLD-0_2
  6
CONTINUOUS
 62
       7
100
AcDbLine
 10
27.39820063
 20
138.75325151
 30
0.0
 11
27.39820063
 21
151.00230187
 31
0.0
  0
LINE
  5
2E8
100
AcDbEntity
  8
SLD-0_2
  6
CONTINUOUS
 62
       7
100
AcDbLine
 10
56.17657839
 20
163.25337889
 30
0.0
 11
56.17657839
 21
151.00230187
 31
0.0
  0
LINE
  5
2E9
100
AcDbEntity
  8
SLD-0_2
  6
CONTINUOUS
 62
       7
100
AcDbLine
 10
-28.17064675
 20
290.3381578
 30
0.0
 11
-28.1976976
 21
289.94513268
 31
0.0
  0
LINE
  5
2EA
100
AcDbEntity
  8
SLD-0_2
  6
CONTINUOUS
 62
       7
100
AcDbLine
 10
-215.81187538
 20
377.17220295
 30
0.0
 11
-218.31187538
 21
379.67220295
 31
0.0
  0
LINE
  5
2EB
100
AcDbEntity
  8
SLD-0_2
  6
CONTINUOUS
 62
       7
100
AcDbLine
 10
254.18812462
 20
320.17220295
 30
0.0
 11
259.18812462
 21
320.17220295
 31
0.0
  0
LINE
  5
2EC
100
AcDbEntity
  8
SLD-0_2
  6
CONTINUOUS
 62
       7
100
AcDbLine
 10
-29.56981413
 20
304.77757695
 30
0.0
 11
-26.5318713
 21
304.77757695
 31
0.0
  0
LINE
  5
2ED
100
AcDbEntity
  8
SLD-0_2
  6
CONTINUOUS
 62
       7
100
AcDbLine
 10
-67.30090202
 20
138.75325151
 30
0.0
 11
-67.30090202
 21
151.00230187
 31
0.0
  0
LINE
  5
2EE
100
AcDbEntity
  8
SLD-0_2
  6
CONTINUOUS
 62
       7
100
AcDbLine
 10
-53.35048206
 20
163.25337889
 30
0.0
 11
-53.35048206
 21
151.00230187
 31
0.0
  0
LINE
  5
2EF
100
AcDbEntity
  8
SLD-0_2
  6
CONTINUOUS
 62
       7
100
AcDbLine
 10
-91.60039141
 20
151.00230187
 30
0.0
 11
-91.60039141
 21
138.75325151
 31
0.0
  0
LINE
  5
2F0
100
AcDbEntity
  8
SLD-0_2
  6
CONTINUOUS
 62
       7
100
AcDbLine
 10
102.92522908
 20
151.00230187
 30
0.0
 11
102.92522908
 21
138.75325151
 31
0.0
  0
LINE
  5
2F1
100
AcDbEntity
  8
SLD-0_2
  6
CONTINUOUS
 62
       7
100
AcDbLine
 10
1.67397888
 20
304.67219134
 30
0.0
 11
1.67397888
 21
315.42152343
 31
0.0
  0
LINE
  5
2F2
100
AcDbEntity
  8
SLD-0_2
  6
CONTINUOUS
 62
       7
100
AcDbLine
 10
188.14976017
 20
304.67219134
 30
0.0
 11
188.14976017
 21
315.42152343
 31
0.0
  0
LINE
  5
2F3
100
AcDbEntity
  8
SLD-0_2
  6
CONTINUOUS
 62
       7
100
AcDbLine
 10
134.88544156
 20
392.67221457
 30
0.0
 11
134.88544156
 21
380.35121826
 31
0.0
  0
LINE
  5
2F4
100
AcDbEntity
  8
SLD-0_2
  6
CONTINUOUS
 62
       7
100
AcDbLine
 10
89.96887915
 20
392.67221457
 30
0.0
 11
89.96887915
 21
380.35121826
 31
0.0
  0
LINE
  5
2F5
100
AcDbEntity
  8
SLD-0_2
  6
CONTINUOUS
 62
       7
100
AcDbLine
 10
-28.15572146
 20
290.75223433
 30
0.0
 11
-28.17064675
 21
290.3381578
 31
0.0
  0
LINE
  5
2F6
100
AcDbEntity
  8
SLD-0_2
  6
CONTINUOUS
 62
       7
100
AcDbLine
 10
-28.1976976
 20
289.94513268
 30
0.0
 11
-28.23860744
 21
289.58229355
 31
0.0
  0
LINE
  5
2F7
100
AcDbEntity
  8
SLD-0_2
  6
CONTINUOUS
 62
       7
100
AcDbLine
 10
-29.26465605
 20
288.38280079
 30
0.0
 11
-29.27521759
 21
288.41288922
 31
0.0
  0
LINE
  5
2F8
100
AcDbEntity
  8
SLD-0_2
  6
CONTINUOUS
 62
       7
100
AcDbLine
 10
-215.81187538
 20
370.17220295
 30
0.0
 11
-218.31187538
 21
367.67220295
 31
0.0
  0
LINE
  5
2F9
100
AcDbEntity
  8
SLD-0_2
  6
CONTINUOUS
 62
       7
100
AcDbLine
 10
56.17556507
 20
156.94645553
 30
0.0
 11
190.93538555
 21
156.94645553
 31
0.0
  0
LINE
  5
2FA
100
AcDbEntity
  8
SLD-0_2
  6
CONTINUOUS
 62
       7
100
AcDbLine
 10
-40.59983673
 20
151.00230187
 30
0.0
 11
-40.59983673
 21
138.75325151
 31
0.0
  0
LINE
  5
2FB
100
AcDbEntity
  8
SLD-0_2
  6
CONTINUOUS
 62
       7
100
AcDbLine
 10
-71.55077935
 20
151.00230187
 30
0.0
 11
-71.55077935
 21
163.25337889
 31
0.0
  0
LINE
  5
2FC
100
AcDbEntity
  8
SLD-0_2
  6
CONTINUOUS
 62
       7
100
AcDbLine
 10
-10.85069539
 20
163.25337889
 30
0.0
 11
-10.85069539
 21
151.00230187
 31
0.0
  0
LINE
  5
2FD
100
AcDbEntity
  8
SLD-0_2
  6
CONTINUOUS
 62
       7
100
AcDbLine
 10
13.448794
 20
151.00230187
 30
0.0
 11
13.448794
 21
163.25337889
 31
0.0
  0
LINE
  5
2FE
100
AcDbEntity
  8
SLD-0_2
  6
CONTINUOUS
 62
       7
100
AcDbLine
 10
76.22619045
 20
138.75325151
 30
0.0
 11
76.22619045
 21
151.00230187
 31
0.0
  0
LINE
  5
2FF
100
AcDbEntity
  8
SLD-0_2
  6
CONTINUOUS
 62
       7
100
AcDbLine
 10
161.22779045
 20
138.75325151
 30
0.0
 11
161.22779045
 21
151.00230187
 31
0.0
  0
LINE
  5
300
100
AcDbEntity
  8
SLD-0_2
  6
CONTINUOUS
 62
       7
100
AcDbLine
 10
73.17811438
 20
163.25337889
 30
0.0
 11
73.17811438
 21
151.00230187
 31
0.0
  0
LINE
  5
301
100
AcDbEntity
  8
SLD-0_2
  6
CONTINUOUS
 62
       7
100
AcDbLine
 10
132.67437043
 20
163.25337889
 30
0.0
 11
132.67437043
 21
151.00230187
 31
0.0
  0
LINE
  5
302
100
AcDbEntity
  8
SLD-0_2
  6
CONTINUOUS
 62
       7
100
AcDbLine
 10
165.47564113
 20
151.00230187
 30
0.0
 11
165.47564113
 21
163.25337889
 31
0.0
  0
LINE
  5
303
100
AcDbEntity
  8
SLD-0_2
  6
CONTINUOUS
 62
       7
100
AcDbLine
 10
-43.06727863
 20
310.17149613
 30
0.0
 11
-45.06859187
 21
315.13981959
 31
0.0
  0
LINE
  5
304
100
AcDbEntity
  8
SLD-0_2
  6
CONTINUOUS
 62
       7
100
AcDbLine
 10
-26.47309855
 20
392.67221457
 30
0.0
 11
-26.47309855
 21
380.35121826
 31
0.0
  0
LINE
  5
305
100
AcDbEntity
  8
SLD-0_2
  6
CONTINUOUS
 62
       7
100
AcDbLine
 10
-28.45921195
 20
315.42152343
 30
0.0
 11
-28.45921195
 21
326.17186884
 31
0.0
  0
LINE
  5
306
100
AcDbEntity
  8
SLD-0_2
  6
CONTINUOUS
 62
       7
100
AcDbLine
 10
-62.89497291
 20
315.42152343
 30
0.0
 11
-62.89497291
 21
326.17186884
 31
0.0
  0
LINE
  5
307
100
AcDbEntity
  8
SLD-0_2
  6
CONTINUOUS
 62
       7
100
AcDbLine
 10
-71.50517981
 20
315.42152343
 30
0.0
 11
-71.50517981
 21
326.17186884
 31
0.0
  0
LINE
  5
308
100
AcDbEntity
  8
SLD-0_2
  6
CONTINUOUS
 62
       7
100
AcDbLine
 10
179.54259325
 20
304.67219134
 30
0.0
 11
179.54259325
 21
315.42152343
 31
0.0
  0
LINE
  5
309
100
AcDbEntity
  8
SLD-0_2
  6
CONTINUOUS
 62
       7
100
AcDbLine
 10
162.32420611
 20
304.67219134
 30
0.0
 11
162.32420611
 21
315.42152343
 31
0.0
  0
LINE
  5
30A
100
AcDbEntity
  8
SLD-0_2
  6
CONTINUOUS
 62
       7
100
AcDbLine
 10
84.84146396
 20
304.67219134
 30
0.0
 11
84.84146396
 21
315.42152343
 31
0.0
  0
LINE
  5
30B
100
AcDbEntity
  8
SLD-0_2
  6
CONTINUOUS
 62
       7
100
AcDbLine
 10
179.80200398
 20
392.67221457
 30
0.0
 11
179.80200398
 21
380.35121826
 31
0.0
  0
LINE
  5
30C
100
AcDbEntity
  8
SLD-0_2
  6
CONTINUOUS
 62
       7
100
AcDbLine
 10
170.81788084
 20
392.67221457
 30
0.0
 11
170.81788084
 21
380.35121826
 31
0.0
  0
LINE
  5
30D
100
AcDbEntity
  8
SLD-0_2
  6
CONTINUOUS
 62
       7
100
AcDbLine
 10
123.58283503
 20
315.42152343
 30
0.0
 11
123.58283503
 21
326.17186884
 31
0.0
  0
LINE
  5
30E
100
AcDbEntity
  8
SLD-0_2
  6
CONTINUOUS
 62
       7
100
AcDbLine
 10
-95.85026874
 20
163.25337889
 30
0.0
 11
-95.85026874
 21
151.00230187
 31
0.0
  0
LINE
  5
30F
100
AcDbEntity
  8
SLD-0_2
  6
CONTINUOUS
 62
       7
100
AcDbLine
 10
166.6774424
 20
151.00230187
 30
0.0
 11
166.6774424
 21
163.25337889
 31
0.0
  0
LINE
  5
310
100
AcDbEntity
  8
SLD-0_2
  6
CONTINUOUS
 62
       7
100
AcDbLine
 10
-28.29510973
 20
289.258775
 30
0.0
 11
-28.36893789
 21
288.98371161
 31
0.0
  0
LINE
  5
311
100
AcDbEntity
  8
SLD-0_2
  6
CONTINUOUS
 62
       7
100
AcDbLine
 10
241.68812462
 20
304.67220295
 30
0.0
 11
241.68812462
 21
392.67220295
 31
0.0
  0
LINE
  5
312
100
AcDbEntity
  8
SLD-0_2
  6
CONTINUOUS
 62
       7
100
AcDbLine
 10
-210.81187538
 20
370.17220295
 30
0.0
 11
-215.81187538
 21
370.17220295
 31
0.0
  0
LINE
  5
313
100
AcDbEntity
  8
SLD-0_2
  6
CONTINUOUS
 62
       7
100
AcDbLine
 10
-215.81187538
 20
320.17220295
 30
0.0
 11
-218.31187538
 21
317.67220295
 31
0.0
  0
LINE
  5
314
100
AcDbEntity
  8
SLD-0_2
  6
CONTINUOUS
 62
       7
100
AcDbLine
 10
259.18812462
 20
370.17220295
 30
0.0
 11
261.68812462
 21
367.67220295
 31
0.0
  0
LINE
  5
315
100
AcDbEntity
  8
SLD-0_2
  6
CONTINUOUS
 62
       7
100
AcDbLine
 10
-26.5318713
 20
294.32008193
 30
0.0
 11
-29.56981413
 21
294.32008193
 31
0.0
  0
LINE
  5
316
100
AcDbEntity
  8
SLD-0_2
  6
CONTINUOUS
 62
       7
100
AcDbLine
 10
-70.35100473
 20
163.25337889
 30
0.0
 11
-70.35100473
 21
151.00230187
 31
0.0
  0
LINE
  5
317
100
AcDbEntity
  8
SLD-0_2
  6
CONTINUOUS
 62
       7
100
AcDbLine
 10
-37.55176067
 20
151.00230187
 30
0.0
 11
-37.55176067
 21
163.25337889
 31
0.0
  0
LINE
  5
318
100
AcDbEntity
  8
SLD-0_2
  6
CONTINUOUS
 62
       7
100
AcDbLine
 10
31.64807797
 20
163.25337889
 30
0.0
 11
31.64807797
 21
151.00230187
 31
0.0
  0
LINE
  5
319
100
AcDbEntity
  8
SLD-0_2
  6
CONTINUOUS
 62
       7
100
AcDbLine
 10
38.95008466
 20
163.25337889
 30
0.0
 11
44.69765363
 21
163.25337889
 31
0.0
  0
LINE
  5
31A
100
AcDbEntity
  8
SLD-0_2
  6
CONTINUOUS
 62
       7
100
AcDbLine
 10
68.92823704
 20
151.00230187
 30
0.0
 11
68.92823704
 21
138.75325151
 31
0.0
  0
LINE
  5
31B
100
AcDbEntity
  8
SLD-0_2
  6
CONTINUOUS
 62
       7
100
AcDbLine
 10
152.72600913
 20
138.75325151
 30
0.0
 11
152.72600913
 21
151.00230187
 31
0.0
  0
LINE
  5
31C
100
AcDbEntity
  8
SLD-0_2
  6
CONTINUOUS
 62
       7
100
AcDbLine
 10
98.67737839
 20
163.25337889
 30
0.0
 11
98.67737839
 21
151.00230187
 31
0.0
  0
LINE
  5
31D
100
AcDbEntity
  8
SLD-0_2
  6
CONTINUOUS
 62
       7
100
AcDbLine
 10
124.17866905
 20
163.25337889
 30
0.0
 11
124.17866905
 21
151.00230187
 31
0.0
  0
LINE
  5
31E
100
AcDbEntity
  8
SLD-0_2
  6
CONTINUOUS
 62
       7
100
AcDbLine
 10
190.97490515
 20
163.25337889
 30
0.0
 11
196.72652741
 21
163.25337889
 31
0.0
  0
LINE
  5
31F
100
AcDbEntity
  8
SLD-0_2
  6
CONTINUOUS
 62
       7
100
AcDbLine
 10
0.47825755
 20
392.67221457
 30
0.0
 11
0.47825755
 21
380.35121826
 31
0.0
  0
LINE
  5
320
100
AcDbEntity
  8
SLD-0_2
  6
CONTINUOUS
 62
       7
100
AcDbLine
 10
45.39279332
 20
392.67221457
 30
0.0
 11
45.39279332
 21
380.35121826
 31
0.0
  0
LINE
  5
321
100
AcDbEntity
  8
SLD-0_2
  6
CONTINUOUS
 62
       7
100
AcDbLine
 10
45.39279332
 20
380.35121826
 30
0.0
 11
-98.33899042
 21
380.35121826
 31
0.0
  0
LINE
  5
322
100
AcDbEntity
  8
SLD-0_2
  6
CONTINUOUS
 62
       7
100
AcDbLine
 10
40.41332331
 20
326.17186884
 30
0.0
 11
-97.3317472
 21
326.17186884
 31
0.0
  0
LINE
  5
323
100
AcDbEntity
  8
SLD-0_2
  6
CONTINUOUS
 62
       7
100
AcDbLine
 10
116.91922193
 20
392.67221457
 30
0.0
 11
116.91922193
 21
380.35121826
 31
0.0
  0
LINE
  5
324
100
AcDbEntity
  8
SLD-0_2
  6
CONTINUOUS
 62
       7
100
AcDbLine
 10
158.01960932
 20
315.42152343
 30
0.0
 11
158.01960932
 21
326.17186884
 31
0.0
  0
LINE
  5
325
100
AcDbEntity
  8
SLD-0_2
  6
CONTINUOUS
 62
       7
100
AcDbLine
 10
132.67639707
 20
151.00230187
 30
0.0
 11
132.67639707
 21
163.25337889
 31
0.0
  0
LINE
  5
326
100
AcDbEntity
  8
SLD-0_2
  6
CONTINUOUS
 62
       7
100
AcDbLine
 10
190.97490515
 20
163.25337889
 30
0.0
 11
54.67888676
 21
163.25337889
 31
0.0
  0
LINE
  5
327
100
AcDbEntity
  8
SLD-0_2
  6
CONTINUOUS
 62
       7
100
AcDbLine
 10
-28.20230809
 20
292.8186776
 30
0.0
 11
-28.18260715
 21
292.43636282
 31
0.0
  0
LINE
  5
328
100
AcDbEntity
  8
SLD-0_2
  6
CONTINUOUS
 62
       7
100
AcDbLine
 10
-29.20622568
 20
288.28395906
 30
0.0
 11
-29.23065585
 21
288.31586828
 31
0.0
  0
LINE
  5
329
100
AcDbEntity
  8
SLD-0_2
  6
CONTINUOUS
 62
       7
100
AcDbLine
 10
-29.28214775
 20
288.43743587
 30
0.0
 11
-29.28594229
 21
288.4539733
 31
0.0
  0
LINE
  5
32A
100
AcDbEntity
  8
SLD-0_2
  6
CONTINUOUS
 62
       7
100
AcDbLine
 10
-218.31187538
 20
307.17220295
 30
0.0
 11
-218.31187538
 21
317.67220295
 31
0.0
  0
LINE
  5
32B
100
AcDbEntity
  8
SLD-0_2
  6
CONTINUOUS
 62
       7
100
AcDbLine
 10
254.18812462
 20
377.17220295
 30
0.0
 11
259.18812462
 21
377.17220295
 31
0.0
  0
LINE
  5
32C
100
AcDbEntity
  8
SLD-0_2
  6
CONTINUOUS
 62
       7
100
AcDbLine
 10
-215.81187538
 20
304.67220295
 30
0.0
 11
-218.31187538
 21
307.17220295
 31
0.0
  0
LINE
  5
32D
100
AcDbEntity
  8
SLD-0_2
  6
CONTINUOUS
 62
       7
100
AcDbLine
 10
44.71792009
 20
326.17186884
 30
0.0
 11
44.71792009
 21
315.42152343
 31
0.0
  0
LINE
  5
32E
100
AcDbEntity
  8
SLD-0_2
  6
CONTINUOUS
 62
       7
100
AcDbLine
 10
18.90047261
 20
151.00230187
 30
0.0
 11
18.90047261
 21
138.75325151
 31
0.0
  0
LINE
  5
32F
100
AcDbEntity
  8
SLD-0_2
  6
CONTINUOUS
 62
       7
100
AcDbLine
 10
23.1483233
 20
163.25337889
 30
0.0
 11
23.1483233
 21
151.00230187
 31
0.0
  0
LINE
  5
330
100
AcDbEntity
  8
SLD-0_2
  6
CONTINUOUS
 62
       7
100
AcDbLine
 10
84.72594512
 20
138.75325151
 30
0.0
 11
84.72594512
 21
151.00230187
 31
0.0
  0
LINE
  5
331
100
AcDbEntity
  8
SLD-0_2
  6
CONTINUOUS
 62
       7
100
AcDbLine
 10
144.22625446
 20
138.75325151
 30
0.0
 11
144.22625446
 21
151.00230187
 31
0.0
  0
LINE
  5
332
100
AcDbEntity
  8
SLD-0_2
  6
CONTINUOUS
 62
       7
100
AcDbLine
 10
153.9278104
 20
151.00230187
 30
0.0
 11
153.9278104
 21
138.75325151
 31
0.0
  0
LINE
  5
333
100
AcDbEntity
  8
SLD-0_2
  6
CONTINUOUS
 62
       7
100
AcDbLine
 10
105.97735844
 20
151.00230187
 30
0.0
 11
105.97735844
 21
163.25337889
 31
0.0
  0
LINE
  5
334
100
AcDbEntity
  8
SLD-0_2
  6
CONTINUOUS
 62
       7
100
AcDbLine
 10
115.67688773
 20
163.25337889
 30
0.0
 11
115.67688773
 21
151.00230187
 31
0.0
  0
LINE
  5
335
100
AcDbEntity
  8
SLD-0_2
  6
CONTINUOUS
 62
       7
100
AcDbLine
 10
183.6749251
 20
163.25337889
 30
0.0
 11
183.6749251
 21
151.00230187
 31
0.0
  0
LINE
  5
336
100
AcDbEntity
  8
SLD-0_2
  6
CONTINUOUS
 62
       7
100
AcDbLine
 10
60.42645573
 20
151.00230187
 30
0.0
 11
60.42645573
 21
138.75325151
 31
0.0
  0
LINE
  5
337
100
AcDbEntity
  8
SLD-0_2
  6
CONTINUOUS
 62
       7
100
AcDbLine
 10
-29.56981413
 20
310.17149613
 30
0.0
 11
-29.56981413
 21
287.68990849
 31
0.0
  0
LINE
  5
338
100
AcDbEntity
  8
SLD-0_2
  6
CONTINUOUS
 62
       7
100
AcDbLine
 10
31.80412973
 20
315.42152343
 30
0.0
 11
31.80412973
 21
326.17186884
 31
0.0
  0
LINE
  5
339
100
AcDbEntity
  8
SLD-0_2
  6
CONTINUOUS
 62
       7
100
AcDbLine
 10
-37.06941884
 20
315.42152343
 30
0.0
 11
-37.06941884
 21
326.17186884
 31
0.0
  0
LINE
  5
33A
100
AcDbEntity
  8
SLD-0_2
  6
CONTINUOUS
 62
       7
100
AcDbLine
 10
63.02056302
 20
392.67221457
 30
0.0
 11
63.02056302
 21
380.35121826
 31
0.0
  0
LINE
  5
33B
100
AcDbEntity
  8
SLD-0_2
  6
CONTINUOUS
 62
       7
100
AcDbLine
 10
107.17713306
 20
151.00230187
 30
0.0
 11
107.17713306
 21
163.25337889
 31
0.0
  0
LINE
  5
33C
100
AcDbEntity
  8
SLD-0_2
  6
CONTINUOUS
 62
       7
100
AcDbLine
 10
-28.29606692
 20
294.08397764
 30
0.0
 11
-28.29201798
 21
294.04121826
 31
0.0
  0
LINE
  5
33D
100
AcDbEntity
  8
SLD-0_2
  6
CONTINUOUS
 62
       7
100
AcDbLine
 10
-28.22373396
 20
293.16723629
 30
0.0
 11
-28.20230809
 21
292.8186776
 31
0.0
  0
LINE
  5
33E
100
AcDbEntity
  8
SLD-0_2
  6
CONTINUOUS
 62
       7
100
AcDbLine
 10
-28.16636458
 20
292.02942651
 30
0.0
 11
-28.15531382
 21
291.60700327
 31
0.0
  0
LINE
  5
33F
100
AcDbEntity
  8
SLD-0_2
  6
CONTINUOUS
 62
       7
100
AcDbLine
 10
-28.23860744
 20
289.58229355
 30
0.0
 11
-28.29510973
 21
289.258775
 31
0.0
  0
LINE
  5
340
100
AcDbEntity
  8
SLD-0_2
  6
CONTINUOUS
 62
       7
100
AcDbLine
 10
-28.67421606
 20
288.4876239
 30
0.0
 11
-28.76702289
 21
288.39175443
 31
0.0
  0
LINE
  5
341
100
AcDbEntity
  8
SLD-0_2
  6
CONTINUOUS
 62
       7
100
AcDbLine
 10
-28.8502493
 20
288.3199523
 30
0.0
 11
-28.92439104
 21
288.26975009
 31
0.0
  0
LINE
  5
342
100
AcDbEntity
  8
SLD-0_2
  6
CONTINUOUS
 62
       7
100
AcDbLine
 10
-29.04740354
 20
288.22427569
 30
0.0
 11
-29.0972658
 21
288.22406865
 31
0.0
  0
LINE
  5
343
100
AcDbEntity
  8
SLD-0_2
  6
CONTINUOUS
 62
       7
100
AcDbLine
 10
-29.0972658
 20
288.22406865
 30
0.0
 11
-29.1400264
 21
288.23559182
 31
0.0
  0
LINE
  5
344
100
AcDbEntity
  8
SLD-0_2
  6
CONTINUOUS
 62
       7
100
AcDbLine
 10
259.18812462
 20
320.17220295
 30
0.0
 11
261.68812462
 21
317.67220295
 31
0.0
  0
LINE
  5
345
100
AcDbEntity
  8
SLD-0_2
  6
CONTINUOUS
 62
       7
100
AcDbLine
 10
-108.37291636
 20
135.67072245
 30
0.0
 11
-108.37291636
 21
122.67181295
 31
0.0
  0
LINE
  5
346
100
AcDbEntity
  8
SLD-0_2
  6
CONTINUOUS
 62
       7
100
AcDbLine
 10
192.45638361
 20
315.42152343
 30
0.0
 11
192.45638361
 21
326.17186884
 31
0.0
  0
LINE
  5
347
100
AcDbEntity
  8
SLD-0_2
  6
CONTINUOUS
 62
       7
100
AcDbLine
 10
0.70118864
 20
138.75325151
 30
0.0
 11
0.70118864
 21
151.00230187
 31
0.0
  0
LINE
  5
348
100
AcDbEntity
  8
SLD-0_2
  6
CONTINUOUS
 62
       7
100
AcDbLine
 10
35.90200859
 20
151.00230187
 30
0.0
 11
35.90200859
 21
138.75325151
 31
0.0
  0
LINE
  5
349
100
AcDbEntity
  8
SLD-0_2
  6
CONTINUOUS
 62
       7
100
AcDbLine
 10
4.94903933
 20
151.00230187
 30
0.0
 11
4.94903933
 21
163.25337889
 31
0.0
  0
LINE
  5
34A
100
AcDbEntity
  8
SLD-0_2
  6
CONTINUOUS
 62
       7
100
AcDbLine
 10
101.72545446
 20
138.75325151
 30
0.0
 11
101.72545446
 21
151.00230187
 31
0.0
  0
LINE
  5
34B
100
AcDbEntity
  8
SLD-0_2
  6
CONTINUOUS
 62
       7
100
AcDbLine
 10
169.72551847
 20
138.75325151
 30
0.0
 11
169.72551847
 21
151.00230187
 31
0.0
  0
LINE
  5
34C
100
AcDbEntity
  8
SLD-0_2
  6
CONTINUOUS
 62
       7
100
AcDbLine
 10
179.42504776
 20
151.00230187
 30
0.0
 11
179.42504776
 21
138.75325151
 31
0.0
  0
LINE
  5
34D
100
AcDbEntity
  8
SLD-0_2
  6
CONTINUOUS
 62
       7
100
AcDbLine
 10
81.6758424
 20
163.25337889
 30
0.0
 11
81.6758424
 21
151.00230187
 31
0.0
  0
LINE
  5
34E
100
AcDbEntity
  8
SLD-0_2
  6
CONTINUOUS
 62
       7
100
AcDbLine
 10
107.17510642
 20
163.25337889
 30
0.0
 11
107.17510642
 21
151.00230187
 31
0.0
  0
LINE
  5
34F
100
AcDbEntity
  8
SLD-0_2
  6
CONTINUOUS
 62
       7
100
AcDbLine
 10
175.17719707
 20
163.25337889
 30
0.0
 11
175.17719707
 21
151.00230187
 31
0.0
  0
LINE
  5
350
100
AcDbEntity
  8
SLD-0_2
  6
CONTINUOUS
 62
       7
100
AcDbLine
 10
-38.81942794
 20
315.13981959
 30
0.0
 11
-38.81942794
 21
310.17149613
 31
0.0
  0
LINE
  5
351
100
AcDbEntity
  8
SLD-0_2
  6
CONTINUOUS
 62
       7
100
AcDbLine
 10
-6.93724134
 20
304.67219134
 30
0.0
 11
-6.93724134
 21
315.42152343
 31
0.0
  0
LINE
  5
352
100
AcDbEntity
  8
SLD-0_2
  6
CONTINUOUS
 62
       7
100
AcDbLine
 10
119.27823824
 20
304.67219134
 30
0.0
 11
119.27823824
 21
315.42152343
 31
0.0
  0
LINE
  5
353
100
AcDbEntity
  8
SLD-0_2
  6
CONTINUOUS
 62
       7
100
AcDbLine
 10
196.75895375
 20
304.67219134
 30
0.0
 11
196.75895375
 21
315.42152343
 31
0.0
  0
LINE
  5
354
100
AcDbEntity
  8
SLD-0_2
  6
CONTINUOUS
 62
       7
100
AcDbLine
 10
188.78612712
 20
392.67221457
 30
0.0
 11
188.78612712
 21
380.35121826
 31
0.0
  0
LINE
  5
355
100
AcDbEntity
  8
SLD-0_2
  6
CONTINUOUS
 62
       7
100
AcDbLine
 10
197.77025026
 20
392.67221457
 30
0.0
 11
197.77025026
 21
380.35121826
 31
0.0
  0
LINE
  5
356
100
AcDbEntity
  8
SLD-0_2
  6
CONTINUOUS
 62
       7
100
AcDbLine
 10
44.69765363
 20
138.75325151
 30
0.0
 11
44.69765363
 21
151.00230187
 31
0.0
  0
LINE
  5
357
100
AcDbEntity
  8
SLD-0_2
  6
CONTINUOUS
 62
       7
100
AcDbLine
 10
261.68812462
 20
124.67181295
 30
0.0
 11
241.68812462
 21
124.67181295
 31
0.0
  0
LINE
  5
358
100
AcDbEntity
  8
SLD-0_2
  6
CONTINUOUS
 62
       7
100
AcDbLine
 10
241.68812462
 20
135.67072245
 30
0.0
 11
241.68812462
 21
122.67181295
 31
0.0
  0
LINE
  5
359
100
AcDbEntity
  8
SLD-0_2
  6
CONTINUOUS
 62
       7
100
AcDbLine
 10
-215.81187538
 20
327.17220295
 30
0.0
 11
-218.31187538
 21
329.67220295
 31
0.0
  0
LINE
  5
35A
100
AcDbEntity
  8
SLD-0_2
  6
CONTINUOUS
 62
       7
100
AcDbLine
 10
-44.56801023
 20
304.67220295
 30
0.0
 11
-215.81187538
 21
304.67220295
 31
0.0
  0
LINE
  5
35B
100
AcDbEntity
  8
SLD-0_2
  6
CONTINUOUS
 62
       7
100
AcDbLine
 10
-97.3317472
 20
304.67219134
 30
0.0
 11
-97.3317472
 21
315.42152343
 31
0.0
  0
LINE
  5
35C
100
AcDbEntity
  8
SLD-0_2
  6
CONTINUOUS
 62
       7
100
AcDbLine
 10
-41.79961136
 20
138.75325151
 30
0.0
 11
-41.79961136
 21
151.00230187
 31
0.0
  0
LINE
  5
35D
100
AcDbEntity
  8
SLD-0_2
  6
CONTINUOUS
 62
       7
100
AcDbLine
 10
-32.10008206
 20
151.00230187
 30
0.0
 11
-32.10008206
 21
138.75325151
 31
0.0
  0
LINE
  5
35E
100
AcDbEntity
  8
SLD-0_2
  6
CONTINUOUS
 62
       7
100
AcDbLine
 10
-24.80111534
 20
138.75325151
 30
0.0
 11
-24.80111534
 21
151.00230187
 31
0.0
  0
LINE
  5
35F
100
AcDbEntity
  8
SLD-0_2
  6
CONTINUOUS
 62
       7
100
AcDbLine
 10
-16.30034734
 20
138.75325151
 30
0.0
 11
-16.30034734
 21
151.00230187
 31
0.0
  0
LINE
  5
360
100
AcDbEntity
  8
SLD-0_2
  6
CONTINUOUS
 62
       7
100
AcDbLine
 10
-12.05249666
 20
151.00230187
 30
0.0
 11
-12.05249666
 21
163.25337889
 31
0.0
  0
LINE
  5
361
100
AcDbEntity
  8
SLD-0_2
  6
CONTINUOUS
 62
       7
100
AcDbLine
 10
170.92731974
 20
151.00230187
 30
0.0
 11
170.92731974
 21
138.75325151
 31
0.0
  0
LINE
  5
362
100
AcDbEntity
  8
SLD-0_2
  6
CONTINUOUS
 62
       7
100
AcDbLine
 10
178.22729979
 20
138.75325151
 30
0.0
 11
178.22729979
 21
151.00230187
 31
0.0
  0
LINE
  5
363
100
AcDbEntity
  8
SLD-0_2
  6
CONTINUOUS
 62
       7
100
AcDbLine
 10
139.97637712
 20
151.00230187
 30
0.0
 11
139.97637712
 21
163.25337889
 31
0.0
  0
LINE
  5
364
100
AcDbEntity
  8
SLD-0_2
  6
CONTINUOUS
 62
       7
100
AcDbLine
 10
166.67946905
 20
163.25337889
 30
0.0
 11
166.67946905
 21
151.00230187
 31
0.0
  0
LINE
  5
365
100
AcDbEntity
  8
SLD-0_2
  6
CONTINUOUS
 62
       7
100
AcDbLine
 10
-45.06859187
 20
315.13981959
 30
0.0
 11
-38.81942794
 21
315.13981959
 31
0.0
  0
LINE
  5
366
100
AcDbEntity
  8
SLD-0_2
  6
CONTINUOUS
 62
       7
100
AcDbLine
 10
44.71792009
 20
304.67219134
 30
0.0
 11
44.71792009
 21
315.42152343
 31
0.0
  0
LINE
  5
367
100
AcDbEntity
  8
SLD-0_2
  6
CONTINUOUS
 62
       7
100
AcDbLine
 10
14.58574259
 20
315.42152343
 30
0.0
 11
14.58574259
 21
326.17186884
 31
0.0
  0
LINE
  5
368
100
AcDbEntity
  8
SLD-0_2
  6
CONTINUOUS
 62
       7
100
AcDbLine
 10
76.23429703
 20
304.67219134
 30
0.0
 11
76.23429703
 21
315.42152343
 31
0.0
  0
LINE
  5
369
100
AcDbEntity
  8
SLD-0_2
  6
CONTINUOUS
 62
       7
100
AcDbLine
 10
149.41041575
 20
315.42152343
 30
0.0
 11
149.41041575
 21
326.17186884
 31
0.0
  0
LINE
  5
36A
100
AcDbEntity
  8
SLD-0_2
  6
CONTINUOUS
 62
       7
100
AcDbLine
 10
80.53686717
 20
315.42152343
 30
0.0
 11
80.53686717
 21
326.17186884
 31
0.0
  0
LINE
  5
36B
100
AcDbEntity
  8
SLD-0_2
  6
CONTINUOUS
 62
       7
100
AcDbLine
 10
54.70928645
 20
315.42152343
 30
0.0
 11
192.45435696
 21
315.42152343
 31
0.0
  0
LINE
  5
36C
100
AcDbEntity
  8
SLD-0_2
  6
CONTINUOUS
 62
       7
100
AcDbLine
 10
124.17461576
 20
151.00230187
 30
0.0
 11
124.17461576
 21
163.25337889
 31
0.0
  0
LINE
  5
36D
100
AcDbEntity
  8
SLD-0_2
  6
CONTINUOUS
 62
       7
100
AcDbLine
 10
-28.46182536
 20
288.76623797
 30
0.0
 11
-28.57133304
 21
288.61002814
 31
0.0
  0
LINE
  5
36E
100
AcDbEntity
  8
SLD-0_2
  6
CONTINUOUS
 62
       7
100
AcDbLine
 10
-29.17618111
 20
288.25637776
 30
0.0
 11
-29.20622568
 21
288.28395906
 31
0.0
  0
LINE
  5
36F
100
AcDbEntity
  8
SLD-0_2
  6
CONTINUOUS
 62
       7
100
AcDbLine
 10
259.18812462
 20
327.17220295
 30
0.0
 11
261.68812462
 21
329.67220295
 31
0.0
  0
ARC
  5
370
100
AcDbEntity
  8
SLD-0_2
  6
CONTINUOUS
 62
       7
100
AcDbCircle
 10
-210.81187538
 20
-96.32779705
 30
0.0
 40
3.5
100
AcDbArc
 50
270.0
 51
450.0
  0
ARC
  5
371
100
AcDbEntity
  8
SLD-0_2
  6
CONTINUOUS
 62
       7
100
AcDbCircle
 10
-210.81187538
 20
-146.32779705
 30
0.0
 40
3.5
100
AcDbArc
 50
270.0
 51
450.0
  0
ARC
  5
372
100
AcDbEntity
  8
SLD-0_2
  6
CONTINUOUS
 62
       7
100
AcDbCircle
 10
254.18812462
 20
-146.32779705
 30
0.0
 40
3.5
100
AcDbArc
 50
90.0
 51
270.0
  0
ARC
  5
373
100
AcDbEntity
  8
SLD-0_2
  6
CONTINUOUS
 62
       7
100
AcDbCircle
 10
254.18812462
 20
-96.32779705
 30
0.0
 40
3.5
100
AcDbArc
 50
90.0
 51
270.0
  0
ARC
  5
374
100
AcDbEntity
  8
SLD-0_2
  6
CONTINUOUS
 62
       7
100
AcDbCircle
 10
254.18812462
 20
373.67220295
 30
0.0
 40
3.5
100
AcDbArc
 50
90.0
 51
270.0
  0
ARC
  5
375
100
AcDbEntity
  8
SLD-0_2
  6
CONTINUOUS
 62
       7
100
AcDbCircle
 10
-210.81187538
 20
373.67220295
 30
0.0
 40
3.5
100
AcDbArc
 50
270.0
 51
450.0
  0
ARC
  5
376
100
AcDbEntity
  8
SLD-0_2
  6
CONTINUOUS
 62
       7
100
AcDbCircle
 10
254.18812462
 20
323.67220295
 30
0.0
 40
3.5
100
AcDbArc
 50
90.0
 51
270.0
  0
ARC
  5
377
100
AcDbEntity
  8
SLD-0_2
  6
CONTINUOUS
 62
       7
100
AcDbCircle
 10
-210.81187538
 20
323.67220295
 30
0.0
 40
3.5
100
AcDbArc
 50
270.0
 51
450.0
  0
CIRCLE
  5
378
100
AcDbEntity
  8
SLD-0_2
  6
CONTINUOUS
 62
       7
100
AcDbCircle
 10
-163.13009729
 20
386.12892968
 30
0.0
 40
3.25
  0
CIRCLE
  5
379
100
AcDbEntity
  8
SLD-0_2
  6
CONTINUOUS
 62
       7
100
AcDbCircle
 10
-133.47215503
 20
386.12892968
 30
0.0
 40
3.25
  0
CIRCLE
  5
37A
100
AcDbEntity
  8
SLD-0_2
  6
CONTINUOUS
 62
       7
100
AcDbCircle
 10
-153.24614319
 20
386.12892968
 30
0.0
 40
3.25
  0
CIRCLE
  5
37B
100
AcDbEntity
  8
SLD-0_2
  6
CONTINUOUS
 62
       7
100
AcDbCircle
 10
-173.01506472
 20
386.12892968
 30
0.0
 40
3.25
  0
CIRCLE
  5
37C
100
AcDbEntity
  8
SLD-0_2
  6
CONTINUOUS
 62
       7
100
AcDbCircle
 10
-143.35914911
 20
386.12892968
 30
0.0
 40
3.25
  0
LINE
  5
37D
100
AcDbEntity
  8
SLD-0_2
  6
PHANTOM
 62
       7
100
AcDbLine
 10
-198.31187538
 20
304.67220295
 30
0.0
 11
-198.31187538
 21
392.67220295
 31
0.0
  0
LINE
  5
37E
100
AcDbEntity
  8
SLD-0_2
  6
PHANTOM
 62
       7
100
AcDbLine
 10
-108.29995709
 20
304.67219134
 30
0.0
 11
-108.29995709
 21
392.67221457
 31
0.0
  0
LINE
  5
37F
100
AcDbEntity
  8
SLD-0_2
  6
PHANTOM
 62
       7
100
AcDbLine
 10
-126.75155852
 20
392.74922713
 30
0.0
 11
-126.75155852
 21
391.46838666
 31
0.0
  0
LINE
  5
380
100
AcDbEntity
  8
SLD-0_2
  6
PHANTOM
 62
       7
100
AcDbLine
 10
-130.32250934
 20
379.74930431
 30
0.0
 11
-130.32250934
 21
380.64204201
 31
0.0
  0
LINE
  5
381
100
AcDbEntity
  8
SLD-0_2
  6
PHANTOM
 62
       7
100
AcDbLine
 10
-177.07318668
 20
391.46838666
 30
0.0
 11
-177.07318668
 21
380.64204201
 31
0.0
  0
LINE
  5
382
100
AcDbEntity
  8
SLD-0_2
  6
PHANTOM
 62
       7
100
AcDbLine
 10
-87.14205122
 20
209.67181295
 30
0.0
 11
-89.4397047
 21
209.67181295
 31
0.0
  0
LINE
  5
383
100
AcDbEntity
  8
SLD-0_2
  6
PHANTOM
 62
       7
100
AcDbLine
 10
-178.84954218
 20
391.46838666
 30
0.0
 11
-179.75241311
 21
391.46838666
 31
0.0
  0
LINE
  5
384
100
AcDbEntity
  8
SLD-0_2
  6
PHANTOM
 62
       7
100
AcDbLine
 10
-159.9804516
 20
380.64204201
 30
0.0
 11
-159.07758067
 21
380.64204201
 31
0.0
  0
LINE
  5
385
100
AcDbEntity
  8
SLD-0_2
  6
PHANTOM
 62
       7
100
AcDbLine
 10
-159.07758067
 20
380.64204201
 30
0.0
 11
-159.07758067
 21
391.46838666
 31
0.0
  0
LINE
  5
386
100
AcDbEntity
  8
SLD-0_2
  6
PHANTOM
 62
       7
100
AcDbLine
 10
-147.41524441
 20
391.46838666
 30
0.0
 11
-147.41524441
 21
380.64204201
 31
0.0
  0
LINE
  5
387
100
AcDbEntity
  8
SLD-0_2
  6
PHANTOM
 62
       7
100
AcDbLine
 10
222.40210965
 20
314.58553182
 30
0.0
 11
222.40210965
 21
380.79302716
 31
0.0
  0
LINE
  5
388
100
AcDbEntity
  8
SLD-0_2
  6
PHANTOM
 62
       7
100
AcDbLine
 10
210.48948257
 20
380.79302716
 30
0.0
 11
210.48948257
 21
314.58553182
 31
0.0
  0
LINE
  5
389
100
AcDbEntity
  8
SLD-0_2
  6
PHANTOM
 62
       7
100
AcDbLine
 10
-27.31187538
 20
328.67220295
 30
0.0
 11
-45.31187538
 21
328.67220295
 31
0.0
  0
LINE
  5
38A
100
AcDbEntity
  8
SLD-0_2
  6
PHANTOM
 62
       7
100
AcDbLine
 10
-8.31187538
 20
328.67220295
 30
0.0
 11
-8.31187538
 21
376.67220295
 31
0.0
  0
LINE
  5
38B
100
AcDbEntity
  8
SLD-0_2
  6
PHANTOM
 62
       7
100
AcDbLine
 10
-8.31187538
 20
376.67220295
 30
0.0
 11
-26.31187538
 21
376.67220295
 31
0.0
  0
LINE
  5
38C
100
AcDbEntity
  8
SLD-0_2
  6
PHANTOM
 62
       7
100
AcDbLine
 10
144.68812462
 20
328.67220295
 30
0.0
 11
144.68812462
 21
376.67220295
 31
0.0
  0
LINE
  5
38D
100
AcDbEntity
  8
SLD-0_2
  6
PHANTOM
 62
       7
100
AcDbLine
 10
-85.64205122
 20
207.9510635
 30
0.0
 11
-85.64205122
 21
208.17181295
 31
0.0
  0
LINE
  5
38E
100
AcDbEntity
  8
SLD-0_2
  6
PHANTOM
 62
       7
100
AcDbLine
 10
-178.84954218
 20
380.64204201
 30
0.0
 11
-178.84954218
 21
391.46838666
 31
0.0
  0
LINE
  5
38F
100
AcDbEntity
  8
SLD-0_2
  6
PHANTOM
 62
       7
100
AcDbLine
 10
-126.75155852
 20
391.46838666
 30
0.0
 11
-127.6432829
 21
391.46838666
 31
0.0
  0
LINE
  5
390
100
AcDbEntity
  8
SLD-0_2
  6
PHANTOM
 62
       7
100
AcDbLine
 10
-159.9804516
 20
379.74930431
 30
0.0
 11
-159.9804516
 21
380.64204201
 31
0.0
  0
LINE
  5
391
100
AcDbEntity
  8
SLD-0_2
  6
PHANTOM
 62
       7
100
AcDbLine
 10
-169.86541903
 20
379.74930431
 30
0.0
 11
-169.86541903
 21
380.64204201
 31
0.0
  0
LINE
  5
392
100
AcDbEntity
  8
SLD-0_2
  6
PHANTOM
 62
       7
100
AcDbLine
 10
-136.63551263
 20
380.64204201
 30
0.0
 11
-136.63551263
 21
379.74930431
 31
0.0
  0
LINE
  5
393
100
AcDbEntity
  8
SLD-0_2
  6
PHANTOM
 62
       7
100
AcDbLine
 10
-167.18821924
 20
391.46838666
 30
0.0
 11
-167.18821924
 21
380.64204201
 31
0.0
  0
LINE
  5
394
100
AcDbEntity
  8
SLD-0_2
  6
PHANTOM
 62
       7
100
AcDbLine
 10
222.40210965
 20
380.79302716
 30
0.0
 11
210.48948257
 21
380.79302716
 31
0.0
  0
LINE
  5
395
100
AcDbEntity
  8
SLD-0_2
  6
PHANTOM
 62
       7
100
AcDbLine
 10
-84.31187538
 20
376.67220295
 30
0.0
 11
-102.31187538
 21
376.67220295
 31
0.0
  0
LINE
  5
396
100
AcDbEntity
  8
SLD-0_2
  6
PHANTOM
 62
       7
100
AcDbLine
 10
-83.31187538
 20
328.67220295
 30
0.0
 11
-83.31187538
 21
376.67220295
 31
0.0
  0
LINE
  5
397
100
AcDbEntity
  8
SLD-0_2
  6
PHANTOM
 62
       7
100
AcDbLine
 10
-198.32631404
 20
181.67154065
 30
0.0
 11
-198.33169326
 21
124.67008622
 31
0.0
  0
LINE
  5
398
100
AcDbEntity
  8
SLD-0_2
  6
PHANTOM
 62
       7
100
AcDbLine
 10
-84.31187538
 20
328.67220295
 30
0.0
 11
-84.31187538
 21
376.67220295
 31
0.0
  0
LINE
  5
399
100
AcDbEntity
  8
SLD-0_2
  6
PHANTOM
 62
       7
100
AcDbLine
 10
-140.20950342
 20
391.46838666
 30
0.0
 11
-140.20950342
 21
392.74922713
 31
0.0
  0
LINE
  5
39A
100
AcDbEntity
  8
SLD-0_2
  6
PHANTOM
 62
       7
100
AcDbLine
 10
-176.17842232
 20
380.64204201
 30
0.0
 11
-176.17842232
 21
379.74930431
 31
0.0
  0
LINE
  5
39B
100
AcDbEntity
  8
SLD-0_2
  6
PHANTOM
 62
       7
100
AcDbLine
 10
-65.31187538
 20
328.67220295
 30
0.0
 11
-65.31187538
 21
376.67220295
 31
0.0
  0
LINE
  5
39C
100
AcDbEntity
  8
SLD-0_2
  6
PHANTOM
 62
       7
100
AcDbLine
 10
-46.31187538
 20
376.67220295
 30
0.0
 11
-64.31187538
 21
376.67220295
 31
0.0
  0
LINE
  5
39D
100
AcDbEntity
  8
SLD-0_2
  6
PHANTOM
 62
       7
100
AcDbLine
 10
-8.31187538
 20
328.67220295
 30
0.0
 11
-26.31187538
 21
328.67220295
 31
0.0
  0
LINE
  5
39E
100
AcDbEntity
  8
SLD-0_2
  6
PHANTOM
 62
       7
100
AcDbLine
 10
126.68812462
 20
328.67220295
 30
0.0
 11
126.68812462
 21
376.67220295
 31
0.0
  0
LINE
  5
39F
100
AcDbEntity
  8
SLD-0_2
  6
PHANTOM
 62
       7
100
AcDbLine
 10
163.68812462
 20
376.67220295
 30
0.0
 11
145.68812462
 21
376.67220295
 31
0.0
  0
LINE
  5
3A0
100
AcDbEntity
  8
SLD-0_2
  6
PHANTOM
 62
       7
100
AcDbLine
 10
-84.31187538
 20
207.97181295
 30
0.0
 11
-84.31187538
 21
163.25337889
 31
0.0
  0
LINE
  5
3A1
100
AcDbEntity
  8
SLD-0_2
  6
PHANTOM
 62
       7
100
AcDbLine
 10
200.35794878
 20
207.9510635
 30
0.0
 11
200.35794878
 21
208.17181295
 31
0.0
  0
LINE
  5
3A2
100
AcDbEntity
  8
SLD-0_2
  6
PHANTOM
 62
       7
100
AcDbLine
 10
-136.63551263
 20
392.74922713
 30
0.0
 11
-136.63551263
 21
391.46838666
 31
0.0
  0
LINE
  5
3A3
100
AcDbEntity
  8
SLD-0_2
  6
PHANTOM
 62
       7
100
AcDbLine
 10
-137.53027698
 20
391.46838666
 30
0.0
 11
-137.53027698
 21
380.64204201
 31
0.0
  0
LINE
  5
3A4
100
AcDbEntity
  8
SLD-0_2
  6
PHANTOM
 62
       7
100
AcDbLine
 10
-147.41524441
 20
380.64204201
 30
0.0
 11
-146.52250671
 21
380.64204201
 31
0.0
  0
LINE
  5
3A5
100
AcDbEntity
  8
SLD-0_2
  6
PHANTOM
 62
       7
100
AcDbLine
 10
-146.52250671
 20
380.64204201
 30
0.0
 11
-146.52250671
 21
379.74930431
 31
0.0
  0
LINE
  5
3A6
100
AcDbEntity
  8
SLD-0_2
  6
PHANTOM
 62
       7
100
AcDbLine
 10
-177.07318668
 20
380.64204201
 30
0.0
 11
-176.17842232
 21
380.64204201
 31
0.0
  0
LINE
  5
3A7
100
AcDbEntity
  8
SLD-0_2
  6
PHANTOM
 62
       7
100
AcDbLine
 10
-108.37291636
 20
181.67154065
 30
0.0
 11
-108.37291636
 21
135.67072245
 31
0.0
  0
LINE
  5
3A8
100
AcDbEntity
  8
SLD-0_2
  6
PHANTOM
 62
       7
100
AcDbLine
 10
144.68812462
 20
376.67220295
 30
0.0
 11
126.68812462
 21
376.67220295
 31
0.0
  0
LINE
  5
3A9
100
AcDbEntity
  8
SLD-0_2
  6
PHANTOM
 62
       7
100
AcDbLine
 10
201.68812462
 20
328.67220295
 30
0.0
 11
183.68812462
 21
328.67220295
 31
0.0
  0
LINE
  5
3AA
100
AcDbEntity
  8
SLD-0_2
  6
PHANTOM
 62
       7
100
AcDbLine
 10
198.85794878
 20
209.67181295
 30
0.0
 11
196.5602953
 21
209.67181295
 31
0.0
  0
LINE
  5
3AB
100
AcDbEntity
  8
SLD-0_2
  6
PHANTOM
 62
       7
100
AcDbLine
 10
-150.09649749
 20
379.74930431
 30
0.0
 11
-150.09649749
 21
380.64204201
 31
0.0
  0
LINE
  5
3AC
100
AcDbEntity
  8
SLD-0_2
  6
PHANTOM
 62
       7
100
AcDbLine
 10
-166.29345489
 20
380.64204201
 30
0.0
 11
-166.29345489
 21
379.74930431
 31
0.0
  0
LINE
  5
3AD
100
AcDbEntity
  8
SLD-0_2
  6
PHANTOM
 62
       7
100
AcDbLine
 10
87.68812462
 20
376.67220295
 30
0.0
 11
69.68812462
 21
376.67220295
 31
0.0
  0
LINE
  5
3AE
100
AcDbEntity
  8
SLD-0_2
  6
PHANTOM
 62
       7
100
AcDbLine
 10
125.68812462
 20
328.67220295
 30
0.0
 11
107.68812462
 21
328.67220295
 31
0.0
  0
LINE
  5
3AF
100
AcDbEntity
  8
SLD-0_2
  6
PHANTOM
 62
       7
100
AcDbLine
 10
50.68812462
 20
328.67220295
 30
0.0
 11
50.68812462
 21
376.67220295
 31
0.0
  0
LINE
  5
3B0
100
AcDbEntity
  8
SLD-0_2
  6
PHANTOM
 62
       7
100
AcDbLine
 10
-179.75241311
 20
391.46838666
 30
0.0
 11
-179.75241311
 21
392.74922713
 31
0.0
  0
LINE
  5
3B1
100
AcDbEntity
  8
SLD-0_2
  6
PHANTOM
 62
       7
100
AcDbLine
 10
-126.75155852
 20
380.64204201
 30
0.0
 11
-126.75155852
 21
379.74930431
 31
0.0
  0
LINE
  5
3B2
100
AcDbEntity
  8
SLD-0_2
  6
PHANTOM
 62
       7
100
AcDbLine
 10
-140.20950342
 20
379.74930431
 30
0.0
 11
-140.20950342
 21
380.64204201
 31
0.0
  0
LINE
  5
3B3
100
AcDbEntity
  8
SLD-0_2
  6
PHANTOM
 62
       7
100
AcDbLine
 10
-149.19159991
 20
391.46838666
 30
0.0
 11
-150.09649749
 21
391.46838666
 31
0.0
  0
LINE
  5
3B4
100
AcDbEntity
  8
SLD-0_2
  6
PHANTOM
 62
       7
100
AcDbLine
 10
-146.52250671
 20
391.46838666
 30
0.0
 11
-147.41524441
 21
391.46838666
 31
0.0
  0
LINE
  5
3B5
100
AcDbEntity
  8
SLD-0_2
  6
PHANTOM
 62
       7
100
AcDbLine
 10
-167.18821924
 20
380.64204201
 30
0.0
 11
-166.29345489
 21
380.64204201
 31
0.0
  0
LINE
  5
3B6
100
AcDbEntity
  8
SLD-0_2
  6
PHANTOM
 62
       7
100
AcDbLine
 10
220.15253223
 20
317.08641338
 30
0.0
 11
220.15253223
 21
378.29518557
 31
0.0
  0
LINE
  5
3B7
100
AcDbEntity
  8
SLD-0_2
  6
PHANTOM
 62
       7
100
AcDbLine
 10
106.68812462
 20
328.67220295
 30
0.0
 11
88.68812462
 21
328.67220295
 31
0.0
  0
LINE
  5
3B8
100
AcDbEntity
  8
SLD-0_2
  6
PHANTOM
 62
       7
100
AcDbLine
 10
-179.75241311
 20
379.74930431
 30
0.0
 11
-179.75241311
 21
380.64204201
 31
0.0
  0
LINE
  5
3B9
100
AcDbEntity
  8
SLD-0_2
  6
PHANTOM
 62
       7
100
AcDbLine
 10
-179.75241311
 20
392.74922713
 30
0.0
 11
-126.75155852
 21
392.74922713
 31
0.0
  0
LINE
  5
3BA
100
AcDbEntity
  8
SLD-0_2
  6
PHANTOM
 62
       7
100
AcDbLine
 10
-127.6432829
 20
391.46838666
 30
0.0
 11
-127.6432829
 21
380.64204201
 31
0.0
  0
LINE
  5
3BB
100
AcDbEntity
  8
SLD-0_2
  6
PHANTOM
 62
       7
100
AcDbLine
 10
-129.4196384
 20
380.64204201
 30
0.0
 11
-129.4196384
 21
391.46838666
 31
0.0
  0
LINE
  5
3BC
100
AcDbEntity
  8
SLD-0_2
  6
PHANTOM
 62
       7
100
AcDbLine
 10
-129.4196384
 20
391.46838666
 30
0.0
 11
-130.32250934
 21
391.46838666
 31
0.0
  0
LINE
  5
3BD
100
AcDbEntity
  8
SLD-0_2
  6
PHANTOM
 62
       7
100
AcDbLine
 10
-130.32250934
 20
391.46838666
 30
0.0
 11
-130.32250934
 21
392.74922713
 31
0.0
  0
LINE
  5
3BE
100
AcDbEntity
  8
SLD-0_2
  6
PHANTOM
 62
       7
100
AcDbLine
 10
-159.07758067
 20
391.46838666
 30
0.0
 11
-159.9804516
 21
391.46838666
 31
0.0
  0
LINE
  5
3BF
100
AcDbEntity
  8
SLD-0_2
  6
PHANTOM
 62
       7
100
AcDbLine
 10
-168.96457474
 20
380.64204201
 30
0.0
 11
-168.96457474
 21
391.46838666
 31
0.0
  0
LINE
  5
3C0
100
AcDbEntity
  8
SLD-0_2
  6
PHANTOM
 62
       7
100
AcDbLine
 10
-166.29345489
 20
392.74922713
 30
0.0
 11
-166.29345489
 21
391.46838666
 31
0.0
  0
LINE
  5
3C1
100
AcDbEntity
  8
SLD-0_2
  6
PHANTOM
 62
       7
100
AcDbLine
 10
164.68812462
 20
328.67220295
 30
0.0
 11
164.68812462
 21
376.67220295
 31
0.0
  0
LINE
  5
3C2
100
AcDbEntity
  8
SLD-0_2
  6
PHANTOM
 62
       7
100
AcDbLine
 10
-140.20950342
 20
380.64204201
 30
0.0
 11
-139.30663248
 21
380.64204201
 31
0.0
  0
LINE
  5
3C3
100
AcDbEntity
  8
SLD-0_2
  6
PHANTOM
 62
       7
100
AcDbLine
 10
-146.52250671
 20
392.74922713
 30
0.0
 11
-146.52250671
 21
391.46838666
 31
0.0
  0
LINE
  5
3C4
100
AcDbEntity
  8
SLD-0_2
  6
PHANTOM
 62
       7
100
AcDbLine
 10
-156.40950079
 20
392.74922713
 30
0.0
 11
-156.40950079
 21
391.46838666
 31
0.0
  0
LINE
  5
3C5
100
AcDbEntity
  8
SLD-0_2
  6
PHANTOM
 62
       7
100
AcDbLine
 10
-156.40950079
 20
380.64204201
 30
0.0
 11
-156.40950079
 21
379.74930431
 31
0.0
  0
LINE
  5
3C6
100
AcDbEntity
  8
SLD-0_2
  6
PHANTOM
 62
       7
100
AcDbLine
 10
-45.31187538
 20
328.67220295
 30
0.0
 11
-45.31187538
 21
376.67220295
 31
0.0
  0
LINE
  5
3C7
100
AcDbEntity
  8
SLD-0_2
  6
PHANTOM
 62
       7
100
AcDbLine
 10
10.68812462
 20
328.67220295
 30
0.0
 11
10.68812462
 21
376.67220295
 31
0.0
  0
LINE
  5
3C8
100
AcDbEntity
  8
SLD-0_2
  6
PHANTOM
 62
       7
100
AcDbLine
 10
29.68812462
 20
328.67220295
 30
0.0
 11
11.68812462
 21
328.67220295
 31
0.0
  0
LINE
  5
3C9
100
AcDbEntity
  8
SLD-0_2
  6
PHANTOM
 62
       7
100
AcDbLine
 10
69.68812462
 20
328.67220295
 30
0.0
 11
69.68812462
 21
376.67220295
 31
0.0
  0
LINE
  5
3CA
100
AcDbEntity
  8
SLD-0_2
  6
PHANTOM
 62
       7
100
AcDbLine
 10
144.68812462
 20
328.67220295
 30
0.0
 11
126.68812462
 21
328.67220295
 31
0.0
  0
LINE
  5
3CB
100
AcDbEntity
  8
SLD-0_2
  6
PHANTOM
 62
       7
100
AcDbLine
 10
182.68812462
 20
328.67220295
 30
0.0
 11
182.68812462
 21
376.67220295
 31
0.0
  0
LINE
  5
3CC
100
AcDbEntity
  8
SLD-0_2
  6
PHANTOM
 62
       7
100
AcDbLine
 10
-126.75155852
 20
379.74930431
 30
0.0
 11
-179.75241311
 21
379.74930431
 31
0.0
  0
LINE
  5
3CD
100
AcDbEntity
  8
SLD-0_2
  6
PHANTOM
 62
       7
100
AcDbLine
 10
-150.09649749
 20
380.64204201
 30
0.0
 11
-149.19159991
 21
380.64204201
 31
0.0
  0
LINE
  5
3CE
100
AcDbEntity
  8
SLD-0_2
  6
PHANTOM
 62
       7
100
AcDbLine
 10
-149.19159991
 20
380.64204201
 30
0.0
 11
-149.19159991
 21
391.46838666
 31
0.0
  0
LINE
  5
3CF
100
AcDbEntity
  8
SLD-0_2
  6
PHANTOM
 62
       7
100
AcDbLine
 10
-168.96457474
 20
391.46838666
 30
0.0
 11
-169.86541903
 21
391.46838666
 31
0.0
  0
LINE
  5
3D0
100
AcDbEntity
  8
SLD-0_2
  6
PHANTOM
 62
       7
100
AcDbLine
 10
30.68812462
 20
328.67220295
 30
0.0
 11
30.68812462
 21
376.67220295
 31
0.0
  0
LINE
  5
3D1
100
AcDbEntity
  8
SLD-0_2
  6
PHANTOM
 62
       7
100
AcDbLine
 10
183.68812462
 20
328.67220295
 30
0.0
 11
183.68812462
 21
376.67220295
 31
0.0
  0
LINE
  5
3D2
100
AcDbEntity
  8
SLD-0_2
  6
PHANTOM
 62
       7
100
AcDbLine
 10
-139.30663248
 20
380.64204201
 30
0.0
 11
-139.30663248
 21
391.46838666
 31
0.0
  0
LINE
  5
3D3
100
AcDbEntity
  8
SLD-0_2
  6
PHANTOM
 62
       7
100
AcDbLine
 10
-150.09649749
 20
391.46838666
 30
0.0
 11
-150.09649749
 21
392.74922713
 31
0.0
  0
LINE
  5
3D4
100
AcDbEntity
  8
SLD-0_2
  6
PHANTOM
 62
       7
100
AcDbLine
 10
-156.40950079
 20
391.46838666
 30
0.0
 11
-157.30122517
 21
391.46838666
 31
0.0
  0
LINE
  5
3D5
100
AcDbEntity
  8
SLD-0_2
  6
PHANTOM
 62
       7
100
AcDbLine
 10
-176.17842232
 20
392.74922713
 30
0.0
 11
-176.17842232
 21
391.46838666
 31
0.0
  0
LINE
  5
3D6
100
AcDbEntity
  8
SLD-0_2
  6
PHANTOM
 62
       7
100
AcDbLine
 10
-176.17842232
 20
391.46838666
 30
0.0
 11
-177.07318668
 21
391.46838666
 31
0.0
  0
LINE
  5
3D7
100
AcDbEntity
  8
SLD-0_2
  6
PHANTOM
 62
       7
100
AcDbLine
 10
-179.81219918
 20
181.74855321
 30
0.0
 11
-179.81219918
 21
198.74907588
 31
0.0
  0
LINE
  5
3D8
100
AcDbEntity
  8
SLD-0_2
  6
PHANTOM
 62
       7
100
AcDbLine
 10
210.48948257
 20
314.58553182
 30
0.0
 11
222.40210965
 21
314.58553182
 31
0.0
  0
LINE
  5
3D9
100
AcDbEntity
  8
SLD-0_2
  6
PHANTOM
 62
       7
100
AcDbLine
 10
-46.31187538
 20
328.67220295
 30
0.0
 11
-46.31187538
 21
376.67220295
 31
0.0
  0
LINE
  5
3DA
100
AcDbEntity
  8
SLD-0_2
  6
PHANTOM
 62
       7
100
AcDbLine
 10
29.68812462
 20
376.67220295
 30
0.0
 11
11.68812462
 21
376.67220295
 31
0.0
  0
LINE
  5
3DB
100
AcDbEntity
  8
SLD-0_2
  6
PHANTOM
 62
       7
100
AcDbLine
 10
48.68812462
 20
376.67220295
 30
0.0
 11
30.68812462
 21
376.67220295
 31
0.0
  0
LINE
  5
3DC
100
AcDbEntity
  8
SLD-0_2
  6
PHANTOM
 62
       7
100
AcDbLine
 10
125.68812462
 20
328.67220295
 30
0.0
 11
125.68812462
 21
376.67220295
 31
0.0
  0
LINE
  5
3DD
100
AcDbEntity
  8
SLD-0_2
  6
PHANTOM
 62
       7
100
AcDbLine
 10
201.68812462
 20
328.67220295
 30
0.0
 11
201.68812462
 21
376.67220295
 31
0.0
  0
LINE
  5
3DE
100
AcDbEntity
  8
SLD-0_2
  6
PHANTOM
 62
       7
100
AcDbLine
 10
-84.31187538
 20
328.67220295
 30
0.0
 11
-102.31187538
 21
328.67220295
 31
0.0
  0
LINE
  5
3DF
100
AcDbEntity
  8
SLD-0_2
  6
PHANTOM
 62
       7
100
AcDbLine
 10
201.68812462
 20
207.97181295
 30
0.0
 11
201.68812462
 21
138.67218566
 31
0.0
  0
LINE
  5
3E0
100
AcDbEntity
  8
SLD-0_2
  6
PHANTOM
 62
       7
100
AcDbLine
 10
201.68812462
 20
207.97181295
 30
0.0
 11
183.68812462
 21
207.97181295
 31
0.0
  0
LINE
  5
3E1
100
AcDbEntity
  8
SLD-0_2
  6
PHANTOM
 62
       7
100
AcDbLine
 10
-130.32250934
 20
380.64204201
 30
0.0
 11
-129.4196384
 21
380.64204201
 31
0.0
  0
LINE
  5
3E2
100
AcDbEntity
  8
SLD-0_2
  6
PHANTOM
 62
       7
100
AcDbLine
 10
-139.30663248
 20
391.46838666
 30
0.0
 11
-140.20950342
 21
391.46838666
 31
0.0
  0
LINE
  5
3E3
100
AcDbEntity
  8
SLD-0_2
  6
PHANTOM
 62
       7
100
AcDbLine
 10
-179.81219918
 20
198.74907588
 30
0.0
 11
-126.81337123
 21
198.74907588
 31
0.0
  0
LINE
  5
3E4
100
AcDbEntity
  8
SLD-0_2
  6
PHANTOM
 62
       7
100
AcDbLine
 10
220.15253223
 20
378.29518557
 30
0.0
 11
212.99036413
 21
378.29518557
 31
0.0
  0
LINE
  5
3E5
100
AcDbEntity
  8
SLD-0_2
  6
PHANTOM
 62
       7
100
AcDbLine
 10
10.68812462
 20
376.67220295
 30
0.0
 11
-7.31187538
 21
376.67220295
 31
0.0
  0
LINE
  5
3E6
100
AcDbEntity
  8
SLD-0_2
  6
PHANTOM
 62
       7
100
AcDbLine
 10
11.68812462
 20
328.67220295
 30
0.0
 11
11.68812462
 21
376.67220295
 31
0.0
  0
LINE
  5
3E7
100
AcDbEntity
  8
SLD-0_2
  6
PHANTOM
 62
       7
100
AcDbLine
 10
106.68812462
 20
328.67220295
 30
0.0
 11
106.68812462
 21
376.67220295
 31
0.0
  0
LINE
  5
3E8
100
AcDbEntity
  8
SLD-0_2
  6
PHANTOM
 62
       7
100
AcDbLine
 10
145.68812462
 20
328.67220295
 30
0.0
 11
145.68812462
 21
376.67220295
 31
0.0
  0
LINE
  5
3E9
100
AcDbEntity
  8
SLD-0_2
  6
PHANTOM
 62
       7
100
AcDbLine
 10
163.68812462
 20
328.67220295
 30
0.0
 11
145.68812462
 21
328.67220295
 31
0.0
  0
LINE
  5
3EA
100
AcDbEntity
  8
SLD-0_2
  6
PHANTOM
 62
       7
100
AcDbLine
 10
68.68812462
 20
328.67220295
 30
0.0
 11
50.68812462
 21
328.67220295
 31
0.0
  0
LINE
  5
3EB
100
AcDbEntity
  8
SLD-0_2
  6
PHANTOM
 62
       7
100
AcDbLine
 10
-102.31187538
 20
207.97181295
 30
0.0
 11
-102.31187538
 21
138.67218566
 31
0.0
  0
LINE
  5
3EC
100
AcDbEntity
  8
SLD-0_2
  6
PHANTOM
 62
       7
100
AcDbLine
 10
183.68812462
 20
207.97181295
 30
0.0
 11
183.68812462
 21
163.25337889
 31
0.0
  0
LINE
  5
3ED
100
AcDbEntity
  8
SLD-0_2
  6
PHANTOM
 62
       7
100
AcDbLine
 10
-159.9804516
 20
391.46838666
 30
0.0
 11
-159.9804516
 21
392.74922713
 31
0.0
  0
LINE
  5
3EE
100
AcDbEntity
  8
SLD-0_2
  6
PHANTOM
 62
       7
100
AcDbLine
 10
-157.30122517
 20
391.46838666
 30
0.0
 11
-157.30122517
 21
380.64204201
 31
0.0
  0
LINE
  5
3EF
100
AcDbEntity
  8
SLD-0_2
  6
PHANTOM
 62
       7
100
AcDbLine
 10
-64.31187538
 20
328.67220295
 30
0.0
 11
-64.31187538
 21
376.67220295
 31
0.0
  0
LINE
  5
3F0
100
AcDbEntity
  8
SLD-0_2
  6
PHANTOM
 62
       7
100
AcDbLine
 10
48.68812462
 20
328.67220295
 30
0.0
 11
48.68812462
 21
376.67220295
 31
0.0
  0
LINE
  5
3F1
100
AcDbEntity
  8
SLD-0_2
  6
PHANTOM
 62
       7
100
AcDbLine
 10
87.68812462
 20
328.67220295
 30
0.0
 11
69.68812462
 21
328.67220295
 31
0.0
  0
LINE
  5
3F2
100
AcDbEntity
  8
SLD-0_2
  6
PHANTOM
 62
       7
100
AcDbLine
 10
106.68812462
 20
376.67220295
 30
0.0
 11
88.68812462
 21
376.67220295
 31
0.0
  0
LINE
  5
3F3
100
AcDbEntity
  8
SLD-0_2
  6
PHANTOM
 62
       7
100
AcDbLine
 10
125.68812462
 20
376.67220295
 30
0.0
 11
107.68812462
 21
376.67220295
 31
0.0
  0
LINE
  5
3F4
100
AcDbEntity
  8
SLD-0_2
  6
PHANTOM
 62
       7
100
AcDbLine
 10
182.68812462
 20
328.67220295
 30
0.0
 11
164.68812462
 21
328.67220295
 31
0.0
  0
LINE
  5
3F5
100
AcDbEntity
  8
SLD-0_2
  6
PHANTOM
 62
       7
100
AcDbLine
 10
182.68812462
 20
376.67220295
 30
0.0
 11
164.68812462
 21
376.67220295
 31
0.0
  0
LINE
  5
3F6
100
AcDbEntity
  8
SLD-0_2
  6
PHANTOM
 62
       7
100
AcDbLine
 10
68.68812462
 20
328.67220295
 30
0.0
 11
68.68812462
 21
376.67220295
 31
0.0
  0
LINE
  5
3F7
100
AcDbEntity
  8
SLD-0_2
  6
PHANTOM
 62
       7
100
AcDbLine
 10
-90.9397047
 20
207.9510635
 30
0.0
 11
-90.9397047
 21
208.17181295
 31
0.0
  0
LINE
  5
3F8
100
AcDbEntity
  8
SLD-0_2
  6
PHANTOM
 62
       7
100
AcDbLine
 10
195.0602953
 20
207.9510635
 30
0.0
 11
195.0602953
 21
208.17181295
 31
0.0
  0
LINE
  5
3F9
100
AcDbEntity
  8
SLD-0_2
  6
PHANTOM
 62
       7
100
AcDbLine
 10
-179.75241311
 20
380.64204201
 30
0.0
 11
-178.84954218
 21
380.64204201
 31
0.0
  0
LINE
  5
3FA
100
AcDbEntity
  8
SLD-0_2
  6
PHANTOM
 62
       7
100
AcDbLine
 10
-65.31187538
 20
328.67220295
 30
0.0
 11
-83.31187538
 21
328.67220295
 31
0.0
  0
LINE
  5
3FB
100
AcDbEntity
  8
SLD-0_2
  6
PHANTOM
 62
       7
100
AcDbLine
 10
-26.31187538
 20
328.67220295
 30
0.0
 11
-26.31187538
 21
376.67220295
 31
0.0
  0
LINE
  5
3FC
100
AcDbEntity
  8
SLD-0_2
  6
PHANTOM
 62
       7
100
AcDbLine
 10
-7.31187538
 20
328.67220295
 30
0.0
 11
-7.31187538
 21
376.67220295
 31
0.0
  0
LINE
  5
3FD
100
AcDbEntity
  8
SLD-0_2
  6
PHANTOM
 62
       7
100
AcDbLine
 10
29.68812462
 20
328.67220295
 30
0.0
 11
29.68812462
 21
376.67220295
 31
0.0
  0
LINE
  5
3FE
100
AcDbEntity
  8
SLD-0_2
  6
PHANTOM
 62
       7
100
AcDbLine
 10
107.68812462
 20
328.67220295
 30
0.0
 11
107.68812462
 21
376.67220295
 31
0.0
  0
LINE
  5
3FF
100
AcDbEntity
  8
SLD-0_2
  6
PHANTOM
 62
       7
100
AcDbLine
 10
201.68812462
 20
376.67220295
 30
0.0
 11
183.68812462
 21
376.67220295
 31
0.0
  0
LINE
  5
400
100
AcDbEntity
  8
SLD-0_2
  6
PHANTOM
 62
       7
100
AcDbLine
 10
-127.6432829
 20
380.64204201
 30
0.0
 11
-126.75155852
 21
380.64204201
 31
0.0
  0
LINE
  5
401
100
AcDbEntity
  8
SLD-0_2
  6
PHANTOM
 62
       7
100
AcDbLine
 10
212.99036413
 20
317.08641338
 30
0.0
 11
220.15253223
 21
317.08641338
 31
0.0
  0
LINE
  5
402
100
AcDbEntity
  8
SLD-0_2
  6
PHANTOM
 62
       7
100
AcDbLine
 10
212.99036413
 20
378.29518557
 30
0.0
 11
212.99036413
 21
317.08641338
 31
0.0
  0
LINE
  5
403
100
AcDbEntity
  8
SLD-0_2
  6
PHANTOM
 62
       7
100
AcDbLine
 10
10.68812462
 20
328.67220295
 30
0.0
 11
-7.31187538
 21
328.67220295
 31
0.0
  0
LINE
  5
404
100
AcDbEntity
  8
SLD-0_2
  6
PHANTOM
 62
       7
100
AcDbLine
 10
87.68812462
 20
328.67220295
 30
0.0
 11
87.68812462
 21
376.67220295
 31
0.0
  0
LINE
  5
405
100
AcDbEntity
  8
SLD-0_2
  6
PHANTOM
 62
       7
100
AcDbLine
 10
88.68812462
 20
328.67220295
 30
0.0
 11
88.68812462
 21
376.67220295
 31
0.0
  0
LINE
  5
406
100
AcDbEntity
  8
SLD-0_2
  6
PHANTOM
 62
       7
100
AcDbLine
 10
-102.31187538
 20
328.67220295
 30
0.0
 11
-102.31187538
 21
376.67220295
 31
0.0
  0
LINE
  5
407
100
AcDbEntity
  8
SLD-0_2
  6
PHANTOM
 62
       7
100
AcDbLine
 10
-136.63551263
 20
391.46838666
 30
0.0
 11
-137.53027698
 21
391.46838666
 31
0.0
  0
LINE
  5
408
100
AcDbEntity
  8
SLD-0_2
  6
PHANTOM
 62
       7
100
AcDbLine
 10
-166.29345489
 20
391.46838666
 30
0.0
 11
-167.18821924
 21
391.46838666
 31
0.0
  0
LINE
  5
409
100
AcDbEntity
  8
SLD-0_2
  6
PHANTOM
 62
       7
100
AcDbLine
 10
-126.81337123
 20
198.74907588
 30
0.0
 11
-126.81337123
 21
181.74855321
 31
0.0
  0
LINE
  5
40A
100
AcDbEntity
  8
SLD-0_2
  6
PHANTOM
 62
       7
100
AcDbLine
 10
-27.31187538
 20
328.67220295
 30
0.0
 11
-27.31187538
 21
376.67220295
 31
0.0
  0
LINE
  5
40B
100
AcDbEntity
  8
SLD-0_2
  6
PHANTOM
 62
       7
100
AcDbLine
 10
-27.31187538
 20
376.67220295
 30
0.0
 11
-45.31187538
 21
376.67220295
 31
0.0
  0
LINE
  5
40C
100
AcDbEntity
  8
SLD-0_2
  6
PHANTOM
 62
       7
100
AcDbLine
 10
48.68812462
 20
328.67220295
 30
0.0
 11
30.68812462
 21
328.67220295
 31
0.0
  0
LINE
  5
40D
100
AcDbEntity
  8
SLD-0_2
  6
PHANTOM
 62
       7
100
AcDbLine
 10
68.68812462
 20
376.67220295
 30
0.0
 11
50.68812462
 21
376.67220295
 31
0.0
  0
LINE
  5
40E
100
AcDbEntity
  8
SLD-0_2
  6
PHANTOM
 62
       7
100
AcDbLine
 10
163.68812462
 20
328.67220295
 30
0.0
 11
163.68812462
 21
376.67220295
 31
0.0
  0
LINE
  5
40F
100
AcDbEntity
  8
SLD-0_2
  6
PHANTOM
 62
       7
100
AcDbLine
 10
-169.86541903
 20
380.64204201
 30
0.0
 11
-168.96457474
 21
380.64204201
 31
0.0
  0
LINE
  5
410
100
AcDbEntity
  8
SLD-0_2
  6
PHANTOM
 62
       7
100
AcDbLine
 10
-169.86541903
 20
391.46838666
 30
0.0
 11
-169.86541903
 21
392.74922713
 31
0.0
  0
LINE
  5
411
100
AcDbEntity
  8
SLD-0_2
  6
PHANTOM
 62
       7
100
AcDbLine
 10
-137.53027698
 20
380.64204201
 30
0.0
 11
-136.63551263
 21
380.64204201
 31
0.0
  0
LINE
  5
412
100
AcDbEntity
  8
SLD-0_2
  6
PHANTOM
 62
       7
100
AcDbLine
 10
-157.30122517
 20
380.64204201
 30
0.0
 11
-156.40950079
 21
380.64204201
 31
0.0
  0
LINE
  5
413
100
AcDbEntity
  8
SLD-0_2
  6
PHANTOM
 62
       7
100
AcDbLine
 10
-198.32631404
 20
181.67154065
 30
0.0
 11
-108.37291636
 21
181.67154065
 31
0.0
  0
LINE
  5
414
100
AcDbEntity
  8
SLD-0_2
  6
PHANTOM
 62
       7
100
AcDbLine
 10
-126.81337123
 20
181.74855321
 30
0.0
 11
-179.81219918
 21
181.74855321
 31
0.0
  0
LINE
  5
415
100
AcDbEntity
  8
SLD-0_2
  6
PHANTOM
 62
       7
100
AcDbLine
 10
-65.31187538
 20
376.67220295
 30
0.0
 11
-83.31187538
 21
376.67220295
 31
0.0
  0
LINE
  5
416
100
AcDbEntity
  8
SLD-0_2
  6
PHANTOM
 62
       7
100
AcDbLine
 10
-46.31187538
 20
328.67220295
 30
0.0
 11
-64.31187538
 21
328.67220295
 31
0.0
  0
LINE
  5
417
100
AcDbEntity
  8
SLD-0_2
  6
PHANTOM
 62
       7
100
AcDbLine
 10
-84.31187538
 20
207.97181295
 30
0.0
 11
-102.31187538
 21
207.97181295
 31
0.0
  0
ARC
  5
418
100
AcDbEntity
  8
SLD-0_2
  6
PHANTOM
 62
       7
100
AcDbCircle
 10
196.5602953
 20
208.17181295
 30
0.0
 40
1.5
100
AcDbArc
 50
90.0
 51
180.0
  0
ARC
  5
419
100
AcDbEntity
  8
SLD-0_2
  6
PHANTOM
 62
       7
100
AcDbCircle
 10
-87.14205122
 20
208.17181295
 30
0.0
 40
1.5
100
AcDbArc
 50
0.0
 51
90.0
  0
ARC
  5
41A
100
AcDbEntity
  8
SLD-0_2
  6
PHANTOM
 62
       7
100
AcDbCircle
 10
198.85794878
 20
208.17181295
 30
0.0
 40
1.5
100
AcDbArc
 50
0.0
 51
90.0
  0
ARC
  5
41B
100
AcDbEntity
  8
SLD-0_2
  6
PHANTOM
 62
       7
100
AcDbCircle
 10
-89.4397047
 20
208.17181295
 30
0.0
 40
1.5
100
AcDbArc
 50
90.0
 51
180.0
  0
LINE
  5
41C
100
AcDbEntity
  8
SLD-0_1
  6
PHANTOM
 62
       7
100
AcDbLine
 10
-162.85868791
 20
-147.07123999
 30
0.0
 11
-173.68844279
 21
-147.07123999
 31
0.0
  0
LINE
  5
41D
100
AcDbEntity
  8
SLD-0_1
  6
PHANTOM
 62
       7
100
AcDbLine
 10
-174.96607824
 20
-139.85331747
 30
0.0
 11
-173.68844279
 21
-139.85331747
 31
0.0
  0
LINE
  5
41E
100
AcDbEntity
  8
SLD-0_1
  6
PHANTOM
 62
       7
100
AcDbLine
 10
-174.96607824
 20
-110.19494846
 30
0.0
 11
-173.68844279
 21
-110.19494846
 31
0.0
  0
LINE
  5
41F
100
AcDbEntity
  8
SLD-0_1
  6
PHANTOM
 62
       7
100
AcDbLine
 10
-149.91102498
 20
-79.73458806
 30
0.0
 11
-149.91102498
 21
-162.73782601
 31
0.0
  0
LINE
  5
420
100
AcDbEntity
  8
SLD-0_1
  6
PHANTOM
 62
       7
100
AcDbLine
 10
-122.80218469
 20
-146.16780339
 30
0.0
 11
-122.80218469
 21
-147.07123999
 31
0.0
  0
LINE
  5
421
100
AcDbEntity
  8
SLD-0_1
  6
PHANTOM
 62
       7
100
AcDbLine
 10
-133.63002551
 20
-116.50752032
 30
0.0
 11
-134.90957502
 21
-116.50752032
 31
0.0
  0
LINE
  5
422
100
AcDbEntity
  8
SLD-0_1
  6
PHANTOM
 62
       7
100
AcDbLine
 10
-133.63002551
 20
-129.96719447
 30
0.0
 11
-133.63002551
 21
-129.07332816
 31
0.0
  0
LINE
  5
423
100
AcDbEntity
  8
SLD-0_1
  6
PHANTOM
 62
       7
100
AcDbLine
 10
-133.63002551
 20
-146.16780339
 30
0.0
 11
-134.90957502
 21
-146.16780339
 31
0.0
  0
LINE
  5
424
100
AcDbEntity
  8
SLD-0_1
  6
PHANTOM
 62
       7
100
AcDbLine
 10
-173.68844279
 20
-106.62139732
 30
0.0
 11
-174.96607824
 21
-106.62139732
 31
0.0
  0
LINE
  5
425
100
AcDbEntity
  8
SLD-0_1
  6
PHANTOM
 62
       7
100
AcDbLine
 10
-173.68844279
 20
-129.96719447
 30
0.0
 11
-173.68844279
 21
-129.07332816
 31
0.0
  0
LINE
  5
426
100
AcDbEntity
  8
SLD-0_1
  6
PHANTOM
 62
       7
100
AcDbLine
 10
-149.91102498
 20
-162.73782601
 30
0.0
 11
-116.9087921
 21
-162.73782601
 31
0.0
  0
LINE
  5
427
100
AcDbEntity
  8
SLD-0_1
  6
PHANTOM
 62
       7
100
AcDbLine
 10
-173.68844279
 20
-117.41095692
 30
0.0
 11
-173.68844279
 21
-116.50752032
 31
0.0
  0
LINE
  5
428
100
AcDbEntity
  8
SLD-0_1
  6
PHANTOM
 62
       7
100
AcDbLine
 10
-156.96720938
 20
-79.73458806
 30
0.0
 11
-156.96720938
 21
-162.73782601
 31
0.0
  0
LINE
  5
429
100
AcDbEntity
  8
SLD-0_1
  6
PHANTOM
 62
       7
100
AcDbLine
 10
-162.85868791
 20
-106.62139732
 30
0.0
 11
-162.85868791
 21
-107.52483392
 31
0.0
  0
LINE
  5
42A
100
AcDbEntity
  8
SLD-0_1
  6
PHANTOM
 62
       7
100
AcDbLine
 10
-161.96577864
 20
-149.73944047
 30
0.0
 11
-161.96577864
 21
-96.73718838
 31
0.0
  0
LINE
  5
42B
100
AcDbEntity
  8
SLD-0_1
  6
PHANTOM
 62
       7
100
AcDbLine
 10
-161.96577864
 20
-96.73718838
 30
0.0
 11
-162.85868791
 21
-96.73718838
 31
0.0
  0
LINE
  5
42C
100
AcDbEntity
  8
SLD-0_1
  6
PHANTOM
 62
       7
100
AcDbLine
 10
-122.80218469
 20
-116.50752032
 30
0.0
 11
-122.80218469
 21
-117.41095692
 31
0.0
  0
LINE
  5
42D
100
AcDbEntity
  8
SLD-0_1
  6
PHANTOM
 62
       7
100
AcDbLine
 10
-134.90957502
 20
-100.30882546
 30
0.0
 11
-133.63002551
 21
-100.30882546
 31
0.0
  0
LINE
  5
42E
100
AcDbEntity
  8
SLD-0_1
  6
PHANTOM
 62
       7
100
AcDbLine
 10
-173.68844279
 20
-137.18511699
 30
0.0
 11
-173.68844279
 21
-136.27976633
 31
0.0
  0
LINE
  5
42F
100
AcDbEntity
  8
SLD-0_1
  6
PHANTOM
 62
       7
100
AcDbLine
 10
-173.68844279
 20
-146.16780339
 30
0.0
 11
-174.96607824
 21
-146.16780339
 31
0.0
  0
LINE
  5
430
100
AcDbEntity
  8
SLD-0_1
  6
PHANTOM
 62
       7
100
AcDbLine
 10
-134.90957502
 20
-120.08107146
 30
0.0
 11
-133.63002551
 21
-120.08107146
 31
0.0
  0
LINE
  5
431
100
AcDbEntity
  8
SLD-0_1
  6
PHANTOM
 62
       7
100
AcDbLine
 10
-162.85868791
 20
-110.19494846
 30
0.0
 11
-161.96577864
 21
-110.19494846
 31
0.0
  0
LINE
  5
432
100
AcDbEntity
  8
SLD-0_1
  6
PHANTOM
 62
       7
100
AcDbLine
 10
-162.85868791
 20
-99.41495916
 30
0.0
 11
-162.85868791
 21
-100.30882546
 31
0.0
  0
LINE
  5
433
100
AcDbEntity
  8
SLD-0_1
  6
PHANTOM
 62
       7
100
AcDbLine
 10
-122.80218469
 20
-139.85331747
 30
0.0
 11
-121.90927542
 21
-139.85331747
 31
0.0
  0
LINE
  5
434
100
AcDbEntity
  8
SLD-0_1
  6
PHANTOM
 62
       7
100
AcDbLine
 10
-161.96577864
 20
-126.39364332
 30
0.0
 11
-162.85868791
 21
-126.39364332
 31
0.0
  0
LINE
  5
435
100
AcDbEntity
  8
SLD-0_1
  6
PHANTOM
 62
       7
100
AcDbLine
 10
-116.9087921
 20
-79.73458806
 30
0.0
 11
-149.91102498
 21
-79.73458806
 31
0.0
  0
LINE
  5
436
100
AcDbEntity
  8
SLD-0_1
  6
PHANTOM
 62
       7
100
AcDbLine
 10
-174.96607824
 20
-96.73718838
 30
0.0
 11
-174.96607824
 21
-149.73944047
 31
0.0
  0
LINE
  5
437
100
AcDbEntity
  8
SLD-0_1
  6
PHANTOM
 62
       7
100
AcDbLine
 10
-162.85868791
 20
-119.18720516
 30
0.0
 11
-162.85868791
 21
-120.08107146
 31
0.0
  0
LINE
  5
438
100
AcDbEntity
  8
SLD-0_1
  6
PHANTOM
 62
       7
100
AcDbLine
 10
-174.96607824
 20
-129.96719447
 30
0.0
 11
-173.68844279
 21
-129.96719447
 31
0.0
  0
LINE
  5
439
100
AcDbEntity
  8
SLD-0_1
  6
PHANTOM
 62
       7
100
AcDbLine
 10
-133.63002551
 20
-120.08107146
 30
0.0
 11
-133.63002551
 21
-119.18720516
 31
0.0
  0
LINE
  5
43A
100
AcDbEntity
  8
SLD-0_1
  6
PHANTOM
 62
       7
100
AcDbLine
 10
-173.68844279
 20
-136.27976633
 30
0.0
 11
-174.96607824
 21
-136.27976633
 31
0.0
  0
LINE
  5
43B
100
AcDbEntity
  8
SLD-0_1
  6
PHANTOM
 62
       7
100
AcDbLine
 10
-122.80218469
 20
-120.08107146
 30
0.0
 11
-121.90927542
 21
-120.08107146
 31
0.0
  0
LINE
  5
43C
100
AcDbEntity
  8
SLD-0_1
  6
PHANTOM
 62
       7
100
AcDbLine
 10
-173.68844279
 20
-96.73718838
 30
0.0
 11
-174.96607824
 21
-96.73718838
 31
0.0
  0
LINE
  5
43D
100
AcDbEntity
  8
SLD-0_1
  6
PHANTOM
 62
       7
100
AcDbLine
 10
-162.85868791
 20
-129.96719447
 30
0.0
 11
-161.96577864
 21
-129.96719447
 31
0.0
  0
LINE
  5
43E
100
AcDbEntity
  8
SLD-0_1
  6
PHANTOM
 62
       7
100
AcDbLine
 10
-133.63002551
 20
-107.52483392
 30
0.0
 11
-133.63002551
 21
-106.62139732
 31
0.0
  0
LINE
  5
43F
100
AcDbEntity
  8
SLD-0_1
  6
PHANTOM
 62
       7
100
AcDbLine
 10
-122.80218469
 20
-129.96719447
 30
0.0
 11
-121.90927542
 21
-129.96719447
 31
0.0
  0
LINE
  5
440
100
AcDbEntity
  8
SLD-0_1
  6
PHANTOM
 62
       7
100
AcDbLine
 10
-173.68844279
 20
-107.52483392
 30
0.0
 11
-173.68844279
 21
-106.62139732
 31
0.0
  0
LINE
  5
441
100
AcDbEntity
  8
SLD-0_1
  6
PHANTOM
 62
       7
100
AcDbLine
 10
-133.63002551
 20
-149.73944047
 30
0.0
 11
-133.63002551
 21
-148.84557417
 31
0.0
  0
LINE
  5
442
100
AcDbEntity
  8
SLD-0_1
  6
PHANTOM
 62
       7
100
AcDbLine
 10
-198.31187538
 20
-165.32779705
 30
0.0
 11
-198.31187538
 21
-77.32779705
 31
0.0
  0
LINE
  5
443
100
AcDbEntity
  8
SLD-0_1
  6
PHANTOM
 62
       7
100
AcDbLine
 10
-161.96577864
 20
-136.27976633
 30
0.0
 11
-162.85868791
 21
-136.27976633
 31
0.0
  0
LINE
  5
444
100
AcDbEntity
  8
SLD-0_1
  6
PHANTOM
 62
       7
100
AcDbLine
 10
-173.68844279
 20
-139.85331747
 30
0.0
 11
-173.68844279
 21
-138.95753711
 31
0.0
  0
LINE
  5
445
100
AcDbEntity
  8
SLD-0_1
  6
PHANTOM
 62
       7
100
AcDbLine
 10
-133.63002551
 20
-97.64062498
 30
0.0
 11
-133.63002551
 21
-96.73718838
 31
0.0
  0
LINE
  5
446
100
AcDbEntity
  8
SLD-0_1
  6
PHANTOM
 62
       7
100
AcDbLine
 10
-122.80218469
 20
-117.41095692
 30
0.0
 11
-133.63002551
 21
-117.41095692
 31
0.0
  0
LINE
  5
447
100
AcDbEntity
  8
SLD-0_1
  6
PHANTOM
 62
       7
100
AcDbLine
 10
-173.68844279
 20
-149.73944047
 30
0.0
 11
-173.68844279
 21
-148.84557417
 31
0.0
  0
LINE
  5
448
100
AcDbEntity
  8
SLD-0_1
  6
PHANTOM
 62
       7
100
AcDbLine
 10
-134.90957502
 20
-96.73718838
 30
0.0
 11
-134.90957502
 21
-149.73944047
 31
0.0
  0
LINE
  5
449
100
AcDbEntity
  8
SLD-0_1
  6
PHANTOM
 62
       7
100
AcDbLine
 10
-133.63002551
 20
-138.95753711
 30
0.0
 11
-122.80218469
 21
-138.95753711
 31
0.0
  0
LINE
  5
44A
100
AcDbEntity
  8
SLD-0_1
  6
PHANTOM
 62
       7
100
AcDbLine
 10
-122.80218469
 20
-149.73944047
 30
0.0
 11
-121.90927542
 21
-149.73944047
 31
0.0
  0
LINE
  5
44B
100
AcDbEntity
  8
SLD-0_1
  6
PHANTOM
 62
       7
100
AcDbLine
 10
-162.85868791
 20
-97.64062498
 30
0.0
 11
-173.68844279
 21
-97.64062498
 31
0.0
  0
LINE
  5
44C
100
AcDbEntity
  8
SLD-0_1
  6
PHANTOM
 62
       7
100
AcDbLine
 10
-121.90927542
 20
-96.73718838
 30
0.0
 11
-122.80218469
 21
-96.73718838
 31
0.0
  0
LINE
  5
44D
100
AcDbEntity
  8
SLD-0_1
  6
PHANTOM
 62
       7
100
AcDbLine
 10
-116.9087921
 20
-162.73782601
 30
0.0
 11
-116.9087921
 21
-79.73458806
 31
0.0
  0
LINE
  5
44E
100
AcDbEntity
  8
SLD-0_1
  6
PHANTOM
 62
       7
100
AcDbLine
 10
-162.85868791
 20
-126.39364332
 30
0.0
 11
-162.85868791
 21
-127.29707993
 31
0.0
  0
LINE
  5
44F
100
AcDbEntity
  8
SLD-0_1
  6
PHANTOM
 62
       7
100
AcDbLine
 10
-156.96720938
 20
-162.73782601
 30
0.0
 11
-189.9675282
 21
-162.73782601
 31
0.0
  0
LINE
  5
450
100
AcDbEntity
  8
SLD-0_1
  6
PHANTOM
 62
       7
100
AcDbLine
 10
-122.80218469
 20
-137.18511699
 30
0.0
 11
-133.63002551
 21
-137.18511699
 31
0.0
  0
LINE
  5
451
100
AcDbEntity
  8
SLD-0_1
  6
PHANTOM
 62
       7
100
AcDbLine
 10
-134.90957502
 20
-139.85331747
 30
0.0
 11
-133.63002551
 21
-139.85331747
 31
0.0
  0
LINE
  5
452
100
AcDbEntity
  8
SLD-0_1
  6
PHANTOM
 62
       7
100
AcDbLine
 10
-162.85868791
 20
-109.30299622
 30
0.0
 11
-162.85868791
 21
-110.19494846
 31
0.0
  0
LINE
  5
453
100
AcDbEntity
  8
SLD-0_1
  6
PHANTOM
 62
       7
100
AcDbLine
 10
-133.63002551
 20
-106.62139732
 30
0.0
 11
-134.90957502
 21
-106.62139732
 31
0.0
  0
LINE
  5
454
100
AcDbEntity
  8
SLD-0_1
  6
PHANTOM
 62
       7
100
AcDbLine
 10
-134.90957502
 20
-129.96719447
 30
0.0
 11
-133.63002551
 21
-129.96719447
 31
0.0
  0
LINE
  5
455
100
AcDbEntity
  8
SLD-0_1
  6
PHANTOM
 62
       7
100
AcDbLine
 10
-173.68844279
 20
-109.30299622
 30
0.0
 11
-162.85868791
 21
-109.30299622
 31
0.0
  0
LINE
  5
456
100
AcDbEntity
  8
SLD-0_1
  6
PHANTOM
 62
       7
100
AcDbLine
 10
-174.96607824
 20
-120.08107146
 30
0.0
 11
-173.68844279
 21
-120.08107146
 31
0.0
  0
LINE
  5
457
100
AcDbEntity
  8
SLD-0_1
  6
PHANTOM
 62
       7
100
AcDbLine
 10
-108.29995709
 20
-165.32779705
 30
0.0
 11
-108.29995709
 21
-77.32779705
 31
0.0
  0
LINE
  5
458
100
AcDbEntity
  8
SLD-0_1
  6
PHANTOM
 62
       7
100
AcDbLine
 10
-173.68844279
 20
-129.07332816
 30
0.0
 11
-162.85868791
 21
-129.07332816
 31
0.0
  0
LINE
  5
459
100
AcDbEntity
  8
SLD-0_1
  6
PHANTOM
 62
       7
100
AcDbLine
 10
-133.63002551
 20
-136.27976633
 30
0.0
 11
-134.90957502
 21
-136.27976633
 31
0.0
  0
LINE
  5
45A
100
AcDbEntity
  8
SLD-0_1
  6
PHANTOM
 62
       7
100
AcDbLine
 10
-122.80218469
 20
-127.29707993
 30
0.0
 11
-133.63002551
 21
-127.29707993
 31
0.0
  0
LINE
  5
45B
100
AcDbEntity
  8
SLD-0_1
  6
PHANTOM
 62
       7
100
AcDbLine
 10
-162.85868791
 20
-149.73944047
 30
0.0
 11
-161.96577864
 21
-149.73944047
 31
0.0
  0
LINE
  5
45C
100
AcDbEntity
  8
SLD-0_1
  6
PHANTOM
 62
       7
100
AcDbLine
 10
-121.90927542
 20
-106.62139732
 30
0.0
 11
-122.80218469
 21
-106.62139732
 31
0.0
  0
LINE
  5
45D
100
AcDbEntity
  8
SLD-0_1
  6
PHANTOM
 62
       7
100
AcDbLine
 10
-134.90957502
 20
-149.73944047
 30
0.0
 11
-133.63002551
 21
-149.73944047
 31
0.0
  0
LINE
  5
45E
100
AcDbEntity
  8
SLD-0_1
  6
PHANTOM
 62
       7
100
AcDbLine
 10
-162.85868791
 20
-100.30882546
 30
0.0
 11
-161.96577864
 21
-100.30882546
 31
0.0
  0
LINE
  5
45F
100
AcDbEntity
  8
SLD-0_1
  6
PHANTOM
 62
       7
100
AcDbLine
 10
-173.68844279
 20
-127.29707993
 30
0.0
 11
-173.68844279
 21
-126.39364332
 31
0.0
  0
LINE
  5
460
100
AcDbEntity
  8
SLD-0_1
  6
PHANTOM
 62
       7
100
AcDbLine
 10
-122.80218469
 20
-138.95753711
 30
0.0
 11
-122.80218469
 21
-139.85331747
 31
0.0
  0
LINE
  5
461
100
AcDbEntity
  8
SLD-0_1
  6
PHANTOM
 62
       7
100
AcDbLine
 10
-133.63002551
 20
-99.41495916
 30
0.0
 11
-122.80218469
 21
-99.41495916
 31
0.0
  0
LINE
  5
462
100
AcDbEntity
  8
SLD-0_1
  6
PHANTOM
 62
       7
100
AcDbLine
 10
-189.9675282
 20
-79.73458806
 30
0.0
 11
-156.96720938
 21
-79.73458806
 31
0.0
  0
LINE
  5
463
100
AcDbEntity
  8
SLD-0_1
  6
PHANTOM
 62
       7
100
AcDbLine
 10
-122.80218469
 20
-129.07332816
 30
0.0
 11
-122.80218469
 21
-129.96719447
 31
0.0
  0
LINE
  5
464
100
AcDbEntity
  8
SLD-0_1
  6
PHANTOM
 62
       7
100
AcDbLine
 10
-133.63002551
 20
-126.39364332
 30
0.0
 11
-134.90957502
 21
-126.39364332
 31
0.0
  0
LINE
  5
465
100
AcDbEntity
  8
SLD-0_1
  6
PHANTOM
 62
       7
100
AcDbLine
 10
-133.63002551
 20
-147.07123999
 30
0.0
 11
-133.63002551
 21
-146.16780339
 31
0.0
  0
LINE
  5
466
100
AcDbEntity
  8
SLD-0_1
  6
PHANTOM
 62
       7
100
AcDbLine
 10
-122.80218469
 20
-109.30299622
 30
0.0
 11
-122.80218469
 21
-110.19494846
 31
0.0
  0
LINE
  5
467
100
AcDbEntity
  8
SLD-0_1
  6
PHANTOM
 62
       7
100
AcDbLine
 10
-134.90957502
 20
-110.19494846
 30
0.0
 11
-133.63002551
 21
-110.19494846
 31
0.0
  0
LINE
  5
468
100
AcDbEntity
  8
SLD-0_1
  6
PHANTOM
 62
       7
100
AcDbLine
 10
-162.85868791
 20
-127.29707993
 30
0.0
 11
-173.68844279
 21
-127.29707993
 31
0.0
  0
LINE
  5
469
100
AcDbEntity
  8
SLD-0_1
  6
PHANTOM
 62
       7
100
AcDbLine
 10
-162.85868791
 20
-139.85331747
 30
0.0
 11
-161.96577864
 21
-139.85331747
 31
0.0
  0
LINE
  5
46A
100
AcDbEntity
  8
SLD-0_1
  6
PHANTOM
 62
       7
100
AcDbLine
 10
-162.85868791
 20
-146.16780339
 30
0.0
 11
-162.85868791
 21
-147.07123999
 31
0.0
  0
LINE
  5
46B
100
AcDbEntity
  8
SLD-0_1
  6
PHANTOM
 62
       7
100
AcDbLine
 10
-121.90927542
 20
-149.73944047
 30
0.0
 11
-121.90927542
 21
-96.73718838
 31
0.0
  0
LINE
  5
46C
100
AcDbEntity
  8
SLD-0_1
  6
PHANTOM
 62
       7
100
AcDbLine
 10
-122.80218469
 20
-136.27976633
 30
0.0
 11
-122.80218469
 21
-137.18511699
 31
0.0
  0
LINE
  5
46D
100
AcDbEntity
  8
SLD-0_1
  6
PHANTOM
 62
       7
100
AcDbLine
 10
-121.90927542
 20
-136.27976633
 30
0.0
 11
-122.80218469
 21
-136.27976633
 31
0.0
  0
LINE
  5
46E
100
AcDbEntity
  8
SLD-0_1
  6
PHANTOM
 62
       7
100
AcDbLine
 10
-162.85868791
 20
-138.95753711
 30
0.0
 11
-162.85868791
 21
-139.85331747
 31
0.0
  0
LINE
  5
46F
100
AcDbEntity
  8
SLD-0_1
  6
PHANTOM
 62
       7
100
AcDbLine
 10
-122.80218469
 20
-107.52483392
 30
0.0
 11
-133.63002551
 21
-107.52483392
 31
0.0
  0
LINE
  5
470
100
AcDbEntity
  8
SLD-0_1
  6
PHANTOM
 62
       7
100
AcDbLine
 10
-161.96577864
 20
-146.16780339
 30
0.0
 11
-162.85868791
 21
-146.16780339
 31
0.0
  0
LINE
  5
471
100
AcDbEntity
  8
SLD-0_1
  6
PHANTOM
 62
       7
100
AcDbLine
 10
-122.80218469
 20
-100.30882546
 30
0.0
 11
-121.90927542
 21
-100.30882546
 31
0.0
  0
LINE
  5
472
100
AcDbEntity
  8
SLD-0_1
  6
PHANTOM
 62
       7
100
AcDbLine
 10
-133.63002551
 20
-139.85331747
 30
0.0
 11
-133.63002551
 21
-138.95753711
 31
0.0
  0
LINE
  5
473
100
AcDbEntity
  8
SLD-0_1
  6
PHANTOM
 62
       7
100
AcDbLine
 10
-133.63002551
 20
-119.18720516
 30
0.0
 11
-122.80218469
 21
-119.18720516
 31
0.0
  0
LINE
  5
474
100
AcDbEntity
  8
SLD-0_1
  6
PHANTOM
 62
       7
100
AcDbLine
 10
-162.85868791
 20
-120.08107146
 30
0.0
 11
-161.96577864
 21
-120.08107146
 31
0.0
  0
LINE
  5
475
100
AcDbEntity
  8
SLD-0_1
  6
PHANTOM
 62
       7
100
AcDbLine
 10
-162.85868791
 20
-148.84557417
 30
0.0
 11
-162.85868791
 21
-149.73944047
 31
0.0
  0
LINE
  5
476
100
AcDbEntity
  8
SLD-0_1
  6
PHANTOM
 62
       7
100
AcDbLine
 10
-189.9675282
 20
-162.73782601
 30
0.0
 11
-189.9675282
 21
-79.73458806
 31
0.0
  0
LINE
  5
477
100
AcDbEntity
  8
SLD-0_1
  6
PHANTOM
 62
       7
100
AcDbLine
 10
-122.80218469
 20
-106.62139732
 30
0.0
 11
-122.80218469
 21
-107.52483392
 31
0.0
  0
LINE
  5
478
100
AcDbEntity
  8
SLD-0_1
  6
PHANTOM
 62
       7
100
AcDbLine
 10
-173.68844279
 20
-126.39364332
 30
0.0
 11
-174.96607824
 21
-126.39364332
 31
0.0
  0
LINE
  5
479
100
AcDbEntity
  8
SLD-0_1
  6
PHANTOM
 62
       7
100
AcDbLine
 10
-122.80218469
 20
-147.07123999
 30
0.0
 11
-133.63002551
 21
-147.07123999
 31
0.0
  0
LINE
  5
47A
100
AcDbEntity
  8
SLD-0_1
  6
PHANTOM
 62
       7
100
AcDbLine
 10
-162.85868791
 20
-136.27976633
 30
0.0
 11
-162.85868791
 21
-137.18511699
 31
0.0
  0
LINE
  5
47B
100
AcDbEntity
  8
SLD-0_1
  6
PHANTOM
 62
       7
100
AcDbLine
 10
-173.68844279
 20
-120.08107146
 30
0.0
 11
-173.68844279
 21
-119.18720516
 31
0.0
  0
LINE
  5
47C
100
AcDbEntity
  8
SLD-0_1
  6
PHANTOM
 62
       7
100
AcDbLine
 10
-133.63002551
 20
-137.18511699
 30
0.0
 11
-133.63002551
 21
-136.27976633
 31
0.0
  0
LINE
  5
47D
100
AcDbEntity
  8
SLD-0_1
  6
PHANTOM
 62
       7
100
AcDbLine
 10
-173.68844279
 20
-100.30882546
 30
0.0
 11
-173.68844279
 21
-99.41495916
 31
0.0
  0
LINE
  5
47E
100
AcDbEntity
  8
SLD-0_1
  6
PHANTOM
 62
       7
100
AcDbLine
 10
-133.63002551
 20
-96.73718838
 30
0.0
 11
-134.90957502
 21
-96.73718838
 31
0.0
  0
LINE
  5
47F
100
AcDbEntity
  8
SLD-0_1
  6
PHANTOM
 62
       7
100
AcDbLine
 10
-174.96607824
 20
-149.73944047
 30
0.0
 11
-173.68844279
 21
-149.73944047
 31
0.0
  0
LINE
  5
480
100
AcDbEntity
  8
SLD-0_1
  6
PHANTOM
 62
       7
100
AcDbLine
 10
-122.80218469
 20
-119.18720516
 30
0.0
 11
-122.80218469
 21
-120.08107146
 31
0.0
  0
LINE
  5
481
100
AcDbEntity
  8
SLD-0_1
  6
PHANTOM
 62
       7
100
AcDbLine
 10
-173.68844279
 20
-110.19494846
 30
0.0
 11
-173.68844279
 21
-109.30299622
 31
0.0
  0
LINE
  5
482
100
AcDbEntity
  8
SLD-0_1
  6
PHANTOM
 62
       7
100
AcDbLine
 10
-162.85868791
 20
-116.50752032
 30
0.0
 11
-162.85868791
 21
-117.41095692
 31
0.0
  0
LINE
  5
483
100
AcDbEntity
  8
SLD-0_1
  6
PHANTOM
 62
       7
100
AcDbLine
 10
-173.68844279
 20
-138.95753711
 30
0.0
 11
-162.85868791
 21
-138.95753711
 31
0.0
  0
LINE
  5
484
100
AcDbEntity
  8
SLD-0_1
  6
PHANTOM
 62
       7
100
AcDbLine
 10
-122.80218469
 20
-110.19494846
 30
0.0
 11
-121.90927542
 21
-110.19494846
 31
0.0
  0
LINE
  5
485
100
AcDbEntity
  8
SLD-0_1
  6
PHANTOM
 62
       7
100
AcDbLine
 10
-161.96577864
 20
-116.50752032
 30
0.0
 11
-162.85868791
 21
-116.50752032
 31
0.0
  0
LINE
  5
486
100
AcDbEntity
  8
SLD-0_1
  6
PHANTOM
 62
       7
100
AcDbLine
 10
-162.85868791
 20
-117.41095692
 30
0.0
 11
-173.68844279
 21
-117.41095692
 31
0.0
  0
LINE
  5
487
100
AcDbEntity
  8
SLD-0_1
  6
PHANTOM
 62
       7
100
AcDbLine
 10
-122.80218469
 20
-148.84557417
 30
0.0
 11
-122.80218469
 21
-149.73944047
 31
0.0
  0
LINE
  5
488
100
AcDbEntity
  8
SLD-0_1
  6
PHANTOM
 62
       7
100
AcDbLine
 10
-173.68844279
 20
-99.41495916
 30
0.0
 11
-162.85868791
 21
-99.41495916
 31
0.0
  0
LINE
  5
489
100
AcDbEntity
  8
SLD-0_1
  6
PHANTOM
 62
       7
100
AcDbLine
 10
-121.90927542
 20
-146.16780339
 30
0.0
 11
-122.80218469
 21
-146.16780339
 31
0.0
  0
LINE
  5
48A
100
AcDbEntity
  8
SLD-0_1
  6
PHANTOM
 62
       7
100
AcDbLine
 10
-173.68844279
 20
-97.64062498
 30
0.0
 11
-173.68844279
 21
-96.73718838
 31
0.0
  0
LINE
  5
48B
100
AcDbEntity
  8
SLD-0_1
  6
PHANTOM
 62
       7
100
AcDbLine
 10
-133.63002551
 20
-129.07332816
 30
0.0
 11
-122.80218469
 21
-129.07332816
 31
0.0
  0
LINE
  5
48C
100
AcDbEntity
  8
SLD-0_1
  6
PHANTOM
 62
       7
100
AcDbLine
 10
-162.85868791
 20
-137.18511699
 30
0.0
 11
-173.68844279
 21
-137.18511699
 31
0.0
  0
LINE
  5
48D
100
AcDbEntity
  8
SLD-0_1
  6
PHANTOM
 62
       7
100
AcDbLine
 10
-122.80218469
 20
-96.73718838
 30
0.0
 11
-122.80218469
 21
-97.64062498
 31
0.0
  0
LINE
  5
48E
100
AcDbEntity
  8
SLD-0_1
  6
PHANTOM
 62
       7
100
AcDbLine
 10
-133.63002551
 20
-117.41095692
 30
0.0
 11
-133.63002551
 21
-116.50752032
 31
0.0
  0
LINE
  5
48F
100
AcDbEntity
  8
SLD-0_1
  6
PHANTOM
 62
       7
100
AcDbLine
 10
-162.85868791
 20
-96.73718838
 30
0.0
 11
-162.85868791
 21
-97.64062498
 31
0.0
  0
LINE
  5
490
100
AcDbEntity
  8
SLD-0_1
  6
PHANTOM
 62
       7
100
AcDbLine
 10
-121.90927542
 20
-126.39364332
 30
0.0
 11
-122.80218469
 21
-126.39364332
 31
0.0
  0
LINE
  5
491
100
AcDbEntity
  8
SLD-0_1
  6
PHANTOM
 62
       7
100
AcDbLine
 10
-173.68844279
 20
-116.50752032
 30
0.0
 11
-174.96607824
 21
-116.50752032
 31
0.0
  0
LINE
  5
492
100
AcDbEntity
  8
SLD-0_1
  6
PHANTOM
 62
       7
100
AcDbLine
 10
-122.80218469
 20
-97.64062498
 30
0.0
 11
-133.63002551
 21
-97.64062498
 31
0.0
  0
LINE
  5
493
100
AcDbEntity
  8
SLD-0_1
  6
PHANTOM
 62
       7
100
AcDbLine
 10
-133.63002551
 20
-100.30882546
 30
0.0
 11
-133.63002551
 21
-99.41495916
 31
0.0
  0
LINE
  5
494
100
AcDbEntity
  8
SLD-0_1
  6
PHANTOM
 62
       7
100
AcDbLine
 10
-173.68844279
 20
-148.84557417
 30
0.0
 11
-162.85868791
 21
-148.84557417
 31
0.0
  0
LINE
  5
495
100
AcDbEntity
  8
SLD-0_1
  6
PHANTOM
 62
       7
100
AcDbLine
 10
-173.68844279
 20
-147.07123999
 30
0.0
 11
-173.68844279
 21
-146.16780339
 31
0.0
  0
LINE
  5
496
100
AcDbEntity
  8
SLD-0_1
  6
PHANTOM
 62
       7
100
AcDbLine
 10
-122.80218469
 20
-126.39364332
 30
0.0
 11
-122.80218469
 21
-127.29707993
 31
0.0
  0
LINE
  5
497
100
AcDbEntity
  8
SLD-0_1
  6
PHANTOM
 62
       7
100
AcDbLine
 10
-133.63002551
 20
-127.29707993
 30
0.0
 11
-133.63002551
 21
-126.39364332
 31
0.0
  0
LINE
  5
498
100
AcDbEntity
  8
SLD-0_1
  6
PHANTOM
 62
       7
100
AcDbLine
 10
-174.96607824
 20
-100.30882546
 30
0.0
 11
-173.68844279
 21
-100.30882546
 31
0.0
  0
LINE
  5
499
100
AcDbEntity
  8
SLD-0_1
  6
PHANTOM
 62
       7
100
AcDbLine
 10
-122.80218469
 20
-99.41495916
 30
0.0
 11
-122.80218469
 21
-100.30882546
 31
0.0
  0
LINE
  5
49A
100
AcDbEntity
  8
SLD-0_1
  6
PHANTOM
 62
       7
100
AcDbLine
 10
-162.85868791
 20
-129.07332816
 30
0.0
 11
-162.85868791
 21
-129.96719447
 31
0.0
  0
LINE
  5
49B
100
AcDbEntity
  8
SLD-0_1
  6
PHANTOM
 62
       7
100
AcDbLine
 10
-133.63002551
 20
-110.19494846
 30
0.0
 11
-133.63002551
 21
-109.30299622
 31
0.0
  0
LINE
  5
49C
100
AcDbEntity
  8
SLD-0_1
  6
PHANTOM
 62
       7
100
AcDbLine
 10
-133.63002551
 20
-109.30299622
 30
0.0
 11
-122.80218469
 21
-109.30299622
 31
0.0
  0
LINE
  5
49D
100
AcDbEntity
  8
SLD-0_1
  6
PHANTOM
 62
       7
100
AcDbLine
 10
-121.90927542
 20
-116.50752032
 30
0.0
 11
-122.80218469
 21
-116.50752032
 31
0.0
  0
LINE
  5
49E
100
AcDbEntity
  8
SLD-0_1
  6
PHANTOM
 62
       7
100
AcDbLine
 10
-161.96577864
 20
-106.62139732
 30
0.0
 11
-162.85868791
 21
-106.62139732
 31
0.0
  0
LINE
  5
49F
100
AcDbEntity
  8
SLD-0_1
  6
PHANTOM
 62
       7
100
AcDbLine
 10
-173.68844279
 20
-119.18720516
 30
0.0
 11
-162.85868791
 21
-119.18720516
 31
0.0
  0
LINE
  5
4A0
100
AcDbEntity
  8
SLD-0_1
  6
PHANTOM
 62
       7
100
AcDbLine
 10
-133.63002551
 20
-148.84557417
 30
0.0
 11
-122.80218469
 21
-148.84557417
 31
0.0
  0
LINE
  5
4A1
100
AcDbEntity
  8
SLD-0_1
  6
PHANTOM
 62
       7
100
AcDbLine
 10
-162.85868791
 20
-107.52483392
 30
0.0
 11
-173.68844279
 21
-107.52483392
 31
0.0
  0
LINE
  5
4A2
100
AcDbEntity
  8
SLD-0_1
  6
PHANTOM
 62
       7
100
AcDbLine
 10
-134.90766096
 20
-212.32818705
 30
0.0
 11
-134.90766096
 21
-224.32934702
 31
0.0
  0
LINE
  5
4A3
100
AcDbEntity
  8
SLD-0_1
  6
PHANTOM
 62
       7
100
AcDbLine
 10
-161.96482161
 20
-224.32934702
 30
0.0
 11
-161.96482161
 21
-212.32818705
 31
0.0
  0
LINE
  5
4A4
100
AcDbEntity
  8
SLD-0_1
  6
PHANTOM
 62
       7
100
AcDbLine
 10
-121.90640433
 20
-212.32818705
 30
0.0
 11
-134.90766096
 21
-212.32818705
 31
0.0
  0
LINE
  5
4A5
100
AcDbEntity
  8
SLD-0_1
  6
PHANTOM
 62
       7
100
AcDbLine
 10
-116.94611628
 20
-345.32818705
 30
0.0
 11
-116.94611628
 21
-224.32743296
 31
0.0
  0
LINE
  5
4A6
100
AcDbEntity
  8
SLD-0_1
  6
PHANTOM
 62
       7
100
AcDbLine
 10
-116.94611628
 20
-224.32743296
 30
0.0
 11
-149.9464351
 21
-224.32743296
 31
0.0
  0
LINE
  5
4A7
100
AcDbEntity
  8
SLD-0_1
  6
PHANTOM
 62
       7
100
AcDbLine
 10
-174.96607824
 20
-212.32818705
 30
0.0
 11
-174.96607824
 21
-224.32934702
 31
0.0
  0
LINE
  5
4A8
100
AcDbEntity
  8
SLD-0_1
  6
PHANTOM
 62
       7
100
AcDbLine
 10
-189.9675282
 20
-224.32743296
 30
0.0
 11
-189.9675282
 21
-345.32818705
 31
0.0
  0
LINE
  5
4A9
100
AcDbEntity
  8
SLD-0_1
  6
PHANTOM
 62
       7
100
AcDbLine
 10
-121.90640433
 20
-224.32934702
 30
0.0
 11
-121.90640433
 21
-212.32818705
 31
0.0
  0
LINE
  5
4AA
100
AcDbEntity
  8
SLD-0_1
  6
PHANTOM
 62
       7
100
AcDbLine
 10
-156.96529532
 20
-224.32743296
 30
0.0
 11
-189.9675282
 21
-224.32743296
 31
0.0
  0
LINE
  5
4AB
100
AcDbEntity
  8
SLD-0_1
  6
PHANTOM
 62
       7
100
AcDbLine
 10
-161.96482161
 20
-212.32818705
 30
0.0
 11
-174.96607824
 21
-212.32818705
 31
0.0
  0
LINE
  5
4AC
100
AcDbEntity
  8
SLD-0_1
  6
PHANTOM
 62
       7
100
AcDbLine
 10
-156.96529532
 20
-345.32818705
 30
0.0
 11
-156.96529532
 21
-224.32743296
 31
0.0
  0
LINE
  5
4AD
100
AcDbEntity
  8
SLD-0_1
  6
PHANTOM
 62
       7
100
AcDbLine
 10
-149.9464351
 20
-224.32743296
 30
0.0
 11
-149.9464351
 21
-345.32818705
 31
0.0
  0
CIRCLE
  5
4AE
100
AcDbEntity
  8
SLD-0_1
  6
PHANTOM
 62
       7
100
AcDbCircle
 10
-168.34622581
 20
-143.01841364
 30
0.0
 40
3.24057559
  0
CIRCLE
  5
4AF
100
AcDbEntity
  8
SLD-0_1
  6
PHANTOM
 62
       7
100
AcDbCircle
 10
-168.34622581
 20
-133.13229064
 30
0.0
 40
3.24057559
  0
CIRCLE
  5
4B0
100
AcDbEntity
  8
SLD-0_1
  6
PHANTOM
 62
       7
100
AcDbCircle
 10
-128.28948854
 20
-133.13186427
 30
0.0
 40
3.23998087
  0
CIRCLE
  5
4B1
100
AcDbEntity
  8
SLD-0_1
  6
PHANTOM
 62
       7
100
AcDbCircle
 10
-168.34622581
 20
-113.36004463
 30
0.0
 40
3.24057559
  0
CIRCLE
  5
4B2
100
AcDbEntity
  8
SLD-0_1
  6
PHANTOM
 62
       7
100
AcDbCircle
 10
-128.28948854
 20
-143.01798727
 30
0.0
 40
3.23998087
  0
CIRCLE
  5
4B3
100
AcDbEntity
  8
SLD-0_1
  6
PHANTOM
 62
       7
100
AcDbCircle
 10
-128.28948854
 20
-123.24574126
 30
0.0
 40
3.23998087
  0
CIRCLE
  5
4B4
100
AcDbEntity
  8
SLD-0_1
  6
PHANTOM
 62
       7
100
AcDbCircle
 10
-168.34622581
 20
-103.47392163
 30
0.0
 40
3.24057559
  0
CIRCLE
  5
4B5
100
AcDbEntity
  8
SLD-0_1
  6
PHANTOM
 62
       7
100
AcDbCircle
 10
-168.34622581
 20
-123.24616763
 30
0.0
 40
3.24057559
  0
CIRCLE
  5
4B6
100
AcDbEntity
  8
SLD-0_1
  6
PHANTOM
 62
       7
100
AcDbCircle
 10
-128.28948854
 20
-113.35961826
 30
0.0
 40
3.23998087
  0
CIRCLE
  5
4B7
100
AcDbEntity
  8
SLD-0_1
  6
PHANTOM
 62
       7
100
AcDbCircle
 10
-128.28948854
 20
-103.47349526
 30
0.0
 40
3.23998087
  0
LINE
  5
4B8
100
AcDbEntity
  8
SLD-0_0
  6
CONTINUOUS
 62
       7
100
AcDbLine
 10
-44.56801023
 20
-165.32779705
 30
0.0
 11
-215.81187538
 21
-165.32779705
 31
0.0
  0
LINE
  5
4B9
100
AcDbEntity
  8
SLD-0_0
  6
PHANTOM
 62
       7
100
AcDbLine
 10
-102.31187538
 20
-262.02818705
 30
0.0
 11
-102.31187538
 21
-331.32781434
 31
0.0
  0
LINE
  5
4BA
100
AcDbEntity
  8
SLD-0_0
  6
PHANTOM
 62
       7
100
AcDbLine
 10
-84.31187538
 20
-262.02818705
 30
0.0
 11
-102.31187538
 21
-262.02818705
 31
0.0
  0
LINE
  5
4BB
100
AcDbEntity
  8
SLD-0_0
  6
PHANTOM
 62
       7
100
AcDbLine
 10
-84.31187538
 20
-262.02818705
 30
0.0
 11
-84.31187538
 21
-306.74662111
 31
0.0
  0
LINE
  5
4BC
100
AcDbEntity
  8
SLD-0_0
  6
PHANTOM
 62
       7
100
AcDbLine
 10
-87.14205122
 20
-260.32818705
 30
0.0
 11
-89.4397047
 21
-260.32818705
 31
0.0
  0
LINE
  5
4BD
100
AcDbEntity
  8
SLD-0_0
  6
PHANTOM
 62
       7
100
AcDbLine
 10
-90.9397047
 20
-262.0489365
 30
0.0
 11
-90.9397047
 21
-261.82818705
 31
0.0
  0
LINE
  5
4BE
100
AcDbEntity
  8
SLD-0_0
  6
PHANTOM
 62
       7
100
AcDbLine
 10
-85.64205122
 20
-262.0489365
 30
0.0
 11
-85.64205122
 21
-261.82818705
 31
0.0
  0
ARC
  5
4BF
100
AcDbEntity
  8
SLD-0_0
  6
PHANTOM
 62
       7
100
AcDbCircle
 10
-87.14205122
 20
-261.82818705
 30
0.0
 40
1.5
100
AcDbArc
 50
0.0
 51
90.0
  0
ARC
  5
4C0
100
AcDbEntity
  8
SLD-0_0
  6
PHANTOM
 62
       7
100
AcDbCircle
 10
-89.4397047
 20
-261.82818705
 30
0.0
 40
1.5
100
AcDbArc
 50
90.0
 51
180.0
  0
LINE
  5
4C1
100
AcDbEntity
  8
SLD-0
  6
PHANTOM
 62
       7
100
AcDbLine
 10
195.0602953
 20
-262.0489365
 30
0.0
 11
195.0602953
 21
-261.82818705
 31
0.0
  0
LINE
  5
4C2
100
AcDbEntity
  8
SLD-0
  6
PHANTOM
 62
       7
100
AcDbLine
 10
183.68812462
 20
-262.02818705
 30
0.0
 11
183.68812462
 21
-306.74662111
 31
0.0
  0
LINE
  5
4C3
100
AcDbEntity
  8
SLD-0
  6
PHANTOM
 62
       7
100
AcDbLine
 10
198.85794878
 20
-260.32818705
 30
0.0
 11
196.5602953
 21
-260.32818705
 31
0.0
  0
LINE
  5
4C4
100
AcDbEntity
  8
SLD-0
  6
PHANTOM
 62
       7
100
AcDbLine
 10
200.35794878
 20
-262.0489365
 30
0.0
 11
200.35794878
 21
-261.82818705
 31
0.0
  0
LINE
  5
4C5
100
AcDbEntity
  8
SLD-0
  6
PHANTOM
 62
       7
100
AcDbLine
 10
201.68812462
 20
-262.02818705
 30
0.0
 11
201.68812462
 21
-331.32781434
 31
0.0
  0
LINE
  5
4C6
100
AcDbEntity
  8
SLD-0
  6
PHANTOM
 62
       7
100
AcDbLine
 10
201.68812462
 20
-262.02818705
 30
0.0
 11
183.68812462
 21
-262.02818705
 31
0.0
  0
ARC
  5
4C7
100
AcDbEntity
  8
SLD-0
  6
PHANTOM
 62
       7
100
AcDbCircle
 10
198.85794878
 20
-261.82818705
 30
0.0
 40
1.5
100
AcDbArc
 50
0.0
 51
90.0
  0
ARC
  5
4C8
100
AcDbEntity
  8
SLD-0
  6
PHANTOM
 62
       7
100
AcDbCircle
 10
196.5602953
 20
-261.82818705
 30
0.0
 40
1.5
100
AcDbArc
 50
90.0
 51
180.0
  0
LINE
  5
4C9
100
AcDbEntity
  8
SLD-0
  6
CONTINUOUS
 62
       7
100
AcDbLine
 10
-108.37291636
 20
-334.32927755
 30
0.0
 11
-108.37291636
 21
-347.32818705
 31
0.0
  0
CIRCLE
  5
4CA
100
AcDbEntity
  8
SLD-0
  6
CONTINUOUS
 62
       7
100
AcDbCircle
 10
232.3144368
 20
385.28735234
 30
0.0
 40
2.5
  0
TEXT
  5
4CB
100
AcDbEntity
  8
SLD-0
 62
       7
100
AcDbText
 10
246.5890296
 20
-398.98546821
 30
0.0
 40
6.87916667
  1
000
 72
       5
 11
267.22652961
 21
-398.98546821
 31
0.0
100
AcDbText
  0
TEXT
  5
4CC
100
AcDbEntity
  8
SLD-0
 62
       7
100
AcDbText
 10
-261.68812462
 20
384.43338488
 30
0.0
 40
7.40833333
  1
-K
 72
       5
 11
-246.87145796
 21
384.43338488
 31
0.0
100
AcDbText
  0
TEXT
  5
4CD
100
AcDbEntity
  8
SLD-0
 62
       7
100
AcDbText
 10
-261.68812462
 20
-83.39052459
 30
0.0
 40
7.40833333
  1
-KK
 72
       5
 11
-239.46312463
 21
-83.39052459
 31
0.0
100
AcDbText
  0
ENDSEC
  0
SECTION
  2
OBJECTS
  0
DICTIONARY
  5
19
100
AcDbDictionary
  3
ACAD_GROUP
350
1A
  3
ACAD_MLINESTYLE
350
1B
  0
DICTIONARY
  5
1A
102
{ACAD_REACTORS
330
19
102
}
100
AcDbDictionary
  0
DICTIONARY
  5
1B
102
{ACAD_REACTORS
330
19
102
}
100
AcDbDictionary
  3
STANDARD
350
1C
  0
MLINESTYLE
  5
1C
102
{ACAD_REACTORS
330
1B
102
}
100
AcDbMlineStyle
  2
STANDARD
 70
       0
  3

 62
       0
 51
90.0
 52
90.0
 71
       2
 49
0.5
 62
     256
  6
BYLAYER
 49
-0.5
 62
     256
  6
BYLAYER
  0
ENDSEC
  0
EOF
