  0
SECTION
  2
HEADER
  9
$ACADVER
  1
AC1014
  9
$ACADMAINTVER
 70
       0
  9
$DWGCODEPAGE
  3
ANSI_932
  9
$INSBASE
 10
0.0
 20
0.0
 30
0.0
  9
$EXTMIN
 10
-149.41856257
 20
-386.6630012
 30
0.0
  9
$EXTMAX
 10
149.41856257
 20
386.6630012
 30
0.0
  9
$LIMMIN
 10
-158.75722273
 20
-410.82943877
  9
$LIMMAX
 10
158.75722273
 20
410.82943877
  9
$ORTHOMODE
 70
       0
  9
$REGENMODE
 70
       1
  9
$FILLMODE
 70
       1
  9
$QTEXTMODE
 70
       0
  9
$MIRRTEXT
 70
       1
  9
$DRAGMODE
 70
       2
  9
$LTSCALE
 40
1.0
  9
$OSMODE
 70
       0
  9
$ATTMODE
 70
       1
  9
$TEXTSIZE
 40
0.2
  9
$TRACEWID
 40
0.05
  9
$TEXTSTYLE
  7
STANDARD
  9
$CLAYER
  8
0
  9
$CELTYPE
  6
CONTINUOUS
  9
$CECOLOR
 62
     256
  9
$CELTSCALE
 40
1.0
  9
$DELOBJ
 70
       1
  9
$DISPSILH
 70
       0
  9
$DIMSCALE
 40
1.0
  9
$DIMASZ
 40
0.18
  9
$DIMEXO
 40
0.0625
  9
$DIMDLI
 40
0.38
  9
$DIMRND
 40
0.0
  9
$DIMDLE
 40
0.0
  9
$DIMEXE
 40
0.18
  9
$DIMTP
 40
0.0
  9
$DIMTM
 40
0.0
  9
$DIMTXT
 40
0.18
  9
$DIMCEN
 40
0.09
  9
$DIMTSZ
 40
0.0
  9
$DIMTOL
 70
       0
  9
$DIMLIM
 70
       0
  9
$DIMTIH
 70
       1
  9
$DIMTOH
 70
       1
  9
$DIMSE1
 70
       0
  9
$DIMSE2
 70
       0
  9
$DIMTAD
 70
       0
  9
$DIMZIN
 70
       0
  9
$DIMBLK
  1

  9
$DIMASO
 70
       1
  9
$DIMSHO
 70
       1
  9
$DIMPOST
  1

  9
$DIMAPOST
  1

  9
$DIMALT
 70
       0
  9
$DIMALTD
 70
       2
  9
$DIMALTF
 40
25.4
  9
$DIMLFAC
 40
1.0
  9
$DIMTOFL
 70
       0
  9
$DIMTVP
 40
0.0
  9
$DIMTIX
 70
       0
  9
$DIMSOXD
 70
       0
  9
$DIMSAH
 70
       0
  9
$DIMBLK1
  1

  9
$DIMBLK2
  1

  9
$DIMSTYLE
  2
STANDARD
  9
$DIMCLRD
 70
       0
  9
$DIMCLRE
 70
       0
  9
$DIMCLRT
 70
       0
  9
$DIMTFAC
 40
1.0
  9
$DIMGAP
 40
0.09
  9
$DIMJUST
 70
       0
  9
$DIMSD1
 70
       0
  9
$DIMSD2
 70
       0
  9
$DIMTOLJ
 70
       1
  9
$DIMTZIN
 70
       0
  9
$DIMALTZ
 70
       0
  9
$DIMALTTZ
 70
       0
  9
$DIMFIT
 70
       3
  9
$DIMUPT
 70
       0
  9
$DIMUNIT
 70
       2
  9
$DIMDEC
 70
       4
  9
$DIMTDEC
 70
       4
  9
$DIMALTU
 70
       2
  9
$DIMALTTD
 70
       2
  9
$DIMTXSTY
  7
STANDARD
  9
$DIMAUNIT
 70
       0
  9
$LUNITS
 70
       2
  9
$LUPREC
 70
       4
  9
$SKETCHINC
 40
0.1
  9
$FILLETRAD
 40
0.0
  9
$AUNITS
 70
       0
  9
$AUPREC
 70
       0
  9
$MENU
  1
acad
  9
$ELEVATION
 40
0.0
  9
$PELEVATION
 40
0.0
  9
$THICKNESS
 40
0.0
  9
$LIMCHECK
 70
       0
  9
$BLIPMODE
 70
       1
  9
$CHAMFERA
 40
0.0
  9
$CHAMFERB
 40
0.0
  9
$CHAMFERC
 40
0.0
  9
$CHAMFERD
 40
0.0
  9
$SKPOLY
 70
       0
  9
$TDCREATE
 40
0.000000000
  9
$TDUPDATE
 40
0.000000000
  9
$TDINDWG
 40
0.0000000000
  9
$TDUSRTIMER
 40
0.0000000000
  9
$USRTIMER
 70
       1
  9
$ANGBASE
 50
0.0
  9
$ANGDIR
 70
       0
  9
$PDMODE
 70
       0
  9
$PDSIZE
 40
1.0
  9
$PLINEWID
 40
0.0
  9
$COORDS
 70
       1
  9
$SPLFRAME
 70
       0
  9
$SPLINETYPE
 70
       6
  9
$SPLINESEGS
 70
       8
  9
$ATTDIA
 70
       0
  9
$ATTREQ
 70
       1
  9
$HANDLING
 70
       1
  9
$HANDSEED
  5
262
  9
$SURFTAB1
 70
       6
  9
$SURFTAB2
 70
       6
  9
$SURFTYPE
 70
       6
  9
$SURFU
 70
       6
  9
$SURFV
 70
       6
  9
$UCSNAME
  2

  9
$UCSORG
 10
0.0
 20
0.0
 30
0.0
  9
$UCSXDIR
 10
1.0
 20
0.0
 30
0.0
  9
$UCSYDIR
 10
0.0
 20
1.0
 30
0.0
  9
$PUCSNAME
  2

  9
$PUCSORG
 10
0.0
 20
0.0
 30
0.0
  9
$PUCSXDIR
 10
1.0
 20
0.0
 30
0.0
  9
$PUCSYDIR
 10
0.0
 20
1.0
 30
0.0
  9
$USERI1
 70
       0
  9
$USERI2
 70
       0
  9
$USERI3
 70
       0
  9
$USERI4
 70
       0
  9
$USERI5
 70
       0
  9
$USERR1
 40
0.0
  9
$USERR2
 40
0.0
  9
$USERR3
 40
0.0
  9
$USERR4
 40
0.0
  9
$USERR5
 40
0.0
  9
$WORLDVIEW
 70
       1
  9
$SHADEDGE
 70
       3
  9
$SHADEDIF
 70
      70
  9
$TILEMODE
 70
       1
  9
$MAXACTVP
 70
      16
  9
$PINSBASE
 10
0.0
 20
0.0
 30
0.0
  9
$PLIMCHECK
 70
       0
  9
$PEXTMIN
 10
1.00000000E+20
 20
1.00000000E+20
 30
1.00000000E+20
  9
$PEXTMAX
 10
-1.00000000E+20
 20
-1.00000000E+20
 30
-1.00000000E+20
  9
$PLIMMIN
 10
0.0
 20
0.0
  9
$PLIMMAX
 10
12.0
 20
9.0
  9
$UNITMODE
 70
       0
  9
$VISRETAIN
 70
       0
  9
$PLINEGEN
 70
       1
  9
$PSLTSCALE
 70
       0
  9
$TREEDEPTH
 70
    3020
  9
$PICKSTYLE
 70
       1
  9
$CMLSTYLE
  2
STANDARD
  9
$CMLJUST
 70
       0
  9
$CMLSCALE
 40
1.0
  9
$PROXYGRAPHICS
 70
       0
  9
$MEASUREMENT
 70
       0
  0
ENDSEC
  0
SECTION
  2
CLASSES
  0
CLASS
  1
LWPOLYLINE
  2
AcDbPolyline
  3
"AutoCAD"
 90
        0
280
       0
281
       1
  0
CLASS
  1
IMAGE
  2
AcDbRasterImage
  3
ISM
 90
      127
280
       0
281
       1
  0
CLASS
  1
OLE2FRAME
  2
AcDbOle2Frame
  3
""
 90
        0
280
       0
281
       1
  0
CLASS
  1
HATCH
  2
AcDbHatch
  3
"ACAD_SEDONA"
 90
        0
280
       0
281
       1
  0
CLASS
  1
DICTIONARYVAR
  2
AcDbDictionaryVar
  3
"AutoCAD"
 90
        0
280
       0
281
       0
  0
CLASS
  1
RASTERVARIABLES
  2
AcDbRasterVariables
  3
ISM
 90
        0
280
       0
281
       0
  0
CLASS
  1
IMAGEDEF
  2
AcDbRasterImageDef
  3
ISM
 90
        0
280
       0
281
       0
  0
CLASS
  1
IMAGEDEF_REACTOR
  2
AcDbRasterImageDefReactor
  3
ISM
 90
        1
280
       0
281
       0
  0
CLASS
  1
IDBUFFER
  2
AcDbIdBuffer
  3
"Acad"
 90
        0
280
       0
281
       0
  0
CLASS
  1
SPATIAL_FILTER
  2
AcDbSpatialFilter
  3
"Acad"
 90
        0
280
       0
281
       0
  0
CLASS
  1
XRECORD
  2
AcDbXrecord
  3
"<Built In>"
 90
        0
280
       0
281
       0
  0
CLASS
  1
SORTENTSTABLE
  2
AcDbSortentsTable
  3
"AutoCAD"
 90
        0
280
       0
281
       0
  0
CLASS
  1
LAYER_INDEX
  2
AcDbLayerIndex
  3
"Acad"
 90
        0
280
       0
281
       0
  0
CLASS
  1
SPATIAL_INDEX
  2
AcDbSpatialIndex
  3
"Acad"
 90
        0
280
       0
281
       0
  0
CLASS
  1
OBJECT_PTR
  2
CAseDLPNTableRecord
  3
"ASE-LPNTableRecord"
 90
        1
280
       0
281
       0
  0
CLASS
  1
LAYOUT
  2
AcDbLayout
  3
"AutoCAD 2000"
 90
        1
280
       0
281
       0
  0
CLASS
  1
PLOTSETTINGS
  2
AcDbPlotSettings
  3
"AutoCAD 2000"
 90
        1
280
       0
281
       0
  0
CLASS
  1
ACDBDICTIONARYWDFLT
  2
AcDbDictionaryWithDefault
  3
"AutoCAD 2000"
 90
        1
280
       0
281
       0
  0
CLASS
  1
ACDBPLACEHOLDER
  2
AcDbPlaceHolder
  3
"AutoCAD 2000"
 90
        1
280
       0
281
       0
  0
CLASS
  1
VBA_PROJECT
  2
AcDbVbaProject
  3
"acadvba"
 90
        1
280
       0
281
       0
  0
CLASS
  1
WIPEOUT
  2
AcDbWipeout
  3
WipeOut|AutoCAD Express Tool|expresstools@autodesk.com
 90
      127
280
       0
281
       1
  0
CLASS
  1
WIPEOUTVARIABLES
  2
AcDbWipeoutVariables
  3
WipeOut|AutoCAD Express Tool|expresstools@autodesk.com
 90
        0
280
       0
281
       0
  0
CLASS
  1
RTEXT
  2
RText
  3
RText|AutoCAD Express Tool|expresstools@autodesk.com
 90
        0
280
       0
281
       1
  0
CLASS
  1
ARCALIGNEDTEXT
  2
AcDbArcAlignedText
  3
ATEXT|AutoCAD Express Tool|expresstools@autodesk.com
 90
        0
280
       0
281
       1
  0
ENDSEC
  0
SECTION
  2
TABLES
  0
TABLE
  2
VPORT
  5
7
100
AcDbSymbolTable
 70
       1
  0
VPORT
  5
15
100
AcDbSymbolTableRecord
100
AcDbViewportTableRecord
  2
*ACTIVE
 70
       0
 10
0.0
 20
0.0
 11
1.0
 21
1.0
 12
0.0
 22
0.0
 13
0.0
 23
0.0
 14
1.0
 24
1.0
 15
0.0
 25
0.0
 16
0.0
 26
0.0
 36
1.0
 17
0.0
 27
0.0
 37
0.0
 40
821.65887754
 41
0.38643098
 42
50.0
 43
0.0
 44
0.0
 50
0.0
 51
0.0
 71
       0
 72
     100
 73
       1
 74
       1
 75
       0
 76
       0
 77
       0
 78
       0
  0
ENDTAB
  0
TABLE
  2
LTYPE
  5
4
100
AcDbSymbolTable
 70
      30
  0
LTYPE
  5
11
100
AcDbSymbolTableRecord
100
AcDbLinetypeTableRecord
  2
BYBLOCK
 70
      64
  3

 72
      65
 73
       0
 40
0.0
  0
LTYPE
  5
12
100
AcDbSymbolTableRecord
100
AcDbLinetypeTableRecord
  2
BYLAYER
 70
      64
  3

 72
      65
 73
       0
 40
0.0
  0
LTYPE
  5
13
100
AcDbSymbolTableRecord
100
AcDbLinetypeTableRecord
  2
CONTINUOUS
 70
      64
  3
Solid line
 72
      65
 73
       0
 40
0.0
  0
LTYPE
  5
1D
100
AcDbSymbolTableRecord
100
AcDbLinetypeTableRecord
  2
HIDDENX2
 70
      64
  3
CADPAC LINETYPE
 72
      65
 73
       2
 40
43.73291876
 49
32.79968907
 74
       0
 49
-10.93322969
 74
       0
  0
LTYPE
  5
1E
100
AcDbSymbolTableRecord
100
AcDbLinetypeTableRecord
  2
HIDDEN
 70
      64
  3
CADPAC LINETYPE
 72
      65
 73
       2
 40
32.79968907
 49
21.86645938
 74
       0
 49
-10.93322969
 74
       0
  0
LTYPE
  5
1F
100
AcDbSymbolTableRecord
100
AcDbLinetypeTableRecord
  2
HIDDEN2
 70
      64
  3
CADPAC LINETYPE
 72
      65
 73
       2
 40
27.33307422
 49
16.39984453
 74
       0
 49
-10.93322969
 74
       0
  0
LTYPE
  5
20
100
AcDbSymbolTableRecord
100
AcDbLinetypeTableRecord
  2
DASHED
 70
      64
  3
CADPAC LINETYPE
 72
      65
 73
       2
 40
32.79968907
 49
21.86645938
 74
       0
 49
-10.93322969
 74
       0
  0
LTYPE
  5
21
100
AcDbSymbolTableRecord
100
AcDbLinetypeTableRecord
  2
DASHED2
 70
      64
  3
CADPAC LINETYPE
 72
      65
 73
       2
 40
24.5997668
 49
16.39984453
 74
       0
 49
-8.19992227
 74
       0
  0
LTYPE
  5
22
100
AcDbSymbolTableRecord
100
AcDbLinetypeTableRecord
  2
DASHEDX2
 70
      64
  3
CADPAC LINETYPE
 72
      65
 73
       2
 40
49.1995336
 49
32.79968907
 74
       0
 49
-16.39984453
 74
       0
  0
LTYPE
  5
23
100
AcDbSymbolTableRecord
100
AcDbLinetypeTableRecord
  2
DOTX2
 70
      64
  3
CADPAC LINETYPE
 72
      65
 73
       2
 40
13.66653711
 49
0.0
 74
       0
 49
-13.66653711
 74
       0
  0
LTYPE
  5
24
100
AcDbSymbolTableRecord
100
AcDbLinetypeTableRecord
  2
DOT
 70
      64
  3
CADPAC LINETYPE
 72
      65
 73
       2
 40
10.93322969
 49
0.0
 74
       0
 49
-10.93322969
 74
       0
  0
LTYPE
  5
25
100
AcDbSymbolTableRecord
100
AcDbLinetypeTableRecord
  2
DOT2
 70
      64
  3
CADPAC LINETYPE
 72
      65
 73
       2
 40
8.19992227
 49
0.0
 74
       0
 49
-8.19992227
 74
       0
  0
LTYPE
  5
26
100
AcDbSymbolTableRecord
100
AcDbLinetypeTableRecord
  2
CENTERX2
 70
      64
  3
CADPAC LINETYPE
 72
      65
 73
       4
 40
65.59937813
 49
27.33307422
 74
       0
 49
-13.66653711
 74
       0
 49
10.93322969
 74
       0
 49
-13.66653711
 74
       0
  0
LTYPE
  5
27
100
AcDbSymbolTableRecord
100
AcDbLinetypeTableRecord
  2
CENTER
 70
      64
  3
CADPAC LINETYPE
 72
      65
 73
       4
 40
50.29285657
 49
21.86645938
 74
       0
 49
-10.93322969
 74
       0
 49
6.55993781
 74
       0
 49
-10.93322969
 74
       0
  0
LTYPE
  5
28
100
AcDbSymbolTableRecord
100
AcDbLinetypeTableRecord
  2
CENTER2
 70
      64
  3
CADPAC LINETYPE
 72
      65
 73
       4
 40
34.986335
 49
16.39984453
 74
       0
 49
-8.19992227
 74
       0
 49
2.18664594
 74
       0
 49
-8.19992227
 74
       0
  0
LTYPE
  5
29
100
AcDbSymbolTableRecord
100
AcDbLinetypeTableRecord
  2
DASHDOTX2
 70
      64
  3
CADPAC LINETYPE
 72
      65
 73
       4
 40
54.66614845
 49
27.33307422
 74
       0
 49
-13.66653711
 74
       0
 49
0.0
 74
       0
 49
-13.66653711
 74
       0
  0
LTYPE
  5
2A
100
AcDbSymbolTableRecord
100
AcDbLinetypeTableRecord
  2
DASHDOT
 70
      64
  3
CADPAC LINETYPE
 72
      65
 73
       4
 40
43.73291876
 49
21.86645938
 74
       0
 49
-10.93322969
 74
       0
 49
0.0
 74
       0
 49
-10.93322969
 74
       0
  0
LTYPE
  5
2B
100
AcDbSymbolTableRecord
100
AcDbLinetypeTableRecord
  2
DASHDOT2
 70
      64
  3
CADPAC LINETYPE
 72
      65
 73
       4
 40
32.79968907
 49
16.39984453
 74
       0
 49
-8.19992227
 74
       0
 49
0.0
 74
       0
 49
-8.19992227
 74
       0
  0
LTYPE
  5
2C
100
AcDbSymbolTableRecord
100
AcDbLinetypeTableRecord
  2
DIVIDEX2
 70
      64
  3
CADPAC LINETYPE
 72
      65
 73
       6
 40
68.33268556
 49
27.33307422
 74
       0
 49
-13.66653711
 74
       0
 49
0.0
 74
       0
 49
-13.66653711
 74
       0
 49
0.0
 74
       0
 49
-13.66653711
 74
       0
  0
LTYPE
  5
2D
100
AcDbSymbolTableRecord
100
AcDbLinetypeTableRecord
  2
DIVIDE
 70
      64
  3
CADPAC LINETYPE
 72
      65
 73
       6
 40
54.66614845
 49
21.86645938
 74
       0
 49
-10.93322969
 74
       0
 49
0.0
 74
       0
 49
-10.93322969
 74
       0
 49
0.0
 74
       0
 49
-10.93322969
 74
       0
  0
LTYPE
  5
2E
100
AcDbSymbolTableRecord
100
AcDbLinetypeTableRecord
  2
DIVIDE2
 70
      64
  3
CADPAC LINETYPE
 72
      65
 73
       6
 40
40.99961133
 49
16.39984453
 74
       0
 49
-8.19992227
 74
       0
 49
0.0
 74
       0
 49
-8.19992227
 74
       0
 49
0.0
 74
       0
 49
-8.19992227
 74
       0
  0
LTYPE
  5
2F
100
AcDbSymbolTableRecord
100
AcDbLinetypeTableRecord
  2
BORDERX2
 70
      64
  3
CADPAC LINETYPE
 72
      65
 73
       6
 40
95.66575978
 49
27.33307422
 74
       0
 49
-13.66653711
 74
       0
 49
27.33307422
 74
       0
 49
-13.66653711
 74
       0
 49
0.0
 74
       0
 49
-13.66653711
 74
       0
  0
LTYPE
  5
30
100
AcDbSymbolTableRecord
100
AcDbLinetypeTableRecord
  2
BORDER
 70
      64
  3
CADPAC LINETYPE
 72
      65
 73
       6
 40
76.53260782
 49
21.86645938
 74
       0
 49
-10.93322969
 74
       0
 49
21.86645938
 74
       0
 49
-10.93322969
 74
       0
 49
0.0
 74
       0
 49
-10.93322969
 74
       0
  0
LTYPE
  5
31
100
AcDbSymbolTableRecord
100
AcDbLinetypeTableRecord
  2
BORDER2
 70
      64
  3
CADPAC LINETYPE
 72
      65
 73
       6
 40
57.39945587
 49
16.39984453
 74
       0
 49
-8.19992227
 74
       0
 49
16.39984453
 74
       0
 49
-8.19992227
 74
       0
 49
0.0
 74
       0
 49
-8.19992227
 74
       0
  0
LTYPE
  5
32
100
AcDbSymbolTableRecord
100
AcDbLinetypeTableRecord
  2
PHANTOMX2
 70
      64
  3
CADPAC LINETYPE
 72
      65
 73
       6
 40
81.99922267
 49
27.33307422
 74
       0
 49
-10.93322969
 74
       0
 49
10.93322969
 74
       0
 49
-10.93322969
 74
       0
 49
10.93322969
 74
       0
 49
-10.93322969
 74
       0
  0
LTYPE
  5
33
100
AcDbSymbolTableRecord
100
AcDbLinetypeTableRecord
  2
PHANTOM
 70
      64
  3
CADPAC LINETYPE
 72
      65
 73
       6
 40
67.78602407
 49
21.86645938
 74
       0
 49
-10.93322969
 74
       0
 49
6.55993781
 74
       0
 49
-10.93322969
 74
       0
 49
6.55993781
 74
       0
 49
-10.93322969
 74
       0
  0
LTYPE
  5
34
100
AcDbSymbolTableRecord
100
AcDbLinetypeTableRecord
  2
PHANTOM2
 70
      64
  3
CADPAC LINETYPE
 72
      65
 73
       6
 40
57.94611735
 49
16.39984453
 74
       0
 49
-10.93322969
 74
       0
 49
4.37329188
 74
       0
 49
-10.93322969
 74
       0
 49
4.37329188
 74
       0
 49
-10.93322969
 74
       0
  0
LTYPE
  5
35
100
AcDbSymbolTableRecord
100
AcDbLinetypeTableRecord
  2
ACAD_ISO06W100
 70
      64
  3
CADPAC LINETYPE
 72
      65
 73
       8
 40
73.7993004
 49
27.33307422
 74
       0
 49
-13.66653711
 74
       0
 49
0.0
 74
       0
 49
-10.93322969
 74
       0
 49
0.0
 74
       0
 49
-10.93322969
 74
       0
 49
0.0
 74
       0
 49
-10.93322969
 74
       0
  0
LTYPE
  5
36
100
AcDbSymbolTableRecord
100
AcDbLinetypeTableRecord
  2
ACAD_ISO13W100
 70
      64
  3
CADPAC LINETYPE
 72
      65
 73
       8
 40
87.46583751
 49
21.86645938
 74
       0
 49
-10.93322969
 74
       0
 49
21.86645938
 74
       0
 49
-10.93322969
 74
       0
 49
0.0
 74
       0
 49
-10.93322969
 74
       0
 49
0.0
 74
       0
 49
-10.93322969
 74
       0
  0
LTYPE
  5
37
100
AcDbSymbolTableRecord
100
AcDbLinetypeTableRecord
  2
ACAD_ISO14W100
 70
      64
  3
CADPAC LINETYPE
 72
      65
 73
       8
 40
65.59937813
 49
21.86645938
 74
       0
 49
-10.93322969
 74
       0
 49
0.0
 74
       0
 49
-10.93322969
 74
       0
 49
0.0
 74
       0
 49
-10.93322969
 74
       0
 49
0.0
 74
       0
 49
-10.93322969
 74
       0
  0
ENDTAB
  0
TABLE
  2
LAYER
  5
2
100
AcDbSymbolTable
 70
       8
  0
LAYER
  5
14
100
AcDbSymbolTableRecord
100
AcDbLayerTableRecord
  2
0
 70
       0
 62
       7
  6
CONTINUOUS
  0
LAYER
  5
38
100
AcDbSymbolTableRecord
100
AcDbLayerTableRecord
  2
SLD-0_4
 70
       0
 62
       7
  6
CONTINUOUS
  0
LAYER
  5
39
100
AcDbSymbolTableRecord
100
AcDbLayerTableRecord
  2
SLD-0_3
 70
       0
 62
       7
  6
CONTINUOUS
  0
LAYER
  5
3A
100
AcDbSymbolTableRecord
100
AcDbLayerTableRecord
  2
SLD-0_2
 70
       0
 62
       7
  6
CONTINUOUS
  0
LAYER
  5
3B
100
AcDbSymbolTableRecord
100
AcDbLayerTableRecord
  2
SLD-0_1
 70
       0
 62
       7
  6
CONTINUOUS
  0
LAYER
  5
3C
100
AcDbSymbolTableRecord
100
AcDbLayerTableRecord
  2
SLD-0
 70
       0
 62
       7
  6
CONTINUOUS
  0
LAYER
  5
3D
100
AcDbSymbolTableRecord
100
AcDbLayerTableRecord
  2
SLD-0_0
 70
       0
 62
       7
  6
CONTINUOUS
  0
LAYER
  5
3E
100
AcDbSymbolTableRecord
100
AcDbLayerTableRecord
  2
レイヤー_1
 70
       0
 62
       7
  6
CONTINUOUS
  0
ENDTAB
  0
TABLE
  2
STYLE
  5
3
100
AcDbSymbolTable
 70
       1
  0
STYLE
  5
17
100
AcDbSymbolTableRecord
100
AcDbTextStyleTableRecord
  2
STANDARD
 70
       0
 40
0.0
 41
1.0
 50
0.0
 71
       0
 42
10.0
  3
txt.shx
  4
bigfont.shx
  0
ENDTAB
  0
TABLE
  2
VIEW
  5
5
100
AcDbSymbolTable
 70
       1
  0
VIEW
  5
3F
100
AcDbSymbolTableRecord
100
AcDbViewTableRecord
  2
QQQQ
 70
       0
 40
821.65887754
 10
0.0
 20
0.0
 41
317.51444546
 11
0.0
 21
0.0
 31
1.0
 12
100.0
 22
100.0
 32
0.0
 42
50.0
 43
0.0
 44
0.0
 50
0.0
 71
       0
  0
ENDTAB
  0
TABLE
  2
UCS
  5
6
100
AcDbSymbolTable
 70
       0
  0
ENDTAB
  0
TABLE
  2
APPID
  5
8
100
AcDbSymbolTable
 70
       1
  0
APPID
  5
16
100
AcDbSymbolTableRecord
100
AcDbRegAppTableRecord
  2
ACAD
 70
       0
  0
ENDTAB
  0
TABLE
  2
DIMSTYLE
  5
9
100
AcDbSymbolTable
 70
       1
  0
DIMSTYLE
105
18
100
AcDbSymbolTableRecord
100
AcDbDimStyleTableRecord
  2
STANDARD
 70
       0
  3

  4

  5

  6

  7

 40
1.0
 41
0.18
 42
0.0625
 43
0.38
 44
0.18
 45
0.0
 46
0.0
 47
0.0
 48
0.0
 71
       0
 72
       0
 73
       1
 74
       1
 75
       0
 76
       0
 77
       0
 78
       0
140
0.18
141
0.09
142
0.0
143
25.4
144
1.0
145
0.0
146
1.0
147
0.09
170
       0
171
       2
172
       0
173
       0
174
       0
175
       0
176
       0
177
       0
178
       0
270
       2
271
       4
272
       4
273
       2
274
       2
275
       0
280
       0
281
       0
282
       0
283
       1
284
       0
285
       0
286
       0
287
       0
288
       0
340
17
  0
ENDTAB
  0
TABLE
  2
BLOCK_RECORD
  5
1
100
AcDbSymbolTable
 70
       0
  0
BLOCK_RECORD
  5
A
100
AcDbSymbolTableRecord
100
AcDbBlockTableRecord
  2
*MODEL_SPACE
  0
BLOCK_RECORD
  5
B
100
AcDbSymbolTableRecord
100
AcDbBlockTableRecord
  2
*PAPER_SPACE
  0
ENDTAB
  0
ENDSEC
  0
SECTION
  2
BLOCKS
  0
BLOCK
  5
D
100
AcDbEntity
  8
0
100
AcDbBlockBegin
  2
*MODEL_SPACE
 70
       0
 10
0.0
 20
0.0
 30
0.0
  3
*MODEL_SPACE
  1

  0
ENDBLK
  5
E
100
AcDbEntity
  8
0
100
AcDbBlockEnd
  0
BLOCK
  5
F
100
AcDbEntity
 67
       1
  8
0
100
AcDbBlockBegin
  2
*PAPER_SPACE
 70
       0
 10
0.0
 20
0.0
 30
0.0
  3
*PAPER_SPACE
  1

  0
ENDBLK
  5
10
100
AcDbEntity
 67
       1
  8
0
100
AcDbBlockEnd
  0
ENDSEC
  0
SECTION
  2
ENTITIES
  0
LINE
  5
40
100
AcDbEntity
  8
SLD-0_3
  6
CONTINUOUS
 62
       7
100
AcDbLine
 10
44.17169478
 20
276.70904269
 30
0.0
 11
44.17169478
 21
371.70904269
 31
0.0
  0
LINE
  5
41
100
AcDbEntity
  8
SLD-0_3
  6
CONTINUOUS
 62
       7
100
AcDbLine
 10
133.67169478
 20
295.70904269
 30
0.0
 11
141.17169478
 21
295.70904269
 31
0.0
  0
LINE
  5
42
100
AcDbEntity
  8
SLD-0_3
  6
CONTINUOUS
 62
       7
100
AcDbLine
 10
133.67169478
 20
302.70904269
 30
0.0
 11
141.17169478
 21
302.70904269
 31
0.0
  0
LINE
  5
43
100
AcDbEntity
  8
SLD-0_3
  6
CONTINUOUS
 62
       7
100
AcDbLine
 10
133.67169478
 20
352.70904269
 30
0.0
 11
141.17169478
 21
352.70904269
 31
0.0
  0
LINE
  5
44
100
AcDbEntity
  8
SLD-0_3
  6
CONTINUOUS
 62
       7
100
AcDbLine
 10
141.17169478
 20
302.70904269
 30
0.0
 11
143.67169478
 21
305.20904269
 31
0.0
  0
LINE
  5
45
100
AcDbEntity
  8
SLD-0_3
  6
CONTINUOUS
 62
       7
100
AcDbLine
 10
143.67169478
 20
305.20904269
 30
0.0
 11
143.67169478
 21
343.20904269
 31
0.0
  0
LINE
  5
46
100
AcDbEntity
  8
SLD-0_3
  6
CONTINUOUS
 62
       7
100
AcDbLine
 10
143.67169478
 20
355.20904269
 30
0.0
 11
143.67169478
 21
369.20904269
 31
0.0
  0
LINE
  5
47
100
AcDbEntity
  8
SLD-0_3
  6
CONTINUOUS
 62
       7
100
AcDbLine
 10
141.17169478
 20
295.70904269
 30
0.0
 11
143.67169478
 21
293.20904269
 31
0.0
  0
LINE
  5
48
100
AcDbEntity
  8
SLD-0_3
  6
CONTINUOUS
 62
       7
100
AcDbLine
 10
141.17169478
 20
345.70904269
 30
0.0
 11
143.67169478
 21
343.20904269
 31
0.0
  0
LINE
  5
49
100
AcDbEntity
  8
SLD-0_3
  6
CONTINUOUS
 62
       7
100
AcDbLine
 10
133.67169478
 20
345.70904269
 30
0.0
 11
141.17169478
 21
345.70904269
 31
0.0
  0
LINE
  5
4A
100
AcDbEntity
  8
SLD-0_3
  6
CONTINUOUS
 62
       7
100
AcDbLine
 10
143.67169478
 20
369.20904269
 30
0.0
 11
141.17169478
 21
371.70904269
 31
0.0
  0
LINE
  5
4B
100
AcDbEntity
  8
SLD-0_3
  6
CONTINUOUS
 62
       7
100
AcDbLine
 10
141.17169478
 20
352.70904269
 30
0.0
 11
143.67169478
 21
355.20904269
 31
0.0
  0
LINE
  5
4C
100
AcDbEntity
  8
SLD-0_3
  6
CONTINUOUS
 62
       7
100
AcDbLine
 10
141.17169478
 20
276.70904269
 30
0.0
 11
143.67169478
 21
279.20904269
 31
0.0
  0
LINE
  5
4D
100
AcDbEntity
  8
SLD-0_3
  6
CONTINUOUS
 62
       7
100
AcDbLine
 10
143.67169478
 20
279.20904269
 30
0.0
 11
143.67169478
 21
293.20904269
 31
0.0
  0
LINE
  5
4E
100
AcDbEntity
  8
SLD-0_3
  6
CONTINUOUS
 62
       7
100
AcDbLine
 10
123.67169478
 20
276.70904269
 30
0.0
 11
123.67169478
 21
371.70904269
 31
0.0
  0
LINE
  5
4F
100
AcDbEntity
  8
SLD-0_3
  6
CONTINUOUS
 62
       7
100
AcDbLine
 10
141.17169478
 20
276.70904269
 30
0.0
 11
113.91375603
 21
276.70904269
 31
0.0
  0
LINE
  5
50
100
AcDbEntity
  8
SLD-0_3
  6
CONTINUOUS
 62
       7
100
AcDbLine
 10
-33.82830522
 20
371.70904269
 30
0.0
 11
141.17169478
 21
371.70904269
 31
0.0
  0
ARC
  5
51
100
AcDbEntity
  8
SLD-0_3
  6
CONTINUOUS
 62
       7
100
AcDbCircle
 10
133.67169478
 20
349.20904269
 30
0.0
 40
3.5
100
AcDbArc
 50
90.0
 51
270.0
  0
ARC
  5
52
100
AcDbEntity
  8
SLD-0_3
  6
CONTINUOUS
 62
       7
100
AcDbCircle
 10
133.67169478
 20
299.20904269
 30
0.0
 40
3.5
100
AcDbArc
 50
90.0
 51
270.0
  0
LINE
  5
53
100
AcDbEntity
  8
SLD-0_3
  6
PHANTOM2
 62
       7
100
AcDbLine
 10
38.14877115
 20
276.70904269
 30
0.0
 11
38.14877115
 21
371.70904269
 31
0.0
  0
LINE
  5
54
100
AcDbEntity
  8
SLD-0_3
  6
PHANTOM2
 62
       7
100
AcDbLine
 10
-16.32830522
 20
100.2086527
 30
0.0
 11
-16.32830522
 21
138.23745395
 31
0.0
  0
LINE
  5
55
100
AcDbEntity
  8
0
  6
CONTINUOUS
 62
       7
100
AcDbLine
 10
119.23923689
 20
-119.70929542
 30
0.0
 11
119.23923689
 21
-98.29095731
 31
0.0
  0
LINE
  5
56
100
AcDbEntity
  8
0
  6
CONTINUOUS
 62
       7
100
AcDbLine
 10
76.28501378
 20
-193.29096892
 30
0.0
 11
76.28501378
 21
-182.54163683
 31
0.0
  0
LINE
  5
57
100
AcDbEntity
  8
0
  6
CONTINUOUS
 62
       7
100
AcDbLine
 10
114.71654727
 20
-209.57140583
 30
0.0
 11
114.63332086
 21
-209.64320796
 31
0.0
  0
LINE
  5
58
100
AcDbEntity
  8
0
  6
CONTINUOUS
 62
       7
100
AcDbLine
 10
114.20835257
 20
-209.55027104
 30
0.0
 11
114.20142241
 21
-209.52572439
 31
0.0
  0
LINE
  5
59
100
AcDbEntity
  8
0
  6
CONTINUOUS
 62
       7
100
AcDbLine
 10
63.37223675
 20
-182.54163683
 30
0.0
 11
63.37223675
 21
-171.79129142
 31
0.0
  0
LINE
  5
5A
100
AcDbEntity
  8
0
  6
CONTINUOUS
 62
       7
100
AcDbLine
 10
89.1967775
 20
-182.54163683
 30
0.0
 11
89.1967775
 21
-171.79129142
 31
0.0
  0
LINE
  5
5B
100
AcDbEntity
  8
0
  6
CONTINUOUS
 62
       7
100
AcDbLine
 10
115.19155218
 20
-203.921942
 30
0.0
 11
115.20254339
 21
-204.04413041
 31
0.0
  0
LINE
  5
5C
100
AcDbEntity
  8
0
  6
CONTINUOUS
 62
       7
100
AcDbLine
 10
59.06561332
 20
-193.29096892
 30
0.0
 11
59.06561332
 21
-182.54163683
 31
0.0
  0
LINE
  5
5D
100
AcDbEntity
  8
0
  6
CONTINUOUS
 62
       7
100
AcDbLine
 10
115.23841884
 20
-204.49025598
 30
0.0
 11
115.2598362
 21
-204.79592397
 31
0.0
  0
LINE
  5
5E
100
AcDbEntity
  8
0
  6
CONTINUOUS
 62
       7
100
AcDbLine
 10
115.3278487
 20
-207.21092593
 30
0.0
 11
115.31292341
 21
-207.62500246
 31
0.0
  0
LINE
  5
5F
100
AcDbEntity
  8
0
  6
CONTINUOUS
 62
       7
100
AcDbLine
 10
119.32996832
 20
-182.54163683
 30
0.0
 11
50.45743307
 21
-182.54163683
 31
0.0
  0
LINE
  5
60
100
AcDbEntity
  8
0
  6
CONTINUOUS
 62
       7
100
AcDbLine
 10
46.15182296
 20
-193.29096892
 30
0.0
 11
46.15182296
 21
-182.54163683
 31
0.0
  0
LINE
  5
61
100
AcDbEntity
  8
0
  6
CONTINUOUS
 62
       7
100
AcDbLine
 10
114.91223712
 20
-209.35313212
 30
0.0
 11
114.8093541
 21
-209.47553636
 31
0.0
  0
LINE
  5
62
100
AcDbEntity
  8
0
  6
CONTINUOUS
 62
       7
100
AcDbLine
 10
115.32825634
 20
-206.35615699
 30
0.0
 11
115.33238186
 21
-206.78493258
 31
0.0
  0
LINE
  5
63
100
AcDbEntity
  8
0
  6
CONTINUOUS
 62
       7
100
AcDbLine
 10
98.41497829
 20
-182.82334067
 30
0.0
 11
104.66414222
 21
-182.82334067
 31
0.0
  0
LINE
  5
64
100
AcDbEntity
  8
0
  6
CONTINUOUS
 62
       7
100
AcDbLine
 10
118.6854948
 20
-355.70990875
 30
0.0
 11
118.6854948
 21
-343.46085838
 31
0.0
  0
LINE
  5
65
100
AcDbEntity
  8
0
  6
CONTINUOUS
 62
       7
100
AcDbLine
 10
114.43257749
 20
-343.46085838
 30
0.0
 11
114.43257749
 21
-331.20978137
 31
0.0
  0
LINE
  5
66
100
AcDbEntity
  8
0
  6
CONTINUOUS
 62
       7
100
AcDbLine
 10
115.63437876
 20
-331.20978137
 30
0.0
 11
115.63437876
 21
-343.46085838
 31
0.0
  0
LINE
  5
67
100
AcDbEntity
  8
0
  6
CONTINUOUS
 62
       7
100
AcDbLine
 10
50.3655943
 20
-119.70929542
 30
0.0
 11
46.06087201
 21
-119.70929542
 31
0.0
  0
LINE
  5
68
100
AcDbEntity
  8
0
  6
CONTINUOUS
 62
       7
100
AcDbLine
 10
46.06087201
 20
-108.95610297
 30
0.0
 11
119.23923689
 21
-108.95610297
 31
0.0
  0
LINE
  5
69
100
AcDbEntity
  8
0
  6
CONTINUOUS
 62
       7
100
AcDbLine
 10
119.23923689
 20
-108.95610297
 30
0.0
 11
50.3655943
 21
-108.95610297
 31
0.0
  0
LINE
  5
6A
100
AcDbEntity
  8
0
  6
CONTINUOUS
 62
       7
100
AcDbLine
 10
46.06087201
 20
-119.70929542
 30
0.0
 11
46.06087201
 21
-108.95610297
 31
0.0
  0
LINE
  5
6B
100
AcDbEntity
  8
0
  6
CONTINUOUS
 62
       7
100
AcDbLine
 10
114.93355757
 20
-108.95610297
 30
0.0
 11
114.93355757
 21
-98.2086527
 31
0.0
  0
LINE
  5
6C
100
AcDbEntity
  8
0
  6
CONTINUOUS
 62
       7
100
AcDbLine
 10
113.91375603
 20
-210.27325177
 30
0.0
 11
98.91555993
 21
-210.27325177
 31
0.0
  0
LINE
  5
6D
100
AcDbEntity
  8
0
  6
CONTINUOUS
 62
       7
100
AcDbLine
 10
114.30738905
 20
-209.7067825
 30
0.0
 11
114.27734448
 21
-209.6792012
 31
0.0
  0
LINE
  5
6E
100
AcDbEntity
  8
0
  6
CONTINUOUS
 62
       7
100
AcDbLine
 10
114.23360277
 20
-209.61352226
 30
0.0
 11
114.21891411
 21
-209.58035947
 31
0.0
  0
LINE
  5
6F
100
AcDbEntity
  8
0
  6
CONTINUOUS
 62
       7
100
AcDbLine
 10
54.76202985
 20
-182.54163683
 30
0.0
 11
54.76202985
 21
-171.79129142
 31
0.0
  0
LINE
  5
70
100
AcDbEntity
  8
0
  6
CONTINUOUS
 62
       7
100
AcDbLine
 10
114.20142241
 20
-209.52572439
 30
0.0
 11
114.19762787
 21
-209.50918696
 31
0.0
  0
LINE
  5
71
100
AcDbEntity
  8
0
  6
CONTINUOUS
 62
       7
100
AcDbLine
 10
115.02435821
 20
-182.54163683
 30
0.0
 11
115.02435821
 21
-171.79129142
 31
0.0
  0
LINE
  5
72
100
AcDbEntity
  8
0
  6
CONTINUOUS
 62
       7
100
AcDbLine
 10
50.45743307
 20
-182.54163683
 30
0.0
 11
50.45743307
 21
-193.29096892
 31
0.0
  0
LINE
  5
73
100
AcDbEntity
  8
0
  6
CONTINUOUS
 62
       7
100
AcDbLine
 10
115.30096301
 20
-205.52679744
 30
0.0
 11
115.31720558
 21
-205.93373375
 31
0.0
  0
LINE
  5
74
100
AcDbEntity
  8
0
  6
CONTINUOUS
 62
       7
100
AcDbLine
 10
115.31292341
 20
-207.62500246
 30
0.0
 11
115.28587256
 21
-208.01802758
 31
0.0
  0
LINE
  5
75
100
AcDbEntity
  8
0
  6
CONTINUOUS
 62
       7
100
AcDbLine
 10
93.50340093
 20
-193.29096892
 30
0.0
 11
93.50340093
 21
-182.54163683
 31
0.0
  0
LINE
  5
76
100
AcDbEntity
  8
0
  6
CONTINUOUS
 62
       7
100
AcDbLine
 10
114.8093541
 20
-209.47553636
 30
0.0
 11
114.71654727
 21
-209.57140583
 31
0.0
  0
LINE
  5
77
100
AcDbEntity
  8
0
  6
CONTINUOUS
 62
       7
100
AcDbLine
 10
114.19762787
 20
-209.50918696
 30
0.0
 11
114.19647319
 21
-209.50312617
 31
0.0
  0
LINE
  5
78
100
AcDbEntity
  8
0
  6
CONTINUOUS
 62
       7
100
AcDbLine
 10
114.38630436
 20
-209.73909161
 30
0.0
 11
114.34354376
 21
-209.72756844
 31
0.0
  0
LINE
  5
79
100
AcDbEntity
  8
0
  6
CONTINUOUS
 62
       7
100
AcDbLine
 10
46.15182296
 20
-182.54163683
 30
0.0
 11
119.32996832
 21
-182.54163683
 31
0.0
  0
LINE
  5
7A
100
AcDbEntity
  8
0
  6
CONTINUOUS
 62
       7
100
AcDbLine
 10
113.91375603
 20
-187.79166413
 30
0.0
 11
113.91375603
 21
-210.27325177
 31
0.0
  0
LINE
  5
7B
100
AcDbEntity
  8
0
  6
CONTINUOUS
 62
       7
100
AcDbLine
 10
113.91375603
 20
-193.18558331
 30
0.0
 11
116.95169886
 21
-193.18558331
 31
0.0
  0
LINE
  5
7C
100
AcDbEntity
  8
0
  6
CONTINUOUS
 62
       7
100
AcDbLine
 10
115.21874342
 20
-204.23661327
 30
0.0
 11
115.23841884
 21
-204.49025598
 31
0.0
  0
LINE
  5
7D
100
AcDbEntity
  8
0
  6
CONTINUOUS
 62
       7
100
AcDbLine
 10
76.19392804
 20
-119.70929542
 30
0.0
 11
76.19392804
 21
-108.95610297
 31
0.0
  0
LINE
  5
7E
100
AcDbEntity
  8
0
  6
CONTINUOUS
 62
       7
100
AcDbLine
 10
89.10618085
 20
-108.95610297
 30
0.0
 11
89.10618085
 21
-98.2086527
 31
0.0
  0
LINE
  5
7F
100
AcDbEntity
  8
0
  6
CONTINUOUS
 62
       7
100
AcDbLine
 10
71.88824872
 20
-108.95610297
 30
0.0
 11
71.88824872
 21
-98.2086527
 31
0.0
  0
LINE
  5
80
100
AcDbEntity
  8
0
  6
CONTINUOUS
 62
       7
100
AcDbLine
 10
50.3655943
 20
-108.95610297
 30
0.0
 11
50.3655943
 21
-119.70929542
 31
0.0
  0
LINE
  5
81
100
AcDbEntity
  8
0
  6
CONTINUOUS
 62
       7
100
AcDbLine
 10
97.71466841
 20
-108.95610297
 30
0.0
 11
97.71466841
 21
-98.2086527
 31
0.0
  0
LINE
  5
82
100
AcDbEntity
  8
0
  6
CONTINUOUS
 62
       7
100
AcDbLine
 10
114.43616662
 20
-209.73888457
 30
0.0
 11
114.38630436
 21
-209.73909161
 31
0.0
  0
LINE
  5
83
100
AcDbEntity
  8
0
  6
CONTINUOUS
 62
       7
100
AcDbLine
 10
98.91555993
 20
-210.27325177
 30
0.0
 11
98.91555993
 21
-187.79166413
 31
0.0
  0
LINE
  5
84
100
AcDbEntity
  8
0
  6
CONTINUOUS
 62
       7
100
AcDbLine
 10
115.31720558
 20
-205.93373375
 30
0.0
 11
115.32825634
 21
-206.35615699
 31
0.0
  0
LINE
  5
85
100
AcDbEntity
  8
0
  6
CONTINUOUS
 62
       7
100
AcDbLine
 10
44.17169478
 20
-355.7909746
 30
0.0
 11
44.17169478
 21
-371.7913473
 31
0.0
  0
LINE
  5
86
100
AcDbEntity
  8
0
  6
CONTINUOUS
 62
       7
100
AcDbLine
 10
133.67169478
 20
-167.29095731
 30
0.0
 11
141.17169478
 21
-167.29095731
 31
0.0
  0
LINE
  5
87
100
AcDbEntity
  8
0
  6
CONTINUOUS
 62
       7
100
AcDbLine
 10
141.17169478
 20
-167.29095731
 30
0.0
 11
143.67169478
 21
-164.79095731
 31
0.0
  0
LINE
  5
88
100
AcDbEntity
  8
0
  6
CONTINUOUS
 62
       7
100
AcDbLine
 10
143.67169478
 20
-114.79095731
 30
0.0
 11
143.67169478
 21
-100.79095731
 31
0.0
  0
LINE
  5
89
100
AcDbEntity
  8
0
  6
CONTINUOUS
 62
       7
100
AcDbLine
 10
141.17169478
 20
-124.29095731
 30
0.0
 11
143.67169478
 21
-126.79095731
 31
0.0
  0
LINE
  5
8A
100
AcDbEntity
  8
0
  6
CONTINUOUS
 62
       7
100
AcDbLine
 10
143.67169478
 20
-100.79095731
 30
0.0
 11
141.17169478
 21
-98.29095731
 31
0.0
  0
LINE
  5
8B
100
AcDbEntity
  8
0
  6
CONTINUOUS
 62
       7
100
AcDbLine
 10
141.17169478
 20
-193.29095731
 30
0.0
 11
143.67169478
 21
-190.79095731
 31
0.0
  0
LINE
  5
8C
100
AcDbEntity
  8
0
  6
CONTINUOUS
 62
       7
100
AcDbLine
 10
123.67169478
 20
-193.29095731
 30
0.0
 11
123.67169478
 21
-98.29095731
 31
0.0
  0
LINE
  5
8D
100
AcDbEntity
  8
0
  6
CONTINUOUS
 62
       7
100
AcDbLine
 10
56.13204277
 20
-331.20978137
 30
0.0
 11
56.13204277
 21
-343.46085838
 31
0.0
  0
LINE
  5
8E
100
AcDbEntity
  8
0
  6
CONTINUOUS
 62
       7
100
AcDbLine
 10
94.38296543
 20
-343.46085838
 30
0.0
 11
94.38296543
 21
-355.70990875
 31
0.0
  0
LINE
  5
8F
100
AcDbEntity
  8
0
  6
CONTINUOUS
 62
       7
100
AcDbLine
 10
107.13361076
 20
-331.20978137
 30
0.0
 11
107.13361076
 21
-343.46085838
 31
0.0
  0
LINE
  5
90
100
AcDbEntity
  8
0
  6
CONTINUOUS
 62
       7
100
AcDbLine
 10
119.8842561
 20
-331.20978137
 30
0.0
 11
46.13459646
 21
-331.20978137
 31
0.0
  0
LINE
  5
91
100
AcDbEntity
  8
0
  6
CONTINUOUS
 62
       7
100
AcDbLine
 10
105.93180949
 20
-343.46085838
 30
0.0
 11
105.93180949
 21
-331.20978137
 31
0.0
  0
LINE
  5
92
100
AcDbEntity
  8
0
  6
CONTINUOUS
 62
       7
100
AcDbLine
 10
44.17169478
 20
-358.79243781
 30
0.0
 11
123.67169478
 21
-358.79243781
 31
0.0
  0
LINE
  5
93
100
AcDbEntity
  8
0
  6
CONTINUOUS
 62
       7
100
AcDbLine
 10
67.68291347
 20
-355.70990875
 30
0.0
 11
67.68291347
 21
-343.46085838
 31
0.0
  0
LINE
  5
94
100
AcDbEntity
  8
0
  6
CONTINUOUS
 62
       7
100
AcDbLine
 10
84.68343614
 20
-355.70990875
 30
0.0
 11
84.68343614
 21
-343.46085838
 31
0.0
  0
LINE
  5
95
100
AcDbEntity
  8
0
  6
CONTINUOUS
 62
       7
100
AcDbLine
 10
54.93226814
 20
-343.46085838
 30
0.0
 11
54.93226814
 21
-331.20978137
 31
0.0
  0
LINE
  5
96
100
AcDbEntity
  8
0
  6
CONTINUOUS
 62
       7
100
AcDbLine
 10
63.43202282
 20
-343.46085838
 30
0.0
 11
63.43202282
 21
-331.20978137
 31
0.0
  0
LINE
  5
97
100
AcDbEntity
  8
0
  6
CONTINUOUS
 62
       7
100
AcDbLine
 10
51.88317875
 20
-355.70990875
 30
0.0
 11
122.17169478
 21
-355.70990875
 31
0.0
  0
LINE
  5
98
100
AcDbEntity
  8
0
  6
CONTINUOUS
 62
       7
100
AcDbLine
 10
46.13459646
 20
-343.46085838
 30
0.0
 11
119.8842561
 21
-343.46085838
 31
0.0
  0
LINE
  5
99
100
AcDbEntity
  8
0
  6
CONTINUOUS
 62
       7
100
AcDbLine
 10
73.13256543
 20
-331.20978137
 30
0.0
 11
73.13256543
 21
-343.46085838
 31
0.0
  0
LINE
  5
9A
100
AcDbEntity
  8
0
  6
CONTINUOUS
 62
       7
100
AcDbLine
 10
47.63330142
 20
-331.20978137
 30
0.0
 11
47.63330142
 21
-343.46085838
 31
0.0
  0
LINE
  5
9B
100
AcDbEntity
  8
0
  6
CONTINUOUS
 62
       7
100
AcDbLine
 10
46.13459646
 20
-331.20978137
 30
0.0
 11
46.13459646
 21
-343.46085838
 31
0.0
  0
LINE
  5
9C
100
AcDbEntity
  8
0
  6
CONTINUOUS
 62
       7
100
AcDbLine
 10
98.63385609
 20
-331.20978137
 30
0.0
 11
98.63385609
 21
-343.46085838
 31
0.0
  0
LINE
  5
9D
100
AcDbEntity
  8
0
  6
CONTINUOUS
 62
       7
100
AcDbLine
 10
90.1330881
 20
-331.20978137
 30
0.0
 11
90.1330881
 21
-343.46085838
 31
0.0
  0
LINE
  5
9E
100
AcDbEntity
  8
0
  6
CONTINUOUS
 62
       7
100
AcDbLine
 10
76.18266814
 20
-355.70990875
 30
0.0
 11
76.18266814
 21
-343.46085838
 31
0.0
  0
LINE
  5
9F
100
AcDbEntity
  8
0
  6
CONTINUOUS
 62
       7
100
AcDbLine
 10
51.88317875
 20
-349.76778174
 30
0.0
 11
118.6854948
 21
-349.76778174
 31
0.0
  0
LINE
  5
A0
100
AcDbEntity
  8
0
  6
CONTINUOUS
 62
       7
100
AcDbLine
 10
111.3834881
 20
-343.46085838
 30
0.0
 11
111.3834881
 21
-355.70990875
 31
0.0
  0
LINE
  5
A1
100
AcDbEntity
  8
0
  6
CONTINUOUS
 62
       7
100
AcDbLine
 10
47.63127477
 20
-339.44404538
 30
0.0
 11
114.43257749
 21
-339.44404538
 31
0.0
  0
LINE
  5
A2
100
AcDbEntity
  8
0
  6
CONTINUOUS
 62
       7
100
AcDbLine
 10
77.38446941
 20
-343.46085838
 30
0.0
 11
77.38446941
 21
-355.70990875
 31
0.0
  0
LINE
  5
A3
100
AcDbEntity
  8
0
  6
CONTINUOUS
 62
       7
100
AcDbLine
 10
59.18417213
 20
-355.70990875
 30
0.0
 11
59.18417213
 21
-343.46085838
 31
0.0
  0
LINE
  5
A4
100
AcDbEntity
  8
0
  6
CONTINUOUS
 62
       7
100
AcDbLine
 10
44.17169478
 20
-193.29095731
 30
0.0
 11
44.17169478
 21
-98.29095731
 31
0.0
  0
LINE
  5
A5
100
AcDbEntity
  8
0
  6
CONTINUOUS
 62
       7
100
AcDbLine
 10
108.16517374
 20
-182.82334067
 30
0.0
 11
108.16517374
 21
-187.79166413
 31
0.0
  0
LINE
  5
A6
100
AcDbEntity
  8
0
  6
CONTINUOUS
 62
       7
100
AcDbLine
 10
98.91555993
 20
-187.79166413
 30
0.0
 11
113.91375603
 21
-187.79166413
 31
0.0
  0
LINE
  5
A7
100
AcDbEntity
  8
0
  6
CONTINUOUS
 62
       7
100
AcDbLine
 10
46.15182296
 20
-171.79129142
 30
0.0
 11
46.15182296
 21
-182.54163683
 31
0.0
  0
LINE
  5
A8
100
AcDbEntity
  8
0
  6
CONTINUOUS
 62
       7
100
AcDbLine
 10
115.20254339
 20
-204.04413041
 30
0.0
 11
115.21874342
 21
-204.23661327
 31
0.0
  0
LINE
  5
A9
100
AcDbEntity
  8
0
  6
CONTINUOUS
 62
       7
100
AcDbLine
 10
80.58859725
 20
-182.54163683
 30
0.0
 11
80.58859725
 21
-171.79129142
 31
0.0
  0
LINE
  5
AA
100
AcDbEntity
  8
0
  6
CONTINUOUS
 62
       7
100
AcDbLine
 10
116.95169886
 20
-203.64307833
 30
0.0
 11
113.91375603
 21
-203.64307833
 31
0.0
  0
LINE
  5
AB
100
AcDbEntity
  8
0
  6
CONTINUOUS
 62
       7
100
AcDbLine
 10
106.41415132
 20
-182.54163683
 30
0.0
 11
106.41415132
 21
-171.79129142
 31
0.0
  0
LINE
  5
AC
100
AcDbEntity
  8
0
  6
CONTINUOUS
 62
       7
100
AcDbLine
 10
119.8842561
 20
-331.20978137
 30
0.0
 11
119.8842561
 21
-355.70990875
 31
0.0
  0
LINE
  5
AD
100
AcDbEntity
  8
0
  6
CONTINUOUS
 62
       7
100
AcDbLine
 10
114.49362629
 20
-209.7244799
 30
0.0
 11
114.43616662
 21
-209.73888457
 31
0.0
  0
LINE
  5
AE
100
AcDbEntity
  8
0
  6
CONTINUOUS
 62
       7
100
AcDbLine
 10
115.11463227
 20
-208.97944865
 30
0.0
 11
115.0217448
 21
-209.19692229
 31
0.0
  0
LINE
  5
AF
100
AcDbEntity
  8
0
  6
CONTINUOUS
 62
       7
100
AcDbLine
 10
115.24496272
 20
-208.38086671
 30
0.0
 11
115.18846043
 21
-208.70438526
 31
0.0
  0
LINE
  5
B0
100
AcDbEntity
  8
0
  6
CONTINUOUS
 62
       7
100
AcDbLine
 10
115.18750324
 20
-203.87918262
 30
0.0
 11
115.19155218
 21
-203.921942
 31
0.0
  0
LINE
  5
B1
100
AcDbEntity
  8
0
  6
CONTINUOUS
 62
       7
100
AcDbLine
 10
114.34354376
 20
-209.72756844
 30
0.0
 11
114.30738905
 21
-209.7067825
 31
0.0
  0
LINE
  5
B2
100
AcDbEntity
  8
0
  6
CONTINUOUS
 62
       7
100
AcDbLine
 10
119.32996832
 20
-193.29096892
 30
0.0
 11
119.32996832
 21
-171.79129142
 31
0.0
  0
LINE
  5
B3
100
AcDbEntity
  8
0
  6
CONTINUOUS
 62
       7
100
AcDbLine
 10
115.28587256
 20
-208.01802758
 30
0.0
 11
115.24496272
 21
-208.38086671
 31
0.0
  0
LINE
  5
B4
100
AcDbEntity
  8
0
  6
CONTINUOUS
 62
       7
100
AcDbLine
 10
84.89319403
 20
-193.29096892
 30
0.0
 11
84.89319403
 21
-182.54163683
 31
0.0
  0
LINE
  5
B5
100
AcDbEntity
  8
0
  6
CONTINUOUS
 62
       7
100
AcDbLine
 10
80.49865033
 20
-108.95610297
 30
0.0
 11
80.49865033
 21
-98.2086527
 31
0.0
  0
LINE
  5
B6
100
AcDbEntity
  8
0
  6
CONTINUOUS
 62
       7
100
AcDbLine
 10
46.06087201
 20
-98.2086527
 30
0.0
 11
46.06087201
 21
-108.95610297
 31
0.0
  0
LINE
  5
B7
100
AcDbEntity
  8
0
  6
CONTINUOUS
 62
       7
100
AcDbLine
 10
93.41281721
 20
-119.70929542
 30
0.0
 11
93.41281721
 21
-108.95610297
 31
0.0
  0
LINE
  5
B8
100
AcDbEntity
  8
0
  6
CONTINUOUS
 62
       7
100
AcDbLine
 10
67.58352643
 20
-119.70929542
 30
0.0
 11
67.58352643
 21
-108.95610297
 31
0.0
  0
LINE
  5
B9
100
AcDbEntity
  8
0
  6
CONTINUOUS
 62
       7
100
AcDbLine
 10
84.80241559
 20
-119.70929542
 30
0.0
 11
84.80241559
 21
-108.95610297
 31
0.0
  0
LINE
  5
BA
100
AcDbEntity
  8
0
  6
CONTINUOUS
 62
       7
100
AcDbLine
 10
63.27976117
 20
-108.95610297
 30
0.0
 11
63.27976117
 21
-98.2086527
 31
0.0
  0
LINE
  5
BB
100
AcDbEntity
  8
0
  6
CONTINUOUS
 62
       7
100
AcDbLine
 10
114.27734448
 20
-209.6792012
 30
0.0
 11
114.25291431
 21
-209.64729198
 31
0.0
  0
LINE
  5
BC
100
AcDbEntity
  8
0
  6
CONTINUOUS
 62
       7
100
AcDbLine
 10
116.95169886
 20
-193.18558331
 30
0.0
 11
116.95169886
 21
-203.64307833
 31
0.0
  0
LINE
  5
BD
100
AcDbEntity
  8
0
  6
CONTINUOUS
 62
       7
100
AcDbLine
 10
115.33238186
 20
-206.78493258
 30
0.0
 11
115.3278487
 21
-207.21092593
 31
0.0
  0
LINE
  5
BE
100
AcDbEntity
  8
0
  6
CONTINUOUS
 62
       7
100
AcDbLine
 10
67.67683353
 20
-193.29096892
 30
0.0
 11
67.67683353
 21
-182.54163683
 31
0.0
  0
LINE
  5
BF
100
AcDbEntity
  8
0
  6
CONTINUOUS
 62
       7
100
AcDbLine
 10
114.63332086
 20
-209.64320796
 30
0.0
 11
114.55917912
 21
-209.69341017
 31
0.0
  0
LINE
  5
C0
100
AcDbEntity
  8
0
  6
CONTINUOUS
 62
       7
100
AcDbLine
 10
114.55917912
 20
-209.69341017
 30
0.0
 11
114.49362629
 21
-209.7244799
 31
0.0
  0
LINE
  5
C1
100
AcDbEntity
  8
0
  6
CONTINUOUS
 62
       7
100
AcDbLine
 10
115.28126207
 20
-205.14448266
 30
0.0
 11
115.30096301
 21
-205.52679744
 31
0.0
  0
LINE
  5
C2
100
AcDbEntity
  8
0
  6
CONTINUOUS
 62
       7
100
AcDbLine
 10
112.41505107
 20
-187.79166413
 30
0.0
 11
114.41636432
 21
-182.82334067
 31
0.0
  0
LINE
  5
C3
100
AcDbEntity
  8
0
  6
CONTINUOUS
 62
       7
100
AcDbLine
 10
114.41636432
 20
-182.82334067
 30
0.0
 11
108.16517374
 21
-182.82334067
 31
0.0
  0
LINE
  5
C4
100
AcDbEntity
  8
0
  6
CONTINUOUS
 62
       7
100
AcDbLine
 10
115.18846043
 20
-208.70438526
 30
0.0
 11
115.11463227
 21
-208.97944865
 31
0.0
  0
LINE
  5
C5
100
AcDbEntity
  8
0
  6
CONTINUOUS
 62
       7
100
AcDbLine
 10
119.23923689
 20
350.29070458
 30
0.0
 11
119.23923689
 21
371.70904269
 31
0.0
  0
LINE
  5
C6
100
AcDbEntity
  8
0
  6
CONTINUOUS
 62
       7
100
AcDbLine
 10
71.97839035
 20
-182.54163683
 30
0.0
 11
71.97839035
 21
-171.79129142
 31
0.0
  0
LINE
  5
C7
100
AcDbEntity
  8
0
  6
CONTINUOUS
 62
       7
100
AcDbLine
 10
119.32996832
 20
-171.79129142
 30
0.0
 11
46.15182296
 21
-171.79129142
 31
0.0
  0
LINE
  5
C8
100
AcDbEntity
  8
0
  6
CONTINUOUS
 62
       7
100
AcDbLine
 10
115.2598362
 20
-204.79592397
 30
0.0
 11
115.28126207
 21
-205.14448266
 31
0.0
  0
LINE
  5
C9
100
AcDbEntity
  8
0
  6
CONTINUOUS
 62
       7
100
AcDbLine
 10
119.8842561
 20
138.79021864
 30
0.0
 11
119.8842561
 21
114.29009125
 31
0.0
  0
LINE
  5
CA
100
AcDbEntity
  8
0
  6
CONTINUOUS
 62
       7
100
AcDbLine
 10
118.6854948
 20
114.29009125
 30
0.0
 11
118.6854948
 21
126.53914162
 31
0.0
  0
LINE
  5
CB
100
AcDbEntity
  8
0
  6
CONTINUOUS
 62
       7
100
AcDbLine
 10
100.41629153
 20
-187.79166413
 30
0.0
 11
98.41497829
 21
-182.82334067
 31
0.0
  0
LINE
  5
CC
100
AcDbEntity
  8
0
  6
CONTINUOUS
 62
       7
100
AcDbLine
 10
115.0217448
 20
-209.19692229
 30
0.0
 11
114.91223712
 21
-209.35313212
 31
0.0
  0
LINE
  5
CD
100
AcDbEntity
  8
0
  6
CONTINUOUS
 62
       7
100
AcDbLine
 10
104.66414222
 20
-182.82334067
 30
0.0
 11
104.66414222
 21
-187.79166413
 31
0.0
  0
LINE
  5
CE
100
AcDbEntity
  8
0
  6
CONTINUOUS
 62
       7
100
AcDbLine
 10
54.66935956
 20
-108.95610297
 30
0.0
 11
54.66935956
 21
-98.2086527
 31
0.0
  0
LINE
  5
CF
100
AcDbEntity
  8
0
  6
CONTINUOUS
 62
       7
100
AcDbLine
 10
114.43257749
 20
126.53914162
 30
0.0
 11
114.43257749
 21
138.79021864
 31
0.0
  0
LINE
  5
D0
100
AcDbEntity
  8
0
  6
CONTINUOUS
 62
       7
100
AcDbLine
 10
115.63437876
 20
138.79021864
 30
0.0
 11
115.63437876
 21
126.53914162
 31
0.0
  0
LINE
  5
D1
100
AcDbEntity
  8
0
  6
CONTINUOUS
 62
       7
100
AcDbLine
 10
106.32507002
 20
-108.95610297
 30
0.0
 11
106.32507002
 21
-98.2086527
 31
0.0
  0
LINE
  5
D2
100
AcDbEntity
  8
0
  6
CONTINUOUS
 62
       7
100
AcDbLine
 10
110.63074934
 20
-119.70929542
 30
0.0
 11
110.63074934
 21
-108.95610297
 31
0.0
  0
LINE
  5
D3
100
AcDbEntity
  8
0
  6
CONTINUOUS
 62
       7
100
AcDbLine
 10
50.3655943
 20
-119.70929542
 30
0.0
 11
119.23923689
 21
-119.70929542
 31
0.0
  0
LINE
  5
D4
100
AcDbEntity
  8
0
  6
CONTINUOUS
 62
       7
100
AcDbLine
 10
102.02130476
 20
-119.70929542
 30
0.0
 11
102.02130476
 21
-108.95610297
 31
0.0
  0
LINE
  5
D5
100
AcDbEntity
  8
0
  6
CONTINUOUS
 62
       7
100
AcDbLine
 10
58.97503888
 20
-119.70929542
 30
0.0
 11
58.97503888
 21
-108.95610297
 31
0.0
  0
LINE
  5
D6
100
AcDbEntity
  8
0
  6
CONTINUOUS
 62
       7
100
AcDbLine
 10
114.25291431
 20
-209.64729198
 30
0.0
 11
114.23360277
 21
-209.61352226
 31
0.0
  0
LINE
  5
D7
100
AcDbEntity
  8
0
  6
CONTINUOUS
 62
       7
100
AcDbLine
 10
97.80698439
 20
-182.54163683
 30
0.0
 11
97.80698439
 21
-171.79129142
 31
0.0
  0
LINE
  5
D8
100
AcDbEntity
  8
0
  6
CONTINUOUS
 62
       7
100
AcDbLine
 10
114.21891411
 20
-209.58035947
 30
0.0
 11
114.20835257
 21
-209.55027104
 31
0.0
  0
LINE
  5
D9
100
AcDbEntity
  8
0
  6
CONTINUOUS
 62
       7
100
AcDbLine
 10
133.67169478
 20
-174.29095731
 30
0.0
 11
141.17169478
 21
-174.29095731
 31
0.0
  0
LINE
  5
DA
100
AcDbEntity
  8
0
  6
CONTINUOUS
 62
       7
100
AcDbLine
 10
133.67169478
 20
-117.29095731
 30
0.0
 11
141.17169478
 21
-117.29095731
 31
0.0
  0
LINE
  5
DB
100
AcDbEntity
  8
0
  6
CONTINUOUS
 62
       7
100
AcDbLine
 10
143.67169478
 20
-164.79095731
 30
0.0
 11
143.67169478
 21
-126.79095731
 31
0.0
  0
LINE
  5
DC
100
AcDbEntity
  8
0
  6
CONTINUOUS
 62
       7
100
AcDbLine
 10
141.17169478
 20
-174.29095731
 30
0.0
 11
143.67169478
 21
-176.79095731
 31
0.0
  0
LINE
  5
DD
100
AcDbEntity
  8
0
  6
CONTINUOUS
 62
       7
100
AcDbLine
 10
133.67169478
 20
-124.29095731
 30
0.0
 11
141.17169478
 21
-124.29095731
 31
0.0
  0
LINE
  5
DE
100
AcDbEntity
  8
0
  6
CONTINUOUS
 62
       7
100
AcDbLine
 10
141.17169478
 20
-117.29095731
 30
0.0
 11
143.67169478
 21
-114.79095731
 31
0.0
  0
LINE
  5
DF
100
AcDbEntity
  8
0
  6
CONTINUOUS
 62
       7
100
AcDbLine
 10
143.67169478
 20
-190.79095731
 30
0.0
 11
143.67169478
 21
-176.79095731
 31
0.0
  0
LINE
  5
E0
100
AcDbEntity
  8
0
  6
CONTINUOUS
 62
       7
100
AcDbLine
 10
141.17169478
 20
-193.29095731
 30
0.0
 11
113.91375603
 21
-193.29095731
 31
0.0
  0
LINE
  5
E1
100
AcDbEntity
  8
0
  6
CONTINUOUS
 62
       7
100
AcDbLine
 10
60.38394675
 20
-343.46085838
 30
0.0
 11
60.38394675
 21
-355.70990875
 31
0.0
  0
LINE
  5
E2
100
AcDbEntity
  8
0
  6
CONTINUOUS
 62
       7
100
AcDbLine
 10
80.4335588
 20
-343.46085838
 30
0.0
 11
80.4335588
 21
-331.20978137
 31
0.0
  0
LINE
  5
E3
100
AcDbEntity
  8
0
  6
CONTINUOUS
 62
       7
100
AcDbLine
 10
44.17169478
 20
-355.7909746
 30
0.0
 11
121.65675976
 21
-355.7909746
 31
0.0
  0
LINE
  5
E4
100
AcDbEntity
  8
0
  6
CONTINUOUS
 62
       7
100
AcDbLine
 10
68.88471474
 20
-343.46085838
 30
0.0
 11
68.88471474
 21
-355.70990875
 31
0.0
  0
LINE
  5
E5
100
AcDbEntity
  8
0
  6
CONTINUOUS
 62
       7
100
AcDbLine
 10
88.93331347
 20
-343.46085838
 30
0.0
 11
88.93331347
 21
-331.20978137
 31
0.0
  0
LINE
  5
E6
100
AcDbEntity
  8
0
  6
CONTINUOUS
 62
       7
100
AcDbLine
 10
47.63127477
 20
-337.51670473
 30
0.0
 11
114.43257749
 21
-337.51670473
 31
0.0
  0
LINE
  5
E7
100
AcDbEntity
  8
0
  6
CONTINUOUS
 62
       7
100
AcDbLine
 10
85.88523741
 20
-343.46085838
 30
0.0
 11
85.88523741
 21
-355.70990875
 31
0.0
  0
LINE
  5
E8
100
AcDbEntity
  8
0
  6
CONTINUOUS
 62
       7
100
AcDbLine
 10
110.1847268
 20
-355.70990875
 30
0.0
 11
110.1847268
 21
-343.46085838
 31
0.0
  0
LINE
  5
E9
100
AcDbEntity
  8
0
  6
CONTINUOUS
 62
       7
100
AcDbLine
 10
64.63179744
 20
-331.20978137
 30
0.0
 11
64.63179744
 21
-343.46085838
 31
0.0
  0
LINE
  5
EA
100
AcDbEntity
  8
0
  6
CONTINUOUS
 62
       7
100
AcDbLine
 10
81.6323201
 20
-331.20978137
 30
0.0
 11
81.6323201
 21
-343.46085838
 31
0.0
  0
LINE
  5
EB
100
AcDbEntity
  8
0
  6
CONTINUOUS
 62
       7
100
AcDbLine
 10
97.43408147
 20
-343.46085838
 30
0.0
 11
97.43408147
 21
-331.20978137
 31
0.0
  0
LINE
  5
EC
100
AcDbEntity
  8
0
  6
CONTINUOUS
 62
       7
100
AcDbLine
 10
123.67169478
 20
-358.79243781
 30
0.0
 11
123.67169478
 21
-371.7913473
 31
0.0
  0
LINE
  5
ED
100
AcDbEntity
  8
0
  6
CONTINUOUS
 62
       7
100
AcDbLine
 10
46.13459646
 20
-355.70990875
 30
0.0
 11
46.13459646
 21
-343.46085838
 31
0.0
  0
LINE
  5
EE
100
AcDbEntity
  8
0
  6
CONTINUOUS
 62
       7
100
AcDbLine
 10
51.88317875
 20
-351.44381824
 30
0.0
 11
118.6854948
 21
-351.44381824
 31
0.0
  0
LINE
  5
EF
100
AcDbEntity
  8
0
  6
CONTINUOUS
 62
       7
100
AcDbLine
 10
101.6839588
 20
-355.70990875
 30
0.0
 11
101.6839588
 21
-343.46085838
 31
0.0
  0
LINE
  5
F0
100
AcDbEntity
  8
0
  6
CONTINUOUS
 62
       7
100
AcDbLine
 10
102.88373343
 20
-343.46085838
 30
0.0
 11
102.88373343
 21
-355.70990875
 31
0.0
  0
LINE
  5
F1
100
AcDbEntity
  8
0
  6
CONTINUOUS
 62
       7
100
AcDbLine
 10
51.88317875
 20
-343.46085838
 30
0.0
 11
51.88317875
 21
-355.70990875
 31
0.0
  0
LINE
  5
F2
100
AcDbEntity
  8
0
  6
CONTINUOUS
 62
       7
100
AcDbLine
 10
71.93279081
 20
-343.46085838
 30
0.0
 11
71.93279081
 21
-331.20978137
 31
0.0
  0
LINE
  5
F3
100
AcDbEntity
  8
0
  6
CONTINUOUS
 62
       7
100
AcDbLine
 10
143.67169478
 20
-369.7913473
 30
0.0
 11
143.67169478
 21
-371.7913473
 31
0.0
  0
LINE
  5
F4
100
AcDbEntity
  8
0
  6
CONTINUOUS
 62
       7
100
AcDbLine
 10
121.65675976
 20
-355.7909746
 30
0.0
 11
121.65675976
 21
-358.79243781
 31
0.0
  0
LINE
  5
F5
100
AcDbEntity
  8
0
  6
CONTINUOUS
 62
       7
100
AcDbLine
 10
143.67169478
 20
-369.7913473
 30
0.0
 11
123.67169478
 21
-369.7913473
 31
0.0
  0
LINE
  5
F6
100
AcDbEntity
  8
0
  6
CONTINUOUS
 62
       7
100
AcDbLine
 10
93.18420413
 20
-355.70990875
 30
0.0
 11
93.18420413
 21
-343.46085838
 31
0.0
  0
LINE
  5
F7
100
AcDbEntity
  8
0
  6
CONTINUOUS
 62
       7
100
AcDbLine
 10
111.3834881
 20
-343.46085838
 30
0.0
 11
51.88317875
 21
-343.46085838
 31
0.0
  0
ARC
  5
F8
100
AcDbEntity
  8
0
  6
CONTINUOUS
 62
       7
100
AcDbCircle
 10
133.67169478
 20
-120.79095731
 30
0.0
 40
3.5
100
AcDbArc
 50
90.0
 51
270.0
  0
ARC
  5
F9
100
AcDbEntity
  8
0
  6
CONTINUOUS
 62
       7
100
AcDbCircle
 10
133.67169478
 20
-170.79095731
 30
0.0
 40
3.5
100
AcDbArc
 50
90.0
 51
270.0
  0
LINE
  5
FA
100
AcDbEntity
  8
0
  6
PHANTOM2
 62
       7
100
AcDbLine
 10
-3.31935947
 20
297.68124551
 30
0.0
 11
-4.21305535
 21
297.68124551
 31
0.0
  0
LINE
  5
FB
100
AcDbEntity
  8
0
  6
PHANTOM2
 62
       7
100
AcDbLine
 10
-4.21305535
 20
297.68124551
 30
0.0
 11
-4.21305535
 21
298.58582906
 31
0.0
  0
LINE
  5
FC
100
AcDbEntity
  8
0
  6
PHANTOM2
 62
       7
100
AcDbLine
 10
-4.21305535
 20
298.58582906
 30
0.0
 11
-15.04809721
 21
298.58582906
 31
0.0
  0
LINE
  5
FD
100
AcDbEntity
  8
0
  6
PHANTOM2
 62
       7
100
AcDbLine
 10
-15.04809721
 20
298.58582906
 30
0.0
 11
-15.04809721
 21
297.68124551
 31
0.0
  0
LINE
  5
FE
100
AcDbEntity
  8
0
  6
PHANTOM2
 62
       7
100
AcDbLine
 10
-15.04809721
 20
297.68124551
 30
0.0
 11
-16.32830522
 21
297.68124551
 31
0.0
  0
LINE
  5
FF
100
AcDbEntity
  8
0
  6
PHANTOM2
 62
       7
100
AcDbLine
 10
-3.31935947
 20
350.72232298
 30
0.0
 11
-3.31935947
 21
297.68124551
 31
0.0
  0
LINE
  5
100
100
AcDbEntity
  8
0
  6
PHANTOM2
 62
       7
100
AcDbLine
 10
-4.21305535
 20
347.14753945
 30
0.0
 11
-4.21305535
 21
348.05030839
 31
0.0
  0
LINE
  5
101
100
AcDbEntity
  8
0
  6
PHANTOM2
 62
       7
100
AcDbLine
 10
-15.04809721
 20
348.05030839
 30
0.0
 11
-15.04809721
 21
347.14753945
 31
0.0
  0
LINE
  5
102
100
AcDbEntity
  8
0
  6
PHANTOM2
 62
       7
100
AcDbLine
 10
-4.21305535
 20
337.25246605
 30
0.0
 11
-4.21305535
 21
338.1570496
 31
0.0
  0
LINE
  5
103
100
AcDbEntity
  8
0
  6
PHANTOM2
 62
       7
100
AcDbLine
 10
-15.04809721
 20
338.1570496
 30
0.0
 11
-15.04809721
 21
337.25246605
 31
0.0
  0
LINE
  5
104
100
AcDbEntity
  8
0
  6
PHANTOM2
 62
       7
100
AcDbLine
 10
-3.31935947
 20
327.36011457
 30
0.0
 11
-4.21305535
 21
327.36011457
 31
0.0
  0
LINE
  5
105
100
AcDbEntity
  8
0
  6
PHANTOM2
 62
       7
100
AcDbLine
 10
-4.21305535
 20
328.26469812
 30
0.0
 11
-15.04809721
 21
328.26469812
 31
0.0
  0
LINE
  5
106
100
AcDbEntity
  8
0
  6
PHANTOM2
 62
       7
100
AcDbLine
 10
-15.04809721
 20
327.36011457
 30
0.0
 11
-16.32830522
 21
327.36011457
 31
0.0
  0
LINE
  5
107
100
AcDbEntity
  8
0
  6
PHANTOM2
 62
       7
100
AcDbLine
 10
-4.21305535
 20
317.46685578
 30
0.0
 11
-4.21305535
 21
318.37234664
 31
0.0
  0
LINE
  5
108
100
AcDbEntity
  8
0
  6
PHANTOM2
 62
       7
100
AcDbLine
 10
-15.04809721
 20
318.37234664
 30
0.0
 11
-15.04809721
 21
317.46685578
 31
0.0
  0
LINE
  5
109
100
AcDbEntity
  8
0
  6
PHANTOM2
 62
       7
100
AcDbLine
 10
-3.31935947
 20
307.573597
 30
0.0
 11
-4.21305535
 21
307.573597
 31
0.0
  0
LINE
  5
10A
100
AcDbEntity
  8
0
  6
PHANTOM2
 62
       7
100
AcDbLine
 10
-4.21305535
 20
308.47727324
 30
0.0
 11
-15.04809721
 21
308.47727324
 31
0.0
  0
LINE
  5
10B
100
AcDbEntity
  8
0
  6
PHANTOM2
 62
       7
100
AcDbLine
 10
-15.04809721
 20
307.573597
 30
0.0
 11
-16.32830522
 21
307.573597
 31
0.0
  0
LINE
  5
10C
100
AcDbEntity
  8
0
  6
PHANTOM2
 62
       7
100
AcDbLine
 10
-15.04809721
 20
340.82815689
 30
0.0
 11
-15.04809721
 21
339.9335537
 31
0.0
  0
LINE
  5
10D
100
AcDbEntity
  8
0
  6
PHANTOM2
 62
       7
100
AcDbLine
 10
-4.21305535
 20
339.9335537
 30
0.0
 11
-4.21305535
 21
340.82815689
 31
0.0
  0
LINE
  5
10E
100
AcDbEntity
  8
0
  6
PHANTOM2
 62
       7
100
AcDbLine
 10
-16.32830522
 20
330.9348981
 30
0.0
 11
-15.04809721
 21
330.9348981
 31
0.0
  0
LINE
  5
10F
100
AcDbEntity
  8
0
  6
PHANTOM2
 62
       7
100
AcDbLine
 10
-15.04809721
 20
330.04120222
 30
0.0
 11
-4.21305535
 21
330.04120222
 31
0.0
  0
LINE
  5
110
100
AcDbEntity
  8
0
  6
PHANTOM2
 62
       7
100
AcDbLine
 10
-4.21305535
 20
330.9348981
 30
0.0
 11
-3.31935947
 21
330.9348981
 31
0.0
  0
LINE
  5
111
100
AcDbEntity
  8
0
  6
PHANTOM2
 62
       7
100
AcDbLine
 10
-15.04809721
 20
321.04163931
 30
0.0
 11
-15.04809721
 21
320.14794343
 31
0.0
  0
LINE
  5
112
100
AcDbEntity
  8
0
  6
PHANTOM2
 62
       7
100
AcDbLine
 10
-4.21305535
 20
320.14794343
 30
0.0
 11
-4.21305535
 21
321.04163931
 31
0.0
  0
LINE
  5
113
100
AcDbEntity
  8
0
  6
PHANTOM2
 62
       7
100
AcDbLine
 10
-16.32830522
 20
311.14928783
 30
0.0
 11
-15.04809721
 21
311.14928783
 31
0.0
  0
LINE
  5
114
100
AcDbEntity
  8
0
  6
PHANTOM2
 62
       7
100
AcDbLine
 10
-15.04809721
 20
310.25559195
 30
0.0
 11
-4.21305535
 21
310.25559195
 31
0.0
  0
LINE
  5
115
100
AcDbEntity
  8
0
  6
PHANTOM2
 62
       7
100
AcDbLine
 10
-4.21305535
 20
311.14928783
 30
0.0
 11
-3.31935947
 21
311.14928783
 31
0.0
  0
LINE
  5
116
100
AcDbEntity
  8
0
  6
PHANTOM2
 62
       7
100
AcDbLine
 10
-15.04809721
 20
301.25602905
 30
0.0
 11
-15.04809721
 21
300.36233316
 31
0.0
  0
LINE
  5
117
100
AcDbEntity
  8
0
  6
PHANTOM2
 62
       7
100
AcDbLine
 10
-4.21305535
 20
300.36233316
 30
0.0
 11
-4.21305535
 21
301.25602905
 31
0.0
  0
LINE
  5
118
100
AcDbEntity
  8
0
  6
PHANTOM2
 62
       7
100
AcDbLine
 10
-16.32830522
 20
350.72232298
 30
0.0
 11
-15.04809721
 21
350.72232298
 31
0.0
  0
LINE
  5
119
100
AcDbEntity
  8
0
  6
PHANTOM2
 62
       7
100
AcDbLine
 10
-15.04809721
 20
350.72232298
 30
0.0
 11
-15.04809721
 21
349.8286271
 31
0.0
  0
LINE
  5
11A
100
AcDbEntity
  8
0
  6
PHANTOM2
 62
       7
100
AcDbLine
 10
-15.04809721
 20
349.8286271
 30
0.0
 11
-4.21305535
 21
349.8286271
 31
0.0
  0
LINE
  5
11B
100
AcDbEntity
  8
0
  6
PHANTOM2
 62
       7
100
AcDbLine
 10
-4.21305535
 20
349.8286271
 30
0.0
 11
-4.21305535
 21
350.72232298
 31
0.0
  0
LINE
  5
11C
100
AcDbEntity
  8
0
  6
PHANTOM2
 62
       7
100
AcDbLine
 10
-4.21305535
 20
350.72232298
 30
0.0
 11
-3.31935947
 21
350.72232298
 31
0.0
  0
LINE
  5
11D
100
AcDbEntity
  8
0
  6
PHANTOM2
 62
       7
100
AcDbLine
 10
-3.31935947
 20
347.14753945
 30
0.0
 11
-4.21305535
 21
347.14753945
 31
0.0
  0
LINE
  5
11E
100
AcDbEntity
  8
0
  6
PHANTOM2
 62
       7
100
AcDbLine
 10
-4.21305535
 20
348.05030839
 30
0.0
 11
-15.04809721
 21
348.05030839
 31
0.0
  0
LINE
  5
11F
100
AcDbEntity
  8
0
  6
PHANTOM2
 62
       7
100
AcDbLine
 10
-15.04809721
 20
347.14753945
 30
0.0
 11
-16.32830522
 21
347.14753945
 31
0.0
  0
LINE
  5
120
100
AcDbEntity
  8
0
  6
PHANTOM2
 62
       7
100
AcDbLine
 10
-3.31935947
 20
337.25246605
 30
0.0
 11
-4.21305535
 21
337.25246605
 31
0.0
  0
LINE
  5
121
100
AcDbEntity
  8
0
  6
PHANTOM2
 62
       7
100
AcDbLine
 10
-4.21305535
 20
338.1570496
 30
0.0
 11
-15.04809721
 21
338.1570496
 31
0.0
  0
LINE
  5
122
100
AcDbEntity
  8
0
  6
PHANTOM2
 62
       7
100
AcDbLine
 10
-15.04809721
 20
337.25246605
 30
0.0
 11
-16.32830522
 21
337.25246605
 31
0.0
  0
LINE
  5
123
100
AcDbEntity
  8
0
  6
PHANTOM2
 62
       7
100
AcDbLine
 10
-4.21305535
 20
327.36011457
 30
0.0
 11
-4.21305535
 21
328.26469812
 31
0.0
  0
LINE
  5
124
100
AcDbEntity
  8
0
  6
PHANTOM2
 62
       7
100
AcDbLine
 10
-15.04809721
 20
328.26469812
 30
0.0
 11
-15.04809721
 21
327.36011457
 31
0.0
  0
LINE
  5
125
100
AcDbEntity
  8
0
  6
PHANTOM2
 62
       7
100
AcDbLine
 10
-3.31935947
 20
317.46685578
 30
0.0
 11
-4.21305535
 21
317.46685578
 31
0.0
  0
LINE
  5
126
100
AcDbEntity
  8
0
  6
PHANTOM2
 62
       7
100
AcDbLine
 10
-4.21305535
 20
318.37234664
 30
0.0
 11
-15.04809721
 21
318.37234664
 31
0.0
  0
LINE
  5
127
100
AcDbEntity
  8
0
  6
PHANTOM2
 62
       7
100
AcDbLine
 10
-15.04809721
 20
317.46685578
 30
0.0
 11
-16.32830522
 21
317.46685578
 31
0.0
  0
LINE
  5
128
100
AcDbEntity
  8
0
  6
PHANTOM2
 62
       7
100
AcDbLine
 10
-4.21305535
 20
307.573597
 30
0.0
 11
-4.21305535
 21
308.47727324
 31
0.0
  0
LINE
  5
129
100
AcDbEntity
  8
0
  6
PHANTOM2
 62
       7
100
AcDbLine
 10
-15.04809721
 20
308.47727324
 30
0.0
 11
-15.04809721
 21
307.573597
 31
0.0
  0
LINE
  5
12A
100
AcDbEntity
  8
0
  6
PHANTOM2
 62
       7
100
AcDbLine
 10
-16.32830522
 20
340.82815689
 30
0.0
 11
-15.04809721
 21
340.82815689
 31
0.0
  0
LINE
  5
12B
100
AcDbEntity
  8
0
  6
PHANTOM2
 62
       7
100
AcDbLine
 10
-15.04809721
 20
339.9335537
 30
0.0
 11
-4.21305535
 21
339.9335537
 31
0.0
  0
LINE
  5
12C
100
AcDbEntity
  8
0
  6
PHANTOM2
 62
       7
100
AcDbLine
 10
-4.21305535
 20
340.82815689
 30
0.0
 11
-3.31935947
 21
340.82815689
 31
0.0
  0
LINE
  5
12D
100
AcDbEntity
  8
0
  6
PHANTOM2
 62
       7
100
AcDbLine
 10
-15.04809721
 20
330.9348981
 30
0.0
 11
-15.04809721
 21
330.04120222
 31
0.0
  0
LINE
  5
12E
100
AcDbEntity
  8
0
  6
PHANTOM2
 62
       7
100
AcDbLine
 10
-4.21305535
 20
330.04120222
 30
0.0
 11
-4.21305535
 21
330.9348981
 31
0.0
  0
LINE
  5
12F
100
AcDbEntity
  8
0
  6
PHANTOM2
 62
       7
100
AcDbLine
 10
-16.32830522
 20
321.04163931
 30
0.0
 11
-15.04809721
 21
321.04163931
 31
0.0
  0
LINE
  5
130
100
AcDbEntity
  8
0
  6
PHANTOM2
 62
       7
100
AcDbLine
 10
-15.04809721
 20
320.14794343
 30
0.0
 11
-4.21305535
 21
320.14794343
 31
0.0
  0
LINE
  5
131
100
AcDbEntity
  8
0
  6
PHANTOM2
 62
       7
100
AcDbLine
 10
-4.21305535
 20
321.04163931
 30
0.0
 11
-3.31935947
 21
321.04163931
 31
0.0
  0
LINE
  5
132
100
AcDbEntity
  8
0
  6
PHANTOM2
 62
       7
100
AcDbLine
 10
-15.04809721
 20
311.14928783
 30
0.0
 11
-15.04809721
 21
310.25559195
 31
0.0
  0
LINE
  5
133
100
AcDbEntity
  8
0
  6
PHANTOM2
 62
       7
100
AcDbLine
 10
-4.21305535
 20
310.25559195
 30
0.0
 11
-4.21305535
 21
311.14928783
 31
0.0
  0
LINE
  5
134
100
AcDbEntity
  8
0
  6
PHANTOM2
 62
       7
100
AcDbLine
 10
-16.32830522
 20
301.25602905
 30
0.0
 11
-15.04809721
 21
301.25602905
 31
0.0
  0
LINE
  5
135
100
AcDbEntity
  8
0
  6
PHANTOM2
 62
       7
100
AcDbLine
 10
-15.04809721
 20
300.36233316
 30
0.0
 11
-4.21305535
 21
300.36233316
 31
0.0
  0
LINE
  5
136
100
AcDbEntity
  8
0
  6
PHANTOM2
 62
       7
100
AcDbLine
 10
-4.21305535
 20
301.25602905
 30
0.0
 11
-3.31935947
 21
301.25602905
 31
0.0
  0
LINE
  5
137
100
AcDbEntity
  8
0
  6
PHANTOM2
 62
       7
100
AcDbLine
 10
-16.32830522
 20
138.23745395
 30
0.0
 11
-3.21437768
 21
138.23745395
 31
0.0
  0
LINE
  5
138
100
AcDbEntity
  8
0
  6
PHANTOM2
 62
       7
100
AcDbLine
 10
-3.21437768
 20
138.23745395
 30
0.0
 11
-3.21437768
 21
121.22547649
 31
0.0
  0
LINE
  5
139
100
AcDbEntity
  8
0
  6
PHANTOM2
 62
       7
100
AcDbLine
 10
-16.23239649
 20
121.14744822
 30
0.0
 11
38.14877115
 21
121.14744822
 31
0.0
  0
LINE
  5
13A
100
AcDbEntity
  8
0
  6
PHANTOM2
 62
       7
100
AcDbLine
 10
38.14877115
 20
121.14744822
 30
0.0
 11
38.14877115
 21
100.20683809
 31
0.0
  0
CIRCLE
  5
13B
100
AcDbEntity
  8
0
  6
PHANTOM2
 62
       7
100
AcDbCircle
 10
-9.70524976
 20
314.31520545
 30
0.0
 40
3.24295053
  0
CIRCLE
  5
13C
100
AcDbEntity
  8
0
  6
PHANTOM2
 62
       7
100
AcDbCircle
 10
-9.70524976
 20
324.20846424
 30
0.0
 40
3.24295053
  0
CIRCLE
  5
13D
100
AcDbEntity
  8
0
  6
PHANTOM2
 62
       7
100
AcDbCircle
 10
-9.70524976
 20
343.99588912
 30
0.0
 40
3.24295053
  0
CIRCLE
  5
13E
100
AcDbEntity
  8
0
  6
PHANTOM2
 62
       7
100
AcDbCircle
 10
-9.70524976
 20
304.42194667
 30
0.0
 40
3.24295053
  0
CIRCLE
  5
13F
100
AcDbEntity
  8
0
  6
PHANTOM2
 62
       7
100
AcDbCircle
 10
-9.70524976
 20
334.10081572
 30
0.0
 40
3.24295053
  0
LINE
  5
140
100
AcDbEntity
  8
0
  6
PHANTOM
 62
       7
100
AcDbLine
 10
122.17169478
 20
-169.29095731
 30
0.0
 11
122.17169478
 21
-121.29095731
 31
0.0
  0
LINE
  5
141
100
AcDbEntity
  8
0
  6
PHANTOM
 62
       7
100
AcDbLine
 10
65.17169478
 20
-169.29095731
 30
0.0
 11
65.17169478
 21
-121.29095731
 31
0.0
  0
LINE
  5
142
100
AcDbEntity
  8
0
  6
PHANTOM
 62
       7
100
AcDbLine
 10
84.17169478
 20
-169.29095731
 30
0.0
 11
66.17169478
 21
-169.29095731
 31
0.0
  0
LINE
  5
143
100
AcDbEntity
  8
0
  6
PHANTOM
 62
       7
100
AcDbLine
 10
65.17169478
 20
-169.29095731
 30
0.0
 11
47.17169478
 21
-169.29095731
 31
0.0
  0
LINE
  5
144
100
AcDbEntity
  8
0
  6
PHANTOM
 62
       7
100
AcDbLine
 10
47.17169478
 20
-169.29095731
 30
0.0
 11
47.17169478
 21
-121.29095731
 31
0.0
  0
LINE
  5
145
100
AcDbEntity
  8
0
  6
PHANTOM
 62
       7
100
AcDbLine
 10
66.17169478
 20
-169.29095731
 30
0.0
 11
66.17169478
 21
-121.29095731
 31
0.0
  0
LINE
  5
146
100
AcDbEntity
  8
0
  6
PHANTOM
 62
       7
100
AcDbLine
 10
84.17169478
 20
-169.29095731
 30
0.0
 11
84.17169478
 21
-121.29095731
 31
0.0
  0
LINE
  5
147
100
AcDbEntity
  8
0
  6
PHANTOM
 62
       7
100
AcDbLine
 10
104.17169478
 20
-169.29095731
 30
0.0
 11
104.17169478
 21
-121.29095731
 31
0.0
  0
LINE
  5
148
100
AcDbEntity
  8
0
  6
PHANTOM
 62
       7
100
AcDbLine
 10
122.17169478
 20
-286.4913473
 30
0.0
 11
122.17169478
 21
-355.7909746
 31
0.0
  0
LINE
  5
149
100
AcDbEntity
  8
0
  6
PHANTOM
 62
       7
100
AcDbLine
 10
65.17169478
 20
-286.4913473
 30
0.0
 11
47.17169478
 21
-286.4913473
 31
0.0
  0
LINE
  5
14A
100
AcDbEntity
  8
0
  6
PHANTOM
 62
       7
100
AcDbLine
 10
122.17169478
 20
-286.4913473
 30
0.0
 11
104.17169478
 21
-286.4913473
 31
0.0
  0
LINE
  5
14B
100
AcDbEntity
  8
0
  6
PHANTOM
 62
       7
100
AcDbLine
 10
65.17169478
 20
-286.4913473
 30
0.0
 11
65.17169478
 21
-331.20978137
 31
0.0
  0
LINE
  5
14C
100
AcDbEntity
  8
0
  6
PHANTOM
 62
       7
100
AcDbLine
 10
115.54386546
 20
-286.51209676
 30
0.0
 11
115.54386546
 21
-286.29134731
 31
0.0
  0
LINE
  5
14D
100
AcDbEntity
  8
0
  6
PHANTOM
 62
       7
100
AcDbLine
 10
58.54386546
 20
-286.51209676
 30
0.0
 11
58.54386546
 21
-286.29134731
 31
0.0
  0
LINE
  5
14E
100
AcDbEntity
  8
0
  6
PHANTOM
 62
       7
100
AcDbLine
 10
65.17169478
 20
-121.29095731
 30
0.0
 11
47.17169478
 21
-121.29095731
 31
0.0
  0
LINE
  5
14F
100
AcDbEntity
  8
0
  6
PHANTOM
 62
       7
100
AcDbLine
 10
84.17169478
 20
-121.29095731
 30
0.0
 11
66.17169478
 21
-121.29095731
 31
0.0
  0
LINE
  5
150
100
AcDbEntity
  8
0
  6
PHANTOM
 62
       7
100
AcDbLine
 10
122.17169478
 20
-121.29095731
 30
0.0
 11
104.17169478
 21
-121.29095731
 31
0.0
  0
LINE
  5
151
100
AcDbEntity
  8
0
  6
PHANTOM
 62
       7
100
AcDbLine
 10
103.17169478
 20
-169.29095731
 30
0.0
 11
103.17169478
 21
-121.29095731
 31
0.0
  0
LINE
  5
152
100
AcDbEntity
  8
0
  6
PHANTOM
 62
       7
100
AcDbLine
 10
103.17169478
 20
-121.29095731
 30
0.0
 11
85.17169478
 21
-121.29095731
 31
0.0
  0
LINE
  5
153
100
AcDbEntity
  8
0
  6
PHANTOM
 62
       7
100
AcDbLine
 10
122.17169478
 20
-169.29095731
 30
0.0
 11
104.17169478
 21
-169.29095731
 31
0.0
  0
LINE
  5
154
100
AcDbEntity
  8
0
  6
PHANTOM
 62
       7
100
AcDbLine
 10
103.17169478
 20
-169.29095731
 30
0.0
 11
85.17169478
 21
-169.29095731
 31
0.0
  0
LINE
  5
155
100
AcDbEntity
  8
0
  6
PHANTOM
 62
       7
100
AcDbLine
 10
85.17169478
 20
-169.29095731
 30
0.0
 11
85.17169478
 21
-121.29095731
 31
0.0
  0
LINE
  5
156
100
AcDbEntity
  8
0
  6
PHANTOM
 62
       7
100
AcDbLine
 10
104.17169478
 20
-286.4913473
 30
0.0
 11
104.17169478
 21
-331.20978137
 31
0.0
  0
LINE
  5
157
100
AcDbEntity
  8
0
  6
PHANTOM
 62
       7
100
AcDbLine
 10
120.84151895
 20
-286.51209676
 30
0.0
 11
120.84151895
 21
-286.29134731
 31
0.0
  0
LINE
  5
158
100
AcDbEntity
  8
0
  6
PHANTOM
 62
       7
100
AcDbLine
 10
63.84151894
 20
-286.51209676
 30
0.0
 11
63.84151894
 21
-286.29134731
 31
0.0
  0
LINE
  5
159
100
AcDbEntity
  8
0
  6
PHANTOM
 62
       7
100
AcDbLine
 10
62.34151894
 20
-284.79134731
 30
0.0
 11
60.04386546
 21
-284.79134731
 31
0.0
  0
LINE
  5
15A
100
AcDbEntity
  8
0
  6
PHANTOM
 62
       7
100
AcDbLine
 10
47.17169478
 20
-286.4913473
 30
0.0
 11
47.17169478
 21
-331.20978137
 31
0.0
  0
LINE
  5
15B
100
AcDbEntity
  8
0
  6
PHANTOM
 62
       7
100
AcDbLine
 10
119.34151895
 20
-284.79134731
 30
0.0
 11
117.04386546
 21
-284.79134731
 31
0.0
  0
ARC
  5
15C
100
AcDbEntity
  8
0
  6
PHANTOM
 62
       7
100
AcDbCircle
 10
62.34151894
 20
-286.29134731
 30
0.0
 40
1.5
100
AcDbArc
 50
0.0
 51
90.0
  0
ARC
  5
15D
100
AcDbEntity
  8
0
  6
PHANTOM
 62
       7
100
AcDbCircle
 10
117.04386546
 20
-286.29134731
 30
0.0
 40
1.5
100
AcDbArc
 50
90.0
 51
180.0
  0
ARC
  5
15E
100
AcDbEntity
  8
0
  6
PHANTOM
 62
       7
100
AcDbCircle
 10
119.34151895
 20
-286.29134731
 30
0.0
 40
1.5
100
AcDbArc
 50
0.0
 51
90.0
  0
ARC
  5
15F
100
AcDbEntity
  8
0
  6
PHANTOM
 62
       7
100
AcDbCircle
 10
60.04386546
 20
-286.29134731
 30
0.0
 40
1.5
100
AcDbArc
 50
90.0
 51
180.0
  0
LINE
  5
160
100
AcDbEntity
  8
SLD-0_4
  6
CONTINUOUS
 62
       7
100
AcDbLine
 10
-36.32830522
 20
-190.79095731
 30
0.0
 11
-36.32830522
 21
-176.79095731
 31
0.0
  0
LINE
  5
161
100
AcDbEntity
  8
SLD-0_4
  6
CONTINUOUS
 62
       7
100
AcDbLine
 10
-33.82830522
 20
-117.29095731
 30
0.0
 11
-36.32830522
 21
-114.79095731
 31
0.0
  0
LINE
  5
162
100
AcDbEntity
  8
SLD-0_4
  6
CONTINUOUS
 62
       7
100
AcDbLine
 10
-26.32830522
 20
-124.29095731
 30
0.0
 11
-33.82830522
 21
-124.29095731
 31
0.0
  0
LINE
  5
163
100
AcDbEntity
  8
SLD-0_4
  6
CONTINUOUS
 62
       7
100
AcDbLine
 10
-33.82830522
 20
-174.29095731
 30
0.0
 11
-36.32830522
 21
-176.79095731
 31
0.0
  0
LINE
  5
164
100
AcDbEntity
  8
SLD-0_4
  6
CONTINUOUS
 62
       7
100
AcDbLine
 10
-36.32830522
 20
-164.79095731
 30
0.0
 11
-36.32830522
 21
-126.79095731
 31
0.0
  0
LINE
  5
165
100
AcDbEntity
  8
SLD-0_4
  6
CONTINUOUS
 62
       7
100
AcDbLine
 10
-26.32830522
 20
-117.29095731
 30
0.0
 11
-33.82830522
 21
-117.29095731
 31
0.0
  0
LINE
  5
166
100
AcDbEntity
  8
SLD-0_4
  6
CONTINUOUS
 62
       7
100
AcDbLine
 10
-26.32830522
 20
-174.29095731
 30
0.0
 11
-33.82830522
 21
-174.29095731
 31
0.0
  0
LINE
  5
167
100
AcDbEntity
  8
SLD-0_4
  6
CONTINUOUS
 62
       7
100
AcDbLine
 10
108.16517374
 20
287.17665934
 30
0.0
 11
108.16517374
 21
282.20833588
 31
0.0
  0
LINE
  5
168
100
AcDbEntity
  8
SLD-0_4
  6
CONTINUOUS
 62
       7
100
AcDbLine
 10
98.91555993
 20
282.20833588
 30
0.0
 11
113.91375603
 21
282.20833588
 31
0.0
  0
LINE
  5
169
100
AcDbEntity
  8
SLD-0_4
  6
CONTINUOUS
 62
       7
100
AcDbLine
 10
76.28501378
 20
276.70903108
 30
0.0
 11
76.28501378
 21
287.45836317
 31
0.0
  0
LINE
  5
16A
100
AcDbEntity
  8
SLD-0_4
  6
CONTINUOUS
 62
       7
100
AcDbLine
 10
114.71654727
 20
260.42859418
 30
0.0
 11
114.63332086
 21
260.35679204
 31
0.0
  0
LINE
  5
16B
100
AcDbEntity
  8
SLD-0_4
  6
CONTINUOUS
 62
       7
100
AcDbLine
 10
114.20835257
 20
260.44972897
 30
0.0
 11
114.20142241
 21
260.47427561
 31
0.0
  0
LINE
  5
16C
100
AcDbEntity
  8
SLD-0_4
  6
CONTINUOUS
 62
       7
100
AcDbLine
 10
46.15182296
 20
298.20870859
 30
0.0
 11
46.15182296
 21
287.45836317
 31
0.0
  0
LINE
  5
16D
100
AcDbEntity
  8
SLD-0_4
  6
CONTINUOUS
 62
       7
100
AcDbLine
 10
63.37223675
 20
287.45836317
 30
0.0
 11
63.37223675
 21
298.20870859
 31
0.0
  0
LINE
  5
16E
100
AcDbEntity
  8
SLD-0_4
  6
CONTINUOUS
 62
       7
100
AcDbLine
 10
115.20254339
 20
265.9558696
 30
0.0
 11
115.21874342
 21
265.76338673
 31
0.0
  0
LINE
  5
16F
100
AcDbEntity
  8
SLD-0_4
  6
CONTINUOUS
 62
       7
100
AcDbLine
 10
89.1967775
 20
287.45836317
 30
0.0
 11
89.1967775
 21
298.20870859
 31
0.0
  0
LINE
  5
170
100
AcDbEntity
  8
SLD-0_4
  6
CONTINUOUS
 62
       7
100
AcDbLine
 10
115.19155218
 20
266.078058
 30
0.0
 11
115.20254339
 21
265.9558696
 31
0.0
  0
LINE
  5
171
100
AcDbEntity
  8
SLD-0_4
  6
CONTINUOUS
 62
       7
100
AcDbLine
 10
80.58859725
 20
287.45836317
 30
0.0
 11
80.58859725
 21
298.20870859
 31
0.0
  0
LINE
  5
172
100
AcDbEntity
  8
SLD-0_4
  6
CONTINUOUS
 62
       7
100
AcDbLine
 10
116.95169886
 20
266.35692168
 30
0.0
 11
113.91375603
 21
266.35692168
 31
0.0
  0
LINE
  5
173
100
AcDbEntity
  8
SLD-0_4
  6
CONTINUOUS
 62
       7
100
AcDbLine
 10
59.06561332
 20
276.70903108
 30
0.0
 11
59.06561332
 21
287.45836317
 31
0.0
  0
LINE
  5
174
100
AcDbEntity
  8
SLD-0_4
  6
CONTINUOUS
 62
       7
100
AcDbLine
 10
106.41415132
 20
287.45836317
 30
0.0
 11
106.41415132
 21
298.20870859
 31
0.0
  0
LINE
  5
175
100
AcDbEntity
  8
SLD-0_4
  6
CONTINUOUS
 62
       7
100
AcDbLine
 10
115.23841884
 20
265.50974402
 30
0.0
 11
115.2598362
 21
265.20407604
 31
0.0
  0
LINE
  5
176
100
AcDbEntity
  8
SLD-0_4
  6
CONTINUOUS
 62
       7
100
AcDbLine
 10
-36.32830522
 20
279.20904269
 30
0.0
 11
-36.32830522
 21
293.20904269
 31
0.0
  0
LINE
  5
177
100
AcDbEntity
  8
SLD-0_4
  6
CONTINUOUS
 62
       7
100
AcDbLine
 10
115.3278487
 20
262.78907407
 30
0.0
 11
115.31292341
 21
262.37499754
 31
0.0
  0
LINE
  5
178
100
AcDbEntity
  8
SLD-0_4
  6
CONTINUOUS
 62
       7
100
AcDbLine
 10
114.49362629
 20
260.27552011
 30
0.0
 11
114.43616662
 21
260.26111544
 31
0.0
  0
LINE
  5
179
100
AcDbEntity
  8
SLD-0_4
  6
CONTINUOUS
 62
       7
100
AcDbLine
 10
119.32996832
 20
287.45836317
 30
0.0
 11
50.45743307
 21
287.45836317
 31
0.0
  0
LINE
  5
17A
100
AcDbEntity
  8
SLD-0_4
  6
CONTINUOUS
 62
       7
100
AcDbLine
 10
115.11463227
 20
261.02055136
 30
0.0
 11
115.0217448
 21
260.80307772
 31
0.0
  0
LINE
  5
17B
100
AcDbEntity
  8
SLD-0_4
  6
CONTINUOUS
 62
       7
100
AcDbLine
 10
46.15182296
 20
276.70903108
 30
0.0
 11
46.15182296
 21
287.45836317
 31
0.0
  0
LINE
  5
17C
100
AcDbEntity
  8
SLD-0_4
  6
CONTINUOUS
 62
       7
100
AcDbLine
 10
115.24496272
 20
261.6191333
 30
0.0
 11
115.18846043
 21
261.29561475
 31
0.0
  0
LINE
  5
17D
100
AcDbEntity
  8
SLD-0_4
  6
CONTINUOUS
 62
       7
100
AcDbLine
 10
114.91223712
 20
260.64686788
 30
0.0
 11
114.8093541
 21
260.52446365
 31
0.0
  0
LINE
  5
17E
100
AcDbEntity
  8
SLD-0_4
  6
CONTINUOUS
 62
       7
100
AcDbLine
 10
-33.82830522
 20
276.70904269
 30
0.0
 11
-36.32830522
 21
279.20904269
 31
0.0
  0
LINE
  5
17F
100
AcDbEntity
  8
SLD-0_4
  6
CONTINUOUS
 62
       7
100
AcDbLine
 10
115.18750324
 20
266.12081738
 30
0.0
 11
115.19155218
 21
266.078058
 31
0.0
  0
LINE
  5
180
100
AcDbEntity
  8
SLD-0_4
  6
CONTINUOUS
 62
       7
100
AcDbLine
 10
115.32825634
 20
263.64384301
 30
0.0
 11
115.33238186
 21
263.21506742
 31
0.0
  0
LINE
  5
181
100
AcDbEntity
  8
SLD-0_4
  6
CONTINUOUS
 62
       7
100
AcDbLine
 10
114.34354376
 20
260.27243156
 30
0.0
 11
114.30738905
 21
260.2932175
 31
0.0
  0
LINE
  5
182
100
AcDbEntity
  8
SLD-0_4
  6
CONTINUOUS
 62
       7
100
AcDbLine
 10
98.41497829
 20
287.17665934
 30
0.0
 11
104.66414222
 21
287.17665934
 31
0.0
  0
LINE
  5
183
100
AcDbEntity
  8
SLD-0_4
  6
CONTINUOUS
 62
       7
100
AcDbLine
 10
119.32996832
 20
276.70903108
 30
0.0
 11
119.32996832
 21
298.20870859
 31
0.0
  0
LINE
  5
184
100
AcDbEntity
  8
SLD-0_4
  6
CONTINUOUS
 62
       7
100
AcDbLine
 10
115.28587256
 20
261.98197243
 30
0.0
 11
115.24496272
 21
261.6191333
 31
0.0
  0
LINE
  5
185
100
AcDbEntity
  8
SLD-0_4
  6
CONTINUOUS
 62
       7
100
AcDbLine
 10
84.89319403
 20
276.70903108
 30
0.0
 11
84.89319403
 21
287.45836317
 31
0.0
  0
LINE
  5
186
100
AcDbEntity
  8
SLD-0_4
  6
CONTINUOUS
 62
       7
100
AcDbLine
 10
-33.82830522
 20
352.70904269
 30
0.0
 11
-36.32830522
 21
355.20904269
 31
0.0
  0
LINE
  5
187
100
AcDbEntity
  8
SLD-0_4
  6
CONTINUOUS
 62
       7
100
AcDbLine
 10
-36.32830522
 20
369.20904269
 30
0.0
 11
-33.82830522
 21
371.70904269
 31
0.0
  0
LINE
  5
188
100
AcDbEntity
  8
SLD-0_4
  6
CONTINUOUS
 62
       7
100
AcDbLine
 10
-26.32830522
 20
345.70904269
 30
0.0
 11
-33.82830522
 21
345.70904269
 31
0.0
  0
LINE
  5
189
100
AcDbEntity
  8
SLD-0_4
  6
CONTINUOUS
 62
       7
100
AcDbLine
 10
-33.82830522
 20
345.70904269
 30
0.0
 11
-36.32830522
 21
343.20904269
 31
0.0
  0
LINE
  5
18A
100
AcDbEntity
  8
SLD-0_4
  6
CONTINUOUS
 62
       7
100
AcDbLine
 10
-33.82830522
 20
295.70904269
 30
0.0
 11
-36.32830522
 21
293.20904269
 31
0.0
  0
LINE
  5
18B
100
AcDbEntity
  8
SLD-0_4
  6
CONTINUOUS
 62
       7
100
AcDbLine
 10
-36.32830522
 20
355.20904269
 30
0.0
 11
-36.32830522
 21
369.20904269
 31
0.0
  0
LINE
  5
18C
100
AcDbEntity
  8
SLD-0_4
  6
CONTINUOUS
 62
       7
100
AcDbLine
 10
80.49865033
 20
361.04389704
 30
0.0
 11
80.49865033
 21
371.7913473
 31
0.0
  0
LINE
  5
18D
100
AcDbEntity
  8
SLD-0_4
  6
CONTINUOUS
 62
       7
100
AcDbLine
 10
50.3655943
 20
350.29070458
 30
0.0
 11
46.06087201
 21
350.29070458
 31
0.0
  0
LINE
  5
18E
100
AcDbEntity
  8
SLD-0_4
  6
CONTINUOUS
 62
       7
100
AcDbLine
 10
46.06087201
 20
371.7913473
 30
0.0
 11
46.06087201
 21
361.04389704
 31
0.0
  0
LINE
  5
18F
100
AcDbEntity
  8
SLD-0_4
  6
CONTINUOUS
 62
       7
100
AcDbLine
 10
46.06087201
 20
361.04389704
 30
0.0
 11
119.23923689
 21
361.04389704
 31
0.0
  0
LINE
  5
190
100
AcDbEntity
  8
SLD-0_4
  6
CONTINUOUS
 62
       7
100
AcDbLine
 10
93.41281721
 20
350.29070458
 30
0.0
 11
93.41281721
 21
361.04389704
 31
0.0
  0
LINE
  5
191
100
AcDbEntity
  8
SLD-0_4
  6
CONTINUOUS
 62
       7
100
AcDbLine
 10
119.23923689
 20
361.04389704
 30
0.0
 11
50.3655943
 21
361.04389704
 31
0.0
  0
LINE
  5
192
100
AcDbEntity
  8
SLD-0_4
  6
CONTINUOUS
 62
       7
100
AcDbLine
 10
67.58352643
 20
350.29070458
 30
0.0
 11
67.58352643
 21
361.04389704
 31
0.0
  0
LINE
  5
193
100
AcDbEntity
  8
SLD-0_4
  6
CONTINUOUS
 62
       7
100
AcDbLine
 10
46.06087201
 20
350.29070458
 30
0.0
 11
46.06087201
 21
361.04389704
 31
0.0
  0
LINE
  5
194
100
AcDbEntity
  8
SLD-0_4
  6
CONTINUOUS
 62
       7
100
AcDbLine
 10
84.80241559
 20
350.29070458
 30
0.0
 11
84.80241559
 21
361.04389704
 31
0.0
  0
LINE
  5
195
100
AcDbEntity
  8
SLD-0_4
  6
CONTINUOUS
 62
       7
100
AcDbLine
 10
114.93355757
 20
361.04389704
 30
0.0
 11
114.93355757
 21
371.7913473
 31
0.0
  0
LINE
  5
196
100
AcDbEntity
  8
SLD-0_4
  6
CONTINUOUS
 62
       7
100
AcDbLine
 10
63.27976117
 20
361.04389704
 30
0.0
 11
63.27976117
 21
371.7913473
 31
0.0
  0
LINE
  5
197
100
AcDbEntity
  8
SLD-0_4
  6
CONTINUOUS
 62
       7
100
AcDbLine
 10
113.91375603
 20
259.72674824
 30
0.0
 11
98.91555993
 21
259.72674824
 31
0.0
  0
LINE
  5
198
100
AcDbEntity
  8
SLD-0_4
  6
CONTINUOUS
 62
       7
100
AcDbLine
 10
114.27734448
 20
260.32079881
 30
0.0
 11
114.25291431
 21
260.35270803
 31
0.0
  0
LINE
  5
199
100
AcDbEntity
  8
SLD-0_4
  6
CONTINUOUS
 62
       7
100
AcDbLine
 10
114.30738905
 20
260.2932175
 30
0.0
 11
114.27734448
 21
260.32079881
 31
0.0
  0
LINE
  5
19A
100
AcDbEntity
  8
SLD-0_4
  6
CONTINUOUS
 62
       7
100
AcDbLine
 10
116.95169886
 20
276.8144167
 30
0.0
 11
116.95169886
 21
266.35692168
 31
0.0
  0
LINE
  5
19B
100
AcDbEntity
  8
SLD-0_4
  6
CONTINUOUS
 62
       7
100
AcDbLine
 10
114.23360277
 20
260.38647775
 30
0.0
 11
114.21891411
 21
260.41964054
 31
0.0
  0
LINE
  5
19C
100
AcDbEntity
  8
SLD-0_4
  6
CONTINUOUS
 62
       7
100
AcDbLine
 10
115.33238186
 20
263.21506742
 30
0.0
 11
115.3278487
 21
262.78907407
 31
0.0
  0
LINE
  5
19D
100
AcDbEntity
  8
SLD-0_4
  6
CONTINUOUS
 62
       7
100
AcDbLine
 10
54.76202985
 20
287.45836317
 30
0.0
 11
54.76202985
 21
298.20870859
 31
0.0
  0
LINE
  5
19E
100
AcDbEntity
  8
SLD-0_4
  6
CONTINUOUS
 62
       7
100
AcDbLine
 10
67.67683353
 20
276.70903108
 30
0.0
 11
67.67683353
 21
287.45836317
 31
0.0
  0
LINE
  5
19F
100
AcDbEntity
  8
SLD-0_4
  6
CONTINUOUS
 62
       7
100
AcDbLine
 10
114.20142241
 20
260.47427561
 30
0.0
 11
114.19762787
 21
260.49081305
 31
0.0
  0
LINE
  5
1A0
100
AcDbEntity
  8
SLD-0_4
  6
CONTINUOUS
 62
       7
100
AcDbLine
 10
114.63332086
 20
260.35679204
 30
0.0
 11
114.55917912
 21
260.30658984
 31
0.0
  0
LINE
  5
1A1
100
AcDbEntity
  8
SLD-0_4
  6
CONTINUOUS
 62
       7
100
AcDbLine
 10
115.02435821
 20
287.45836317
 30
0.0
 11
115.02435821
 21
298.20870859
 31
0.0
  0
LINE
  5
1A2
100
AcDbEntity
  8
SLD-0_4
  6
CONTINUOUS
 62
       7
100
AcDbLine
 10
114.55917912
 20
260.30658984
 30
0.0
 11
114.49362629
 21
260.27552011
 31
0.0
  0
LINE
  5
1A3
100
AcDbEntity
  8
SLD-0_4
  6
CONTINUOUS
 62
       7
100
AcDbLine
 10
50.45743307
 20
287.45836317
 30
0.0
 11
50.45743307
 21
276.70903108
 31
0.0
  0
LINE
  5
1A4
100
AcDbEntity
  8
SLD-0_4
  6
CONTINUOUS
 62
       7
100
AcDbLine
 10
115.28126207
 20
264.85551735
 30
0.0
 11
115.30096301
 21
264.47320257
 31
0.0
  0
LINE
  5
1A5
100
AcDbEntity
  8
SLD-0_4
  6
CONTINUOUS
 62
       7
100
AcDbLine
 10
115.30096301
 20
264.47320257
 30
0.0
 11
115.31720558
 21
264.06626626
 31
0.0
  0
LINE
  5
1A6
100
AcDbEntity
  8
SLD-0_4
  6
CONTINUOUS
 62
       7
100
AcDbLine
 10
112.41505107
 20
282.20833588
 30
0.0
 11
114.41636432
 21
287.17665934
 31
0.0
  0
LINE
  5
1A7
100
AcDbEntity
  8
SLD-0_4
  6
CONTINUOUS
 62
       7
100
AcDbLine
 10
115.31292341
 20
262.37499754
 30
0.0
 11
115.28587256
 21
261.98197243
 31
0.0
  0
LINE
  5
1A8
100
AcDbEntity
  8
SLD-0_4
  6
CONTINUOUS
 62
       7
100
AcDbLine
 10
114.41636432
 20
287.17665934
 30
0.0
 11
108.16517374
 21
287.17665934
 31
0.0
  0
LINE
  5
1A9
100
AcDbEntity
  8
SLD-0_4
  6
CONTINUOUS
 62
       7
100
AcDbLine
 10
98.91555993
 20
276.70904269
 30
0.0
 11
-33.82830522
 21
276.70904269
 31
0.0
  0
LINE
  5
1AA
100
AcDbEntity
  8
SLD-0_4
  6
CONTINUOUS
 62
       7
100
AcDbLine
 10
93.50340093
 20
276.70903108
 30
0.0
 11
93.50340093
 21
287.45836317
 31
0.0
  0
LINE
  5
1AB
100
AcDbEntity
  8
SLD-0_4
  6
CONTINUOUS
 62
       7
100
AcDbLine
 10
115.18846043
 20
261.29561475
 30
0.0
 11
115.11463227
 21
261.02055136
 31
0.0
  0
LINE
  5
1AC
100
AcDbEntity
  8
SLD-0_4
  6
CONTINUOUS
 62
       7
100
AcDbLine
 10
114.8093541
 20
260.52446365
 30
0.0
 11
114.71654727
 21
260.42859418
 31
0.0
  0
LINE
  5
1AD
100
AcDbEntity
  8
SLD-0_4
  6
CONTINUOUS
 62
       7
100
AcDbLine
 10
71.97839035
 20
287.45836317
 30
0.0
 11
71.97839035
 21
298.20870859
 31
0.0
  0
LINE
  5
1AE
100
AcDbEntity
  8
SLD-0_4
  6
CONTINUOUS
 62
       7
100
AcDbLine
 10
114.19762787
 20
260.49081305
 30
0.0
 11
114.19647319
 21
260.49687384
 31
0.0
  0
LINE
  5
1AF
100
AcDbEntity
  8
SLD-0_4
  6
CONTINUOUS
 62
       7
100
AcDbLine
 10
119.32996832
 20
298.20870859
 30
0.0
 11
46.15182296
 21
298.20870859
 31
0.0
  0
LINE
  5
1B0
100
AcDbEntity
  8
SLD-0_4
  6
CONTINUOUS
 62
       7
100
AcDbLine
 10
114.38630436
 20
260.26090839
 30
0.0
 11
114.34354376
 21
260.27243156
 31
0.0
  0
LINE
  5
1B1
100
AcDbEntity
  8
SLD-0_4
  6
CONTINUOUS
 62
       7
100
AcDbLine
 10
115.2598362
 20
265.20407604
 30
0.0
 11
115.28126207
 21
264.85551735
 31
0.0
  0
LINE
  5
1B2
100
AcDbEntity
  8
SLD-0_4
  6
CONTINUOUS
 62
       7
100
AcDbLine
 10
46.15182296
 20
287.45836317
 30
0.0
 11
119.32996832
 21
287.45836317
 31
0.0
  0
LINE
  5
1B3
100
AcDbEntity
  8
SLD-0_4
  6
CONTINUOUS
 62
       7
100
AcDbLine
 10
100.41629153
 20
282.20833588
 30
0.0
 11
98.41497829
 21
287.17665934
 31
0.0
  0
LINE
  5
1B4
100
AcDbEntity
  8
SLD-0_4
  6
CONTINUOUS
 62
       7
100
AcDbLine
 10
113.91375603
 20
282.20833588
 30
0.0
 11
113.91375603
 21
259.72674824
 31
0.0
  0
LINE
  5
1B5
100
AcDbEntity
  8
SLD-0_4
  6
CONTINUOUS
 62
       7
100
AcDbLine
 10
115.0217448
 20
260.80307772
 30
0.0
 11
114.91223712
 21
260.64686788
 31
0.0
  0
LINE
  5
1B6
100
AcDbEntity
  8
SLD-0_4
  6
CONTINUOUS
 62
       7
100
AcDbLine
 10
113.91375603
 20
276.8144167
 30
0.0
 11
116.95169886
 21
276.8144167
 31
0.0
  0
LINE
  5
1B7
100
AcDbEntity
  8
SLD-0_4
  6
CONTINUOUS
 62
       7
100
AcDbLine
 10
104.66414222
 20
287.17665934
 30
0.0
 11
104.66414222
 21
282.20833588
 31
0.0
  0
LINE
  5
1B8
100
AcDbEntity
  8
SLD-0_4
  6
CONTINUOUS
 62
       7
100
AcDbLine
 10
115.21874342
 20
265.76338673
 30
0.0
 11
115.23841884
 21
265.50974402
 31
0.0
  0
LINE
  5
1B9
100
AcDbEntity
  8
SLD-0_4
  6
CONTINUOUS
 62
       7
100
AcDbLine
 10
-36.32830522
 20
305.20904269
 30
0.0
 11
-36.32830522
 21
343.20904269
 31
0.0
  0
LINE
  5
1BA
100
AcDbEntity
  8
SLD-0_4
  6
CONTINUOUS
 62
       7
100
AcDbLine
 10
-33.82830522
 20
302.70904269
 30
0.0
 11
-36.32830522
 21
305.20904269
 31
0.0
  0
LINE
  5
1BB
100
AcDbEntity
  8
SLD-0_4
  6
CONTINUOUS
 62
       7
100
AcDbLine
 10
-26.32830522
 20
352.70904269
 30
0.0
 11
-33.82830522
 21
352.70904269
 31
0.0
  0
LINE
  5
1BC
100
AcDbEntity
  8
SLD-0_4
  6
CONTINUOUS
 62
       7
100
AcDbLine
 10
-26.32830522
 20
302.70904269
 30
0.0
 11
-33.82830522
 21
302.70904269
 31
0.0
  0
LINE
  5
1BD
100
AcDbEntity
  8
SLD-0_4
  6
CONTINUOUS
 62
       7
100
AcDbLine
 10
-26.32830522
 20
295.70904269
 30
0.0
 11
-33.82830522
 21
295.70904269
 31
0.0
  0
LINE
  5
1BE
100
AcDbEntity
  8
SLD-0_4
  6
CONTINUOUS
 62
       7
100
AcDbLine
 10
54.66935956
 20
361.04389704
 30
0.0
 11
54.66935956
 21
371.7913473
 31
0.0
  0
LINE
  5
1BF
100
AcDbEntity
  8
SLD-0_4
  6
CONTINUOUS
 62
       7
100
AcDbLine
 10
76.19392804
 20
350.29070458
 30
0.0
 11
76.19392804
 21
361.04389704
 31
0.0
  0
LINE
  5
1C0
100
AcDbEntity
  8
SLD-0_4
  6
CONTINUOUS
 62
       7
100
AcDbLine
 10
106.32507002
 20
361.04389704
 30
0.0
 11
106.32507002
 21
371.7913473
 31
0.0
  0
LINE
  5
1C1
100
AcDbEntity
  8
SLD-0_4
  6
CONTINUOUS
 62
       7
100
AcDbLine
 10
89.10618085
 20
361.04389704
 30
0.0
 11
89.10618085
 21
371.7913473
 31
0.0
  0
LINE
  5
1C2
100
AcDbEntity
  8
SLD-0_4
  6
CONTINUOUS
 62
       7
100
AcDbLine
 10
110.63074934
 20
350.29070458
 30
0.0
 11
110.63074934
 21
361.04389704
 31
0.0
  0
LINE
  5
1C3
100
AcDbEntity
  8
SLD-0_4
  6
CONTINUOUS
 62
       7
100
AcDbLine
 10
71.88824872
 20
361.04389704
 30
0.0
 11
71.88824872
 21
371.7913473
 31
0.0
  0
LINE
  5
1C4
100
AcDbEntity
  8
SLD-0_4
  6
CONTINUOUS
 62
       7
100
AcDbLine
 10
50.3655943
 20
350.29070458
 30
0.0
 11
119.23923689
 21
350.29070458
 31
0.0
  0
LINE
  5
1C5
100
AcDbEntity
  8
SLD-0_4
  6
CONTINUOUS
 62
       7
100
AcDbLine
 10
50.3655943
 20
361.04389704
 30
0.0
 11
50.3655943
 21
350.29070458
 31
0.0
  0
LINE
  5
1C6
100
AcDbEntity
  8
SLD-0_4
  6
CONTINUOUS
 62
       7
100
AcDbLine
 10
102.02130476
 20
350.29070458
 30
0.0
 11
102.02130476
 21
361.04389704
 31
0.0
  0
LINE
  5
1C7
100
AcDbEntity
  8
SLD-0_4
  6
CONTINUOUS
 62
       7
100
AcDbLine
 10
97.71466841
 20
361.04389704
 30
0.0
 11
97.71466841
 21
371.7913473
 31
0.0
  0
LINE
  5
1C8
100
AcDbEntity
  8
SLD-0_4
  6
CONTINUOUS
 62
       7
100
AcDbLine
 10
58.97503888
 20
350.29070458
 30
0.0
 11
58.97503888
 21
361.04389704
 31
0.0
  0
LINE
  5
1C9
100
AcDbEntity
  8
SLD-0_4
  6
CONTINUOUS
 62
       7
100
AcDbLine
 10
114.43616662
 20
260.26111544
 30
0.0
 11
114.38630436
 21
260.26090839
 31
0.0
  0
LINE
  5
1CA
100
AcDbEntity
  8
SLD-0_4
  6
CONTINUOUS
 62
       7
100
AcDbLine
 10
114.25291431
 20
260.35270803
 30
0.0
 11
114.23360277
 21
260.38647775
 31
0.0
  0
LINE
  5
1CB
100
AcDbEntity
  8
SLD-0_4
  6
CONTINUOUS
 62
       7
100
AcDbLine
 10
98.91555993
 20
259.72674824
 30
0.0
 11
98.91555993
 21
282.20833588
 31
0.0
  0
LINE
  5
1CC
100
AcDbEntity
  8
SLD-0_4
  6
CONTINUOUS
 62
       7
100
AcDbLine
 10
97.80698439
 20
287.45836317
 30
0.0
 11
97.80698439
 21
298.20870859
 31
0.0
  0
LINE
  5
1CD
100
AcDbEntity
  8
SLD-0_4
  6
CONTINUOUS
 62
       7
100
AcDbLine
 10
115.31720558
 20
264.06626626
 30
0.0
 11
115.32825634
 21
263.64384301
 31
0.0
  0
LINE
  5
1CE
100
AcDbEntity
  8
SLD-0_4
  6
CONTINUOUS
 62
       7
100
AcDbLine
 10
114.21891411
 20
260.41964054
 30
0.0
 11
114.20835257
 21
260.44972897
 31
0.0
  0
LINE
  5
1CF
100
AcDbEntity
  8
SLD-0_4
  6
CONTINUOUS
 62
       7
100
AcDbLine
 10
-33.82830522
 20
-193.29095731
 30
0.0
 11
-36.32830522
 21
-190.79095731
 31
0.0
  0
LINE
  5
1D0
100
AcDbEntity
  8
SLD-0_4
  6
CONTINUOUS
 62
       7
100
AcDbLine
 10
-36.32830522
 20
-100.79095731
 30
0.0
 11
-33.82830522
 21
-98.29095731
 31
0.0
  0
LINE
  5
1D1
100
AcDbEntity
  8
SLD-0_4
  6
CONTINUOUS
 62
       7
100
AcDbLine
 10
-33.82830522
 20
-124.29095731
 30
0.0
 11
-36.32830522
 21
-126.79095731
 31
0.0
  0
LINE
  5
1D2
100
AcDbEntity
  8
SLD-0_4
  6
CONTINUOUS
 62
       7
100
AcDbLine
 10
-36.32830522
 20
-114.79095731
 30
0.0
 11
-36.32830522
 21
-100.79095731
 31
0.0
  0
LINE
  5
1D3
100
AcDbEntity
  8
SLD-0_4
  6
CONTINUOUS
 62
       7
100
AcDbLine
 10
-33.82830522
 20
-167.29095731
 30
0.0
 11
-36.32830522
 21
-164.79095731
 31
0.0
  0
LINE
  5
1D4
100
AcDbEntity
  8
SLD-0_4
  6
CONTINUOUS
 62
       7
100
AcDbLine
 10
-26.32830522
 20
-167.29095731
 30
0.0
 11
-33.82830522
 21
-167.29095731
 31
0.0
  0
LINE
  5
1D5
100
AcDbEntity
  8
SLD-0_4
  6
CONTINUOUS
 62
       7
100
AcDbLine
 10
98.91555993
 20
-193.29095731
 30
0.0
 11
-33.82830522
 21
-193.29095731
 31
0.0
  0
LINE
  5
1D6
100
AcDbEntity
  8
SLD-0_4
  6
CONTINUOUS
 62
       7
100
AcDbLine
 10
-33.82830522
 20
-98.29095731
 30
0.0
 11
141.17169478
 21
-98.29095731
 31
0.0
  0
ARC
  5
1D7
100
AcDbEntity
  8
SLD-0_4
  6
CONTINUOUS
 62
       7
100
AcDbCircle
 10
-26.32830522
 20
-170.79095731
 30
0.0
 40
3.5
100
AcDbArc
 50
270.0
 51
450.0
  0
ARC
  5
1D8
100
AcDbEntity
  8
SLD-0_4
  6
CONTINUOUS
 62
       7
100
AcDbCircle
 10
-26.32830522
 20
-120.79095731
 30
0.0
 40
3.5
100
AcDbArc
 50
270.0
 51
450.0
  0
ARC
  5
1D9
100
AcDbEntity
  8
SLD-0_4
  6
CONTINUOUS
 62
       7
100
AcDbCircle
 10
-26.32830522
 20
299.20904269
 30
0.0
 40
3.5
100
AcDbArc
 50
270.0
 51
450.0
  0
ARC
  5
1DA
100
AcDbEntity
  8
SLD-0_4
  6
CONTINUOUS
 62
       7
100
AcDbCircle
 10
-26.32830522
 20
349.20904269
 30
0.0
 40
3.5
100
AcDbArc
 50
270.0
 51
450.0
  0
LINE
  5
1DB
100
AcDbEntity
  8
SLD-0_4
  6
PHANTOM
 62
       7
100
AcDbLine
 10
122.17169478
 20
300.70904269
 30
0.0
 11
122.17169478
 21
348.70904269
 31
0.0
  0
LINE
  5
1DC
100
AcDbEntity
  8
SLD-0_4
  6
PHANTOM
 62
       7
100
AcDbLine
 10
65.17169478
 20
348.70904269
 30
0.0
 11
47.17169478
 21
348.70904269
 31
0.0
  0
LINE
  5
1DD
100
AcDbEntity
  8
SLD-0_4
  6
PHANTOM
 62
       7
100
AcDbLine
 10
65.17169478
 20
300.70904269
 30
0.0
 11
65.17169478
 21
348.70904269
 31
0.0
  0
LINE
  5
1DE
100
AcDbEntity
  8
SLD-0_4
  6
PHANTOM
 62
       7
100
AcDbLine
 10
84.17169478
 20
348.70904269
 30
0.0
 11
66.17169478
 21
348.70904269
 31
0.0
  0
LINE
  5
1DF
100
AcDbEntity
  8
SLD-0_4
  6
PHANTOM
 62
       7
100
AcDbLine
 10
84.17169478
 20
300.70904269
 30
0.0
 11
66.17169478
 21
300.70904269
 31
0.0
  0
LINE
  5
1E0
100
AcDbEntity
  8
SLD-0_4
  6
PHANTOM
 62
       7
100
AcDbLine
 10
122.17169478
 20
348.70904269
 30
0.0
 11
104.17169478
 21
348.70904269
 31
0.0
  0
LINE
  5
1E1
100
AcDbEntity
  8
SLD-0_4
  6
PHANTOM
 62
       7
100
AcDbLine
 10
65.17169478
 20
300.70904269
 30
0.0
 11
47.17169478
 21
300.70904269
 31
0.0
  0
LINE
  5
1E2
100
AcDbEntity
  8
SLD-0_4
  6
PHANTOM
 62
       7
100
AcDbLine
 10
103.17169478
 20
300.70904269
 30
0.0
 11
103.17169478
 21
348.70904269
 31
0.0
  0
LINE
  5
1E3
100
AcDbEntity
  8
SLD-0_4
  6
PHANTOM
 62
       7
100
AcDbLine
 10
47.17169478
 20
300.70904269
 30
0.0
 11
47.17169478
 21
348.70904269
 31
0.0
  0
LINE
  5
1E4
100
AcDbEntity
  8
SLD-0_4
  6
PHANTOM
 62
       7
100
AcDbLine
 10
103.17169478
 20
348.70904269
 30
0.0
 11
85.17169478
 21
348.70904269
 31
0.0
  0
LINE
  5
1E5
100
AcDbEntity
  8
SLD-0_4
  6
PHANTOM
 62
       7
100
AcDbLine
 10
66.17169478
 20
300.70904269
 30
0.0
 11
66.17169478
 21
348.70904269
 31
0.0
  0
LINE
  5
1E6
100
AcDbEntity
  8
SLD-0_4
  6
PHANTOM
 62
       7
100
AcDbLine
 10
122.17169478
 20
300.70904269
 30
0.0
 11
104.17169478
 21
300.70904269
 31
0.0
  0
LINE
  5
1E7
100
AcDbEntity
  8
SLD-0_4
  6
PHANTOM
 62
       7
100
AcDbLine
 10
84.17169478
 20
300.70904269
 30
0.0
 11
84.17169478
 21
348.70904269
 31
0.0
  0
LINE
  5
1E8
100
AcDbEntity
  8
SLD-0_4
  6
PHANTOM
 62
       7
100
AcDbLine
 10
103.17169478
 20
300.70904269
 30
0.0
 11
85.17169478
 21
300.70904269
 31
0.0
  0
LINE
  5
1E9
100
AcDbEntity
  8
SLD-0_4
  6
PHANTOM
 62
       7
100
AcDbLine
 10
104.17169478
 20
300.70904269
 30
0.0
 11
104.17169478
 21
348.70904269
 31
0.0
  0
LINE
  5
1EA
100
AcDbEntity
  8
SLD-0_4
  6
PHANTOM
 62
       7
100
AcDbLine
 10
85.17169478
 20
300.70904269
 30
0.0
 11
85.17169478
 21
348.70904269
 31
0.0
  0
LINE
  5
1EB
100
AcDbEntity
  8
SLD-0_4
  6
PHANTOM2
 62
       7
100
AcDbLine
 10
-16.32830522
 20
276.70904269
 30
0.0
 11
-16.32830522
 21
371.70904269
 31
0.0
  0
LINE
  5
1EC
100
AcDbEntity
  8
レイヤー_1
  6
CONTINUOUS
 62
       7
100
AcDbLine
 10
143.67169478
 20
-371.7913473
 30
0.0
 11
-36.32830522
 21
-371.7913473
 31
0.0
  0
LINE
  5
1ED
100
AcDbEntity
  8
レイヤー_1
  6
CONTINUOUS
 62
       7
100
AcDbLine
 10
44.17169478
 20
-369.7913473
 30
0.0
 11
-36.32830522
 21
-369.7913473
 31
0.0
  0
LINE
  5
1EE
100
AcDbEntity
  8
レイヤー_1
  6
CONTINUOUS
 62
       7
100
AcDbLine
 10
-36.32830522
 20
-369.7913473
 30
0.0
 11
-36.32830522
 21
-371.7913473
 31
0.0
  0
LINE
  5
1EF
100
AcDbEntity
  8
レイヤー_1
  6
CONTINUOUS
 62
       7
100
AcDbLine
 10
44.17169478
 20
114.2090254
 30
0.0
 11
44.17169478
 21
100.2086527
 31
0.0
  0
LINE
  5
1F0
100
AcDbEntity
  8
レイヤー_1
  6
PHANTOM2
 62
       7
100
AcDbLine
 10
35.57169478
 20
-101.79095731
 30
0.0
 11
-16.32830522
 21
-101.79095731
 31
0.0
  0
LINE
  5
1F1
100
AcDbEntity
  8
SLD-0
  6
PHANTOM2
 62
       7
100
AcDbLine
 10
-16.32830522
 20
-277.79134731
 30
0.0
 11
-16.32830522
 21
-369.7913473
 31
0.0
  0
LINE
  5
1F2
100
AcDbEntity
  8
SLD-0
  6
PHANTOM2
 62
       7
100
AcDbLine
 10
35.57169478
 20
-277.79134731
 30
0.0
 11
-16.32830522
 21
-277.79134731
 31
0.0
  0
LINE
  5
1F3
100
AcDbEntity
  8
SLD-0
  6
PHANTOM2
 62
       7
100
AcDbLine
 10
35.57169478
 20
-369.7913473
 30
0.0
 11
35.57169478
 21
-277.79134731
 31
0.0
  0
LINE
  5
1F4
100
AcDbEntity
  8
SLD-0
  6
PHANTOM2
 62
       7
100
AcDbLine
 10
35.57169478
 20
-189.79095731
 30
0.0
 11
35.57169478
 21
-101.79095731
 31
0.0
  0
LINE
  5
1F5
100
AcDbEntity
  8
SLD-0
  6
PHANTOM2
 62
       7
100
AcDbLine
 10
-16.32830522
 20
-189.79095731
 30
0.0
 11
-16.32830522
 21
-101.79095731
 31
0.0
  0
LINE
  5
1F6
100
AcDbEntity
  8
SLD-0
  6
PHANTOM2
 62
       7
100
AcDbLine
 10
29.87169478
 20
-265.79134731
 30
0.0
 11
16.87169478
 21
-265.79134731
 31
0.0
  0
LINE
  5
1F7
100
AcDbEntity
  8
SLD-0
  6
PHANTOM2
 62
       7
100
AcDbLine
 10
16.87169478
 20
-277.79134731
 30
0.0
 11
16.87169478
 21
-265.79134731
 31
0.0
  0
LINE
  5
1F8
100
AcDbEntity
  8
SLD-0
  6
PHANTOM2
 62
       7
100
AcDbLine
 10
2.37169478
 20
-277.79134731
 30
0.0
 11
2.37169478
 21
-265.79134731
 31
0.0
  0
LINE
  5
1F9
100
AcDbEntity
  8
SLD-0
  6
PHANTOM2
 62
       7
100
AcDbLine
 10
-10.62830522
 20
-277.79134731
 30
0.0
 11
-10.62830522
 21
-265.79134731
 31
0.0
  0
LINE
  5
1FA
100
AcDbEntity
  8
SLD-0
  6
PHANTOM2
 62
       7
100
AcDbLine
 10
29.87169478
 20
-277.79134731
 30
0.0
 11
29.87169478
 21
-265.79134731
 31
0.0
  0
LINE
  5
1FB
100
AcDbEntity
  8
SLD-0
  6
PHANTOM2
 62
       7
100
AcDbLine
 10
2.37169478
 20
-265.79134731
 30
0.0
 11
-10.62830522
 21
-265.79134731
 31
0.0
  0
LINE
  5
1FC
100
AcDbEntity
  8
SLD-0
  6
PHANTOM2
 62
       7
100
AcDbLine
 10
2.37169478
 20
-175.79095731
 30
0.0
 11
-10.62830522
 21
-175.79095731
 31
0.0
  0
LINE
  5
1FD
100
AcDbEntity
  8
SLD-0
  6
PHANTOM2
 62
       7
100
AcDbLine
 10
2.37169478
 20
-175.79095731
 30
0.0
 11
2.37169478
 21
-125.79095731
 31
0.0
  0
LINE
  5
1FE
100
AcDbEntity
  8
SLD-0
  6
PHANTOM2
 62
       7
100
AcDbLine
 10
16.87169478
 20
-175.79095731
 30
0.0
 11
16.87169478
 21
-125.79095731
 31
0.0
  0
LINE
  5
1FF
100
AcDbEntity
  8
SLD-0
  6
PHANTOM2
 62
       7
100
AcDbLine
 10
29.87169478
 20
-175.79095731
 30
0.0
 11
29.87169478
 21
-125.79095731
 31
0.0
  0
LINE
  5
200
100
AcDbEntity
  8
SLD-0
  6
PHANTOM2
 62
       7
100
AcDbLine
 10
29.87169478
 20
-175.79095731
 30
0.0
 11
16.87169478
 21
-175.79095731
 31
0.0
  0
LINE
  5
201
100
AcDbEntity
  8
SLD-0
  6
PHANTOM2
 62
       7
100
AcDbLine
 10
-10.62830522
 20
-175.79095731
 30
0.0
 11
-10.62830522
 21
-125.79095731
 31
0.0
  0
LINE
  5
202
100
AcDbEntity
  8
SLD-0
  6
PHANTOM2
 62
       7
100
AcDbLine
 10
2.37169478
 20
-125.79095731
 30
0.0
 11
-10.62830522
 21
-125.79095731
 31
0.0
  0
LINE
  5
203
100
AcDbEntity
  8
SLD-0
  6
PHANTOM2
 62
       7
100
AcDbLine
 10
29.87169478
 20
-125.79095731
 30
0.0
 11
16.87169478
 21
-125.79095731
 31
0.0
  0
LINE
  5
204
100
AcDbEntity
  8
SLD-0
  6
PHANTOM2
 62
       7
100
AcDbLine
 10
2.37169478
 20
-174.29095731
 30
0.0
 11
-10.62830522
 21
-174.29095731
 31
0.0
  0
LINE
  5
205
100
AcDbEntity
  8
SLD-0
  6
PHANTOM2
 62
       7
100
AcDbLine
 10
2.37169478
 20
-167.79095731
 30
0.0
 11
-10.62830522
 21
-167.79095731
 31
0.0
  0
LINE
  5
206
100
AcDbEntity
  8
SLD-0
  6
PHANTOM2
 62
       7
100
AcDbLine
 10
2.37169478
 20
-166.29095731
 30
0.0
 11
-10.62830522
 21
-166.29095731
 31
0.0
  0
LINE
  5
207
100
AcDbEntity
  8
SLD-0
  6
PHANTOM2
 62
       7
100
AcDbLine
 10
29.87169478
 20
-167.79095731
 30
0.0
 11
16.87169478
 21
-167.79095731
 31
0.0
  0
LINE
  5
208
100
AcDbEntity
  8
SLD-0
  6
PHANTOM2
 62
       7
100
AcDbLine
 10
2.37169478
 20
-159.79095731
 30
0.0
 11
-10.62830522
 21
-159.79095731
 31
0.0
  0
LINE
  5
209
100
AcDbEntity
  8
SLD-0
  6
PHANTOM2
 62
       7
100
AcDbLine
 10
2.37169478
 20
-158.29095731
 30
0.0
 11
-10.62830522
 21
-158.29095731
 31
0.0
  0
LINE
  5
20A
100
AcDbEntity
  8
SLD-0
  6
PHANTOM2
 62
       7
100
AcDbLine
 10
29.87169478
 20
-159.79095731
 30
0.0
 11
16.87169478
 21
-159.79095731
 31
0.0
  0
LINE
  5
20B
100
AcDbEntity
  8
SLD-0
  6
PHANTOM2
 62
       7
100
AcDbLine
 10
2.37169478
 20
-151.79095731
 30
0.0
 11
-10.62830522
 21
-151.79095731
 31
0.0
  0
LINE
  5
20C
100
AcDbEntity
  8
SLD-0
  6
PHANTOM2
 62
       7
100
AcDbLine
 10
2.37169478
 20
-150.29095731
 30
0.0
 11
-10.62830522
 21
-150.29095731
 31
0.0
  0
LINE
  5
20D
100
AcDbEntity
  8
SLD-0
  6
PHANTOM2
 62
       7
100
AcDbLine
 10
29.87169478
 20
-151.79095731
 30
0.0
 11
16.87169478
 21
-151.79095731
 31
0.0
  0
LINE
  5
20E
100
AcDbEntity
  8
SLD-0
  6
PHANTOM2
 62
       7
100
AcDbLine
 10
2.37169478
 20
-143.79095731
 30
0.0
 11
-10.62830522
 21
-143.79095731
 31
0.0
  0
LINE
  5
20F
100
AcDbEntity
  8
SLD-0
  6
PHANTOM2
 62
       7
100
AcDbLine
 10
2.37169478
 20
-142.29095731
 30
0.0
 11
-10.62830522
 21
-142.29095731
 31
0.0
  0
LINE
  5
210
100
AcDbEntity
  8
SLD-0
  6
PHANTOM2
 62
       7
100
AcDbLine
 10
29.87169478
 20
-143.79095731
 30
0.0
 11
16.87169478
 21
-143.79095731
 31
0.0
  0
LINE
  5
211
100
AcDbEntity
  8
SLD-0
  6
PHANTOM2
 62
       7
100
AcDbLine
 10
2.37169478
 20
-135.79095731
 30
0.0
 11
-10.62830522
 21
-135.79095731
 31
0.0
  0
LINE
  5
212
100
AcDbEntity
  8
SLD-0
  6
PHANTOM2
 62
       7
100
AcDbLine
 10
2.37169478
 20
-134.29095731
 30
0.0
 11
-10.62830522
 21
-134.29095731
 31
0.0
  0
LINE
  5
213
100
AcDbEntity
  8
SLD-0
  6
PHANTOM2
 62
       7
100
AcDbLine
 10
29.87169478
 20
-135.79095731
 30
0.0
 11
16.87169478
 21
-135.79095731
 31
0.0
  0
LINE
  5
214
100
AcDbEntity
  8
SLD-0
  6
PHANTOM2
 62
       7
100
AcDbLine
 10
35.57169478
 20
-116.79095731
 30
0.0
 11
-16.32830522
 21
-116.79095731
 31
0.0
  0
LINE
  5
215
100
AcDbEntity
  8
SLD-0
  6
PHANTOM2
 62
       7
100
AcDbLine
 10
35.57169478
 20
-180.79095731
 30
0.0
 11
-16.32830522
 21
-180.79095731
 31
0.0
  0
LINE
  5
216
100
AcDbEntity
  8
SLD-0
  6
PHANTOM2
 62
       7
100
AcDbLine
 10
11.62169478
 20
-180.79095731
 30
0.0
 11
11.62169478
 21
-116.79095731
 31
0.0
  0
LINE
  5
217
100
AcDbEntity
  8
SLD-0
  6
PHANTOM2
 62
       7
100
AcDbLine
 10
7.62169478
 20
-180.79095731
 30
0.0
 11
7.62169478
 21
-116.79095731
 31
0.0
  0
LINE
  5
218
100
AcDbEntity
  8
SLD-0_1
  6
PHANTOM2
 62
       7
100
AcDbLine
 10
29.87169478
 20
-174.29095731
 30
0.0
 11
16.87169478
 21
-174.29095731
 31
0.0
  0
LINE
  5
219
100
AcDbEntity
  8
SLD-0_1
  6
PHANTOM2
 62
       7
100
AcDbLine
 10
29.87169478
 20
-166.29095731
 30
0.0
 11
16.87169478
 21
-166.29095731
 31
0.0
  0
LINE
  5
21A
100
AcDbEntity
  8
SLD-0_1
  6
PHANTOM2
 62
       7
100
AcDbLine
 10
29.87169478
 20
-158.29095731
 30
0.0
 11
16.87169478
 21
-158.29095731
 31
0.0
  0
LINE
  5
21B
100
AcDbEntity
  8
SLD-0_1
  6
PHANTOM2
 62
       7
100
AcDbLine
 10
29.87169478
 20
-150.29095731
 30
0.0
 11
16.87169478
 21
-150.29095731
 31
0.0
  0
LINE
  5
21C
100
AcDbEntity
  8
SLD-0_1
  6
PHANTOM2
 62
       7
100
AcDbLine
 10
29.87169478
 20
-142.29095731
 30
0.0
 11
16.87169478
 21
-142.29095731
 31
0.0
  0
LINE
  5
21D
100
AcDbEntity
  8
SLD-0_1
  6
PHANTOM2
 62
       7
100
AcDbLine
 10
29.87169478
 20
-134.29095731
 30
0.0
 11
16.87169478
 21
-134.29095731
 31
0.0
  0
LINE
  5
21E
100
AcDbEntity
  8
SLD-0_0
  6
PHANTOM2
 62
       7
100
AcDbLine
 10
35.57169478
 20
-189.79095731
 30
0.0
 11
-16.32830522
 21
-189.79095731
 31
0.0
  0
LINE
  5
21F
100
AcDbEntity
  8
SLD-0_2
  6
CONTINUOUS
 62
       7
100
AcDbLine
 10
56.13204277
 20
138.79021864
 30
0.0
 11
56.13204277
 21
126.53914162
 31
0.0
  0
LINE
  5
220
100
AcDbEntity
  8
SLD-0_2
  6
CONTINUOUS
 62
       7
100
AcDbLine
 10
60.38394675
 20
126.53914162
 30
0.0
 11
60.38394675
 21
114.29009125
 31
0.0
  0
LINE
  5
221
100
AcDbEntity
  8
SLD-0_2
  6
CONTINUOUS
 62
       7
100
AcDbLine
 10
94.38296543
 20
126.53914162
 30
0.0
 11
94.38296543
 21
114.29009125
 31
0.0
  0
LINE
  5
222
100
AcDbEntity
  8
SLD-0_2
  6
CONTINUOUS
 62
       7
100
AcDbLine
 10
80.4335588
 20
126.53914162
 30
0.0
 11
80.4335588
 21
138.79021864
 31
0.0
  0
LINE
  5
223
100
AcDbEntity
  8
SLD-0_2
  6
CONTINUOUS
 62
       7
100
AcDbLine
 10
143.67169478
 20
98.2086527
 30
0.0
 11
-36.32830522
 21
98.2086527
 31
0.0
  0
LINE
  5
224
100
AcDbEntity
  8
SLD-0_2
  6
CONTINUOUS
 62
       7
100
AcDbLine
 10
107.13361076
 20
138.79021864
 30
0.0
 11
107.13361076
 21
126.53914162
 31
0.0
  0
LINE
  5
225
100
AcDbEntity
  8
SLD-0_2
  6
CONTINUOUS
 62
       7
100
AcDbLine
 10
44.17169478
 20
114.2090254
 30
0.0
 11
121.65675976
 21
114.2090254
 31
0.0
  0
LINE
  5
226
100
AcDbEntity
  8
SLD-0_2
  6
CONTINUOUS
 62
       7
100
AcDbLine
 10
-36.32830522
 20
100.2086527
 30
0.0
 11
-36.32830522
 21
98.2086527
 31
0.0
  0
LINE
  5
227
100
AcDbEntity
  8
SLD-0_2
  6
CONTINUOUS
 62
       7
100
AcDbLine
 10
68.88471474
 20
126.53914162
 30
0.0
 11
68.88471474
 21
114.29009125
 31
0.0
  0
LINE
  5
228
100
AcDbEntity
  8
SLD-0_2
  6
CONTINUOUS
 62
       7
100
AcDbLine
 10
119.8842561
 20
138.79021864
 30
0.0
 11
46.13459646
 21
138.79021864
 31
0.0
  0
LINE
  5
229
100
AcDbEntity
  8
SLD-0_2
  6
CONTINUOUS
 62
       7
100
AcDbLine
 10
88.93331347
 20
126.53914162
 30
0.0
 11
88.93331347
 21
138.79021864
 31
0.0
  0
LINE
  5
22A
100
AcDbEntity
  8
SLD-0_2
  6
CONTINUOUS
 62
       7
100
AcDbLine
 10
105.93180949
 20
126.53914162
 30
0.0
 11
105.93180949
 21
138.79021864
 31
0.0
  0
LINE
  5
22B
100
AcDbEntity
  8
SLD-0_2
  6
CONTINUOUS
 62
       7
100
AcDbLine
 10
44.17169478
 20
111.20756219
 30
0.0
 11
123.67169478
 21
111.20756219
 31
0.0
  0
LINE
  5
22C
100
AcDbEntity
  8
SLD-0_2
  6
CONTINUOUS
 62
       7
100
AcDbLine
 10
47.63127477
 20
132.48329527
 30
0.0
 11
114.43257749
 21
132.48329527
 31
0.0
  0
LINE
  5
22D
100
AcDbEntity
  8
SLD-0_2
  6
CONTINUOUS
 62
       7
100
AcDbLine
 10
67.68291347
 20
114.29009125
 30
0.0
 11
67.68291347
 21
126.53914162
 31
0.0
  0
LINE
  5
22E
100
AcDbEntity
  8
SLD-0_2
  6
CONTINUOUS
 62
       7
100
AcDbLine
 10
85.88523741
 20
126.53914162
 30
0.0
 11
85.88523741
 21
114.29009125
 31
0.0
  0
LINE
  5
22F
100
AcDbEntity
  8
SLD-0_2
  6
CONTINUOUS
 62
       7
100
AcDbLine
 10
84.68343614
 20
114.29009125
 30
0.0
 11
84.68343614
 21
126.53914162
 31
0.0
  0
LINE
  5
230
100
AcDbEntity
  8
SLD-0_2
  6
CONTINUOUS
 62
       7
100
AcDbLine
 10
110.1847268
 20
114.29009125
 30
0.0
 11
110.1847268
 21
126.53914162
 31
0.0
  0
LINE
  5
231
100
AcDbEntity
  8
SLD-0_2
  6
CONTINUOUS
 62
       7
100
AcDbLine
 10
54.93226814
 20
126.53914162
 30
0.0
 11
54.93226814
 21
138.79021864
 31
0.0
  0
LINE
  5
232
100
AcDbEntity
  8
SLD-0_2
  6
CONTINUOUS
 62
       7
100
AcDbLine
 10
64.63179744
 20
138.79021864
 30
0.0
 11
64.63179744
 21
126.53914162
 31
0.0
  0
LINE
  5
233
100
AcDbEntity
  8
SLD-0_2
  6
CONTINUOUS
 62
       7
100
AcDbLine
 10
63.43202282
 20
126.53914162
 30
0.0
 11
63.43202282
 21
138.79021864
 31
0.0
  0
LINE
  5
234
100
AcDbEntity
  8
SLD-0_2
  6
CONTINUOUS
 62
       7
100
AcDbLine
 10
81.6323201
 20
138.79021864
 30
0.0
 11
81.6323201
 21
126.53914162
 31
0.0
  0
LINE
  5
235
100
AcDbEntity
  8
SLD-0_2
  6
CONTINUOUS
 62
       7
100
AcDbLine
 10
51.88317875
 20
114.29009125
 30
0.0
 11
122.17169478
 21
114.29009125
 31
0.0
  0
LINE
  5
236
100
AcDbEntity
  8
SLD-0_2
  6
CONTINUOUS
 62
       7
100
AcDbLine
 10
97.43408147
 20
126.53914162
 30
0.0
 11
97.43408147
 21
138.79021864
 31
0.0
  0
LINE
  5
237
100
AcDbEntity
  8
SLD-0_2
  6
CONTINUOUS
 62
       7
100
AcDbLine
 10
46.13459646
 20
126.53914162
 30
0.0
 11
119.8842561
 21
126.53914162
 31
0.0
  0
LINE
  5
238
100
AcDbEntity
  8
SLD-0_2
  6
CONTINUOUS
 62
       7
100
AcDbLine
 10
44.17169478
 20
100.2086527
 30
0.0
 11
-36.32830522
 21
100.2086527
 31
0.0
  0
LINE
  5
239
100
AcDbEntity
  8
SLD-0_2
  6
CONTINUOUS
 62
       7
100
AcDbLine
 10
123.67169478
 20
111.20756219
 30
0.0
 11
123.67169478
 21
98.2086527
 31
0.0
  0
LINE
  5
23A
100
AcDbEntity
  8
SLD-0_2
  6
CONTINUOUS
 62
       7
100
AcDbLine
 10
73.13256543
 20
138.79021864
 30
0.0
 11
73.13256543
 21
126.53914162
 31
0.0
  0
LINE
  5
23B
100
AcDbEntity
  8
SLD-0_2
  6
CONTINUOUS
 62
       7
100
AcDbLine
 10
46.13459646
 20
114.29009125
 30
0.0
 11
46.13459646
 21
126.53914162
 31
0.0
  0
LINE
  5
23C
100
AcDbEntity
  8
SLD-0_2
  6
CONTINUOUS
 62
       7
100
AcDbLine
 10
47.63330142
 20
138.79021864
 30
0.0
 11
47.63330142
 21
126.53914162
 31
0.0
  0
LINE
  5
23D
100
AcDbEntity
  8
SLD-0_2
  6
CONTINUOUS
 62
       7
100
AcDbLine
 10
51.88317875
 20
118.55618175
 30
0.0
 11
118.6854948
 21
118.55618175
 31
0.0
  0
LINE
  5
23E
100
AcDbEntity
  8
SLD-0_2
  6
CONTINUOUS
 62
       7
100
AcDbLine
 10
46.13459646
 20
138.79021864
 30
0.0
 11
46.13459646
 21
126.53914162
 31
0.0
  0
LINE
  5
23F
100
AcDbEntity
  8
SLD-0_2
  6
CONTINUOUS
 62
       7
100
AcDbLine
 10
101.6839588
 20
114.29009125
 30
0.0
 11
101.6839588
 21
126.53914162
 31
0.0
  0
LINE
  5
240
100
AcDbEntity
  8
SLD-0_2
  6
CONTINUOUS
 62
       7
100
AcDbLine
 10
98.63385609
 20
138.79021864
 30
0.0
 11
98.63385609
 21
126.53914162
 31
0.0
  0
LINE
  5
241
100
AcDbEntity
  8
SLD-0_2
  6
CONTINUOUS
 62
       7
100
AcDbLine
 10
102.88373343
 20
126.53914162
 30
0.0
 11
102.88373343
 21
114.29009125
 31
0.0
  0
LINE
  5
242
100
AcDbEntity
  8
SLD-0_2
  6
CONTINUOUS
 62
       7
100
AcDbLine
 10
90.1330881
 20
138.79021864
 30
0.0
 11
90.1330881
 21
126.53914162
 31
0.0
  0
LINE
  5
243
100
AcDbEntity
  8
SLD-0_2
  6
CONTINUOUS
 62
       7
100
AcDbLine
 10
51.88317875
 20
126.53914162
 30
0.0
 11
51.88317875
 21
114.29009125
 31
0.0
  0
LINE
  5
244
100
AcDbEntity
  8
SLD-0_2
  6
CONTINUOUS
 62
       7
100
AcDbLine
 10
76.18266814
 20
114.29009125
 30
0.0
 11
76.18266814
 21
126.53914162
 31
0.0
  0
LINE
  5
245
100
AcDbEntity
  8
SLD-0_2
  6
CONTINUOUS
 62
       7
100
AcDbLine
 10
71.93279081
 20
126.53914162
 30
0.0
 11
71.93279081
 21
138.79021864
 31
0.0
  0
LINE
  5
246
100
AcDbEntity
  8
SLD-0_2
  6
CONTINUOUS
 62
       7
100
AcDbLine
 10
51.88317875
 20
120.23221826
 30
0.0
 11
118.6854948
 21
120.23221826
 31
0.0
  0
LINE
  5
247
100
AcDbEntity
  8
SLD-0_2
  6
CONTINUOUS
 62
       7
100
AcDbLine
 10
143.67169478
 20
100.2086527
 30
0.0
 11
143.67169478
 21
98.2086527
 31
0.0
  0
LINE
  5
248
100
AcDbEntity
  8
SLD-0_2
  6
CONTINUOUS
 62
       7
100
AcDbLine
 10
111.3834881
 20
126.53914162
 30
0.0
 11
111.3834881
 21
114.29009125
 31
0.0
  0
LINE
  5
249
100
AcDbEntity
  8
SLD-0_2
  6
CONTINUOUS
 62
       7
100
AcDbLine
 10
121.65675976
 20
114.2090254
 30
0.0
 11
121.65675976
 21
111.20756219
 31
0.0
  0
LINE
  5
24A
100
AcDbEntity
  8
SLD-0_2
  6
CONTINUOUS
 62
       7
100
AcDbLine
 10
47.63127477
 20
130.55595462
 30
0.0
 11
114.43257749
 21
130.55595462
 31
0.0
  0
LINE
  5
24B
100
AcDbEntity
  8
SLD-0_2
  6
CONTINUOUS
 62
       7
100
AcDbLine
 10
143.67169478
 20
100.2086527
 30
0.0
 11
123.67169478
 21
100.2086527
 31
0.0
  0
LINE
  5
24C
100
AcDbEntity
  8
SLD-0_2
  6
CONTINUOUS
 62
       7
100
AcDbLine
 10
77.38446941
 20
126.53914162
 30
0.0
 11
77.38446941
 21
114.29009125
 31
0.0
  0
LINE
  5
24D
100
AcDbEntity
  8
SLD-0_2
  6
CONTINUOUS
 62
       7
100
AcDbLine
 10
93.18420413
 20
114.29009125
 30
0.0
 11
93.18420413
 21
126.53914162
 31
0.0
  0
LINE
  5
24E
100
AcDbEntity
  8
SLD-0_2
  6
CONTINUOUS
 62
       7
100
AcDbLine
 10
59.18417213
 20
114.29009125
 30
0.0
 11
59.18417213
 21
126.53914162
 31
0.0
  0
LINE
  5
24F
100
AcDbEntity
  8
SLD-0_2
  6
CONTINUOUS
 62
       7
100
AcDbLine
 10
111.3834881
 20
126.53914162
 30
0.0
 11
51.88317875
 21
126.53914162
 31
0.0
  0
LINE
  5
250
100
AcDbEntity
  8
SLD-0_2
  6
PHANTOM
 62
       7
100
AcDbLine
 10
122.17169478
 20
183.50865269
 30
0.0
 11
122.17169478
 21
114.2090254
 31
0.0
  0
LINE
  5
251
100
AcDbEntity
  8
SLD-0_2
  6
PHANTOM
 62
       7
100
AcDbLine
 10
104.17169478
 20
183.50865269
 30
0.0
 11
104.17169478
 21
138.79021864
 31
0.0
  0
LINE
  5
252
100
AcDbEntity
  8
SLD-0_2
  6
PHANTOM
 62
       7
100
AcDbLine
 10
65.17169478
 20
183.50865269
 30
0.0
 11
47.17169478
 21
183.50865269
 31
0.0
  0
LINE
  5
253
100
AcDbEntity
  8
SLD-0_2
  6
PHANTOM
 62
       7
100
AcDbLine
 10
120.84151895
 20
183.48790325
 30
0.0
 11
120.84151895
 21
183.7086527
 31
0.0
  0
LINE
  5
254
100
AcDbEntity
  8
SLD-0_2
  6
PHANTOM
 62
       7
100
AcDbLine
 10
122.17169478
 20
183.50865269
 30
0.0
 11
104.17169478
 21
183.50865269
 31
0.0
  0
LINE
  5
255
100
AcDbEntity
  8
SLD-0_2
  6
PHANTOM
 62
       7
100
AcDbLine
 10
63.84151894
 20
183.48790325
 30
0.0
 11
63.84151894
 21
183.7086527
 31
0.0
  0
LINE
  5
256
100
AcDbEntity
  8
SLD-0_2
  6
PHANTOM
 62
       7
100
AcDbLine
 10
65.17169478
 20
183.50865269
 30
0.0
 11
65.17169478
 21
138.79021864
 31
0.0
  0
LINE
  5
257
100
AcDbEntity
  8
SLD-0_2
  6
PHANTOM
 62
       7
100
AcDbLine
 10
62.34151894
 20
185.2086527
 30
0.0
 11
60.04386546
 21
185.2086527
 31
0.0
  0
LINE
  5
258
100
AcDbEntity
  8
SLD-0_2
  6
PHANTOM
 62
       7
100
AcDbLine
 10
115.54386546
 20
183.48790325
 30
0.0
 11
115.54386546
 21
183.7086527
 31
0.0
  0
LINE
  5
259
100
AcDbEntity
  8
SLD-0_2
  6
PHANTOM
 62
       7
100
AcDbLine
 10
47.17169478
 20
183.50865269
 30
0.0
 11
47.17169478
 21
138.79021864
 31
0.0
  0
LINE
  5
25A
100
AcDbEntity
  8
SLD-0_2
  6
PHANTOM
 62
       7
100
AcDbLine
 10
58.54386546
 20
183.48790325
 30
0.0
 11
58.54386546
 21
183.7086527
 31
0.0
  0
LINE
  5
25B
100
AcDbEntity
  8
SLD-0_2
  6
PHANTOM
 62
       7
100
AcDbLine
 10
119.34151895
 20
185.2086527
 30
0.0
 11
117.04386546
 21
185.2086527
 31
0.0
  0
ARC
  5
25C
100
AcDbEntity
  8
SLD-0_2
  6
PHANTOM
 62
       7
100
AcDbCircle
 10
62.34151894
 20
183.7086527
 30
0.0
 40
1.5
100
AcDbArc
 50
0.0
 51
90.0
  0
ARC
  5
25D
100
AcDbEntity
  8
SLD-0_2
  6
PHANTOM
 62
       7
100
AcDbCircle
 10
119.34151895
 20
183.7086527
 30
0.0
 40
1.5
100
AcDbArc
 50
0.0
 51
90.0
  0
ARC
  5
25E
100
AcDbEntity
  8
SLD-0_2
  6
PHANTOM
 62
       7
100
AcDbCircle
 10
117.04386546
 20
183.7086527
 30
0.0
 40
1.5
100
AcDbArc
 50
90.0
 51
180.0
  0
ARC
  5
25F
100
AcDbEntity
  8
SLD-0_2
  6
PHANTOM
 62
       7
100
AcDbCircle
 10
60.04386546
 20
183.7086527
 30
0.0
 40
1.5
100
AcDbArc
 50
90.0
 51
180.0
  0
TEXT
  5
260
100
AcDbEntity
  8
SLD-0_3
 62
       7
100
AcDbText
 10
-143.67169478
 20
350.52455708
 30
0.0
 40
10.0
  1
-R
 72
       5
 11
-123.67169478
 21
350.52455708
 31
0.0
100
AcDbText
  0
TEXT
  5
261
100
AcDbEntity
  8
SLD-0_3
 62
       7
100
AcDbText
 10
-129.59964198
 20
-104.42003163
 30
0.0
 40
10.0
  1
-K
 72
       5
 11
-109.59964198
 21
-104.42003163
 31
0.0
100
AcDbText
  0
ENDSEC
  0
SECTION
  2
OBJECTS
  0
DICTIONARY
  5
19
100
AcDbDictionary
  3
ACAD_GROUP
350
1A
  3
ACAD_MLINESTYLE
350
1B
  0
DICTIONARY
  5
1A
102
{ACAD_REACTORS
330
19
102
}
100
AcDbDictionary
  0
DICTIONARY
  5
1B
102
{ACAD_REACTORS
330
19
102
}
100
AcDbDictionary
  3
STANDARD
350
1C
  0
MLINESTYLE
  5
1C
102
{ACAD_REACTORS
330
1B
102
}
100
AcDbMlineStyle
  2
STANDARD
 70
       0
  3

 62
       0
 51
90.0
 52
90.0
 71
       2
 49
0.5
 62
     256
  6
BYLAYER
 49
-0.5
 62
     256
  6
BYLAYER
  0
ENDSEC
  0
EOF
