  0
SECTION
  2
HEADER
  9
$ACADVER
  1
AC1014
  9
$ACADMAINTVER
 70
       0
  9
$DWGCODEPAGE
  3
ANSI_932
  9
$INSBASE
 10
0.0
 20
0.0
 30
0.0
  9
$EXTMIN
 10
-201.41856257
 20
-392.15870581
 30
0.0
  9
$EXTMAX
 10
201.41856257
 20
389.65870581
 30
0.0
  9
$LIMMIN
 10
-214.00722273
 20
-416.59049993
  9
$LIMMAX
 10
214.00722273
 20
414.09049993
  9
$ORTHOMODE
 70
       0
  9
$REGENMODE
 70
       1
  9
$FILLMODE
 70
       1
  9
$QTEXTMODE
 70
       0
  9
$MIRRTEXT
 70
       1
  9
$DRAGMODE
 70
       2
  9
$LTSCALE
 40
1.0
  9
$OSMODE
 70
       0
  9
$ATTMODE
 70
       1
  9
$TEXTSIZE
 40
0.2
  9
$TRACEWID
 40
0.05
  9
$TEXTSTYLE
  7
STANDARD
  9
$CLAYER
  8
0
  9
$CELTYPE
  6
CONTINUOUS
  9
$CECOLOR
 62
     256
  9
$CELTSCALE
 40
1.0
  9
$DELOBJ
 70
       1
  9
$DISPSILH
 70
       0
  9
$DIMSCALE
 40
1.0
  9
$DIMASZ
 40
0.18
  9
$DIMEXO
 40
0.0625
  9
$DIMDLI
 40
0.38
  9
$DIMRND
 40
0.0
  9
$DIMDLE
 40
0.0
  9
$DIMEXE
 40
0.18
  9
$DIMTP
 40
0.0
  9
$DIMTM
 40
0.0
  9
$DIMTXT
 40
0.18
  9
$DIMCEN
 40
0.09
  9
$DIMTSZ
 40
0.0
  9
$DIMTOL
 70
       0
  9
$DIMLIM
 70
       0
  9
$DIMTIH
 70
       1
  9
$DIMTOH
 70
       1
  9
$DIMSE1
 70
       0
  9
$DIMSE2
 70
       0
  9
$DIMTAD
 70
       0
  9
$DIMZIN
 70
       0
  9
$DIMBLK
  1

  9
$DIMASO
 70
       1
  9
$DIMSHO
 70
       1
  9
$DIMPOST
  1

  9
$DIMAPOST
  1

  9
$DIMALT
 70
       0
  9
$DIMALTD
 70
       2
  9
$DIMALTF
 40
25.4
  9
$DIMLFAC
 40
1.0
  9
$DIMTOFL
 70
       0
  9
$DIMTVP
 40
0.0
  9
$DIMTIX
 70
       0
  9
$DIMSOXD
 70
       0
  9
$DIMSAH
 70
       0
  9
$DIMBLK1
  1

  9
$DIMBLK2
  1

  9
$DIMSTYLE
  2
STANDARD
  9
$DIMCLRD
 70
       0
  9
$DIMCLRE
 70
       0
  9
$DIMCLRT
 70
       0
  9
$DIMTFAC
 40
1.0
  9
$DIMGAP
 40
0.09
  9
$DIMJUST
 70
       0
  9
$DIMSD1
 70
       0
  9
$DIMSD2
 70
       0
  9
$DIMTOLJ
 70
       1
  9
$DIMTZIN
 70
       0
  9
$DIMALTZ
 70
       0
  9
$DIMALTTZ
 70
       0
  9
$DIMFIT
 70
       3
  9
$DIMUPT
 70
       0
  9
$DIMUNIT
 70
       2
  9
$DIMDEC
 70
       4
  9
$DIMTDEC
 70
       4
  9
$DIMALTU
 70
       2
  9
$DIMALTTD
 70
       2
  9
$DIMTXSTY
  7
STANDARD
  9
$DIMAUNIT
 70
       0
  9
$LUNITS
 70
       2
  9
$LUPREC
 70
       4
  9
$SKETCHINC
 40
0.1
  9
$FILLETRAD
 40
0.0
  9
$AUNITS
 70
       0
  9
$AUPREC
 70
       0
  9
$MENU
  1
acad
  9
$ELEVATION
 40
0.0
  9
$PELEVATION
 40
0.0
  9
$THICKNESS
 40
0.0
  9
$LIMCHECK
 70
       0
  9
$BLIPMODE
 70
       1
  9
$CHAMFERA
 40
0.0
  9
$CHAMFERB
 40
0.0
  9
$CHAMFERC
 40
0.0
  9
$CHAMFERD
 40
0.0
  9
$SKPOLY
 70
       0
  9
$TDCREATE
 40
0.000000000
  9
$TDUPDATE
 40
0.000000000
  9
$TDINDWG
 40
0.0000000000
  9
$TDUSRTIMER
 40
0.0000000000
  9
$USRTIMER
 70
       1
  9
$ANGBASE
 50
0.0
  9
$ANGDIR
 70
       0
  9
$PDMODE
 70
       0
  9
$PDSIZE
 40
1.0
  9
$PLINEWID
 40
0.0
  9
$COORDS
 70
       1
  9
$SPLFRAME
 70
       0
  9
$SPLINETYPE
 70
       6
  9
$SPLINESEGS
 70
       8
  9
$ATTDIA
 70
       0
  9
$ATTREQ
 70
       1
  9
$HANDLING
 70
       1
  9
$HANDSEED
  5
43F
  9
$SURFTAB1
 70
       6
  9
$SURFTAB2
 70
       6
  9
$SURFTYPE
 70
       6
  9
$SURFU
 70
       6
  9
$SURFV
 70
       6
  9
$UCSNAME
  2

  9
$UCSORG
 10
0.0
 20
0.0
 30
0.0
  9
$UCSXDIR
 10
1.0
 20
0.0
 30
0.0
  9
$UCSYDIR
 10
0.0
 20
1.0
 30
0.0
  9
$PUCSNAME
  2

  9
$PUCSORG
 10
0.0
 20
0.0
 30
0.0
  9
$PUCSXDIR
 10
1.0
 20
0.0
 30
0.0
  9
$PUCSYDIR
 10
0.0
 20
1.0
 30
0.0
  9
$USERI1
 70
       0
  9
$USERI2
 70
       0
  9
$USERI3
 70
       0
  9
$USERI4
 70
       0
  9
$USERI5
 70
       0
  9
$USERR1
 40
0.0
  9
$USERR2
 40
0.0
  9
$USERR3
 40
0.0
  9
$USERR4
 40
0.0
  9
$USERR5
 40
0.0
  9
$WORLDVIEW
 70
       1
  9
$SHADEDGE
 70
       3
  9
$SHADEDIF
 70
      70
  9
$TILEMODE
 70
       1
  9
$MAXACTVP
 70
      16
  9
$PINSBASE
 10
0.0
 20
0.0
 30
0.0
  9
$PLIMCHECK
 70
       0
  9
$PEXTMIN
 10
1.00000000E+20
 20
1.00000000E+20
 30
1.00000000E+20
  9
$PEXTMAX
 10
-1.00000000E+20
 20
-1.00000000E+20
 30
-1.00000000E+20
  9
$PLIMMIN
 10
0.0
 20
0.0
  9
$PLIMMAX
 10
12.0
 20
9.0
  9
$UNITMODE
 70
       0
  9
$VISRETAIN
 70
       0
  9
$PLINEGEN
 70
       1
  9
$PSLTSCALE
 70
       0
  9
$TREEDEPTH
 70
    3020
  9
$PICKSTYLE
 70
       1
  9
$CMLSTYLE
  2
STANDARD
  9
$CMLJUST
 70
       0
  9
$CMLSCALE
 40
1.0
  9
$PROXYGRAPHICS
 70
       0
  9
$MEASUREMENT
 70
       0
  0
ENDSEC
  0
SECTION
  2
CLASSES
  0
CLASS
  1
LWPOLYLINE
  2
AcDbPolyline
  3
"AutoCAD"
 90
        0
280
       0
281
       1
  0
CLASS
  1
IMAGE
  2
AcDbRasterImage
  3
ISM
 90
      127
280
       0
281
       1
  0
CLASS
  1
OLE2FRAME
  2
AcDbOle2Frame
  3
""
 90
        0
280
       0
281
       1
  0
CLASS
  1
HATCH
  2
AcDbHatch
  3
"ACAD_SEDONA"
 90
        0
280
       0
281
       1
  0
CLASS
  1
DICTIONARYVAR
  2
AcDbDictionaryVar
  3
"AutoCAD"
 90
        0
280
       0
281
       0
  0
CLASS
  1
RASTERVARIABLES
  2
AcDbRasterVariables
  3
ISM
 90
        0
280
       0
281
       0
  0
CLASS
  1
IMAGEDEF
  2
AcDbRasterImageDef
  3
ISM
 90
        0
280
       0
281
       0
  0
CLASS
  1
IMAGEDEF_REACTOR
  2
AcDbRasterImageDefReactor
  3
ISM
 90
        1
280
       0
281
       0
  0
CLASS
  1
IDBUFFER
  2
AcDbIdBuffer
  3
"Acad"
 90
        0
280
       0
281
       0
  0
CLASS
  1
SPATIAL_FILTER
  2
AcDbSpatialFilter
  3
"Acad"
 90
        0
280
       0
281
       0
  0
CLASS
  1
XRECORD
  2
AcDbXrecord
  3
"<Built In>"
 90
        0
280
       0
281
       0
  0
CLASS
  1
SORTENTSTABLE
  2
AcDbSortentsTable
  3
"AutoCAD"
 90
        0
280
       0
281
       0
  0
CLASS
  1
LAYER_INDEX
  2
AcDbLayerIndex
  3
"Acad"
 90
        0
280
       0
281
       0
  0
CLASS
  1
SPATIAL_INDEX
  2
AcDbSpatialIndex
  3
"Acad"
 90
        0
280
       0
281
       0
  0
CLASS
  1
OBJECT_PTR
  2
CAseDLPNTableRecord
  3
"ASE-LPNTableRecord"
 90
        1
280
       0
281
       0
  0
CLASS
  1
LAYOUT
  2
AcDbLayout
  3
"AutoCAD 2000"
 90
        1
280
       0
281
       0
  0
CLASS
  1
PLOTSETTINGS
  2
AcDbPlotSettings
  3
"AutoCAD 2000"
 90
        1
280
       0
281
       0
  0
CLASS
  1
ACDBDICTIONARYWDFLT
  2
AcDbDictionaryWithDefault
  3
"AutoCAD 2000"
 90
        1
280
       0
281
       0
  0
CLASS
  1
ACDBPLACEHOLDER
  2
AcDbPlaceHolder
  3
"AutoCAD 2000"
 90
        1
280
       0
281
       0
  0
CLASS
  1
VBA_PROJECT
  2
AcDbVbaProject
  3
"acadvba"
 90
        1
280
       0
281
       0
  0
CLASS
  1
WIPEOUT
  2
AcDbWipeout
  3
WipeOut|AutoCAD Express Tool|expresstools@autodesk.com
 90
      127
280
       0
281
       1
  0
CLASS
  1
WIPEOUTVARIABLES
  2
AcDbWipeoutVariables
  3
WipeOut|AutoCAD Express Tool|expresstools@autodesk.com
 90
        0
280
       0
281
       0
  0
CLASS
  1
RTEXT
  2
RText
  3
RText|AutoCAD Express Tool|expresstools@autodesk.com
 90
        0
280
       0
281
       1
  0
CLASS
  1
ARCALIGNEDTEXT
  2
AcDbArcAlignedText
  3
ATEXT|AutoCAD Express Tool|expresstools@autodesk.com
 90
        0
280
       0
281
       1
  0
ENDSEC
  0
SECTION
  2
TABLES
  0
TABLE
  2
VPORT
  5
7
100
AcDbSymbolTable
 70
       1
  0
VPORT
  5
15
100
AcDbSymbolTableRecord
100
AcDbViewportTableRecord
  2
*ACTIVE
 70
       0
 10
0.0
 20
0.0
 11
1.0
 21
1.0
 12
0.0
 22
-1.25
 13
0.0
 23
0.0
 14
1.0
 24
1.0
 15
0.0
 25
0.0
 16
0.0
 26
0.0
 36
1.0
 17
0.0
 27
0.0
 37
0.0
 40
830.68099985
 41
0.5152573
 42
50.0
 43
0.0
 44
0.0
 50
0.0
 51
0.0
 71
       0
 72
     100
 73
       1
 74
       1
 75
       0
 76
       0
 77
       0
 78
       0
  0
ENDTAB
  0
TABLE
  2
LTYPE
  5
4
100
AcDbSymbolTable
 70
      30
  0
LTYPE
  5
11
100
AcDbSymbolTableRecord
100
AcDbLinetypeTableRecord
  2
BYBLOCK
 70
      64
  3

 72
      65
 73
       0
 40
0.0
  0
LTYPE
  5
12
100
AcDbSymbolTableRecord
100
AcDbLinetypeTableRecord
  2
BYLAYER
 70
      64
  3

 72
      65
 73
       0
 40
0.0
  0
LTYPE
  5
13
100
AcDbSymbolTableRecord
100
AcDbLinetypeTableRecord
  2
CONTINUOUS
 70
      64
  3
Solid line
 72
      65
 73
       0
 40
0.0
  0
LTYPE
  5
1D
100
AcDbSymbolTableRecord
100
AcDbLinetypeTableRecord
  2
HIDDENX2
 70
      64
  3
CADPAC LINETYPE
 72
      65
 73
       2
 40
44.06608811
 49
33.04956608
 74
       0
 49
-11.01652203
 74
       0
  0
LTYPE
  5
1E
100
AcDbSymbolTableRecord
100
AcDbLinetypeTableRecord
  2
HIDDEN
 70
      64
  3
CADPAC LINETYPE
 72
      65
 73
       2
 40
33.04956608
 49
22.03304405
 74
       0
 49
-11.01652203
 74
       0
  0
LTYPE
  5
1F
100
AcDbSymbolTableRecord
100
AcDbLinetypeTableRecord
  2
HIDDEN2
 70
      64
  3
CADPAC LINETYPE
 72
      65
 73
       2
 40
27.54130507
 49
16.52478304
 74
       0
 49
-11.01652203
 74
       0
  0
LTYPE
  5
20
100
AcDbSymbolTableRecord
100
AcDbLinetypeTableRecord
  2
DASHED
 70
      64
  3
CADPAC LINETYPE
 72
      65
 73
       2
 40
33.04956608
 49
22.03304405
 74
       0
 49
-11.01652203
 74
       0
  0
LTYPE
  5
21
100
AcDbSymbolTableRecord
100
AcDbLinetypeTableRecord
  2
DASHED2
 70
      64
  3
CADPAC LINETYPE
 72
      65
 73
       2
 40
24.78717456
 49
16.52478304
 74
       0
 49
-8.26239152
 74
       0
  0
LTYPE
  5
22
100
AcDbSymbolTableRecord
100
AcDbLinetypeTableRecord
  2
DASHEDX2
 70
      64
  3
CADPAC LINETYPE
 72
      65
 73
       2
 40
49.57434912
 49
33.04956608
 74
       0
 49
-16.52478304
 74
       0
  0
LTYPE
  5
23
100
AcDbSymbolTableRecord
100
AcDbLinetypeTableRecord
  2
DOTX2
 70
      64
  3
CADPAC LINETYPE
 72
      65
 73
       2
 40
13.77065253
 49
0.0
 74
       0
 49
-13.77065253
 74
       0
  0
LTYPE
  5
24
100
AcDbSymbolTableRecord
100
AcDbLinetypeTableRecord
  2
DOT
 70
      64
  3
CADPAC LINETYPE
 72
      65
 73
       2
 40
11.01652203
 49
0.0
 74
       0
 49
-11.01652203
 74
       0
  0
LTYPE
  5
25
100
AcDbSymbolTableRecord
100
AcDbLinetypeTableRecord
  2
DOT2
 70
      64
  3
CADPAC LINETYPE
 72
      65
 73
       2
 40
8.26239152
 49
0.0
 74
       0
 49
-8.26239152
 74
       0
  0
LTYPE
  5
26
100
AcDbSymbolTableRecord
100
AcDbLinetypeTableRecord
  2
CENTERX2
 70
      64
  3
CADPAC LINETYPE
 72
      65
 73
       4
 40
66.09913216
 49
27.54130507
 74
       0
 49
-13.77065253
 74
       0
 49
11.01652203
 74
       0
 49
-13.77065253
 74
       0
  0
LTYPE
  5
27
100
AcDbSymbolTableRecord
100
AcDbLinetypeTableRecord
  2
CENTER
 70
      64
  3
CADPAC LINETYPE
 72
      65
 73
       4
 40
50.67600132
 49
22.03304405
 74
       0
 49
-11.01652203
 74
       0
 49
6.60991322
 74
       0
 49
-11.01652203
 74
       0
  0
LTYPE
  5
28
100
AcDbSymbolTableRecord
100
AcDbLinetypeTableRecord
  2
CENTER2
 70
      64
  3
CADPAC LINETYPE
 72
      65
 73
       4
 40
35.25287048
 49
16.52478304
 74
       0
 49
-8.26239152
 74
       0
 49
2.20330441
 74
       0
 49
-8.26239152
 74
       0
  0
LTYPE
  5
29
100
AcDbSymbolTableRecord
100
AcDbLinetypeTableRecord
  2
DASHDOTX2
 70
      64
  3
CADPAC LINETYPE
 72
      65
 73
       4
 40
55.08261013
 49
27.54130507
 74
       0
 49
-13.77065253
 74
       0
 49
0.0
 74
       0
 49
-13.77065253
 74
       0
  0
LTYPE
  5
2A
100
AcDbSymbolTableRecord
100
AcDbLinetypeTableRecord
  2
DASHDOT
 70
      64
  3
CADPAC LINETYPE
 72
      65
 73
       4
 40
44.06608811
 49
22.03304405
 74
       0
 49
-11.01652203
 74
       0
 49
0.0
 74
       0
 49
-11.01652203
 74
       0
  0
LTYPE
  5
2B
100
AcDbSymbolTableRecord
100
AcDbLinetypeTableRecord
  2
DASHDOT2
 70
      64
  3
CADPAC LINETYPE
 72
      65
 73
       4
 40
33.04956608
 49
16.52478304
 74
       0
 49
-8.26239152
 74
       0
 49
0.0
 74
       0
 49
-8.26239152
 74
       0
  0
LTYPE
  5
2C
100
AcDbSymbolTableRecord
100
AcDbLinetypeTableRecord
  2
DIVIDEX2
 70
      64
  3
CADPAC LINETYPE
 72
      65
 73
       6
 40
68.85326267
 49
27.54130507
 74
       0
 49
-13.77065253
 74
       0
 49
0.0
 74
       0
 49
-13.77065253
 74
       0
 49
0.0
 74
       0
 49
-13.77065253
 74
       0
  0
LTYPE
  5
2D
100
AcDbSymbolTableRecord
100
AcDbLinetypeTableRecord
  2
DIVIDE
 70
      64
  3
CADPAC LINETYPE
 72
      65
 73
       6
 40
55.08261013
 49
22.03304405
 74
       0
 49
-11.01652203
 74
       0
 49
0.0
 74
       0
 49
-11.01652203
 74
       0
 49
0.0
 74
       0
 49
-11.01652203
 74
       0
  0
LTYPE
  5
2E
100
AcDbSymbolTableRecord
100
AcDbLinetypeTableRecord
  2
DIVIDE2
 70
      64
  3
CADPAC LINETYPE
 72
      65
 73
       6
 40
41.3119576
 49
16.52478304
 74
       0
 49
-8.26239152
 74
       0
 49
0.0
 74
       0
 49
-8.26239152
 74
       0
 49
0.0
 74
       0
 49
-8.26239152
 74
       0
  0
LTYPE
  5
2F
100
AcDbSymbolTableRecord
100
AcDbLinetypeTableRecord
  2
BORDERX2
 70
      64
  3
CADPAC LINETYPE
 72
      65
 73
       6
 40
96.39456773
 49
27.54130507
 74
       0
 49
-13.77065253
 74
       0
 49
27.54130507
 74
       0
 49
-13.77065253
 74
       0
 49
0.0
 74
       0
 49
-13.77065253
 74
       0
  0
LTYPE
  5
30
100
AcDbSymbolTableRecord
100
AcDbLinetypeTableRecord
  2
BORDER
 70
      64
  3
CADPAC LINETYPE
 72
      65
 73
       6
 40
77.11565419
 49
22.03304405
 74
       0
 49
-11.01652203
 74
       0
 49
22.03304405
 74
       0
 49
-11.01652203
 74
       0
 49
0.0
 74
       0
 49
-11.01652203
 74
       0
  0
LTYPE
  5
31
100
AcDbSymbolTableRecord
100
AcDbLinetypeTableRecord
  2
BORDER2
 70
      64
  3
CADPAC LINETYPE
 72
      65
 73
       6
 40
57.83674064
 49
16.52478304
 74
       0
 49
-8.26239152
 74
       0
 49
16.52478304
 74
       0
 49
-8.26239152
 74
       0
 49
0.0
 74
       0
 49
-8.26239152
 74
       0
  0
LTYPE
  5
32
100
AcDbSymbolTableRecord
100
AcDbLinetypeTableRecord
  2
PHANTOMX2
 70
      64
  3
CADPAC LINETYPE
 72
      65
 73
       6
 40
82.6239152
 49
27.54130507
 74
       0
 49
-11.01652203
 74
       0
 49
11.01652203
 74
       0
 49
-11.01652203
 74
       0
 49
11.01652203
 74
       0
 49
-11.01652203
 74
       0
  0
LTYPE
  5
33
100
AcDbSymbolTableRecord
100
AcDbLinetypeTableRecord
  2
PHANTOM
 70
      64
  3
CADPAC LINETYPE
 72
      65
 73
       6
 40
68.30243656
 49
22.03304405
 74
       0
 49
-11.01652203
 74
       0
 49
6.60991322
 74
       0
 49
-11.01652203
 74
       0
 49
6.60991322
 74
       0
 49
-11.01652203
 74
       0
  0
LTYPE
  5
34
100
AcDbSymbolTableRecord
100
AcDbLinetypeTableRecord
  2
PHANTOM2
 70
      64
  3
CADPAC LINETYPE
 72
      65
 73
       6
 40
58.38756674
 49
16.52478304
 74
       0
 49
-11.01652203
 74
       0
 49
4.40660881
 74
       0
 49
-11.01652203
 74
       0
 49
4.40660881
 74
       0
 49
-11.01652203
 74
       0
  0
LTYPE
  5
35
100
AcDbSymbolTableRecord
100
AcDbLinetypeTableRecord
  2
ACAD_ISO06W100
 70
      64
  3
CADPAC LINETYPE
 72
      65
 73
       8
 40
74.36152368
 49
27.54130507
 74
       0
 49
-13.77065253
 74
       0
 49
0.0
 74
       0
 49
-11.01652203
 74
       0
 49
0.0
 74
       0
 49
-11.01652203
 74
       0
 49
0.0
 74
       0
 49
-11.01652203
 74
       0
  0
LTYPE
  5
36
100
AcDbSymbolTableRecord
100
AcDbLinetypeTableRecord
  2
ACAD_ISO13W100
 70
      64
  3
CADPAC LINETYPE
 72
      65
 73
       8
 40
88.13217621
 49
22.03304405
 74
       0
 49
-11.01652203
 74
       0
 49
22.03304405
 74
       0
 49
-11.01652203
 74
       0
 49
0.0
 74
       0
 49
-11.01652203
 74
       0
 49
0.0
 74
       0
 49
-11.01652203
 74
       0
  0
LTYPE
  5
37
100
AcDbSymbolTableRecord
100
AcDbLinetypeTableRecord
  2
ACAD_ISO14W100
 70
      64
  3
CADPAC LINETYPE
 72
      65
 73
       8
 40
66.09913216
 49
22.03304405
 74
       0
 49
-11.01652203
 74
       0
 49
0.0
 74
       0
 49
-11.01652203
 74
       0
 49
0.0
 74
       0
 49
-11.01652203
 74
       0
 49
0.0
 74
       0
 49
-11.01652203
 74
       0
  0
ENDTAB
  0
TABLE
  2
LAYER
  5
2
100
AcDbSymbolTable
 70
       8
  0
LAYER
  5
14
100
AcDbSymbolTableRecord
100
AcDbLayerTableRecord
  2
0
 70
       0
 62
       7
  6
CONTINUOUS
  0
LAYER
  5
38
100
AcDbSymbolTableRecord
100
AcDbLayerTableRecord
  2
SLD-0_4
 70
       0
 62
       7
  6
CONTINUOUS
  0
LAYER
  5
39
100
AcDbSymbolTableRecord
100
AcDbLayerTableRecord
  2
SLD-0_3
 70
       0
 62
       7
  6
CONTINUOUS
  0
LAYER
  5
3A
100
AcDbSymbolTableRecord
100
AcDbLayerTableRecord
  2
SLD-0_2
 70
       0
 62
       7
  6
CONTINUOUS
  0
LAYER
  5
3B
100
AcDbSymbolTableRecord
100
AcDbLayerTableRecord
  2
SLD-0_1
 70
       0
 62
       7
  6
CONTINUOUS
  0
LAYER
  5
3C
100
AcDbSymbolTableRecord
100
AcDbLayerTableRecord
  2
SLD-0
 70
       0
 62
       7
  6
CONTINUOUS
  0
LAYER
  5
3D
100
AcDbSymbolTableRecord
100
AcDbLayerTableRecord
  2
SLD-0_0
 70
       0
 62
       7
  6
CONTINUOUS
  0
LAYER
  5
3E
100
AcDbSymbolTableRecord
100
AcDbLayerTableRecord
  2
レイヤー_1
 70
       0
 62
       7
  6
CONTINUOUS
  0
ENDTAB
  0
TABLE
  2
STYLE
  5
3
100
AcDbSymbolTable
 70
       1
  0
STYLE
  5
17
100
AcDbSymbolTableRecord
100
AcDbTextStyleTableRecord
  2
STANDARD
 70
       0
 40
0.0
 41
1.0
 50
0.0
 71
       0
 42
5.0
  3
txt.shx
  4
bigfont.shx
  0
ENDTAB
  0
TABLE
  2
VIEW
  5
5
100
AcDbSymbolTable
 70
       1
  0
VIEW
  5
3F
100
AcDbSymbolTableRecord
100
AcDbViewTableRecord
  2
QQQQ
 70
       0
 40
830.68099985
 10
0.0
 20
-1.25
 41
428.01444546
 11
0.0
 21
0.0
 31
1.0
 12
100.0
 22
100.0
 32
0.0
 42
50.0
 43
0.0
 44
0.0
 50
0.0
 71
       0
  0
ENDTAB
  0
TABLE
  2
UCS
  5
6
100
AcDbSymbolTable
 70
       0
  0
ENDTAB
  0
TABLE
  2
APPID
  5
8
100
AcDbSymbolTable
 70
       1
  0
APPID
  5
16
100
AcDbSymbolTableRecord
100
AcDbRegAppTableRecord
  2
ACAD
 70
       0
  0
ENDTAB
  0
TABLE
  2
DIMSTYLE
  5
9
100
AcDbSymbolTable
 70
       1
  0
DIMSTYLE
105
18
100
AcDbSymbolTableRecord
100
AcDbDimStyleTableRecord
  2
STANDARD
 70
       0
  3

  4

  5

  6

  7

 40
1.0
 41
0.18
 42
0.0625
 43
0.38
 44
0.18
 45
0.0
 46
0.0
 47
0.0
 48
0.0
 71
       0
 72
       0
 73
       1
 74
       1
 75
       0
 76
       0
 77
       0
 78
       0
140
0.18
141
0.09
142
0.0
143
25.4
144
1.0
145
0.0
146
1.0
147
0.09
170
       0
171
       2
172
       0
173
       0
174
       0
175
       0
176
       0
177
       0
178
       0
270
       2
271
       4
272
       4
273
       2
274
       2
275
       0
280
       0
281
       0
282
       0
283
       1
284
       0
285
       0
286
       0
287
       0
288
       0
340
17
  0
ENDTAB
  0
TABLE
  2
BLOCK_RECORD
  5
1
100
AcDbSymbolTable
 70
       0
  0
BLOCK_RECORD
  5
A
100
AcDbSymbolTableRecord
100
AcDbBlockTableRecord
  2
*MODEL_SPACE
  0
BLOCK_RECORD
  5
B
100
AcDbSymbolTableRecord
100
AcDbBlockTableRecord
  2
*PAPER_SPACE
  0
ENDTAB
  0
ENDSEC
  0
SECTION
  2
BLOCKS
  0
BLOCK
  5
D
100
AcDbEntity
  8
0
100
AcDbBlockBegin
  2
*MODEL_SPACE
 70
       0
 10
0.0
 20
0.0
 30
0.0
  3
*MODEL_SPACE
  1

  0
ENDBLK
  5
E
100
AcDbEntity
  8
0
100
AcDbBlockEnd
  0
BLOCK
  5
F
100
AcDbEntity
 67
       1
  8
0
100
AcDbBlockBegin
  2
*PAPER_SPACE
 70
       0
 10
0.0
 20
0.0
 30
0.0
  3
*PAPER_SPACE
  1

  0
ENDBLK
  5
10
100
AcDbEntity
 67
       1
  8
0
100
AcDbBlockEnd
  0
ENDSEC
  0
SECTION
  2
ENTITIES
  0
LINE
  5
40
100
AcDbEntity
  8
レイヤー_1
  6
CONTINUOUS
 62
       7
100
AcDbLine
 10
84.41375603
 20
-183.34741647
 30
0.0
 11
87.45169886
 21
-183.34741647
 31
0.0
  0
LINE
  5
41
100
AcDbEntity
  8
レイヤー_1
  6
CONTINUOUS
 62
       7
100
AcDbLine
 10
87.45169886
 20
-183.34741647
 30
0.0
 11
87.45169886
 21
-193.80491149
 31
0.0
  0
LINE
  5
42
100
AcDbEntity
  8
レイヤー_1
  6
CONTINUOUS
 62
       7
100
AcDbLine
 10
87.45169886
 20
-193.80491149
 30
0.0
 11
84.41375603
 21
-193.80491149
 31
0.0
  0
LINE
  5
43
100
AcDbEntity
  8
レイヤー_1
  6
CONTINUOUS
 62
       7
100
AcDbLine
 10
20.95743307
 20
-172.70346999
 30
0.0
 11
20.95743307
 21
-183.45280208
 31
0.0
  0
LINE
  5
44
100
AcDbEntity
  8
レイヤー_1
  6
CONTINUOUS
 62
       7
100
AcDbLine
 10
20.95743307
 20
-183.45280208
 30
0.0
 11
16.65182296
 21
-183.45280208
 31
0.0
  0
LINE
  5
45
100
AcDbEntity
  8
レイヤー_1
  6
CONTINUOUS
 62
       7
100
AcDbLine
 10
16.65182296
 20
-183.45280208
 30
0.0
 11
16.65182296
 21
-172.70346999
 31
0.0
  0
LINE
  5
46
100
AcDbEntity
  8
レイヤー_1
  6
CONTINUOUS
 62
       7
100
AcDbLine
 10
154.39689347
 20
-161.95312458
 30
0.0
 11
158.70149025
 21
-161.95312458
 31
0.0
  0
LINE
  5
47
100
AcDbEntity
  8
レイヤー_1
  6
CONTINUOUS
 62
       7
100
AcDbLine
 10
158.70149025
 20
-161.95312458
 30
0.0
 11
158.70149025
 21
-172.70346999
 31
0.0
  0
LINE
  5
48
100
AcDbEntity
  8
レイヤー_1
  6
CONTINUOUS
 62
       7
100
AcDbLine
 10
154.39689347
 20
-172.70346999
 30
0.0
 11
154.39689347
 21
-161.95312458
 31
0.0
  0
LINE
  5
49
100
AcDbEntity
  8
レイヤー_1
  6
CONTINUOUS
 62
       7
100
AcDbLine
 10
26.63204277
 20
-324.87162614
 30
0.0
 11
26.63204277
 21
-337.12270316
 31
0.0
  0
LINE
  5
4A
100
AcDbEntity
  8
レイヤー_1
  6
CONTINUOUS
 62
       7
100
AcDbLine
 10
25.43226814
 20
-337.12270316
 30
0.0
 11
25.43226814
 21
-324.87162614
 31
0.0
  0
LINE
  5
4B
100
AcDbEntity
  8
レイヤー_1
  6
CONTINUOUS
 62
       7
100
AcDbLine
 10
30.88394675
 20
-337.12270316
 30
0.0
 11
30.88394675
 21
-349.37175352
 31
0.0
  0
LINE
  5
4C
100
AcDbEntity
  8
レイヤー_1
  6
CONTINUOUS
 62
       7
100
AcDbLine
 10
29.68417213
 20
-349.37175352
 30
0.0
 11
29.68417213
 21
-337.12270316
 31
0.0
  0
LINE
  5
4D
100
AcDbEntity
  8
レイヤー_1
  6
CONTINUOUS
 62
       7
100
AcDbLine
 10
39.38471474
 20
-337.12270316
 30
0.0
 11
39.38471474
 21
-349.37175352
 31
0.0
  0
LINE
  5
4E
100
AcDbEntity
  8
レイヤー_1
  6
CONTINUOUS
 62
       7
100
AcDbLine
 10
38.18291347
 20
-349.37175352
 30
0.0
 11
38.18291347
 21
-337.12270316
 31
0.0
  0
LINE
  5
4F
100
AcDbEntity
  8
レイヤー_1
  6
CONTINUOUS
 62
       7
100
AcDbLine
 10
47.88446941
 20
-337.12270316
 30
0.0
 11
47.88446941
 21
-349.37175352
 31
0.0
  0
LINE
  5
50
100
AcDbEntity
  8
レイヤー_1
  6
CONTINUOUS
 62
       7
100
AcDbLine
 10
46.68266814
 20
-349.37175352
 30
0.0
 11
46.68266814
 21
-337.12270316
 31
0.0
  0
LINE
  5
51
100
AcDbEntity
  8
レイヤー_1
  6
CONTINUOUS
 62
       7
100
AcDbLine
 10
56.38523741
 20
-337.12270316
 30
0.0
 11
56.38523741
 21
-349.37175352
 31
0.0
  0
LINE
  5
52
100
AcDbEntity
  8
レイヤー_1
  6
CONTINUOUS
 62
       7
100
AcDbLine
 10
55.18343614
 20
-349.37175352
 30
0.0
 11
55.18343614
 21
-337.12270316
 31
0.0
  0
LINE
  5
53
100
AcDbEntity
  8
レイヤー_1
  6
CONTINUOUS
 62
       7
100
AcDbLine
 10
64.88296543
 20
-337.12270316
 30
0.0
 11
64.88296543
 21
-349.37175352
 31
0.0
  0
LINE
  5
54
100
AcDbEntity
  8
レイヤー_1
  6
CONTINUOUS
 62
       7
100
AcDbLine
 10
63.68420413
 20
-349.37175352
 30
0.0
 11
63.68420413
 21
-337.12270316
 31
0.0
  0
LINE
  5
55
100
AcDbEntity
  8
レイヤー_1
  6
CONTINUOUS
 62
       7
100
AcDbLine
 10
73.38373343
 20
-337.12270316
 30
0.0
 11
73.38373343
 21
-349.37175352
 31
0.0
  0
LINE
  5
56
100
AcDbEntity
  8
レイヤー_1
  6
CONTINUOUS
 62
       7
100
AcDbLine
 10
72.1839588
 20
-349.37175352
 30
0.0
 11
72.1839588
 21
-337.12270316
 31
0.0
  0
LINE
  5
57
100
AcDbEntity
  8
レイヤー_1
  6
CONTINUOUS
 62
       7
100
AcDbLine
 10
81.8834881
 20
-337.12270316
 30
0.0
 11
81.8834881
 21
-349.37175352
 31
0.0
  0
LINE
  5
58
100
AcDbEntity
  8
レイヤー_1
  6
CONTINUOUS
 62
       7
100
AcDbLine
 10
80.6847268
 20
-349.37175352
 30
0.0
 11
80.6847268
 21
-337.12270316
 31
0.0
  0
LINE
  5
59
100
AcDbEntity
  8
レイヤー_1
  6
CONTINUOUS
 62
       7
100
AcDbLine
 10
90.38425609
 20
-337.12270316
 30
0.0
 11
90.38425609
 21
-349.37175352
 31
0.0
  0
LINE
  5
5A
100
AcDbEntity
  8
レイヤー_1
  6
CONTINUOUS
 62
       7
100
AcDbLine
 10
89.18245482
 20
-349.37175352
 30
0.0
 11
89.18245482
 21
-337.12270316
 31
0.0
  0
LINE
  5
5B
100
AcDbEntity
  8
レイヤー_1
  6
CONTINUOUS
 62
       7
100
AcDbLine
 10
98.88299744
 20
-337.12270316
 30
0.0
 11
98.88299744
 21
-349.37175352
 31
0.0
  0
LINE
  5
5C
100
AcDbEntity
  8
レイヤー_1
  6
CONTINUOUS
 62
       7
100
AcDbLine
 10
97.68322282
 20
-349.37175352
 30
0.0
 11
97.68322282
 21
-337.12270316
 31
0.0
  0
LINE
  5
5D
100
AcDbEntity
  8
レイヤー_1
  6
CONTINUOUS
 62
       7
100
AcDbLine
 10
107.38275211
 20
-337.12270316
 30
0.0
 11
107.38275211
 21
-349.37175352
 31
0.0
  0
LINE
  5
5E
100
AcDbEntity
  8
レイヤー_1
  6
CONTINUOUS
 62
       7
100
AcDbLine
 10
106.18297749
 20
-349.37175352
 30
0.0
 11
106.18297749
 21
-337.12270316
 31
0.0
  0
LINE
  5
5F
100
AcDbEntity
  8
レイヤー_1
  6
CONTINUOUS
 62
       7
100
AcDbLine
 10
115.88250678
 20
-337.12270316
 30
0.0
 11
115.88250678
 21
-349.37175352
 31
0.0
  0
LINE
  5
60
100
AcDbEntity
  8
レイヤー_1
  6
CONTINUOUS
 62
       7
100
AcDbLine
 10
114.6847588
 20
-349.37175352
 30
0.0
 11
114.6847588
 21
-337.12270316
 31
0.0
  0
LINE
  5
61
100
AcDbEntity
  8
レイヤー_1
  6
CONTINUOUS
 62
       7
100
AcDbLine
 10
124.3842881
 20
-337.12270316
 30
0.0
 11
124.3842881
 21
-349.37175352
 31
0.0
  0
LINE
  5
62
100
AcDbEntity
  8
レイヤー_1
  6
CONTINUOUS
 62
       7
100
AcDbLine
 10
123.18451347
 20
-349.37175352
 30
0.0
 11
123.18451347
 21
-337.12270316
 31
0.0
  0
LINE
  5
63
100
AcDbEntity
  8
レイヤー_1
  6
CONTINUOUS
 62
       7
100
AcDbLine
 10
132.88404277
 20
-337.12270316
 30
0.0
 11
132.88404277
 21
-349.37175352
 31
0.0
  0
LINE
  5
64
100
AcDbEntity
  8
レイヤー_1
  6
CONTINUOUS
 62
       7
100
AcDbLine
 10
131.68426814
 20
-349.37175352
 30
0.0
 11
131.68426814
 21
-337.12270316
 31
0.0
  0
LINE
  5
65
100
AcDbEntity
  8
レイヤー_1
  6
CONTINUOUS
 62
       7
100
AcDbLine
 10
141.38379744
 20
-337.12270316
 30
0.0
 11
141.38379744
 21
-349.37175352
 31
0.0
  0
LINE
  5
66
100
AcDbEntity
  8
レイヤー_1
  6
CONTINUOUS
 62
       7
100
AcDbLine
 10
140.18402282
 20
-349.37175352
 30
0.0
 11
140.18402282
 21
-337.12270316
 31
0.0
  0
LINE
  5
67
100
AcDbEntity
  8
レイヤー_1
  6
CONTINUOUS
 62
       7
100
AcDbLine
 10
149.88557875
 20
-337.12270316
 30
0.0
 11
149.88557875
 21
-349.37175352
 31
0.0
  0
LINE
  5
68
100
AcDbEntity
  8
レイヤー_1
  6
CONTINUOUS
 62
       7
100
AcDbLine
 10
148.68377749
 20
-349.37175352
 30
0.0
 11
148.68377749
 21
-337.12270316
 31
0.0
  0
LINE
  5
69
100
AcDbEntity
  8
レイヤー_1
  6
CONTINUOUS
 62
       7
100
AcDbLine
 10
35.13179744
 20
-324.87162614
 30
0.0
 11
35.13179744
 21
-337.12270316
 31
0.0
  0
LINE
  5
6A
100
AcDbEntity
  8
レイヤー_1
  6
CONTINUOUS
 62
       7
100
AcDbLine
 10
33.93202282
 20
-337.12270316
 30
0.0
 11
33.93202282
 21
-324.87162614
 31
0.0
  0
LINE
  5
6B
100
AcDbEntity
  8
レイヤー_1
  6
CONTINUOUS
 62
       7
100
AcDbLine
 10
43.63256543
 20
-324.87162614
 30
0.0
 11
43.63256543
 21
-337.12270316
 31
0.0
  0
LINE
  5
6C
100
AcDbEntity
  8
レイヤー_1
  6
CONTINUOUS
 62
       7
100
AcDbLine
 10
42.43279081
 20
-337.12270316
 30
0.0
 11
42.43279081
 21
-324.87162614
 31
0.0
  0
LINE
  5
6D
100
AcDbEntity
  8
レイヤー_1
  6
CONTINUOUS
 62
       7
100
AcDbLine
 10
52.1323201
 20
-324.87162614
 30
0.0
 11
52.1323201
 21
-337.12270316
 31
0.0
  0
LINE
  5
6E
100
AcDbEntity
  8
レイヤー_1
  6
CONTINUOUS
 62
       7
100
AcDbLine
 10
50.9335588
 20
-337.12270316
 30
0.0
 11
50.9335588
 21
-324.87162614
 31
0.0
  0
LINE
  5
6F
100
AcDbEntity
  8
レイヤー_1
  6
CONTINUOUS
 62
       7
100
AcDbLine
 10
60.6330881
 20
-324.87162614
 30
0.0
 11
60.6330881
 21
-337.12270316
 31
0.0
  0
LINE
  5
70
100
AcDbEntity
  8
レイヤー_1
  6
CONTINUOUS
 62
       7
100
AcDbLine
 10
59.43331347
 20
-337.12270316
 30
0.0
 11
59.43331347
 21
-324.87162614
 31
0.0
  0
LINE
  5
71
100
AcDbEntity
  8
レイヤー_1
  6
CONTINUOUS
 62
       7
100
AcDbLine
 10
69.13385609
 20
-324.87162614
 30
0.0
 11
69.13385609
 21
-337.12270316
 31
0.0
  0
LINE
  5
72
100
AcDbEntity
  8
レイヤー_1
  6
CONTINUOUS
 62
       7
100
AcDbLine
 10
67.93408147
 20
-337.12270316
 30
0.0
 11
67.93408147
 21
-324.87162614
 31
0.0
  0
LINE
  5
73
100
AcDbEntity
  8
レイヤー_1
  6
CONTINUOUS
 62
       7
100
AcDbLine
 10
77.63361076
 20
-324.87162614
 30
0.0
 11
77.63361076
 21
-337.12270316
 31
0.0
  0
LINE
  5
74
100
AcDbEntity
  8
レイヤー_1
  6
CONTINUOUS
 62
       7
100
AcDbLine
 10
76.43180949
 20
-337.12270316
 30
0.0
 11
76.43180949
 21
-324.87162614
 31
0.0
  0
LINE
  5
75
100
AcDbEntity
  8
レイヤー_1
  6
CONTINUOUS
 62
       7
100
AcDbLine
 10
86.13235211
 20
-324.87162614
 30
0.0
 11
86.13235211
 21
-337.12270316
 31
0.0
  0
LINE
  5
76
100
AcDbEntity
  8
レイヤー_1
  6
CONTINUOUS
 62
       7
100
AcDbLine
 10
84.93257749
 20
-337.12270316
 30
0.0
 11
84.93257749
 21
-324.87162614
 31
0.0
  0
LINE
  5
77
100
AcDbEntity
  8
レイヤー_1
  6
CONTINUOUS
 62
       7
100
AcDbLine
 10
94.63210678
 20
-324.87162614
 30
0.0
 11
94.63210678
 21
-337.12270316
 31
0.0
  0
LINE
  5
78
100
AcDbEntity
  8
レイヤー_1
  6
CONTINUOUS
 62
       7
100
AcDbLine
 10
93.43334548
 20
-337.12270316
 30
0.0
 11
93.43334548
 21
-324.87162614
 31
0.0
  0
LINE
  5
79
100
AcDbEntity
  8
レイヤー_1
  6
CONTINUOUS
 62
       7
100
AcDbLine
 10
103.13287477
 20
-324.87162614
 30
0.0
 11
103.13287477
 21
-337.12270316
 31
0.0
  0
LINE
  5
7A
100
AcDbEntity
  8
レイヤー_1
  6
CONTINUOUS
 62
       7
100
AcDbLine
 10
101.9310735
 20
-337.12270316
 30
0.0
 11
101.9310735
 21
-324.87162614
 31
0.0
  0
LINE
  5
7B
100
AcDbEntity
  8
レイヤー_1
  6
CONTINUOUS
 62
       7
100
AcDbLine
 10
111.63262944
 20
-324.87162614
 30
0.0
 11
111.63262944
 21
-337.12270316
 31
0.0
  0
LINE
  5
7C
100
AcDbEntity
  8
レイヤー_1
  6
CONTINUOUS
 62
       7
100
AcDbLine
 10
110.43082818
 20
-337.12270316
 30
0.0
 11
110.43082818
 21
-324.87162614
 31
0.0
  0
LINE
  5
7D
100
AcDbEntity
  8
レイヤー_1
  6
CONTINUOUS
 62
       7
100
AcDbLine
 10
120.13441076
 20
-324.87162614
 30
0.0
 11
120.13441076
 21
-337.12270316
 31
0.0
  0
LINE
  5
7E
100
AcDbEntity
  8
レイヤー_1
  6
CONTINUOUS
 62
       7
100
AcDbLine
 10
118.93260949
 20
-337.12270316
 30
0.0
 11
118.93260949
 21
-324.87162614
 31
0.0
  0
LINE
  5
7F
100
AcDbEntity
  8
レイヤー_1
  6
CONTINUOUS
 62
       7
100
AcDbLine
 10
128.63416543
 20
-324.87162614
 30
0.0
 11
128.63416543
 21
-337.12270316
 31
0.0
  0
LINE
  5
80
100
AcDbEntity
  8
レイヤー_1
  6
CONTINUOUS
 62
       7
100
AcDbLine
 10
127.43236416
 20
-337.12270316
 30
0.0
 11
127.43236416
 21
-324.87162614
 31
0.0
  0
LINE
  5
81
100
AcDbEntity
  8
レイヤー_1
  6
CONTINUOUS
 62
       7
100
AcDbLine
 10
137.13189346
 20
-324.87162614
 30
0.0
 11
137.13189346
 21
-337.12270316
 31
0.0
  0
LINE
  5
82
100
AcDbEntity
  8
レイヤー_1
  6
CONTINUOUS
 62
       7
100
AcDbLine
 10
135.93211883
 20
-337.12270316
 30
0.0
 11
135.93211883
 21
-324.87162614
 31
0.0
  0
LINE
  5
83
100
AcDbEntity
  8
レイヤー_1
  6
CONTINUOUS
 62
       7
100
AcDbLine
 10
145.63164813
 20
-324.87162614
 30
0.0
 11
145.63164813
 21
-337.12270316
 31
0.0
  0
LINE
  5
84
100
AcDbEntity
  8
レイヤー_1
  6
CONTINUOUS
 62
       7
100
AcDbLine
 10
144.43390015
 20
-337.12270316
 30
0.0
 11
144.43390015
 21
-324.87162614
 31
0.0
  0
LINE
  5
85
100
AcDbEntity
  8
レイヤー_1
  6
CONTINUOUS
 62
       7
100
AcDbLine
 10
152.93365482
 20
-324.87162614
 30
0.0
 11
158.68122379
 21
-324.87162614
 31
0.0
  0
LINE
  5
86
100
AcDbEntity
  8
レイヤー_1
  6
CONTINUOUS
 62
       7
100
AcDbLine
 10
158.68122379
 20
-324.87162614
 30
0.0
 11
158.68122379
 21
-337.12270316
 31
0.0
  0
LINE
  5
87
100
AcDbEntity
  8
レイヤー_1
  6
CONTINUOUS
 62
       7
100
AcDbLine
 10
152.93365482
 20
-337.12270316
 30
0.0
 11
152.93365482
 21
-324.87162614
 31
0.0
  0
LINE
  5
88
100
AcDbEntity
  8
レイヤー_1
  6
CONTINUOUS
 62
       7
100
AcDbLine
 10
22.38317875
 20
-337.12270316
 30
0.0
 11
22.38317875
 21
-349.37175352
 31
0.0
  0
LINE
  5
89
100
AcDbEntity
  8
レイヤー_1
  6
CONTINUOUS
 62
       7
100
AcDbLine
 10
16.63459646
 20
-349.37175352
 30
0.0
 11
16.63459646
 21
-337.12270316
 31
0.0
  0
LINE
  5
8A
100
AcDbEntity
  8
レイヤー_1
  6
CONTINUOUS
 62
       7
100
AcDbLine
 10
157.18353216
 20
-337.12270316
 30
0.0
 11
157.18353216
 21
-349.37175352
 31
0.0
  0
LINE
  5
8B
100
AcDbEntity
  8
レイヤー_1
  6
CONTINUOUS
 62
       7
100
AcDbLine
 10
82.91505107
 20
-177.95349729
 30
0.0
 11
84.91636432
 21
-172.98517383
 31
0.0
  0
LINE
  5
8C
100
AcDbEntity
  8
レイヤー_1
  6
CONTINUOUS
 62
       7
100
AcDbLine
 10
84.91636432
 20
-172.98517383
 30
0.0
 11
78.66517374
 21
-172.98517383
 31
0.0
  0
LINE
  5
8D
100
AcDbEntity
  8
レイヤー_1
  6
CONTINUOUS
 62
       7
100
AcDbLine
 10
78.66517374
 20
-172.98517383
 30
0.0
 11
78.66517374
 21
-177.95349729
 31
0.0
  0
LINE
  5
8E
100
AcDbEntity
  8
レイヤー_1
  6
CONTINUOUS
 62
       7
100
AcDbLine
 10
70.91629153
 20
-177.95349729
 30
0.0
 11
68.91497829
 21
-172.98517383
 31
0.0
  0
LINE
  5
8F
100
AcDbEntity
  8
レイヤー_1
  6
CONTINUOUS
 62
       7
100
AcDbLine
 10
68.91497829
 20
-172.98517383
 30
0.0
 11
75.16414222
 21
-172.98517383
 31
0.0
  0
LINE
  5
90
100
AcDbEntity
  8
レイヤー_1
  6
CONTINUOUS
 62
       7
100
AcDbLine
 10
75.16414222
 20
-172.98517383
 30
0.0
 11
75.16414222
 21
-177.95349729
 31
0.0
  0
LINE
  5
91
100
AcDbEntity
  8
レイヤー_1
  6
CONTINUOUS
 62
       7
100
AcDbLine
 10
69.41555993
 20
-177.95349729
 30
0.0
 11
84.41375603
 21
-177.95349729
 31
0.0
  0
LINE
  5
92
100
AcDbEntity
  8
レイヤー_1
  6
CONTINUOUS
 62
       7
100
AcDbLine
 10
84.41375603
 20
-177.95349729
 30
0.0
 11
84.41375603
 21
-200.43508493
 31
0.0
  0
LINE
  5
93
100
AcDbEntity
  8
レイヤー_1
  6
CONTINUOUS
 62
       7
100
AcDbLine
 10
84.41375603
 20
-200.43508493
 30
0.0
 11
69.41555993
 21
-200.43508493
 31
0.0
  0
LINE
  5
94
100
AcDbEntity
  8
レイヤー_1
  6
CONTINUOUS
 62
       7
100
AcDbLine
 10
69.41555993
 20
-200.43508493
 30
0.0
 11
69.41555993
 21
-177.95349729
 31
0.0
  0
LINE
  5
95
100
AcDbEntity
  8
レイヤー_1
  6
CONTINUOUS
 62
       7
100
AcDbLine
 10
3.17169478
 20
-349.45281937
 30
0.0
 11
171.65675976
 21
-349.45281937
 31
0.0
  0
LINE
  5
96
100
AcDbEntity
  8
レイヤー_1
  6
CONTINUOUS
 62
       7
100
AcDbLine
 10
171.65675976
 20
-349.45281937
 30
0.0
 11
171.65675976
 21
-352.45428258
 31
0.0
  0
LINE
  5
97
100
AcDbEntity
  8
レイヤー_1
  6
CONTINUOUS
 62
       7
100
AcDbLine
 10
193.67169478
 20
-365.45319208
 30
0.0
 11
-86.32830522
 21
-365.45319208
 31
0.0
  0
LINE
  5
98
100
AcDbEntity
  8
レイヤー_1
  6
CONTINUOUS
 62
       7
100
AcDbLine
 10
3.17169478
 20
-352.45428258
 30
0.0
 11
173.67169478
 21
-352.45428258
 31
0.0
  0
LINE
  5
99
100
AcDbEntity
  8
レイヤー_1
  6
CONTINUOUS
 62
       7
100
AcDbLine
 10
150.39426698
 20
-95.45277885
 30
0.0
 11
150.39426698
 21
-107.77377516
 31
0.0
  0
LINE
  5
9A
100
AcDbEntity
  8
レイヤー_1
  6
CONTINUOUS
 62
       7
100
AcDbLine
 10
141.41014384
 20
-95.45277885
 30
0.0
 11
141.41014384
 21
-107.77377516
 31
0.0
  0
LINE
  5
9B
100
AcDbEntity
  8
レイヤー_1
  6
CONTINUOUS
 62
       7
100
AcDbLine
 10
132.42804734
 20
-95.45277885
 30
0.0
 11
132.42804734
 21
-107.77377516
 31
0.0
  0
LINE
  5
9C
100
AcDbEntity
  8
レイヤー_1
  6
CONTINUOUS
 62
       7
100
AcDbLine
 10
123.4439242
 20
-95.45277885
 30
0.0
 11
123.4439242
 21
-107.77377516
 31
0.0
  0
LINE
  5
9D
100
AcDbEntity
  8
レイヤー_1
  6
CONTINUOUS
 62
       7
100
AcDbLine
 10
114.46182771
 20
-95.45277885
 30
0.0
 11
114.46182771
 21
-107.77377516
 31
0.0
  0
LINE
  5
9E
100
AcDbEntity
  8
レイヤー_1
  6
CONTINUOUS
 62
       7
100
AcDbLine
 10
105.47770457
 20
-95.45277885
 30
0.0
 11
105.47770457
 21
-107.77377516
 31
0.0
  0
LINE
  5
9F
100
AcDbEntity
  8
レイヤー_1
  6
CONTINUOUS
 62
       7
100
AcDbLine
 10
96.49358142
 20
-95.45277885
 30
0.0
 11
96.49358142
 21
-107.77377516
 31
0.0
  0
LINE
  5
A0
100
AcDbEntity
  8
レイヤー_1
  6
CONTINUOUS
 62
       7
100
AcDbLine
 10
87.51047161
 20
-95.45277885
 30
0.0
 11
87.51047161
 21
-107.77377516
 31
0.0
  0
LINE
  5
A1
100
AcDbEntity
  8
レイヤー_1
  6
CONTINUOUS
 62
       7
100
AcDbLine
 10
78.52634847
 20
-95.45277885
 30
0.0
 11
78.52634847
 21
-107.77377516
 31
0.0
  0
LINE
  5
A2
100
AcDbEntity
  8
レイヤー_1
  6
CONTINUOUS
 62
       7
100
AcDbLine
 10
69.54425197
 20
-95.45277885
 30
0.0
 11
69.54425197
 21
-107.77377516
 31
0.0
  0
LINE
  5
A3
100
AcDbEntity
  8
レイヤー_1
  6
CONTINUOUS
 62
       7
100
AcDbLine
 10
60.56012883
 20
-95.45277885
 30
0.0
 11
60.56012883
 21
-107.77377516
 31
0.0
  0
LINE
  5
A4
100
AcDbEntity
  8
レイヤー_1
  6
CONTINUOUS
 62
       7
100
AcDbLine
 10
51.57904566
 20
-95.45277885
 30
0.0
 11
51.57904566
 21
-107.77377516
 31
0.0
  0
LINE
  5
A5
100
AcDbEntity
  8
レイヤー_1
  6
CONTINUOUS
 62
       7
100
AcDbLine
 10
42.59492251
 20
-95.45277885
 30
0.0
 11
42.59492251
 21
-107.77377516
 31
0.0
  0
LINE
  5
A6
100
AcDbEntity
  8
レイヤー_1
  6
CONTINUOUS
 62
       7
100
AcDbLine
 10
33.61079937
 20
-95.45277885
 30
0.0
 11
33.61079937
 21
-107.77377516
 31
0.0
  0
LINE
  5
A7
100
AcDbEntity
  8
レイヤー_1
  6
CONTINUOUS
 62
       7
100
AcDbLine
 10
24.62667623
 20
-95.45277885
 30
0.0
 11
24.62667623
 21
-107.77377516
 31
0.0
  0
LINE
  5
A8
100
AcDbEntity
  8
レイヤー_1
  6
CONTINUOUS
 62
       7
100
AcDbLine
 10
159.37636348
 20
-95.45277885
 30
0.0
 11
159.37636348
 21
-107.77377516
 31
0.0
  0
LINE
  5
A9
100
AcDbEntity
  8
レイヤー_1
  6
CONTINUOUS
 62
       7
100
AcDbLine
 10
159.37636348
 20
-107.77377516
 30
0.0
 11
15.64457974
 21
-107.77377516
 31
0.0
  0
LINE
  5
AA
100
AcDbEntity
  8
レイヤー_1
  6
CONTINUOUS
 62
       7
100
AcDbLine
 10
15.64457974
 20
-107.77377516
 30
0.0
 11
15.64457974
 21
-95.45277885
 31
0.0
  0
LINE
  5
AB
100
AcDbEntity
  8
レイヤー_1
  6
CONTINUOUS
 62
       7
100
AcDbLine
 10
150.09432333
 20
-183.45280208
 30
0.0
 11
150.09432333
 21
-172.70346999
 31
0.0
  0
LINE
  5
AC
100
AcDbEntity
  8
レイヤー_1
  6
CONTINUOUS
 62
       7
100
AcDbLine
 10
141.48310311
 20
-183.45280208
 30
0.0
 11
141.48310311
 21
-172.70346999
 31
0.0
  0
LINE
  5
AD
100
AcDbEntity
  8
レイヤー_1
  6
CONTINUOUS
 62
       7
100
AcDbLine
 10
132.87390954
 20
-183.45280208
 30
0.0
 11
132.87390954
 21
-172.70346999
 31
0.0
  0
LINE
  5
AE
100
AcDbEntity
  8
レイヤー_1
  6
CONTINUOUS
 62
       7
100
AcDbLine
 10
124.26471596
 20
-183.45280208
 30
0.0
 11
124.26471596
 21
-172.70346999
 31
0.0
  0
LINE
  5
AF
100
AcDbEntity
  8
レイヤー_1
  6
CONTINUOUS
 62
       7
100
AcDbLine
 10
115.65754904
 20
-183.45280208
 30
0.0
 11
115.65754904
 21
-172.70346999
 31
0.0
  0
LINE
  5
B0
100
AcDbEntity
  8
レイヤー_1
  6
CONTINUOUS
 62
       7
100
AcDbLine
 10
107.04632882
 20
-183.45280208
 30
0.0
 11
107.04632882
 21
-172.70346999
 31
0.0
  0
LINE
  5
B1
100
AcDbEntity
  8
レイヤー_1
  6
CONTINUOUS
 62
       7
100
AcDbLine
 10
98.43814857
 20
-183.45280208
 30
0.0
 11
98.43814857
 21
-172.70346999
 31
0.0
  0
LINE
  5
B2
100
AcDbEntity
  8
レイヤー_1
  6
CONTINUOUS
 62
       7
100
AcDbLine
 10
89.82996832
 20
-183.45280208
 30
0.0
 11
89.82996832
 21
-172.70346999
 31
0.0
  0
LINE
  5
B3
100
AcDbEntity
  8
レイヤー_1
  6
CONTINUOUS
 62
       7
100
AcDbLine
 10
64.00340093
 20
-183.45280208
 30
0.0
 11
64.00340093
 21
-172.70346999
 31
0.0
  0
LINE
  5
B4
100
AcDbEntity
  8
レイヤー_1
  6
CONTINUOUS
 62
       7
100
AcDbLine
 10
55.39319403
 20
-183.45280208
 30
0.0
 11
55.39319403
 21
-172.70346999
 31
0.0
  0
LINE
  5
B5
100
AcDbEntity
  8
レイヤー_1
  6
CONTINUOUS
 62
       7
100
AcDbLine
 10
46.78501378
 20
-183.45280208
 30
0.0
 11
46.78501378
 21
-172.70346999
 31
0.0
  0
LINE
  5
B6
100
AcDbEntity
  8
レイヤー_1
  6
CONTINUOUS
 62
       7
100
AcDbLine
 10
38.17683353
 20
-183.45280208
 30
0.0
 11
38.17683353
 21
-172.70346999
 31
0.0
  0
LINE
  5
B7
100
AcDbEntity
  8
レイヤー_1
  6
CONTINUOUS
 62
       7
100
AcDbLine
 10
29.56561332
 20
-183.45280208
 30
0.0
 11
29.56561332
 21
-172.70346999
 31
0.0
  0
LINE
  5
B8
100
AcDbEntity
  8
レイヤー_1
  6
CONTINUOUS
 62
       7
100
AcDbLine
 10
158.70149025
 20
-183.45280208
 30
0.0
 11
158.70149025
 21
-172.70346999
 31
0.0
  0
LINE
  5
B9
100
AcDbEntity
  8
レイヤー_1
  6
CONTINUOUS
 62
       7
100
AcDbLine
 10
158.70149025
 20
-172.70346999
 30
0.0
 11
20.95743307
 21
-172.70346999
 31
0.0
  0
LINE
  5
BA
100
AcDbEntity
  8
レイヤー_1
  6
CONTINUOUS
 62
       7
100
AcDbLine
 10
145.78769989
 20
-172.70346999
 30
0.0
 11
145.78769989
 21
-161.95312458
 31
0.0
  0
LINE
  5
BB
100
AcDbEntity
  8
レイヤー_1
  6
CONTINUOUS
 62
       7
100
AcDbLine
 10
137.17850632
 20
-172.70346999
 30
0.0
 11
137.17850632
 21
-161.95312458
 31
0.0
  0
LINE
  5
BC
100
AcDbEntity
  8
レイヤー_1
  6
CONTINUOUS
 62
       7
100
AcDbLine
 10
128.56931275
 20
-172.70346999
 30
0.0
 11
128.56931275
 21
-161.95312458
 31
0.0
  0
LINE
  5
BD
100
AcDbEntity
  8
レイヤー_1
  6
CONTINUOUS
 62
       7
100
AcDbLine
 10
119.96214582
 20
-172.70346999
 30
0.0
 11
119.96214582
 21
-161.95312458
 31
0.0
  0
LINE
  5
BE
100
AcDbEntity
  8
レイヤー_1
  6
CONTINUOUS
 62
       7
100
AcDbLine
 10
111.3509256
 20
-172.70346999
 30
0.0
 11
111.3509256
 21
-161.95312458
 31
0.0
  0
LINE
  5
BF
100
AcDbEntity
  8
レイヤー_1
  6
CONTINUOUS
 62
       7
100
AcDbLine
 10
102.74071871
 20
-172.70346999
 30
0.0
 11
102.74071871
 21
-161.95312458
 31
0.0
  0
LINE
  5
C0
100
AcDbEntity
  8
レイヤー_1
  6
CONTINUOUS
 62
       7
100
AcDbLine
 10
94.13456511
 20
-172.70346999
 30
0.0
 11
94.13456511
 21
-161.95312458
 31
0.0
  0
LINE
  5
C1
100
AcDbEntity
  8
レイヤー_1
  6
CONTINUOUS
 62
       7
100
AcDbLine
 10
85.52435821
 20
-172.70346999
 30
0.0
 11
85.52435821
 21
-161.95312458
 31
0.0
  0
LINE
  5
C2
100
AcDbEntity
  8
レイヤー_1
  6
CONTINUOUS
 62
       7
100
AcDbLine
 10
76.91415132
 20
-172.70346999
 30
0.0
 11
76.91415132
 21
-161.95312458
 31
0.0
  0
LINE
  5
C3
100
AcDbEntity
  8
レイヤー_1
  6
CONTINUOUS
 62
       7
100
AcDbLine
 10
68.30698439
 20
-172.70346999
 30
0.0
 11
68.30698439
 21
-161.95312458
 31
0.0
  0
LINE
  5
C4
100
AcDbEntity
  8
レイヤー_1
  6
CONTINUOUS
 62
       7
100
AcDbLine
 10
59.6967775
 20
-172.70346999
 30
0.0
 11
59.6967775
 21
-161.95312458
 31
0.0
  0
LINE
  5
C5
100
AcDbEntity
  8
レイヤー_1
  6
CONTINUOUS
 62
       7
100
AcDbLine
 10
51.08859725
 20
-172.70346999
 30
0.0
 11
51.08859725
 21
-161.95312458
 31
0.0
  0
LINE
  5
C6
100
AcDbEntity
  8
レイヤー_1
  6
CONTINUOUS
 62
       7
100
AcDbLine
 10
42.47839035
 20
-172.70346999
 30
0.0
 11
42.47839035
 21
-161.95312458
 31
0.0
  0
LINE
  5
C7
100
AcDbEntity
  8
レイヤー_1
  6
CONTINUOUS
 62
       7
100
AcDbLine
 10
33.87223675
 20
-172.70346999
 30
0.0
 11
33.87223675
 21
-161.95312458
 31
0.0
  0
LINE
  5
C8
100
AcDbEntity
  8
レイヤー_1
  6
CONTINUOUS
 62
       7
100
AcDbLine
 10
25.26202985
 20
-172.70346999
 30
0.0
 11
25.26202985
 21
-161.95312458
 31
0.0
  0
LINE
  5
C9
100
AcDbEntity
  8
レイヤー_1
  6
CONTINUOUS
 62
       7
100
AcDbLine
 10
16.65182296
 20
-172.70346999
 30
0.0
 11
154.39689347
 21
-172.70346999
 31
0.0
  0
LINE
  5
CA
100
AcDbEntity
  8
レイヤー_1
  6
CONTINUOUS
 62
       7
100
AcDbLine
 10
154.39689347
 20
-161.95312458
 30
0.0
 11
16.65182296
 21
-161.95312458
 31
0.0
  0
LINE
  5
CB
100
AcDbEntity
  8
レイヤー_1
  6
CONTINUOUS
 62
       7
100
AcDbLine
 10
16.65182296
 20
-161.95312458
 30
0.0
 11
16.65182296
 21
-172.70346999
 31
0.0
  0
LINE
  5
CC
100
AcDbEntity
  8
レイヤー_1
  6
CONTINUOUS
 62
       7
100
AcDbLine
 10
22.38317875
 20
-349.37175352
 30
0.0
 11
158.68122379
 21
-349.37175352
 31
0.0
  0
LINE
  5
CD
100
AcDbEntity
  8
レイヤー_1
  6
CONTINUOUS
 62
       7
100
AcDbLine
 10
158.68122379
 20
-349.37175352
 30
0.0
 11
158.68122379
 21
-337.12270316
 31
0.0
  0
LINE
  5
CE
100
AcDbEntity
  8
レイヤー_1
  6
CONTINUOUS
 62
       7
100
AcDbLine
 10
158.68122379
 20
-337.12270316
 30
0.0
 11
22.38317875
 21
-337.12270316
 31
0.0
  0
LINE
  5
CF
100
AcDbEntity
  8
レイヤー_1
  6
CONTINUOUS
 62
       7
100
AcDbLine
 10
18.13127477
 20
-331.1785495
 30
0.0
 11
152.89109525
 21
-331.1785495
 31
0.0
  0
LINE
  5
D0
100
AcDbEntity
  8
レイヤー_1
  6
CONTINUOUS
 62
       7
100
AcDbLine
 10
18.13127477
 20
-333.10589015
 30
0.0
 11
152.89109525
 21
-333.10589015
 31
0.0
  0
LINE
  5
D1
100
AcDbEntity
  8
レイヤー_1
  6
CONTINUOUS
 62
       7
100
AcDbLine
 10
18.13330142
 20
-324.87162614
 30
0.0
 11
18.13330142
 21
-337.12270316
 31
0.0
  0
LINE
  5
D2
100
AcDbEntity
  8
レイヤー_1
  6
CONTINUOUS
 62
       7
100
AcDbLine
 10
22.38317875
 20
-343.42962651
 30
0.0
 11
157.14502588
 21
-343.42962651
 31
0.0
  0
LINE
  5
D3
100
AcDbEntity
  8
レイヤー_1
  6
CONTINUOUS
 62
       7
100
AcDbLine
 10
22.38317875
 20
-345.10566302
 30
0.0
 11
157.14502588
 21
-345.10566302
 31
0.0
  0
LINE
  5
D4
100
AcDbEntity
  8
レイヤー_1
  6
CONTINUOUS
 62
       7
100
AcDbLine
 10
141.38177079
 20
-349.37175352
 30
0.0
 11
141.38177079
 21
-337.12270316
 31
0.0
  0
LINE
  5
D5
100
AcDbEntity
  8
レイヤー_1
  6
CONTINUOUS
 62
       7
100
AcDbLine
 10
149.88355211
 20
-349.37175352
 30
0.0
 11
149.88355211
 21
-337.12270316
 31
0.0
  0
LINE
  5
D6
100
AcDbEntity
  8
レイヤー_1
  6
CONTINUOUS
 62
       7
100
AcDbLine
 10
16.63459646
 20
-337.12270316
 30
0.0
 11
152.93365482
 21
-337.12270316
 31
0.0
  0
LINE
  5
D7
100
AcDbEntity
  8
レイヤー_1
  6
CONTINUOUS
 62
       7
100
AcDbLine
 10
152.93365482
 20
-324.87162614
 30
0.0
 11
16.63459646
 21
-324.87162614
 31
0.0
  0
LINE
  5
D8
100
AcDbEntity
  8
レイヤー_1
  6
CONTINUOUS
 62
       7
100
AcDbLine
 10
16.63459646
 20
-324.87162614
 30
0.0
 11
16.63459646
 21
-337.12270316
 31
0.0
  0
LINE
  5
D9
100
AcDbEntity
  8
レイヤー_1
  6
CONTINUOUS
 62
       7
100
AcDbLine
 10
85.68750324
 20
-194.04101578
 30
0.0
 11
85.69155218
 21
-194.08377516
 31
0.0
  0
LINE
  5
DA
100
AcDbEntity
  8
レイヤー_1
  6
CONTINUOUS
 62
       7
100
AcDbLine
 10
85.69155218
 20
-194.08377516
 30
0.0
 11
85.70254339
 21
-194.20596357
 31
0.0
  0
LINE
  5
DB
100
AcDbEntity
  8
レイヤー_1
  6
CONTINUOUS
 62
       7
100
AcDbLine
 10
85.70254339
 20
-194.20596357
 30
0.0
 11
85.71874342
 21
-194.39844643
 31
0.0
  0
LINE
  5
DC
100
AcDbEntity
  8
レイヤー_1
  6
CONTINUOUS
 62
       7
100
AcDbLine
 10
85.71874342
 20
-194.39844643
 30
0.0
 11
85.73841884
 21
-194.65208914
 31
0.0
  0
LINE
  5
DD
100
AcDbEntity
  8
レイヤー_1
  6
CONTINUOUS
 62
       7
100
AcDbLine
 10
85.73841884
 20
-194.65208914
 30
0.0
 11
85.7598362
 21
-194.95775713
 31
0.0
  0
LINE
  5
DE
100
AcDbEntity
  8
レイヤー_1
  6
CONTINUOUS
 62
       7
100
AcDbLine
 10
85.7598362
 20
-194.95775713
 30
0.0
 11
85.78126207
 21
-195.30631582
 31
0.0
  0
LINE
  5
DF
100
AcDbEntity
  8
レイヤー_1
  6
CONTINUOUS
 62
       7
100
AcDbLine
 10
85.78126207
 20
-195.30631582
 30
0.0
 11
85.80096301
 21
-195.6886306
 31
0.0
  0
LINE
  5
E0
100
AcDbEntity
  8
レイヤー_1
  6
CONTINUOUS
 62
       7
100
AcDbLine
 10
85.80096301
 20
-195.6886306
 30
0.0
 11
85.81720558
 21
-196.09556691
 31
0.0
  0
LINE
  5
E1
100
AcDbEntity
  8
レイヤー_1
  6
CONTINUOUS
 62
       7
100
AcDbLine
 10
85.81720558
 20
-196.09556691
 30
0.0
 11
85.82825634
 21
-196.51799015
 31
0.0
  0
LINE
  5
E2
100
AcDbEntity
  8
レイヤー_1
  6
CONTINUOUS
 62
       7
100
AcDbLine
 10
85.82825634
 20
-196.51799015
 30
0.0
 11
85.83238186
 21
-196.94676574
 31
0.0
  0
LINE
  5
E3
100
AcDbEntity
  8
レイヤー_1
  6
CONTINUOUS
 62
       7
100
AcDbLine
 10
85.83238186
 20
-196.94676574
 30
0.0
 11
85.8278487
 21
-197.37275909
 31
0.0
  0
LINE
  5
E4
100
AcDbEntity
  8
レイヤー_1
  6
CONTINUOUS
 62
       7
100
AcDbLine
 10
85.8278487
 20
-197.37275909
 30
0.0
 11
85.81292341
 21
-197.78683562
 31
0.0
  0
LINE
  5
E5
100
AcDbEntity
  8
レイヤー_1
  6
CONTINUOUS
 62
       7
100
AcDbLine
 10
85.81292341
 20
-197.78683562
 30
0.0
 11
85.78587256
 21
-198.17986074
 31
0.0
  0
LINE
  5
E6
100
AcDbEntity
  8
レイヤー_1
  6
CONTINUOUS
 62
       7
100
AcDbLine
 10
85.78587256
 20
-198.17986074
 30
0.0
 11
85.74496272
 21
-198.54269987
 31
0.0
  0
LINE
  5
E7
100
AcDbEntity
  8
レイヤー_1
  6
CONTINUOUS
 62
       7
100
AcDbLine
 10
85.74496272
 20
-198.54269987
 30
0.0
 11
85.68846043
 21
-198.86621842
 31
0.0
  0
LINE
  5
E8
100
AcDbEntity
  8
レイヤー_1
  6
CONTINUOUS
 62
       7
100
AcDbLine
 10
85.68846043
 20
-198.86621842
 30
0.0
 11
85.61463227
 21
-199.14128181
 31
0.0
  0
LINE
  5
E9
100
AcDbEntity
  8
レイヤー_1
  6
CONTINUOUS
 62
       7
100
AcDbLine
 10
85.61463227
 20
-199.14128181
 30
0.0
 11
85.5217448
 21
-199.35875545
 31
0.0
  0
LINE
  5
EA
100
AcDbEntity
  8
レイヤー_1
  6
CONTINUOUS
 62
       7
100
AcDbLine
 10
85.5217448
 20
-199.35875545
 30
0.0
 11
85.41223712
 21
-199.51496528
 31
0.0
  0
LINE
  5
EB
100
AcDbEntity
  8
レイヤー_1
  6
CONTINUOUS
 62
       7
100
AcDbLine
 10
85.41223712
 20
-199.51496528
 30
0.0
 11
85.3093541
 21
-199.63736952
 31
0.0
  0
LINE
  5
EC
100
AcDbEntity
  8
レイヤー_1
  6
CONTINUOUS
 62
       7
100
AcDbLine
 10
85.3093541
 20
-199.63736952
 30
0.0
 11
85.21654727
 21
-199.73323899
 31
0.0
  0
LINE
  5
ED
100
AcDbEntity
  8
レイヤー_1
  6
CONTINUOUS
 62
       7
100
AcDbLine
 10
85.21654727
 20
-199.73323899
 30
0.0
 11
85.13332086
 21
-199.80504112
 31
0.0
  0
LINE
  5
EE
100
AcDbEntity
  8
レイヤー_1
  6
CONTINUOUS
 62
       7
100
AcDbLine
 10
85.13332086
 20
-199.80504112
 30
0.0
 11
85.05917912
 21
-199.85524333
 31
0.0
  0
LINE
  5
EF
100
AcDbEntity
  8
レイヤー_1
  6
CONTINUOUS
 62
       7
100
AcDbLine
 10
85.05917912
 20
-199.85524333
 30
0.0
 11
84.99362629
 21
-199.88631306
 31
0.0
  0
LINE
  5
F0
100
AcDbEntity
  8
レイヤー_1
  6
CONTINUOUS
 62
       7
100
AcDbLine
 10
84.99362629
 20
-199.88631306
 30
0.0
 11
84.93616662
 21
-199.90071773
 31
0.0
  0
LINE
  5
F1
100
AcDbEntity
  8
レイヤー_1
  6
CONTINUOUS
 62
       7
100
AcDbLine
 10
84.93616662
 20
-199.90071773
 30
0.0
 11
84.88630436
 21
-199.90092477
 31
0.0
  0
LINE
  5
F2
100
AcDbEntity
  8
レイヤー_1
  6
CONTINUOUS
 62
       7
100
AcDbLine
 10
84.88630436
 20
-199.90092477
 30
0.0
 11
84.84354376
 21
-199.8894016
 31
0.0
  0
LINE
  5
F3
100
AcDbEntity
  8
レイヤー_1
  6
CONTINUOUS
 62
       7
100
AcDbLine
 10
84.84354376
 20
-199.8894016
 30
0.0
 11
84.80738905
 21
-199.86861566
 31
0.0
  0
LINE
  5
F4
100
AcDbEntity
  8
レイヤー_1
  6
CONTINUOUS
 62
       7
100
AcDbLine
 10
84.80738905
 20
-199.86861566
 30
0.0
 11
84.77734448
 21
-199.84103436
 31
0.0
  0
LINE
  5
F5
100
AcDbEntity
  8
レイヤー_1
  6
CONTINUOUS
 62
       7
100
AcDbLine
 10
84.77734448
 20
-199.84103436
 30
0.0
 11
84.75291431
 21
-199.80912514
 31
0.0
  0
LINE
  5
F6
100
AcDbEntity
  8
レイヤー_1
  6
CONTINUOUS
 62
       7
100
AcDbLine
 10
84.75291431
 20
-199.80912514
 30
0.0
 11
84.73360277
 21
-199.77535542
 31
0.0
  0
LINE
  5
F7
100
AcDbEntity
  8
レイヤー_1
  6
CONTINUOUS
 62
       7
100
AcDbLine
 10
84.73360277
 20
-199.77535542
 30
0.0
 11
84.71891411
 21
-199.74219263
 31
0.0
  0
LINE
  5
F8
100
AcDbEntity
  8
レイヤー_1
  6
CONTINUOUS
 62
       7
100
AcDbLine
 10
84.71891411
 20
-199.74219263
 30
0.0
 11
84.70835257
 21
-199.7121042
 31
0.0
  0
LINE
  5
F9
100
AcDbEntity
  8
レイヤー_1
  6
CONTINUOUS
 62
       7
100
AcDbLine
 10
84.70835257
 20
-199.7121042
 30
0.0
 11
84.70142241
 21
-199.68755755
 31
0.0
  0
LINE
  5
FA
100
AcDbEntity
  8
レイヤー_1
  6
CONTINUOUS
 62
       7
100
AcDbLine
 10
84.70142241
 20
-199.68755755
 30
0.0
 11
84.69762787
 21
-199.67102012
 31
0.0
  0
LINE
  5
FB
100
AcDbEntity
  8
レイヤー_1
  6
CONTINUOUS
 62
       7
100
AcDbLine
 10
84.69762787
 20
-199.67102012
 30
0.0
 11
84.69647319
 21
-199.66495933
 31
0.0
  0
LINE
  5
FC
100
AcDbEntity
  8
レイヤー_1
  6
CONTINUOUS
 62
       7
100
AcDbLine
 10
3.17169478
 20
-363.45319208
 30
0.0
 11
-86.32830522
 21
-363.45319208
 31
0.0
  0
LINE
  5
FD
100
AcDbEntity
  8
レイヤー_1
  6
CONTINUOUS
 62
       7
100
AcDbLine
 10
193.67169478
 20
-363.45319208
 30
0.0
 11
173.67169478
 21
-363.45319208
 31
0.0
  0
LINE
  5
FE
100
AcDbEntity
  8
レイヤー_1
  6
CONTINUOUS
 62
       7
100
AcDbLine
 10
193.67169478
 20
-363.45319208
 30
0.0
 11
193.67169478
 21
-365.45319208
 31
0.0
  0
LINE
  5
FF
100
AcDbEntity
  8
レイヤー_1
  6
CONTINUOUS
 62
       7
100
AcDbLine
 10
173.67169478
 20
-352.45428258
 30
0.0
 11
173.67169478
 21
-365.45319208
 31
0.0
  0
LINE
  5
100
100
AcDbEntity
  8
レイヤー_1
  6
CONTINUOUS
 62
       7
100
AcDbLine
 10
-86.32830522
 20
-363.45319208
 30
0.0
 11
-86.32830522
 21
-365.45319208
 31
0.0
  0
LINE
  5
101
100
AcDbEntity
  8
レイヤー_1
  6
CONTINUOUS
 62
       7
100
AcDbLine
 10
191.17169479
 20
-95.45280209
 30
0.0
 11
-83.82830522
 21
-95.45280209
 31
0.0
  0
LINE
  5
102
100
AcDbEntity
  8
レイヤー_1
  6
CONTINUOUS
 62
       7
100
AcDbLine
 10
191.17169478
 20
-183.45280208
 30
0.0
 11
84.41375603
 21
-183.45280208
 31
0.0
  0
LINE
  5
103
100
AcDbEntity
  8
レイヤー_1
  6
CONTINUOUS
 62
       7
100
AcDbLine
 10
173.67169478
 20
-183.45280208
 30
0.0
 11
173.67169478
 21
-95.45280208
 31
0.0
  0
LINE
  5
104
100
AcDbEntity
  8
レイヤー_1
  6
CONTINUOUS
 62
       7
100
AcDbLine
 10
8.67169478
 20
-183.45280208
 30
0.0
 11
8.67169478
 21
-95.45277885
 31
0.0
  0
LINE
  5
105
100
AcDbEntity
  8
レイヤー_1
  6
CONTINUOUS
 62
       7
100
AcDbLine
 10
8.67169478
 20
120.54718063
 30
0.0
 11
8.67169478
 21
106.54680792
 31
0.0
  0
LINE
  5
106
100
AcDbEntity
  8
レイヤー_1
  6
PHANTOM
 62
       7
100
AcDbLine
 10
29.67169478
 20
-111.45279047
 30
0.0
 11
11.67169478
 21
-111.45279047
 31
0.0
  0
LINE
  5
107
100
AcDbEntity
  8
レイヤー_1
  6
PHANTOM
 62
       7
100
AcDbLine
 10
30.67169478
 20
-159.45279047
 30
0.0
 11
30.67169478
 21
-111.45279047
 31
0.0
  0
LINE
  5
108
100
AcDbEntity
  8
レイヤー_1
  6
PHANTOM
 62
       7
100
AcDbLine
 10
48.67169478
 20
-159.45279047
 30
0.0
 11
30.67169478
 21
-159.45279047
 31
0.0
  0
LINE
  5
109
100
AcDbEntity
  8
レイヤー_1
  6
PHANTOM
 62
       7
100
AcDbLine
 10
48.67169478
 20
-159.45279047
 30
0.0
 11
48.67169478
 21
-111.45279047
 31
0.0
  0
LINE
  5
10A
100
AcDbEntity
  8
レイヤー_1
  6
PHANTOM
 62
       7
100
AcDbLine
 10
48.67169478
 20
-111.45279047
 30
0.0
 11
30.67169478
 21
-111.45279047
 31
0.0
  0
LINE
  5
10B
100
AcDbEntity
  8
レイヤー_1
  6
PHANTOM
 62
       7
100
AcDbLine
 10
49.67169478
 20
-159.45279047
 30
0.0
 11
49.67169478
 21
-111.45279047
 31
0.0
  0
LINE
  5
10C
100
AcDbEntity
  8
レイヤー_1
  6
PHANTOM
 62
       7
100
AcDbLine
 10
67.67169478
 20
-159.45279047
 30
0.0
 11
49.67169478
 21
-159.45279047
 31
0.0
  0
LINE
  5
10D
100
AcDbEntity
  8
レイヤー_1
  6
PHANTOM
 62
       7
100
AcDbLine
 10
67.67169478
 20
-159.45279047
 30
0.0
 11
67.67169478
 21
-111.45279047
 31
0.0
  0
LINE
  5
10E
100
AcDbEntity
  8
レイヤー_1
  6
PHANTOM
 62
       7
100
AcDbLine
 10
67.67169478
 20
-111.45279047
 30
0.0
 11
49.67169478
 21
-111.45279047
 31
0.0
  0
LINE
  5
10F
100
AcDbEntity
  8
レイヤー_1
  6
PHANTOM
 62
       7
100
AcDbLine
 10
68.67169478
 20
-159.45279047
 30
0.0
 11
68.67169478
 21
-111.45279047
 31
0.0
  0
LINE
  5
110
100
AcDbEntity
  8
レイヤー_1
  6
PHANTOM
 62
       7
100
AcDbLine
 10
86.67169478
 20
-159.45279047
 30
0.0
 11
68.67169478
 21
-159.45279047
 31
0.0
  0
LINE
  5
111
100
AcDbEntity
  8
レイヤー_1
  6
PHANTOM
 62
       7
100
AcDbLine
 10
86.67169478
 20
-159.45279047
 30
0.0
 11
86.67169478
 21
-111.45279047
 31
0.0
  0
LINE
  5
112
100
AcDbEntity
  8
レイヤー_1
  6
PHANTOM
 62
       7
100
AcDbLine
 10
86.67169478
 20
-111.45279047
 30
0.0
 11
68.67169478
 21
-111.45279047
 31
0.0
  0
LINE
  5
113
100
AcDbEntity
  8
レイヤー_1
  6
PHANTOM
 62
       7
100
AcDbLine
 10
87.67169478
 20
-159.45279047
 30
0.0
 11
87.67169478
 21
-111.45279047
 31
0.0
  0
LINE
  5
114
100
AcDbEntity
  8
レイヤー_1
  6
PHANTOM
 62
       7
100
AcDbLine
 10
105.67169478
 20
-159.45279047
 30
0.0
 11
87.67169478
 21
-159.45279047
 31
0.0
  0
LINE
  5
115
100
AcDbEntity
  8
レイヤー_1
  6
PHANTOM
 62
       7
100
AcDbLine
 10
105.67169478
 20
-159.45279047
 30
0.0
 11
105.67169478
 21
-111.45279047
 31
0.0
  0
LINE
  5
116
100
AcDbEntity
  8
レイヤー_1
  6
PHANTOM
 62
       7
100
AcDbLine
 10
105.67169478
 20
-111.45279047
 30
0.0
 11
87.67169478
 21
-111.45279047
 31
0.0
  0
LINE
  5
117
100
AcDbEntity
  8
レイヤー_1
  6
PHANTOM
 62
       7
100
AcDbLine
 10
106.67169478
 20
-159.45279047
 30
0.0
 11
106.67169478
 21
-111.45279047
 31
0.0
  0
LINE
  5
118
100
AcDbEntity
  8
レイヤー_1
  6
PHANTOM
 62
       7
100
AcDbLine
 10
124.67169478
 20
-159.45279047
 30
0.0
 11
106.67169478
 21
-159.45279047
 31
0.0
  0
LINE
  5
119
100
AcDbEntity
  8
レイヤー_1
  6
PHANTOM
 62
       7
100
AcDbLine
 10
124.67169478
 20
-159.45279047
 30
0.0
 11
124.67169478
 21
-111.45279047
 31
0.0
  0
LINE
  5
11A
100
AcDbEntity
  8
レイヤー_1
  6
PHANTOM
 62
       7
100
AcDbLine
 10
124.67169478
 20
-111.45279047
 30
0.0
 11
106.67169478
 21
-111.45279047
 31
0.0
  0
LINE
  5
11B
100
AcDbEntity
  8
レイヤー_1
  6
PHANTOM
 62
       7
100
AcDbLine
 10
125.67169478
 20
-159.45279047
 30
0.0
 11
125.67169478
 21
-111.45279047
 31
0.0
  0
LINE
  5
11C
100
AcDbEntity
  8
レイヤー_1
  6
PHANTOM
 62
       7
100
AcDbLine
 10
143.67169478
 20
-159.45279047
 30
0.0
 11
125.67169478
 21
-159.45279047
 31
0.0
  0
LINE
  5
11D
100
AcDbEntity
  8
レイヤー_1
  6
PHANTOM
 62
       7
100
AcDbLine
 10
143.67169478
 20
-159.45279047
 30
0.0
 11
143.67169478
 21
-111.45279047
 31
0.0
  0
LINE
  5
11E
100
AcDbEntity
  8
レイヤー_1
  6
PHANTOM
 62
       7
100
AcDbLine
 10
143.67169478
 20
-111.45279047
 30
0.0
 11
125.67169478
 21
-111.45279047
 31
0.0
  0
LINE
  5
11F
100
AcDbEntity
  8
レイヤー_1
  6
PHANTOM
 62
       7
100
AcDbLine
 10
144.67169478
 20
-159.45279047
 30
0.0
 11
144.67169478
 21
-111.45279047
 31
0.0
  0
LINE
  5
120
100
AcDbEntity
  8
レイヤー_1
  6
PHANTOM
 62
       7
100
AcDbLine
 10
162.67169478
 20
-159.45279047
 30
0.0
 11
144.67169478
 21
-159.45279047
 31
0.0
  0
LINE
  5
121
100
AcDbEntity
  8
レイヤー_1
  6
PHANTOM
 62
       7
100
AcDbLine
 10
162.67169478
 20
-159.45279047
 30
0.0
 11
162.67169478
 21
-111.45279047
 31
0.0
  0
LINE
  5
122
100
AcDbEntity
  8
レイヤー_1
  6
PHANTOM
 62
       7
100
AcDbLine
 10
162.67169478
 20
-111.45279047
 30
0.0
 11
144.67169478
 21
-111.45279047
 31
0.0
  0
LINE
  5
123
100
AcDbEntity
  8
レイヤー_1
  6
PHANTOM
 62
       7
100
AcDbLine
 10
29.67169478
 20
-159.45279047
 30
0.0
 11
11.67169478
 21
-159.45279047
 31
0.0
  0
LINE
  5
124
100
AcDbEntity
  8
レイヤー_1
  6
PHANTOM
 62
       7
100
AcDbLine
 10
11.67169478
 20
-159.45279047
 30
0.0
 11
11.67169478
 21
-111.45279047
 31
0.0
  0
LINE
  5
125
100
AcDbEntity
  8
レイヤー_1
  6
PHANTOM
 62
       7
100
AcDbLine
 10
29.67169478
 20
-159.45279047
 30
0.0
 11
29.67169478
 21
-111.45279047
 31
0.0
  0
LINE
  5
126
100
AcDbEntity
  8
レイヤー_1
  6
PHANTOM
 62
       7
100
AcDbLine
 10
5.67169478
 20
106.54680792
 30
0.0
 11
5.67169478
 21
127.46427725
 31
0.0
  0
LINE
  5
127
100
AcDbEntity
  8
レイヤー_1
  6
PHANTOM
 62
       7
100
AcDbLine
 10
5.67169478
 20
374.54719792
 30
0.0
 11
5.67169478
 21
286.57286562
 31
0.0
  0
LINE
  5
128
100
AcDbEntity
  8
SLD-0_4
  6
CONTINUOUS
 62
       7
100
AcDbLine
 10
-83.82830522
 20
-117.95280208
 30
0.0
 11
-86.32830522
 21
-120.45280208
 31
0.0
  0
LINE
  5
129
100
AcDbEntity
  8
SLD-0_4
  6
CONTINUOUS
 62
       7
100
AcDbLine
 10
191.17169478
 20
-110.95280208
 30
0.0
 11
193.67169478
 21
-108.45280208
 31
0.0
  0
LINE
  5
12A
100
AcDbEntity
  8
SLD-0_4
  6
CONTINUOUS
 62
       7
100
AcDbLine
 10
183.67169478
 20
-110.95280208
 30
0.0
 11
191.17169478
 21
-110.95280208
 31
0.0
  0
LINE
  5
12B
100
AcDbEntity
  8
SLD-0_4
  6
CONTINUOUS
 62
       7
100
AcDbLine
 10
183.67169478
 20
-117.95280208
 30
0.0
 11
191.17169478
 21
-117.95280208
 31
0.0
  0
LINE
  5
12C
100
AcDbEntity
  8
SLD-0_4
  6
CONTINUOUS
 62
       7
100
AcDbLine
 10
-83.82830522
 20
-167.95280208
 30
0.0
 11
-86.32830522
 21
-170.45280208
 31
0.0
  0
LINE
  5
12D
100
AcDbEntity
  8
SLD-0_4
  6
CONTINUOUS
 62
       7
100
AcDbLine
 10
183.67169478
 20
-160.95280208
 30
0.0
 11
191.17169478
 21
-160.95280208
 31
0.0
  0
LINE
  5
12E
100
AcDbEntity
  8
SLD-0_4
  6
CONTINUOUS
 62
       7
100
AcDbLine
 10
193.67169478
 20
-180.95280208
 30
0.0
 11
193.67169478
 21
-170.45280208
 31
0.0
  0
LINE
  5
12F
100
AcDbEntity
  8
SLD-0_4
  6
CONTINUOUS
 62
       7
100
AcDbLine
 10
193.67169478
 20
-108.45280208
 30
0.0
 11
193.67169478
 21
-97.95280208
 31
0.0
  0
LINE
  5
130
100
AcDbEntity
  8
SLD-0_4
  6
CONTINUOUS
 62
       7
100
AcDbLine
 10
-86.32830522
 20
-158.45280208
 30
0.0
 11
-86.32830522
 21
-120.45280208
 31
0.0
  0
LINE
  5
131
100
AcDbEntity
  8
SLD-0_4
  6
CONTINUOUS
 62
       7
100
AcDbLine
 10
-76.32830522
 20
-110.95280208
 30
0.0
 11
-83.82830522
 21
-110.95280208
 31
0.0
  0
LINE
  5
132
100
AcDbEntity
  8
SLD-0_4
  6
CONTINUOUS
 62
       7
100
AcDbLine
 10
-86.32830522
 20
-180.95280208
 30
0.0
 11
-86.32830522
 21
-170.45280208
 31
0.0
  0
LINE
  5
133
100
AcDbEntity
  8
SLD-0_4
  6
CONTINUOUS
 62
       7
100
AcDbLine
 10
-83.82830522
 20
-110.95280208
 30
0.0
 11
-86.32830522
 21
-108.45280208
 31
0.0
  0
LINE
  5
134
100
AcDbEntity
  8
SLD-0_4
  6
CONTINUOUS
 62
       7
100
AcDbLine
 10
191.17169478
 20
-117.95280208
 30
0.0
 11
193.67169478
 21
-120.45280208
 31
0.0
  0
LINE
  5
135
100
AcDbEntity
  8
SLD-0_4
  6
CONTINUOUS
 62
       7
100
AcDbLine
 10
193.67169478
 20
-158.45280208
 30
0.0
 11
193.67169478
 21
-120.45280208
 31
0.0
  0
LINE
  5
136
100
AcDbEntity
  8
SLD-0_4
  6
CONTINUOUS
 62
       7
100
AcDbLine
 10
-76.32830522
 20
-117.95280208
 30
0.0
 11
-83.82830522
 21
-117.95280208
 31
0.0
  0
LINE
  5
137
100
AcDbEntity
  8
SLD-0_4
  6
CONTINUOUS
 62
       7
100
AcDbLine
 10
191.17169478
 20
-167.95280208
 30
0.0
 11
193.67169478
 21
-170.45280208
 31
0.0
  0
LINE
  5
138
100
AcDbEntity
  8
SLD-0_4
  6
CONTINUOUS
 62
       7
100
AcDbLine
 10
-83.82830522
 20
-160.95280208
 30
0.0
 11
-86.32830522
 21
-158.45280208
 31
0.0
  0
LINE
  5
139
100
AcDbEntity
  8
SLD-0_4
  6
CONTINUOUS
 62
       7
100
AcDbLine
 10
-86.32830522
 20
-108.45280208
 30
0.0
 11
-86.32830522
 21
-97.95280208
 31
0.0
  0
LINE
  5
13A
100
AcDbEntity
  8
SLD-0_4
  6
CONTINUOUS
 62
       7
100
AcDbLine
 10
183.67169478
 20
-167.95280208
 30
0.0
 11
191.17169478
 21
-167.95280208
 31
0.0
  0
LINE
  5
13B
100
AcDbEntity
  8
SLD-0_4
  6
CONTINUOUS
 62
       7
100
AcDbLine
 10
-76.32830522
 20
-160.95280208
 30
0.0
 11
-83.82830522
 21
-160.95280208
 31
0.0
  0
LINE
  5
13C
100
AcDbEntity
  8
SLD-0_4
  6
CONTINUOUS
 62
       7
100
AcDbLine
 10
-76.32830522
 20
-167.95280208
 30
0.0
 11
-83.82830522
 21
-167.95280208
 31
0.0
  0
LINE
  5
13D
100
AcDbEntity
  8
SLD-0_4
  6
CONTINUOUS
 62
       7
100
AcDbLine
 10
191.17169478
 20
-160.95280208
 30
0.0
 11
193.67169478
 21
-158.45280208
 31
0.0
  0
LINE
  5
13E
100
AcDbEntity
  8
SLD-0_4
  6
CONTINUOUS
 62
       7
100
AcDbLine
 10
-86.32830522
 20
311.54719792
 30
0.0
 11
-86.32830522
 21
349.54719792
 31
0.0
  0
LINE
  5
13F
100
AcDbEntity
  8
SLD-0_4
  6
CONTINUOUS
 62
       7
100
AcDbLine
 10
-76.32830522
 20
309.04719792
 30
0.0
 11
-83.82830522
 21
309.04719792
 31
0.0
  0
LINE
  5
140
100
AcDbEntity
  8
SLD-0_4
  6
CONTINUOUS
 62
       7
100
AcDbLine
 10
-83.82830522
 20
309.04719792
 30
0.0
 11
-86.32830522
 21
311.54719792
 31
0.0
  0
LINE
  5
141
100
AcDbEntity
  8
SLD-0_4
  6
CONTINUOUS
 62
       7
100
AcDbLine
 10
-83.82830522
 20
352.04719792
 30
0.0
 11
-86.32830522
 21
349.54719792
 31
0.0
  0
LINE
  5
142
100
AcDbEntity
  8
SLD-0_4
  6
CONTINUOUS
 62
       7
100
AcDbLine
 10
-76.32830522
 20
352.04719792
 30
0.0
 11
-83.82830522
 21
352.04719792
 31
0.0
  0
LINE
  5
143
100
AcDbEntity
  8
SLD-0_4
  6
CONTINUOUS
 62
       7
100
AcDbLine
 10
-76.32830522
 20
302.04719792
 30
0.0
 11
-83.82830522
 21
302.04719792
 31
0.0
  0
LINE
  5
144
100
AcDbEntity
  8
SLD-0_4
  6
CONTINUOUS
 62
       7
100
AcDbLine
 10
-76.32830522
 20
359.04719792
 30
0.0
 11
-83.82830522
 21
359.04719792
 31
0.0
  0
LINE
  5
145
100
AcDbEntity
  8
SLD-0_4
  6
CONTINUOUS
 62
       7
100
AcDbLine
 10
-86.32830522
 20
361.54719792
 30
0.0
 11
-86.32830522
 21
372.04719792
 31
0.0
  0
LINE
  5
146
100
AcDbEntity
  8
SLD-0_4
  6
CONTINUOUS
 62
       7
100
AcDbLine
 10
-86.32830522
 20
289.04719792
 30
0.0
 11
-86.32830522
 21
299.54719792
 31
0.0
  0
LINE
  5
147
100
AcDbEntity
  8
SLD-0_4
  6
CONTINUOUS
 62
       7
100
AcDbLine
 10
-83.82830522
 20
359.04719792
 30
0.0
 11
-86.32830522
 21
361.54719792
 31
0.0
  0
LINE
  5
148
100
AcDbEntity
  8
SLD-0_4
  6
CONTINUOUS
 62
       7
100
AcDbLine
 10
-83.82830522
 20
302.04719792
 30
0.0
 11
-86.32830522
 21
299.54719792
 31
0.0
  0
LINE
  5
149
100
AcDbEntity
  8
SLD-0_4
  6
CONTINUOUS
 62
       7
100
AcDbLine
 10
-83.82830522
 20
-183.45280208
 30
0.0
 11
-86.32830522
 21
-180.95280208
 31
0.0
  0
LINE
  5
14A
100
AcDbEntity
  8
SLD-0_4
  6
CONTINUOUS
 62
       7
100
AcDbLine
 10
-86.32830522
 20
-97.95280208
 30
0.0
 11
-83.82830522
 21
-95.45280209
 31
0.0
  0
LINE
  5
14B
100
AcDbEntity
  8
SLD-0_4
  6
CONTINUOUS
 62
       7
100
AcDbLine
 10
191.17169478
 20
-183.45280208
 30
0.0
 11
193.67169478
 21
-180.95280208
 31
0.0
  0
LINE
  5
14C
100
AcDbEntity
  8
SLD-0_4
  6
CONTINUOUS
 62
       7
100
AcDbLine
 10
193.67169478
 20
-97.95280208
 30
0.0
 11
191.17169479
 21
-95.45280209
 31
0.0
  0
ARC
  5
14D
100
AcDbEntity
  8
SLD-0_4
  6
CONTINUOUS
 62
       7
100
AcDbCircle
 10
183.67169478
 20
-114.45280208
 30
0.0
 40
3.5
100
AcDbArc
 50
90.0
 51
270.0
  0
ARC
  5
14E
100
AcDbEntity
  8
SLD-0_4
  6
CONTINUOUS
 62
       7
100
AcDbCircle
 10
-76.32830522
 20
-164.45280208
 30
0.0
 40
3.5
100
AcDbArc
 50
270.0
 51
450.0
  0
ARC
  5
14F
100
AcDbEntity
  8
SLD-0_4
  6
CONTINUOUS
 62
       7
100
AcDbCircle
 10
-76.32830522
 20
-114.45280208
 30
0.0
 40
3.5
100
AcDbArc
 50
270.0
 51
450.0
  0
ARC
  5
150
100
AcDbEntity
  8
SLD-0_4
  6
CONTINUOUS
 62
       7
100
AcDbCircle
 10
183.67169478
 20
-164.45280208
 30
0.0
 40
3.5
100
AcDbArc
 50
90.0
 51
270.0
  0
ARC
  5
151
100
AcDbEntity
  8
SLD-0_4
  6
CONTINUOUS
 62
       7
100
AcDbCircle
 10
-76.32830522
 20
305.54719792
 30
0.0
 40
3.5
100
AcDbArc
 50
270.0
 51
450.0
  0
ARC
  5
152
100
AcDbEntity
  8
SLD-0_4
  6
CONTINUOUS
 62
       7
100
AcDbCircle
 10
-76.32830522
 20
355.54719792
 30
0.0
 40
3.5
100
AcDbArc
 50
270.0
 51
450.0
  0
LINE
  5
153
100
AcDbEntity
  8
SLD-0
  6
PHANTOM
 62
       7
100
AcDbLine
 10
-48.72830522
 20
-271.45319208
 30
0.0
 11
-48.72830522
 21
-363.45319208
 31
0.0
  0
LINE
  5
154
100
AcDbEntity
  8
SLD-0
  6
PHANTOM
 62
       7
100
AcDbLine
 10
3.17169478
 20
-271.45319208
 30
0.0
 11
-48.72830522
 21
-271.45319208
 31
0.0
  0
LINE
  5
155
100
AcDbEntity
  8
SLD-0
  6
PHANTOM
 62
       7
100
AcDbLine
 10
3.17169478
 20
-349.45281937
 30
0.0
 11
3.17169478
 21
-271.45319208
 31
0.0
  0
LINE
  5
156
100
AcDbEntity
  8
SLD-0
  6
PHANTOM
 62
       7
100
AcDbLine
 10
3.17169478
 20
-183.45280208
 30
0.0
 11
3.17169478
 21
-95.45280208
 31
0.0
  0
LINE
  5
157
100
AcDbEntity
  8
SLD-0
  6
PHANTOM
 62
       7
100
AcDbLine
 10
-48.72830522
 20
-183.45280208
 30
0.0
 11
-48.72830522
 21
-95.45280208
 31
0.0
  0
LINE
  5
158
100
AcDbEntity
  8
SLD-0
  6
PHANTOM
 62
       7
100
AcDbLine
 10
-2.52830522
 20
-259.45319208
 30
0.0
 11
-15.52830522
 21
-259.45319208
 31
0.0
  0
LINE
  5
159
100
AcDbEntity
  8
SLD-0
  6
PHANTOM
 62
       7
100
AcDbLine
 10
-15.52830522
 20
-271.45319208
 30
0.0
 11
-15.52830522
 21
-259.45319208
 31
0.0
  0
LINE
  5
15A
100
AcDbEntity
  8
SLD-0
  6
PHANTOM
 62
       7
100
AcDbLine
 10
-30.02830522
 20
-271.45319208
 30
0.0
 11
-30.02830522
 21
-259.45319208
 31
0.0
  0
LINE
  5
15B
100
AcDbEntity
  8
SLD-0
  6
PHANTOM
 62
       7
100
AcDbLine
 10
-43.02830522
 20
-271.45319208
 30
0.0
 11
-43.02830522
 21
-259.45319208
 31
0.0
  0
LINE
  5
15C
100
AcDbEntity
  8
SLD-0
  6
PHANTOM
 62
       7
100
AcDbLine
 10
-2.52830522
 20
-271.45319208
 30
0.0
 11
-2.52830522
 21
-259.45319208
 31
0.0
  0
LINE
  5
15D
100
AcDbEntity
  8
SLD-0
  6
PHANTOM
 62
       7
100
AcDbLine
 10
-30.02830522
 20
-259.45319208
 30
0.0
 11
-43.02830522
 21
-259.45319208
 31
0.0
  0
LINE
  5
15E
100
AcDbEntity
  8
SLD-0
  6
PHANTOM
 62
       7
100
AcDbLine
 10
-30.02830522
 20
-169.45280208
 30
0.0
 11
-43.02830522
 21
-169.45280208
 31
0.0
  0
LINE
  5
15F
100
AcDbEntity
  8
SLD-0
  6
PHANTOM
 62
       7
100
AcDbLine
 10
-30.02830522
 20
-169.45280208
 30
0.0
 11
-30.02830522
 21
-119.45280208
 31
0.0
  0
LINE
  5
160
100
AcDbEntity
  8
SLD-0
  6
PHANTOM
 62
       7
100
AcDbLine
 10
-15.52830522
 20
-169.45280208
 30
0.0
 11
-15.52830522
 21
-119.45280208
 31
0.0
  0
LINE
  5
161
100
AcDbEntity
  8
SLD-0
  6
PHANTOM
 62
       7
100
AcDbLine
 10
-2.52830522
 20
-169.45280208
 30
0.0
 11
-2.52830522
 21
-119.45280208
 31
0.0
  0
LINE
  5
162
100
AcDbEntity
  8
SLD-0
  6
PHANTOM
 62
       7
100
AcDbLine
 10
-2.52830522
 20
-169.45280208
 30
0.0
 11
-15.52830522
 21
-169.45280208
 31
0.0
  0
LINE
  5
163
100
AcDbEntity
  8
SLD-0
  6
PHANTOM
 62
       7
100
AcDbLine
 10
-43.02830522
 20
-169.45280208
 30
0.0
 11
-43.02830522
 21
-119.45280208
 31
0.0
  0
LINE
  5
164
100
AcDbEntity
  8
SLD-0
  6
PHANTOM
 62
       7
100
AcDbLine
 10
-30.02830522
 20
-119.45280208
 30
0.0
 11
-43.02830522
 21
-119.45280208
 31
0.0
  0
LINE
  5
165
100
AcDbEntity
  8
SLD-0
  6
PHANTOM
 62
       7
100
AcDbLine
 10
-2.52830522
 20
-119.45280208
 30
0.0
 11
-15.52830522
 21
-119.45280208
 31
0.0
  0
LINE
  5
166
100
AcDbEntity
  8
SLD-0
  6
PHANTOM
 62
       7
100
AcDbLine
 10
-30.02830522
 20
-167.95280208
 30
0.0
 11
-43.02830522
 21
-167.95280208
 31
0.0
  0
LINE
  5
167
100
AcDbEntity
  8
SLD-0
  6
PHANTOM
 62
       7
100
AcDbLine
 10
-30.02830522
 20
-161.45280208
 30
0.0
 11
-43.02830522
 21
-161.45280208
 31
0.0
  0
LINE
  5
168
100
AcDbEntity
  8
SLD-0
  6
PHANTOM
 62
       7
100
AcDbLine
 10
-30.02830522
 20
-159.95280208
 30
0.0
 11
-43.02830522
 21
-159.95280208
 31
0.0
  0
LINE
  5
169
100
AcDbEntity
  8
SLD-0
  6
PHANTOM
 62
       7
100
AcDbLine
 10
-2.52830522
 20
-161.45280208
 30
0.0
 11
-15.52830522
 21
-161.45280208
 31
0.0
  0
LINE
  5
16A
100
AcDbEntity
  8
SLD-0
  6
PHANTOM
 62
       7
100
AcDbLine
 10
-30.02830522
 20
-153.45280208
 30
0.0
 11
-43.02830522
 21
-153.45280208
 31
0.0
  0
LINE
  5
16B
100
AcDbEntity
  8
SLD-0
  6
PHANTOM
 62
       7
100
AcDbLine
 10
-30.02830522
 20
-151.95280208
 30
0.0
 11
-43.02830522
 21
-151.95280208
 31
0.0
  0
LINE
  5
16C
100
AcDbEntity
  8
SLD-0
  6
PHANTOM
 62
       7
100
AcDbLine
 10
-2.52830522
 20
-153.45280208
 30
0.0
 11
-15.52830522
 21
-153.45280208
 31
0.0
  0
LINE
  5
16D
100
AcDbEntity
  8
SLD-0
  6
PHANTOM
 62
       7
100
AcDbLine
 10
-30.02830522
 20
-145.45280208
 30
0.0
 11
-43.02830522
 21
-145.45280208
 31
0.0
  0
LINE
  5
16E
100
AcDbEntity
  8
SLD-0
  6
PHANTOM
 62
       7
100
AcDbLine
 10
-30.02830522
 20
-143.95280208
 30
0.0
 11
-43.02830522
 21
-143.95280208
 31
0.0
  0
LINE
  5
16F
100
AcDbEntity
  8
SLD-0
  6
PHANTOM
 62
       7
100
AcDbLine
 10
-2.52830522
 20
-145.45280208
 30
0.0
 11
-15.52830522
 21
-145.45280208
 31
0.0
  0
LINE
  5
170
100
AcDbEntity
  8
SLD-0
  6
PHANTOM
 62
       7
100
AcDbLine
 10
-30.02830522
 20
-137.45280208
 30
0.0
 11
-43.02830522
 21
-137.45280208
 31
0.0
  0
LINE
  5
171
100
AcDbEntity
  8
SLD-0
  6
PHANTOM
 62
       7
100
AcDbLine
 10
-30.02830522
 20
-135.95280208
 30
0.0
 11
-43.02830522
 21
-135.95280208
 31
0.0
  0
LINE
  5
172
100
AcDbEntity
  8
SLD-0
  6
PHANTOM
 62
       7
100
AcDbLine
 10
-2.52830522
 20
-137.45280208
 30
0.0
 11
-15.52830522
 21
-137.45280208
 31
0.0
  0
LINE
  5
173
100
AcDbEntity
  8
SLD-0
  6
PHANTOM
 62
       7
100
AcDbLine
 10
-30.02830522
 20
-129.45280208
 30
0.0
 11
-43.02830522
 21
-129.45280208
 31
0.0
  0
LINE
  5
174
100
AcDbEntity
  8
SLD-0
  6
PHANTOM
 62
       7
100
AcDbLine
 10
-30.02830522
 20
-127.95280208
 30
0.0
 11
-43.02830522
 21
-127.95280208
 31
0.0
  0
LINE
  5
175
100
AcDbEntity
  8
SLD-0
  6
PHANTOM
 62
       7
100
AcDbLine
 10
-2.52830522
 20
-129.45280208
 30
0.0
 11
-15.52830522
 21
-129.45280208
 31
0.0
  0
LINE
  5
176
100
AcDbEntity
  8
SLD-0
  6
PHANTOM
 62
       7
100
AcDbLine
 10
3.17169478
 20
-110.45280208
 30
0.0
 11
-48.72830522
 21
-110.45280208
 31
0.0
  0
LINE
  5
177
100
AcDbEntity
  8
SLD-0
  6
PHANTOM
 62
       7
100
AcDbLine
 10
3.17169478
 20
-174.45280208
 30
0.0
 11
-48.72830522
 21
-174.45280208
 31
0.0
  0
LINE
  5
178
100
AcDbEntity
  8
SLD-0
  6
PHANTOM
 62
       7
100
AcDbLine
 10
-20.77830522
 20
-174.45280208
 30
0.0
 11
-20.77830522
 21
-110.45280208
 31
0.0
  0
LINE
  5
179
100
AcDbEntity
  8
SLD-0
  6
PHANTOM
 62
       7
100
AcDbLine
 10
-24.77830522
 20
-174.45280208
 30
0.0
 11
-24.77830522
 21
-110.45280208
 31
0.0
  0
LINE
  5
17A
100
AcDbEntity
  8
SLD-0
  6
PHANTOM
 62
       7
100
AcDbLine
 10
157.01499167
 20
-280.17394153
 30
0.0
 11
157.01499167
 21
-279.95319208
 31
0.0
  0
LINE
  5
17B
100
AcDbEntity
  8
SLD-0
  6
PHANTOM
 62
       7
100
AcDbLine
 10
145.64282099
 20
-280.15319208
 30
0.0
 11
145.64282099
 21
-324.87162614
 31
0.0
  0
LINE
  5
17C
100
AcDbEntity
  8
SLD-0
  6
PHANTOM
 62
       7
100
AcDbLine
 10
160.81264516
 20
-278.45319208
 30
0.0
 11
158.51499167
 21
-278.45319208
 31
0.0
  0
LINE
  5
17D
100
AcDbEntity
  8
SLD-0
  6
PHANTOM
 62
       7
100
AcDbLine
 10
162.31264516
 20
-280.17394153
 30
0.0
 11
162.31264516
 21
-279.95319208
 31
0.0
  0
LINE
  5
17E
100
AcDbEntity
  8
SLD-0
  6
PHANTOM
 62
       7
100
AcDbLine
 10
163.64282099
 20
-280.15319208
 30
0.0
 11
163.64282099
 21
-349.45281937
 31
0.0
  0
LINE
  5
17F
100
AcDbEntity
  8
SLD-0
  6
PHANTOM
 62
       7
100
AcDbLine
 10
163.64282099
 20
-280.15319208
 30
0.0
 11
145.64282099
 21
-280.15319208
 31
0.0
  0
ARC
  5
180
100
AcDbEntity
  8
SLD-0
  6
PHANTOM
 62
       7
100
AcDbCircle
 10
160.81264516
 20
-279.95319208
 30
0.0
 40
1.5
100
AcDbArc
 50
0.0
 51
90.0
  0
ARC
  5
181
100
AcDbEntity
  8
SLD-0
  6
PHANTOM
 62
       7
100
AcDbCircle
 10
158.51499167
 20
-279.95319208
 30
0.0
 40
1.5
100
AcDbArc
 50
90.0
 51
180.0
  0
LINE
  5
182
100
AcDbEntity
  8
SLD-0
  6
CONTINUOUS
 62
       7
100
AcDbLine
 10
3.17169478
 20
-349.45281937
 30
0.0
 11
3.17169478
 21
-363.45319208
 31
0.0
  0
LINE
  5
183
100
AcDbEntity
  8
SLD-0_1
  6
PHANTOM
 62
       7
100
AcDbLine
 10
-2.52830522
 20
-167.95280208
 30
0.0
 11
-15.52830522
 21
-167.95280208
 31
0.0
  0
LINE
  5
184
100
AcDbEntity
  8
SLD-0_1
  6
PHANTOM
 62
       7
100
AcDbLine
 10
-2.52830522
 20
-159.95280208
 30
0.0
 11
-15.52830522
 21
-159.95280208
 31
0.0
  0
LINE
  5
185
100
AcDbEntity
  8
SLD-0_1
  6
PHANTOM
 62
       7
100
AcDbLine
 10
-2.52830522
 20
-151.95280208
 30
0.0
 11
-15.52830522
 21
-151.95280208
 31
0.0
  0
LINE
  5
186
100
AcDbEntity
  8
SLD-0_1
  6
PHANTOM
 62
       7
100
AcDbLine
 10
-2.52830522
 20
-143.95280208
 30
0.0
 11
-15.52830522
 21
-143.95280208
 31
0.0
  0
LINE
  5
187
100
AcDbEntity
  8
SLD-0_1
  6
PHANTOM
 62
       7
100
AcDbLine
 10
-2.52830522
 20
-135.95280208
 30
0.0
 11
-15.52830522
 21
-135.95280208
 31
0.0
  0
LINE
  5
188
100
AcDbEntity
  8
SLD-0_1
  6
PHANTOM
 62
       7
100
AcDbLine
 10
-2.52830522
 20
-127.95280208
 30
0.0
 11
-15.52830522
 21
-127.95280208
 31
0.0
  0
LINE
  5
189
100
AcDbEntity
  8
SLD-0_0
  6
CONTINUOUS
 62
       7
100
AcDbLine
 10
69.41555993
 20
-183.45280208
 30
0.0
 11
-83.82830522
 21
-183.45280208
 31
0.0
  0
LINE
  5
18A
100
AcDbEntity
  8
SLD-0_0
  6
PHANTOM
 62
       7
100
AcDbLine
 10
11.67169478
 20
-280.15319208
 30
0.0
 11
11.67169478
 21
-349.45281937
 31
0.0
  0
LINE
  5
18B
100
AcDbEntity
  8
SLD-0_0
  6
PHANTOM
 62
       7
100
AcDbLine
 10
29.67169478
 20
-280.15319208
 30
0.0
 11
11.67169478
 21
-280.15319208
 31
0.0
  0
LINE
  5
18C
100
AcDbEntity
  8
SLD-0_0
  6
PHANTOM
 62
       7
100
AcDbLine
 10
29.67169478
 20
-280.15319208
 30
0.0
 11
29.67169478
 21
-324.87162614
 31
0.0
  0
LINE
  5
18D
100
AcDbEntity
  8
SLD-0_0
  6
PHANTOM
 62
       7
100
AcDbLine
 10
26.84151894
 20
-278.45319208
 30
0.0
 11
24.54386546
 21
-278.45319208
 31
0.0
  0
LINE
  5
18E
100
AcDbEntity
  8
SLD-0_0
  6
PHANTOM
 62
       7
100
AcDbLine
 10
23.04386546
 20
-280.17394153
 30
0.0
 11
23.04386546
 21
-279.95319208
 31
0.0
  0
LINE
  5
18F
100
AcDbEntity
  8
SLD-0_0
  6
PHANTOM
 62
       7
100
AcDbLine
 10
28.34151894
 20
-280.17394153
 30
0.0
 11
28.34151894
 21
-279.95319208
 31
0.0
  0
ARC
  5
190
100
AcDbEntity
  8
SLD-0_0
  6
PHANTOM
 62
       7
100
AcDbCircle
 10
26.84151894
 20
-279.95319208
 30
0.0
 40
1.5
100
AcDbArc
 50
0.0
 51
90.0
  0
ARC
  5
191
100
AcDbEntity
  8
SLD-0_0
  6
PHANTOM
 62
       7
100
AcDbCircle
 10
24.54386546
 20
-279.95319208
 30
0.0
 40
1.5
100
AcDbArc
 50
90.0
 51
180.0
  0
LINE
  5
192
100
AcDbEntity
  8
SLD-0_2
  6
CONTINUOUS
 62
       7
100
AcDbLine
 10
154.39689347
 20
308.04687542
 30
0.0
 11
158.70149025
 21
308.04687542
 31
0.0
  0
LINE
  5
193
100
AcDbEntity
  8
SLD-0_2
  6
CONTINUOUS
 62
       7
100
AcDbLine
 10
26.63204277
 20
145.12837386
 30
0.0
 11
26.63204277
 21
132.87729684
 31
0.0
  0
LINE
  5
194
100
AcDbEntity
  8
SLD-0_2
  6
CONTINUOUS
 62
       7
100
AcDbLine
 10
30.88394675
 20
132.87729684
 30
0.0
 11
30.88394675
 21
120.62824648
 31
0.0
  0
LINE
  5
195
100
AcDbEntity
  8
SLD-0_2
  6
CONTINUOUS
 62
       7
100
AcDbLine
 10
64.88296543
 20
132.87729684
 30
0.0
 11
64.88296543
 21
120.62824648
 31
0.0
  0
LINE
  5
196
100
AcDbEntity
  8
SLD-0_2
  6
CONTINUOUS
 62
       7
100
AcDbLine
 10
50.9335588
 20
132.87729684
 30
0.0
 11
50.9335588
 21
145.12837386
 31
0.0
  0
LINE
  5
197
100
AcDbEntity
  8
SLD-0_2
  6
CONTINUOUS
 62
       7
100
AcDbLine
 10
86.13235211
 20
145.12837386
 30
0.0
 11
86.13235211
 21
132.87729684
 31
0.0
  0
LINE
  5
198
100
AcDbEntity
  8
SLD-0_2
  6
CONTINUOUS
 62
       7
100
AcDbLine
 10
120.13441076
 20
145.12837386
 30
0.0
 11
120.13441076
 21
132.87729684
 31
0.0
  0
LINE
  5
199
100
AcDbEntity
  8
SLD-0_2
  6
CONTINUOUS
 62
       7
100
AcDbLine
 10
193.67169478
 20
104.54680792
 30
0.0
 11
-86.32830522
 21
104.54680792
 31
0.0
  0
LINE
  5
19A
100
AcDbEntity
  8
SLD-0_2
  6
CONTINUOUS
 62
       7
100
AcDbLine
 10
105.47770457
 20
374.54722115
 30
0.0
 11
105.47770457
 21
362.22622484
 31
0.0
  0
LINE
  5
19B
100
AcDbEntity
  8
SLD-0_2
  6
CONTINUOUS
 62
       7
100
AcDbLine
 10
102.74071871
 20
297.29653001
 30
0.0
 11
102.74071871
 21
308.04687542
 31
0.0
  0
LINE
  5
19C
100
AcDbEntity
  8
SLD-0_2
  6
CONTINUOUS
 62
       7
100
AcDbLine
 10
149.88355211
 20
120.62824648
 30
0.0
 11
149.88355211
 21
132.87729684
 31
0.0
  0
LINE
  5
19D
100
AcDbEntity
  8
SLD-0_2
  6
CONTINUOUS
 62
       7
100
AcDbLine
 10
85.70254339
 20
275.79403643
 30
0.0
 11
85.71874342
 21
275.60155357
 31
0.0
  0
LINE
  5
19E
100
AcDbEntity
  8
SLD-0_2
  6
CONTINUOUS
 62
       7
100
AcDbLine
 10
84.71891411
 20
270.25780737
 30
0.0
 11
84.70835257
 21
270.2878958
 31
0.0
  0
LINE
  5
19F
100
AcDbEntity
  8
SLD-0_2
  6
CONTINUOUS
 62
       7
100
AcDbLine
 10
90.38425609
 20
132.87729684
 30
0.0
 11
90.38425609
 21
120.62824648
 31
0.0
  0
LINE
  5
1A0
100
AcDbEntity
  8
SLD-0_2
  6
CONTINUOUS
 62
       7
100
AcDbLine
 10
77.63361076
 20
145.12837386
 30
0.0
 11
77.63361076
 21
132.87729684
 31
0.0
  0
LINE
  5
1A1
100
AcDbEntity
  8
SLD-0_2
  6
CONTINUOUS
 62
       7
100
AcDbLine
 10
101.9310735
 20
132.87729684
 30
0.0
 11
101.9310735
 21
145.12837386
 31
0.0
  0
LINE
  5
1A2
100
AcDbEntity
  8
SLD-0_2
  6
CONTINUOUS
 62
       7
100
AcDbLine
 10
158.68122379
 20
145.12837386
 30
0.0
 11
158.68122379
 21
132.87729684
 31
0.0
  0
LINE
  5
1A3
100
AcDbEntity
  8
SLD-0_2
  6
CONTINUOUS
 62
       7
100
AcDbLine
 10
8.67169478
 20
120.54718063
 30
0.0
 11
171.65675976
 21
120.54718063
 31
0.0
  0
LINE
  5
1A4
100
AcDbEntity
  8
SLD-0_2
  6
CONTINUOUS
 62
       7
100
AcDbLine
 10
24.62667623
 20
374.54722115
 30
0.0
 11
24.62667623
 21
362.22622484
 31
0.0
  0
LINE
  5
1A5
100
AcDbEntity
  8
SLD-0_2
  6
CONTINUOUS
 62
       7
100
AcDbLine
 10
-86.32830522
 20
106.54680792
 30
0.0
 11
-86.32830522
 21
104.54680792
 31
0.0
  0
LINE
  5
1A6
100
AcDbEntity
  8
SLD-0_2
  6
CONTINUOUS
 62
       7
100
AcDbLine
 10
164.3684696
 20
125.54831041
 30
0.0
 11
164.3684696
 21
120.54718063
 31
0.0
  0
LINE
  5
1A7
100
AcDbEntity
  8
SLD-0_2
  6
CONTINUOUS
 62
       7
100
AcDbLine
 10
20.95743307
 20
297.29653001
 30
0.0
 11
20.95743307
 21
286.54719792
 31
0.0
  0
LINE
  5
1A8
100
AcDbEntity
  8
SLD-0_2
  6
CONTINUOUS
 62
       7
100
AcDbLine
 10
39.38471474
 20
132.87729684
 30
0.0
 11
39.38471474
 21
120.62824648
 31
0.0
  0
LINE
  5
1A9
100
AcDbEntity
  8
SLD-0_2
  6
CONTINUOUS
 62
       7
100
AcDbLine
 10
123.18451347
 20
120.62824648
 30
0.0
 11
123.18451347
 21
132.87729684
 31
0.0
  0
LINE
  5
1AA
100
AcDbEntity
  8
SLD-0_2
  6
CONTINUOUS
 62
       7
100
AcDbLine
 10
149.88557875
 20
132.87729684
 30
0.0
 11
149.88557875
 21
120.62824648
 31
0.0
  0
LINE
  5
1AB
100
AcDbEntity
  8
SLD-0_2
  6
CONTINUOUS
 62
       7
100
AcDbLine
 10
103.13287477
 20
145.12837386
 30
0.0
 11
103.13287477
 21
132.87729684
 31
0.0
  0
LINE
  5
1AC
100
AcDbEntity
  8
SLD-0_2
  6
CONTINUOUS
 62
       7
100
AcDbLine
 10
159.37636348
 20
362.22622484
 30
0.0
 11
15.64457974
 21
362.22622484
 31
0.0
  0
LINE
  5
1AD
100
AcDbEntity
  8
SLD-0_2
  6
CONTINUOUS
 62
       7
100
AcDbLine
 10
152.93365482
 20
145.12837386
 30
0.0
 11
16.63459646
 21
145.12837386
 31
0.0
  0
LINE
  5
1AE
100
AcDbEntity
  8
SLD-0_2
  6
CONTINUOUS
 62
       7
100
AcDbLine
 10
85.78587256
 20
271.82013926
 30
0.0
 11
85.74496272
 21
271.45730013
 31
0.0
  0
LINE
  5
1AF
100
AcDbEntity
  8
SLD-0_2
  6
CONTINUOUS
 62
       7
100
AcDbLine
 10
69.41555993
 20
286.54719792
 30
0.0
 11
-83.82830522
 21
286.54719792
 31
0.0
  0
LINE
  5
1B0
100
AcDbEntity
  8
SLD-0_2
  6
CONTINUOUS
 62
       7
100
AcDbLine
 10
158.70149025
 20
308.04687542
 30
0.0
 11
158.70149025
 21
297.29653001
 31
0.0
  0
LINE
  5
1B1
100
AcDbEntity
  8
SLD-0_2
  6
CONTINUOUS
 62
       7
100
AcDbLine
 10
59.43331347
 20
132.87729684
 30
0.0
 11
59.43331347
 21
145.12837386
 31
0.0
  0
LINE
  5
1B2
100
AcDbEntity
  8
SLD-0_2
  6
CONTINUOUS
 62
       7
100
AcDbLine
 10
76.43180949
 20
132.87729684
 30
0.0
 11
76.43180949
 21
145.12837386
 31
0.0
  0
LINE
  5
1B3
100
AcDbEntity
  8
SLD-0_2
  6
CONTINUOUS
 62
       7
100
AcDbLine
 10
110.43082818
 20
132.87729684
 30
0.0
 11
110.43082818
 21
145.12837386
 31
0.0
  0
LINE
  5
1B4
100
AcDbEntity
  8
SLD-0_2
  6
CONTINUOUS
 62
       7
100
AcDbLine
 10
135.93211883
 20
132.87729684
 30
0.0
 11
135.93211883
 21
145.12837386
 31
0.0
  0
LINE
  5
1B5
100
AcDbEntity
  8
SLD-0_2
  6
CONTINUOUS
 62
       7
100
AcDbLine
 10
69.41555993
 20
269.56491507
 30
0.0
 11
69.41555993
 21
292.04650271
 31
0.0
  0
LINE
  5
1B6
100
AcDbEntity
  8
SLD-0_2
  6
CONTINUOUS
 62
       7
100
AcDbLine
 10
8.67169478
 20
117.54571742
 30
0.0
 11
173.67169478
 21
117.54571742
 31
0.0
  0
LINE
  5
1B7
100
AcDbEntity
  8
SLD-0_2
  6
CONTINUOUS
 62
       7
100
AcDbLine
 10
18.13127477
 20
138.8214505
 30
0.0
 11
152.89109525
 21
138.8214505
 31
0.0
  0
LINE
  5
1B8
100
AcDbEntity
  8
SLD-0_2
  6
CONTINUOUS
 62
       7
100
AcDbLine
 10
85.7598362
 20
275.04224287
 30
0.0
 11
85.78126207
 21
274.69368418
 31
0.0
  0
LINE
  5
1B9
100
AcDbEntity
  8
SLD-0_2
  6
CONTINUOUS
 62
       7
100
AcDbLine
 10
85.13332086
 20
270.19495888
 30
0.0
 11
85.05917912
 21
270.14475667
 31
0.0
  0
LINE
  5
1BA
100
AcDbEntity
  8
SLD-0_2
  6
CONTINUOUS
 62
       7
100
AcDbLine
 10
171.52852567
 20
125.54831041
 30
0.0
 11
164.3684696
 21
125.54831041
 31
0.0
  0
LINE
  5
1BB
100
AcDbEntity
  8
SLD-0_2
  6
CONTINUOUS
 62
       7
100
AcDbLine
 10
84.41375603
 20
286.65258353
 30
0.0
 11
87.45169886
 21
286.65258353
 31
0.0
  0
LINE
  5
1BC
100
AcDbEntity
  8
SLD-0_2
  6
CONTINUOUS
 62
       7
100
AcDbLine
 10
38.18291347
 20
120.62824648
 30
0.0
 11
38.18291347
 21
132.87729684
 31
0.0
  0
LINE
  5
1BD
100
AcDbEntity
  8
SLD-0_2
  6
CONTINUOUS
 62
       7
100
AcDbLine
 10
56.38523741
 20
132.87729684
 30
0.0
 11
56.38523741
 21
120.62824648
 31
0.0
  0
LINE
  5
1BE
100
AcDbEntity
  8
SLD-0_2
  6
CONTINUOUS
 62
       7
100
AcDbLine
 10
55.18343614
 20
120.62824648
 30
0.0
 11
55.18343614
 21
132.87729684
 31
0.0
  0
LINE
  5
1BF
100
AcDbEntity
  8
SLD-0_2
  6
CONTINUOUS
 62
       7
100
AcDbLine
 10
80.6847268
 20
120.62824648
 30
0.0
 11
80.6847268
 21
132.87729684
 31
0.0
  0
LINE
  5
1C0
100
AcDbEntity
  8
SLD-0_2
  6
CONTINUOUS
 62
       7
100
AcDbLine
 10
132.88404277
 20
132.87729684
 30
0.0
 11
132.88404277
 21
120.62824648
 31
0.0
  0
LINE
  5
1C1
100
AcDbEntity
  8
SLD-0_2
  6
CONTINUOUS
 62
       7
100
AcDbLine
 10
128.63416543
 20
145.12837386
 30
0.0
 11
128.63416543
 21
132.87729684
 31
0.0
  0
LINE
  5
1C2
100
AcDbEntity
  8
SLD-0_2
  6
CONTINUOUS
 62
       7
100
AcDbLine
 10
69.41555993
 20
292.04650271
 30
0.0
 11
84.41375603
 21
292.04650271
 31
0.0
  0
LINE
  5
1C3
100
AcDbEntity
  8
SLD-0_2
  6
CONTINUOUS
 62
       7
100
AcDbLine
 10
33.87223675
 20
297.29653001
 30
0.0
 11
33.87223675
 21
308.04687542
 31
0.0
  0
LINE
  5
1C4
100
AcDbEntity
  8
SLD-0_2
  6
CONTINUOUS
 62
       7
100
AcDbLine
 10
85.8278487
 20
272.62724091
 30
0.0
 11
85.81292341
 21
272.21316438
 31
0.0
  0
LINE
  5
1C5
100
AcDbEntity
  8
SLD-0_2
  6
CONTINUOUS
 62
       7
100
AcDbLine
 10
85.05917912
 20
270.14475667
 30
0.0
 11
84.99362629
 21
270.11368694
 31
0.0
  0
LINE
  5
1C6
100
AcDbEntity
  8
SLD-0_2
  6
CONTINUOUS
 62
       7
100
AcDbLine
 10
84.80738905
 20
270.13138434
 30
0.0
 11
84.77734448
 21
270.15896564
 31
0.0
  0
LINE
  5
1C7
100
AcDbEntity
  8
SLD-0_2
  6
CONTINUOUS
 62
       7
100
AcDbLine
 10
25.43226814
 20
132.87729684
 30
0.0
 11
25.43226814
 21
145.12837386
 31
0.0
  0
LINE
  5
1C8
100
AcDbEntity
  8
SLD-0_2
  6
CONTINUOUS
 62
       7
100
AcDbLine
 10
98.88299744
 20
132.87729684
 30
0.0
 11
98.88299744
 21
120.62824648
 31
0.0
  0
LINE
  5
1C9
100
AcDbEntity
  8
SLD-0_2
  6
CONTINUOUS
 62
       7
100
AcDbLine
 10
35.13179744
 20
145.12837386
 30
0.0
 11
35.13179744
 21
132.87729684
 31
0.0
  0
LINE
  5
1CA
100
AcDbEntity
  8
SLD-0_2
  6
CONTINUOUS
 62
       7
100
AcDbLine
 10
33.93202282
 20
132.87729684
 30
0.0
 11
33.93202282
 21
145.12837386
 31
0.0
  0
LINE
  5
1CB
100
AcDbEntity
  8
SLD-0_2
  6
CONTINUOUS
 62
       7
100
AcDbLine
 10
52.1323201
 20
145.12837386
 30
0.0
 11
52.1323201
 21
132.87729684
 31
0.0
  0
LINE
  5
1CC
100
AcDbEntity
  8
SLD-0_2
  6
CONTINUOUS
 62
       7
100
AcDbLine
 10
145.63164813
 20
145.12837386
 30
0.0
 11
145.63164813
 21
132.87729684
 31
0.0
  0
LINE
  5
1CD
100
AcDbEntity
  8
SLD-0_2
  6
CONTINUOUS
 62
       7
100
AcDbLine
 10
150.09432333
 20
286.54719792
 30
0.0
 11
150.09432333
 21
297.29653001
 31
0.0
  0
LINE
  5
1CE
100
AcDbEntity
  8
SLD-0_2
  6
CONTINUOUS
 62
       7
100
AcDbLine
 10
145.78769989
 20
297.29653001
 30
0.0
 11
145.78769989
 21
308.04687542
 31
0.0
  0
LINE
  5
1CF
100
AcDbEntity
  8
SLD-0_2
  6
CONTINUOUS
 62
       7
100
AcDbLine
 10
16.65182296
 20
297.29653001
 30
0.0
 11
154.39689347
 21
297.29653001
 31
0.0
  0
LINE
  5
1D0
100
AcDbEntity
  8
SLD-0_2
  6
CONTINUOUS
 62
       7
100
AcDbLine
 10
22.38317875
 20
120.62824648
 30
0.0
 11
158.68122379
 21
120.62824648
 31
0.0
  0
LINE
  5
1D1
100
AcDbEntity
  8
SLD-0_2
  6
CONTINUOUS
 62
       7
100
AcDbLine
 10
85.74496272
 20
271.45730013
 30
0.0
 11
85.68846043
 21
271.13378158
 31
0.0
  0
LINE
  5
1D2
100
AcDbEntity
  8
SLD-0_2
  6
CONTINUOUS
 62
       7
100
AcDbLine
 10
84.73360277
 20
270.22464458
 30
0.0
 11
84.71891411
 21
270.25780737
 31
0.0
  0
LINE
  5
1D3
100
AcDbEntity
  8
SLD-0_2
  6
CONTINUOUS
 62
       7
100
AcDbLine
 10
163.19286373
 20
296.46220261
 30
0.0
 11
172.60371529
 21
296.46220261
 31
0.0
  0
LINE
  5
1D4
100
AcDbEntity
  8
SLD-0_2
  6
CONTINUOUS
 62
       7
100
AcDbLine
 10
172.60371529
 20
362.6673615
 30
0.0
 11
163.19286373
 21
362.6673615
 31
0.0
  0
LINE
  5
1D5
100
AcDbEntity
  8
SLD-0_2
  6
CONTINUOUS
 62
       7
100
AcDbLine
 10
97.68322282
 20
120.62824648
 30
0.0
 11
97.68322282
 21
132.87729684
 31
0.0
  0
LINE
  5
1D6
100
AcDbEntity
  8
SLD-0_2
  6
CONTINUOUS
 62
       7
100
AcDbLine
 10
140.18402282
 20
120.62824648
 30
0.0
 11
140.18402282
 21
132.87729684
 31
0.0
  0
LINE
  5
1D7
100
AcDbEntity
  8
SLD-0_2
  6
CONTINUOUS
 62
       7
100
AcDbLine
 10
67.93408147
 20
132.87729684
 30
0.0
 11
67.93408147
 21
145.12837386
 31
0.0
  0
LINE
  5
1D8
100
AcDbEntity
  8
SLD-0_2
  6
CONTINUOUS
 62
       7
100
AcDbLine
 10
93.43334548
 20
132.87729684
 30
0.0
 11
93.43334548
 21
145.12837386
 31
0.0
  0
LINE
  5
1D9
100
AcDbEntity
  8
SLD-0_2
  6
CONTINUOUS
 62
       7
100
AcDbLine
 10
123.4439242
 20
374.54722115
 30
0.0
 11
123.4439242
 21
362.22622484
 31
0.0
  0
LINE
  5
1DA
100
AcDbEntity
  8
SLD-0_2
  6
CONTINUOUS
 62
       7
100
AcDbLine
 10
42.59492251
 20
374.54722115
 30
0.0
 11
42.59492251
 21
362.22622484
 31
0.0
  0
LINE
  5
1DB
100
AcDbEntity
  8
SLD-0_2
  6
CONTINUOUS
 62
       7
100
AcDbLine
 10
111.3509256
 20
297.29653001
 30
0.0
 11
111.3509256
 21
308.04687542
 31
0.0
  0
LINE
  5
1DC
100
AcDbEntity
  8
SLD-0_2
  6
CONTINUOUS
 62
       7
100
AcDbLine
 10
94.13456511
 20
297.29653001
 30
0.0
 11
94.13456511
 21
308.04687542
 31
0.0
  0
LINE
  5
1DD
100
AcDbEntity
  8
SLD-0_2
  6
CONTINUOUS
 62
       7
100
AcDbLine
 10
16.63459646
 20
132.87729684
 30
0.0
 11
152.93365482
 21
132.87729684
 31
0.0
  0
LINE
  5
1DE
100
AcDbEntity
  8
SLD-0_2
  6
CONTINUOUS
 62
       7
100
AcDbLine
 10
84.70835257
 20
270.2878958
 30
0.0
 11
84.70142241
 21
270.31244245
 31
0.0
  0
LINE
  5
1DF
100
AcDbEntity
  8
SLD-0_2
  6
CONTINUOUS
 62
       7
100
AcDbLine
 10
191.17169478
 20
374.54719792
 30
0.0
 11
-83.82830522
 21
374.54719792
 31
0.0
  0
LINE
  5
1E0
100
AcDbEntity
  8
SLD-0_2
  6
CONTINUOUS
 62
       7
100
AcDbLine
 10
8.67169478
 20
286.54719792
 30
0.0
 11
8.67169478
 21
374.54722115
 31
0.0
  0
LINE
  5
1E1
100
AcDbEntity
  8
SLD-0_2
  6
CONTINUOUS
 62
       7
100
AcDbLine
 10
154.39689347
 20
297.29653001
 30
0.0
 11
154.39689347
 21
308.04687542
 31
0.0
  0
LINE
  5
1E2
100
AcDbEntity
  8
SLD-0_2
  6
CONTINUOUS
 62
       7
100
AcDbLine
 10
118.93260949
 20
132.87729684
 30
0.0
 11
118.93260949
 21
145.12837386
 31
0.0
  0
LINE
  5
1E3
100
AcDbEntity
  8
SLD-0_2
  6
CONTINUOUS
 62
       7
100
AcDbLine
 10
89.82996832
 20
286.54719792
 30
0.0
 11
89.82996832
 21
297.29653001
 31
0.0
  0
LINE
  5
1E4
100
AcDbEntity
  8
SLD-0_2
  6
CONTINUOUS
 62
       7
100
AcDbLine
 10
85.52435821
 20
297.29653001
 30
0.0
 11
85.52435821
 21
308.04687542
 31
0.0
  0
LINE
  5
1E5
100
AcDbEntity
  8
SLD-0_2
  6
CONTINUOUS
 62
       7
100
AcDbLine
 10
154.39689347
 20
308.04687542
 30
0.0
 11
16.65182296
 21
308.04687542
 31
0.0
  0
LINE
  5
1E6
100
AcDbEntity
  8
SLD-0_2
  6
CONTINUOUS
 62
       7
100
AcDbLine
 10
85.81720558
 20
273.90443309
 30
0.0
 11
85.82825634
 21
273.48200985
 31
0.0
  0
LINE
  5
1E7
100
AcDbEntity
  8
SLD-0_2
  6
CONTINUOUS
 62
       7
100
AcDbLine
 10
84.93616662
 20
270.09928227
 30
0.0
 11
84.88630436
 21
270.09907523
 31
0.0
  0
LINE
  5
1E8
100
AcDbEntity
  8
SLD-0_2
  6
CONTINUOUS
 62
       7
100
AcDbLine
 10
8.67169478
 20
106.54680792
 30
0.0
 11
-86.32830522
 21
106.54680792
 31
0.0
  0
LINE
  5
1E9
100
AcDbEntity
  8
SLD-0_2
  6
CONTINUOUS
 62
       7
100
AcDbLine
 10
173.67169478
 20
117.54571742
 30
0.0
 11
173.67169478
 21
104.54680792
 31
0.0
  0
LINE
  5
1EA
100
AcDbEntity
  8
SLD-0_2
  6
CONTINUOUS
 62
       7
100
AcDbLine
 10
164.37567973
 20
298.95989659
 30
0.0
 11
171.5357358
 21
298.95989659
 31
0.0
  0
LINE
  5
1EB
100
AcDbEntity
  8
SLD-0_2
  6
CONTINUOUS
 62
       7
100
AcDbLine
 10
171.52852567
 20
120.54718063
 30
0.0
 11
171.52852567
 21
125.54831041
 31
0.0
  0
LINE
  5
1EC
100
AcDbEntity
  8
SLD-0_2
  6
CONTINUOUS
 62
       7
100
AcDbLine
 10
131.68426814
 20
120.62824648
 30
0.0
 11
131.68426814
 21
132.87729684
 31
0.0
  0
LINE
  5
1ED
100
AcDbEntity
  8
SLD-0_2
  6
CONTINUOUS
 62
       7
100
AcDbLine
 10
43.63256543
 20
145.12837386
 30
0.0
 11
43.63256543
 21
132.87729684
 31
0.0
  0
LINE
  5
1EE
100
AcDbEntity
  8
SLD-0_2
  6
CONTINUOUS
 62
       7
100
AcDbLine
 10
16.63459646
 20
120.62824648
 30
0.0
 11
16.63459646
 21
132.87729684
 31
0.0
  0
LINE
  5
1EF
100
AcDbEntity
  8
SLD-0_2
  6
CONTINUOUS
 62
       7
100
AcDbLine
 10
157.18353216
 20
132.87729684
 30
0.0
 11
157.18353216
 21
120.62824648
 31
0.0
  0
LINE
  5
1F0
100
AcDbEntity
  8
SLD-0_2
  6
CONTINUOUS
 62
       7
100
AcDbLine
 10
78.66517374
 20
297.01482617
 30
0.0
 11
78.66517374
 21
292.04650271
 31
0.0
  0
LINE
  5
1F1
100
AcDbEntity
  8
SLD-0_2
  6
CONTINUOUS
 62
       7
100
AcDbLine
 10
68.91497829
 20
297.01482617
 30
0.0
 11
75.16414222
 21
297.01482617
 31
0.0
  0
LINE
  5
1F2
100
AcDbEntity
  8
SLD-0_2
  6
CONTINUOUS
 62
       7
100
AcDbLine
 10
114.46182771
 20
374.54722115
 30
0.0
 11
114.46182771
 21
362.22622484
 31
0.0
  0
LINE
  5
1F3
100
AcDbEntity
  8
SLD-0_2
  6
CONTINUOUS
 62
       7
100
AcDbLine
 10
115.65754904
 20
286.54719792
 30
0.0
 11
115.65754904
 21
297.29653001
 31
0.0
  0
LINE
  5
1F4
100
AcDbEntity
  8
SLD-0_2
  6
CONTINUOUS
 62
       7
100
AcDbLine
 10
158.70149025
 20
286.54719792
 30
0.0
 11
158.70149025
 21
297.29653001
 31
0.0
  0
LINE
  5
1F5
100
AcDbEntity
  8
SLD-0_2
  6
CONTINUOUS
 62
       7
100
AcDbLine
 10
119.96214582
 20
297.29653001
 30
0.0
 11
119.96214582
 21
308.04687542
 31
0.0
  0
LINE
  5
1F6
100
AcDbEntity
  8
SLD-0_2
  6
CONTINUOUS
 62
       7
100
AcDbLine
 10
68.30698439
 20
297.29653001
 30
0.0
 11
68.30698439
 21
308.04687542
 31
0.0
  0
LINE
  5
1F7
100
AcDbEntity
  8
SLD-0_2
  6
CONTINUOUS
 62
       7
100
AcDbLine
 10
59.6967775
 20
297.29653001
 30
0.0
 11
59.6967775
 21
308.04687542
 31
0.0
  0
LINE
  5
1F8
100
AcDbEntity
  8
SLD-0_2
  6
CONTINUOUS
 62
       7
100
AcDbLine
 10
25.26202985
 20
297.29653001
 30
0.0
 11
25.26202985
 21
308.04687542
 31
0.0
  0
LINE
  5
1F9
100
AcDbEntity
  8
SLD-0_2
  6
CONTINUOUS
 62
       7
100
AcDbLine
 10
18.13330142
 20
145.12837386
 30
0.0
 11
18.13330142
 21
132.87729684
 31
0.0
  0
LINE
  5
1FA
100
AcDbEntity
  8
SLD-0_2
  6
CONTINUOUS
 62
       7
100
AcDbLine
 10
22.38317875
 20
124.89433698
 30
0.0
 11
157.14502588
 21
124.89433698
 31
0.0
  0
LINE
  5
1FB
100
AcDbEntity
  8
SLD-0_2
  6
CONTINUOUS
 62
       7
100
AcDbLine
 10
16.63459646
 20
145.12837386
 30
0.0
 11
16.63459646
 21
132.87729684
 31
0.0
  0
LINE
  5
1FC
100
AcDbEntity
  8
SLD-0_2
  6
CONTINUOUS
 62
       7
100
AcDbLine
 10
85.78126207
 20
274.69368418
 30
0.0
 11
85.80096301
 21
274.3113694
 31
0.0
  0
LINE
  5
1FD
100
AcDbEntity
  8
SLD-0_2
  6
CONTINUOUS
 62
       7
100
AcDbLine
 10
85.41223712
 20
270.48503472
 30
0.0
 11
85.3093541
 21
270.36263048
 31
0.0
  0
LINE
  5
1FE
100
AcDbEntity
  8
SLD-0_2
  6
CONTINUOUS
 62
       7
100
AcDbLine
 10
72.1839588
 20
120.62824648
 30
0.0
 11
72.1839588
 21
132.87729684
 31
0.0
  0
LINE
  5
1FF
100
AcDbEntity
  8
SLD-0_2
  6
CONTINUOUS
 62
       7
100
AcDbLine
 10
69.13385609
 20
145.12837386
 30
0.0
 11
69.13385609
 21
132.87729684
 31
0.0
  0
LINE
  5
200
100
AcDbEntity
  8
SLD-0_2
  6
CONTINUOUS
 62
       7
100
AcDbLine
 10
144.43390015
 20
132.87729684
 30
0.0
 11
144.43390015
 21
145.12837386
 31
0.0
  0
LINE
  5
201
100
AcDbEntity
  8
SLD-0_2
  6
CONTINUOUS
 62
       7
100
AcDbLine
 10
75.16414222
 20
297.01482617
 30
0.0
 11
75.16414222
 21
292.04650271
 31
0.0
  0
LINE
  5
202
100
AcDbEntity
  8
SLD-0_2
  6
CONTINUOUS
 62
       7
100
AcDbLine
 10
141.41014384
 20
374.54722115
 30
0.0
 11
141.41014384
 21
362.22622484
 31
0.0
  0
LINE
  5
203
100
AcDbEntity
  8
SLD-0_2
  6
CONTINUOUS
 62
       7
100
AcDbLine
 10
96.49358142
 20
374.54722115
 30
0.0
 11
96.49358142
 21
362.22622484
 31
0.0
  0
LINE
  5
204
100
AcDbEntity
  8
SLD-0_2
  6
CONTINUOUS
 62
       7
100
AcDbLine
 10
141.48310311
 20
286.54719792
 30
0.0
 11
141.48310311
 21
297.29653001
 31
0.0
  0
LINE
  5
205
100
AcDbEntity
  8
SLD-0_2
  6
CONTINUOUS
 62
       7
100
AcDbLine
 10
98.43814857
 20
286.54719792
 30
0.0
 11
98.43814857
 21
297.29653001
 31
0.0
  0
LINE
  5
206
100
AcDbEntity
  8
SLD-0_2
  6
CONTINUOUS
 62
       7
100
AcDbLine
 10
46.78501378
 20
286.54719792
 30
0.0
 11
46.78501378
 21
297.29653001
 31
0.0
  0
LINE
  5
207
100
AcDbEntity
  8
SLD-0_2
  6
CONTINUOUS
 62
       7
100
AcDbLine
 10
85.68846043
 20
271.13378158
 30
0.0
 11
85.61463227
 21
270.85871819
 31
0.0
  0
LINE
  5
208
100
AcDbEntity
  8
SLD-0_2
  6
CONTINUOUS
 62
       7
100
AcDbLine
 10
84.99362629
 20
270.11368694
 30
0.0
 11
84.93616662
 21
270.09928227
 31
0.0
  0
LINE
  5
209
100
AcDbEntity
  8
SLD-0_2
  6
CONTINUOUS
 62
       7
100
AcDbLine
 10
173.67169478
 20
286.54719792
 30
0.0
 11
173.67169478
 21
374.54719792
 31
0.0
  0
LINE
  5
20A
100
AcDbEntity
  8
SLD-0_2
  6
CONTINUOUS
 62
       7
100
AcDbLine
 10
73.38373343
 20
132.87729684
 30
0.0
 11
73.38373343
 21
120.62824648
 31
0.0
  0
LINE
  5
20B
100
AcDbEntity
  8
SLD-0_2
  6
CONTINUOUS
 62
       7
100
AcDbLine
 10
106.18297749
 20
120.62824648
 30
0.0
 11
106.18297749
 21
132.87729684
 31
0.0
  0
LINE
  5
20C
100
AcDbEntity
  8
SLD-0_2
  6
CONTINUOUS
 62
       7
100
AcDbLine
 10
114.6847588
 20
120.62824648
 30
0.0
 11
114.6847588
 21
132.87729684
 31
0.0
  0
LINE
  5
20D
100
AcDbEntity
  8
SLD-0_2
  6
CONTINUOUS
 62
       7
100
AcDbLine
 10
148.68377749
 20
120.62824648
 30
0.0
 11
148.68377749
 21
132.87729684
 31
0.0
  0
LINE
  5
20E
100
AcDbEntity
  8
SLD-0_2
  6
CONTINUOUS
 62
       7
100
AcDbLine
 10
60.6330881
 20
145.12837386
 30
0.0
 11
60.6330881
 21
132.87729684
 31
0.0
  0
LINE
  5
20F
100
AcDbEntity
  8
SLD-0_2
  6
CONTINUOUS
 62
       7
100
AcDbLine
 10
22.38317875
 20
132.87729684
 30
0.0
 11
22.38317875
 21
120.62824648
 31
0.0
  0
LINE
  5
210
100
AcDbEntity
  8
SLD-0_2
  6
CONTINUOUS
 62
       7
100
AcDbLine
 10
69.54425197
 20
374.54722115
 30
0.0
 11
69.54425197
 21
362.22622484
 31
0.0
  0
LINE
  5
211
100
AcDbEntity
  8
SLD-0_2
  6
CONTINUOUS
 62
       7
100
AcDbLine
 10
64.00340093
 20
286.54719792
 30
0.0
 11
64.00340093
 21
297.29653001
 31
0.0
  0
LINE
  5
212
100
AcDbEntity
  8
SLD-0_2
  6
CONTINUOUS
 62
       7
100
AcDbLine
 10
84.77734448
 20
270.15896564
 30
0.0
 11
84.75291431
 21
270.19087486
 31
0.0
  0
LINE
  5
213
100
AcDbEntity
  8
SLD-0_2
  6
CONTINUOUS
 62
       7
100
AcDbLine
 10
84.70142241
 20
270.31244245
 30
0.0
 11
84.69762787
 21
270.32897988
 31
0.0
  0
LINE
  5
214
100
AcDbEntity
  8
SLD-0_2
  6
CONTINUOUS
 62
       7
100
AcDbLine
 10
191.17169478
 20
286.54719792
 30
0.0
 11
84.41375603
 21
286.54719792
 31
0.0
  0
LINE
  5
215
100
AcDbEntity
  8
SLD-0_2
  6
CONTINUOUS
 62
       7
100
AcDbLine
 10
20.95743307
 20
286.54719792
 30
0.0
 11
16.65182296
 21
286.54719792
 31
0.0
  0
LINE
  5
216
100
AcDbEntity
  8
SLD-0_2
  6
CONTINUOUS
 62
       7
100
AcDbLine
 10
46.68266814
 20
120.62824648
 30
0.0
 11
46.68266814
 21
132.87729684
 31
0.0
  0
LINE
  5
217
100
AcDbEntity
  8
SLD-0_2
  6
CONTINUOUS
 62
       7
100
AcDbLine
 10
89.18245482
 20
120.62824648
 30
0.0
 11
89.18245482
 21
132.87729684
 31
0.0
  0
LINE
  5
218
100
AcDbEntity
  8
SLD-0_2
  6
CONTINUOUS
 62
       7
100
AcDbLine
 10
42.43279081
 20
132.87729684
 30
0.0
 11
42.43279081
 21
145.12837386
 31
0.0
  0
LINE
  5
219
100
AcDbEntity
  8
SLD-0_2
  6
CONTINUOUS
 62
       7
100
AcDbLine
 10
84.91636432
 20
297.01482617
 30
0.0
 11
78.66517374
 21
297.01482617
 31
0.0
  0
LINE
  5
21A
100
AcDbEntity
  8
SLD-0_2
  6
CONTINUOUS
 62
       7
100
AcDbLine
 10
51.57904566
 20
374.54722115
 30
0.0
 11
51.57904566
 21
362.22622484
 31
0.0
  0
LINE
  5
21B
100
AcDbEntity
  8
SLD-0_2
  6
CONTINUOUS
 62
       7
100
AcDbLine
 10
159.37636348
 20
374.54722115
 30
0.0
 11
159.37636348
 21
362.22622484
 31
0.0
  0
LINE
  5
21C
100
AcDbEntity
  8
SLD-0_2
  6
CONTINUOUS
 62
       7
100
AcDbLine
 10
22.38317875
 20
126.57037349
 30
0.0
 11
157.14502588
 21
126.57037349
 31
0.0
  0
LINE
  5
21D
100
AcDbEntity
  8
SLD-0_2
  6
CONTINUOUS
 62
       7
100
AcDbLine
 10
85.69155218
 20
275.91622484
 30
0.0
 11
85.70254339
 21
275.79403643
 31
0.0
  0
LINE
  5
21E
100
AcDbEntity
  8
SLD-0_2
  6
CONTINUOUS
 62
       7
100
AcDbLine
 10
85.61463227
 20
270.85871819
 30
0.0
 11
85.5217448
 21
270.64124455
 31
0.0
  0
LINE
  5
21F
100
AcDbEntity
  8
SLD-0_2
  6
CONTINUOUS
 62
       7
100
AcDbLine
 10
84.88630436
 20
270.09907523
 30
0.0
 11
84.84354376
 21
270.1105984
 31
0.0
  0
LINE
  5
220
100
AcDbEntity
  8
SLD-0_2
  6
CONTINUOUS
 62
       7
100
AcDbLine
 10
171.5357358
 20
-171.04010341
 30
0.0
 11
171.5357358
 21
-109.83033247
 31
0.0
  0
LINE
  5
221
100
AcDbEntity
  8
SLD-0_2
  6
CONTINUOUS
 62
       7
100
AcDbLine
 10
163.19286373
 20
-173.53779739
 30
0.0
 11
172.60371529
 21
-173.53779739
 31
0.0
  0
LINE
  5
222
100
AcDbEntity
  8
SLD-0_2
  6
CONTINUOUS
 62
       7
100
AcDbLine
 10
164.37567973
 20
-109.83033247
 30
0.0
 11
164.37567973
 21
-171.04010341
 31
0.0
  0
LINE
  5
223
100
AcDbEntity
  8
SLD-0_2
  6
CONTINUOUS
 62
       7
100
AcDbLine
 10
172.60371529
 20
-173.53779739
 30
0.0
 11
172.60371529
 21
-107.3326385
 31
0.0
  0
LINE
  5
224
100
AcDbEntity
  8
SLD-0_2
  6
CONTINUOUS
 62
       7
100
AcDbLine
 10
164.37567973
 20
360.16966753
 30
0.0
 11
164.37567973
 21
298.95989659
 31
0.0
  0
LINE
  5
225
100
AcDbEntity
  8
SLD-0_2
  6
CONTINUOUS
 62
       7
100
AcDbLine
 10
172.60371529
 20
296.46220261
 30
0.0
 11
172.60371529
 21
362.6673615
 31
0.0
  0
LINE
  5
226
100
AcDbEntity
  8
SLD-0_2
  6
CONTINUOUS
 62
       7
100
AcDbLine
 10
162.64356245
 20
351.74832385
 30
0.0
 11
162.64356245
 21
317.34713493
 31
0.0
  0
LINE
  5
227
100
AcDbEntity
  8
SLD-0_2
  6
CONTINUOUS
 62
       7
100
AcDbLine
 10
87.45169886
 20
276.19508851
 30
0.0
 11
84.41375603
 21
276.19508851
 31
0.0
  0
LINE
  5
228
100
AcDbEntity
  8
SLD-0_2
  6
CONTINUOUS
 62
       7
100
AcDbLine
 10
124.3842881
 20
132.87729684
 30
0.0
 11
124.3842881
 21
120.62824648
 31
0.0
  0
LINE
  5
229
100
AcDbEntity
  8
SLD-0_2
  6
CONTINUOUS
 62
       7
100
AcDbLine
 10
70.91629153
 20
292.04650271
 30
0.0
 11
68.91497829
 21
297.01482617
 31
0.0
  0
LINE
  5
22A
100
AcDbEntity
  8
SLD-0_2
  6
CONTINUOUS
 62
       7
100
AcDbLine
 10
132.42804734
 20
374.54722115
 30
0.0
 11
132.42804734
 21
362.22622484
 31
0.0
  0
LINE
  5
22B
100
AcDbEntity
  8
SLD-0_2
  6
CONTINUOUS
 62
       7
100
AcDbLine
 10
55.39319403
 20
286.54719792
 30
0.0
 11
55.39319403
 21
297.29653001
 31
0.0
  0
LINE
  5
22C
100
AcDbEntity
  8
SLD-0_2
  6
CONTINUOUS
 62
       7
100
AcDbLine
 10
29.56561332
 20
286.54719792
 30
0.0
 11
29.56561332
 21
297.29653001
 31
0.0
  0
LINE
  5
22D
100
AcDbEntity
  8
SLD-0_2
  6
CONTINUOUS
 62
       7
100
AcDbLine
 10
42.47839035
 20
297.29653001
 30
0.0
 11
42.47839035
 21
308.04687542
 31
0.0
  0
LINE
  5
22E
100
AcDbEntity
  8
SLD-0_2
  6
CONTINUOUS
 62
       7
100
AcDbLine
 10
85.68750324
 20
275.95898422
 30
0.0
 11
85.69155218
 21
275.91622484
 31
0.0
  0
LINE
  5
22F
100
AcDbEntity
  8
SLD-0_2
  6
CONTINUOUS
 62
       7
100
AcDbLine
 10
85.80096301
 20
274.3113694
 30
0.0
 11
85.81720558
 21
273.90443309
 31
0.0
  0
LINE
  5
230
100
AcDbEntity
  8
SLD-0_2
  6
CONTINUOUS
 62
       7
100
AcDbLine
 10
85.82825634
 20
273.48200985
 30
0.0
 11
85.83238186
 21
273.05323426
 31
0.0
  0
LINE
  5
231
100
AcDbEntity
  8
SLD-0_2
  6
CONTINUOUS
 62
       7
100
AcDbLine
 10
193.67169478
 20
106.54680792
 30
0.0
 11
193.67169478
 21
104.54680792
 31
0.0
  0
LINE
  5
232
100
AcDbEntity
  8
SLD-0_2
  6
CONTINUOUS
 62
       7
100
AcDbLine
 10
16.65182296
 20
286.54719792
 30
0.0
 11
16.65182296
 21
297.29653001
 31
0.0
  0
LINE
  5
233
100
AcDbEntity
  8
SLD-0_2
  6
CONTINUOUS
 62
       7
100
AcDbLine
 10
81.8834881
 20
132.87729684
 30
0.0
 11
81.8834881
 21
120.62824648
 31
0.0
  0
LINE
  5
234
100
AcDbEntity
  8
SLD-0_2
  6
CONTINUOUS
 62
       7
100
AcDbLine
 10
111.63262944
 20
145.12837386
 30
0.0
 11
111.63262944
 21
132.87729684
 31
0.0
  0
LINE
  5
235
100
AcDbEntity
  8
SLD-0_2
  6
CONTINUOUS
 62
       7
100
AcDbLine
 10
84.41375603
 20
292.04650271
 30
0.0
 11
84.41375603
 21
269.56491507
 31
0.0
  0
LINE
  5
236
100
AcDbEntity
  8
SLD-0_2
  6
CONTINUOUS
 62
       7
100
AcDbLine
 10
171.65675976
 20
120.54718063
 30
0.0
 11
171.65675976
 21
117.54571742
 31
0.0
  0
LINE
  5
237
100
AcDbEntity
  8
SLD-0_2
  6
CONTINUOUS
 62
       7
100
AcDbLine
 10
87.51047161
 20
374.54722115
 30
0.0
 11
87.51047161
 21
362.22622484
 31
0.0
  0
LINE
  5
238
100
AcDbEntity
  8
SLD-0_2
  6
CONTINUOUS
 62
       7
100
AcDbLine
 10
78.52634847
 20
374.54722115
 30
0.0
 11
78.52634847
 21
362.22622484
 31
0.0
  0
LINE
  5
239
100
AcDbEntity
  8
SLD-0_2
  6
CONTINUOUS
 62
       7
100
AcDbLine
 10
60.56012883
 20
374.54722115
 30
0.0
 11
60.56012883
 21
362.22622484
 31
0.0
  0
LINE
  5
23A
100
AcDbEntity
  8
SLD-0_2
  6
CONTINUOUS
 62
       7
100
AcDbLine
 10
33.61079937
 20
374.54722115
 30
0.0
 11
33.61079937
 21
362.22622484
 31
0.0
  0
LINE
  5
23B
100
AcDbEntity
  8
SLD-0_2
  6
CONTINUOUS
 62
       7
100
AcDbLine
 10
16.65182296
 20
308.04687542
 30
0.0
 11
16.65182296
 21
297.29653001
 31
0.0
  0
LINE
  5
23C
100
AcDbEntity
  8
SLD-0_2
  6
CONTINUOUS
 62
       7
100
AcDbLine
 10
141.38177079
 20
120.62824648
 30
0.0
 11
141.38177079
 21
132.87729684
 31
0.0
  0
LINE
  5
23D
100
AcDbEntity
  8
SLD-0_2
  6
CONTINUOUS
 62
       7
100
AcDbLine
 10
85.3093541
 20
270.36263048
 30
0.0
 11
85.21654727
 21
270.26676101
 31
0.0
  0
LINE
  5
23E
100
AcDbEntity
  8
SLD-0_2
  6
CONTINUOUS
 62
       7
100
AcDbLine
 10
141.38379744
 20
132.87729684
 30
0.0
 11
141.38379744
 21
120.62824648
 31
0.0
  0
LINE
  5
23F
100
AcDbEntity
  8
SLD-0_2
  6
CONTINUOUS
 62
       7
100
AcDbLine
 10
84.93257749
 20
132.87729684
 30
0.0
 11
84.93257749
 21
145.12837386
 31
0.0
  0
LINE
  5
240
100
AcDbEntity
  8
SLD-0_2
  6
CONTINUOUS
 62
       7
100
AcDbLine
 10
127.43236416
 20
132.87729684
 30
0.0
 11
127.43236416
 21
145.12837386
 31
0.0
  0
LINE
  5
241
100
AcDbEntity
  8
SLD-0_2
  6
CONTINUOUS
 62
       7
100
AcDbLine
 10
152.93365482
 20
145.12837386
 30
0.0
 11
158.68122379
 21
145.12837386
 31
0.0
  0
LINE
  5
242
100
AcDbEntity
  8
SLD-0_2
  6
CONTINUOUS
 62
       7
100
AcDbLine
 10
82.91505107
 20
292.04650271
 30
0.0
 11
84.91636432
 21
297.01482617
 31
0.0
  0
LINE
  5
243
100
AcDbEntity
  8
SLD-0_2
  6
CONTINUOUS
 62
       7
100
AcDbLine
 10
15.64457974
 20
362.22622484
 30
0.0
 11
15.64457974
 21
374.54722115
 31
0.0
  0
LINE
  5
244
100
AcDbEntity
  8
SLD-0_2
  6
CONTINUOUS
 62
       7
100
AcDbLine
 10
132.87390954
 20
286.54719792
 30
0.0
 11
132.87390954
 21
297.29653001
 31
0.0
  0
LINE
  5
245
100
AcDbEntity
  8
SLD-0_2
  6
CONTINUOUS
 62
       7
100
AcDbLine
 10
124.26471596
 20
286.54719792
 30
0.0
 11
124.26471596
 21
297.29653001
 31
0.0
  0
LINE
  5
246
100
AcDbEntity
  8
SLD-0_2
  6
CONTINUOUS
 62
       7
100
AcDbLine
 10
76.91415132
 20
297.29653001
 30
0.0
 11
76.91415132
 21
308.04687542
 31
0.0
  0
LINE
  5
247
100
AcDbEntity
  8
SLD-0_2
  6
CONTINUOUS
 62
       7
100
AcDbLine
 10
158.68122379
 20
120.62824648
 30
0.0
 11
158.68122379
 21
132.87729684
 31
0.0
  0
LINE
  5
248
100
AcDbEntity
  8
SLD-0_2
  6
CONTINUOUS
 62
       7
100
AcDbLine
 10
18.13127477
 20
136.89410985
 30
0.0
 11
152.89109525
 21
136.89410985
 31
0.0
  0
LINE
  5
249
100
AcDbEntity
  8
SLD-0_2
  6
CONTINUOUS
 62
       7
100
AcDbLine
 10
85.81292341
 20
272.21316438
 30
0.0
 11
85.78587256
 21
271.82013926
 31
0.0
  0
LINE
  5
24A
100
AcDbEntity
  8
SLD-0_2
  6
CONTINUOUS
 62
       7
100
AcDbLine
 10
193.67169478
 20
106.54680792
 30
0.0
 11
173.67169478
 21
106.54680792
 31
0.0
  0
LINE
  5
24B
100
AcDbEntity
  8
SLD-0_2
  6
CONTINUOUS
 62
       7
100
AcDbLine
 10
163.19286373
 20
362.6673615
 30
0.0
 11
163.19286373
 21
296.46220261
 31
0.0
  0
LINE
  5
24C
100
AcDbEntity
  8
SLD-0_2
  6
CONTINUOUS
 62
       7
100
AcDbLine
 10
171.5357358
 20
360.16966753
 30
0.0
 11
164.37567973
 21
360.16966753
 31
0.0
  0
LINE
  5
24D
100
AcDbEntity
  8
SLD-0_2
  6
CONTINUOUS
 62
       7
100
AcDbLine
 10
87.45169886
 20
286.65258353
 30
0.0
 11
87.45169886
 21
276.19508851
 31
0.0
  0
LINE
  5
24E
100
AcDbEntity
  8
SLD-0_2
  6
CONTINUOUS
 62
       7
100
AcDbLine
 10
47.88446941
 20
132.87729684
 30
0.0
 11
47.88446941
 21
120.62824648
 31
0.0
  0
LINE
  5
24F
100
AcDbEntity
  8
SLD-0_2
  6
CONTINUOUS
 62
       7
100
AcDbLine
 10
63.68420413
 20
120.62824648
 30
0.0
 11
63.68420413
 21
132.87729684
 31
0.0
  0
LINE
  5
250
100
AcDbEntity
  8
SLD-0_2
  6
CONTINUOUS
 62
       7
100
AcDbLine
 10
94.63210678
 20
145.12837386
 30
0.0
 11
94.63210678
 21
132.87729684
 31
0.0
  0
LINE
  5
251
100
AcDbEntity
  8
SLD-0_2
  6
CONTINUOUS
 62
       7
100
AcDbLine
 10
150.39426698
 20
374.54722115
 30
0.0
 11
150.39426698
 21
362.22622484
 31
0.0
  0
LINE
  5
252
100
AcDbEntity
  8
SLD-0_2
  6
CONTINUOUS
 62
       7
100
AcDbLine
 10
107.04632882
 20
286.54719792
 30
0.0
 11
107.04632882
 21
297.29653001
 31
0.0
  0
LINE
  5
253
100
AcDbEntity
  8
SLD-0_2
  6
CONTINUOUS
 62
       7
100
AcDbLine
 10
158.70149025
 20
297.29653001
 30
0.0
 11
20.95743307
 21
297.29653001
 31
0.0
  0
LINE
  5
254
100
AcDbEntity
  8
SLD-0_2
  6
CONTINUOUS
 62
       7
100
AcDbLine
 10
128.56931275
 20
297.29653001
 30
0.0
 11
128.56931275
 21
308.04687542
 31
0.0
  0
LINE
  5
255
100
AcDbEntity
  8
SLD-0_2
  6
CONTINUOUS
 62
       7
100
AcDbLine
 10
85.73841884
 20
275.34791086
 30
0.0
 11
85.7598362
 21
275.04224287
 31
0.0
  0
LINE
  5
256
100
AcDbEntity
  8
SLD-0_2
  6
CONTINUOUS
 62
       7
100
AcDbLine
 10
85.21654727
 20
270.26676101
 30
0.0
 11
85.13332086
 21
270.19495888
 31
0.0
  0
LINE
  5
257
100
AcDbEntity
  8
SLD-0_2
  6
CONTINUOUS
 62
       7
100
AcDbLine
 10
84.84354376
 20
270.1105984
 30
0.0
 11
84.80738905
 21
270.13138434
 31
0.0
  0
LINE
  5
258
100
AcDbEntity
  8
SLD-0_2
  6
CONTINUOUS
 62
       7
100
AcDbLine
 10
84.69762787
 20
270.32897988
 30
0.0
 11
84.69647319
 21
270.33504067
 31
0.0
  0
LINE
  5
259
100
AcDbEntity
  8
SLD-0_2
  6
CONTINUOUS
 62
       7
100
AcDbLine
 10
29.68417213
 20
120.62824648
 30
0.0
 11
29.68417213
 21
132.87729684
 31
0.0
  0
LINE
  5
25A
100
AcDbEntity
  8
SLD-0_2
  6
CONTINUOUS
 62
       7
100
AcDbLine
 10
107.38275211
 20
132.87729684
 30
0.0
 11
107.38275211
 21
120.62824648
 31
0.0
  0
LINE
  5
25B
100
AcDbEntity
  8
SLD-0_2
  6
CONTINUOUS
 62
       7
100
AcDbLine
 10
115.88250678
 20
132.87729684
 30
0.0
 11
115.88250678
 21
120.62824648
 31
0.0
  0
LINE
  5
25C
100
AcDbEntity
  8
SLD-0_2
  6
CONTINUOUS
 62
       7
100
AcDbLine
 10
137.13189346
 20
145.12837386
 30
0.0
 11
137.13189346
 21
132.87729684
 31
0.0
  0
LINE
  5
25D
100
AcDbEntity
  8
SLD-0_2
  6
CONTINUOUS
 62
       7
100
AcDbLine
 10
152.93365482
 20
132.87729684
 30
0.0
 11
152.93365482
 21
145.12837386
 31
0.0
  0
LINE
  5
25E
100
AcDbEntity
  8
SLD-0_2
  6
CONTINUOUS
 62
       7
100
AcDbLine
 10
84.41375603
 20
269.56491507
 30
0.0
 11
69.41555993
 21
269.56491507
 31
0.0
  0
LINE
  5
25F
100
AcDbEntity
  8
SLD-0_2
  6
CONTINUOUS
 62
       7
100
AcDbLine
 10
38.17683353
 20
286.54719792
 30
0.0
 11
38.17683353
 21
297.29653001
 31
0.0
  0
LINE
  5
260
100
AcDbEntity
  8
SLD-0_2
  6
CONTINUOUS
 62
       7
100
AcDbLine
 10
137.17850632
 20
297.29653001
 30
0.0
 11
137.17850632
 21
308.04687542
 31
0.0
  0
LINE
  5
261
100
AcDbEntity
  8
SLD-0_2
  6
CONTINUOUS
 62
       7
100
AcDbLine
 10
51.08859725
 20
297.29653001
 30
0.0
 11
51.08859725
 21
308.04687542
 31
0.0
  0
LINE
  5
262
100
AcDbEntity
  8
SLD-0_2
  6
CONTINUOUS
 62
       7
100
AcDbLine
 10
158.68122379
 20
132.87729684
 30
0.0
 11
22.38317875
 21
132.87729684
 31
0.0
  0
LINE
  5
263
100
AcDbEntity
  8
SLD-0_2
  6
CONTINUOUS
 62
       7
100
AcDbLine
 10
85.71874342
 20
275.60155357
 30
0.0
 11
85.73841884
 21
275.34791086
 31
0.0
  0
LINE
  5
264
100
AcDbEntity
  8
SLD-0_2
  6
CONTINUOUS
 62
       7
100
AcDbLine
 10
85.83238186
 20
273.05323426
 30
0.0
 11
85.8278487
 21
272.62724091
 31
0.0
  0
LINE
  5
265
100
AcDbEntity
  8
SLD-0_2
  6
CONTINUOUS
 62
       7
100
AcDbLine
 10
85.5217448
 20
270.64124455
 30
0.0
 11
85.41223712
 21
270.48503472
 31
0.0
  0
LINE
  5
266
100
AcDbEntity
  8
SLD-0_2
  6
CONTINUOUS
 62
       7
100
AcDbLine
 10
84.75291431
 20
270.19087486
 30
0.0
 11
84.73360277
 21
270.22464458
 31
0.0
  0
LINE
  5
267
100
AcDbEntity
  8
SLD-0_2
  6
CONTINUOUS
 62
       7
100
AcDbLine
 10
171.5357358
 20
298.95989659
 30
0.0
 11
171.5357358
 21
360.16966753
 31
0.0
  0
LINE
  5
268
100
AcDbEntity
  8
SLD-0_2
  6
CONTINUOUS
 62
       7
100
AcDbLine
 10
163.19286373
 20
-107.3326385
 30
0.0
 11
163.19286373
 21
-173.53779739
 31
0.0
  0
LINE
  5
269
100
AcDbEntity
  8
SLD-0_2
  6
CONTINUOUS
 62
       7
100
AcDbLine
 10
172.60371529
 20
-107.3326385
 30
0.0
 11
163.19286373
 21
-107.3326385
 31
0.0
  0
LINE
  5
26A
100
AcDbEntity
  8
SLD-0_2
  6
CONTINUOUS
 62
       7
100
AcDbLine
 10
171.5357358
 20
-109.83033247
 30
0.0
 11
164.37567973
 21
-109.83033247
 31
0.0
  0
LINE
  5
26B
100
AcDbEntity
  8
SLD-0_2
  6
CONTINUOUS
 62
       7
100
AcDbLine
 10
164.37567973
 20
-171.04010341
 30
0.0
 11
171.5357358
 21
-171.04010341
 31
0.0
  0
LINE
  5
26C
100
AcDbEntity
  8
SLD-0_2
  6
CONTINUOUS
 62
       7
100
AcDbLine
 10
162.64356245
 20
-118.25167615
 30
0.0
 11
162.64356245
 21
-152.65286507
 31
0.0
  0
LINE
  5
26D
100
AcDbEntity
  8
SLD-0_2
  6
CONTINUOUS
 62
       7
100
AcDbLine
 10
164.3684696
 20
-344.45168959
 30
0.0
 11
164.3684696
 21
-349.45281937
 31
0.0
  0
LINE
  5
26E
100
AcDbEntity
  8
SLD-0_2
  6
CONTINUOUS
 62
       7
100
AcDbLine
 10
171.52852567
 20
-349.45281937
 30
0.0
 11
171.52852567
 21
-344.45168959
 31
0.0
  0
LINE
  5
26F
100
AcDbEntity
  8
SLD-0_2
  6
CONTINUOUS
 62
       7
100
AcDbLine
 10
171.52852567
 20
-344.45168959
 30
0.0
 11
164.3684696
 21
-344.45168959
 31
0.0
  0
LINE
  5
270
100
AcDbEntity
  8
SLD-0_2
  6
PHANTOM
 62
       7
100
AcDbLine
 10
86.67169478
 20
310.54720953
 30
0.0
 11
86.67169478
 21
358.54720953
 31
0.0
  0
LINE
  5
271
100
AcDbEntity
  8
SLD-0_2
  6
PHANTOM
 62
       7
100
AcDbLine
 10
143.67169478
 20
310.54720953
 30
0.0
 11
143.67169478
 21
358.54720953
 31
0.0
  0
LINE
  5
272
100
AcDbEntity
  8
SLD-0_2
  6
PHANTOM
 62
       7
100
AcDbLine
 10
86.67169478
 20
358.54720953
 30
0.0
 11
68.67169478
 21
358.54720953
 31
0.0
  0
LINE
  5
273
100
AcDbEntity
  8
SLD-0_2
  6
PHANTOM
 62
       7
100
AcDbLine
 10
163.64282099
 20
189.84680792
 30
0.0
 11
163.64282099
 21
120.54718063
 31
0.0
  0
LINE
  5
274
100
AcDbEntity
  8
SLD-0_2
  6
PHANTOM
 62
       7
100
AcDbLine
 10
48.67169478
 20
358.54720953
 30
0.0
 11
30.67169478
 21
358.54720953
 31
0.0
  0
LINE
  5
275
100
AcDbEntity
  8
SLD-0_2
  6
PHANTOM
 62
       7
100
AcDbLine
 10
162.67169478
 20
310.54720953
 30
0.0
 11
144.67169478
 21
310.54720953
 31
0.0
  0
LINE
  5
276
100
AcDbEntity
  8
SLD-0_2
  6
PHANTOM
 62
       7
100
AcDbLine
 10
143.67169478
 20
358.54720953
 30
0.0
 11
125.67169478
 21
358.54720953
 31
0.0
  0
LINE
  5
277
100
AcDbEntity
  8
SLD-0_2
  6
PHANTOM
 62
       7
100
AcDbLine
 10
145.64282099
 20
189.84680792
 30
0.0
 11
145.64282099
 21
145.12837386
 31
0.0
  0
LINE
  5
278
100
AcDbEntity
  8
SLD-0_2
  6
PHANTOM
 62
       7
100
AcDbLine
 10
29.67169478
 20
189.84680792
 30
0.0
 11
11.67169478
 21
189.84680792
 31
0.0
  0
LINE
  5
279
100
AcDbEntity
  8
SLD-0_2
  6
PHANTOM
 62
       7
100
AcDbLine
 10
144.67169478
 20
310.54720953
 30
0.0
 11
144.67169478
 21
358.54720953
 31
0.0
  0
LINE
  5
27A
100
AcDbEntity
  8
SLD-0_2
  6
PHANTOM
 62
       7
100
AcDbLine
 10
162.31264516
 20
189.82605847
 30
0.0
 11
162.31264516
 21
190.04680792
 31
0.0
  0
LINE
  5
27B
100
AcDbEntity
  8
SLD-0_2
  6
PHANTOM
 62
       7
100
AcDbLine
 10
163.64282099
 20
189.84680792
 30
0.0
 11
145.64282099
 21
189.84680792
 31
0.0
  0
LINE
  5
27C
100
AcDbEntity
  8
SLD-0_2
  6
PHANTOM
 62
       7
100
AcDbLine
 10
28.34151894
 20
189.82605847
 30
0.0
 11
28.34151894
 21
190.04680792
 31
0.0
  0
LINE
  5
27D
100
AcDbEntity
  8
SLD-0_2
  6
PHANTOM
 62
       7
100
AcDbLine
 10
48.67169478
 20
310.54720953
 30
0.0
 11
30.67169478
 21
310.54720953
 31
0.0
  0
LINE
  5
27E
100
AcDbEntity
  8
SLD-0_2
  6
PHANTOM
 62
       7
100
AcDbLine
 10
162.67169478
 20
310.54720953
 30
0.0
 11
162.67169478
 21
358.54720953
 31
0.0
  0
LINE
  5
27F
100
AcDbEntity
  8
SLD-0_2
  6
PHANTOM
 62
       7
100
AcDbLine
 10
87.67169478
 20
310.54720953
 30
0.0
 11
87.67169478
 21
358.54720953
 31
0.0
  0
LINE
  5
280
100
AcDbEntity
  8
SLD-0_2
  6
PHANTOM
 62
       7
100
AcDbLine
 10
105.67169478
 20
358.54720953
 30
0.0
 11
87.67169478
 21
358.54720953
 31
0.0
  0
LINE
  5
281
100
AcDbEntity
  8
SLD-0_2
  6
PHANTOM
 62
       7
100
AcDbLine
 10
11.67169478
 20
310.54720953
 30
0.0
 11
11.67169478
 21
358.54720953
 31
0.0
  0
LINE
  5
282
100
AcDbEntity
  8
SLD-0_2
  6
PHANTOM
 62
       7
100
AcDbLine
 10
67.67169478
 20
358.54720953
 30
0.0
 11
49.67169478
 21
358.54720953
 31
0.0
  0
LINE
  5
283
100
AcDbEntity
  8
SLD-0_2
  6
PHANTOM
 62
       7
100
AcDbLine
 10
29.67169478
 20
189.84680792
 30
0.0
 11
29.67169478
 21
145.12837386
 31
0.0
  0
LINE
  5
284
100
AcDbEntity
  8
SLD-0_2
  6
PHANTOM
 62
       7
100
AcDbLine
 10
26.84151894
 20
191.54680792
 30
0.0
 11
24.54386546
 21
191.54680792
 31
0.0
  0
LINE
  5
285
100
AcDbEntity
  8
SLD-0_2
  6
PHANTOM
 62
       7
100
AcDbLine
 10
49.67169478
 20
310.54720953
 30
0.0
 11
49.67169478
 21
358.54720953
 31
0.0
  0
LINE
  5
286
100
AcDbEntity
  8
SLD-0_2
  6
PHANTOM
 62
       7
100
AcDbLine
 10
105.67169478
 20
310.54720953
 30
0.0
 11
87.67169478
 21
310.54720953
 31
0.0
  0
LINE
  5
287
100
AcDbEntity
  8
SLD-0_2
  6
PHANTOM
 62
       7
100
AcDbLine
 10
106.67169478
 20
310.54720953
 30
0.0
 11
106.67169478
 21
358.54720953
 31
0.0
  0
LINE
  5
288
100
AcDbEntity
  8
SLD-0_2
  6
PHANTOM
 62
       7
100
AcDbLine
 10
157.01499167
 20
189.82605847
 30
0.0
 11
157.01499167
 21
190.04680792
 31
0.0
  0
LINE
  5
289
100
AcDbEntity
  8
SLD-0_2
  6
PHANTOM
 62
       7
100
AcDbLine
 10
162.67169478
 20
358.54720953
 30
0.0
 11
144.67169478
 21
358.54720953
 31
0.0
  0
LINE
  5
28A
100
AcDbEntity
  8
SLD-0_2
  6
PHANTOM
 62
       7
100
AcDbLine
 10
29.67169478
 20
358.54720953
 30
0.0
 11
11.67169478
 21
358.54720953
 31
0.0
  0
LINE
  5
28B
100
AcDbEntity
  8
SLD-0_2
  6
PHANTOM
 62
       7
100
AcDbLine
 10
67.67169478
 20
310.54720953
 30
0.0
 11
49.67169478
 21
310.54720953
 31
0.0
  0
LINE
  5
28C
100
AcDbEntity
  8
SLD-0_2
  6
PHANTOM
 62
       7
100
AcDbLine
 10
11.67169478
 20
189.84680792
 30
0.0
 11
11.67169478
 21
120.54718063
 31
0.0
  0
LINE
  5
28D
100
AcDbEntity
  8
SLD-0_2
  6
PHANTOM
 62
       7
100
AcDbLine
 10
68.67169478
 20
310.54720953
 30
0.0
 11
68.67169478
 21
358.54720953
 31
0.0
  0
LINE
  5
28E
100
AcDbEntity
  8
SLD-0_2
  6
PHANTOM
 62
       7
100
AcDbLine
 10
124.67169478
 20
310.54720953
 30
0.0
 11
106.67169478
 21
310.54720953
 31
0.0
  0
LINE
  5
28F
100
AcDbEntity
  8
SLD-0_2
  6
PHANTOM
 62
       7
100
AcDbLine
 10
124.67169478
 20
310.54720953
 30
0.0
 11
124.67169478
 21
358.54720953
 31
0.0
  0
LINE
  5
290
100
AcDbEntity
  8
SLD-0_2
  6
PHANTOM
 62
       7
100
AcDbLine
 10
124.67169478
 20
358.54720953
 30
0.0
 11
106.67169478
 21
358.54720953
 31
0.0
  0
LINE
  5
291
100
AcDbEntity
  8
SLD-0_2
  6
PHANTOM
 62
       7
100
AcDbLine
 10
48.67169478
 20
310.54720953
 30
0.0
 11
48.67169478
 21
358.54720953
 31
0.0
  0
LINE
  5
292
100
AcDbEntity
  8
SLD-0_2
  6
PHANTOM
 62
       7
100
AcDbLine
 10
105.67169478
 20
310.54720953
 30
0.0
 11
105.67169478
 21
358.54720953
 31
0.0
  0
LINE
  5
293
100
AcDbEntity
  8
SLD-0_2
  6
PHANTOM
 62
       7
100
AcDbLine
 10
29.67169478
 20
310.54720953
 30
0.0
 11
11.67169478
 21
310.54720953
 31
0.0
  0
LINE
  5
294
100
AcDbEntity
  8
SLD-0_2
  6
PHANTOM
 62
       7
100
AcDbLine
 10
86.67169478
 20
310.54720953
 30
0.0
 11
68.67169478
 21
310.54720953
 31
0.0
  0
LINE
  5
295
100
AcDbEntity
  8
SLD-0_2
  6
PHANTOM
 62
       7
100
AcDbLine
 10
67.67169478
 20
310.54720953
 30
0.0
 11
67.67169478
 21
358.54720953
 31
0.0
  0
LINE
  5
296
100
AcDbEntity
  8
SLD-0_2
  6
PHANTOM
 62
       7
100
AcDbLine
 10
23.04386546
 20
189.82605847
 30
0.0
 11
23.04386546
 21
190.04680792
 31
0.0
  0
LINE
  5
297
100
AcDbEntity
  8
SLD-0_2
  6
PHANTOM
 62
       7
100
AcDbLine
 10
29.67169478
 20
310.54720953
 30
0.0
 11
29.67169478
 21
358.54720953
 31
0.0
  0
LINE
  5
298
100
AcDbEntity
  8
SLD-0_2
  6
PHANTOM
 62
       7
100
AcDbLine
 10
30.67169478
 20
310.54720953
 30
0.0
 11
30.67169478
 21
358.54720953
 31
0.0
  0
LINE
  5
299
100
AcDbEntity
  8
SLD-0_2
  6
PHANTOM
 62
       7
100
AcDbLine
 10
125.67169478
 20
310.54720953
 30
0.0
 11
125.67169478
 21
358.54720953
 31
0.0
  0
LINE
  5
29A
100
AcDbEntity
  8
SLD-0_2
  6
PHANTOM
 62
       7
100
AcDbLine
 10
143.67169478
 20
310.54720953
 30
0.0
 11
125.67169478
 21
310.54720953
 31
0.0
  0
LINE
  5
29B
100
AcDbEntity
  8
SLD-0_2
  6
PHANTOM
 62
       7
100
AcDbLine
 10
160.81264516
 20
191.54680792
 30
0.0
 11
158.51499167
 21
191.54680792
 31
0.0
  0
ARC
  5
29C
100
AcDbEntity
  8
SLD-0_2
  6
PHANTOM
 62
       7
100
AcDbCircle
 10
26.84151894
 20
190.04680792
 30
0.0
 40
1.5
100
AcDbArc
 50
0.0
 51
90.0
  0
ARC
  5
29D
100
AcDbEntity
  8
SLD-0_2
  6
PHANTOM
 62
       7
100
AcDbCircle
 10
160.81264516
 20
190.04680792
 30
0.0
 40
1.5
100
AcDbArc
 50
0.0
 51
90.0
  0
ARC
  5
29E
100
AcDbEntity
  8
SLD-0_2
  6
PHANTOM
 62
       7
100
AcDbCircle
 10
158.51499167
 20
190.04680792
 30
0.0
 40
1.5
100
AcDbArc
 50
90.0
 51
180.0
  0
ARC
  5
29F
100
AcDbEntity
  8
SLD-0_2
  6
PHANTOM
 62
       7
100
AcDbCircle
 10
24.54386546
 20
190.04680792
 30
0.0
 40
1.5
100
AcDbArc
 50
90.0
 51
180.0
  0
LINE
  5
2A0
100
AcDbEntity
  8
SLD-0_3
  6
CONTINUOUS
 62
       7
100
AcDbLine
 10
191.17169478
 20
286.54719792
 30
0.0
 11
193.67169478
 21
289.04719792
 31
0.0
  0
LINE
  5
2A1
100
AcDbEntity
  8
SLD-0_3
  6
CONTINUOUS
 62
       7
100
AcDbLine
 10
193.67169478
 20
372.04719792
 30
0.0
 11
191.17169478
 21
374.54719792
 31
0.0
  0
LINE
  5
2A2
100
AcDbEntity
  8
SLD-0_3
  6
CONTINUOUS
 62
       7
100
AcDbLine
 10
-86.32830522
 20
372.04719792
 30
0.0
 11
-83.82830522
 21
374.54719792
 31
0.0
  0
LINE
  5
2A3
100
AcDbEntity
  8
SLD-0_3
  6
CONTINUOUS
 62
       7
100
AcDbLine
 10
-83.82830522
 20
286.54719792
 30
0.0
 11
-86.32830522
 21
289.04719792
 31
0.0
  0
LINE
  5
2A4
100
AcDbEntity
  8
SLD-0_3
  6
CONTINUOUS
 62
       7
100
AcDbLine
 10
191.17169478
 20
302.04719792
 30
0.0
 11
193.67169478
 21
299.54719792
 31
0.0
  0
LINE
  5
2A5
100
AcDbEntity
  8
SLD-0_3
  6
CONTINUOUS
 62
       7
100
AcDbLine
 10
191.17169478
 20
359.04719792
 30
0.0
 11
193.67169478
 21
361.54719792
 31
0.0
  0
LINE
  5
2A6
100
AcDbEntity
  8
SLD-0_3
  6
CONTINUOUS
 62
       7
100
AcDbLine
 10
193.67169478
 20
289.04719792
 30
0.0
 11
193.67169478
 21
299.54719792
 31
0.0
  0
LINE
  5
2A7
100
AcDbEntity
  8
SLD-0_3
  6
CONTINUOUS
 62
       7
100
AcDbLine
 10
193.67169478
 20
361.54719792
 30
0.0
 11
193.67169478
 21
372.04719792
 31
0.0
  0
LINE
  5
2A8
100
AcDbEntity
  8
SLD-0_3
  6
CONTINUOUS
 62
       7
100
AcDbLine
 10
183.67169478
 20
359.04719792
 30
0.0
 11
191.17169478
 21
359.04719792
 31
0.0
  0
LINE
  5
2A9
100
AcDbEntity
  8
SLD-0_3
  6
CONTINUOUS
 62
       7
100
AcDbLine
 10
183.67169478
 20
302.04719792
 30
0.0
 11
191.17169478
 21
302.04719792
 31
0.0
  0
LINE
  5
2AA
100
AcDbEntity
  8
SLD-0_3
  6
CONTINUOUS
 62
       7
100
AcDbLine
 10
183.67169478
 20
352.04719792
 30
0.0
 11
191.17169478
 21
352.04719792
 31
0.0
  0
LINE
  5
2AB
100
AcDbEntity
  8
SLD-0_3
  6
CONTINUOUS
 62
       7
100
AcDbLine
 10
191.17169478
 20
352.04719792
 30
0.0
 11
193.67169478
 21
349.54719792
 31
0.0
  0
LINE
  5
2AC
100
AcDbEntity
  8
SLD-0_3
  6
CONTINUOUS
 62
       7
100
AcDbLine
 10
191.17169478
 20
309.04719792
 30
0.0
 11
193.67169478
 21
311.54719792
 31
0.0
  0
LINE
  5
2AD
100
AcDbEntity
  8
SLD-0_3
  6
CONTINUOUS
 62
       7
100
AcDbLine
 10
183.67169478
 20
309.04719792
 30
0.0
 11
191.17169478
 21
309.04719792
 31
0.0
  0
LINE
  5
2AE
100
AcDbEntity
  8
SLD-0_3
  6
CONTINUOUS
 62
       7
100
AcDbLine
 10
193.67169478
 20
311.54719792
 30
0.0
 11
193.67169478
 21
349.54719792
 31
0.0
  0
ARC
  5
2AF
100
AcDbEntity
  8
SLD-0_3
  6
CONTINUOUS
 62
       7
100
AcDbCircle
 10
183.67169478
 20
355.54719792
 30
0.0
 40
3.5
100
AcDbArc
 50
90.0
 51
270.0
  0
ARC
  5
2B0
100
AcDbEntity
  8
SLD-0_3
  6
CONTINUOUS
 62
       7
100
AcDbCircle
 10
183.67169478
 20
305.54719792
 30
0.0
 40
3.5
100
AcDbArc
 50
90.0
 51
270.0
  0
LINE
  5
2B1
100
AcDbEntity
  8
SLD-0_3
  6
PHANTOM
 62
       7
100
AcDbLine
 10
-66.32830522
 20
127.46427725
 30
0.0
 11
5.72203176
 21
127.46427725
 31
0.0
  0
LINE
  5
2B2
100
AcDbEntity
  8
SLD-0_3
  6
PHANTOM
 62
       7
100
AcDbLine
 10
-66.32830522
 20
106.54680792
 30
0.0
 11
-66.32830522
 21
127.46427725
 31
0.0
  0
LINE
  5
2B3
100
AcDbEntity
  8
SLD-0_3
  6
PHANTOM
 62
       7
100
AcDbLine
 10
-56.8274984
 20
361.6261772
 30
0.0
 11
-56.8274984
 21
362.51998799
 31
0.0
  0
LINE
  5
2B4
100
AcDbEntity
  8
SLD-0_3
  6
PHANTOM
 62
       7
100
AcDbLine
 10
-55.92316093
 20
373.34428553
 30
0.0
 11
-56.8274984
 21
373.34428553
 31
0.0
  0
LINE
  5
2B5
100
AcDbEntity
  8
SLD-0_3
  6
PHANTOM
 62
       7
100
AcDbLine
 10
-4.72139137
 20
373.34428553
 30
0.0
 11
-4.72139137
 21
362.51998799
 31
0.0
  0
LINE
  5
2B6
100
AcDbEntity
  8
SLD-0_3
  6
PHANTOM
 62
       7
100
AcDbLine
 10
-11.11333817
 20
371.19563479
 30
0.0
 11
-11.4223521
 21
371.12550796
 31
0.0
  0
LINE
  5
2B7
100
AcDbEntity
  8
SLD-0_3
  6
PHANTOM
 62
       7
100
AcDbLine
 10
-13.33252011
 20
366.34807213
 30
0.0
 11
-13.16286971
 21
366.09201575
 31
0.0
  0
LINE
  5
2B8
100
AcDbEntity
  8
SLD-0_3
  6
PHANTOM
 62
       7
100
AcDbLine
 10
-13.16286971
 20
366.09201575
 30
0.0
 11
-12.97036617
 21
365.85376787
 31
0.0
  0
LINE
  5
2B9
100
AcDbEntity
  8
SLD-0_3
  6
PHANTOM
 62
       7
100
AcDbLine
 10
-3.62757366
 20
144.53855156
 30
0.0
 11
-3.62757366
 21
127.46427725
 31
0.0
  0
LINE
  5
2BA
100
AcDbEntity
  8
SLD-0_3
  6
PHANTOM
 62
       7
100
AcDbLine
 10
-10.14195316
 20
364.79122965
 30
0.0
 11
-9.82752743
 21
364.84643745
 31
0.0
  0
LINE
  5
2BB
100
AcDbEntity
  8
SLD-0_3
  6
PHANTOM
 62
       7
100
AcDbLine
 10
-8.45461738
 20
365.5331824
 30
0.0
 11
-8.23074449
 21
365.74180717
 31
0.0
  0
LINE
  5
2BC
100
AcDbEntity
  8
SLD-0_3
  6
PHANTOM
 62
       7
100
AcDbLine
 10
-56.62749149
 20
144.53855156
 30
0.0
 11
-3.62757366
 21
144.53855156
 31
0.0
  0
LINE
  5
2BD
100
AcDbEntity
  8
SLD-0_3
  6
PHANTOM
 62
       7
100
AcDbLine
 10
-8.02739645
 20
365.97056873
 30
0.0
 11
-7.84612545
 21
366.21791489
 31
0.0
  0
LINE
  5
2BE
100
AcDbEntity
  8
SLD-0_3
  6
PHANTOM
 62
       7
100
AcDbLine
 10
-18.11731338
 20
370.2688829
 30
0.0
 11
-18.34130519
 21
370.47750767
 31
0.0
  0
LINE
  5
2BF
100
AcDbEntity
  8
SLD-0_3
  6
PHANTOM
 62
       7
100
AcDbLine
 10
-20.67941559
 20
371.23553551
 30
0.0
 11
-20.99893999
 21
371.19563479
 31
0.0
  0
LINE
  5
2C0
100
AcDbEntity
  8
SLD-0_3
  6
PHANTOM
 62
       7
100
AcDbLine
 10
-23.22013612
 20
369.66261794
 30
0.0
 11
-23.36560665
 21
369.39030527
 31
0.0
  0
LINE
  5
2C1
100
AcDbEntity
  8
SLD-0_3
  6
PHANTOM
 62
       7
100
AcDbLine
 10
-21.88896616
 20
365.10990525
 30
0.0
 11
-21.60527551
 21
364.98398283
 31
0.0
  0
LINE
  5
2C2
100
AcDbEntity
  8
SLD-0_3
  6
PHANTOM
 62
       7
100
AcDbLine
 10
-17.4419259
 20
366.76215218
 30
0.0
 11
-17.33604519
 21
367.05593891
 31
0.0
  0
LINE
  5
2C3
100
AcDbEntity
  8
SLD-0_3
  6
PHANTOM
 62
       7
100
AcDbLine
 10
-27.08005883
 20
368.00534504
 30
0.0
 11
-27.09628156
 21
368.33160253
 31
0.0
  0
LINE
  5
2C4
100
AcDbEntity
  8
SLD-0_3
  6
PHANTOM
 62
       7
100
AcDbLine
 10
-56.62749149
 20
127.46427725
 30
0.0
 11
-56.62749149
 21
144.53855156
 31
0.0
  0
LINE
  5
2C5
100
AcDbEntity
  8
SLD-0_3
  6
PHANTOM
 62
       7
100
AcDbLine
 10
-33.52349851
 20
367.51933855
 30
0.0
 11
-33.46074466
 21
367.20757021
 31
0.0
  0
LINE
  5
2C6
100
AcDbEntity
  8
SLD-0_3
  6
PHANTOM
 62
       7
100
AcDbLine
 10
-36.98179089
 20
368.33160253
 30
0.0
 11
-37.02942316
 21
368.64858864
 31
0.0
  0
LINE
  5
2C7
100
AcDbEntity
  8
SLD-0_3
  6
PHANTOM
 62
       7
100
AcDbLine
 10
-43.44112962
 20
367.84115438
 30
0.0
 11
-43.40900837
 21
367.51933855
 31
0.0
  0
LINE
  5
2C8
100
AcDbEntity
  8
SLD-0_3
  6
PHANTOM
 62
       7
100
AcDbLine
 10
-38.89118526
 20
365.04365084
 30
0.0
 11
-38.61497806
 21
365.18255203
 31
0.0
  0
LINE
  5
2C9
100
AcDbEntity
  8
SLD-0_3
  6
PHANTOM
 62
       7
100
AcDbLine
 10
-38.61497806
 20
365.18255203
 30
0.0
 11
-38.35463142
 21
365.34624662
 31
0.0
  0
LINE
  5
2CA
100
AcDbEntity
  8
SLD-0_3
  6
PHANTOM
 62
       7
100
AcDbLine
 10
-46.85107705
 20
368.00534504
 30
0.0
 11
-46.8673
 21
368.33160253
 31
0.0
  0
LINE
  5
2CB
100
AcDbEntity
  8
SLD-0_3
  6
PHANTOM
 62
       7
100
AcDbLine
 10
-47.38845695
 20
369.79277518
 30
0.0
 11
-47.56981264
 21
370.04012134
 31
0.0
  0
LINE
  5
2CC
100
AcDbEntity
  8
SLD-0_3
  6
PHANTOM
 62
       7
100
AcDbLine
 10
-47.77324839
 20
370.2688829
 30
0.0
 11
-47.99720931
 21
370.47750767
 31
0.0
  0
LINE
  5
2CD
100
AcDbEntity
  8
SLD-0_3
  6
PHANTOM
 62
       7
100
AcDbLine
 10
-52.06559428
 20
370.5737837
 30
0.0
 11
-52.29918047
 21
370.3758094
 31
0.0
  0
LINE
  5
2CE
100
AcDbEntity
  8
SLD-0_3
  6
PHANTOM
 62
       7
100
AcDbLine
 10
-53.32663873
 20
368.16953569
 30
0.0
 11
-53.32663873
 21
367.84115438
 31
0.0
  0
LINE
  5
2CF
100
AcDbEntity
  8
SLD-0_3
  6
PHANTOM
 62
       7
100
AcDbLine
 10
-52.06559428
 20
365.43690637
 30
0.0
 11
-51.81382795
 21
365.26139716
 31
0.0
  0
LINE
  5
2D0
100
AcDbEntity
  8
SLD-0_3
  6
PHANTOM
 62
       7
100
AcDbLine
 10
-47.38845695
 20
366.21791489
 30
0.0
 11
-47.23073619
 21
366.48229344
 31
0.0
  0
LINE
  5
2D1
100
AcDbEntity
  8
SLD-0_3
  6
PHANTOM
 62
       7
100
AcDbLine
 10
-33.48506488
 20
362.51998799
 30
0.0
 11
-33.48506488
 21
361.6261772
 31
0.0
  0
LINE
  5
2D2
100
AcDbEntity
  8
SLD-0_3
  6
PHANTOM
 62
       7
100
AcDbLine
 10
-7.32525313
 20
368.33160253
 30
0.0
 11
-7.3728559
 21
368.64858864
 31
0.0
  0
LINE
  5
2D3
100
AcDbEntity
  8
SLD-0_3
  6
PHANTOM
 62
       7
100
AcDbLine
 10
-8.23074449
 20
370.2688829
 30
0.0
 11
-8.45461738
 21
370.47750767
 31
0.0
  0
LINE
  5
2D4
100
AcDbEntity
  8
SLD-0_3
  6
PHANTOM
 62
       7
100
AcDbLine
 10
-8.45461738
 20
370.47750767
 30
0.0
 11
-8.69746291
 21
370.66444345
 31
0.0
  0
LINE
  5
2D5
100
AcDbEntity
  8
SLD-0_3
  6
PHANTOM
 62
       7
100
AcDbLine
 10
-11.7193783
 20
371.02670724
 30
0.0
 11
-12.00286455
 21
370.90078482
 31
0.0
  0
LINE
  5
2D6
100
AcDbEntity
  8
SLD-0_3
  6
PHANTOM
 62
       7
100
AcDbLine
 10
-13.16286971
 20
369.91867432
 30
0.0
 11
-13.33252011
 21
369.66261794
 31
0.0
  0
LINE
  5
2D7
100
AcDbEntity
  8
SLD-0_3
  6
PHANTOM
 62
       7
100
AcDbLine
 10
-13.47776517
 20
369.39030527
 30
0.0
 11
-13.59705268
 21
369.10328851
 31
0.0
  0
LINE
  5
2D8
100
AcDbEntity
  8
SLD-0_3
  6
PHANTOM
 62
       7
100
AcDbLine
 10
-12.27125867
 20
365.26139716
 30
0.0
 11
-12.00286455
 21
365.10990525
 31
0.0
  0
LINE
  5
2D9
100
AcDbEntity
  8
SLD-0_3
  6
PHANTOM
 62
       7
100
AcDbLine
 10
-9.52431334
 20
364.93109525
 30
0.0
 11
-9.23386309
 21
365.04365084
 31
0.0
  0
LINE
  5
2DA
100
AcDbEntity
  8
SLD-0_3
  6
PHANTOM
 62
       7
100
AcDbLine
 10
-7.45029672
 20
367.05593891
 30
0.0
 11
-7.3728559
 21
367.36210143
 31
0.0
  0
LINE
  5
2DB
100
AcDbEntity
  8
SLD-0_3
  6
PHANTOM
 62
       7
100
AcDbLine
 10
-19.7139217
 20
371.16425262
 30
0.0
 11
-20.02802678
 21
371.21946042
 31
0.0
  0
LINE
  5
2DC
100
AcDbEntity
  8
SLD-0_3
  6
PHANTOM
 62
       7
100
AcDbLine
 10
-23.63985743
 20
368.49135152
 30
0.0
 11
-23.67201998
 21
368.16953569
 31
0.0
  0
LINE
  5
2DD
100
AcDbEntity
  8
SLD-0_3
  6
PHANTOM
 62
       7
100
AcDbLine
 10
-33.36891382
 20
366.90740156
 30
0.0
 11
-33.24956085
 21
366.6203848
 31
0.0
  0
LINE
  5
2DE
100
AcDbEntity
  8
SLD-0_3
  6
PHANTOM
 62
       7
100
AcDbLine
 10
-37.10690986
 20
368.95475116
 30
0.0
 11
-37.21269613
 21
369.24853789
 31
0.0
  0
LINE
  5
2DF
100
AcDbEntity
  8
SLD-0_3
  6
PHANTOM
 62
       7
100
AcDbLine
 10
-42.18008517
 20
370.5737837
 30
0.0
 11
-42.41367136
 21
370.3758094
 31
0.0
  0
LINE
  5
2E0
100
AcDbEntity
  8
SLD-0_3
  6
PHANTOM
 62
       7
100
AcDbLine
 10
-42.41367136
 20
370.3758094
 30
0.0
 11
-42.62752117
 21
370.15692221
 31
0.0
  0
LINE
  5
2E1
100
AcDbEntity
  8
SLD-0_3
  6
PHANTOM
 62
       7
100
AcDbLine
 10
-43.34625726
 20
367.20757021
 30
0.0
 11
-43.25443249
 21
366.90740156
 31
0.0
  0
LINE
  5
2E2
100
AcDbEntity
  8
SLD-0_3
  6
PHANTOM
 62
       7
100
AcDbLine
 10
-42.41367136
 20
365.63488067
 30
0.0
 11
-42.18008517
 21
365.43690637
 31
0.0
  0
LINE
  5
2E3
100
AcDbEntity
  8
SLD-0_3
  6
PHANTOM
 62
       7
100
AcDbLine
 10
-41.92831884
 20
365.26139716
 30
0.0
 11
-41.65992857
 21
365.10990525
 31
0.0
  0
LINE
  5
2E4
100
AcDbEntity
  8
SLD-0_3
  6
PHANTOM
 62
       7
100
AcDbLine
 10
-37.68430353
 20
365.97056873
 30
0.0
 11
-37.50294784
 21
366.21791489
 31
0.0
  0
LINE
  5
2E5
100
AcDbEntity
  8
SLD-0_3
  6
PHANTOM
 62
       7
100
AcDbLine
 10
-46.91493227
 20
368.64858864
 30
0.0
 11
-46.99241897
 21
368.95475116
 31
0.0
  0
LINE
  5
2E6
100
AcDbEntity
  8
SLD-0_3
  6
PHANTOM
 62
       7
100
AcDbLine
 10
-48.77669437
 20
370.96703923
 30
0.0
 11
-49.06720723
 21
371.07959482
 31
0.0
  0
LINE
  5
2E7
100
AcDbEntity
  8
SLD-0_3
  6
PHANTOM
 62
       7
100
AcDbLine
 10
-53.13994161
 20
369.10328851
 30
0.0
 11
-53.23176637
 21
368.80311986
 31
0.0
  0
LINE
  5
2E8
100
AcDbEntity
  8
SLD-0_3
  6
PHANTOM
 62
       7
100
AcDbLine
 10
-50.9650102
 20
364.88518211
 30
0.0
 11
-50.65608542
 21
364.81505529
 31
0.0
  0
LINE
  5
2E9
100
AcDbEntity
  8
SLD-0_3
  6
PHANTOM
 62
       7
100
AcDbLine
 10
-66.32830522
 20
374.54719792
 30
0.0
 11
-66.32830522
 21
286.54719792
 31
0.0
  0
LINE
  5
2EA
100
AcDbEntity
  8
SLD-0_3
  6
PHANTOM
 62
       7
100
AcDbLine
 10
-13.71404666
 20
374.62375559
 30
0.0
 11
-13.71404666
 21
373.34428553
 31
0.0
  0
LINE
  5
2EB
100
AcDbEntity
  8
SLD-0_3
  6
PHANTOM
 62
       7
100
AcDbLine
 10
-7.30904061
 20
368.00534504
 30
0.0
 11
-7.32525313
 21
368.33160253
 31
0.0
  0
LINE
  5
2EC
100
AcDbEntity
  8
SLD-0_3
  6
PHANTOM
 62
       7
100
AcDbLine
 10
-7.68848369
 20
369.52839663
 30
0.0
 11
-7.84612545
 21
369.79277518
 31
0.0
  0
LINE
  5
2ED
100
AcDbEntity
  8
SLD-0_3
  6
PHANTOM
 62
       7
100
AcDbLine
 10
-9.52431334
 20
371.07959482
 30
0.0
 11
-9.82752743
 21
371.16425262
 31
0.0
  0
LINE
  5
2EE
100
AcDbEntity
  8
SLD-0_3
  6
PHANTOM
 62
       7
100
AcDbLine
 10
-12.27125867
 20
370.74929291
 30
0.0
 11
-12.52300844
 21
370.5737837
 31
0.0
  0
LINE
  5
2EF
100
AcDbEntity
  8
SLD-0_3
  6
PHANTOM
 62
       7
100
AcDbLine
 10
-13.78364794
 20
368.16953569
 30
0.0
 11
-13.78364794
 21
367.84115438
 31
0.0
  0
LINE
  5
2F0
100
AcDbEntity
  8
SLD-0_3
  6
PHANTOM
 62
       7
100
AcDbLine
 10
-10.46603833
 20
364.76702404
 30
0.0
 11
-10.14195316
 21
364.79122965
 31
0.0
  0
LINE
  5
2F1
100
AcDbEntity
  8
SLD-0_3
  6
PHANTOM
 62
       7
100
AcDbLine
 10
-17.21079285
 20
368.33160253
 30
0.0
 11
-17.25847942
 21
368.64858864
 31
0.0
  0
LINE
  5
2F2
100
AcDbEntity
  8
SLD-0_3
  6
PHANTOM
 62
       7
100
AcDbLine
 10
-23.57702753
 20
367.20757021
 30
0.0
 11
-23.48509053
 21
366.90740156
 31
0.0
  0
LINE
  5
2F3
100
AcDbEntity
  8
SLD-0_3
  6
PHANTOM
 62
       7
100
AcDbLine
 10
-19.41092488
 20
364.93109525
 30
0.0
 11
-19.12060058
 21
365.04365084
 31
0.0
  0
LINE
  5
2F4
100
AcDbEntity
  8
SLD-0_3
  6
PHANTOM
 62
       7
100
AcDbLine
 10
-33.10424064
 20
366.34807213
 30
0.0
 11
-32.93450805
 21
366.09201575
 31
0.0
  0
LINE
  5
2F5
100
AcDbEntity
  8
SLD-0_3
  6
PHANTOM
 62
       7
100
AcDbLine
 10
-27.79871792
 20
365.97056873
 30
0.0
 11
-27.61739055
 21
366.21791489
 31
0.0
  0
LINE
  5
2F6
100
AcDbEntity
  8
SLD-0_3
  6
PHANTOM
 62
       7
100
AcDbLine
 10
-27.61739055
 20
366.21791489
 30
0.0
 11
-27.45969009
 21
366.48229344
 31
0.0
  0
LINE
  5
2F7
100
AcDbEntity
  8
SLD-0_3
  6
PHANTOM
 62
       7
100
AcDbLine
 10
-37.34522708
 20
369.52839663
 30
0.0
 11
-37.50294784
 21
369.79277518
 31
0.0
  0
LINE
  5
2F8
100
AcDbEntity
  8
SLD-0_3
  6
PHANTOM
 62
       7
100
AcDbLine
 10
-38.61497806
 20
370.82813804
 30
0.0
 11
-38.89118526
 21
370.96703923
 31
0.0
  0
LINE
  5
2F9
100
AcDbEntity
  8
SLD-0_3
  6
PHANTOM
 62
       7
100
AcDbLine
 10
-39.18169812
 20
371.07959482
 30
0.0
 11
-39.48496178
 21
371.16425262
 31
0.0
  0
LINE
  5
2FA
100
AcDbEntity
  8
SLD-0_3
  6
PHANTOM
 62
       7
100
AcDbLine
 10
-43.13509029
 20
369.39030527
 30
0.0
 11
-43.25443249
 21
369.10328851
 31
0.0
  0
LINE
  5
2FB
100
AcDbEntity
  8
SLD-0_3
  6
PHANTOM
 62
       7
100
AcDbLine
 10
-43.13509029
 20
366.6203848
 30
0.0
 11
-42.98978685
 21
366.34807213
 31
0.0
  0
LINE
  5
2FC
100
AcDbEntity
  8
SLD-0_3
  6
PHANTOM
 62
       7
100
AcDbLine
 10
-40.7705763
 20
364.81505529
 30
0.0
 11
-40.45125244
 21
364.77515456
 31
0.0
  0
LINE
  5
2FD
100
AcDbEntity
  8
SLD-0_3
  6
PHANTOM
 62
       7
100
AcDbLine
 10
-36.98179089
 20
367.67908754
 30
0.0
 11
-36.96556794
 21
368.00534504
 31
0.0
  0
LINE
  5
2FE
100
AcDbEntity
  8
SLD-0_3
  6
PHANTOM
 62
       7
100
AcDbLine
 10
-50.00903108
 20
371.24366603
 30
0.0
 11
-50.33676156
 21
371.23553551
 31
0.0
  0
LINE
  5
2FF
100
AcDbEntity
  8
SLD-0_3
  6
PHANTOM
 62
       7
100
AcDbLine
 10
-49.68493046
 20
364.79122965
 30
0.0
 11
-49.37047089
 21
364.84643745
 31
0.0
  0
LINE
  5
300
100
AcDbEntity
  8
SLD-0_3
  6
PHANTOM
 62
       7
100
AcDbLine
 10
-56.8274984
 20
373.34428553
 30
0.0
 11
-56.8274984
 21
374.62375559
 31
0.0
  0
LINE
  5
301
100
AcDbEntity
  8
SLD-0_3
  6
PHANTOM
 62
       7
100
AcDbLine
 10
-6.49752931
 20
362.51998799
 30
0.0
 11
-6.49752931
 21
373.34428553
 31
0.0
  0
LINE
  5
302
100
AcDbEntity
  8
SLD-0_3
  6
PHANTOM
 62
       7
100
AcDbLine
 10
-16.38303842
 20
362.51998799
 30
0.0
 11
-16.38303842
 21
373.34428553
 31
0.0
  0
LINE
  5
303
100
AcDbEntity
  8
SLD-0_3
  6
PHANTOM
 62
       7
100
AcDbLine
 10
-24.49336656
 20
373.34428553
 30
0.0
 11
-24.49336656
 21
362.51998799
 31
0.0
  0
LINE
  5
304
100
AcDbEntity
  8
SLD-0_3
  6
PHANTOM
 62
       7
100
AcDbLine
 10
-11.4223521
 20
371.12550796
 30
0.0
 11
-11.7193783
 21
371.02670724
 31
0.0
  0
LINE
  5
305
100
AcDbEntity
  8
SLD-0_3
  6
PHANTOM
 62
       7
100
AcDbLine
 10
-13.59705268
 20
366.90740156
 30
0.0
 11
-13.47776517
 21
366.6203848
 31
0.0
  0
LINE
  5
306
100
AcDbEntity
  8
SLD-0_3
  6
PHANTOM
 62
       7
100
AcDbLine
 10
-17.57455732
 20
369.52839663
 30
0.0
 11
-17.7323752
 21
369.79277518
 31
0.0
  0
LINE
  5
307
100
AcDbEntity
  8
SLD-0_3
  6
PHANTOM
 62
       7
100
AcDbLine
 10
-22.15759177
 20
370.74929291
 30
0.0
 11
-22.40959211
 21
370.5737837
 31
0.0
  0
LINE
  5
308
100
AcDbEntity
  8
SLD-0_3
  6
PHANTOM
 62
       7
100
AcDbLine
 10
-18.84451303
 20
365.18255203
 30
0.0
 11
-18.58422649
 21
365.34624662
 31
0.0
  0
LINE
  5
309
100
AcDbEntity
  8
SLD-0_3
  6
PHANTOM
 62
       7
100
AcDbLine
 10
-33.24956085
 20
369.39030527
 30
0.0
 11
-33.36891382
 21
369.10328851
 31
0.0
  0
LINE
  5
30A
100
AcDbEntity
  8
SLD-0_3
  6
PHANTOM
 62
       7
100
AcDbLine
 10
-33.36891382
 20
369.10328851
 30
0.0
 11
-33.46074466
 21
368.80311986
 31
0.0
  0
LINE
  5
30B
100
AcDbEntity
  8
SLD-0_3
  6
PHANTOM
 62
       7
100
AcDbLine
 10
-32.74191798
 20
365.85376787
 30
0.0
 11
-32.52802528
 21
365.63488067
 31
0.0
  0
LINE
  5
30C
100
AcDbEntity
  8
SLD-0_3
  6
PHANTOM
 62
       7
100
AcDbLine
 10
-31.19344327
 20
364.88518211
 30
0.0
 11
-30.8843873
 21
364.81505529
 31
0.0
  0
LINE
  5
30D
100
AcDbEntity
  8
SLD-0_3
  6
PHANTOM
 62
       7
100
AcDbLine
 10
-30.56491284
 20
364.77515456
 30
0.0
 11
-30.23709937
 21
364.76702404
 31
0.0
  0
LINE
  5
30E
100
AcDbEntity
  8
SLD-0_3
  6
PHANTOM
 62
       7
100
AcDbLine
 10
-27.14391226
 20
367.36210143
 30
0.0
 11
-27.09628156
 21
367.67908754
 31
0.0
  0
LINE
  5
30F
100
AcDbEntity
  8
SLD-0_3
  6
PHANTOM
 62
       7
100
AcDbLine
 10
-37.68430353
 20
370.04012134
 30
0.0
 11
-37.88773927
 21
370.2688829
 31
0.0
  0
LINE
  5
310
100
AcDbEntity
  8
SLD-0_3
  6
PHANTOM
 62
       7
100
AcDbLine
 10
-40.45125244
 20
371.23553551
 30
0.0
 11
-40.7705763
 21
371.19563479
 31
0.0
  0
LINE
  5
311
100
AcDbEntity
  8
SLD-0_3
  6
PHANTOM
 62
       7
100
AcDbLine
 10
-43.40900837
 20
367.51933855
 30
0.0
 11
-43.34625726
 21
367.20757021
 31
0.0
  0
LINE
  5
312
100
AcDbEntity
  8
SLD-0_3
  6
PHANTOM
 62
       7
100
AcDbLine
 10
-39.48496178
 20
364.84643745
 30
0.0
 11
-39.18169812
 21
364.93109525
 31
0.0
  0
LINE
  5
313
100
AcDbEntity
  8
SLD-0_3
  6
PHANTOM
 62
       7
100
AcDbLine
 10
-51.26197969
 20
371.02670724
 30
0.0
 11
-51.54543768
 21
370.90078482
 31
0.0
  0
LINE
  5
314
100
AcDbEntity
  8
SLD-0_3
  6
PHANTOM
 62
       7
100
AcDbLine
 10
-53.0205994
 20
366.6203848
 30
0.0
 11
-52.87529597
 21
366.34807213
 31
0.0
  0
LINE
  5
315
100
AcDbEntity
  8
SLD-0_3
  6
PHANTOM
 62
       7
100
AcDbLine
 10
-34.37887567
 20
373.34428553
 30
0.0
 11
-34.37887567
 21
362.51998799
 31
0.0
  0
LINE
  5
316
100
AcDbEntity
  8
SLD-0_3
  6
PHANTOM
 62
       7
100
AcDbLine
 10
-12.97036617
 20
365.85376787
 30
0.0
 11
-12.75656168
 21
365.63488067
 31
0.0
  0
LINE
  5
317
100
AcDbEntity
  8
SLD-0_3
  6
PHANTOM
 62
       7
100
AcDbLine
 10
-8.23074449
 20
365.74180717
 30
0.0
 11
-8.02739645
 21
365.97056873
 31
0.0
  0
LINE
  5
318
100
AcDbEntity
  8
SLD-0_3
  6
PHANTOM
 62
       7
100
AcDbLine
 10
-22.64340694
 20
370.3758094
 30
0.0
 11
-22.85747604
 21
370.15692221
 31
0.0
  0
LINE
  5
319
100
AcDbEntity
  8
SLD-0_3
  6
PHANTOM
 62
       7
100
AcDbLine
 10
-18.34130519
 20
365.5331824
 30
0.0
 11
-18.11731338
 21
365.74180717
 31
0.0
  0
LINE
  5
31A
100
AcDbEntity
  8
SLD-0_3
  6
PHANTOM
 62
       7
100
AcDbLine
 10
-30.23709937
 20
371.24366603
 30
0.0
 11
-30.56491284
 21
371.23553551
 31
0.0
  0
LINE
  5
31B
100
AcDbEntity
  8
SLD-0_3
  6
PHANTOM
 62
       7
100
AcDbLine
 10
-30.8843873
 20
371.19563479
 30
0.0
 11
-31.19344327
 21
371.12550796
 31
0.0
  0
LINE
  5
31C
100
AcDbEntity
  8
SLD-0_3
  6
PHANTOM
 62
       7
100
AcDbLine
 10
-33.55562048
 20
367.84115438
 30
0.0
 11
-33.52349851
 21
367.51933855
 31
0.0
  0
LINE
  5
31D
100
AcDbEntity
  8
SLD-0_3
  6
PHANTOM
 62
       7
100
AcDbLine
 10
-32.29438485
 20
365.43690637
 30
0.0
 11
-32.04255156
 21
365.26139716
 31
0.0
  0
LINE
  5
31E
100
AcDbEntity
  8
SLD-0_3
  6
PHANTOM
 62
       7
100
AcDbLine
 10
-29.29569904
 20
364.93109525
 30
0.0
 11
-29.00529077
 21
365.04365084
 31
0.0
  0
LINE
  5
31F
100
AcDbEntity
  8
SLD-0_3
  6
PHANTOM
 62
       7
100
AcDbLine
 10
-37.21269613
 20
369.24853789
 30
0.0
 11
-37.34522708
 21
369.52839663
 31
0.0
  0
LINE
  5
320
100
AcDbEntity
  8
SLD-0_3
  6
PHANTOM
 62
       7
100
AcDbLine
 10
-41.65992857
 20
370.90078482
 30
0.0
 11
-41.92831884
 21
370.74929291
 31
0.0
  0
LINE
  5
321
100
AcDbEntity
  8
SLD-0_3
  6
PHANTOM
 62
       7
100
AcDbLine
 10
-38.35463142
 20
365.34624662
 30
0.0
 11
-38.1117002
 21
365.5331824
 31
0.0
  0
LINE
  5
322
100
AcDbEntity
  8
SLD-0_3
  6
PHANTOM
 62
       7
100
AcDbLine
 10
-47.56981264
 20
370.04012134
 30
0.0
 11
-47.77324839
 21
370.2688829
 31
0.0
  0
LINE
  5
323
100
AcDbEntity
  8
SLD-0_3
  6
PHANTOM
 62
       7
100
AcDbLine
 10
-52.70558752
 20
366.09201575
 30
0.0
 11
-52.51303029
 21
365.85376787
 31
0.0
  0
LINE
  5
324
100
AcDbEntity
  8
SLD-0_3
  6
PHANTOM
 62
       7
100
AcDbLine
 10
-7.40090981
 20
361.6261772
 30
0.0
 11
-7.40090981
 21
362.51998799
 31
0.0
  0
LINE
  5
325
100
AcDbEntity
  8
SLD-0_3
  6
PHANTOM
 62
       7
100
AcDbLine
 10
-14.60785745
 20
362.51998799
 30
0.0
 11
-13.71404666
 21
362.51998799
 31
0.0
  0
LINE
  5
326
100
AcDbEntity
  8
SLD-0_3
  6
PHANTOM
 62
       7
100
AcDbLine
 10
-33.48506488
 20
373.34428553
 30
0.0
 11
-34.37887567
 21
373.34428553
 31
0.0
  0
LINE
  5
327
100
AcDbEntity
  8
SLD-0_3
  6
PHANTOM
 62
       7
100
AcDbLine
 10
-43.37057399
 20
374.62375559
 30
0.0
 11
-43.37057399
 21
373.34428553
 31
0.0
  0
LINE
  5
328
100
AcDbEntity
  8
SLD-0_3
  6
PHANTOM
 62
       7
100
AcDbLine
 10
-44.26247084
 20
373.34428553
 30
0.0
 11
-44.26247084
 21
362.51998799
 31
0.0
  0
LINE
  5
329
100
AcDbEntity
  8
SLD-0_3
  6
PHANTOM
 62
       7
100
AcDbLine
 10
-7.3728559
 20
368.64858864
 30
0.0
 11
-7.45029672
 21
368.95475116
 31
0.0
  0
LINE
  5
32A
100
AcDbEntity
  8
SLD-0_3
  6
PHANTOM
 62
       7
100
AcDbLine
 10
-8.69746291
 20
370.66444345
 30
0.0
 11
-8.95772888
 21
370.82813804
 31
0.0
  0
LINE
  5
32B
100
AcDbEntity
  8
SLD-0_3
  6
PHANTOM
 62
       7
100
AcDbLine
 10
-13.33252011
 20
369.66261794
 30
0.0
 11
-13.47776517
 21
369.39030527
 31
0.0
  0
LINE
  5
32C
100
AcDbEntity
  8
SLD-0_3
  6
PHANTOM
 62
       7
100
AcDbLine
 10
-7.84612545
 20
366.21791489
 30
0.0
 11
-7.68848369
 21
366.48229344
 31
0.0
  0
LINE
  5
32D
100
AcDbEntity
  8
SLD-0_3
  6
PHANTOM
 62
       7
100
AcDbLine
 10
-23.05023917
 20
369.91867432
 30
0.0
 11
-23.22013612
 21
369.66261794
 31
0.0
  0
LINE
  5
32E
100
AcDbEntity
  8
SLD-0_3
  6
PHANTOM
 62
       7
100
AcDbLine
 10
-17.91381531
 20
365.97056873
 30
0.0
 11
-17.7323752
 21
366.21791489
 31
0.0
  0
LINE
  5
32F
100
AcDbEntity
  8
SLD-0_3
  6
PHANTOM
 62
       7
100
AcDbLine
 10
-27.09628156
 20
368.33160253
 30
0.0
 11
-27.14391226
 21
368.64858864
 31
0.0
  0
LINE
  5
330
100
AcDbEntity
  8
SLD-0_3
  6
PHANTOM
 62
       7
100
AcDbLine
 10
-29.00529077
 20
370.96703923
 30
0.0
 11
-29.29569904
 21
371.07959482
 31
0.0
  0
LINE
  5
331
100
AcDbEntity
  8
SLD-0_3
  6
PHANTOM
 62
       7
100
AcDbLine
 10
-32.04255156
 20
370.74929291
 30
0.0
 11
-32.29438485
 21
370.5737837
 31
0.0
  0
LINE
  5
332
100
AcDbEntity
  8
SLD-0_3
  6
PHANTOM
 62
       7
100
AcDbLine
 10
-32.93450805
 20
366.09201575
 30
0.0
 11
-32.74191798
 21
365.85376787
 31
0.0
  0
LINE
  5
333
100
AcDbEntity
  8
SLD-0_3
  6
PHANTOM
 62
       7
100
AcDbLine
 10
-28.2260285
 20
365.5331824
 30
0.0
 11
-28.00211598
 21
365.74180717
 31
0.0
  0
LINE
  5
334
100
AcDbEntity
  8
SLD-0_3
  6
PHANTOM
 62
       7
100
AcDbLine
 10
-42.62752117
 20
370.15692221
 30
0.0
 11
-42.82007841
 21
369.91867432
 31
0.0
  0
LINE
  5
335
100
AcDbEntity
  8
SLD-0_3
  6
PHANTOM
 62
       7
100
AcDbLine
 10
-42.18008517
 20
365.43690637
 30
0.0
 11
-41.92831884
 21
365.26139716
 31
0.0
  0
LINE
  5
336
100
AcDbEntity
  8
SLD-0_3
  6
PHANTOM
 62
       7
100
AcDbLine
 10
-47.99720931
 20
370.47750767
 30
0.0
 11
-48.24014053
 21
370.66444345
 31
0.0
  0
LINE
  5
337
100
AcDbEntity
  8
SLD-0_3
  6
PHANTOM
 62
       7
100
AcDbLine
 10
-52.29918047
 20
365.63488067
 30
0.0
 11
-52.06559428
 21
365.43690637
 31
0.0
  0
LINE
  5
338
100
AcDbEntity
  8
SLD-0_3
  6
PHANTOM
 62
       7
100
AcDbLine
 10
-23.59955577
 20
362.51998799
 30
0.0
 11
-23.59955577
 21
361.6261772
 31
0.0
  0
LINE
  5
339
100
AcDbEntity
  8
SLD-0_3
  6
PHANTOM
 62
       7
100
AcDbLine
 10
-53.2560831
 20
374.62375559
 30
0.0
 11
-53.2560831
 21
373.34428553
 31
0.0
  0
LINE
  5
33A
100
AcDbEntity
  8
SLD-0_3
  6
PHANTOM
 62
       7
100
AcDbLine
 10
-1.3103154
 20
374.54719792
 30
0.0
 11
-25.37899371
 21
374.54719792
 31
0.0
  0
LINE
  5
33B
100
AcDbEntity
  8
SLD-0_3
  6
PHANTOM
 62
       7
100
AcDbLine
 10
-7.84612545
 20
369.79277518
 30
0.0
 11
-8.02739645
 21
370.04012134
 31
0.0
  0
LINE
  5
33C
100
AcDbEntity
  8
SLD-0_3
  6
PHANTOM
 62
       7
100
AcDbLine
 10
-13.59705268
 20
369.10328851
 30
0.0
 11
-13.68883045
 21
368.80311986
 31
0.0
  0
LINE
  5
33D
100
AcDbEntity
  8
SLD-0_3
  6
PHANTOM
 62
       7
100
AcDbLine
 10
-7.55602338
 20
366.76215218
 30
0.0
 11
-7.45029672
 21
367.05593891
 31
0.0
  0
LINE
  5
33E
100
AcDbEntity
  8
SLD-0_3
  6
PHANTOM
 62
       7
100
AcDbLine
 10
-23.36560665
 20
369.39030527
 30
0.0
 11
-23.48509053
 21
369.10328851
 31
0.0
  0
LINE
  5
33F
100
AcDbEntity
  8
SLD-0_3
  6
PHANTOM
 62
       7
100
AcDbLine
 10
-20.67941559
 20
364.77515456
 30
0.0
 11
-20.3516759
 21
364.76702404
 31
0.0
  0
LINE
  5
340
100
AcDbEntity
  8
SLD-0_3
  6
PHANTOM
 62
       7
100
AcDbLine
 10
-20.3516759
 20
364.76702404
 30
0.0
 11
-20.02802678
 21
364.79122965
 31
0.0
  0
LINE
  5
341
100
AcDbEntity
  8
SLD-0_3
  6
PHANTOM
 62
       7
100
AcDbLine
 10
-17.57455732
 20
366.48229344
 30
0.0
 11
-17.4419259
 21
366.76215218
 31
0.0
  0
LINE
  5
342
100
AcDbEntity
  8
SLD-0_3
  6
PHANTOM
 62
       7
100
AcDbLine
 10
-17.33604519
 20
367.05593891
 30
0.0
 11
-17.25847942
 21
367.36210143
 31
0.0
  0
LINE
  5
343
100
AcDbEntity
  8
SLD-0_3
  6
PHANTOM
 62
       7
100
AcDbLine
 10
-27.45969009
 20
369.52839663
 30
0.0
 11
-27.61739055
 21
369.79277518
 31
0.0
  0
LINE
  5
344
100
AcDbEntity
  8
SLD-0_3
  6
PHANTOM
 62
       7
100
AcDbLine
 10
-27.79871792
 20
370.04012134
 30
0.0
 11
-28.00211598
 21
370.2688829
 31
0.0
  0
LINE
  5
345
100
AcDbEntity
  8
SLD-0_3
  6
PHANTOM
 62
       7
100
AcDbLine
 10
-32.93450805
 20
369.91867432
 30
0.0
 11
-33.10424064
 21
369.66261794
 31
0.0
  0
LINE
  5
346
100
AcDbEntity
  8
SLD-0_3
  6
PHANTOM
 62
       7
100
AcDbLine
 10
-27.45969009
 20
366.48229344
 30
0.0
 11
-27.32717274
 21
366.76215218
 31
0.0
  0
LINE
  5
347
100
AcDbEntity
  8
SLD-0_3
  6
PHANTOM
 62
       7
100
AcDbLine
 10
-38.89118526
 20
370.96703923
 30
0.0
 11
-39.18169812
 21
371.07959482
 31
0.0
  0
LINE
  5
348
100
AcDbEntity
  8
SLD-0_3
  6
PHANTOM
 62
       7
100
AcDbLine
 10
-41.65992857
 20
365.10990525
 30
0.0
 11
-41.37647058
 21
364.98398283
 31
0.0
  0
LINE
  5
349
100
AcDbEntity
  8
SLD-0_3
  6
PHANTOM
 62
       7
100
AcDbLine
 10
-48.50048718
 20
370.82813804
 30
0.0
 11
-48.77669437
 21
370.96703923
 31
0.0
  0
LINE
  5
34A
100
AcDbEntity
  8
SLD-0_3
  6
PHANTOM
 62
       7
100
AcDbLine
 10
-51.81382795
 20
365.26139716
 30
0.0
 11
-51.54543768
 21
365.10990525
 31
0.0
  0
LINE
  5
34B
100
AcDbEntity
  8
SLD-0_3
  6
PHANTOM
 62
       7
100
AcDbLine
 10
-46.91493227
 20
367.36210143
 30
0.0
 11
-46.8673
 21
367.67908754
 31
0.0
  0
LINE
  5
34C
100
AcDbEntity
  8
SLD-0_3
  6
PHANTOM
 62
       7
100
AcDbLine
 10
-46.8673
 20
367.67908754
 30
0.0
 11
-46.85107705
 21
368.00534504
 31
0.0
  0
LINE
  5
34D
100
AcDbEntity
  8
SLD-0_3
  6
PHANTOM
 62
       7
100
AcDbLine
 10
-3.82853754
 20
362.51998799
 30
0.0
 11
-3.82853754
 21
361.6261772
 31
0.0
  0
LINE
  5
34E
100
AcDbEntity
  8
SLD-0_3
  6
PHANTOM
 62
       7
100
AcDbLine
 10
-17.28641892
 20
373.34428553
 30
0.0
 11
-17.28641892
 21
374.62375559
 31
0.0
  0
LINE
  5
34F
100
AcDbEntity
  8
SLD-0_3
  6
PHANTOM
 62
       7
100
AcDbLine
 10
-27.17192803
 20
361.6261772
 30
0.0
 11
-27.17192803
 21
362.51998799
 31
0.0
  0
LINE
  5
350
100
AcDbEntity
  8
SLD-0_3
  6
PHANTOM
 62
       7
100
AcDbLine
 10
-36.15405664
 20
362.51998799
 30
0.0
 11
-36.15405664
 21
373.34428553
 31
0.0
  0
LINE
  5
351
100
AcDbEntity
  8
SLD-0_3
  6
PHANTOM
 62
       7
100
AcDbLine
 10
-46.03956575
 20
362.51998799
 30
0.0
 11
-46.03956575
 21
373.34428553
 31
0.0
  0
LINE
  5
352
100
AcDbEntity
  8
SLD-0_3
  6
PHANTOM
 62
       7
100
AcDbLine
 10
-54.14797996
 20
373.34428553
 30
0.0
 11
-54.14797996
 21
362.51998799
 31
0.0
  0
LINE
  5
353
100
AcDbEntity
  8
SLD-0_3
  6
PHANTOM
 62
       7
100
AcDbLine
 10
-13.75154627
 20
368.49135152
 30
0.0
 11
-13.78364794
 21
368.16953569
 31
0.0
  0
LINE
  5
354
100
AcDbEntity
  8
SLD-0_3
  6
PHANTOM
 62
       7
100
AcDbLine
 10
-7.3728559
 20
367.36210143
 30
0.0
 11
-7.32525313
 21
367.67908754
 31
0.0
  0
LINE
  5
355
100
AcDbEntity
  8
SLD-0_3
  6
PHANTOM
 62
       7
100
AcDbLine
 10
-20.99893999
 20
371.19563479
 30
0.0
 11
-21.30808005
 21
371.12550796
 31
0.0
  0
LINE
  5
356
100
AcDbEntity
  8
SLD-0_3
  6
PHANTOM
 62
       7
100
AcDbLine
 10
-21.30808005
 20
371.12550796
 30
0.0
 11
-21.60527551
 21
371.02670724
 31
0.0
  0
LINE
  5
357
100
AcDbEntity
  8
SLD-0_3
  6
PHANTOM
 62
       7
100
AcDbLine
 10
-23.57702753
 20
368.80311986
 30
0.0
 11
-23.63985743
 21
368.49135152
 31
0.0
  0
LINE
  5
358
100
AcDbEntity
  8
SLD-0_3
  6
PHANTOM
 62
       7
100
AcDbLine
 10
-23.48509053
 20
366.90740156
 30
0.0
 11
-23.36560665
 21
366.6203848
 31
0.0
  0
LINE
  5
359
100
AcDbEntity
  8
SLD-0_3
  6
PHANTOM
 62
       7
100
AcDbLine
 10
-18.58422649
 20
365.34624662
 30
0.0
 11
-18.34130519
 21
365.5331824
 31
0.0
  0
LINE
  5
35A
100
AcDbEntity
  8
SLD-0_3
  6
PHANTOM
 62
       7
100
AcDbLine
 10
-28.72917212
 20
370.82813804
 30
0.0
 11
-29.00529077
 21
370.96703923
 31
0.0
  0
LINE
  5
35B
100
AcDbEntity
  8
SLD-0_3
  6
PHANTOM
 62
       7
100
AcDbLine
 10
-33.46074466
 20
368.80311986
 30
0.0
 11
-33.52349851
 21
368.49135152
 31
0.0
  0
LINE
  5
35C
100
AcDbEntity
  8
SLD-0_3
  6
PHANTOM
 62
       7
100
AcDbLine
 10
-30.8843873
 20
364.81505529
 30
0.0
 11
-30.56491284
 21
364.77515456
 31
0.0
  0
LINE
  5
35D
100
AcDbEntity
  8
SLD-0_3
  6
PHANTOM
 62
       7
100
AcDbLine
 10
-39.48496178
 20
371.16425262
 30
0.0
 11
-39.79942135
 21
371.21946042
 31
0.0
  0
LINE
  5
35E
100
AcDbEntity
  8
SLD-0_3
  6
PHANTOM
 62
       7
100
AcDbLine
 10
-41.07950109
 20
364.88518211
 30
0.0
 11
-40.7705763
 21
364.81505529
 31
0.0
  0
LINE
  5
35F
100
AcDbEntity
  8
SLD-0_3
  6
PHANTOM
 62
       7
100
AcDbLine
 10
-49.06720723
 20
371.07959482
 30
0.0
 11
-49.37047089
 21
371.16425262
 31
0.0
  0
LINE
  5
360
100
AcDbEntity
  8
SLD-0_3
  6
PHANTOM
 62
       7
100
AcDbLine
 10
-53.32663873
 20
367.84115438
 30
0.0
 11
-53.29451749
 21
367.51933855
 31
0.0
  0
LINE
  5
361
100
AcDbEntity
  8
SLD-0_3
  6
PHANTOM
 62
       7
100
AcDbLine
 10
-53.29451749
 20
367.51933855
 30
0.0
 11
-53.23176637
 21
367.20757021
 31
0.0
  0
LINE
  5
362
100
AcDbEntity
  8
SLD-0_3
  6
PHANTOM
 62
       7
100
AcDbLine
 10
-51.26197969
 20
364.98398283
 30
0.0
 11
-50.9650102
 21
364.88518211
 31
0.0
  0
LINE
  5
363
100
AcDbEntity
  8
SLD-0_3
  6
PHANTOM
 62
       7
100
AcDbLine
 10
-49.37047089
 20
364.84643745
 30
0.0
 11
-49.06720723
 21
364.93109525
 31
0.0
  0
LINE
  5
364
100
AcDbEntity
  8
SLD-0_3
  6
PHANTOM
 62
       7
100
AcDbLine
 10
-44.26247084
 20
362.51998799
 30
0.0
 11
-43.37057399
 21
362.51998799
 31
0.0
  0
LINE
  5
365
100
AcDbEntity
  8
SLD-0_3
  6
PHANTOM
 62
       7
100
AcDbLine
 10
-13.78364794
 20
367.84115438
 30
0.0
 11
-13.75154627
 21
367.51933855
 31
0.0
  0
LINE
  5
366
100
AcDbEntity
  8
SLD-0_3
  6
PHANTOM
 62
       7
100
AcDbLine
 10
-9.23386309
 20
365.04365084
 30
0.0
 11
-8.95772888
 21
365.18255203
 31
0.0
  0
LINE
  5
367
100
AcDbEntity
  8
SLD-0_3
  6
PHANTOM
 62
       7
100
AcDbLine
 10
-8.95772888
 20
365.18255203
 30
0.0
 11
-8.69746291
 21
365.34624662
 31
0.0
  0
LINE
  5
368
100
AcDbEntity
  8
SLD-0_3
  6
PHANTOM
 62
       7
100
AcDbLine
 10
-17.19454972
 20
368.00534504
 30
0.0
 11
-17.21079285
 21
368.33160253
 31
0.0
  0
LINE
  5
369
100
AcDbEntity
  8
SLD-0_3
  6
PHANTOM
 62
       7
100
AcDbLine
 10
-17.7323752
 20
369.79277518
 30
0.0
 11
-17.91381531
 21
370.04012134
 31
0.0
  0
LINE
  5
36A
100
AcDbEntity
  8
SLD-0_3
  6
PHANTOM
 62
       7
100
AcDbLine
 10
-22.85747604
 20
370.15692221
 30
0.0
 11
-23.05023917
 21
369.91867432
 31
0.0
  0
LINE
  5
36B
100
AcDbEntity
  8
SLD-0_3
  6
PHANTOM
 62
       7
100
AcDbLine
 10
-23.67201998
 20
368.16953569
 30
0.0
 11
-23.67201998
 21
367.84115438
 31
0.0
  0
LINE
  5
36C
100
AcDbEntity
  8
SLD-0_3
  6
PHANTOM
 62
       7
100
AcDbLine
 10
-22.85747604
 20
365.85376787
 30
0.0
 11
-22.64340694
 21
365.63488067
 31
0.0
  0
LINE
  5
36D
100
AcDbEntity
  8
SLD-0_3
  6
PHANTOM
 62
       7
100
AcDbLine
 10
-22.40959211
 20
365.43690637
 30
0.0
 11
-22.15759177
 21
365.26139716
 31
0.0
  0
LINE
  5
36E
100
AcDbEntity
  8
SLD-0_3
  6
PHANTOM
 62
       7
100
AcDbLine
 10
-17.7323752
 20
366.21791489
 30
0.0
 11
-17.57455732
 21
366.48229344
 31
0.0
  0
LINE
  5
36F
100
AcDbEntity
  8
SLD-0_3
  6
PHANTOM
 62
       7
100
AcDbLine
 10
-30.56491284
 20
371.23553551
 30
0.0
 11
-30.8843873
 21
371.19563479
 31
0.0
  0
LINE
  5
370
100
AcDbEntity
  8
SLD-0_3
  6
PHANTOM
 62
       7
100
AcDbLine
 10
-30.23709937
 20
364.76702404
 30
0.0
 11
-29.91315956
 21
364.79122965
 31
0.0
  0
LINE
  5
371
100
AcDbEntity
  8
SLD-0_3
  6
PHANTOM
 62
       7
100
AcDbLine
 10
-40.12352196
 20
371.24366603
 30
0.0
 11
-40.45125244
 21
371.23553551
 31
0.0
  0
LINE
  5
372
100
AcDbEntity
  8
SLD-0_3
  6
PHANTOM
 62
       7
100
AcDbLine
 10
-40.45125244
 20
364.77515456
 30
0.0
 11
-40.12352196
 21
364.76702404
 31
0.0
  0
LINE
  5
373
100
AcDbEntity
  8
SLD-0_3
  6
PHANTOM
 62
       7
100
AcDbLine
 10
-46.99241897
 20
368.95475116
 30
0.0
 11
-47.09820524
 21
369.24853789
 31
0.0
  0
LINE
  5
374
100
AcDbEntity
  8
SLD-0_3
  6
PHANTOM
 62
       7
100
AcDbLine
 10
-47.09820524
 20
369.24853789
 30
0.0
 11
-47.23073619
 21
369.52839663
 31
0.0
  0
LINE
  5
375
100
AcDbEntity
  8
SLD-0_3
  6
PHANTOM
 62
       7
100
AcDbLine
 10
-49.68493046
 20
371.21946042
 30
0.0
 11
-50.00903108
 21
371.24366603
 31
0.0
  0
LINE
  5
376
100
AcDbEntity
  8
SLD-0_3
  6
PHANTOM
 62
       7
100
AcDbLine
 10
-51.54543768
 20
370.90078482
 30
0.0
 11
-51.81382795
 21
370.74929291
 31
0.0
  0
LINE
  5
377
100
AcDbEntity
  8
SLD-0_3
  6
PHANTOM
 62
       7
100
AcDbLine
 10
-52.51303029
 20
365.85376787
 30
0.0
 11
-52.29918047
 21
365.63488067
 31
0.0
  0
LINE
  5
378
100
AcDbEntity
  8
SLD-0_3
  6
PHANTOM
 62
       7
100
AcDbLine
 10
-50.65608542
 20
364.81505529
 30
0.0
 11
-50.33676156
 21
364.77515456
 31
0.0
  0
LINE
  5
379
100
AcDbEntity
  8
SLD-0_3
  6
PHANTOM
 62
       7
100
AcDbLine
 10
-48.24014053
 20
365.34624662
 30
0.0
 11
-47.99720931
 21
365.5331824
 31
0.0
  0
LINE
  5
37A
100
AcDbEntity
  8
SLD-0_3
  6
PHANTOM
 62
       7
100
AcDbLine
 10
-47.77324839
 20
365.74180717
 30
0.0
 11
-47.56981264
 21
365.97056873
 31
0.0
  0
LINE
  5
37B
100
AcDbEntity
  8
SLD-0_3
  6
PHANTOM
 62
       7
100
AcDbLine
 10
-6.49752931
 20
373.34428553
 30
0.0
 11
-7.40090981
 21
373.34428553
 31
0.0
  0
LINE
  5
37C
100
AcDbEntity
  8
SLD-0_3
  6
PHANTOM
 62
       7
100
AcDbLine
 10
-16.38303842
 20
373.34428553
 30
0.0
 11
-17.28641892
 21
373.34428553
 31
0.0
  0
LINE
  5
37D
100
AcDbEntity
  8
SLD-0_3
  6
PHANTOM
 62
       7
100
AcDbLine
 10
-26.26854753
 20
362.51998799
 30
0.0
 11
-26.26854753
 21
373.34428553
 31
0.0
  0
LINE
  5
37E
100
AcDbEntity
  8
SLD-0_3
  6
PHANTOM
 62
       7
100
AcDbLine
 10
-14.60785745
 20
373.34428553
 30
0.0
 11
-14.60785745
 21
362.51998799
 31
0.0
  0
LINE
  5
37F
100
AcDbEntity
  8
SLD-0_3
  6
PHANTOM
 62
       7
100
AcDbLine
 10
-23.59955577
 20
373.34428553
 30
0.0
 11
-24.49336656
 21
373.34428553
 31
0.0
  0
LINE
  5
380
100
AcDbEntity
  8
SLD-0_3
  6
PHANTOM
 62
       7
100
AcDbLine
 10
-34.37887567
 20
362.51998799
 30
0.0
 11
-33.48506488
 21
362.51998799
 31
0.0
  0
LINE
  5
381
100
AcDbEntity
  8
SLD-0_3
  6
PHANTOM
 62
       7
100
AcDbLine
 10
-53.2560831
 20
373.34428553
 30
0.0
 11
-54.14797996
 21
373.34428553
 31
0.0
  0
LINE
  5
382
100
AcDbEntity
  8
SLD-0_3
  6
PHANTOM
 62
       7
100
AcDbLine
 10
-12.52300844
 20
370.5737837
 30
0.0
 11
-12.75656168
 21
370.3758094
 31
0.0
  0
LINE
  5
383
100
AcDbEntity
  8
SLD-0_3
  6
PHANTOM
 62
       7
100
AcDbLine
 10
-12.75656168
 20
370.3758094
 30
0.0
 11
-12.97036617
 21
370.15692221
 31
0.0
  0
LINE
  5
384
100
AcDbEntity
  8
SLD-0_3
  6
PHANTOM
 62
       7
100
AcDbLine
 10
-13.68883045
 20
367.20757021
 30
0.0
 11
-13.59705268
 21
366.90740156
 31
0.0
  0
LINE
  5
385
100
AcDbEntity
  8
SLD-0_3
  6
PHANTOM
 62
       7
100
AcDbLine
 10
-12.75656168
 20
365.63488067
 30
0.0
 11
-12.52300844
 21
365.43690637
 31
0.0
  0
LINE
  5
386
100
AcDbEntity
  8
SLD-0_3
  6
PHANTOM
 62
       7
100
AcDbLine
 10
-7.68848369
 20
366.48229344
 30
0.0
 11
-7.55602338
 21
366.76215218
 31
0.0
  0
LINE
  5
387
100
AcDbEntity
  8
SLD-0_3
  6
PHANTOM
 62
       7
100
AcDbLine
 10
-17.25847942
 20
368.64858864
 30
0.0
 11
-17.33604519
 21
368.95475116
 31
0.0
  0
LINE
  5
388
100
AcDbEntity
  8
SLD-0_3
  6
PHANTOM
 62
       7
100
AcDbLine
 10
-18.58422649
 20
370.66444345
 30
0.0
 11
-18.84451303
 21
370.82813804
 31
0.0
  0
LINE
  5
389
100
AcDbEntity
  8
SLD-0_3
  6
PHANTOM
 62
       7
100
AcDbLine
 10
-19.12060058
 20
370.96703923
 30
0.0
 11
-19.41092488
 21
371.07959482
 31
0.0
  0
LINE
  5
38A
100
AcDbEntity
  8
SLD-0_3
  6
PHANTOM
 62
       7
100
AcDbLine
 10
-23.48509053
 20
369.10328851
 30
0.0
 11
-23.57702753
 21
368.80311986
 31
0.0
  0
LINE
  5
38B
100
AcDbEntity
  8
SLD-0_3
  6
PHANTOM
 62
       7
100
AcDbLine
 10
-21.30808005
 20
364.88518211
 30
0.0
 11
-20.99893999
 21
364.81505529
 31
0.0
  0
LINE
  5
38C
100
AcDbEntity
  8
SLD-0_3
  6
PHANTOM
 62
       7
100
AcDbLine
 10
-27.14391226
 20
368.64858864
 30
0.0
 11
-27.22139473
 21
368.95475116
 31
0.0
  0
LINE
  5
38D
100
AcDbEntity
  8
SLD-0_3
  6
PHANTOM
 62
       7
100
AcDbLine
 10
-31.19344327
 20
371.12550796
 30
0.0
 11
-31.49052589
 21
371.02670724
 31
0.0
  0
LINE
  5
38E
100
AcDbEntity
  8
SLD-0_3
  6
PHANTOM
 62
       7
100
AcDbLine
 10
-29.59884071
 20
364.84643745
 30
0.0
 11
-29.29569904
 21
364.93109525
 31
0.0
  0
LINE
  5
38F
100
AcDbEntity
  8
SLD-0_3
  6
PHANTOM
 62
       7
100
AcDbLine
 10
-40.7705763
 20
371.19563479
 30
0.0
 11
-41.07950109
 21
371.12550796
 31
0.0
  0
LINE
  5
390
100
AcDbEntity
  8
SLD-0_3
  6
PHANTOM
 62
       7
100
AcDbLine
 10
-42.98978685
 20
366.34807213
 30
0.0
 11
-42.82007841
 21
366.09201575
 31
0.0
  0
LINE
  5
391
100
AcDbEntity
  8
SLD-0_3
  6
PHANTOM
 62
       7
100
AcDbLine
 10
-42.82007841
 20
366.09201575
 30
0.0
 11
-42.62752117
 21
365.85376787
 31
0.0
  0
LINE
  5
392
100
AcDbEntity
  8
SLD-0_3
  6
PHANTOM
 62
       7
100
AcDbLine
 10
-39.79942135
 20
364.79122965
 30
0.0
 11
-39.48496178
 21
364.84643745
 31
0.0
  0
LINE
  5
393
100
AcDbEntity
  8
SLD-0_3
  6
PHANTOM
 62
       7
100
AcDbLine
 10
-38.1117002
 20
365.5331824
 30
0.0
 11
-37.88773927
 21
365.74180717
 31
0.0
  0
LINE
  5
394
100
AcDbEntity
  8
SLD-0_3
  6
PHANTOM
 62
       7
100
AcDbLine
 10
-48.24014053
 20
370.66444345
 30
0.0
 11
-48.50048718
 21
370.82813804
 31
0.0
  0
LINE
  5
395
100
AcDbEntity
  8
SLD-0_3
  6
PHANTOM
 62
       7
100
AcDbLine
 10
-50.33676156
 20
371.23553551
 30
0.0
 11
-50.65608542
 21
371.19563479
 31
0.0
  0
LINE
  5
396
100
AcDbEntity
  8
SLD-0_3
  6
PHANTOM
 62
       7
100
AcDbLine
 10
-52.51303029
 20
370.15692221
 30
0.0
 11
-52.70558752
 21
369.91867432
 31
0.0
  0
LINE
  5
397
100
AcDbEntity
  8
SLD-0_3
  6
PHANTOM
 62
       7
100
AcDbLine
 10
-52.87529597
 20
369.66261794
 30
0.0
 11
-53.0205994
 21
369.39030527
 31
0.0
  0
LINE
  5
398
100
AcDbEntity
  8
SLD-0_3
  6
PHANTOM
 62
       7
100
AcDbLine
 10
-51.54543768
 20
365.10990525
 30
0.0
 11
-51.26197969
 21
364.98398283
 31
0.0
  0
LINE
  5
399
100
AcDbEntity
  8
SLD-0_3
  6
PHANTOM
 62
       7
100
AcDbLine
 10
-47.09820524
 20
366.76215218
 30
0.0
 11
-46.99241897
 21
367.05593891
 31
0.0
  0
LINE
  5
39A
100
AcDbEntity
  8
SLD-0_3
  6
PHANTOM
 62
       7
100
AcDbLine
 10
-3.82853754
 20
374.62375559
 30
0.0
 11
-3.82853754
 21
373.34428553
 31
0.0
  0
LINE
  5
39B
100
AcDbEntity
  8
SLD-0_3
  6
PHANTOM
 62
       7
100
AcDbLine
 10
-7.40090981
 20
362.51998799
 30
0.0
 11
-6.49752931
 21
362.51998799
 31
0.0
  0
LINE
  5
39C
100
AcDbEntity
  8
SLD-0_3
  6
PHANTOM
 62
       7
100
AcDbLine
 10
-27.17192803
 20
373.34428553
 30
0.0
 11
-27.17192803
 21
374.62375559
 31
0.0
  0
LINE
  5
39D
100
AcDbEntity
  8
SLD-0_3
  6
PHANTOM
 62
       7
100
AcDbLine
 10
-37.0555232
 20
362.51998799
 30
0.0
 11
-36.15405664
 21
362.51998799
 31
0.0
  0
LINE
  5
39E
100
AcDbEntity
  8
SLD-0_3
  6
PHANTOM
 62
       7
100
AcDbLine
 10
-37.0555232
 20
373.34428553
 30
0.0
 11
-37.0555232
 21
374.62375559
 31
0.0
  0
LINE
  5
39F
100
AcDbEntity
  8
SLD-0_3
  6
PHANTOM
 62
       7
100
AcDbLine
 10
-13.71404666
 20
373.34428553
 30
0.0
 11
-14.60785745
 21
373.34428553
 31
0.0
  0
LINE
  5
3A0
100
AcDbEntity
  8
SLD-0_3
  6
PHANTOM
 62
       7
100
AcDbLine
 10
-13.71404666
 20
362.51998799
 30
0.0
 11
-13.71404666
 21
361.6261772
 31
0.0
  0
LINE
  5
3A1
100
AcDbEntity
  8
SLD-0_3
  6
PHANTOM
 62
       7
100
AcDbLine
 10
-23.59955577
 20
374.62375559
 30
0.0
 11
-23.59955577
 21
373.34428553
 31
0.0
  0
LINE
  5
3A2
100
AcDbEntity
  8
SLD-0_3
  6
PHANTOM
 62
       7
100
AcDbLine
 10
-53.2560831
 20
362.51998799
 30
0.0
 11
-53.2560831
 21
361.6261772
 31
0.0
  0
LINE
  5
3A3
100
AcDbEntity
  8
SLD-0_3
  6
PHANTOM
 62
       7
100
AcDbLine
 10
-8.95772888
 20
370.82813804
 30
0.0
 11
-9.23386309
 21
370.96703923
 31
0.0
  0
LINE
  5
3A4
100
AcDbEntity
  8
SLD-0_3
  6
PHANTOM
 62
       7
100
AcDbLine
 10
-13.68883045
 20
368.80311986
 30
0.0
 11
-13.75154627
 21
368.49135152
 31
0.0
  0
LINE
  5
3A5
100
AcDbEntity
  8
SLD-0_3
  6
PHANTOM
 62
       7
100
AcDbLine
 10
-13.47776517
 20
366.6203848
 30
0.0
 11
-13.33252011
 21
366.34807213
 31
0.0
  0
LINE
  5
3A6
100
AcDbEntity
  8
SLD-0_3
  6
PHANTOM
 62
       7
100
AcDbLine
 10
-11.7193783
 20
364.98398283
 30
0.0
 11
-11.4223521
 21
364.88518211
 31
0.0
  0
LINE
  5
3A7
100
AcDbEntity
  8
SLD-0_3
  6
PHANTOM
 62
       7
100
AcDbLine
 10
-11.11333817
 20
364.81505529
 30
0.0
 11
-10.79388869
 21
364.77515456
 31
0.0
  0
LINE
  5
3A8
100
AcDbEntity
  8
SLD-0_3
  6
PHANTOM
 62
       7
100
AcDbLine
 10
-7.32525313
 20
367.67908754
 30
0.0
 11
-7.30904061
 21
368.00534504
 31
0.0
  0
LINE
  5
3A9
100
AcDbEntity
  8
SLD-0_3
  6
PHANTOM
 62
       7
100
AcDbLine
 10
-20.3516759
 20
371.24366603
 30
0.0
 11
-20.67941559
 21
371.23553551
 31
0.0
  0
LINE
  5
3AA
100
AcDbEntity
  8
SLD-0_3
  6
PHANTOM
 62
       7
100
AcDbLine
 10
-20.02802678
 20
364.79122965
 30
0.0
 11
-19.7139217
 21
364.84643745
 31
0.0
  0
LINE
  5
3AB
100
AcDbEntity
  8
SLD-0_3
  6
PHANTOM
 62
       7
100
AcDbLine
 10
-27.32717274
 20
369.24853789
 30
0.0
 11
-27.45969009
 21
369.52839663
 31
0.0
  0
LINE
  5
3AC
100
AcDbEntity
  8
SLD-0_3
  6
PHANTOM
 62
       7
100
AcDbLine
 10
-31.77408028
 20
370.90078482
 30
0.0
 11
-32.04255156
 21
370.74929291
 31
0.0
  0
LINE
  5
3AD
100
AcDbEntity
  8
SLD-0_3
  6
PHANTOM
 62
       7
100
AcDbLine
 10
-29.00529077
 20
365.04365084
 30
0.0
 11
-28.72917212
 21
365.18255203
 31
0.0
  0
LINE
  5
3AE
100
AcDbEntity
  8
SLD-0_3
  6
PHANTOM
 62
       7
100
AcDbLine
 10
-37.88773927
 20
370.2688829
 30
0.0
 11
-38.1117002
 21
370.47750767
 31
0.0
  0
LINE
  5
3AF
100
AcDbEntity
  8
SLD-0_3
  6
PHANTOM
 62
       7
100
AcDbLine
 10
-38.1117002
 20
370.47750767
 30
0.0
 11
-38.35463142
 21
370.66444345
 31
0.0
  0
LINE
  5
3B0
100
AcDbEntity
  8
SLD-0_3
  6
PHANTOM
 62
       7
100
AcDbLine
 10
-41.37647058
 20
371.02670724
 30
0.0
 11
-41.65992857
 21
370.90078482
 31
0.0
  0
LINE
  5
3B1
100
AcDbEntity
  8
SLD-0_3
  6
PHANTOM
 62
       7
100
AcDbLine
 10
-42.82007841
 20
369.91867432
 30
0.0
 11
-42.98978685
 21
369.66261794
 31
0.0
  0
LINE
  5
3B2
100
AcDbEntity
  8
SLD-0_3
  6
PHANTOM
 62
       7
100
AcDbLine
 10
-41.37647058
 20
364.98398283
 30
0.0
 11
-41.07950109
 21
364.88518211
 31
0.0
  0
LINE
  5
3B3
100
AcDbEntity
  8
SLD-0_3
  6
PHANTOM
 62
       7
100
AcDbLine
 10
-39.18169812
 20
364.93109525
 30
0.0
 11
-38.89118526
 21
365.04365084
 31
0.0
  0
LINE
  5
3B4
100
AcDbEntity
  8
SLD-0_3
  6
PHANTOM
 62
       7
100
AcDbLine
 10
-37.34522708
 20
366.48229344
 30
0.0
 11
-37.21269613
 21
366.76215218
 31
0.0
  0
LINE
  5
3B5
100
AcDbEntity
  8
SLD-0_3
  6
PHANTOM
 62
       7
100
AcDbLine
 10
-37.10690986
 20
367.05593891
 30
0.0
 11
-37.02942316
 21
367.36210143
 31
0.0
  0
LINE
  5
3B6
100
AcDbEntity
  8
SLD-0_3
  6
PHANTOM
 62
       7
100
AcDbLine
 10
-49.37047089
 20
371.16425262
 30
0.0
 11
-49.68493046
 21
371.21946042
 31
0.0
  0
LINE
  5
3B7
100
AcDbEntity
  8
SLD-0_3
  6
PHANTOM
 62
       7
100
AcDbLine
 10
-53.29451749
 20
368.49135152
 30
0.0
 11
-53.32663873
 21
368.16953569
 31
0.0
  0
LINE
  5
3B8
100
AcDbEntity
  8
SLD-0_3
  6
PHANTOM
 62
       7
100
AcDbLine
 10
-3.82853754
 20
361.6261772
 30
0.0
 11
-56.8274984
 21
361.6261772
 31
0.0
  0
LINE
  5
3B9
100
AcDbEntity
  8
SLD-0_3
  6
PHANTOM
 62
       7
100
AcDbLine
 10
-27.17192803
 20
362.51998799
 30
0.0
 11
-26.26854753
 21
362.51998799
 31
0.0
  0
LINE
  5
3BA
100
AcDbEntity
  8
SLD-0_3
  6
PHANTOM
 62
       7
100
AcDbLine
 10
-8.02739645
 20
370.04012134
 30
0.0
 11
-8.23074449
 21
370.2688829
 31
0.0
  0
LINE
  5
3BB
100
AcDbEntity
  8
SLD-0_3
  6
PHANTOM
 62
       7
100
AcDbLine
 10
-10.14195316
 20
371.21946042
 30
0.0
 11
-10.46603833
 21
371.24366603
 31
0.0
  0
LINE
  5
3BC
100
AcDbEntity
  8
SLD-0_3
  6
PHANTOM
 62
       7
100
AcDbLine
 10
-10.79388869
 20
371.23553551
 30
0.0
 11
-11.11333817
 21
371.19563479
 31
0.0
  0
LINE
  5
3BD
100
AcDbEntity
  8
SLD-0_3
  6
PHANTOM
 62
       7
100
AcDbLine
 10
-13.75154627
 20
367.51933855
 30
0.0
 11
-13.68883045
 21
367.20757021
 31
0.0
  0
LINE
  5
3BE
100
AcDbEntity
  8
SLD-0_3
  6
PHANTOM
 62
       7
100
AcDbLine
 10
-9.82752743
 20
364.84643745
 30
0.0
 11
-9.52431334
 21
364.93109525
 31
0.0
  0
LINE
  5
3BF
100
AcDbEntity
  8
SLD-0_3
  6
PHANTOM
 62
       7
100
AcDbLine
 10
-21.60527551
 20
371.02670724
 30
0.0
 11
-21.88896616
 21
370.90078482
 31
0.0
  0
LINE
  5
3C0
100
AcDbEntity
  8
SLD-0_3
  6
PHANTOM
 62
       7
100
AcDbLine
 10
-23.36560665
 20
366.6203848
 30
0.0
 11
-23.22013612
 21
366.34807213
 31
0.0
  0
LINE
  5
3C1
100
AcDbEntity
  8
SLD-0_3
  6
PHANTOM
 62
       7
100
AcDbLine
 10
-27.61739055
 20
369.79277518
 30
0.0
 11
-27.79871792
 21
370.04012134
 31
0.0
  0
LINE
  5
3C2
100
AcDbEntity
  8
SLD-0_3
  6
PHANTOM
 62
       7
100
AcDbLine
 10
-32.29438485
 20
370.5737837
 30
0.0
 11
-32.52802528
 21
370.3758094
 31
0.0
  0
LINE
  5
3C3
100
AcDbEntity
  8
SLD-0_3
  6
PHANTOM
 62
       7
100
AcDbLine
 10
-32.04255156
 20
365.26139716
 30
0.0
 11
-31.77408028
 21
365.10990525
 31
0.0
  0
LINE
  5
3C4
100
AcDbEntity
  8
SLD-0_3
  6
PHANTOM
 62
       7
100
AcDbLine
 10
-31.77408028
 20
365.10990525
 30
0.0
 11
-31.49052589
 21
364.98398283
 31
0.0
  0
LINE
  5
3C5
100
AcDbEntity
  8
SLD-0_3
  6
PHANTOM
 62
       7
100
AcDbLine
 10
-28.46889929
 20
365.34624662
 30
0.0
 11
-28.2260285
 21
365.5331824
 31
0.0
  0
LINE
  5
3C6
100
AcDbEntity
  8
SLD-0_3
  6
PHANTOM
 62
       7
100
AcDbLine
 10
-27.32717274
 20
366.76215218
 30
0.0
 11
-27.22139473
 21
367.05593891
 31
0.0
  0
LINE
  5
3C7
100
AcDbEntity
  8
SLD-0_3
  6
PHANTOM
 62
       7
100
AcDbLine
 10
-39.79942135
 20
371.21946042
 30
0.0
 11
-40.12352196
 21
371.24366603
 31
0.0
  0
LINE
  5
3C8
100
AcDbEntity
  8
SLD-0_3
  6
PHANTOM
 62
       7
100
AcDbLine
 10
-41.92831884
 20
370.74929291
 30
0.0
 11
-42.18008517
 21
370.5737837
 31
0.0
  0
LINE
  5
3C9
100
AcDbEntity
  8
SLD-0_3
  6
PHANTOM
 62
       7
100
AcDbLine
 10
-43.34625726
 20
368.80311986
 30
0.0
 11
-43.40900837
 21
368.49135152
 31
0.0
  0
LINE
  5
3CA
100
AcDbEntity
  8
SLD-0_3
  6
PHANTOM
 62
       7
100
AcDbLine
 10
-43.44112962
 20
368.16953569
 30
0.0
 11
-43.44112962
 21
367.84115438
 31
0.0
  0
LINE
  5
3CB
100
AcDbEntity
  8
SLD-0_3
  6
PHANTOM
 62
       7
100
AcDbLine
 10
-40.12352196
 20
364.76702404
 30
0.0
 11
-39.79942135
 21
364.79122965
 31
0.0
  0
LINE
  5
3CC
100
AcDbEntity
  8
SLD-0_3
  6
PHANTOM
 62
       7
100
AcDbLine
 10
-46.8673
 20
368.33160253
 30
0.0
 11
-46.91493227
 21
368.64858864
 31
0.0
  0
LINE
  5
3CD
100
AcDbEntity
  8
SLD-0_3
  6
PHANTOM
 62
       7
100
AcDbLine
 10
-53.23176637
 20
367.20757021
 30
0.0
 11
-53.13994161
 21
366.90740156
 31
0.0
  0
LINE
  5
3CE
100
AcDbEntity
  8
SLD-0_3
  6
PHANTOM
 62
       7
100
AcDbLine
 10
-49.06720723
 20
364.93109525
 30
0.0
 11
-48.77669437
 21
365.04365084
 31
0.0
  0
LINE
  5
3CF
100
AcDbEntity
  8
SLD-0_3
  6
PHANTOM
 62
       7
100
AcDbLine
 10
-4.72139137
 20
362.51998799
 30
0.0
 11
-3.82853754
 21
362.51998799
 31
0.0
  0
LINE
  5
3D0
100
AcDbEntity
  8
SLD-0_3
  6
PHANTOM
 62
       7
100
AcDbLine
 10
-25.37899371
 20
374.54719792
 30
0.0
 11
-46.52825495
 21
374.54719792
 31
0.0
  0
LINE
  5
3D1
100
AcDbEntity
  8
SLD-0_3
  6
PHANTOM
 62
       7
100
AcDbLine
 10
-12.00286455
 20
370.90078482
 30
0.0
 11
-12.27125867
 21
370.74929291
 31
0.0
  0
LINE
  5
3D2
100
AcDbEntity
  8
SLD-0_3
  6
PHANTOM
 62
       7
100
AcDbLine
 10
-8.69746291
 20
365.34624662
 30
0.0
 11
-8.45461738
 21
365.5331824
 31
0.0
  0
LINE
  5
3D3
100
AcDbEntity
  8
SLD-0_3
  6
PHANTOM
 62
       7
100
AcDbLine
 10
-17.91381531
 20
370.04012134
 30
0.0
 11
-18.11731338
 21
370.2688829
 31
0.0
  0
LINE
  5
3D4
100
AcDbEntity
  8
SLD-0_3
  6
PHANTOM
 62
       7
100
AcDbLine
 10
-23.05023917
 20
366.09201575
 30
0.0
 11
-22.85747604
 21
365.85376787
 31
0.0
  0
LINE
  5
3D5
100
AcDbEntity
  8
SLD-0_3
  6
PHANTOM
 62
       7
100
AcDbLine
 10
-28.00211598
 20
370.2688829
 30
0.0
 11
-28.2260285
 21
370.47750767
 31
0.0
  0
LINE
  5
3D6
100
AcDbEntity
  8
SLD-0_3
  6
PHANTOM
 62
       7
100
AcDbLine
 10
-29.29569904
 20
371.07959482
 30
0.0
 11
-29.59884071
 21
371.16425262
 31
0.0
  0
LINE
  5
3D7
100
AcDbEntity
  8
SLD-0_3
  6
PHANTOM
 62
       7
100
AcDbLine
 10
-29.59884071
 20
371.16425262
 30
0.0
 11
-29.91315956
 21
371.21946042
 31
0.0
  0
LINE
  5
3D8
100
AcDbEntity
  8
SLD-0_3
  6
PHANTOM
 62
       7
100
AcDbLine
 10
-32.74191798
 20
370.15692221
 30
0.0
 11
-32.93450805
 21
369.91867432
 31
0.0
  0
LINE
  5
3D9
100
AcDbEntity
  8
SLD-0_3
  6
PHANTOM
 62
       7
100
AcDbLine
 10
-33.52349851
 20
368.49135152
 30
0.0
 11
-33.55562048
 21
368.16953569
 31
0.0
  0
LINE
  5
3DA
100
AcDbEntity
  8
SLD-0_3
  6
PHANTOM
 62
       7
100
AcDbLine
 10
-29.91315956
 20
364.79122965
 30
0.0
 11
-29.59884071
 21
364.84643745
 31
0.0
  0
LINE
  5
3DB
100
AcDbEntity
  8
SLD-0_3
  6
PHANTOM
 62
       7
100
AcDbLine
 10
-28.00211598
 20
365.74180717
 30
0.0
 11
-27.79871792
 21
365.97056873
 31
0.0
  0
LINE
  5
3DC
100
AcDbEntity
  8
SLD-0_3
  6
PHANTOM
 62
       7
100
AcDbLine
 10
-36.96556794
 20
368.00534504
 30
0.0
 11
-36.98179089
 21
368.33160253
 31
0.0
  0
LINE
  5
3DD
100
AcDbEntity
  8
SLD-0_3
  6
PHANTOM
 62
       7
100
AcDbLine
 10
-37.02942316
 20
368.64858864
 30
0.0
 11
-37.10690986
 21
368.95475116
 31
0.0
  0
LINE
  5
3DE
100
AcDbEntity
  8
SLD-0_3
  6
PHANTOM
 62
       7
100
AcDbLine
 10
-41.07950109
 20
371.12550796
 30
0.0
 11
-41.37647058
 21
371.02670724
 31
0.0
  0
LINE
  5
3DF
100
AcDbEntity
  8
SLD-0_3
  6
PHANTOM
 62
       7
100
AcDbLine
 10
-43.25443249
 20
366.90740156
 30
0.0
 11
-43.13509029
 21
366.6203848
 31
0.0
  0
LINE
  5
3E0
100
AcDbEntity
  8
SLD-0_3
  6
PHANTOM
 62
       7
100
AcDbLine
 10
-47.23073619
 20
369.52839663
 30
0.0
 11
-47.38845695
 21
369.79277518
 31
0.0
  0
LINE
  5
3E1
100
AcDbEntity
  8
SLD-0_3
  6
PHANTOM
 62
       7
100
AcDbLine
 10
-51.81382795
 20
370.74929291
 30
0.0
 11
-52.06559428
 21
370.5737837
 31
0.0
  0
LINE
  5
3E2
100
AcDbEntity
  8
SLD-0_3
  6
PHANTOM
 62
       7
100
AcDbLine
 10
-48.50048718
 20
365.18255203
 30
0.0
 11
-48.24014053
 21
365.34624662
 31
0.0
  0
LINE
  5
3E3
100
AcDbEntity
  8
SLD-0_3
  6
PHANTOM
 62
       7
100
AcDbLine
 10
-55.92316093
 20
362.51998799
 30
0.0
 11
-55.92316093
 21
373.34428553
 31
0.0
  0
LINE
  5
3E4
100
AcDbEntity
  8
SLD-0_3
  6
PHANTOM
 62
       7
100
AcDbLine
 10
-3.82853754
 20
373.34428553
 30
0.0
 11
-4.72139137
 21
373.34428553
 31
0.0
  0
LINE
  5
3E5
100
AcDbEntity
  8
SLD-0_3
  6
PHANTOM
 62
       7
100
AcDbLine
 10
-54.14797996
 20
362.51998799
 30
0.0
 11
-53.2560831
 21
362.51998799
 31
0.0
  0
LINE
  5
3E6
100
AcDbEntity
  8
SLD-0_3
  6
PHANTOM
 62
       7
100
AcDbLine
 10
-7.45029672
 20
368.95475116
 30
0.0
 11
-7.55602338
 21
369.24853789
 31
0.0
  0
LINE
  5
3E7
100
AcDbEntity
  8
SLD-0_3
  6
PHANTOM
 62
       7
100
AcDbLine
 10
-7.55602338
 20
369.24853789
 30
0.0
 11
-7.68848369
 21
369.52839663
 31
0.0
  0
LINE
  5
3E8
100
AcDbEntity
  8
SLD-0_3
  6
PHANTOM
 62
       7
100
AcDbLine
 10
-12.97036617
 20
370.15692221
 30
0.0
 11
-13.16286971
 21
369.91867432
 31
0.0
  0
LINE
  5
3E9
100
AcDbEntity
  8
SLD-0_3
  6
PHANTOM
 62
       7
100
AcDbLine
 10
-12.52300844
 20
365.43690637
 30
0.0
 11
-12.27125867
 21
365.26139716
 31
0.0
  0
LINE
  5
3EA
100
AcDbEntity
  8
SLD-0_3
  6
PHANTOM
 62
       7
100
AcDbLine
 10
-18.34130519
 20
370.47750767
 30
0.0
 11
-18.58422649
 21
370.66444345
 31
0.0
  0
LINE
  5
3EB
100
AcDbEntity
  8
SLD-0_3
  6
PHANTOM
 62
       7
100
AcDbLine
 10
-22.64340694
 20
365.63488067
 30
0.0
 11
-22.40959211
 21
365.43690637
 31
0.0
  0
LINE
  5
3EC
100
AcDbEntity
  8
SLD-0_3
  6
PHANTOM
 62
       7
100
AcDbLine
 10
-17.25847942
 20
367.36210143
 30
0.0
 11
-17.21079285
 21
367.67908754
 31
0.0
  0
LINE
  5
3ED
100
AcDbEntity
  8
SLD-0_3
  6
PHANTOM
 62
       7
100
AcDbLine
 10
-17.21079285
 20
367.67908754
 30
0.0
 11
-17.19454972
 21
368.00534504
 31
0.0
  0
LINE
  5
3EE
100
AcDbEntity
  8
SLD-0_3
  6
PHANTOM
 62
       7
100
AcDbLine
 10
-28.46889929
 20
370.66444345
 30
0.0
 11
-28.72917212
 21
370.82813804
 31
0.0
  0
LINE
  5
3EF
100
AcDbEntity
  8
SLD-0_3
  6
PHANTOM
 62
       7
100
AcDbLine
 10
-31.49052589
 20
371.02670724
 30
0.0
 11
-31.77408028
 21
370.90078482
 31
0.0
  0
LINE
  5
3F0
100
AcDbEntity
  8
SLD-0_3
  6
PHANTOM
 62
       7
100
AcDbLine
 10
-33.10424064
 20
369.66261794
 30
0.0
 11
-33.24956085
 21
369.39030527
 31
0.0
  0
LINE
  5
3F1
100
AcDbEntity
  8
SLD-0_3
  6
PHANTOM
 62
       7
100
AcDbLine
 10
-33.46074466
 20
367.20757021
 30
0.0
 11
-33.36891382
 21
366.90740156
 31
0.0
  0
LINE
  5
3F2
100
AcDbEntity
  8
SLD-0_3
  6
PHANTOM
 62
       7
100
AcDbLine
 10
-33.24956085
 20
366.6203848
 30
0.0
 11
-33.10424064
 21
366.34807213
 31
0.0
  0
LINE
  5
3F3
100
AcDbEntity
  8
SLD-0_3
  6
PHANTOM
 62
       7
100
AcDbLine
 10
-28.72917212
 20
365.18255203
 30
0.0
 11
-28.46889929
 21
365.34624662
 31
0.0
  0
LINE
  5
3F4
100
AcDbEntity
  8
SLD-0_3
  6
PHANTOM
 62
       7
100
AcDbLine
 10
-37.50294784
 20
369.79277518
 30
0.0
 11
-37.68430353
 21
370.04012134
 31
0.0
  0
LINE
  5
3F5
100
AcDbEntity
  8
SLD-0_3
  6
PHANTOM
 62
       7
100
AcDbLine
 10
-42.62752117
 20
365.85376787
 30
0.0
 11
-42.41367136
 21
365.63488067
 31
0.0
  0
LINE
  5
3F6
100
AcDbEntity
  8
SLD-0_3
  6
PHANTOM
 62
       7
100
AcDbLine
 10
-37.88773927
 20
365.74180717
 30
0.0
 11
-37.68430353
 21
365.97056873
 31
0.0
  0
LINE
  5
3F7
100
AcDbEntity
  8
SLD-0_3
  6
PHANTOM
 62
       7
100
AcDbLine
 10
-52.29918047
 20
370.3758094
 30
0.0
 11
-52.51303029
 21
370.15692221
 31
0.0
  0
LINE
  5
3F8
100
AcDbEntity
  8
SLD-0_3
  6
PHANTOM
 62
       7
100
AcDbLine
 10
-47.99720931
 20
365.5331824
 30
0.0
 11
-47.77324839
 21
365.74180717
 31
0.0
  0
LINE
  5
3F9
100
AcDbEntity
  8
SLD-0_3
  6
PHANTOM
 62
       7
100
AcDbLine
 10
-56.8274984
 20
374.62375559
 30
0.0
 11
-3.82853754
 21
374.62375559
 31
0.0
  0
LINE
  5
3FA
100
AcDbEntity
  8
SLD-0_3
  6
PHANTOM
 62
       7
100
AcDbLine
 10
-17.28641892
 20
361.6261772
 30
0.0
 11
-17.28641892
 21
362.51998799
 31
0.0
  0
LINE
  5
3FB
100
AcDbEntity
  8
SLD-0_3
  6
PHANTOM
 62
       7
100
AcDbLine
 10
-17.28641892
 20
362.51998799
 30
0.0
 11
-16.38303842
 21
362.51998799
 31
0.0
  0
LINE
  5
3FC
100
AcDbEntity
  8
SLD-0_3
  6
PHANTOM
 62
       7
100
AcDbLine
 10
-46.03956575
 20
373.34428553
 30
0.0
 11
-46.94103232
 21
373.34428553
 31
0.0
  0
LINE
  5
3FD
100
AcDbEntity
  8
SLD-0_3
  6
PHANTOM
 62
       7
100
AcDbLine
 10
-46.94103232
 20
373.34428553
 30
0.0
 11
-46.94103232
 21
374.62375559
 31
0.0
  0
LINE
  5
3FE
100
AcDbEntity
  8
SLD-0_3
  6
PHANTOM
 62
       7
100
AcDbLine
 10
-33.48506488
 20
374.62375559
 30
0.0
 11
-33.48506488
 21
373.34428553
 31
0.0
  0
LINE
  5
3FF
100
AcDbEntity
  8
SLD-0_3
  6
PHANTOM
 62
       7
100
AcDbLine
 10
-9.23386309
 20
370.96703923
 30
0.0
 11
-9.52431334
 21
371.07959482
 31
0.0
  0
LINE
  5
400
100
AcDbEntity
  8
SLD-0_3
  6
PHANTOM
 62
       7
100
AcDbLine
 10
-12.00286455
 20
365.10990525
 30
0.0
 11
-11.7193783
 21
364.98398283
 31
0.0
  0
LINE
  5
401
100
AcDbEntity
  8
SLD-0_3
  6
PHANTOM
 62
       7
100
AcDbLine
 10
-18.84451303
 20
370.82813804
 30
0.0
 11
-19.12060058
 21
370.96703923
 31
0.0
  0
LINE
  5
402
100
AcDbEntity
  8
SLD-0_3
  6
PHANTOM
 62
       7
100
AcDbLine
 10
-22.15759177
 20
365.26139716
 30
0.0
 11
-21.88896616
 21
365.10990525
 31
0.0
  0
LINE
  5
403
100
AcDbEntity
  8
SLD-0_3
  6
PHANTOM
 62
       7
100
AcDbLine
 10
-27.22139473
 20
368.95475116
 30
0.0
 11
-27.32717274
 21
369.24853789
 31
0.0
  0
LINE
  5
404
100
AcDbEntity
  8
SLD-0_3
  6
PHANTOM
 62
       7
100
AcDbLine
 10
-32.52802528
 20
370.3758094
 30
0.0
 11
-32.74191798
 21
370.15692221
 31
0.0
  0
LINE
  5
405
100
AcDbEntity
  8
SLD-0_3
  6
PHANTOM
 62
       7
100
AcDbLine
 10
-32.52802528
 20
365.63488067
 30
0.0
 11
-32.29438485
 21
365.43690637
 31
0.0
  0
LINE
  5
406
100
AcDbEntity
  8
SLD-0_3
  6
PHANTOM
 62
       7
100
AcDbLine
 10
-38.35463142
 20
370.66444345
 30
0.0
 11
-38.61497806
 21
370.82813804
 31
0.0
  0
LINE
  5
407
100
AcDbEntity
  8
SLD-0_3
  6
PHANTOM
 62
       7
100
AcDbLine
 10
-42.98978685
 20
369.66261794
 30
0.0
 11
-43.13509029
 21
369.39030527
 31
0.0
  0
LINE
  5
408
100
AcDbEntity
  8
SLD-0_3
  6
PHANTOM
 62
       7
100
AcDbLine
 10
-37.50294784
 20
366.21791489
 30
0.0
 11
-37.34522708
 21
366.48229344
 31
0.0
  0
LINE
  5
409
100
AcDbEntity
  8
SLD-0_3
  6
PHANTOM
 62
       7
100
AcDbLine
 10
-52.70558752
 20
369.91867432
 30
0.0
 11
-52.87529597
 21
369.66261794
 31
0.0
  0
LINE
  5
40A
100
AcDbEntity
  8
SLD-0_3
  6
PHANTOM
 62
       7
100
AcDbLine
 10
-47.56981264
 20
365.97056873
 30
0.0
 11
-47.38845695
 21
366.21791489
 31
0.0
  0
LINE
  5
40B
100
AcDbEntity
  8
SLD-0_3
  6
PHANTOM
 62
       7
100
AcDbLine
 10
-56.8274984
 20
362.51998799
 30
0.0
 11
-55.92316093
 21
362.51998799
 31
0.0
  0
LINE
  5
40C
100
AcDbEntity
  8
SLD-0_3
  6
PHANTOM
 62
       7
100
AcDbLine
 10
-7.40090981
 20
373.34428553
 30
0.0
 11
-7.40090981
 21
374.62375559
 31
0.0
  0
LINE
  5
40D
100
AcDbEntity
  8
SLD-0_3
  6
PHANTOM
 62
       7
100
AcDbLine
 10
-26.26854753
 20
373.34428553
 30
0.0
 11
-27.17192803
 21
373.34428553
 31
0.0
  0
LINE
  5
40E
100
AcDbEntity
  8
SLD-0_3
  6
PHANTOM
 62
       7
100
AcDbLine
 10
-36.15405664
 20
373.34428553
 30
0.0
 11
-37.0555232
 21
373.34428553
 31
0.0
  0
LINE
  5
40F
100
AcDbEntity
  8
SLD-0_3
  6
PHANTOM
 62
       7
100
AcDbLine
 10
-46.94103232
 20
361.6261772
 30
0.0
 11
-46.94103232
 21
362.51998799
 31
0.0
  0
LINE
  5
410
100
AcDbEntity
  8
SLD-0_3
  6
PHANTOM
 62
       7
100
AcDbLine
 10
-46.94103232
 20
362.51998799
 30
0.0
 11
-46.03956575
 21
362.51998799
 31
0.0
  0
LINE
  5
411
100
AcDbEntity
  8
SLD-0_3
  6
PHANTOM
 62
       7
100
AcDbLine
 10
-24.49336656
 20
362.51998799
 30
0.0
 11
-23.59955577
 21
362.51998799
 31
0.0
  0
LINE
  5
412
100
AcDbEntity
  8
SLD-0_3
  6
PHANTOM
 62
       7
100
AcDbLine
 10
-43.37057399
 20
362.51998799
 30
0.0
 11
-43.37057399
 21
361.6261772
 31
0.0
  0
LINE
  5
413
100
AcDbEntity
  8
SLD-0_3
  6
PHANTOM
 62
       7
100
AcDbLine
 10
-9.82752743
 20
371.16425262
 30
0.0
 11
-10.14195316
 21
371.21946042
 31
0.0
  0
LINE
  5
414
100
AcDbEntity
  8
SLD-0_3
  6
PHANTOM
 62
       7
100
AcDbLine
 10
-11.4223521
 20
364.88518211
 30
0.0
 11
-11.11333817
 21
364.81505529
 31
0.0
  0
LINE
  5
415
100
AcDbEntity
  8
SLD-0_3
  6
PHANTOM
 62
       7
100
AcDbLine
 10
-19.41092488
 20
371.07959482
 30
0.0
 11
-19.7139217
 21
371.16425262
 31
0.0
  0
LINE
  5
416
100
AcDbEntity
  8
SLD-0_3
  6
PHANTOM
 62
       7
100
AcDbLine
 10
-23.67201998
 20
367.84115438
 30
0.0
 11
-23.63985743
 21
367.51933855
 31
0.0
  0
LINE
  5
417
100
AcDbEntity
  8
SLD-0_3
  6
PHANTOM
 62
       7
100
AcDbLine
 10
-23.63985743
 20
367.51933855
 30
0.0
 11
-23.57702753
 21
367.20757021
 31
0.0
  0
LINE
  5
418
100
AcDbEntity
  8
SLD-0_3
  6
PHANTOM
 62
       7
100
AcDbLine
 10
-21.60527551
 20
364.98398283
 30
0.0
 11
-21.30808005
 21
364.88518211
 31
0.0
  0
LINE
  5
419
100
AcDbEntity
  8
SLD-0_3
  6
PHANTOM
 62
       7
100
AcDbLine
 10
-19.7139217
 20
364.84643745
 30
0.0
 11
-19.41092488
 21
364.93109525
 31
0.0
  0
LINE
  5
41A
100
AcDbEntity
  8
SLD-0_3
  6
PHANTOM
 62
       7
100
AcDbLine
 10
-19.12060058
 20
365.04365084
 30
0.0
 11
-18.84451303
 21
365.18255203
 31
0.0
  0
LINE
  5
41B
100
AcDbEntity
  8
SLD-0_3
  6
PHANTOM
 62
       7
100
AcDbLine
 10
-28.2260285
 20
370.47750767
 30
0.0
 11
-28.46889929
 21
370.66444345
 31
0.0
  0
LINE
  5
41C
100
AcDbEntity
  8
SLD-0_3
  6
PHANTOM
 62
       7
100
AcDbLine
 10
-31.49052589
 20
364.98398283
 30
0.0
 11
-31.19344327
 21
364.88518211
 31
0.0
  0
LINE
  5
41D
100
AcDbEntity
  8
SLD-0_3
  6
PHANTOM
 62
       7
100
AcDbLine
 10
-27.22139473
 20
367.05593891
 30
0.0
 11
-27.14391226
 21
367.36210143
 31
0.0
  0
LINE
  5
41E
100
AcDbEntity
  8
SLD-0_3
  6
PHANTOM
 62
       7
100
AcDbLine
 10
-43.25443249
 20
369.10328851
 30
0.0
 11
-43.34625726
 21
368.80311986
 31
0.0
  0
LINE
  5
41F
100
AcDbEntity
  8
SLD-0_3
  6
PHANTOM
 62
       7
100
AcDbLine
 10
-37.21269613
 20
366.76215218
 30
0.0
 11
-37.10690986
 21
367.05593891
 31
0.0
  0
LINE
  5
420
100
AcDbEntity
  8
SLD-0_3
  6
PHANTOM
 62
       7
100
AcDbLine
 10
-53.0205994
 20
369.39030527
 30
0.0
 11
-53.13994161
 21
369.10328851
 31
0.0
  0
LINE
  5
421
100
AcDbEntity
  8
SLD-0_3
  6
PHANTOM
 62
       7
100
AcDbLine
 10
-50.33676156
 20
364.77515456
 30
0.0
 11
-50.00903108
 21
364.76702404
 31
0.0
  0
LINE
  5
422
100
AcDbEntity
  8
SLD-0_3
  6
PHANTOM
 62
       7
100
AcDbLine
 10
-50.00903108
 20
364.76702404
 30
0.0
 11
-49.68493046
 21
364.79122965
 31
0.0
  0
LINE
  5
423
100
AcDbEntity
  8
SLD-0_3
  6
PHANTOM
 62
       7
100
AcDbLine
 10
-47.23073619
 20
366.48229344
 30
0.0
 11
-47.09820524
 21
366.76215218
 31
0.0
  0
LINE
  5
424
100
AcDbEntity
  8
SLD-0_3
  6
PHANTOM
 62
       7
100
AcDbLine
 10
-37.0555232
 20
361.6261772
 30
0.0
 11
-37.0555232
 21
362.51998799
 31
0.0
  0
LINE
  5
425
100
AcDbEntity
  8
SLD-0_3
  6
PHANTOM
 62
       7
100
AcDbLine
 10
-43.37057399
 20
373.34428553
 30
0.0
 11
-44.26247084
 21
373.34428553
 31
0.0
  0
LINE
  5
426
100
AcDbEntity
  8
SLD-0_3
  6
PHANTOM
 62
       7
100
AcDbLine
 10
-10.46603833
 20
371.24366603
 30
0.0
 11
-10.79388869
 21
371.23553551
 31
0.0
  0
LINE
  5
427
100
AcDbEntity
  8
SLD-0_3
  6
PHANTOM
 62
       7
100
AcDbLine
 10
-10.79388869
 20
364.77515456
 30
0.0
 11
-10.46603833
 21
364.76702404
 31
0.0
  0
LINE
  5
428
100
AcDbEntity
  8
SLD-0_3
  6
PHANTOM
 62
       7
100
AcDbLine
 10
-17.33604519
 20
368.95475116
 30
0.0
 11
-17.4419259
 21
369.24853789
 31
0.0
  0
LINE
  5
429
100
AcDbEntity
  8
SLD-0_3
  6
PHANTOM
 62
       7
100
AcDbLine
 10
-17.4419259
 20
369.24853789
 30
0.0
 11
-17.57455732
 21
369.52839663
 31
0.0
  0
LINE
  5
42A
100
AcDbEntity
  8
SLD-0_3
  6
PHANTOM
 62
       7
100
AcDbLine
 10
-20.02802678
 20
371.21946042
 30
0.0
 11
-20.3516759
 21
371.24366603
 31
0.0
  0
LINE
  5
42B
100
AcDbEntity
  8
SLD-0_3
  6
PHANTOM
 62
       7
100
AcDbLine
 10
-21.88896616
 20
370.90078482
 30
0.0
 11
-22.15759177
 21
370.74929291
 31
0.0
  0
LINE
  5
42C
100
AcDbEntity
  8
SLD-0_3
  6
PHANTOM
 62
       7
100
AcDbLine
 10
-22.40959211
 20
370.5737837
 30
0.0
 11
-22.64340694
 21
370.3758094
 31
0.0
  0
LINE
  5
42D
100
AcDbEntity
  8
SLD-0_3
  6
PHANTOM
 62
       7
100
AcDbLine
 10
-23.22013612
 20
366.34807213
 30
0.0
 11
-23.05023917
 21
366.09201575
 31
0.0
  0
LINE
  5
42E
100
AcDbEntity
  8
SLD-0_3
  6
PHANTOM
 62
       7
100
AcDbLine
 10
-20.99893999
 20
364.81505529
 30
0.0
 11
-20.67941559
 21
364.77515456
 31
0.0
  0
LINE
  5
42F
100
AcDbEntity
  8
SLD-0_3
  6
PHANTOM
 62
       7
100
AcDbLine
 10
-18.11731338
 20
365.74180717
 30
0.0
 11
-17.91381531
 21
365.97056873
 31
0.0
  0
LINE
  5
430
100
AcDbEntity
  8
SLD-0_3
  6
PHANTOM
 62
       7
100
AcDbLine
 10
-29.91315956
 20
371.21946042
 30
0.0
 11
-30.23709937
 21
371.24366603
 31
0.0
  0
LINE
  5
431
100
AcDbEntity
  8
SLD-0_3
  6
PHANTOM
 62
       7
100
AcDbLine
 10
-33.55562048
 20
368.16953569
 30
0.0
 11
-33.55562048
 21
367.84115438
 31
0.0
  0
LINE
  5
432
100
AcDbEntity
  8
SLD-0_3
  6
PHANTOM
 62
       7
100
AcDbLine
 10
-27.09628156
 20
367.67908754
 30
0.0
 11
-27.08005883
 21
368.00534504
 31
0.0
  0
LINE
  5
433
100
AcDbEntity
  8
SLD-0_3
  6
PHANTOM
 62
       7
100
AcDbLine
 10
-43.40900837
 20
368.49135152
 30
0.0
 11
-43.44112962
 21
368.16953569
 31
0.0
  0
LINE
  5
434
100
AcDbEntity
  8
SLD-0_3
  6
PHANTOM
 62
       7
100
AcDbLine
 10
-37.02942316
 20
367.36210143
 30
0.0
 11
-36.98179089
 21
367.67908754
 31
0.0
  0
LINE
  5
435
100
AcDbEntity
  8
SLD-0_3
  6
PHANTOM
 62
       7
100
AcDbLine
 10
-50.65608542
 20
371.19563479
 30
0.0
 11
-50.9650102
 21
371.12550796
 31
0.0
  0
LINE
  5
436
100
AcDbEntity
  8
SLD-0_3
  6
PHANTOM
 62
       7
100
AcDbLine
 10
-50.9650102
 20
371.12550796
 30
0.0
 11
-51.26197969
 21
371.02670724
 31
0.0
  0
LINE
  5
437
100
AcDbEntity
  8
SLD-0_3
  6
PHANTOM
 62
       7
100
AcDbLine
 10
-53.23176637
 20
368.80311986
 30
0.0
 11
-53.29451749
 21
368.49135152
 31
0.0
  0
LINE
  5
438
100
AcDbEntity
  8
SLD-0_3
  6
PHANTOM
 62
       7
100
AcDbLine
 10
-53.13994161
 20
366.90740156
 30
0.0
 11
-53.0205994
 21
366.6203848
 31
0.0
  0
LINE
  5
439
100
AcDbEntity
  8
SLD-0_3
  6
PHANTOM
 62
       7
100
AcDbLine
 10
-52.87529597
 20
366.34807213
 30
0.0
 11
-52.70558752
 21
366.09201575
 31
0.0
  0
LINE
  5
43A
100
AcDbEntity
  8
SLD-0_3
  6
PHANTOM
 62
       7
100
AcDbLine
 10
-48.77669437
 20
365.04365084
 30
0.0
 11
-48.50048718
 21
365.18255203
 31
0.0
  0
LINE
  5
43B
100
AcDbEntity
  8
SLD-0_3
  6
PHANTOM
 62
       7
100
AcDbLine
 10
-46.99241897
 20
367.05593891
 30
0.0
 11
-46.91493227
 21
367.36210143
 31
0.0
  0
TEXT
  5
43C
100
AcDbEntity
  8
SLD-0
 62
       7
100
AcDbText
 10
180.63175269
 20
-377.12375559
 30
0.0
 40
5.0
  1
000
 72
       5
 11
195.63175269
 21
-377.12375559
 31
0.0
100
AcDbText
  0
TEXT
  5
43D
100
AcDbEntity
  8
SLD-0_3
 62
       7
100
AcDbText
 10
-193.67169478
 20
353.35913495
 30
0.0
 40
10.0
  1
U1-R
 72
       5
 11
-153.67169478
 21
353.35913495
 31
0.0
100
AcDbText
  0
TEXT
  5
43E
100
AcDbEntity
  8
SLD-0_3
 62
       7
100
AcDbText
 10
-179.59964198
 20
-101.58545376
 30
0.0
 40
10.0
  1
U1-K
 72
       5
 11
-139.59964198
 21
-101.58545376
 31
0.0
100
AcDbText
  0
ENDSEC
  0
SECTION
  2
OBJECTS
  0
DICTIONARY
  5
19
100
AcDbDictionary
  3
ACAD_GROUP
350
1A
  3
ACAD_MLINESTYLE
350
1B
  0
DICTIONARY
  5
1A
102
{ACAD_REACTORS
330
19
102
}
100
AcDbDictionary
  0
DICTIONARY
  5
1B
102
{ACAD_REACTORS
330
19
102
}
100
AcDbDictionary
  3
STANDARD
350
1C
  0
MLINESTYLE
  5
1C
102
{ACAD_REACTORS
330
1B
102
}
100
AcDbMlineStyle
  2
STANDARD
 70
       0
  3

 62
       0
 51
90.0
 52
90.0
 71
       2
 49
0.5
 62
     256
  6
BYLAYER
 49
-0.5
 62
     256
  6
BYLAYER
  0
ENDSEC
  0
EOF
