  0
SECTION
  2
HEADER
  9
$ACADVER
  1
AC1014
  9
$ACADMAINTVER
 70
     9
  9
$DWGCODEPAGE
  3
ANSI_932
  9
$INSBASE
 10
0.0
 20
0.0
 30
0.0
  9
$EXTMIN
 10
-1328.12068897776
 20
-2152.896149567435
 30
0.0
  9
$EXTMAX
 10
1367.241633331149
 20
2175.233545347955
 30
0.0
  9
$LIMMIN
 10
-594.5
 20
-841.0
  9
$LIMMAX
 10
594.5
 20
841.0
  9
$ORTHOMODE
 70
     0
  9
$REGENMODE
 70
     1
  9
$FILLMODE
 70
     1
  9
$QTEXTMODE
 70
     0
  9
$MIRRTEXT
 70
     1
  9
$DRAGMODE
 70
     2
  9
$LTSCALE
 40
0.25
  9
$OSMODE
 70
    37
  9
$ATTMODE
 70
     1
  9
$TEXTSIZE
 40
0.2
  9
$TRACEWID
 40
0.05
  9
$TEXTSTYLE
  7
STANDARD
  9
$CLAYER
  8
0
  9
$CELTYPE
  6
BYLAYER
  9
$CECOLOR
 62
   256
  9
$CELTSCALE
 40
1.0
  9
$DELOBJ
 70
     1
  9
$DISPSILH
 70
     0
  9
$DIMSCALE
 40
1.0
  9
$DIMASZ
 40
2.000107526779175
  9
$DIMEXO
 40
1.0
  9
$DIMDLI
 40
10.0
  9
$DIMRND
 40
0.0
  9
$DIMDLE
 40
0.0
  9
$DIMEXE
 40
1.0
  9
$DIMTP
 40
0.0
  9
$DIMTM
 40
0.0
  9
$DIMTXT
 40
3.5
  9
$DIMCEN
 40
0.0
  9
$DIMTSZ
 40
0.0
  9
$DIMTOL
 70
     0
  9
$DIMLIM
 70
     0
  9
$DIMTIH
 70
     0
  9
$DIMTOH
 70
     0
  9
$DIMSE1
 70
     0
  9
$DIMSE2
 70
     0
  9
$DIMTAD
 70
     1
  9
$DIMZIN
 70
     8
  9
$DIMBLK
  1

  9
$DIMASO
 70
     1
  9
$DIMSHO
 70
     1
  9
$DIMPOST
  1

  9
$DIMAPOST
  1

  9
$DIMALT
 70
     0
  9
$DIMALTD
 70
     2
  9
$DIMALTF
 40
0.0393700787401575
  9
$DIMLFAC
 40
1.0
  9
$DIMTOFL
 70
     0
  9
$DIMTVP
 40
0.0
  9
$DIMTIX
 70
     0
  9
$DIMSOXD
 70
     0
  9
$DIMSAH
 70
     0
  9
$DIMBLK1
  1

  9
$DIMBLK2
  1

  9
$DIMSTYLE
  2
STANDARD
  9
$DIMCLRD
 70
     0
  9
$DIMCLRE
 70
     0
  9
$DIMCLRT
 70
     0
  9
$DIMTFAC
 40
0.65
  9
$DIMGAP
 40
0.09
  9
$DIMJUST
 70
     0
  9
$DIMSD1
 70
     0
  9
$DIMSD2
 70
     0
  9
$DIMTOLJ
 70
     0
  9
$DIMTZIN
 70
     0
  9
$DIMALTZ
 70
     0
  9
$DIMALTTZ
 70
     0
  9
$DIMFIT
 70
     3
  9
$DIMUPT
 70
     0
  9
$DIMUNIT
 70
     2
  9
$DIMDEC
 70
     3
  9
$DIMTDEC
 70
     3
  9
$DIMALTU
 70
     2
  9
$DIMALTTD
 70
     3
  9
$DIMTXSTY
  7
STANDARD
  9
$DIMAUNIT
 70
     0
  9
$LUNITS
 70
     2
  9
$LUPREC
 70
     4
  9
$SKETCHINC
 40
0.1
  9
$FILLETRAD
 40
0.5
  9
$AUNITS
 70
     0
  9
$AUPREC
 70
     0
  9
$MENU
  1
.
  9
$ELEVATION
 40
0.0
  9
$PELEVATION
 40
0.0
  9
$THICKNESS
 40
0.0
  9
$LIMCHECK
 70
     0
  9
$CHAMFERA
 40
0.0
  9
$CHAMFERB
 40
0.0
  9
$CHAMFERC
 40
0.0
  9
$CHAMFERD
 40
0.0
  9
$SKPOLY
 70
     0
  9
$TDCREATE
 40
2458449.64110169
  9
$TDUPDATE
 40
2458449.641102824
  9
$TDINDWG
 40
0.0000000116
  9
$TDUSRTIMER
 40
0.0000000116
  9
$USRTIMER
 70
     1
  9
$ANGBASE
 50
0.0
  9
$ANGDIR
 70
     0
  9
$PDMODE
 70
     0
  9
$PDSIZE
 40
1.0
  9
$PLINEWID
 40
0.0
  9
$COORDS
 70
     1
  9
$SPLFRAME
 70
     0
  9
$SPLINETYPE
 70
     6
  9
$SPLINESEGS
 70
     8
  9
$ATTDIA
 70
     0
  9
$ATTREQ
 70
     1
  9
$HANDLING
 70
     1
  9
$HANDSEED
  5
4F5
  9
$SURFTAB1
 70
     6
  9
$SURFTAB2
 70
     6
  9
$SURFTYPE
 70
     6
  9
$SURFU
 70
     6
  9
$SURFV
 70
     6
  9
$UCSNAME
  2

  9
$UCSORG
 10
0.0
 20
0.0
 30
0.0
  9
$UCSXDIR
 10
1.0
 20
0.0
 30
0.0
  9
$UCSYDIR
 10
0.0
 20
1.0
 30
0.0
  9
$PUCSNAME
  2

  9
$PUCSORG
 10
0.0
 20
0.0
 30
0.0
  9
$PUCSXDIR
 10
1.0
 20
0.0
 30
0.0
  9
$PUCSYDIR
 10
0.0
 20
1.0
 30
0.0
  9
$USERI1
 70
     0
  9
$USERI2
 70
     0
  9
$USERI3
 70
     0
  9
$USERI4
 70
     0
  9
$USERI5
 70
     0
  9
$USERR1
 40
0.0
  9
$USERR2
 40
0.0
  9
$USERR3
 40
0.0
  9
$USERR4
 40
0.0
  9
$USERR5
 40
0.0
  9
$WORLDVIEW
 70
     1
  9
$SHADEDGE
 70
     3
  9
$SHADEDIF
 70
    70
  9
$TILEMODE
 70
     1
  9
$MAXACTVP
 70
    64
  9
$PINSBASE
 10
0.0
 20
0.0
 30
0.0
  9
$PLIMCHECK
 70
     0
  9
$PEXTMIN
 10
1.000000000000000E+20
 20
1.000000000000000E+20
 30
1.000000000000000E+20
  9
$PEXTMAX
 10
-1.000000000000000E+20
 20
-1.000000000000000E+20
 30
-1.000000000000000E+20
  9
$PLIMMIN
 10
0.0
 20
0.0
  9
$PLIMMAX
 10
12.0
 20
9.0
  9
$UNITMODE
 70
     0
  9
$VISRETAIN
 70
     0
  9
$PLINEGEN
 70
     1
  9
$PSLTSCALE
 70
     0
  9
$TREEDEPTH
 70
  3020
  9
$PICKSTYLE
 70
     1
  9
$CMLSTYLE
  2
STANDARD
  9
$CMLJUST
 70
     0
  9
$CMLSCALE
 40
1.0
  9
$PROXYGRAPHICS
 70
     0
  9
$MEASUREMENT
 70
     1
  0
ENDSEC
  0
SECTION
  2
CLASSES
  0
CLASS
  1
ACDBDICTIONARYWDFLT
  2
AcDbDictionaryWithDefault
  3
ObjectDBX Classes
 90
        0
280
     0
281
     0
  0
CLASS
  1
VISUALSTYLE
  2
AcDbVisualStyle
  3
ObjectDBX Classes
 90
     4095
280
     0
281
     0
  0
CLASS
  1
MATERIAL
  2
AcDbMaterial
  3
ObjectDBX Classes
 90
     1153
280
     0
281
     0
  0
CLASS
  1
SCALE
  2
AcDbScale
  3
ObjectDBX Classes
 90
     1153
280
     0
281
     0
  0
CLASS
  1
TABLESTYLE
  2
AcDbTableStyle
  3
ObjectDBX Classes
 90
     4095
280
     0
281
     0
  0
CLASS
  1
MLEADERSTYLE
  2
AcDbMLeaderStyle
  3
ACDB_MLEADERSTYLE_CLASS
 90
     4095
280
     0
281
     0
  0
CLASS
  1
SUN
  2
AcDbSun
  3
SCENEOE
 90
     1153
280
     0
281
     0
  0
CLASS
  1
DICTIONARYVAR
  2
AcDbDictionaryVar
  3
ObjectDBX Classes
 90
        0
280
     0
281
     0
  0
CLASS
  1
XRECORD
  2
AcDbXrecord
  3
ObjectDBX Classes
 90
        0
280
     0
281
     0
  0
CLASS
  1
LWPOLYLINE
  2
AcDbPolyline
  3
ObjectDBX Classes
 90
        0
280
     0
281
     1
  0
CLASS
  1
HATCH
  2
AcDbHatch
  3
ObjectDBX Classes
 90
        0
280
     0
281
     1
  0
CLASS
  1
ACDBPLACEHOLDER
  2
AcDbPlaceHolder
  3
ObjectDBX Classes
 90
        0
280
     0
281
     0
  0
CLASS
  1
LAYOUT
  2
AcDbLayout
  3
ObjectDBX Classes
 90
        0
280
     0
281
     0
  0
ENDSEC
  0
SECTION
  2
TABLES
  0
TABLE
  2
VPORT
  5
8
102
{ACAD_XDICTIONARY
360
4EA
102
}
330
0
100
AcDbSymbolTable
 70
     1
  0
VPORT
  5
29
330
8
100
AcDbSymbolTableRecord
100
AcDbViewportTableRecord
  2
*ACTIVE
 70
     0
 10
0.0
 20
0.0
 11
1.0
 21
1.0
 12
19.56047217669441
 22
11.1686978902602
 13
0.0
 23
0.0
 14
0.5
 24
0.5
 15
0.5
 25
0.5
 16
0.0
 26
0.0
 36
1.0
 17
0.0
 27
0.0
 37
0.0
 40
1471.564096271233
 41
0.6227545180717144
 42
50.0
 43
0.0
 44
0.0
 50
0.0
 51
0.0
 71
     0
 72
  1000
 73
     1
 74
     1
 75
     0
 76
     0
 77
     0
 78
     0
  0
ENDTAB
  0
TABLE
  2
LTYPE
  5
5
330
0
100
AcDbSymbolTable
 70
    67
  0
LTYPE
  5
14
330
5
100
AcDbSymbolTableRecord
100
AcDbLinetypeTableRecord
  2
BYBLOCK
 70
     0
  3

 72
    65
 73
     0
 40
0.0
  0
LTYPE
  5
15
330
5
100
AcDbSymbolTableRecord
100
AcDbLinetypeTableRecord
  2
BYLAYER
 70
     0
  3

 72
    65
 73
     0
 40
0.0
  0
LTYPE
  5
16
330
5
100
AcDbSymbolTableRecord
100
AcDbLinetypeTableRecord
  2
CONTINUOUS
 70
     0
  3
Solid line
 72
    65
 73
     0
 40
0.0
  0
LTYPE
  5
6F
330
5
100
AcDbSymbolTableRecord
100
AcDbLinetypeTableRecord
  2
HIDDENX2
 70
     0
  3
Hidden (2x) ____ ____ ____ ____ ____ ____ ____ 
 72
    65
 73
     2
 40
19.05
 49
12.7
 74
     0
 49
-6.35
 74
     0
  0
LTYPE
  5
70
330
5
100
AcDbSymbolTableRecord
100
AcDbLinetypeTableRecord
  2
HIDDEN
 70
     0
  3
Hidden __ __ __ __ __ __ __ __ __ __ __ __ __ __
 72
    65
 73
     2
 40
9.524999999999999
 49
6.35
 74
     0
 49
-3.175
 74
     0
  0
LTYPE
  5
71
330
5
100
AcDbSymbolTableRecord
100
AcDbLinetypeTableRecord
  2
HIDDEN2
 70
     0
  3
Hidden (.5x) _ _ _ _ _ _ _ _ _ _ _ _ _ _ _ _ _ 
 72
    65
 73
     2
 40
4.762499999999999
 49
3.175
 74
     0
 49
-1.5875
 74
     0
  0
LTYPE
  5
72
330
5
100
AcDbSymbolTableRecord
100
AcDbLinetypeTableRecord
  2
DASHED
 70
     0
  3
Dashed __ __ __ __ __ __ __ __ __ __ __ __ __ _
 72
    65
 73
     2
 40
19.05
 49
12.7
 74
     0
 49
-6.35
 74
     0
  0
LTYPE
  5
73
330
5
100
AcDbSymbolTableRecord
100
AcDbLinetypeTableRecord
  2
DASHED2
 70
     0
  3
Dashed (.5x) _ _ _ _ _ _ _ _ _ _ _ _ _ _ _ _ _ 
 72
    65
 73
     2
 40
9.524999999999999
 49
6.35
 74
     0
 49
-3.175
 74
     0
  0
LTYPE
  5
74
330
5
100
AcDbSymbolTableRecord
100
AcDbLinetypeTableRecord
  2
DASHEDX2
 70
     0
  3
Dashed (2x) ____  ____  ____  ____  ____  ___
 72
    65
 73
     2
 40
38.09999999999999
 49
25.4
 74
     0
 49
-12.7
 74
     0
  0
LTYPE
  5
75
330
5
100
AcDbSymbolTableRecord
100
AcDbLinetypeTableRecord
  2
DOTX2
 70
     0
  3
Dot (2x) .  .  .  .  .  .  .  .  .  .  .  .  .  .
 72
    65
 73
     2
 40
12.7
 49
0.0
 74
     0
 49
-12.7
 74
     0
  0
LTYPE
  5
76
330
5
100
AcDbSymbolTableRecord
100
AcDbLinetypeTableRecord
  2
DOT
 70
     0
  3
Dot . . . . . . . . . . . . . . . . . . . . . . . .
 72
    65
 73
     2
 40
6.35
 49
0.0
 74
     0
 49
-6.35
 74
     0
  0
LTYPE
  5
77
330
5
100
AcDbSymbolTableRecord
100
AcDbLinetypeTableRecord
  2
DOT2
 70
     0
  3
Dot (.5x) ........................................
 72
    65
 73
     2
 40
3.175
 49
0.0
 74
     0
 49
-3.175
 74
     0
  0
LTYPE
  5
78
330
5
100
AcDbSymbolTableRecord
100
AcDbLinetypeTableRecord
  2
CENTERX2
 70
     0
  3
Center (2x) ________  __  ________  __  _____
 72
    65
 73
     4
 40
101.6
 49
63.5
 74
     0
 49
-12.7
 74
     0
 49
12.7
 74
     0
 49
-12.7
 74
     0
  0
LTYPE
  5
79
330
5
100
AcDbSymbolTableRecord
100
AcDbLinetypeTableRecord
  2
CENTER
 70
     0
  3
Center ____ _ ____ _ ____ _ ____ _ ____ _ ____
 72
    65
 73
     4
 40
50.8
 49
31.75
 74
     0
 49
-6.35
 74
     0
 49
6.35
 74
     0
 49
-6.35
 74
     0
  0
LTYPE
  5
7A
330
5
100
AcDbSymbolTableRecord
100
AcDbLinetypeTableRecord
  2
CENTER2
 70
     0
  3
Center (.5x) ___ _ ___ _ ___ _ ___ _ ___ _ ___
 72
    65
 73
     4
 40
28.575
 49
19.05
 74
     0
 49
-3.175
 74
     0
 49
3.175
 74
     0
 49
-3.175
 74
     0
  0
LTYPE
  5
7B
330
5
100
AcDbSymbolTableRecord
100
AcDbLinetypeTableRecord
  2
DASHDOTX2
 70
     0
  3
Dash dot (2x) ____  .  ____  .  ____  .  ___
 72
    65
 73
     4
 40
50.8
 49
25.4
 74
     0
 49
-12.7
 74
     0
 49
0.0
 74
     0
 49
-12.7
 74
     0
  0
LTYPE
  5
7C
330
5
100
AcDbSymbolTableRecord
100
AcDbLinetypeTableRecord
  2
DASHDOT
 70
     0
  3
Dash dot __ . __ . __ . __ . __ . __ . __ . __
 72
    65
 73
     4
 40
25.4
 49
12.7
 74
     0
 49
-6.35
 74
     0
 49
0.0
 74
     0
 49
-6.35
 74
     0
  0
LTYPE
  5
7D
330
5
100
AcDbSymbolTableRecord
100
AcDbLinetypeTableRecord
  2
DASHDOT2
 70
     0
  3
Dash dot (.5x) _._._._._._._._._._._._._._._.
 72
    65
 73
     4
 40
12.7
 49
6.35
 74
     0
 49
-3.175
 74
     0
 49
0.0
 74
     0
 49
-3.175
 74
     0
  0
LTYPE
  5
7E
330
5
100
AcDbSymbolTableRecord
100
AcDbLinetypeTableRecord
  2
DIVIDEX2
 70
     0
  3
Divide (2x) ________  .  .  ________  .  .  _
 72
    65
 73
     6
 40
63.5
 49
25.4
 74
     0
 49
-12.7
 74
     0
 49
0.0
 74
     0
 49
-12.7
 74
     0
 49
0.0
 74
     0
 49
-12.7
 74
     0
  0
LTYPE
  5
7F
330
5
100
AcDbSymbolTableRecord
100
AcDbLinetypeTableRecord
  2
DIVIDE
 70
     0
  3
Divide ____ . . ____ . . ____ . . ____ . . ____
 72
    65
 73
     6
 40
31.75
 49
12.7
 74
     0
 49
-6.35
 74
     0
 49
0.0
 74
     0
 49
-6.35
 74
     0
 49
0.0
 74
     0
 49
-6.35
 74
     0
  0
LTYPE
  5
80
330
5
100
AcDbSymbolTableRecord
100
AcDbLinetypeTableRecord
  2
DIVIDE2
 70
     0
  3
Divide (.5x) __..__..__..__..__..__..__..__.._
 72
    65
 73
     6
 40
15.875
 49
6.35
 74
     0
 49
-3.175
 74
     0
 49
0.0
 74
     0
 49
-3.175
 74
     0
 49
0.0
 74
     0
 49
-3.175
 74
     0
  0
LTYPE
  5
81
330
5
100
AcDbSymbolTableRecord
100
AcDbLinetypeTableRecord
  2
BORDERX2
 70
     0
  3
Border (2x) ____  ____  .  ____  ____  .  ___
 72
    65
 73
     6
 40
88.89999999999999
 49
25.4
 74
     0
 49
-12.7
 74
     0
 49
25.4
 74
     0
 49
-12.7
 74
     0
 49
0.0
 74
     0
 49
-12.7
 74
     0
  0
LTYPE
  5
82
330
5
100
AcDbSymbolTableRecord
100
AcDbLinetypeTableRecord
  2
BORDER
 70
     0
  3
Border __ __ . __ __ . __ __ . __ __ . __ __ .
 72
    65
 73
     6
 40
44.45
 49
12.7
 74
     0
 49
-6.35
 74
     0
 49
12.7
 74
     0
 49
-6.35
 74
     0
 49
0.0
 74
     0
 49
-6.35
 74
     0
  0
LTYPE
  5
83
330
5
100
AcDbSymbolTableRecord
100
AcDbLinetypeTableRecord
  2
BORDER2
 70
     0
  3
Border (.5x) __.__.__.__.__.__.__.__.__.__.__.
 72
    65
 73
     6
 40
22.225
 49
6.35
 74
     0
 49
-3.175
 74
     0
 49
6.35
 74
     0
 49
-3.175
 74
     0
 49
0.0
 74
     0
 49
-3.175
 74
     0
  0
LTYPE
  5
84
330
5
100
AcDbSymbolTableRecord
100
AcDbLinetypeTableRecord
  2
PHANTOMX2
 70
     0
  3
Phantom (2x) ____________    ____    ____   _
 72
    65
 73
     6
 40
127.0
 49
63.5
 74
     0
 49
-12.7
 74
     0
 49
12.7
 74
     0
 49
-12.7
 74
     0
 49
12.7
 74
     0
 49
-12.7
 74
     0
  0
LTYPE
  5
85
330
5
100
AcDbSymbolTableRecord
100
AcDbLinetypeTableRecord
  2
PHANTOM
 70
     0
  3
Phantom ______  __  __  ______  __  __  ______ 
 72
    65
 73
     6
 40
63.5
 49
31.75
 74
     0
 49
-6.35
 74
     0
 49
6.35
 74
     0
 49
-6.35
 74
     0
 49
6.35
 74
     0
 49
-6.35
 74
     0
  0
LTYPE
  5
86
330
5
100
AcDbSymbolTableRecord
100
AcDbLinetypeTableRecord
  2
PHANTOM2
 70
     0
  3
Phantom (.5x) ___ _ _ ___ _ _ ___ _ _ ___ _ _
 72
    65
 73
     6
 40
31.75
 49
15.875
 74
     0
 49
-3.175
 74
     0
 49
3.175
 74
     0
 49
-3.175
 74
     0
 49
3.175
 74
     0
 49
-3.175
 74
     0
  0
LTYPE
  5
87
330
5
100
AcDbSymbolTableRecord
100
AcDbLinetypeTableRecord
  2
ACAD_ISO06W100
 70
     0
  3
ISO long-dash triple-dot ____ ... ____ ... ____
 72
    65
 73
     8
 40
36.0
 49
24.0
 74
     0
 49
-3.0
 74
     0
 49
0.0
 74
     0
 49
-3.0
 74
     0
 49
0.0
 74
     0
 49
-3.0
 74
     0
 49
0.0
 74
     0
 49
-3.0
 74
     0
  0
LTYPE
  5
88
330
5
100
AcDbSymbolTableRecord
100
AcDbLinetypeTableRecord
  2
ACAD_ISO13W100
 70
     0
  3
ISO double-dash double-dot __ __ . . __ __ . . _
 72
    65
 73
     8
 40
36.0
 49
12.0
 74
     0
 49
-3.0
 74
     0
 49
12.0
 74
     0
 49
-3.0
 74
     0
 49
0.0
 74
     0
 49
-3.0
 74
     0
 49
0.0
 74
     0
 49
-3.0
 74
     0
  0
LTYPE
  5
89
330
5
100
AcDbSymbolTableRecord
100
AcDbLinetypeTableRecord
  2
ACAD_ISO14W100
 70
     0
  3
ISO dash triple-dot __ . . . __ . . . __ . . . _
 72
    65
 73
     8
 40
24.0
 49
12.0
 74
     0
 49
-3.0
 74
     0
 49
0.0
 74
     0
 49
-3.0
 74
     0
 49
0.0
 74
     0
 49
-3.0
 74
     0
 49
0.0
 74
     0
 49
-3.0
 74
     0
  0
LTYPE
  5
8A
330
5
100
AcDbSymbolTableRecord
100
AcDbLinetypeTableRecord
  2
ACAD_ISO02W100
 70
     0
  3
ISO dash __ __ __ __ __ __ __ __ __ __ __ __ __
 72
    65
 73
     2
 40
15.0
 49
12.0
 74
     0
 49
-3.0
 74
     0
  0
LTYPE
  5
8B
330
5
100
AcDbSymbolTableRecord
100
AcDbLinetypeTableRecord
  2
ACAD_ISO03W100
 70
     0
  3
ISO dash space __    __    __    __    __    __
 72
    65
 73
     2
 40
30.0
 49
12.0
 74
     0
 49
-18.0
 74
     0
  0
LTYPE
  5
8C
330
5
100
AcDbSymbolTableRecord
100
AcDbLinetypeTableRecord
  2
ACAD_ISO04W100
 70
     0
  3
ISO long-dash dot ____ . ____ . ____ . ____ . _
 72
    65
 73
     4
 40
30.0
 49
24.0
 74
     0
 49
-3.0
 74
     0
 49
0.0
 74
     0
 49
-3.0
 74
     0
  0
LTYPE
  5
8D
330
5
100
AcDbSymbolTableRecord
100
AcDbLinetypeTableRecord
  2
ACAD_ISO05W100
 70
     0
  3
ISO long-dash double-dot ____ .. ____ .. ____ . 
 72
    65
 73
     6
 40
33.0
 49
24.0
 74
     0
 49
-3.0
 74
     0
 49
0.0
 74
     0
 49
-3.0
 74
     0
 49
0.0
 74
     0
 49
-3.0
 74
     0
  0
LTYPE
  5
8E
330
5
100
AcDbSymbolTableRecord
100
AcDbLinetypeTableRecord
  2
ACAD_ISO07W100
 70
     0
  3
ISO dot . . . . . . . . . . . . . . . . . . . . 
 72
    65
 73
     2
 40
3.0
 49
0.0
 74
     0
 49
-3.0
 74
     0
  0
LTYPE
  5
8F
330
5
100
AcDbSymbolTableRecord
100
AcDbLinetypeTableRecord
  2
ACAD_ISO08W100
 70
     0
  3
ISO long-dash short-dash ____ __ ____ __ ____ _
 72
    65
 73
     4
 40
36.0
 49
24.0
 74
     0
 49
-3.0
 74
     0
 49
6.0
 74
     0
 49
-3.0
 74
     0
  0
LTYPE
  5
90
330
5
100
AcDbSymbolTableRecord
100
AcDbLinetypeTableRecord
  2
ACAD_ISO09W100
 70
     0
  3
ISO long-dash double-short-dash ____ __ __ ____
 72
    65
 73
     6
 40
45.0
 49
24.0
 74
     0
 49
-3.0
 74
     0
 49
6.0
 74
     0
 49
-3.0
 74
     0
 49
6.0
 74
     0
 49
-3.0
 74
     0
  0
LTYPE
  5
91
330
5
100
AcDbSymbolTableRecord
100
AcDbLinetypeTableRecord
  2
ACAD_ISO10W100
 70
     0
  3
ISO dash dot __ . __ . __ . __ . __ . __ . __ . 
 72
    65
 73
     4
 40
18.0
 49
12.0
 74
     0
 49
-3.0
 74
     0
 49
0.0
 74
     0
 49
-3.0
 74
     0
  0
LTYPE
  5
92
330
5
100
AcDbSymbolTableRecord
100
AcDbLinetypeTableRecord
  2
ACAD_ISO11W100
 70
     0
  3
ISO double-dash dot __ __ . __ __ . __ __ . __ _
 72
    65
 73
     6
 40
33.0
 49
12.0
 74
     0
 49
-3.0
 74
     0
 49
12.0
 74
     0
 49
-3.0
 74
     0
 49
0.0
 74
     0
 49
-3.0
 74
     0
  0
LTYPE
  5
93
330
5
100
AcDbSymbolTableRecord
100
AcDbLinetypeTableRecord
  2
ACAD_ISO12W100
 70
     0
  3
ISO dash double-dot __ . . __ . . __ . . __ . . 
 72
    65
 73
     6
 40
21.0
 49
12.0
 74
     0
 49
-3.0
 74
     0
 49
0.0
 74
     0
 49
-3.0
 74
     0
 49
0.0
 74
     0
 49
-3.0
 74
     0
  0
LTYPE
  5
94
330
5
100
AcDbSymbolTableRecord
100
AcDbLinetypeTableRecord
  2
ACAD_ISO15W100
 70
     0
  3
ISO double-dash triple-dot __ __ . . . __ __ . .
 72
    65
 73
    10
 40
39.0
 49
12.0
 74
     0
 49
-3.0
 74
     0
 49
12.0
 74
     0
 49
-3.0
 74
     0
 49
0.0
 74
     0
 49
-3.0
 74
     0
 49
0.0
 74
     0
 49
-3.0
 74
     0
 49
0.0
 74
     0
 49
-3.0
 74
     0
  0
LTYPE
  5
95
330
5
100
AcDbSymbolTableRecord
100
AcDbLinetypeTableRecord
  2
JIS_02_0_7
 70
     0
  3
HIDDEN0.75 _ _ _ _ _ _ _ _ _ _ _ _ _ _ _ _ _ 
 72
    65
 73
     2
 40
1.35
 49
0.75
 74
     0
 49
-0.6
 74
     0
  0
LTYPE
  5
96
330
5
100
AcDbSymbolTableRecord
100
AcDbLinetypeTableRecord
  2
JIS_02_1_0
 70
     0
  3
HIDDEN01 _ _ _ _ _ _ _ _ _ _ _ _ _ _ _ _ _ 
 72
    65
 73
     2
 40
2.0
 49
1.0
 74
     0
 49
-1.0
 74
     0
  0
LTYPE
  5
97
330
5
100
AcDbSymbolTableRecord
100
AcDbLinetypeTableRecord
  2
JIS_02_1_2
 70
     0
  3
HIDDEN01.25  _ _ _ _ _ _ _ _ _ _ _ _ _ _ _ _ _ 
 72
    65
 73
     2
 40
2.5
 49
1.25
 74
     0
 49
-1.25
 74
     0
  0
LTYPE
  5
98
330
5
100
AcDbSymbolTableRecord
100
AcDbLinetypeTableRecord
  2
JIS_02_2_0
 70
     0
  3
HIDDEN02 __ __ __ __ __ __ __ __ __ __ __ 
 72
    65
 73
     2
 40
3.0
 49
2.0
 74
     0
 49
-1.0
 74
     0
  0
LTYPE
  5
99
330
5
100
AcDbSymbolTableRecord
100
AcDbLinetypeTableRecord
  2
JIS_02_4_0
 70
     0
  3
HIDDEN04 ____ ____ ____ ____ ____ ____ ____ 
 72
    65
 73
     2
 40
5.5
 49
4.0
 74
     0
 49
-1.5
 74
     0
  0
LTYPE
  5
9A
330
5
100
AcDbSymbolTableRecord
100
AcDbLinetypeTableRecord
  2
JIS_08_11
 70
     0
  3
1SASEN11 ___ _ ___ _ ___ _ ___ _ ___ _ ___
 72
    65
 73
     4
 40
12.8
 49
11.0
 74
     0
 49
-0.6
 74
     0
 49
0.6
 74
     0
 49
-0.6
 74
     0
  0
LTYPE
  5
9B
330
5
100
AcDbSymbolTableRecord
100
AcDbLinetypeTableRecord
  2
JIS_08_15
 70
     0
  3
1SASEN15 ____ _ ____ _ ____ _ ____ _ ____ 
 72
    65
 73
     4
 40
17.25
 49
15.0
 74
     0
 49
-0.75
 74
     0
 49
0.75
 74
     0
 49
-0.75
 74
     0
  0
LTYPE
  5
9C
330
5
100
AcDbSymbolTableRecord
100
AcDbLinetypeTableRecord
  2
JIS_08_25
 70
     0
  3
1SASEN25 ________  __  ________  __  _____
 72
    65
 73
     4
 40
28.0
 49
25.0
 74
     0
 49
-1.125
 74
     0
 49
0.75
 74
     0
 49
-1.125
 74
     0
  0
LTYPE
  5
9D
330
5
100
AcDbSymbolTableRecord
100
AcDbLinetypeTableRecord
  2
JIS_08_37
 70
     0
  3
1SASEN37 ________  __  ________  __  _____
 72
    65
 73
     4
 40
40.5
 49
37.5
 74
     0
 49
-1.125
 74
     0
 49
0.75
 74
     0
 49
-1.125
 74
     0
  0
LTYPE
  5
9E
330
5
100
AcDbSymbolTableRecord
100
AcDbLinetypeTableRecord
  2
JIS_08_50
 70
     0
  3
1SASEN50 _______________  __  ____________
 72
    65
 73
     4
 40
53.0
 49
50.0
 74
     0
 49
-1.125
 74
     0
 49
0.75
 74
     0
 49
-1.125
 74
     0
  0
LTYPE
  5
9F
330
5
100
AcDbSymbolTableRecord
100
AcDbLinetypeTableRecord
  2
JIS_09_08
 70
     0
  3
2SASEN8 __ _ _ __ _ _ __ _ _ __ _ _ __ _ _ 
 72
    65
 73
     6
 40
10.75
 49
8.0
 74
     0
 49
-0.55
 74
     0
 49
0.55
 74
     0
 49
-0.55
 74
     0
 49
0.55
 74
     0
 49
-0.55
 74
     0
  0
LTYPE
  5
A0
330
5
100
AcDbSymbolTableRecord
100
AcDbLinetypeTableRecord
  2
JIS_09_15
 70
     0
  3
2SASEN15 ___ _ _ ___ _ _ ___ _ _ ___ _ _ ___ 
 72
    65
 73
     6
 40
18.9
 49
15.0
 74
     0
 49
-0.9
 74
     0
 49
0.6
 74
     0
 49
-0.9
 74
     0
 49
0.6
 74
     0
 49
-0.9
 74
     0
  0
LTYPE
  5
A1
330
5
100
AcDbSymbolTableRecord
100
AcDbLinetypeTableRecord
  2
JIS_09_29
 70
     0
  3
2SASEN29 ______　__  __  ______　__  __  ___
 72
    65
 73
     6
 40
34.0
 49
29.0
 74
     0
 49
-1.2
 74
     0
 49
0.7
 74
     0
 49
-1.2
 74
     0
 49
0.7
 74
     0
 49
-1.2
 74
     0
  0
LTYPE
  5
A2
330
5
100
AcDbSymbolTableRecord
100
AcDbLinetypeTableRecord
  2
JIS_09_50
 70
     0
  3
2SASEN50 ____________　__  __  _____________
 72
    65
 73
     6
 40
55.0
 49
50.0
 74
     0
 49
-1.2
 74
     0
 49
0.7
 74
     0
 49
-1.2
 74
     0
 49
0.7
 74
     0
 49
-1.2
 74
     0
  0
LTYPE
  5
A3
330
5
100
AcDbSymbolTableRecord
100
AcDbLinetypeTableRecord
  2
SXF_破線
 70
     0
  3
02 dashed -- -- -- -- -- --
 72
    65
 73
     2
 40
7.5
 49
6.0
 74
     0
 49
-1.5
 74
     0
  0
LTYPE
  5
A4
330
5
100
AcDbSymbolTableRecord
100
AcDbLinetypeTableRecord
  2
SXF_跳び破線
 70
     0
  3
03 dashed_spaced --  --  --  --
 72
    65
 73
     2
 40
12.0
 49
6.0
 74
     0
 49
-6.0
 74
     0
  0
LTYPE
  5
A5
330
5
100
AcDbSymbolTableRecord
100
AcDbLinetypeTableRecord
  2
SXF_一点長鎖線
 70
     0
  3
04 long_dashed_dotted ---- . ---- . ----
 72
    65
 73
     4
 40
15.25
 49
12.0
 74
     0
 49
-1.5
 74
     0
 49
0.25
 74
     0
 49
-1.5
 74
     0
  0
LTYPE
  5
A6
330
5
100
AcDbSymbolTableRecord
100
AcDbLinetypeTableRecord
  2
SXF_二点長鎖線
 70
     0
  3
05 long_dashed_double-dotted ---- . . ---- 
 72
    65
 73
     6
 40
17.0
 49
12.0
 74
     0
 49
-1.5
 74
     0
 49
0.25
 74
     0
 49
-1.5
 74
     0
 49
0.25
 74
     0
 49
-1.5
 74
     0
  0
LTYPE
  5
A7
330
5
100
AcDbSymbolTableRecord
100
AcDbLinetypeTableRecord
  2
SXF_三点長鎖線
 70
     0
  3
06 long_dashed_triplicate-dotted ---- ... ---- 
 72
    65
 73
     8
 40
18.75
 49
12.0
 74
     0
 49
-1.5
 74
     0
 49
0.25
 74
     0
 49
-1.5
 74
     0
 49
0.25
 74
     0
 49
-1.5
 74
     0
 49
0.25
 74
     0
 49
-1.5
 74
     0
  0
LTYPE
  5
A8
330
5
100
AcDbSymbolTableRecord
100
AcDbLinetypeTableRecord
  2
SXF_点線
 70
     0
  3
07 dotted . . . . . . . . . . . . 
 72
    65
 73
     2
 40
1.75
 49
0.25
 74
     0
 49
-1.5
 74
     0
  0
LTYPE
  5
A9
330
5
100
AcDbSymbolTableRecord
100
AcDbLinetypeTableRecord
  2
SXF_一点鎖線
 70
     0
  3
08 chain ---- - --- - --- - ---
 72
    65
 73
     4
 40
18.5
 49
12.0
 74
     0
 49
-1.5
 74
     0
 49
3.5
 74
     0
 49
-1.5
 74
     0
  0
LTYPE
  5
AA
330
5
100
AcDbSymbolTableRecord
100
AcDbLinetypeTableRecord
  2
SXF_二点鎖線
 70
     0
  3
09 chain_double_dash ---- - - ---- - - ----
 72
    65
 73
     6
 40
23.5
 49
12.0
 74
     0
 49
-1.5
 74
     0
 49
3.5
 74
     0
 49
-1.5
 74
     0
 49
3.5
 74
     0
 49
-1.5
 74
     0
  0
LTYPE
  5
AB
330
5
100
AcDbSymbolTableRecord
100
AcDbLinetypeTableRecord
  2
SXF_一点短鎖線
 70
     0
  3
10 dashed_dotted -- . -- . -- . --
 72
    65
 73
     4
 40
9.25
 49
6.0
 74
     0
 49
-1.5
 74
     0
 49
0.25
 74
     0
 49
-1.5
 74
     0
  0
LTYPE
  5
AC
330
5
100
AcDbSymbolTableRecord
100
AcDbLinetypeTableRecord
  2
SXF_一点二短鎖線
 70
     0
  3
11 double-dashed_dotted -- -- . -- --
 72
    65
 73
     6
 40
16.75
 49
6.0
 74
     0
 49
-1.5
 74
     0
 49
6.0
 74
     0
 49
-1.5
 74
     0
 49
0.25
 74
     0
 49
-1.5
 74
     0
  0
LTYPE
  5
AD
330
5
100
AcDbSymbolTableRecord
100
AcDbLinetypeTableRecord
  2
SXF_二点短鎖線
 70
     0
  3
12 dashed_double_dotted -- . . -- . . --
 72
    65
 73
     6
 40
11.0
 49
6.0
 74
     0
 49
-1.5
 74
     0
 49
0.25
 74
     0
 49
-1.5
 74
     0
 49
0.25
 74
     0
 49
-1.5
 74
     0
  0
LTYPE
  5
AE
330
5
100
AcDbSymbolTableRecord
100
AcDbLinetypeTableRecord
  2
SXF_二点二短鎖線
 70
     0
  3
13 double-dashed_double-dotted -- -- . . -- --
 72
    65
 73
     8
 40
18.5
 49
6.0
 74
     0
 49
-1.5
 74
     0
 49
6.0
 74
     0
 49
-1.5
 74
     0
 49
0.25
 74
     0
 49
-1.5
 74
     0
 49
0.25
 74
     0
 49
-1.5
 74
     0
  0
LTYPE
  5
AF
330
5
100
AcDbSymbolTableRecord
100
AcDbLinetypeTableRecord
  2
SXF_三点短鎖線
 70
     0
  3
14 dashed triplicate-dotted -- . . . -- . . . --
 72
    65
 73
     8
 40
12.75
 49
6.0
 74
     0
 49
-1.5
 74
     0
 49
0.25
 74
     0
 49
-1.5
 74
     0
 49
0.25
 74
     0
 49
-1.5
 74
     0
 49
0.25
 74
     0
 49
-1.5
 74
     0
  0
LTYPE
  5
B0
330
5
100
AcDbSymbolTableRecord
100
AcDbLinetypeTableRecord
  2
SXF_三点二短鎖線
 70
     0
  3
15 double-dashed triplicate-dotted -- -- . . . -- -- 
 72
    65
 73
    10
 40
20.25
 49
6.0
 74
     0
 49
-1.5
 74
     0
 49
6.0
 74
     0
 49
-1.5
 74
     0
 49
0.25
 74
     0
 49
-1.5
 74
     0
 49
0.25
 74
     0
 49
-1.5
 74
     0
 49
0.25
 74
     0
 49
-1.5
 74
     0
  0
ENDTAB
  0
TABLE
  2
LAYER
  5
2
330
0
100
AcDbSymbolTable
 70
     6
  0
LAYER
  5
10
330
2
100
AcDbSymbolTableRecord
100
AcDbLayerTableRecord
  2
0
 70
     0
 62
     7
  6
CONTINUOUS
  0
LAYER
  5
B1
330
2
100
AcDbSymbolTableRecord
100
AcDbLayerTableRecord
  2
LAYER0002
 70
     0
 62
     7
  6
CONTINUOUS
  0
LAYER
  5
B2
330
2
100
AcDbSymbolTableRecord
100
AcDbLayerTableRecord
  2
LAYER0003
 70
     0
 62
     7
  6
CONTINUOUS
  0
LAYER
  5
B3
330
2
100
AcDbSymbolTableRecord
100
AcDbLayerTableRecord
  2
LAYER0004
 70
     0
 62
     7
  6
CONTINUOUS
  0
LAYER
  5
B4
330
2
100
AcDbSymbolTableRecord
100
AcDbLayerTableRecord
  2
LAYER0017
 70
     0
 62
     7
  6
CONTINUOUS
  0
LAYER
  5
B5
330
2
100
AcDbSymbolTableRecord
100
AcDbLayerTableRecord
  2
LAYER0018
 70
     0
 62
     7
  6
CONTINUOUS
  0
ENDTAB
  0
TABLE
  2
STYLE
  5
3
330
0
100
AcDbSymbolTable
 70
     2
  0
STYLE
  5
11
330
3
100
AcDbSymbolTableRecord
100
AcDbTextStyleTableRecord
  2
STANDARD
 70
     0
 40
0.0
 41
1.0
 50
0.0
 71
     0
 42
0.2
  3
txt.shx
  4
bigfont.shx
  0
STYLE
  5
4C0
330
3
100
AcDbSymbolTableRecord
100
AcDbTextStyleTableRecord
  2
DCSTYLE0
 70
     0
 40
0.0
 41
1.0
 50
0.0
 71
     0
 42
0.2
  3
ＭＳ ゴシック
  4

1001
ACAD
1000
ＭＳ ゴシック
1071
    32802
  0
ENDTAB
  0
TABLE
  2
VIEW
  5
6
330
0
100
AcDbSymbolTable
 70
     0
  0
ENDTAB
  0
TABLE
  2
UCS
  5
7
330
0
100
AcDbSymbolTable
 70
     0
  0
ENDTAB
  0
TABLE
  2
APPID
  5
9
330
0
100
AcDbSymbolTable
 70
     3
  0
APPID
  5
12
330
9
100
AcDbSymbolTableRecord
100
AcDbRegAppTableRecord
  2
ACAD
 70
     0
  0
APPID
  5
6E
330
9
100
AcDbSymbolTableRecord
100
AcDbRegAppTableRecord
  2
DAFUSIONOUT
 70
     0
  0
APPID
  5
4F4
330
9
100
AcDbSymbolTableRecord
100
AcDbRegAppTableRecord
  2
ACAD_MLEADERVER
 70
     0
  0
ENDTAB
  0
TABLE
  2
DIMSTYLE
  5
A
330
0
100
AcDbSymbolTable
 70
     1
  0
DIMSTYLE
105
27
330
A
100
AcDbSymbolTableRecord
100
AcDbDimStyleTableRecord
  2
STANDARD
 70
     0
  3

  4

  5

  6

  7

 40
1.0
 41
0.18
 42
0.0625
 43
0.38
 44
0.18
 45
0.0
 46
0.0
 47
0.0
 48
0.0
140
0.18
141
0.09
142
0.0
143
25.4
144
1.0
145
0.0
146
1.0
147
0.09
 71
     0
 72
     0
 73
     1
 74
     1
 75
     0
 76
     0
 77
     0
 78
     0
170
     0
171
     2
172
     0
173
     0
174
     0
175
     0
176
     0
177
     0
178
     0
270
     2
271
     4
272
     4
273
     2
274
     2
340
11
275
     0
280
     0
281
     0
282
     0
283
     1
284
     0
285
     0
286
     0
287
     3
288
     0
  0
ENDTAB
  0
TABLE
  2
BLOCK_RECORD
  5
1
330
0
100
AcDbSymbolTable
 70
    10
  0
BLOCK_RECORD
  5
1F
330
1
100
AcDbSymbolTableRecord
100
AcDbBlockTableRecord
  2
*MODEL_SPACE
  0
BLOCK_RECORD
  5
1B
330
1
100
AcDbSymbolTableRecord
100
AcDbBlockTableRecord
  2
*PAPER_SPACE
  0
BLOCK_RECORD
  5
B7
330
1
100
AcDbSymbolTableRecord
100
AcDbBlockTableRecord
  2
DC_GROUP_1
  0
BLOCK_RECORD
  5
BA
330
1
100
AcDbSymbolTableRecord
100
AcDbBlockTableRecord
  2
DC_GROUP_2
  0
BLOCK_RECORD
  5
BD
330
1
100
AcDbSymbolTableRecord
100
AcDbBlockTableRecord
  2
DC_GROUP_3
  0
BLOCK_RECORD
  5
C0
330
1
100
AcDbSymbolTableRecord
100
AcDbBlockTableRecord
  2
DC_GROUP_4
  0
BLOCK_RECORD
  5
C3
330
1
100
AcDbSymbolTableRecord
100
AcDbBlockTableRecord
  2
DC_GROUP_5
  0
BLOCK_RECORD
  5
C6
330
1
100
AcDbSymbolTableRecord
100
AcDbBlockTableRecord
  2
DC_GROUP_6
  0
BLOCK_RECORD
  5
C9
330
1
100
AcDbSymbolTableRecord
100
AcDbBlockTableRecord
  2
DC_GROUP_7
  0
BLOCK_RECORD
  5
CC
330
1
100
AcDbSymbolTableRecord
100
AcDbBlockTableRecord
  2
DC_GROUP_8
  0
BLOCK_RECORD
  5
CF
330
1
100
AcDbSymbolTableRecord
100
AcDbBlockTableRecord
  2
DC_GROUP_9
  0
BLOCK_RECORD
  5
D2
330
1
100
AcDbSymbolTableRecord
100
AcDbBlockTableRecord
  2
DC_GROUP_10
  0
ENDTAB
  0
ENDSEC
  0
SECTION
  2
BLOCKS
  0
BLOCK
  5
20
330
1F
100
AcDbEntity
  8
0
100
AcDbBlockBegin
  2
*MODEL_SPACE
 70
     0
 10
0.0
 20
0.0
 30
0.0
  3
*MODEL_SPACE
  1

  0
ENDBLK
  5
21
330
1F
100
AcDbEntity
  8
0
100
AcDbBlockEnd
  0
BLOCK
  5
1C
330
1B
100
AcDbEntity
 67
     1
  8
0
100
AcDbBlockBegin
  2
*PAPER_SPACE
 70
     0
 10
0.0
 20
0.0
 30
0.0
  3
*PAPER_SPACE
  1

  0
ENDBLK
  5
1D
330
1B
100
AcDbEntity
 67
     1
  8
0
100
AcDbBlockEnd
  0
BLOCK
  5
B8
330
B7
100
AcDbEntity
  8
0
100
AcDbBlockBegin
  2
DC_GROUP_1
 70
     0
 10
0.0
 20
0.0
 30
0.0
  3
DC_GROUP_1
  1

  0
CIRCLE
  5
D5
330
B7
100
AcDbEntity
  8
0
  6
CONTINUOUS
 62
   150
100
AcDbCircle
 10
-217.1307194509995
 20
80.42411887915867
 30
0.0
 40
10.4775
  0
ENDBLK
  5
B9
330
B7
100
AcDbEntity
  8
0
100
AcDbBlockEnd
  0
BLOCK
  5
BB
330
BA
100
AcDbEntity
  8
0
100
AcDbBlockBegin
  2
DC_GROUP_2
 70
     0
 10
0.0
 20
0.0
 30
0.0
  3
DC_GROUP_2
  1

  0
CIRCLE
  5
D6
330
BA
100
AcDbEntity
  8
0
  6
CONTINUOUS
 62
   150
100
AcDbCircle
 10
-217.1307194509995
 20
35.42411887915867
 30
0.0
 40
10.4775
  0
ENDBLK
  5
BC
330
BA
100
AcDbEntity
  8
0
100
AcDbBlockEnd
  0
BLOCK
  5
BE
330
BD
100
AcDbEntity
  8
0
100
AcDbBlockBegin
  2
DC_GROUP_3
 70
     0
 10
0.0
 20
0.0
 30
0.0
  3
DC_GROUP_3
  1

  0
LINE
  5
D7
330
BD
100
AcDbEntity
  8
LAYER0003
  6
CONTINUOUS
 62
     7
100
AcDbLine
 10
270.1026252751745
 20
461.0110395239253
 30
0.0
 11
269.5269761730029
 21
459.7980168270328
 31
0.0
  0
LINE
  5
D8
330
BD
100
AcDbEntity
  8
LAYER0003
  6
CONTINUOUS
 62
     7
100
AcDbLine
 10
269.5269761730029
 20
459.7980168270328
 30
0.0
 11
268.5821605591996
 21
458.843679160123
 31
0.0
  0
LINE
  5
D9
330
BD
100
AcDbEntity
  8
LAYER0003
  6
CONTINUOUS
 62
     7
100
AcDbLine
 10
268.5821605591996
 20
458.843679160123
 30
0.0
 11
267.3747230404691
 21
458.2558229628176
 31
0.0
  0
LINE
  5
DA
330
BD
100
AcDbEntity
  8
LAYER0003
  6
CONTINUOUS
 62
     7
100
AcDbLine
 10
267.3747230404691
 20
458.2558229628176
 30
0.0
 11
266.0406692132659
 21
458.1007287928106
 31
0.0
  0
LINE
  5
DB
330
BD
100
AcDbEntity
  8
LAYER0003
  6
CONTINUOUS
 62
     7
100
AcDbLine
 10
266.0406692132659
 20
458.1007287928106
 30
0.0
 11
264.7303581010292
 21
458.3959902615069
 31
0.0
  0
LINE
  5
DC
330
BD
100
AcDbEntity
  8
LAYER0003
  6
CONTINUOUS
 62
     7
100
AcDbLine
 10
264.7303581010292
 20
458.3959902615069
 30
0.0
 11
264.2523318756932
 21
458.6310231166521
 31
0.0
  0
ENDBLK
  5
BF
330
BD
100
AcDbEntity
  8
0
100
AcDbBlockEnd
  0
BLOCK
  5
C1
330
C0
100
AcDbEntity
  8
0
100
AcDbBlockBegin
  2
DC_GROUP_4
 70
     0
 10
0.0
 20
0.0
 30
0.0
  3
DC_GROUP_4
  1

  0
LINE
  5
DD
330
C0
100
AcDbEntity
  8
LAYER0003
  6
CONTINUOUS
 62
     7
100
AcDbLine
 10
209.9844773351593
 20
552.6257043986138
 30
0.0
 11
210.2099420085158
 21
553.9496693029523
 31
0.0
  0
LINE
  5
DE
330
C0
100
AcDbEntity
  8
LAYER0003
  6
CONTINUOUS
 62
     7
100
AcDbLine
 10
210.2099420085158
 20
553.9496693029523
 30
0.0
 11
210.861074218058
 21
555.1245747370031
 31
0.0
  0
LINE
  5
DF
330
C0
100
AcDbEntity
  8
LAYER0003
  6
CONTINUOUS
 62
     7
100
AcDbLine
 10
210.861074218058
 20
555.1245747370031
 30
0.0
 11
211.864452897628
 21
556.0176796910166
 31
0.0
  0
LINE
  5
E0
330
C0
100
AcDbEntity
  8
LAYER0003
  6
CONTINUOUS
 62
     7
100
AcDbLine
 10
211.864452897628
 20
556.0176796910166
 30
0.0
 11
213.1068410709121
 21
556.528236216252
 31
0.0
  0
LINE
  5
E1
330
C0
100
AcDbEntity
  8
LAYER0003
  6
CONTINUOUS
 62
     7
100
AcDbLine
 10
213.1068410709121
 20
556.528236216252
 30
0.0
 11
214.4480719911547
 21
556.5987485708995
 31
0.0
  0
LINE
  5
E2
330
C0
100
AcDbEntity
  8
LAYER0003
  6
CONTINUOUS
 62
     7
100
AcDbLine
 10
214.4480719911547
 20
556.5987485708995
 30
0.0
 11
214.9707787050224
 21
556.5021988985204
 31
0.0
  0
ENDBLK
  5
C2
330
C0
100
AcDbEntity
  8
0
100
AcDbBlockEnd
  0
BLOCK
  5
C4
330
C3
100
AcDbEntity
  8
0
100
AcDbBlockBegin
  2
DC_GROUP_5
 70
     0
 10
0.0
 20
0.0
 30
0.0
  3
DC_GROUP_5
  1

  0
LINE
  5
E3
330
C3
100
AcDbEntity
  8
LAYER0003
  6
CONTINUOUS
 62
     7
100
AcDbLine
 10
127.7166227946258
 20
458.631023116652
 30
0.0
 11
126.4572728163571
 21
458.1642930710202
 31
0.0
  0
LINE
  5
E4
330
C3
100
AcDbEntity
  8
LAYER0003
  6
CONTINUOUS
 62
     7
100
AcDbLine
 10
126.4572728163571
 20
458.1642930710202
 30
0.0
 11
125.1142085761336
 21
458.1407477758891
 31
0.0
  0
LINE
  5
E5
330
C3
100
AcDbEntity
  8
LAYER0003
  6
CONTINUOUS
 62
     7
100
AcDbLine
 10
125.1142085761336
 20
458.1407477758891
 30
0.0
 11
123.8390709256676
 21
458.5631565864957
 31
0.0
  0
LINE
  5
E6
330
C3
100
AcDbEntity
  8
LAYER0003
  6
CONTINUOUS
 62
     7
100
AcDbLine
 10
123.8390709256676
 20
458.5631565864957
 30
0.0
 11
122.7757282666309
 21
459.3838262651488
 31
0.0
  0
LINE
  5
E7
330
C3
100
AcDbEntity
  8
LAYER0003
  6
CONTINUOUS
 62
     7
100
AcDbLine
 10
122.7757282666309
 20
459.3838262651488
 30
0.0
 11
122.0440560270068
 21
460.5101157925782
 31
0.0
  0
LINE
  5
E8
330
C3
100
AcDbEntity
  8
LAYER0003
  6
CONTINUOUS
 62
     7
100
AcDbLine
 10
122.0440560270068
 20
460.5101157925782
 30
0.0
 11
121.8663293951445
 21
461.0110395239251
 31
0.0
  0
ENDBLK
  5
C5
330
C3
100
AcDbEntity
  8
0
100
AcDbBlockEnd
  0
BLOCK
  5
C7
330
C6
100
AcDbEntity
  8
0
100
AcDbBlockBegin
  2
DC_GROUP_6
 70
     0
 10
0.0
 20
0.0
 30
0.0
  3
DC_GROUP_6
  1

  0
LINE
  5
E9
330
C6
100
AcDbEntity
  8
LAYER0003
  6
CONTINUOUS
 62
     7
100
AcDbLine
 10
176.9981759652965
 20
556.5021988985204
 30
0.0
 11
178.3365802776328
 21
556.6101772016207
 31
0.0
  0
LINE
  5
EA
330
C6
100
AcDbEntity
  8
LAYER0003
  6
CONTINUOUS
 62
     7
100
AcDbLine
 10
178.3365802776328
 20
556.6101772016207
 30
0.0
 11
179.635462646533
 21
556.2690884713722
 31
0.0
  0
LINE
  5
EB
330
C6
100
AcDbEntity
  8
LAYER0003
  6
CONTINUOUS
 62
     7
100
AcDbLine
 10
179.635462646533
 20
556.2690884713722
 30
0.0
 11
180.7482663587973
 21
555.5173250917235
 31
0.0
  0
LINE
  5
EC
330
C6
100
AcDbEntity
  8
LAYER0003
  6
CONTINUOUS
 62
     7
100
AcDbLine
 10
180.7482663587973
 20
555.5173250917235
 30
0.0
 11
181.549589481383
 21
554.4395333279369
 31
0.0
  0
LINE
  5
ED
330
C6
100
AcDbEntity
  8
LAYER0003
  6
CONTINUOUS
 62
     7
100
AcDbLine
 10
181.549589481383
 20
554.4395333279369
 30
0.0
 11
181.9490181572026
 21
553.1571327290153
 31
0.0
  0
LINE
  5
EE
330
C6
100
AcDbEntity
  8
LAYER0003
  6
CONTINUOUS
 62
     7
100
AcDbLine
 10
181.9490181572026
 20
553.1571327290153
 30
0.0
 11
181.9844773351595
 21
552.6257043986138
 31
0.0
  0
ENDBLK
  5
C8
330
C6
100
AcDbEntity
  8
0
100
AcDbBlockEnd
  0
BLOCK
  5
CA
330
C9
100
AcDbEntity
  8
0
100
AcDbBlockBegin
  2
DC_GROUP_7
 70
     0
 10
0.0
 20
0.0
 30
0.0
  3
DC_GROUP_7
  1

  0
LINE
  5
EF
330
C9
100
AcDbEntity
  8
LAYER0003
  6
CONTINUOUS
 62
     7
100
AcDbLine
 10
250.2523318756932
 20
434.3823118106879
 30
0.0
 11
251.2861867748753
 21
433.5250712295734
 31
0.0
  0
LINE
  5
F0
330
C9
100
AcDbEntity
  8
LAYER0003
  6
CONTINUOUS
 62
     7
100
AcDbLine
 10
251.2861867748753
 20
433.5250712295734
 30
0.0
 11
251.9781186252519
 21
432.3737214791935
 31
0.0
  0
LINE
  5
F1
330
C9
100
AcDbEntity
  8
LAYER0003
  6
CONTINUOUS
 62
     7
100
AcDbLine
 10
251.9781186252519
 20
432.3737214791935
 30
0.0
 11
252.2498808664194
 21
431.0582175765862
 31
0.0
  0
LINE
  5
F2
330
C9
100
AcDbEntity
  8
LAYER0003
  6
CONTINUOUS
 62
     7
100
AcDbLine
 10
252.2498808664194
 20
431.0582175765862
 30
0.0
 11
252.0708417032604
 21
429.7269995941979
 31
0.0
  0
LINE
  5
F3
330
C9
100
AcDbEntity
  8
LAYER0003
  6
CONTINUOUS
 62
     7
100
AcDbLine
 10
252.0708417032604
 20
429.7269995941979
 30
0.0
 11
251.4612917358464
 21
428.5302033664296
 31
0.0
  0
LINE
  5
F4
330
C9
100
AcDbEntity
  8
LAYER0003
  6
CONTINUOUS
 62
     7
100
AcDbLine
 10
251.4612917358464
 20
428.5302033664296
 30
0.0
 11
251.1163239053116
 21
428.125800903508
 31
0.0
  0
ENDBLK
  5
CB
330
C9
100
AcDbEntity
  8
0
100
AcDbBlockEnd
  0
BLOCK
  5
CD
330
CC
100
AcDbEntity
  8
0
100
AcDbBlockBegin
  2
DC_GROUP_8
 70
     0
 10
0.0
 20
0.0
 30
0.0
  3
DC_GROUP_8
  1

  0
LINE
  5
F5
330
CC
100
AcDbEntity
  8
LAYER0003
  6
CONTINUOUS
 62
     7
100
AcDbLine
 10
140.8526307650075
 20
428.1258009035079
 30
0.0
 11
140.0899160640902
 21
429.2309051577195
 31
0.0
  0
LINE
  5
F6
330
CC
100
AcDbEntity
  8
LAYER0003
  6
CONTINUOUS
 62
     7
100
AcDbLine
 10
140.0899160640902
 20
429.2309051577195
 30
0.0
 11
139.7358668388696
 21
430.5263147749189
 31
0.0
  0
LINE
  5
F7
330
CC
100
AcDbEntity
  8
LAYER0003
  6
CONTINUOUS
 62
     7
100
AcDbLine
 10
139.7358668388696
 20
430.5263147749189
 30
0.0
 11
139.8305116365508
 21
431.8659127159039
 31
0.0
  0
LINE
  5
F8
330
CC
100
AcDbEntity
  8
LAYER0003
  6
CONTINUOUS
 62
     7
100
AcDbLine
 10
139.8305116365508
 20
431.8659127159039
 30
0.0
 11
140.3632455547657
 21
433.0987745920283
 31
0.0
  0
LINE
  5
F9
330
CC
100
AcDbEntity
  8
LAYER0003
  6
CONTINUOUS
 62
     7
100
AcDbLine
 10
140.3632455547657
 20
433.0987745920283
 30
0.0
 11
141.274123059381
 21
434.0858899526166
 31
0.0
  0
LINE
  5
FA
330
CC
100
AcDbEntity
  8
LAYER0003
  6
CONTINUOUS
 62
     7
100
AcDbLine
 10
141.274123059381
 20
434.0858899526166
 30
0.0
 11
141.7166227946258
 21
434.3823118106877
 31
0.0
  0
ENDBLK
  5
CE
330
CC
100
AcDbEntity
  8
0
100
AcDbBlockEnd
  0
BLOCK
  5
D0
330
CF
100
AcDbEntity
  8
0
100
AcDbBlockBegin
  2
DC_GROUP_9
 70
     0
 10
0.0
 20
0.0
 30
0.0
  3
DC_GROUP_9
  1

  0
LINE
  5
FB
330
CF
100
AcDbEntity
  8
LAYER0003
  6
CONTINUOUS
 62
     7
100
AcDbLine
 10
433.0739073950031
 20
-115.9445213722345
 30
0.0
 11
432.4982582928315
 21
-117.1575440691269
 31
0.0
  0
LINE
  5
FC
330
CF
100
AcDbEntity
  8
LAYER0003
  6
CONTINUOUS
 62
     7
100
AcDbLine
 10
432.4982582928315
 20
-117.1575440691269
 30
0.0
 11
431.5534426790282
 21
-118.1118817360366
 31
0.0
  0
LINE
  5
FD
330
CF
100
AcDbEntity
  8
LAYER0003
  6
CONTINUOUS
 62
     7
100
AcDbLine
 10
431.5534426790282
 20
-118.1118817360366
 30
0.0
 11
430.3460051602978
 21
-118.699737933342
 31
0.0
  0
LINE
  5
FE
330
CF
100
AcDbEntity
  8
LAYER0003
  6
CONTINUOUS
 62
     7
100
AcDbLine
 10
430.3460051602978
 20
-118.699737933342
 30
0.0
 11
429.0119513330945
 21
-118.8548321033491
 31
0.0
  0
LINE
  5
FF
330
CF
100
AcDbEntity
  8
LAYER0003
  6
CONTINUOUS
 62
     7
100
AcDbLine
 10
429.0119513330945
 20
-118.8548321033491
 30
0.0
 11
427.7016402208578
 21
-118.5595706346527
 31
0.0
  0
LINE
  5
100
330
CF
100
AcDbEntity
  8
LAYER0003
  6
CONTINUOUS
 62
     7
100
AcDbLine
 10
427.7016402208578
 20
-118.5595706346527
 30
0.0
 11
427.2236139955218
 21
-118.3245377795076
 31
0.0
  0
ENDBLK
  5
D1
330
CF
100
AcDbEntity
  8
0
100
AcDbBlockEnd
  0
BLOCK
  5
D3
330
D2
100
AcDbEntity
  8
0
100
AcDbBlockBegin
  2
DC_GROUP_10
 70
     0
 10
0.0
 20
0.0
 30
0.0
  3
DC_GROUP_10
  1

  0
LINE
  5
101
330
D2
100
AcDbEntity
  8
LAYER0003
  6
CONTINUOUS
 62
     7
100
AcDbLine
 10
413.2236139955219
 20
-142.5732490854718
 30
0.0
 11
414.2574688947038
 21
-143.4304896665863
 31
0.0
  0
LINE
  5
102
330
D2
100
AcDbEntity
  8
LAYER0003
  6
CONTINUOUS
 62
     7
100
AcDbLine
 10
414.2574688947038
 20
-143.4304896665863
 30
0.0
 11
414.9494007450805
 21
-144.5818394169662
 31
0.0
  0
LINE
  5
103
330
D2
100
AcDbEntity
  8
LAYER0003
  6
CONTINUOUS
 62
     7
100
AcDbLine
 10
414.9494007450805
 20
-144.5818394169662
 30
0.0
 11
415.2211629862479
 21
-145.8973433195735
 31
0.0
  0
LINE
  5
104
330
D2
100
AcDbEntity
  8
LAYER0003
  6
CONTINUOUS
 62
     7
100
AcDbLine
 10
415.2211629862479
 20
-145.8973433195735
 30
0.0
 11
415.0421238230889
 21
-147.2285613019617
 31
0.0
  0
LINE
  5
105
330
D2
100
AcDbEntity
  8
LAYER0003
  6
CONTINUOUS
 62
     7
100
AcDbLine
 10
415.0421238230889
 20
-147.2285613019617
 30
0.0
 11
414.4325738556749
 21
-148.4253575297301
 31
0.0
  0
LINE
  5
106
330
D2
100
AcDbEntity
  8
LAYER0003
  6
CONTINUOUS
 62
     7
100
AcDbLine
 10
414.4325738556749
 20
-148.4253575297301
 30
0.0
 11
414.0876060251402
 21
-148.8297599926517
 31
0.0
  0
ENDBLK
  5
D4
330
D2
100
AcDbEntity
  8
0
100
AcDbBlockEnd
  0
ENDSEC
  0
SECTION
  2
ENTITIES
  0
LINE
  5
107
330
1F
100
AcDbEntity
  8
0
  6
CONTINUOUS
 62
     7
100
AcDbLine
 10
-287.9006942250253
 20
-203.0758811208414
 30
0.0
 11
-248.9006942250253
 21
-203.0758811208414
 31
0.0
  0
LINE
  5
108
330
1F
100
AcDbEntity
  8
0
  6
CONTINUOUS
 62
     7
100
AcDbLine
 10
-287.9006942250253
 20
-238.0758811208414
 30
0.0
 11
-248.9006942250253
 21
-238.0758811208414
 31
0.0
  0
LINE
  5
109
330
1F
100
AcDbEntity
  8
0
  6
CONTINUOUS
 62
     7
100
AcDbLine
 10
-248.4006942250253
 20
-201.0758811208414
 30
0.0
 11
-248.4006942250253
 21
-237.5758811208414
 31
0.0
  0
LINE
  5
10A
330
1F
100
AcDbEntity
  8
0
  6
CONTINUOUS
 62
     7
100
AcDbLine
 10
-288.4006942250253
 20
-201.0758811208414
 30
0.0
 11
-288.4006942250253
 21
-237.5758811208414
 31
0.0
  0
LINE
  5
10B
330
1F
100
AcDbEntity
  8
0
  6
CONTINUOUS
 62
     7
100
AcDbLine
 10
-270.196790849468
 20
-237.5758811208414
 30
0.0
 11
-270.196790849468
 21
-203.0758811208414
 31
0.0
  0
LINE
  5
10C
330
1F
100
AcDbEntity
  8
0
  6
CONTINUOUS
 62
     7
100
AcDbLine
 10
-287.9006942250253
 20
-238.0758811208414
 30
0.0
 11
-288.4006942250253
 21
-237.5758811208414
 31
0.0
  0
LINE
  5
10D
330
1F
100
AcDbEntity
  8
0
  6
CONTINUOUS
 62
     7
100
AcDbLine
 10
-248.9006942250253
 20
-238.0758811208414
 30
0.0
 11
-248.4006942250253
 21
-237.5758811208414
 31
0.0
  0
LINE
  5
10E
330
1F
100
AcDbEntity
  8
0
  6
CONTINUOUS
 62
     7
100
AcDbLine
 10
-287.9006942250253
 20
-203.0758811208414
 30
0.0
 11
-288.4006942250253
 21
-202.5758811208414
 31
0.0
  0
LINE
  5
10F
330
1F
100
AcDbEntity
  8
0
  6
CONTINUOUS
 62
     7
100
AcDbLine
 10
-248.9006942250253
 20
-203.0758811208414
 30
0.0
 11
-248.4006942250253
 21
-202.5758811208414
 31
0.0
  0
LINE
  5
110
330
1F
100
AcDbEntity
  8
0
  6
CONTINUOUS
 62
     7
100
AcDbLine
 10
-266.6045976005826
 20
-237.5758811208414
 30
0.0
 11
-266.6045976005826
 21
-203.0758811208414
 31
0.0
  0
LINE
  5
111
330
1F
100
AcDbEntity
  8
0
  6
CONTINUOUS
 62
     7
100
AcDbLine
 10
-270.196790849468
 20
-237.5758811208414
 30
0.0
 11
-270.696790849468
 21
-238.0758811208414
 31
0.0
  0
LINE
  5
112
330
1F
100
AcDbEntity
  8
0
  6
CONTINUOUS
 62
     7
100
AcDbLine
 10
-266.6045976005826
 20
-237.5758811208414
 30
0.0
 11
-266.1045976005826
 21
-238.0758811208414
 31
0.0
  0
ARC
  5
113
330
1F
100
AcDbEntity
  8
0
  6
CONTINUOUS
 62
     7
100
AcDbCircle
 10
1177.018659778043
 20
-475.3168675923279
 30
0.0
 40
1400.0
100
AcDbArc
 50
159.9820212971835
 51
167.1084640929512
  0
ARC
  5
114
330
1F
100
AcDbEntity
  8
0
  6
CONTINUOUS
 62
     7
100
AcDbCircle
 10
-191.5923457287699
 20
-162.0758811208414
 30
0.0
 40
4.0
100
AcDbArc
 50
270.0
 51
347.1084640929511
  0
ARC
  5
115
330
1F
100
AcDbEntity
  8
0
  6
CONTINUOUS
 62
     7
100
AcDbCircle
 10
-345.2090427212806
 20
-162.0758811208414
 30
0.0
 40
4.0
100
AcDbArc
 50
192.8915359070489
 51
270.0
  0
LINE
  5
116
330
1F
100
AcDbEntity
  8
0
  6
CONTINUOUS
 62
     7
100
AcDbLine
 10
-394.4006942250253
 20
-85.57588112084133
 30
0.0
 11
-394.4006942250253
 21
-104.5758811208413
 31
0.0
  0
LINE
  5
117
330
1F
100
AcDbEntity
  8
0
  6
CONTINUOUS
 62
     7
100
AcDbLine
 10
-396.4006942250253
 20
-87.07588112084133
 30
0.0
 11
-396.4006942250253
 21
-103.0758811208413
 31
0.0
  0
LINE
  5
118
330
1F
100
AcDbEntity
  8
0
  6
CONTINUOUS
 62
     7
100
AcDbLine
 10
-394.4006942250253
 20
-103.0758811208413
 30
0.0
 11
-396.4006942250253
 21
-103.0758811208413
 31
0.0
  0
LINE
  5
119
330
1F
100
AcDbEntity
  8
0
  6
CONTINUOUS
 62
     7
100
AcDbLine
 10
-394.4006942250253
 20
-87.07588112084133
 30
0.0
 11
-396.4006942250253
 21
-87.07588112084133
 31
0.0
  0
LINE
  5
11A
330
1F
100
AcDbEntity
  8
0
  6
CONTINUOUS
 62
     7
100
AcDbLine
 10
-202.5722671002859
 20
-196.0758811208414
 30
0.0
 11
-334.4006942250253
 21
-196.0758811208414
 31
0.0
  0
LINE
  5
11B
330
1F
100
AcDbEntity
  8
0
  6
CONTINUOUS
 62
     7
100
AcDbLine
 10
-342.4006942250253
 20
-166.0758811208414
 30
0.0
 11
-194.4006942250253
 21
-166.0758811208414
 31
0.0
  0
LINE
  5
11C
330
1F
100
AcDbEntity
  8
0
  6
CONTINUOUS
 62
     7
100
AcDbLine
 10
-382.4006942250253
 20
-57.07588112084133
 30
0.0
 11
-382.4006942250253
 21
-133.0758811208413
 31
0.0
  0
ARC
  5
11D
330
1F
100
AcDbEntity
  8
0
  6
CONTINUOUS
 62
     7
100
AcDbCircle
 10
-1713.820048228094
 20
-475.3168675923279
 30
0.0
 40
1400.0
100
AcDbArc
 50
12.89153590704885
 51
20.01797870281654
  0
LINE
  5
11E
330
1F
100
AcDbEntity
  8
0
  6
CONTINUOUS
 62
     7
100
AcDbLine
 10
-235.9006942250253
 20
135.9241188791587
 30
0.0
 11
-235.9006942250253
 21
137.4875489017671
 31
0.0
  0
LINE
  5
11F
330
1F
100
AcDbEntity
  8
0
  6
CONTINUOUS
 62
     7
100
AcDbLine
 10
-300.9006942250253
 20
135.9241188791587
 30
0.0
 11
-300.9006942250253
 21
137.4875489017671
 31
0.0
  0
ARC
  5
120
330
1F
100
AcDbEntity
  8
0
  6
CONTINUOUS
 62
     7
100
AcDbCircle
 10
-268.4006942250253
 20
-9.218738263710947
 30
0.0
 40
152.6428571428578
100
AcDbArc
 50
78.63046791182735
 51
101.3695320881726
  0
ARC
  5
121
330
1F
100
AcDbEntity
  8
0
  6
CONTINUOUS
 62
     7
100
AcDbCircle
 10
-297.9006942250253
 20
137.4875489017671
 30
0.0
 40
3.0
100
AcDbArc
 50
101.3695320881725
 51
180.0
  0
ARC
  5
122
330
1F
100
AcDbEntity
  8
0
  6
CONTINUOUS
 62
     7
100
AcDbCircle
 10
-238.9006942250253
 20
137.4875489017671
 30
0.0
 40
3.0
100
AcDbArc
 50
0.0
 51
78.63046791182747
  0
LINE
  5
123
330
1F
100
AcDbEntity
  8
0
  6
CONTINUOUS
 62
     7
100
AcDbLine
 10
-139.4006942250253
 20
15.92411887915867
 30
0.0
 11
-396.8530200116784
 21
15.92411887915867
 31
0.0
  0
LINE
  5
124
330
1F
100
AcDbEntity
  8
0
  6
CONTINUOUS
 62
     7
100
AcDbLine
 10
-385.4858429399674
 20
35.92411887916276
 30
0.0
 11
-248.9039130632761
 21
35.92411887916276
 31
0.0
  0
LINE
  5
125
330
1F
100
AcDbEntity
  8
0
  6
CONTINUOUS
 62
     7
100
AcDbLine
 10
-248.9039130632761
 20
117.9241188791628
 30
0.0
 11
-385.4858429399674
 21
117.9241188791628
 31
0.0
  0
LINE
  5
126
330
1F
100
AcDbEntity
  8
0
  6
CONTINUOUS
 62
     7
100
AcDbLine
 10
-386.4858429399674
 20
116.9241188791628
 30
0.0
 11
-386.4858429399674
 21
36.92411887916276
 31
0.0
  0
LINE
  5
127
330
1F
100
AcDbEntity
  8
0
  6
CONTINUOUS
 62
     7
100
AcDbLine
 10
-247.9039130632761
 20
36.92411887916276
 30
0.0
 11
-247.9039130632761
 21
116.9241188791628
 31
0.0
  0
LINE
  5
128
330
1F
100
AcDbEntity
  8
0
  6
CONTINUOUS
 62
     7
100
AcDbLine
 10
-385.4858429399674
 20
117.9241188791628
 30
0.0
 11
-386.4858429399674
 21
116.9241188791628
 31
0.0
  0
LINE
  5
129
330
1F
100
AcDbEntity
  8
0
  6
CONTINUOUS
 62
     7
100
AcDbLine
 10
-386.4858429399674
 20
36.92411887916276
 30
0.0
 11
-385.4858429399674
 21
35.92411887916276
 31
0.0
  0
LINE
  5
12A
330
1F
100
AcDbEntity
  8
0
  6
CONTINUOUS
 62
     7
100
AcDbLine
 10
-248.9039130632761
 20
35.92411887916276
 30
0.0
 11
-247.9039130632761
 21
36.92411887916276
 31
0.0
  0
LINE
  5
12B
330
1F
100
AcDbEntity
  8
0
  6
CONTINUOUS
 62
     7
100
AcDbLine
 10
-247.9039130632761
 20
116.9241188791628
 30
0.0
 11
-248.9039130632761
 21
117.9241188791628
 31
0.0
  0
LINE
  5
12C
330
1F
100
AcDbEntity
  8
0
  6
CONTINUOUS
 62
     7
100
AcDbLine
 10
-381.4858429399674
 20
44.92411887916276
 30
0.0
 11
-386.0858429399673
 21
44.92411887916276
 31
0.0
  0
LINE
  5
12D
330
1F
100
AcDbEntity
  8
0
  6
CONTINUOUS
 62
     7
100
AcDbLine
 10
-377.4858429399674
 20
36.32411887916285
 30
0.0
 11
-377.4858429399674
 21
40.92411887916276
 31
0.0
  0
ARC
  5
12E
330
1F
100
AcDbEntity
  8
0
  6
CONTINUOUS
 62
     7
100
AcDbCircle
 10
-386.0858429399673
 20
45.32411887916285
 30
0.0
 40
0.4
100
AcDbArc
 50
180.0
 51
270.0
  0
ARC
  5
12F
330
1F
100
AcDbEntity
  8
0
  6
CONTINUOUS
 62
     7
100
AcDbCircle
 10
-377.0858429399673
 20
36.32411887916285
 30
0.0
 40
0.4
100
AcDbArc
 50
180.0
 51
270.0
  0
ARC
  5
130
330
1F
100
AcDbEntity
  8
0
  6
CONTINUOUS
 62
     7
100
AcDbCircle
 10
-381.4858429399674
 20
40.92411887916276
 30
0.0
 40
4.0
100
AcDbArc
 50
0.0
 51
90.0
  0
ARC
  5
131
330
1F
100
AcDbEntity
  8
0
  6
CONTINUOUS
 62
     7
100
AcDbCircle
 10
-317.1948780016218
 20
40.92411887916276
 30
0.0
 40
4.5
100
AcDbArc
 50
0.0
 51
180.0
  0
LINE
  5
132
330
1F
100
AcDbEntity
  8
0
  6
CONTINUOUS
 62
     7
100
AcDbLine
 10
-312.6948780016218
 20
40.92411887916595
 30
0.0
 11
-312.6948780016218
 21
35.92411887916276
 31
0.0
  0
LINE
  5
133
330
1F
100
AcDbEntity
  8
0
  6
CONTINUOUS
 62
     7
100
AcDbLine
 10
-321.6948780016218
 20
40.92411887916595
 30
0.0
 11
-321.6948780016218
 21
35.92411887916276
 31
0.0
  0
LINE
  5
134
330
1F
100
AcDbEntity
  8
0
  6
CONTINUOUS
 62
     7
100
AcDbLine
 10
-256.9039130632761
 20
36.32411887916285
 30
0.0
 11
-256.9039130632761
 21
40.92411887916276
 31
0.0
  0
ARC
  5
135
330
1F
100
AcDbEntity
  8
0
  6
CONTINUOUS
 62
     7
100
AcDbCircle
 10
-252.9039130632761
 20
40.92411887916276
 30
0.0
 40
4.0
100
AcDbArc
 50
90.00000000000001
 51
180.0
  0
ARC
  5
136
330
1F
100
AcDbEntity
  8
0
  6
CONTINUOUS
 62
     7
100
AcDbCircle
 10
-248.3039130632762
 20
45.32411887916285
 30
0.0
 40
0.4
100
AcDbArc
 50
270.0
 51
0.0
  0
LINE
  5
137
330
1F
100
AcDbEntity
  8
0
  6
CONTINUOUS
 62
     7
100
AcDbLine
 10
-252.9039130632761
 20
44.92411887916276
 30
0.0
 11
-248.3039130632762
 21
44.92411887916276
 31
0.0
  0
ARC
  5
138
330
1F
100
AcDbEntity
  8
0
  6
CONTINUOUS
 62
     7
100
AcDbCircle
 10
-257.3039130632762
 20
36.32411887916285
 30
0.0
 40
0.4
100
AcDbArc
 50
270.0
 51
0.0
  0
LINE
  5
139
330
1F
100
AcDbEntity
  8
0
  6
CONTINUOUS
 62
     7
100
AcDbLine
 10
-381.4858429399674
 20
108.9241188791628
 30
0.0
 11
-386.0858429399673
 21
108.9241188791628
 31
0.0
  0
ARC
  5
13A
330
1F
100
AcDbEntity
  8
0
  6
CONTINUOUS
 62
     7
100
AcDbCircle
 10
-386.0858429399673
 20
108.5241188791627
 30
0.0
 40
0.4
100
AcDbArc
 50
90.0
 51
180.0
  0
ARC
  5
13B
330
1F
100
AcDbEntity
  8
0
  6
CONTINUOUS
 62
     7
100
AcDbCircle
 10
-381.4858429399674
 20
112.9241188791628
 30
0.0
 40
4.0
100
AcDbArc
 50
270.0
 51
0.0
  0
ARC
  5
13C
330
1F
100
AcDbEntity
  8
0
  6
CONTINUOUS
 62
     7
100
AcDbCircle
 10
-317.1948780016218
 20
112.9241188791628
 30
0.0
 40
4.5
100
AcDbArc
 50
180.0
 51
0.0
  0
ARC
  5
13D
330
1F
100
AcDbEntity
  8
0
  6
CONTINUOUS
 62
     7
100
AcDbCircle
 10
-252.9039130632761
 20
112.9241188791628
 30
0.0
 40
4.0
100
AcDbArc
 50
180.0
 51
270.0
  0
ARC
  5
13E
330
1F
100
AcDbEntity
  8
0
  6
CONTINUOUS
 62
     7
100
AcDbCircle
 10
-248.3039130632762
 20
108.5241188791627
 30
0.0
 40
0.4
100
AcDbArc
 50
0.0
 51
90.0
  0
LINE
  5
13F
330
1F
100
AcDbEntity
  8
0
  6
CONTINUOUS
 62
     7
100
AcDbLine
 10
-252.9039130632761
 20
108.9241188791628
 30
0.0
 11
-248.3039130632762
 21
108.9241188791628
 31
0.0
  0
LINE
  5
140
330
1F
100
AcDbEntity
  8
0
  6
CONTINUOUS
 62
     7
100
AcDbLine
 10
-312.6948780016218
 20
112.9241188791596
 30
0.0
 11
-312.6948780016218
 21
117.9241188791628
 31
0.0
  0
LINE
  5
141
330
1F
100
AcDbEntity
  8
0
  6
CONTINUOUS
 62
     7
100
AcDbLine
 10
-321.6948780016218
 20
112.9241188791596
 30
0.0
 11
-321.6948780016218
 21
117.9241188791628
 31
0.0
  0
LINE
  5
142
330
1F
100
AcDbEntity
  8
0
  6
CONTINUOUS
 62
     7
100
AcDbLine
 10
-377.4858429399674
 20
117.5241188791627
 30
0.0
 11
-377.4858429399674
 21
112.9241188791628
 31
0.0
  0
ARC
  5
143
330
1F
100
AcDbEntity
  8
0
  6
CONTINUOUS
 62
     7
100
AcDbCircle
 10
-377.0858429399673
 20
117.5241188791627
 30
0.0
 40
0.4
100
AcDbArc
 50
90.0
 51
180.0
  0
LINE
  5
144
330
1F
100
AcDbEntity
  8
0
  6
CONTINUOUS
 62
     7
100
AcDbLine
 10
-256.9039130632761
 20
117.5241188791627
 30
0.0
 11
-256.9039130632761
 21
112.9241188791628
 31
0.0
  0
ARC
  5
145
330
1F
100
AcDbEntity
  8
0
  6
CONTINUOUS
 62
     7
100
AcDbCircle
 10
-257.3039130632762
 20
117.5241188791627
 30
0.0
 40
0.4
100
AcDbArc
 50
0.0
 51
90.0
  0
LINE
  5
146
330
1F
100
AcDbEntity
  8
0
  6
CONTINUOUS
 62
     7
100
AcDbLine
 10
-386.4858429399674
 20
40.92411887915867
 30
0.0
 11
-394.7977324439544
 21
40.92411887915867
 31
0.0
  0
LINE
  5
147
330
1F
100
AcDbEntity
  8
0
  6
CONTINUOUS
 62
     7
100
AcDbLine
 10
-143.344899781745
 20
40.92411887915867
 30
0.0
 11
-197.1307194509995
 21
40.92411887915867
 31
0.0
  0
LINE
  5
148
330
1F
100
AcDbEntity
  8
0
  6
CONTINUOUS
 62
     7
100
AcDbLine
 10
-237.1307194509995
 20
40.92411887915867
 30
0.0
 11
-247.9039130632761
 21
40.92411887915867
 31
0.0
  0
LINE
  5
149
330
1F
100
AcDbEntity
  8
0
  6
CONTINUOUS
 62
     7
100
AcDbLine
 10
-138.4006942250253
 20
10.92411887915867
 30
0.0
 11
-398.4006942250253
 21
10.92411887915867
 31
0.0
  0
CIRCLE
  5
14A
330
1F
100
AcDbEntity
  8
0
  6
CONTINUOUS
 62
     7
100
AcDbCircle
 10
-268.4006942250253
 20
523.3796797753207
 30
0.0
 40
84.97690311287039
  0
LINE
  5
14B
330
1F
100
AcDbEntity
  8
0
  6
CONTINUOUS
 62
     7
100
AcDbLine
 10
-239.1011132440312
 20
400.380902169844
 30
0.0
 11
-237.1307194509995
 21
395.6239507514734
 31
0.0
  0
LINE
  5
14C
330
1F
100
AcDbEntity
  8
0
  6
CONTINUOUS
 62
     7
100
AcDbLine
 10
-237.1307194509995
 20
395.6239507514734
 30
0.0
 11
-200.1755381505486
 21
410.9312880460821
 31
0.0
  0
LINE
  5
14D
330
1F
100
AcDbEntity
  8
0
  6
CONTINUOUS
 62
     7
100
AcDbLine
 10
-200.1755381505486
 20
410.9312880460821
 30
0.0
 11
-202.1458937868288
 21
415.6881473458962
 31
0.0
  0
ARC
  5
14E
330
1F
100
AcDbEntity
  8
0
  6
CONTINUOUS
 62
     7
100
AcDbCircle
 10
-268.4006942250253
 20
523.3796797753207
 30
0.0
 40
114.9999999999963
100
AcDbArc
 50
330.000000000001
 51
180.0000000000018
  0
LINE
  5
14F
330
1F
100
AcDbEntity
  8
0
  6
CONTINUOUS
 62
     7
100
AcDbLine
 10
-168.8077727898185
 20
465.8796797753203
 30
0.0
 11
-178.9923346490964
 21
433.971320199391
 31
0.0
  0
LINE
  5
150
330
1F
100
AcDbEntity
  8
0
  6
CONTINUOUS
 62
     7
100
AcDbLine
 10
-383.4006942250253
 20
523.3796797753062
 30
0.0
 11
-390.5314565825233
 21
490.6498520324572
 31
0.0
  0
LINE
  5
151
330
1F
100
AcDbEntity
  8
0
  6
CONTINUOUS
 62
     7
100
AcDbLine
 10
-191.9006942250248
 20
658.3796797753203
 30
0.0
 11
-380.4006942250248
 21
658.3796797753207
 31
0.0
  0
LINE
  5
152
330
1F
100
AcDbEntity
  8
0
  6
CONTINUOUS
 62
     7
100
AcDbLine
 10
-394.4006942250248
 20
610.8796797752916
 30
0.0
 11
-394.4006942250248
 21
629.8796797752916
 31
0.0
  0
LINE
  5
153
330
1F
100
AcDbEntity
  8
0
  6
CONTINUOUS
 62
     7
100
AcDbLine
 10
-394.4006942250248
 20
628.3796797752916
 30
0.0
 11
-396.4006942250248
 21
628.3796797752916
 31
0.0
  0
LINE
  5
154
330
1F
100
AcDbEntity
  8
0
  6
CONTINUOUS
 62
     7
100
AcDbLine
 10
-394.4006942250248
 20
612.3796797752916
 30
0.0
 11
-396.4006942250248
 21
612.3796797752916
 31
0.0
  0
LINE
  5
155
330
1F
100
AcDbEntity
  8
0
  6
CONTINUOUS
 62
     7
100
AcDbLine
 10
-382.4006942250248
 20
658.3796797753062
 30
0.0
 11
-382.4006942250248
 21
585.8616771825659
 31
0.0
  0
LINE
  5
156
330
1F
100
AcDbEntity
  8
0
  6
CONTINUOUS
 62
     7
100
AcDbLine
 10
-386.2152448899252
 20
433.6334464159341
 30
0.0
 11
-248.5571945457449
 21
376.6136149935317
 31
0.0
  0
LINE
  5
157
330
1F
100
AcDbEntity
  8
0
  6
CONTINUOUS
 62
     7
100
AcDbLine
 10
-247.9039130633067
 20
376.8842130436047
 30
0.0
 11
-245.0337873205685
 21
383.8133095374392
 31
0.0
  0
LINE
  5
158
330
1F
100
AcDbEntity
  8
0
  6
CONTINUOUS
 62
     7
100
AcDbLine
 10
-386.485842939998
 20
434.2867278983722
 30
0.0
 11
-383.61571719726
 21
441.2158243922073
 31
0.0
  0
LINE
  5
159
330
1F
100
AcDbEntity
  8
0
  6
CONTINUOUS
 62
     7
100
AcDbLine
 10
-377.290755252957
 20
432.9674999318623
 30
0.0
 11
-385.6056710455583
 21
436.4116508231485
 31
0.0
  0
LINE
  5
15A
330
1F
100
AcDbEntity
  8
0
  6
CONTINUOUS
 62
     7
100
AcDbLine
 10
-255.3386569614685
 20
382.4532868596671
 30
0.0
 11
-247.0237411688669
 21
379.0091359683811
 31
0.0
  0
LINE
  5
15B
330
1F
100
AcDbEntity
  8
0
  6
CONTINUOUS
 62
     7
100
AcDbLine
 10
-255.3386569614685
 20
382.4532868596671
 30
0.0
 11
-256.4101705720908
 21
379.8664241686352
 31
0.0
  0
LINE
  5
15C
330
1F
100
AcDbEntity
  8
0
  6
CONTINUOUS
 62
     7
100
AcDbLine
 10
-377.290755252957
 20
432.9674999318623
 30
0.0
 11
-378.3622688635793
 21
430.3806372408306
 31
0.0
  0
LINE
  5
15D
330
1F
100
AcDbEntity
  8
0
  6
CONTINUOUS
 62
     7
100
AcDbLine
 10
-386.2152448899252
 20
433.6334464159341
 30
0.0
 11
-386.485842939998
 21
434.2867278983722
 31
0.0
  0
LINE
  5
15E
330
1F
100
AcDbEntity
  8
0
  6
CONTINUOUS
 62
     7
100
AcDbLine
 10
-248.5571945457449
 20
376.6136149935317
 30
0.0
 11
-247.9039130633067
 21
376.8842130436049
 31
0.0
  0
LINE
  5
15F
330
1F
100
AcDbEntity
  8
0
  6
CONTINUOUS
 62
     7
100
AcDbLine
 10
-303.4006942250253
 20
-201.0758811208414
 30
0.0
 11
-233.4006942250253
 21
-201.0758811208414
 31
0.0
  0
LINE
  5
160
330
1F
100
AcDbEntity
  8
0
  6
CONTINUOUS
 62
     7
100
AcDbLine
 10
-260.9039130632761
 20
44.92411887916276
 30
0.0
 11
-315.1333251888129
 21
44.92411887916276
 31
0.0
  0
LINE
  5
161
330
1F
100
AcDbEntity
  8
0
  6
CONTINUOUS
 62
     7
100
AcDbLine
 10
-256.9039130632761
 20
104.9241188791628
 30
0.0
 11
-256.9039130632761
 21
48.92411887916276
 31
0.0
  0
LINE
  5
162
330
1F
100
AcDbEntity
  8
0
  6
CONTINUOUS
 62
     7
100
AcDbLine
 10
-260.9039130632761
 20
108.9241188791628
 30
0.0
 11
-315.1333251888129
 21
108.9241188791628
 31
0.0
  0
LINE
  5
163
330
1F
100
AcDbEntity
  8
0
  6
CONTINUOUS
 62
     7
100
AcDbLine
 10
-319.2564308144306
 20
108.9241188791628
 30
0.0
 11
-373.4858429399674
 21
108.9241188791628
 31
0.0
  0
LINE
  5
164
330
1F
100
AcDbEntity
  8
0
  6
CONTINUOUS
 62
     7
100
AcDbLine
 10
-377.4858429399674
 20
104.9241188791628
 30
0.0
 11
-377.4858429399674
 21
48.92411887916276
 31
0.0
  0
LINE
  5
165
330
1F
100
AcDbEntity
  8
0
  6
CONTINUOUS
 62
     7
100
AcDbLine
 10
-319.2564308144306
 20
44.92411887916276
 30
0.0
 11
-373.4858429399674
 21
44.92411887916276
 31
0.0
  0
ARC
  5
166
330
1F
100
AcDbEntity
  8
0
  6
CONTINUOUS
 62
     7
100
AcDbCircle
 10
-373.4858429399674
 20
48.92411887916276
 30
0.0
 40
4.0
100
AcDbArc
 50
180.0
 51
270.0
  0
ARC
  5
167
330
1F
100
AcDbEntity
  8
0
  6
CONTINUOUS
 62
     7
100
AcDbCircle
 10
-373.4858429399674
 20
104.9241188791628
 30
0.0
 40
4.0
100
AcDbArc
 50
90.0
 51
180.0
  0
ARC
  5
168
330
1F
100
AcDbEntity
  8
0
  6
CONTINUOUS
 62
     7
100
AcDbCircle
 10
-260.9039130632761
 20
104.9241188791628
 30
0.0
 40
4.0
100
AcDbArc
 50
0.0
 51
90.0
  0
ARC
  5
169
330
1F
100
AcDbEntity
  8
0
  6
CONTINUOUS
 62
     7
100
AcDbCircle
 10
-260.9039130632761
 20
48.92411887916276
 30
0.0
 40
4.0
100
AcDbArc
 50
270.0
 51
0.0
  0
CIRCLE
  5
16A
330
1F
100
AcDbEntity
  8
0
  6
CONTINUOUS
 62
     7
100
AcDbCircle
 10
-217.1307194509995
 20
80.42411887915867
 30
0.0
 40
8.0
  0
CIRCLE
  5
16B
330
1F
100
AcDbEntity
  8
0
  6
CONTINUOUS
 62
     7
100
AcDbCircle
 10
-217.1307194509995
 20
35.42411887915867
 30
0.0
 40
8.0
  0
LINE
  5
16C
330
1F
100
AcDbEntity
  8
0
  6
CONTINUOUS
 62
     7
100
AcDbLine
 10
-382.5889698253542
 20
120.3026321830264
 30
0.0
 11
-154.2124186246929
 21
120.3026321830264
 31
0.0
  0
LINE
  5
16D
330
1F
100
AcDbEntity
  8
0
  6
CONTINUOUS
 62
     7
100
AcDbLine
 10
358.9557594549884
 20
-133.0758811208413
 30
0.0
 11
352.9715417443554
 21
-133.0758811208413
 31
0.0
  0
ARC
  5
16E
330
1F
100
AcDbEntity
  8
0
  6
CONTINUOUS
 62
     7
100
AcDbCircle
 10
-1183.46359454808
 20
-475.3168675923279
 30
0.0
 40
1400.0
100
AcDbArc
 50
12.89153590704879
 51
20.01797870281651
  0
ARC
  5
16F
330
1F
100
AcDbEntity
  8
0
  6
CONTINUOUS
 62
     7
100
AcDbCircle
 10
388.8699454631756
 20
-51.32497855338963
 30
0.0
 40
15.0
100
AcDbArc
 50
162.1737597560603
 51
235.6380721351324
  0
ARC
  5
170
330
1F
100
AcDbEntity
  8
0
  6
CONTINUOUS
 62
     7
100
AcDbCircle
 10
1707.375113458043
 20
-475.3168675923279
 30
0.0
 40
1400.0
100
AcDbArc
 50
159.9820212971835
 51
162.1737597560599
  0
ARC
  5
171
330
1F
100
AcDbEntity
  8
0
  6
CONTINUOUS
 62
     7
100
AcDbCircle
 10
1707.375113458043
 20
-475.3168675923279
 30
0.0
 40
1400.0
100
AcDbArc
 50
165.9780870665242
 51
167.1084640929512
  0
ARC
  5
172
330
1F
100
AcDbEntity
  8
0
  6
CONTINUOUS
 62
     7
100
AcDbCircle
 10
352.9715417443554
 20
-137.0758811208413
 30
0.0
 40
4.0
100
AcDbArc
 50
90.00000000000001
 51
165.9780870665216
  0
ARC
  5
173
330
1F
100
AcDbEntity
  8
0
  6
CONTINUOUS
 62
     7
100
AcDbCircle
 10
338.7641079512292
 20
-162.0758811208414
 30
0.0
 40
4.0
100
AcDbArc
 50
270.0
 51
347.1084640929511
  0
ARC
  5
174
330
1F
100
AcDbEntity
  8
0
  6
CONTINUOUS
 62
     7
100
AcDbCircle
 10
185.147410958733
 20
-162.0758811208414
 30
0.0
 40
4.0
100
AcDbArc
 50
192.8915359070504
 51
270.0
  0
LINE
  5
175
330
1F
100
AcDbEntity
  8
0
  6
CONTINUOUS
 62
     7
100
AcDbLine
 10
294.4557594549884
 20
135.9241188791587
 30
0.0
 11
294.4557594549884
 21
137.4875489017671
 31
0.0
  0
LINE
  5
176
330
1F
100
AcDbEntity
  8
0
  6
CONTINUOUS
 62
     7
100
AcDbLine
 10
229.4557594549884
 20
135.9241188791587
 30
0.0
 11
229.4557594549884
 21
137.4875489017671
 31
0.0
  0
ARC
  5
177
330
1F
100
AcDbEntity
  8
0
  6
CONTINUOUS
 62
     7
100
AcDbCircle
 10
261.9557594549884
 20
-9.218738263710947
 30
0.0
 40
152.6428571428578
100
AcDbArc
 50
78.63046791182735
 51
101.3695320881726
  0
ARC
  5
178
330
1F
100
AcDbEntity
  8
0
  6
CONTINUOUS
 62
     7
100
AcDbCircle
 10
232.4557594549884
 20
137.4875489017671
 30
0.0
 40
3.0
100
AcDbArc
 50
101.3695320881725
 51
180.0
  0
ARC
  5
179
330
1F
100
AcDbEntity
  8
0
  6
CONTINUOUS
 62
     7
100
AcDbCircle
 10
291.4557594549884
 20
137.4875489017671
 30
0.0
 40
3.0
100
AcDbArc
 50
0.0
 51
78.63046791182747
  0
LINE
  5
17A
330
1F
100
AcDbEntity
  8
0
  6
CONTINUOUS
 62
     7
100
AcDbLine
 10
387.0115538982687
 20
40.92411887915867
 30
0.0
 11
136.899965011708
 21
40.92411887915867
 31
0.0
  0
LINE
  5
17B
330
1F
100
AcDbEntity
  8
0
  6
CONTINUOUS
 62
     7
100
AcDbLine
 10
132.9557594549883
 20
15.92411887915867
 30
0.0
 11
390.9557594549883
 21
15.92411887915867
 31
0.0
  0
LINE
  5
17C
330
1F
100
AcDbEntity
  8
0
  6
CONTINUOUS
 62
     7
100
AcDbLine
 10
377.0075935188839
 20
119.0299812767428
 30
0.0
 11
146.9029387487576
 21
119.0299812767428
 31
0.0
  0
LINE
  5
17D
330
1F
100
AcDbEntity
  8
0
  6
CONTINUOUS
 62
     7
100
AcDbLine
 10
242.4557594549884
 20
-203.0758811208414
 30
0.0
 11
281.4557594549884
 21
-203.0758811208414
 31
0.0
  0
LINE
  5
17E
330
1F
100
AcDbEntity
  8
0
  6
CONTINUOUS
 62
     7
100
AcDbLine
 10
242.4557594549884
 20
-238.0758811208414
 30
0.0
 11
281.4557594549884
 21
-238.0758811208414
 31
0.0
  0
LINE
  5
17F
330
1F
100
AcDbEntity
  8
0
  6
CONTINUOUS
 62
     7
100
AcDbLine
 10
281.9557594549884
 20
-201.0758811208414
 30
0.0
 11
281.9557594549884
 21
-237.5758811208414
 31
0.0
  0
LINE
  5
180
330
1F
100
AcDbEntity
  8
0
  6
CONTINUOUS
 62
     7
100
AcDbLine
 10
241.9557594549884
 20
-201.0758811208414
 30
0.0
 11
241.9557594549884
 21
-237.5758811208414
 31
0.0
  0
LINE
  5
181
330
1F
100
AcDbEntity
  8
0
  6
CONTINUOUS
 62
     7
100
AcDbLine
 10
260.1596628305456
 20
-237.5758811208414
 30
0.0
 11
260.1596628305456
 21
-203.0758811208414
 31
0.0
  0
LINE
  5
182
330
1F
100
AcDbEntity
  8
0
  6
CONTINUOUS
 62
     7
100
AcDbLine
 10
242.4557594549884
 20
-238.0758811208414
 30
0.0
 11
241.9557594549884
 21
-237.5758811208414
 31
0.0
  0
LINE
  5
183
330
1F
100
AcDbEntity
  8
0
  6
CONTINUOUS
 62
     7
100
AcDbLine
 10
281.4557594549884
 20
-238.0758811208414
 30
0.0
 11
281.9557594549884
 21
-237.5758811208414
 31
0.0
  0
LINE
  5
184
330
1F
100
AcDbEntity
  8
0
  6
CONTINUOUS
 62
     7
100
AcDbLine
 10
242.4557594549884
 20
-203.0758811208414
 30
0.0
 11
241.9557594549884
 21
-202.5758811208414
 31
0.0
  0
LINE
  5
185
330
1F
100
AcDbEntity
  8
0
  6
CONTINUOUS
 62
     7
100
AcDbLine
 10
281.4557594549884
 20
-203.0758811208414
 30
0.0
 11
281.9557594549884
 21
-202.5758811208414
 31
0.0
  0
LINE
  5
186
330
1F
100
AcDbEntity
  8
0
  6
CONTINUOUS
 62
     7
100
AcDbLine
 10
263.7518560794311
 20
-237.5758811208414
 30
0.0
 11
263.7518560794311
 21
-203.0758811208414
 31
0.0
  0
LINE
  5
187
330
1F
100
AcDbEntity
  8
0
  6
CONTINUOUS
 62
     7
100
AcDbLine
 10
260.1596628305456
 20
-237.5758811208414
 30
0.0
 11
259.6596628305456
 21
-238.0758811208414
 31
0.0
  0
LINE
  5
188
330
1F
100
AcDbEntity
  8
0
  6
CONTINUOUS
 62
     7
100
AcDbLine
 10
263.7518560794311
 20
-237.5758811208414
 30
0.0
 11
264.2518560794311
 21
-238.0758811208414
 31
0.0
  0
LINE
  5
189
330
1F
100
AcDbEntity
  8
0
  6
CONTINUOUS
 62
     7
100
AcDbLine
 10
327.7841865797278
 20
-196.0758811208414
 30
0.0
 11
196.1273323302489
 21
-196.0758811208414
 31
0.0
  0
LINE
  5
18A
330
1F
100
AcDbEntity
  8
0
  6
CONTINUOUS
 62
     7
100
AcDbLine
 10
335.9557594549884
 20
-166.0758811208414
 30
0.0
 11
187.9557594549883
 21
-166.0758811208414
 31
0.0
  0
LINE
  5
18B
330
1F
100
AcDbEntity
  8
0
  6
CONTINUOUS
 62
     7
100
AcDbLine
 10
324.9557594549884
 20
-198.0758811208414
 30
0.0
 11
198.9557594549884
 21
-198.0758811208414
 31
0.0
  0
LINE
  5
18C
330
1F
100
AcDbEntity
  8
0
  6
CONTINUOUS
 62
     7
100
AcDbLine
 10
226.9557594549884
 20
-201.0758811208414
 30
0.0
 11
296.9557594549884
 21
-201.0758811208414
 31
0.0
  0
ARC
  5
18D
330
1F
100
AcDbEntity
  8
0
  6
CONTINUOUS
 62
     7
100
AcDbCircle
 10
-268.4006942250248
 20
-513.1862512623047
 30
0.0
 40
129.9999999999996
100
AcDbArc
 50
306.8698976458441
 51
206.990718284343
  0
CIRCLE
  5
18E
330
1F
100
AcDbEntity
  8
0
  6
CONTINUOUS
 62
     7
100
AcDbCircle
 10
-268.4006942250248
 20
-513.1862512623047
 30
0.0
 40
19.5
  0
LINE
  5
18F
330
1F
100
AcDbEntity
  8
0
  6
CONTINUOUS
 62
     7
100
AcDbLine
 10
-248.9835874138785
 20
-511.3901546378619
 30
0.0
 11
-266.6045976005821
 21
-493.7691444511437
 31
0.0
  0
LINE
  5
190
330
1F
100
AcDbEntity
  8
0
  6
CONTINUOUS
 62
     7
100
AcDbLine
 10
-287.8178010361712
 20
-514.9823478867474
 30
0.0
 11
-270.1967908494676
 21
-532.6033580734511
 31
0.0
  0
LINE
  5
191
330
1F
100
AcDbEntity
  8
0
  6
CONTINUOUS
 62
     7
100
AcDbLine
 10
-266.6045976005821
 20
-532.6033580734511
 30
0.0
 11
-248.9835874138785
 21
-514.9823478867474
 31
0.0
  0
LINE
  5
192
330
1F
100
AcDbEntity
  8
0
  6
CONTINUOUS
 62
     7
100
AcDbLine
 10
-270.1967908494676
 20
-493.7691444511437
 30
0.0
 11
-287.8178010361712
 21
-511.3901546378619
 31
0.0
  0
LINE
  5
193
330
1F
100
AcDbEntity
  8
0
  6
CONTINUOUS
 62
     7
100
AcDbLine
 10
-394.4006942250249
 20
-619.6862512623047
 30
0.0
 11
-394.4006942250249
 21
-600.6862512623047
 31
0.0
  0
LINE
  5
194
330
1F
100
AcDbEntity
  8
0
  6
CONTINUOUS
 62
     7
100
AcDbLine
 10
-396.4006942250249
 20
-618.1862512623047
 30
0.0
 11
-396.4006942250249
 21
-602.1862512623047
 31
0.0
  0
LINE
  5
195
330
1F
100
AcDbEntity
  8
0
  6
CONTINUOUS
 62
     7
100
AcDbLine
 10
-394.4006942250249
 20
-602.1862512623047
 30
0.0
 11
-396.4006942250249
 21
-602.1862512623047
 31
0.0
  0
LINE
  5
196
330
1F
100
AcDbEntity
  8
0
  6
CONTINUOUS
 62
     7
100
AcDbLine
 10
-394.4006942250249
 20
-618.1862512623047
 30
0.0
 11
-396.4006942250249
 21
-618.1862512623047
 31
0.0
  0
CIRCLE
  5
197
330
1F
100
AcDbEntity
  8
0
  6
CONTINUOUS
 62
     7
100
AcDbCircle
 10
-392.4006942250249
 20
-513.1862512623047
 30
0.0
 40
4.25
  0
LINE
  5
198
330
1F
100
AcDbEntity
  8
0
  6
CONTINUOUS
 62
     7
100
AcDbLine
 10
-392.4006942250249
 20
-515.4956523390574
 30
0.0
 11
-390.4006942250249
 21
-514.3409518006811
 31
0.0
  0
LINE
  5
199
330
1F
100
AcDbEntity
  8
0
  6
CONTINUOUS
 62
     7
100
AcDbLine
 10
-390.4006942250249
 20
-514.3409518006811
 30
0.0
 11
-390.4006942250249
 21
-512.0315507239284
 31
0.0
  0
LINE
  5
19A
330
1F
100
AcDbEntity
  8
0
  6
CONTINUOUS
 62
     7
100
AcDbLine
 10
-390.4006942250249
 20
-512.0315507239284
 30
0.0
 11
-392.4006942250249
 21
-510.8768501855374
 31
0.0
  0
LINE
  5
19B
330
1F
100
AcDbEntity
  8
0
  6
CONTINUOUS
 62
     7
100
AcDbLine
 10
-392.4006942250249
 20
-510.8768501855374
 30
0.0
 11
-394.4006942250249
 21
-512.0315507239284
 31
0.0
  0
LINE
  5
19C
330
1F
100
AcDbEntity
  8
0
  6
CONTINUOUS
 62
     7
100
AcDbLine
 10
-394.4006942250249
 20
-512.0315507239284
 30
0.0
 11
-394.4006942250249
 21
-514.3409518006811
 31
0.0
  0
LINE
  5
19D
330
1F
100
AcDbEntity
  8
0
  6
CONTINUOUS
 62
     7
100
AcDbLine
 10
-394.4006942250249
 20
-514.3409518006811
 30
0.0
 11
-392.4006942250249
 21
-515.4956523390574
 31
0.0
  0
CIRCLE
  5
19E
330
1F
100
AcDbEntity
  8
0
  6
CONTINUOUS
 62
     7
100
AcDbCircle
 10
-180.7194533579
 20
-600.8674921294296
 30
0.0
 40
4.25
  0
LINE
  5
19F
330
1F
100
AcDbEntity
  8
0
  6
CONTINUOUS
 62
     7
100
AcDbLine
 10
-180.1217363764567
 20
-603.0982022727403
 30
0.0
 11
-178.4887432145892
 21
-601.4652091108874
 31
0.0
  0
LINE
  5
1A0
330
1F
100
AcDbEntity
  8
0
  6
CONTINUOUS
 62
     7
100
AcDbLine
 10
-178.4887432145892
 20
-601.4652091108874
 30
0.0
 11
-179.086460196047
 21
-599.2344989675767
 31
0.0
  0
LINE
  5
1A1
330
1F
100
AcDbEntity
  8
0
  6
CONTINUOUS
 62
     7
100
AcDbLine
 10
-179.086460196047
 20
-599.2344989675767
 30
0.0
 11
-181.3171703393432
 21
-598.6367819861334
 31
0.0
  0
LINE
  5
1A2
330
1F
100
AcDbEntity
  8
0
  6
CONTINUOUS
 62
     7
100
AcDbLine
 10
-181.3171703393432
 20
-598.6367819861334
 30
0.0
 11
-182.9501635011961
 21
-600.2697751479864
 31
0.0
  0
LINE
  5
1A3
330
1F
100
AcDbEntity
  8
0
  6
CONTINUOUS
 62
     7
100
AcDbLine
 10
-182.9501635011961
 20
-600.2697751479864
 30
0.0
 11
-182.3524465197529
 21
-602.5004852912971
 31
0.0
  0
LINE
  5
1A4
330
1F
100
AcDbEntity
  8
0
  6
CONTINUOUS
 62
     7
100
AcDbLine
 10
-182.3524465197529
 20
-602.5004852912971
 30
0.0
 11
-180.1217363764567
 21
-603.0982022727403
 31
0.0
  0
CIRCLE
  5
1A5
330
1F
100
AcDbEntity
  8
0
  6
CONTINUOUS
 62
     7
100
AcDbCircle
 10
-144.4006942250248
 20
-513.1862512623047
 30
0.0
 40
4.25
  0
LINE
  5
1A6
330
1F
100
AcDbEntity
  8
0
  6
CONTINUOUS
 62
     7
100
AcDbLine
 10
-142.4006942250248
 20
-514.3409518006811
 30
0.0
 11
-142.4006942250248
 21
-512.0315507239284
 31
0.0
  0
LINE
  5
1A7
330
1F
100
AcDbEntity
  8
0
  6
CONTINUOUS
 62
     7
100
AcDbLine
 10
-142.4006942250248
 20
-512.0315507239284
 30
0.0
 11
-144.4006942250248
 21
-510.876850185552
 31
0.0
  0
LINE
  5
1A8
330
1F
100
AcDbEntity
  8
0
  6
CONTINUOUS
 62
     7
100
AcDbLine
 10
-144.4006942250248
 20
-510.876850185552
 30
0.0
 11
-146.4006942250248
 21
-512.0315507239284
 31
0.0
  0
LINE
  5
1A9
330
1F
100
AcDbEntity
  8
0
  6
CONTINUOUS
 62
     7
100
AcDbLine
 10
-146.4006942250248
 20
-512.0315507239284
 30
0.0
 11
-146.4006942250248
 21
-514.3409518006811
 31
0.0
  0
LINE
  5
1AA
330
1F
100
AcDbEntity
  8
0
  6
CONTINUOUS
 62
     7
100
AcDbLine
 10
-146.4006942250248
 20
-514.3409518006811
 30
0.0
 11
-144.4006942250248
 21
-515.4956523390574
 31
0.0
  0
LINE
  5
1AB
330
1F
100
AcDbEntity
  8
0
  6
CONTINUOUS
 62
     7
100
AcDbLine
 10
-144.4006942250248
 20
-515.4956523390574
 30
0.0
 11
-142.4006942250248
 21
-514.3409518006811
 31
0.0
  0
CIRCLE
  5
1AC
330
1F
100
AcDbEntity
  8
0
  6
CONTINUOUS
 62
     7
100
AcDbCircle
 10
-180.7194533579004
 20
-425.5050103951651
 30
0.0
 40
4.25
  0
LINE
  5
1AD
330
1F
100
AcDbEntity
  8
0
  6
CONTINUOUS
 62
     7
100
AcDbLine
 10
-178.4887432145897
 20
-424.9072934137219
 30
0.0
 11
-180.1217363764426
 21
-423.274300251869
 31
0.0
  0
LINE
  5
1AE
330
1F
100
AcDbEntity
  8
0
  6
CONTINUOUS
 62
     7
100
AcDbLine
 10
-180.1217363764426
 20
-423.274300251869
 30
0.0
 11
-182.3524465197534
 21
-423.8720172333122
 31
0.0
  0
LINE
  5
1AF
330
1F
100
AcDbEntity
  8
0
  6
CONTINUOUS
 62
     7
100
AcDbLine
 10
-182.3524465197534
 20
-423.8720172333122
 30
0.0
 11
-182.9501635011966
 21
-426.1027273766229
 31
0.0
  0
LINE
  5
1B0
330
1F
100
AcDbEntity
  8
0
  6
CONTINUOUS
 62
     7
100
AcDbLine
 10
-182.9501635011966
 20
-426.1027273766229
 30
0.0
 11
-181.3171703393436
 21
-427.7357205384758
 31
0.0
  0
LINE
  5
1B1
330
1F
100
AcDbEntity
  8
0
  6
CONTINUOUS
 62
     7
100
AcDbLine
 10
-181.3171703393436
 20
-427.7357205384758
 30
0.0
 11
-179.0864601960329
 21
-427.1380035570326
 31
0.0
  0
LINE
  5
1B2
330
1F
100
AcDbEntity
  8
0
  6
CONTINUOUS
 62
     7
100
AcDbLine
 10
-179.0864601960329
 20
-427.1380035570326
 30
0.0
 11
-178.4887432145897
 21
-424.9072934137219
 31
0.0
  0
CIRCLE
  5
1B3
330
1F
100
AcDbEntity
  8
0
  6
CONTINUOUS
 62
     7
100
AcDbCircle
 10
-268.4006942250253
 20
-389.1862512623046
 30
0.0
 40
4.25
  0
LINE
  5
1B4
330
1F
100
AcDbEntity
  8
0
  6
CONTINUOUS
 62
     7
100
AcDbLine
 10
-267.2459936866489
 20
-387.1862512623046
 30
0.0
 11
-269.5553947634016
 21
-387.1862512623046
 31
0.0
  0
LINE
  5
1B5
330
1F
100
AcDbEntity
  8
0
  6
CONTINUOUS
 62
     7
100
AcDbLine
 10
-269.5553947634016
 20
-387.1862512623046
 30
0.0
 11
-270.710095301778
 21
-389.1862512623046
 31
0.0
  0
LINE
  5
1B6
330
1F
100
AcDbEntity
  8
0
  6
CONTINUOUS
 62
     7
100
AcDbLine
 10
-270.710095301778
 20
-389.1862512623046
 30
0.0
 11
-269.5553947634016
 21
-391.1862512623046
 31
0.0
  0
LINE
  5
1B7
330
1F
100
AcDbEntity
  8
0
  6
CONTINUOUS
 62
     7
100
AcDbLine
 10
-269.5553947634016
 20
-391.1862512623046
 30
0.0
 11
-267.2459936866489
 21
-391.1862512623046
 31
0.0
  0
LINE
  5
1B8
330
1F
100
AcDbEntity
  8
0
  6
CONTINUOUS
 62
     7
100
AcDbLine
 10
-267.2459936866489
 20
-391.1862512623046
 30
0.0
 11
-266.0912931482726
 21
-389.1862512623046
 31
0.0
  0
LINE
  5
1B9
330
1F
100
AcDbEntity
  8
0
  6
CONTINUOUS
 62
     7
100
AcDbLine
 10
-266.0912931482726
 20
-389.1862512623046
 30
0.0
 11
-267.2459936866489
 21
-387.1862512623046
 31
0.0
  0
CIRCLE
  5
1BA
330
1F
100
AcDbEntity
  8
0
  6
CONTINUOUS
 62
     7
100
AcDbCircle
 10
-356.0819350921648
 20
-425.5050103951651
 30
0.0
 40
4.25
  0
LINE
  5
1BB
330
1F
100
AcDbEntity
  8
0
  6
CONTINUOUS
 62
     7
100
AcDbLine
 10
-356.679652073608
 20
-423.274300251869
 30
0.0
 11
-358.3126452354609
 21
-424.9072934137219
 31
0.0
  0
LINE
  5
1BC
330
1F
100
AcDbEntity
  8
0
  6
CONTINUOUS
 62
     7
100
AcDbLine
 10
-358.3126452354609
 20
-424.9072934137219
 30
0.0
 11
-357.7149282540177
 21
-427.1380035570181
 31
0.0
  0
LINE
  5
1BD
330
1F
100
AcDbEntity
  8
0
  6
CONTINUOUS
 62
     7
100
AcDbLine
 10
-357.7149282540177
 20
-427.1380035570181
 30
0.0
 11
-355.484218110707
 21
-427.7357205384758
 31
0.0
  0
LINE
  5
1BE
330
1F
100
AcDbEntity
  8
0
  6
CONTINUOUS
 62
     7
100
AcDbLine
 10
-355.484218110707
 20
-427.7357205384758
 30
0.0
 11
-353.8512249488541
 21
-426.1027273766084
 31
0.0
  0
LINE
  5
1BF
330
1F
100
AcDbEntity
  8
0
  6
CONTINUOUS
 62
     7
100
AcDbLine
 10
-353.8512249488541
 20
-426.1027273766084
 30
0.0
 11
-354.4489419302973
 21
-423.8720172333122
 31
0.0
  0
LINE
  5
1C0
330
1F
100
AcDbEntity
  8
0
  6
CONTINUOUS
 62
     7
100
AcDbLine
 10
-354.4489419302973
 20
-423.8720172333122
 30
0.0
 11
-356.679652073608
 21
-423.274300251869
 31
0.0
  0
LINE
  5
1C1
330
1F
100
AcDbEntity
  8
0
  6
CONTINUOUS
 62
     7
100
AcDbLine
 10
-382.4006942250249
 20
-648.1862512623047
 30
0.0
 11
-382.4006942250249
 21
-572.1862512623047
 31
0.0
  0
ARC
  5
1C2
330
1F
100
AcDbEntity
  8
0
  6
CONTINUOUS
 62
     7
100
AcDbCircle
 10
-268.4006942250248
 20
-513.1862512623047
 30
0.0
 40
97.0
100
AcDbArc
 50
217.4628878118871
 51
320.9548445984123
  0
CIRCLE
  5
1C3
330
1F
100
AcDbEntity
  8
0
  6
CONTINUOUS
 62
     7
100
AcDbCircle
 10
-232.3381959741158
 20
-549.248677597903
 30
0.0
 40
3.0
  0
CIRCLE
  5
1C4
330
1F
100
AcDbEntity
  8
0
  6
CONTINUOUS
 62
     7
100
AcDbCircle
 10
-268.4006942250248
 20
-564.1862745300177
 30
0.0
 40
3.0
  0
CIRCLE
  5
1C5
330
1F
100
AcDbEntity
  8
0
  6
CONTINUOUS
 62
     7
100
AcDbCircle
 10
-304.4631205606308
 20
-549.2487495132061
 30
0.0
 40
3.0
  0
CIRCLE
  5
1C6
330
1F
100
AcDbEntity
  8
0
  6
CONTINUOUS
 62
     7
100
AcDbCircle
 10
-217.4006709573117
 20
-513.1862512623047
 30
0.0
 40
3.0
  0
CIRCLE
  5
1C7
330
1F
100
AcDbEntity
  8
0
  6
CONTINUOUS
 62
     7
100
AcDbCircle
 10
-232.3382523889577
 20
-477.1237279945926
 30
0.0
 40
3.0
  0
CIRCLE
  5
1C8
330
1F
100
AcDbEntity
  8
0
  6
CONTINUOUS
 62
     7
100
AcDbCircle
 10
-304.4631205606236
 20
-477.123753011396
 30
0.0
 40
3.0
  0
CIRCLE
  5
1C9
330
1F
100
AcDbEntity
  8
0
  6
CONTINUOUS
 62
     7
100
AcDbCircle
 10
-319.400717492738
 20
-513.1862512623047
 30
0.0
 40
3.0
  0
CIRCLE
  5
1CA
330
1F
100
AcDbEntity
  8
0
  6
CONTINUOUS
 62
     7
100
AcDbCircle
 10
-268.4006913538014
 20
-462.1862279945925
 30
0.0
 40
3.0
  0
ARC
  5
1CB
330
1F
100
AcDbEntity
  8
0
  6
CONTINUOUS
 62
     7
100
AcDbCircle
 10
-405.1506942250249
 20
-513.1862512623052
 30
0.0
 40
17.99999999999999
100
AcDbArc
 50
295.5665072507609
 51
64.43349274923908
  0
ARC
  5
1CC
330
1F
100
AcDbEntity
  8
0
  6
CONTINUOUS
 62
     7
100
AcDbCircle
 10
-365.0975465522857
 20
-416.4893989350444
 30
0.0
 40
17.99999999999999
100
AcDbArc
 50
250.5665072507609
 51
19.43349274923907
  0
ARC
  5
1CD
330
1F
100
AcDbEntity
  8
0
  6
CONTINUOUS
 62
     7
100
AcDbCircle
 10
-268.4006942250253
 20
-376.4362512623046
 30
0.0
 40
17.99999999999999
100
AcDbArc
 50
205.5665072507609
 51
334.4334927492391
  0
ARC
  5
1CE
330
1F
100
AcDbEntity
  8
0
  6
CONTINUOUS
 62
     7
100
AcDbCircle
 10
-171.7038418977649
 20
-416.4893989350439
 30
0.0
 40
17.99999999999999
100
AcDbArc
 50
160.566507250761
 51
289.4334927492391
  0
ARC
  5
1CF
330
1F
100
AcDbEntity
  8
0
  6
CONTINUOUS
 62
     7
100
AcDbCircle
 10
-131.6506942250248
 20
-513.1862512623043
 30
0.0
 40
17.99999999999999
100
AcDbArc
 50
115.566507250761
 51
244.4334927492391
  0
ARC
  5
1D0
330
1F
100
AcDbEntity
  8
0
  6
CONTINUOUS
 62
     7
100
AcDbCircle
 10
-171.7038418977643
 20
-609.8831035895646
 30
0.0
 40
17.99999999999999
100
AcDbArc
 50
70.56650725076094
 51
199.4334927492391
  0
LINE
  5
1D1
330
1F
100
AcDbEntity
  8
0
  6
CONTINUOUS
 62
     7
100
AcDbLine
 10
-248.8951407255602
 20
-185.0758811208414
 30
0.0
 11
-252.6479174752927
 21
-178.5758811208414
 31
0.0
  0
LINE
  5
1D2
330
1F
100
AcDbEntity
  8
0
  6
CONTINUOUS
 62
     7
100
AcDbLine
 10
-252.6479174752927
 20
-178.5758811208414
 30
0.0
 11
-260.1534709747579
 21
-178.5758811208414
 31
0.0
  0
LINE
  5
1D3
330
1F
100
AcDbEntity
  8
0
  6
CONTINUOUS
 62
     7
100
AcDbLine
 10
-260.1534709747579
 20
-178.5758811208414
 30
0.0
 11
-263.9062477244904
 21
-185.0758811208414
 31
0.0
  0
LINE
  5
1D4
330
1F
100
AcDbEntity
  8
0
  6
CONTINUOUS
 62
     7
100
AcDbLine
 10
-263.9062477244904
 20
-185.0758811208414
 30
0.0
 11
-260.1534709747579
 21
-191.5758811208414
 31
0.0
  0
LINE
  5
1D5
330
1F
100
AcDbEntity
  8
0
  6
CONTINUOUS
 62
     7
100
AcDbLine
 10
-260.1534709747579
 20
-191.5758811208414
 30
0.0
 11
-252.6479174752927
 21
-191.5758811208414
 31
0.0
  0
LINE
  5
1D6
330
1F
100
AcDbEntity
  8
0
  6
CONTINUOUS
 62
     7
100
AcDbLine
 10
-252.6479174752927
 20
-191.5758811208414
 30
0.0
 11
-248.8951407255602
 21
-185.0758811208414
 31
0.0
  0
CIRCLE
  5
1D7
330
1F
100
AcDbEntity
  8
0
  6
CONTINUOUS
 62
     7
100
AcDbCircle
 10
-256.4006942250253
 20
-185.0758811208414
 30
0.0
 40
8.5
  0
LINE
  5
1D8
330
1F
100
AcDbEntity
  8
0
  6
CONTINUOUS
 62
     7
100
AcDbLine
 10
-272.8951407255602
 20
-185.0758811208414
 30
0.0
 11
-276.6479174752927
 21
-178.5758811208414
 31
0.0
  0
LINE
  5
1D9
330
1F
100
AcDbEntity
  8
0
  6
CONTINUOUS
 62
     7
100
AcDbLine
 10
-276.6479174752927
 20
-178.5758811208414
 30
0.0
 11
-284.1534709747579
 21
-178.5758811208414
 31
0.0
  0
LINE
  5
1DA
330
1F
100
AcDbEntity
  8
0
  6
CONTINUOUS
 62
     7
100
AcDbLine
 10
-284.1534709747579
 20
-178.5758811208414
 30
0.0
 11
-287.9062477244904
 21
-185.0758811208414
 31
0.0
  0
LINE
  5
1DB
330
1F
100
AcDbEntity
  8
0
  6
CONTINUOUS
 62
     7
100
AcDbLine
 10
-287.9062477244904
 20
-185.0758811208414
 30
0.0
 11
-284.1534709747579
 21
-191.5758811208414
 31
0.0
  0
LINE
  5
1DC
330
1F
100
AcDbEntity
  8
0
  6
CONTINUOUS
 62
     7
100
AcDbLine
 10
-284.1534709747579
 20
-191.5758811208414
 30
0.0
 11
-276.6479174752927
 21
-191.5758811208414
 31
0.0
  0
LINE
  5
1DD
330
1F
100
AcDbEntity
  8
0
  6
CONTINUOUS
 62
     7
100
AcDbLine
 10
-276.6479174752927
 20
-191.5758811208414
 30
0.0
 11
-272.8951407255602
 21
-185.0758811208414
 31
0.0
  0
CIRCLE
  5
1DE
330
1F
100
AcDbEntity
  8
0
  6
CONTINUOUS
 62
     7
100
AcDbCircle
 10
-280.4006942250253
 20
-185.0758811208414
 30
0.0
 40
8.5
  0
LINE
  5
1DF
330
1F
100
AcDbEntity
  8
0
  6
CONTINUOUS
 62
     7
100
AcDbLine
 10
-396.4006942250253
 20
-602.1862512622902
 30
0.0
 11
-396.4006942250253
 21
-618.1862512622902
 31
0.0
  0
LINE
  5
1E0
330
1F
100
AcDbEntity
  8
0
  6
CONTINUOUS
 62
     7
100
AcDbLine
 10
-396.4006942250253
 20
-587.1862512623047
 30
0.0
 11
-396.4006942250253
 21
-633.1862512623047
 31
0.0
  0
LINE
  5
1E1
330
1F
100
AcDbEntity
  8
0
  6
CONTINUOUS
 62
     7
100
AcDbLine
 10
-396.4006942250253
 20
-587.1862512623047
 30
0.0
 11
-397.4006942250253
 21
-586.1862512623047
 31
0.0
  0
LINE
  5
1E2
330
1F
100
AcDbEntity
  8
0
  6
CONTINUOUS
 62
     7
100
AcDbLine
 10
-397.4006942250253
 20
-634.1862512623047
 30
0.0
 11
-396.4006942250253
 21
-633.1862512623047
 31
0.0
  0
LINE
  5
1E3
330
1F
100
AcDbEntity
  8
0
  6
CONTINUOUS
 62
     7
100
AcDbLine
 10
-396.4006942250248
 20
643.3796797753062
 30
0.0
 11
-396.4006942250248
 21
597.3796797753062
 31
0.0
  0
LINE
  5
1E4
330
1F
100
AcDbEntity
  8
0
  6
CONTINUOUS
 62
     7
100
AcDbLine
 10
-396.4006942250248
 20
643.3796797753062
 30
0.0
 11
-397.4006942250248
 21
644.3796797753062
 31
0.0
  0
LINE
  5
1E5
330
1F
100
AcDbEntity
  8
0
  6
CONTINUOUS
 62
     7
100
AcDbLine
 10
-397.4006942250248
 20
596.3796797753062
 30
0.0
 11
-396.4006942250248
 21
597.3796797753062
 31
0.0
  0
LINE
  5
1E6
330
1F
100
AcDbEntity
  8
0
  6
CONTINUOUS
 62
     7
100
AcDbLine
 10
-396.4006942250253
 20
-72.07588112085583
 30
0.0
 11
-396.4006942250253
 21
-118.0758811208558
 31
0.0
  0
LINE
  5
1E7
330
1F
100
AcDbEntity
  8
0
  6
CONTINUOUS
 62
     7
100
AcDbLine
 10
-396.4006942250253
 20
-72.07588112085583
 30
0.0
 11
-397.4006942250253
 21
-71.07588112085583
 31
0.0
  0
LINE
  5
1E8
330
1F
100
AcDbEntity
  8
0
  6
CONTINUOUS
 62
     7
100
AcDbLine
 10
-397.4006942250253
 20
-119.0758811208558
 30
0.0
 11
-396.4006942250253
 21
-118.0758811208558
 31
0.0
  0
LINE
  5
1E9
330
1F
100
AcDbEntity
  8
0
  6
CONTINUOUS
 62
     7
100
AcDbLine
 10
-254.6686434174608
 20
-182.0758811208414
 30
0.0
 11
-258.1327450325898
 21
-182.0758811208414
 31
0.0
  0
LINE
  5
1EA
330
1F
100
AcDbEntity
  8
0
  6
CONTINUOUS
 62
     7
100
AcDbLine
 10
-258.1327450325898
 20
-182.0758811208414
 30
0.0
 11
-259.8647958401543
 21
-185.0758811208414
 31
0.0
  0
LINE
  5
1EB
330
1F
100
AcDbEntity
  8
0
  6
CONTINUOUS
 62
     7
100
AcDbLine
 10
-259.8647958401543
 20
-185.0758811208414
 30
0.0
 11
-258.1327450325898
 21
-188.0758811208414
 31
0.0
  0
LINE
  5
1EC
330
1F
100
AcDbEntity
  8
0
  6
CONTINUOUS
 62
     7
100
AcDbLine
 10
-258.1327450325898
 20
-188.0758811208414
 30
0.0
 11
-254.6686434174608
 21
-188.0758811208414
 31
0.0
  0
LINE
  5
1ED
330
1F
100
AcDbEntity
  8
0
  6
CONTINUOUS
 62
     7
100
AcDbLine
 10
-254.6686434174608
 20
-188.0758811208414
 30
0.0
 11
-252.9365926098963
 21
-185.0758811208414
 31
0.0
  0
LINE
  5
1EE
330
1F
100
AcDbEntity
  8
0
  6
CONTINUOUS
 62
     7
100
AcDbLine
 10
-252.9365926098963
 20
-185.0758811208414
 30
0.0
 11
-254.6686434174608
 21
-182.0758811208414
 31
0.0
  0
LINE
  5
1EF
330
1F
100
AcDbEntity
  8
0
  6
CONTINUOUS
 62
     7
100
AcDbLine
 10
-278.6686434174608
 20
-182.0758811208414
 30
0.0
 11
-282.1327450325898
 21
-182.0758811208414
 31
0.0
  0
LINE
  5
1F0
330
1F
100
AcDbEntity
  8
0
  6
CONTINUOUS
 62
     7
100
AcDbLine
 10
-282.1327450325898
 20
-182.0758811208414
 30
0.0
 11
-283.8647958401543
 21
-185.0758811208414
 31
0.0
  0
LINE
  5
1F1
330
1F
100
AcDbEntity
  8
0
  6
CONTINUOUS
 62
     7
100
AcDbLine
 10
-283.8647958401543
 20
-185.0758811208414
 30
0.0
 11
-282.1327450325898
 21
-188.0758811208414
 31
0.0
  0
LINE
  5
1F2
330
1F
100
AcDbEntity
  8
0
  6
CONTINUOUS
 62
     7
100
AcDbLine
 10
-282.1327450325898
 20
-188.0758811208414
 30
0.0
 11
-278.6686434174608
 21
-188.0758811208414
 31
0.0
  0
LINE
  5
1F3
330
1F
100
AcDbEntity
  8
0
  6
CONTINUOUS
 62
     7
100
AcDbLine
 10
-278.6686434174608
 20
-188.0758811208414
 30
0.0
 11
-276.9365926098963
 21
-185.0758811208414
 31
0.0
  0
LINE
  5
1F4
330
1F
100
AcDbEntity
  8
0
  6
CONTINUOUS
 62
     7
100
AcDbLine
 10
-276.9365926098963
 20
-185.0758811208414
 30
0.0
 11
-278.6686434174608
 21
-182.0758811208414
 31
0.0
  0
CIRCLE
  5
1F5
330
1F
100
AcDbEntity
  8
0
  6
CONTINUOUS
 62
     7
100
AcDbCircle
 10
-252.9039130632761
 20
112.9241188791628
 30
0.0
 40
3.8
  0
CIRCLE
  5
1F6
330
1F
100
AcDbEntity
  8
0
  6
CONTINUOUS
 62
     7
100
AcDbCircle
 10
-381.4858429399674
 20
40.92411887916276
 30
0.0
 40
3.8
  0
CIRCLE
  5
1F7
330
1F
100
AcDbEntity
  8
0
  6
CONTINUOUS
 62
     7
100
AcDbCircle
 10
-381.4858429399674
 20
112.9241188791628
 30
0.0
 40
3.8
  0
CIRCLE
  5
1F8
330
1F
100
AcDbEntity
  8
0
  6
CONTINUOUS
 62
     7
100
AcDbCircle
 10
-317.1948780016218
 20
112.9241188791628
 30
0.0
 40
3.8
  0
CIRCLE
  5
1F9
330
1F
100
AcDbEntity
  8
0
  6
CONTINUOUS
 62
     7
100
AcDbCircle
 10
-317.1948780016218
 20
40.92411887916276
 30
0.0
 40
3.8
  0
CIRCLE
  5
1FA
330
1F
100
AcDbEntity
  8
0
  6
CONTINUOUS
 62
     7
100
AcDbCircle
 10
195.9844773351593
 20
481.8796797753178
 30
0.0
 40
25.00000000000016
  0
LINE
  5
1FB
330
1F
100
AcDbEntity
  8
0
  6
CONTINUOUS
 62
     7
100
AcDbLine
 10
362.9844773351595
 20
384.8796797753179
 30
0.0
 11
362.9844773351595
 21
406.8796797753182
 31
0.0
  0
LINE
  5
1FC
330
1F
100
AcDbEntity
  8
0
  6
CONTINUOUS
 62
     7
100
AcDbLine
 10
422.9844773351595
 20
587.879679775318
 30
0.0
 11
162.9844773351595
 21
587.879679775318
 31
0.0
  0
LINE
  5
1FD
330
1F
100
AcDbEntity
  8
0
  6
CONTINUOUS
 62
     7
100
AcDbLine
 10
162.9844773351595
 20
587.879679775318
 30
0.0
 11
162.9844773351595
 21
580.8796797753198
 31
0.0
  0
LINE
  5
1FE
330
1F
100
AcDbEntity
  8
0
  6
CONTINUOUS
 62
     7
100
AcDbLine
 10
246.9844773351595
 20
378.8796797753179
 30
0.0
 11
355.9844773351592
 21
378.8796797753171
 31
0.0
  0
LINE
  5
1FF
330
1F
100
AcDbEntity
  8
0
  6
CONTINUOUS
 62
     7
100
AcDbLine
 10
229.9844773351595
 20
378.8796797753179
 30
0.0
 11
236.9844773351595
 21
378.8796797753179
 31
0.0
  0
LINE
  5
200
330
1F
100
AcDbEntity
  8
0
  6
CONTINUOUS
 62
     7
100
AcDbLine
 10
236.9844773351595
 20
378.8796797753179
 30
0.0
 11
246.9844773351595
 21
378.8796797753179
 31
0.0
  0
ARC
  5
201
330
1F
100
AcDbEntity
  8
0
  6
CONTINUOUS
 62
     7
100
AcDbCircle
 10
366.9844773351595
 20
406.8796797753182
 30
0.0
 40
4.0
100
AcDbArc
 50
90.0
 51
180.0
  0
LINE
  5
202
330
1F
100
AcDbEntity
  8
0
  6
CONTINUOUS
 62
     7
100
AcDbLine
 10
422.9844773351595
 20
580.8796797753187
 30
0.0
 11
422.9844773351595
 21
587.879679775318
 31
0.0
  0
LINE
  5
203
330
1F
100
AcDbEntity
  8
0
  6
CONTINUOUS
 62
     7
100
AcDbLine
 10
195.9844773351595
 20
443.8796797753179
 30
0.0
 11
201.9686950457851
 21
443.8796797753179
 31
0.0
  0
ARC
  5
204
330
1F
100
AcDbEntity
  8
0
  6
CONTINUOUS
 62
     7
100
AcDbCircle
 10
1738.403831338222
 20
101.6386933038305
 30
0.0
 40
1400.0
100
AcDbArc
 50
159.9820212971835
 51
167.1084640929512
  0
ARC
  5
205
330
1F
100
AcDbEntity
  8
0
  6
CONTINUOUS
 62
     7
100
AcDbCircle
 10
166.070291326969
 20
525.6305823427779
 30
0.0
 40
15.0
100
AcDbArc
 50
304.3619278648677
 51
17.82624024393974
  0
ARC
  5
206
330
1F
100
AcDbEntity
  8
0
  6
CONTINUOUS
 62
     7
100
AcDbCircle
 10
-1152.434876667903
 20
101.6386933038305
 30
0.0
 40
1400.0
100
AcDbArc
 50
12.8915359070488
 51
14.02191293347583
  0
ARC
  5
207
330
1F
100
AcDbEntity
  8
0
  6
CONTINUOUS
 62
     7
100
AcDbCircle
 10
201.9686950457851
 20
439.8796797753179
 30
0.0
 40
4.0
100
AcDbArc
 50
14.02191293347845
 51
90.0
  0
ARC
  5
208
330
1F
100
AcDbEntity
  8
0
  6
CONTINUOUS
 62
     7
100
AcDbCircle
 10
216.17612883891
 20
414.8796797753182
 30
0.0
 40
4.0
100
AcDbArc
 50
192.8915359070489
 51
270.0
  0
ARC
  5
209
330
1F
100
AcDbEntity
  8
0
  6
CONTINUOUS
 62
     7
100
AcDbCircle
 10
369.7928258314093
 20
414.8796797753182
 30
0.0
 40
4.0
100
AcDbArc
 50
270.0
 51
347.1084640929496
  0
LINE
  5
20A
330
1F
100
AcDbEntity
  8
0
  6
CONTINUOUS
 62
     7
100
AcDbLine
 10
226.9844773351595
 20
380.8796797753179
 30
0.0
 11
358.9844773351595
 21
380.8796797753179
 31
0.0
  0
ARC
  5
20B
330
1F
100
AcDbEntity
  8
0
  6
CONTINUOUS
 62
     7
100
AcDbCircle
 10
226.9844773351595
 20
384.8796797753179
 30
0.0
 40
4.0
100
AcDbArc
 50
180.0
 51
270.0
  0
ARC
  5
20C
330
1F
100
AcDbEntity
  8
0
  6
CONTINUOUS
 62
     7
100
AcDbCircle
 10
226.9844773351597
 20
378.8796797753171
 30
0.0
 40
3.0
100
AcDbArc
 50
0.0
 51
41.81031489580113
  0
ARC
  5
20D
330
1F
100
AcDbEntity
  8
0
  6
CONTINUOUS
 62
     7
100
AcDbCircle
 10
358.9844773351595
 20
384.8796797753179
 30
0.0
 40
4.0
100
AcDbArc
 50
270.0
 51
0.0
  0
ARC
  5
20E
330
1F
100
AcDbEntity
  8
0
  6
CONTINUOUS
 62
     7
100
AcDbCircle
 10
358.9844773351592
 20
378.8796797753171
 30
0.0
 40
3.0
100
AcDbArc
 50
138.1896851041989
 51
180.0
  0
LINE
  5
20F
330
1F
100
AcDbEntity
  8
0
  6
CONTINUOUS
 62
     7
100
AcDbLine
 10
273.4844773351595
 20
373.8796797753175
 30
0.0
 11
312.4844773351595
 21
373.8796797753175
 31
0.0
  0
LINE
  5
210
330
1F
100
AcDbEntity
  8
0
  6
CONTINUOUS
 62
     7
100
AcDbLine
 10
273.4844773351595
 20
338.8796797753175
 30
0.0
 11
312.4844773351595
 21
338.8796797753175
 31
0.0
  0
LINE
  5
211
330
1F
100
AcDbEntity
  8
0
  6
CONTINUOUS
 62
     7
100
AcDbLine
 10
312.9844773351595
 20
375.8796797753175
 30
0.0
 11
312.9844773351595
 21
339.3796797753175
 31
0.0
  0
LINE
  5
212
330
1F
100
AcDbEntity
  8
0
  6
CONTINUOUS
 62
     7
100
AcDbLine
 10
272.9844773351595
 20
375.8796797753175
 30
0.0
 11
272.9844773351595
 21
339.3796797753175
 31
0.0
  0
LINE
  5
213
330
1F
100
AcDbEntity
  8
0
  6
CONTINUOUS
 62
     7
100
AcDbLine
 10
291.1883807107167
 20
339.3796797753175
 30
0.0
 11
291.1883807107167
 21
373.8796797753175
 31
0.0
  0
LINE
  5
214
330
1F
100
AcDbEntity
  8
0
  6
CONTINUOUS
 62
     7
100
AcDbLine
 10
273.4844773351595
 20
338.8796797753175
 30
0.0
 11
272.9844773351595
 21
339.3796797753175
 31
0.0
  0
LINE
  5
215
330
1F
100
AcDbEntity
  8
0
  6
CONTINUOUS
 62
     7
100
AcDbLine
 10
312.4844773351595
 20
338.8796797753175
 30
0.0
 11
312.9844773351595
 21
339.3796797753175
 31
0.0
  0
LINE
  5
216
330
1F
100
AcDbEntity
  8
0
  6
CONTINUOUS
 62
     7
100
AcDbLine
 10
273.4844773351595
 20
373.8796797753175
 30
0.0
 11
272.9844773351595
 21
374.3796797753175
 31
0.0
  0
LINE
  5
217
330
1F
100
AcDbEntity
  8
0
  6
CONTINUOUS
 62
     7
100
AcDbLine
 10
312.4844773351595
 20
373.8796797753175
 30
0.0
 11
312.9844773351595
 21
374.3796797753175
 31
0.0
  0
LINE
  5
218
330
1F
100
AcDbEntity
  8
0
  6
CONTINUOUS
 62
     7
100
AcDbLine
 10
294.7805739596022
 20
339.3796797753175
 30
0.0
 11
294.7805739596022
 21
373.8796797753175
 31
0.0
  0
LINE
  5
219
330
1F
100
AcDbEntity
  8
0
  6
CONTINUOUS
 62
     7
100
AcDbLine
 10
291.1883807107167
 20
339.3796797753175
 30
0.0
 11
290.6883807107167
 21
338.8796797753175
 31
0.0
  0
LINE
  5
21A
330
1F
100
AcDbEntity
  8
0
  6
CONTINUOUS
 62
     7
100
AcDbLine
 10
294.7805739596022
 20
339.3796797753175
 30
0.0
 11
295.2805739596022
 21
338.8796797753175
 31
0.0
  0
LINE
  5
21B
330
1F
100
AcDbEntity
  8
0
  6
CONTINUOUS
 62
     7
100
AcDbLine
 10
257.9844773351595
 20
375.8796797753175
 30
0.0
 11
327.9844773351595
 21
375.8796797753175
 31
0.0
  0
ARC
  5
21C
330
1F
100
AcDbEntity
  8
0
  6
CONTINUOUS
 62
     7
100
AcDbCircle
 10
-1152.434876667903
 20
101.6386933038305
 30
0.0
 40
1400.0
100
AcDbArc
 50
19.83967792751814
 51
20.01797870281651
  0
ARC
  5
21D
330
1F
100
AcDbEntity
  8
0
  6
CONTINUOUS
 62
     7
100
AcDbCircle
 10
-1152.434876667903
 20
101.6386933038305
 30
0.0
 40
1400.0
100
AcDbArc
 50
17.82624024394014
 51
18.89819365018293
  0
LINE
  5
21E
330
1F
100
AcDbEntity
  8
0
  6
CONTINUOUS
 62
     7
100
AcDbLine
 10
369.7928258314093
 20
410.8796797753182
 30
0.0
 11
266.4046449009927
 21
410.8796797753182
 31
0.0
  0
LINE
  5
21F
330
1F
100
AcDbEntity
  8
0
  6
CONTINUOUS
 62
     7
100
AcDbLine
 10
225.7838061866625
 20
410.8796797753182
 30
0.0
 11
216.17612883891
 21
410.8796797753182
 31
0.0
  0
LINE
  5
220
330
1F
100
AcDbEntity
  8
0
  6
CONTINUOUS
 62
     7
100
AcDbLine
 10
362.9844773351595
 20
385.5936475588017
 30
0.0
 11
362.9844773351595
 21
384.8796797753179
 31
0.0
  0
ARC
  5
221
330
1F
100
AcDbEntity
  8
0
  6
CONTINUOUS
 62
     7
100
AcDbCircle
 10
218.9844773351595
 20
406.8796797753182
 30
0.0
 40
4.0
100
AcDbArc
 50
39.631641473089
 51
90.0
  0
CIRCLE
  5
222
330
1F
100
AcDbEntity
  8
0
  6
CONTINUOUS
 62
     7
100
AcDbCircle
 10
166.106600904597
 20
499.129679775316
 30
0.0
 40
3.4
  0
LINE
  5
223
330
1F
100
AcDbEntity
  8
0
  6
CONTINUOUS
 62
     7
100
AcDbLine
 10
167.0303613352982
 20
500.7296797753159
 30
0.0
 11
165.182840473896
 21
500.7296797753159
 31
0.0
  0
LINE
  5
224
330
1F
100
AcDbEntity
  8
0
  6
CONTINUOUS
 62
     7
100
AcDbLine
 10
165.182840473896
 20
500.7296797753159
 30
0.0
 11
164.2590800431949
 21
499.129679775316
 31
0.0
  0
LINE
  5
225
330
1F
100
AcDbEntity
  8
0
  6
CONTINUOUS
 62
     7
100
AcDbLine
 10
164.2590800431949
 20
499.129679775316
 30
0.0
 11
165.182840473896
 21
497.529679775316
 31
0.0
  0
LINE
  5
226
330
1F
100
AcDbEntity
  8
0
  6
CONTINUOUS
 62
     7
100
AcDbLine
 10
165.182840473896
 20
497.529679775316
 30
0.0
 11
167.0303613352982
 21
497.529679775316
 31
0.0
  0
LINE
  5
227
330
1F
100
AcDbEntity
  8
0
  6
CONTINUOUS
 62
     7
100
AcDbLine
 10
167.0303613352982
 20
497.529679775316
 30
0.0
 11
167.9541217659992
 21
499.129679775316
 31
0.0
  0
LINE
  5
228
330
1F
100
AcDbEntity
  8
0
  6
CONTINUOUS
 62
     7
100
AcDbLine
 10
167.9541217659992
 20
499.129679775316
 30
0.0
 11
167.0303613352982
 21
500.7296797753159
 31
0.0
  0
CIRCLE
  5
229
330
1F
100
AcDbEntity
  8
0
  6
CONTINUOUS
 62
     7
100
AcDbCircle
 10
225.862353765723
 20
499.1296797753178
 30
0.0
 40
3.4
  0
LINE
  5
22A
330
1F
100
AcDbEntity
  8
0
  6
CONTINUOUS
 62
     7
100
AcDbLine
 10
226.7861141964241
 20
500.7296797753177
 30
0.0
 11
224.9385933350219
 21
500.7296797753177
 31
0.0
  0
LINE
  5
22B
330
1F
100
AcDbEntity
  8
0
  6
CONTINUOUS
 62
     7
100
AcDbLine
 10
224.9385933350219
 20
500.7296797753177
 30
0.0
 11
224.0148329043209
 21
499.1296797753178
 31
0.0
  0
LINE
  5
22C
330
1F
100
AcDbEntity
  8
0
  6
CONTINUOUS
 62
     7
100
AcDbLine
 10
224.0148329043209
 20
499.1296797753178
 30
0.0
 11
224.9385933350219
 21
497.5296797753178
 31
0.0
  0
LINE
  5
22D
330
1F
100
AcDbEntity
  8
0
  6
CONTINUOUS
 62
     7
100
AcDbLine
 10
224.9385933350219
 20
497.5296797753178
 30
0.0
 11
226.7861141964241
 21
497.5296797753178
 31
0.0
  0
LINE
  5
22E
330
1F
100
AcDbEntity
  8
0
  6
CONTINUOUS
 62
     7
100
AcDbLine
 10
226.7861141964241
 20
497.5296797753178
 30
0.0
 11
227.7098746271252
 21
499.1296797753178
 31
0.0
  0
LINE
  5
22F
330
1F
100
AcDbEntity
  8
0
  6
CONTINUOUS
 62
     7
100
AcDbLine
 10
227.7098746271252
 20
499.1296797753178
 30
0.0
 11
226.7861141964241
 21
500.7296797753177
 31
0.0
  0
CIRCLE
  5
230
330
1F
100
AcDbEntity
  8
0
  6
CONTINUOUS
 62
     7
100
AcDbCircle
 10
195.9844773351596
 20
447.3796797753178
 30
0.0
 40
3.4
  0
LINE
  5
231
330
1F
100
AcDbEntity
  8
0
  6
CONTINUOUS
 62
     7
100
AcDbLine
 10
196.9082377658607
 20
448.9796797753177
 30
0.0
 11
195.0607169044585
 21
448.9796797753177
 31
0.0
  0
LINE
  5
232
330
1F
100
AcDbEntity
  8
0
  6
CONTINUOUS
 62
     7
100
AcDbLine
 10
195.0607169044585
 20
448.9796797753177
 30
0.0
 11
194.1369564737574
 21
447.3796797753178
 31
0.0
  0
LINE
  5
233
330
1F
100
AcDbEntity
  8
0
  6
CONTINUOUS
 62
     7
100
AcDbLine
 10
194.1369564737574
 20
447.3796797753178
 30
0.0
 11
195.0607169044585
 21
445.7796797753178
 31
0.0
  0
LINE
  5
234
330
1F
100
AcDbEntity
  8
0
  6
CONTINUOUS
 62
     7
100
AcDbLine
 10
195.0607169044585
 20
445.7796797753178
 30
0.0
 11
196.9082377658607
 21
445.7796797753178
 31
0.0
  0
LINE
  5
235
330
1F
100
AcDbEntity
  8
0
  6
CONTINUOUS
 62
     7
100
AcDbLine
 10
196.9082377658607
 20
445.7796797753178
 30
0.0
 11
197.8319981965618
 21
447.3796797753178
 31
0.0
  0
LINE
  5
236
330
1F
100
AcDbEntity
  8
0
  6
CONTINUOUS
 62
     7
100
AcDbLine
 10
197.8319981965618
 20
447.3796797753178
 30
0.0
 11
196.9082377658607
 21
448.9796797753177
 31
0.0
  0
LINE
  5
237
330
1F
100
AcDbEntity
  8
0
  6
CONTINUOUS
 62
     7
100
AcDbLine
 10
437.3550211420834
 20
691.5562825364702
 30
0.0
 11
217.9845065480802
 21
691.5562825364423
 31
0.0
  0
LINE
  5
238
330
1F
100
AcDbEntity
  8
0
  6
CONTINUOUS
 62
     7
100
AcDbLine
 10
166.8970552615917
 20
691.5562825364227
 30
0.0
 11
217.9845065480802
 21
691.5562825364423
 31
0.0
  0
LINE
  5
239
330
1F
100
AcDbEntity
  8
0
  6
CONTINUOUS
 62
     7
100
AcDbLine
 10
362.3821342719464
 20
691.5562825364705
 30
0.0
 11
362.3821342719464
 21
612.8796797753421
 31
0.0
  0
LINE
  5
23A
330
1F
100
AcDbEntity
  8
0
  6
CONTINUOUS
 62
     7
100
AcDbLine
 10
439.750542116934
 20
682.7562825364703
 30
0.0
 11
439.750542116934
 21
621.6796797753425
 31
0.0
  0
LINE
  5
23B
330
1F
100
AcDbEntity
  8
0
  6
CONTINUOUS
 62
     7
100
AcDbLine
 10
382.0774292120935
 20
682.7562825364632
 30
0.0
 11
382.0774292120935
 21
621.6796797753493
 31
0.0
  0
LINE
  5
23C
330
1F
100
AcDbEntity
  8
0
  6
CONTINUOUS
 62
     7
100
AcDbLine
 10
375.1483327182594
 20
691.5562825364705
 30
0.0
 11
375.1483327182594
 21
612.8796797753421
 31
0.0
  0
LINE
  5
23D
330
1F
100
AcDbEntity
  8
0
  6
CONTINUOUS
 62
     7
100
AcDbLine
 10
437.3550211420845
 20
612.8796797753421
 30
0.0
 11
362.3821342719464
 21
612.8796797753421
 31
0.0
  0
LINE
  5
23E
330
1F
100
AcDbEntity
  8
0
  6
CONTINUOUS
 62
     7
100
AcDbLine
 10
325.7102061499552
 20
691.5562825364705
 30
0.0
 11
325.7102061499552
 21
617.8796797753246
 31
0.0
  0
LINE
  5
23F
330
1F
100
AcDbEntity
  8
0
  6
CONTINUOUS
 62
     7
100
AcDbLine
 10
292.9844773351422
 20
691.5562825364518
 30
0.0
 11
292.9844773351422
 21
617.879679775318
 31
0.0
  0
LINE
  5
240
330
1F
100
AcDbEntity
  8
0
  6
CONTINUOUS
 62
     7
100
AcDbLine
 10
362.3821342719464
 20
617.8796797753319
 30
0.0
 11
164.6391253743833
 21
617.8796797752921
 31
0.0
  0
LINE
  5
241
330
1F
100
AcDbEntity
  8
0
  6
CONTINUOUS
 62
     7
100
AcDbLine
 10
379.9525062873172
 20
691.556282536463
 30
0.0
 11
379.9525062873172
 21
682.75628253647
 31
0.0
  0
LINE
  5
242
330
1F
100
AcDbEntity
  8
0
  6
CONTINUOUS
 62
     7
100
AcDbLine
 10
385.9835198696351
 20
691.5562825364636
 30
0.0
 11
385.9835198696351
 21
682.75628253647
 31
0.0
  0
LINE
  5
243
330
1F
100
AcDbEntity
  8
0
  6
CONTINUOUS
 62
     7
100
AcDbLine
 10
436.4977329418305
 20
691.55628253647
 30
0.0
 11
436.4977329418307
 21
682.75628253647
 31
0.0
  0
LINE
  5
244
330
1F
100
AcDbEntity
  8
0
  6
CONTINUOUS
 62
     7
100
AcDbLine
 10
436.4977329418307
 20
682.75628253647
 30
0.0
 11
439.7505421169342
 21
682.7562825364705
 31
0.0
  0
LINE
  5
245
330
1F
100
AcDbEntity
  8
0
  6
CONTINUOUS
 62
     7
100
AcDbLine
 10
385.9835198696356
 20
682.7562825364637
 30
0.0
 11
379.9525062873176
 21
682.756282536463
 31
0.0
  0
LINE
  5
246
330
1F
100
AcDbEntity
  8
0
  6
CONTINUOUS
 62
     7
100
AcDbLine
 10
437.3550211420845
 20
691.5562825364702
 30
0.0
 11
437.3550211420845
 21
682.7562825364703
 31
0.0
  0
LINE
  5
247
330
1F
100
AcDbEntity
  8
0
  6
CONTINUOUS
 62
     7
100
AcDbLine
 10
379.9525062873172
 20
612.8796797753496
 30
0.0
 11
379.9525062873172
 21
621.6796797753425
 31
0.0
  0
LINE
  5
248
330
1F
100
AcDbEntity
  8
0
  6
CONTINUOUS
 62
     7
100
AcDbLine
 10
385.9835198696351
 20
612.8796797753489
 30
0.0
 11
385.9835198696351
 21
621.6796797753425
 31
0.0
  0
LINE
  5
249
330
1F
100
AcDbEntity
  8
0
  6
CONTINUOUS
 62
     7
100
AcDbLine
 10
385.9835198696356
 20
621.6796797753489
 30
0.0
 11
379.9525062873176
 21
621.6796797753495
 31
0.0
  0
LINE
  5
24A
330
1F
100
AcDbEntity
  8
0
  6
CONTINUOUS
 62
     7
100
AcDbLine
 10
436.4977329418305
 20
612.8796797753425
 30
0.0
 11
436.4977329418307
 21
621.6796797753425
 31
0.0
  0
LINE
  5
24B
330
1F
100
AcDbEntity
  8
0
  6
CONTINUOUS
 62
     7
100
AcDbLine
 10
436.4977329418307
 20
621.6796797753425
 30
0.0
 11
439.7505421169342
 21
621.679679775342
 31
0.0
  0
LINE
  5
24C
330
1F
100
AcDbEntity
  8
0
  6
CONTINUOUS
 62
     7
100
AcDbLine
 10
437.3550211420845
 20
612.8796797753423
 30
0.0
 11
437.3550211420845
 21
621.6796797753423
 31
0.0
  0
LINE
  5
24D
330
1F
100
AcDbEntity
  8
0
  6
CONTINUOUS
 62
     7
100
AcDbLine
 10
381.4705677812823
 20
683.0062848967907
 30
0.0
 11
381.4617155032595
 21
691.3062801761344
 31
0.0
  0
LINE
  5
24E
330
1F
100
AcDbEntity
  8
0
  6
CONTINUOUS
 62
     7
100
AcDbLine
 10
381.4705677812823
 20
683.0062848967907
 30
0.0
 11
383.1704081872017
 21
683.1568286573822
 31
0.0
  0
LINE
  5
24F
330
1F
100
AcDbEntity
  8
0
  6
CONTINUOUS
 62
     7
100
AcDbLine
 10
381.4617155032595
 20
691.3062801761344
 30
0.0
 11
383.1618731635614
 21
691.1593626499223
 31
0.0
  0
ARC
  5
250
330
1F
100
AcDbEntity
  8
0
  6
CONTINUOUS
 62
     7
100
AcDbCircle
 10
373.559798772195
 20
687.1478501045153
 30
0.0
 40
10.40634736683772
100
AcDbArc
 50
337.4482338292223
 51
22.67398262063434
  0
LINE
  5
251
330
1F
100
AcDbEntity
  8
0
  6
CONTINUOUS
 62
     7
100
AcDbLine
 10
383.3966571786034
 20
683.7525176890422
 30
0.0
 11
383.3966571786034
 21
682.7562825364635
 31
0.0
  0
LINE
  5
252
330
1F
100
AcDbEntity
  8
0
  6
CONTINUOUS
 62
     7
100
AcDbLine
 10
383.3966571786034
 20
690.5431825199885
 30
0.0
 11
383.3966571786034
 21
691.5562825364634
 31
0.0
  0
LINE
  5
253
330
1F
100
AcDbEntity
  8
0
  6
CONTINUOUS
 62
     7
100
AcDbLine
 10
381.4705677812823
 20
613.1296821356702
 30
0.0
 11
381.4617155032595
 21
621.4296774150139
 31
0.0
  0
LINE
  5
254
330
1F
100
AcDbEntity
  8
0
  6
CONTINUOUS
 62
     7
100
AcDbLine
 10
381.4705677812823
 20
613.1296821356702
 30
0.0
 11
383.1704081872017
 21
613.2802258962618
 31
0.0
  0
LINE
  5
255
330
1F
100
AcDbEntity
  8
0
  6
CONTINUOUS
 62
     7
100
AcDbLine
 10
381.4617155032595
 20
621.4296774150139
 30
0.0
 11
383.1618731635614
 21
621.2827598888018
 31
0.0
  0
ARC
  5
256
330
1F
100
AcDbEntity
  8
0
  6
CONTINUOUS
 62
     7
100
AcDbCircle
 10
373.559798772195
 20
617.2712473433949
 30
0.0
 40
10.40634736683772
100
AcDbArc
 50
337.4482338292223
 51
22.67398262063434
  0
LINE
  5
257
330
1F
100
AcDbEntity
  8
0
  6
CONTINUOUS
 62
     7
100
AcDbLine
 10
383.3966571786034
 20
613.8759149279217
 30
0.0
 11
383.3966571786034
 21
612.879679775343
 31
0.0
  0
LINE
  5
258
330
1F
100
AcDbEntity
  8
0
  6
CONTINUOUS
 62
     7
100
AcDbLine
 10
383.3966571786034
 20
620.666579758868
 30
0.0
 11
383.3966571786034
 21
621.679679775343
 31
0.0
  0
LINE
  5
259
330
1F
100
AcDbEntity
  8
0
  6
CONTINUOUS
 62
     7
100
AcDbLine
 10
325.4844773351358
 20
712.879679775318
 30
0.0
 11
325.4844773351358
 21
714.4431097979264
 31
0.0
  0
LINE
  5
25A
330
1F
100
AcDbEntity
  8
0
  6
CONTINUOUS
 62
     7
100
AcDbLine
 10
260.4844773351358
 20
712.879679775318
 30
0.0
 11
260.4844773351358
 21
714.4431097979264
 31
0.0
  0
ARC
  5
25B
330
1F
100
AcDbEntity
  8
0
  6
CONTINUOUS
 62
     7
100
AcDbCircle
 10
292.9844773351358
 20
567.7368226324484
 30
0.0
 40
152.6428571428578
100
AcDbArc
 50
78.63046791182735
 51
101.3695320881726
  0
ARC
  5
25C
330
1F
100
AcDbEntity
  8
0
  6
CONTINUOUS
 62
     7
100
AcDbCircle
 10
263.4844773351358
 20
714.4431097979264
 30
0.0
 40
3.0
100
AcDbArc
 50
101.3695320881725
 51
180.0
  0
ARC
  5
25D
330
1F
100
AcDbEntity
  8
0
  6
CONTINUOUS
 62
     7
100
AcDbCircle
 10
322.4844773351358
 20
714.4431097979264
 30
0.0
 40
3.0
100
AcDbArc
 50
0.0
 51
78.63046791182747
  0
CIRCLE
  5
25E
330
1F
100
AcDbEntity
  8
0
  6
CONTINUOUS
 62
     7
100
AcDbCircle
 10
-252.9039130632761
 20
40.92411887916276
 30
0.0
 40
3.799999999999997
  0
LINE
  5
25F
330
1F
100
AcDbEntity
  8
0
  6
CONTINUOUS
 62
     7
100
AcDbLine
 10
179.9557594549882
 20
-190.3993811208444
 30
0.0
 11
180.6322594549882
 21
-191.0758811208444
 31
0.0
  0
LINE
  5
260
330
1F
100
AcDbEntity
  8
0
  6
CONTINUOUS
 62
     7
100
AcDbLine
 10
180.6322594549882
 20
-183.0758811208444
 30
0.0
 11
179.9557594549882
 21
-183.7523811208445
 31
0.0
  0
LINE
  5
261
330
1F
100
AcDbEntity
  8
0
  6
CONTINUOUS
 62
     7
100
AcDbLine
 10
179.9557594549882
 20
-190.3993811208444
 30
0.0
 11
179.9557594549882
 21
-183.7523811208445
 31
0.0
  0
LINE
  5
262
330
1F
100
AcDbEntity
  8
0
  6
CONTINUOUS
 62
     7
100
AcDbLine
 10
191.9557594549883
 20
-182.0758811208444
 30
0.0
 11
191.9557594549883
 21
-183.0758811208444
 31
0.0
  0
LINE
  5
263
330
1F
100
AcDbEntity
  8
0
  6
CONTINUOUS
 62
     7
100
AcDbLine
 10
188.3557594549883
 20
-179.3758811208437
 30
0.0
 11
190.3557594549883
 21
-179.3758811208437
 31
0.0
  0
LINE
  5
264
330
1F
100
AcDbEntity
  8
0
  6
CONTINUOUS
 62
     7
100
AcDbLine
 10
188.3557594549883
 20
-194.7758811208437
 30
0.0
 11
190.3557594549883
 21
-194.7758811208437
 31
0.0
  0
LINE
  5
265
330
1F
100
AcDbEntity
  8
0
  6
CONTINUOUS
 62
     7
100
AcDbLine
 10
187.7752028713875
 20
-194.5814346203066
 30
0.0
 11
182.136316038589
 21
-194.5814346203066
 31
0.0
  0
LINE
  5
266
330
1F
100
AcDbEntity
  8
0
  6
CONTINUOUS
 62
     7
100
AcDbLine
 10
182.136316038589
 20
-190.8286578705739
 30
0.0
 11
187.7752028713875
 21
-190.8286578705739
 31
0.0
  0
LINE
  5
267
330
1F
100
AcDbEntity
  8
0
  6
CONTINUOUS
 62
     7
100
AcDbLine
 10
181.5557594549882
 20
-192.710906069817
 30
0.0
 11
181.5557594549882
 21
-181.4525758206239
 31
0.0
  0
LINE
  5
268
330
1F
100
AcDbEntity
  8
0
  6
CONTINUOUS
 62
     7
100
AcDbLine
 10
187.7752028713875
 20
-179.5703276213762
 30
0.0
 11
182.136316038589
 21
-179.5703276213762
 31
0.0
  0
LINE
  5
269
330
1F
100
AcDbEntity
  8
0
  6
CONTINUOUS
 62
     7
100
AcDbLine
 10
187.7752028713875
 20
-183.3231043711088
 30
0.0
 11
182.136316038589
 21
-183.3231043711088
 31
0.0
  0
ARC
  5
26A
330
1F
100
AcDbEntity
  8
0
  6
CONTINUOUS
 62
     7
100
AcDbCircle
 10
184.8782994549882
 20
-192.7050462454403
 30
0.0
 40
3.322545167359166
100
AcDbArc
 50
145.6154645302661
 51
205.6165354697341
  0
ARC
  5
26B
330
1F
100
AcDbEntity
  8
0
  6
CONTINUOUS
 62
     7
100
AcDbCircle
 10
184.8782994549882
 20
-181.4467159962426
 30
0.0
 40
3.322545167359174
100
AcDbArc
 50
154.3834645302659
 51
214.3845354697339
  0
ARC
  5
26C
330
1F
100
AcDbEntity
  8
0
  6
CONTINUOUS
 62
     7
100
AcDbCircle
 10
193.9751794549883
 20
-187.0758811208414
 30
0.0
 40
12.41942109461989
100
AcDbArc
 50
162.4120135828616
 51
197.5879864171384
  0
ARC
  5
26D
330
1F
100
AcDbEntity
  8
0
  6
CONTINUOUS
 62
     7
100
AcDbCircle
 10
185.0332194549883
 20
-192.7050462454403
 30
0.0
 40
3.322545167359174
100
AcDbArc
 50
334.3834645302659
 51
34.38453546973393
  0
ARC
  5
26E
330
1F
100
AcDbEntity
  8
0
  6
CONTINUOUS
 62
     7
100
AcDbCircle
 10
175.9363394549883
 20
-187.0758811208414
 30
0.0
 40
12.41942109461987
100
AcDbArc
 50
342.4120135828616
 51
17.58798641713845
  0
ARC
  5
26F
330
1F
100
AcDbEntity
  8
0
  6
CONTINUOUS
 62
     7
100
AcDbCircle
 10
185.0332194549883
 20
-181.4467159962426
 30
0.0
 40
3.322545167359166
100
AcDbArc
 50
325.6154645302661
 51
25.61653546973413
  0
LINE
  5
270
330
1F
100
AcDbEntity
  8
0
  6
CONTINUOUS
 62
     7
100
AcDbLine
 10
181.8823077467887
 20
-194.1414793533645
 30
0.0
 11
182.136316038589
 21
-194.5814346203066
 31
0.0
  0
LINE
  5
271
330
1F
100
AcDbEntity
  8
0
  6
CONTINUOUS
 62
     7
100
AcDbLine
 10
181.8823077467886
 20
-180.0102828883183
 30
0.0
 11
182.136316038589
 21
-179.5703276213762
 31
0.0
  0
LINE
  5
272
330
1F
100
AcDbEntity
  8
0
  6
CONTINUOUS
 62
     7
100
AcDbLine
 10
188.0292111631879
 20
-194.1414793533645
 30
0.0
 11
187.7752028713875
 21
-194.5814346203066
 31
0.0
  0
LINE
  5
273
330
1F
100
AcDbEntity
  8
0
  6
CONTINUOUS
 62
     7
100
AcDbLine
 10
188.0292111631879
 20
-180.0102828883183
 30
0.0
 11
187.7752028713875
 21
-179.5703276213762
 31
0.0
  0
LINE
  5
274
330
1F
100
AcDbEntity
  8
0
  6
CONTINUOUS
 62
     7
100
AcDbLine
 10
188.3557594549883
 20
-192.7109060698216
 30
0.0
 11
188.3557594549883
 21
-181.4408561718657
 31
0.0
  0
LINE
  5
275
330
1F
100
AcDbEntity
  8
0
  6
CONTINUOUS
 62
     7
100
AcDbLine
 10
190.3557594549883
 20
-194.7758811208437
 30
0.0
 11
190.3557594549883
 21
-179.3363291763307
 31
0.0
  0
LINE
  5
276
330
1F
100
AcDbEntity
  8
0
  6
CONTINUOUS
 62
     7
100
AcDbLine
 10
188.3557594549883
 20
-179.3758811208437
 30
0.0
 11
188.3557594549883
 21
-194.7758811208437
 31
0.0
  0
LINE
  5
277
330
1F
100
AcDbEntity
  8
0
  6
CONTINUOUS
 62
     7
100
AcDbLine
 10
190.3557594549883
 20
-195.575881120843
 30
0.0
 11
190.3557594549883
 21
-178.575881120843
 31
0.0
  0
LINE
  5
278
330
1F
100
AcDbEntity
  8
0
  6
CONTINUOUS
 62
     7
100
AcDbLine
 10
190.3557594549883
 20
-178.575881120843
 30
0.0
 11
191.9557594549883
 21
-178.575881120843
 31
0.0
  0
LINE
  5
279
330
1F
100
AcDbEntity
  8
0
  6
CONTINUOUS
 62
     7
100
AcDbLine
 10
191.9557594549883
 20
-178.575881120843
 30
0.0
 11
191.9557594549883
 21
-195.575881120843
 31
0.0
  0
LINE
  5
27A
330
1F
100
AcDbEntity
  8
0
  6
CONTINUOUS
 62
     7
100
AcDbLine
 10
191.9557594549883
 20
-195.575881120843
 30
0.0
 11
190.3557594549883
 21
-195.575881120843
 31
0.0
  0
LINE
  5
27B
330
1F
100
AcDbEntity
  8
0
  6
CONTINUOUS
 62
     7
100
AcDbLine
 10
181.5557594549882
 20
-191.0758811208444
 30
0.0
 11
180.6322594549882
 21
-191.0758811208444
 31
0.0
  0
LINE
  5
27C
330
1F
100
AcDbEntity
  8
0
  6
CONTINUOUS
 62
     7
100
AcDbLine
 10
181.5557594549882
 20
-183.0758811208444
 30
0.0
 11
180.6322594549882
 21
-183.0758811208444
 31
0.0
  0
LINE
  5
27D
330
1F
100
AcDbEntity
  8
0
  6
CONTINUOUS
 62
     7
100
AcDbLine
 10
374.3079773351596
 20
393.8796797753147
 30
0.0
 11
374.9844773351596
 21
393.2031797753147
 31
0.0
  0
LINE
  5
27E
330
1F
100
AcDbEntity
  8
0
  6
CONTINUOUS
 62
     7
100
AcDbLine
 10
374.9844773351596
 20
386.5561797753148
 30
0.0
 11
374.9844773351596
 21
393.2031797753147
 31
0.0
  0
LINE
  5
27F
330
1F
100
AcDbEntity
  8
0
  6
CONTINUOUS
 62
     7
100
AcDbLine
 10
362.9844773351596
 20
394.8796797753147
 30
0.0
 11
362.9844773351596
 21
393.8796797753147
 31
0.0
  0
LINE
  5
280
330
1F
100
AcDbEntity
  8
0
  6
CONTINUOUS
 62
     7
100
AcDbLine
 10
366.5844773351595
 20
397.5796797753155
 30
0.0
 11
364.5844773351595
 21
397.5796797753155
 31
0.0
  0
LINE
  5
281
330
1F
100
AcDbEntity
  8
0
  6
CONTINUOUS
 62
     7
100
AcDbLine
 10
372.8039207515588
 20
386.1269030255852
 30
0.0
 11
367.1650339187603
 21
386.1269030255852
 31
0.0
  0
LINE
  5
282
330
1F
100
AcDbEntity
  8
0
  6
CONTINUOUS
 62
     7
100
AcDbLine
 10
367.1650339187603
 20
397.3852332747829
 30
0.0
 11
372.8039207515588
 21
397.3852332747829
 31
0.0
  0
LINE
  5
283
330
1F
100
AcDbEntity
  8
0
  6
CONTINUOUS
 62
     7
100
AcDbLine
 10
367.1650339187603
 20
393.6324565250504
 30
0.0
 11
372.8039207515588
 21
393.6324565250504
 31
0.0
  0
ARC
  5
284
330
1F
100
AcDbEntity
  8
0
  6
CONTINUOUS
 62
     7
100
AcDbCircle
 10
370.0619373351596
 20
395.5088448999167
 30
0.0
 40
3.322545167359174
100
AcDbArc
 50
325.6154645302661
 51
25.61653546973413
  0
ARC
  5
285
330
1F
100
AcDbEntity
  8
0
  6
CONTINUOUS
 62
     7
100
AcDbCircle
 10
360.9650573351595
 20
389.8796797753178
 30
0.0
 40
12.41942109461989
100
AcDbArc
 50
342.4120135828616
 51
17.58798641713845
  0
ARC
  5
286
330
1F
100
AcDbEntity
  8
0
  6
CONTINUOUS
 62
     7
100
AcDbCircle
 10
379.0038973351595
 20
389.8796797753178
 30
0.0
 40
12.41942109461987
100
AcDbArc
 50
162.4120135828616
 51
197.5879864171384
  0
ARC
  5
287
330
1F
100
AcDbEntity
  8
0
  6
CONTINUOUS
 62
     7
100
AcDbCircle
 10
369.9070173351595
 20
395.5088448999167
 30
0.0
 40
3.322545167359166
100
AcDbArc
 50
154.3834645302659
 51
214.3845354697339
  0
LINE
  5
288
330
1F
100
AcDbEntity
  8
0
  6
CONTINUOUS
 62
     7
100
AcDbLine
 10
373.0579290433593
 20
396.9452780078408
 30
0.0
 11
372.8039207515588
 21
397.3852332747829
 31
0.0
  0
LINE
  5
289
330
1F
100
AcDbEntity
  8
0
  6
CONTINUOUS
 62
     7
100
AcDbLine
 10
366.9110256269599
 20
396.9452780078408
 30
0.0
 11
367.1650339187603
 21
397.3852332747829
 31
0.0
  0
LINE
  5
28A
330
1F
100
AcDbEntity
  8
0
  6
CONTINUOUS
 62
     7
100
AcDbLine
 10
364.5844773351595
 20
398.3796797753163
 30
0.0
 11
362.9844773351596
 21
398.3796797753163
 31
0.0
  0
LINE
  5
28B
330
1F
100
AcDbEntity
  8
0
  6
CONTINUOUS
 62
     7
100
AcDbLine
 10
373.3844773351596
 20
393.8796797753147
 30
0.0
 11
374.3079773351596
 21
393.8796797753147
 31
0.0
  0
LINE
  5
28C
330
1F
100
AcDbEntity
  8
0
  6
CONTINUOUS
 62
     7
100
AcDbLine
 10
374.9844773351596
 20
386.5561797753148
 30
0.0
 11
374.3079773351596
 21
385.8796797753147
 31
0.0
  0
LINE
  5
28D
330
1F
100
AcDbEntity
  8
0
  6
CONTINUOUS
 62
     7
100
AcDbLine
 10
366.5844773351595
 20
382.1796797753156
 30
0.0
 11
364.5844773351595
 21
382.1796797753156
 31
0.0
  0
LINE
  5
28E
330
1F
100
AcDbEntity
  8
0
  6
CONTINUOUS
 62
     7
100
AcDbLine
 10
367.1650339187603
 20
382.3741262758526
 30
0.0
 11
372.8039207515588
 21
382.3741262758526
 31
0.0
  0
LINE
  5
28F
330
1F
100
AcDbEntity
  8
0
  6
CONTINUOUS
 62
     7
100
AcDbLine
 10
373.3844773351596
 20
384.2446548263421
 30
0.0
 11
373.3844773351596
 21
395.5029850755353
 31
0.0
  0
ARC
  5
290
330
1F
100
AcDbEntity
  8
0
  6
CONTINUOUS
 62
     7
100
AcDbCircle
 10
370.0619373351596
 20
384.2505146507189
 30
0.0
 40
3.322545167359166
100
AcDbArc
 50
334.3834645302659
 51
34.38453546973393
  0
ARC
  5
291
330
1F
100
AcDbEntity
  8
0
  6
CONTINUOUS
 62
     7
100
AcDbCircle
 10
369.9070173351595
 20
384.2505146507189
 30
0.0
 40
3.322545167359174
100
AcDbArc
 50
145.6154645302661
 51
205.6165354697341
  0
LINE
  5
292
330
1F
100
AcDbEntity
  8
0
  6
CONTINUOUS
 62
     7
100
AcDbLine
 10
373.0579290433591
 20
382.8140815427948
 30
0.0
 11
372.8039207515588
 21
382.3741262758526
 31
0.0
  0
LINE
  5
293
330
1F
100
AcDbEntity
  8
0
  6
CONTINUOUS
 62
     7
100
AcDbLine
 10
366.9110256269599
 20
382.8140815427948
 30
0.0
 11
367.1650339187603
 21
382.3741262758526
 31
0.0
  0
LINE
  5
294
330
1F
100
AcDbEntity
  8
0
  6
CONTINUOUS
 62
     7
100
AcDbLine
 10
366.5844773351595
 20
384.2446548263376
 30
0.0
 11
366.5844773351595
 21
395.5147047242935
 31
0.0
  0
LINE
  5
295
330
1F
100
AcDbEntity
  8
0
  6
CONTINUOUS
 62
     7
100
AcDbLine
 10
364.5844773351595
 20
382.1796797753156
 30
0.0
 11
364.5844773351595
 21
397.6192317198285
 31
0.0
  0
LINE
  5
296
330
1F
100
AcDbEntity
  8
0
  6
CONTINUOUS
 62
     7
100
AcDbLine
 10
366.5844773351595
 20
397.5796797753155
 30
0.0
 11
366.5844773351595
 21
382.1796797753156
 31
0.0
  0
LINE
  5
297
330
1F
100
AcDbEntity
  8
0
  6
CONTINUOUS
 62
     7
100
AcDbLine
 10
364.5844773351595
 20
381.3796797753163
 30
0.0
 11
364.5844773351595
 21
398.3796797753163
 31
0.0
  0
LINE
  5
298
330
1F
100
AcDbEntity
  8
0
  6
CONTINUOUS
 62
     7
100
AcDbLine
 10
362.9844773351596
 20
398.3796797753163
 30
0.0
 11
362.9844773351596
 21
381.3796797753163
 31
0.0
  0
LINE
  5
299
330
1F
100
AcDbEntity
  8
0
  6
CONTINUOUS
 62
     7
100
AcDbLine
 10
362.9844773351596
 20
381.3796797753163
 30
0.0
 11
364.5844773351595
 21
381.3796797753163
 31
0.0
  0
LINE
  5
29A
330
1F
100
AcDbEntity
  8
0
  6
CONTINUOUS
 62
     7
100
AcDbLine
 10
373.3844773351596
 20
385.8796797753147
 30
0.0
 11
374.3079773351596
 21
385.8796797753147
 31
0.0
  0
LINE
  5
29B
330
1F
100
AcDbEntity
  8
0
  6
CONTINUOUS
 62
     7
100
AcDbLine
 10
195.9844773351596
 20
474.8086119634525
 30
0.0
 11
203.055545147025
 21
481.879679775318
 31
0.0
  0
LINE
  5
29C
330
1F
100
AcDbEntity
  8
0
  6
CONTINUOUS
 62
     7
100
AcDbLine
 10
195.9844773351596
 20
488.9507475871835
 30
0.0
 11
188.913409523294
 21
481.879679775318
 31
0.0
  0
LINE
  5
29D
330
1F
100
AcDbEntity
  8
0
  6
CONTINUOUS
 62
     7
100
AcDbLine
 10
188.913409523294
 20
481.879679775318
 30
0.0
 11
195.9844773351596
 21
474.8086119634525
 31
0.0
  0
LINE
  5
29E
330
1F
100
AcDbEntity
  8
0
  6
CONTINUOUS
 62
     7
100
AcDbLine
 10
203.055545147025
 20
481.879679775318
 30
0.0
 11
195.9844773351596
 21
488.9507475871835
 31
0.0
  0
ELLIPSE
  5
29F
330
1F
100
AcDbEntity
  8
0
  6
CONTINUOUS
 62
     7
100
AcDbEllipse
 10
-268.4006942250253
 20
10.92411887915867
 30
0.0
 11
0.0
 21
-39.08505712571139
 31
0.0
210
0.0
220
0.0
230
1.0
 40
0.4154408443211794
 41
4.71238898038467
 42
7.853981633974067
  0
LINE
  5
2A0
330
1F
100
AcDbEntity
  8
0
  6
CONTINUOUS
 62
     7
100
AcDbLine
 10
-263.1506942250256
 20
10.9241188791589
 30
0.0
 11
-264.4006942250256
 21
10.9241188791589
 31
0.0
  0
LINE
  5
2A1
330
1F
100
AcDbEntity
  8
0
  6
CONTINUOUS
 62
     7
100
AcDbLine
 10
-272.4006942250256
 20
10.9241188791589
 30
0.0
 11
-264.4006942250256
 21
10.9241188791589
 31
0.0
  0
LINE
  5
2A2
330
1F
100
AcDbEntity
  8
0
  6
CONTINUOUS
 62
     7
100
AcDbLine
 10
-272.6506942250257
 20
8.624118879158488
 30
0.0
 11
-272.6506942250257
 21
4.124118879158488
 31
0.0
  0
LINE
  5
2A3
330
1F
100
AcDbEntity
  8
0
  6
CONTINUOUS
 62
     7
100
AcDbLine
 10
-272.6506942250257
 20
4.124118879158488
 30
0.0
 11
-272.1506942250257
 21
3.624118879158488
 31
0.0
  0
LINE
  5
2A4
330
1F
100
AcDbEntity
  8
0
  6
CONTINUOUS
 62
     7
100
AcDbLine
 10
-272.6506942250257
 20
8.624118879158488
 30
0.0
 11
-264.1506942250257
 21
8.624118879158488
 31
0.0
  0
LINE
  5
2A5
330
1F
100
AcDbEntity
  8
0
  6
CONTINUOUS
 62
     7
100
AcDbLine
 10
-264.1506942250257
 20
8.624118879158488
 30
0.0
 11
-264.1506942250257
 21
4.124118879158488
 31
0.0
  0
LINE
  5
2A6
330
1F
100
AcDbEntity
  8
0
  6
CONTINUOUS
 62
     7
100
AcDbLine
 10
-264.1506942250257
 20
4.124118879158488
 30
0.0
 11
-264.6506942250257
 21
3.624118879158488
 31
0.0
  0
LINE
  5
2A7
330
1F
100
AcDbEntity
  8
0
  6
CONTINUOUS
 62
     7
100
AcDbLine
 10
-272.1506942250257
 20
3.624118879158488
 30
0.0
 11
-264.6506942250257
 21
3.624118879158488
 31
0.0
  0
LINE
  5
2A8
330
1F
100
AcDbEntity
  8
0
  6
CONTINUOUS
 62
     7
100
AcDbLine
 10
-273.4006942250257
 20
10.92411887915867
 30
0.0
 11
-263.4006942250257
 21
10.92411887915867
 31
0.0
  0
LINE
  5
2A9
330
1F
100
AcDbEntity
  8
0
  6
CONTINUOUS
 62
     7
100
AcDbLine
 10
-273.4006942250257
 20
9.92411887915867
 30
0.0
 11
-263.4006942250257
 21
9.92411887915867
 31
0.0
  0
LINE
  5
2AA
330
1F
100
AcDbEntity
  8
0
  6
CONTINUOUS
 62
     7
100
AcDbLine
 10
-273.4006942250257
 20
9.92411887915867
 30
0.0
 11
-273.4006942250257
 21
10.92411887915867
 31
0.0
  0
LINE
  5
2AB
330
1F
100
AcDbEntity
  8
0
  6
CONTINUOUS
 62
     7
100
AcDbLine
 10
-263.4006942250257
 20
9.92411887915867
 30
0.0
 11
-263.4006942250257
 21
10.92411887915867
 31
0.0
  0
LINE
  5
2AC
330
1F
100
AcDbEntity
  8
0
  6
CONTINUOUS
 62
     7
100
AcDbLine
 10
-273.0006942250261
 20
8.624118879158488
 30
0.0
 11
-263.8006942250254
 21
8.624118879158488
 31
0.0
  0
LINE
  5
2AD
330
1F
100
AcDbEntity
  8
0
  6
CONTINUOUS
 62
     7
100
AcDbLine
 10
-273.0006942250261
 20
8.624118879158488
 30
0.0
 11
-273.0006942250261
 21
9.92411887915867
 31
0.0
  0
LINE
  5
2AE
330
1F
100
AcDbEntity
  8
0
  6
CONTINUOUS
 62
     7
100
AcDbLine
 10
-263.8006942250254
 20
8.624118879158488
 30
0.0
 11
-263.8006942250254
 21
9.92411887915867
 31
0.0
  0
LINE
  5
2AF
330
1F
100
AcDbEntity
  8
0
  6
CONTINUOUS
 62
     7
100
AcDbLine
 10
-184.7194533579007
 20
10.9241188791589
 30
0.0
 11
-176.7194533579007
 21
10.9241188791589
 31
0.0
  0
LINE
  5
2B0
330
1F
100
AcDbEntity
  8
0
  6
CONTINUOUS
 62
     7
100
AcDbLine
 10
-184.9694533579009
 20
8.624118879158488
 30
0.0
 11
-184.9694533579009
 21
4.124118879158488
 31
0.0
  0
LINE
  5
2B1
330
1F
100
AcDbEntity
  8
0
  6
CONTINUOUS
 62
     7
100
AcDbLine
 10
-184.9694533579009
 20
4.124118879158488
 30
0.0
 11
-184.4694533579009
 21
3.624118879158488
 31
0.0
  0
LINE
  5
2B2
330
1F
100
AcDbEntity
  8
0
  6
CONTINUOUS
 62
     7
100
AcDbLine
 10
-184.9694533579009
 20
8.624118879158488
 30
0.0
 11
-176.4694533579009
 21
8.624118879158488
 31
0.0
  0
LINE
  5
2B3
330
1F
100
AcDbEntity
  8
0
  6
CONTINUOUS
 62
     7
100
AcDbLine
 10
-176.4694533579009
 20
8.624118879158488
 30
0.0
 11
-176.4694533579009
 21
4.124118879158488
 31
0.0
  0
LINE
  5
2B4
330
1F
100
AcDbEntity
  8
0
  6
CONTINUOUS
 62
     7
100
AcDbLine
 10
-176.4694533579009
 20
4.124118879158488
 30
0.0
 11
-176.9694533579009
 21
3.624118879158488
 31
0.0
  0
LINE
  5
2B5
330
1F
100
AcDbEntity
  8
0
  6
CONTINUOUS
 62
     7
100
AcDbLine
 10
-184.4694533579009
 20
3.624118879158488
 30
0.0
 11
-176.9694533579009
 21
3.624118879158488
 31
0.0
  0
LINE
  5
2B6
330
1F
100
AcDbEntity
  8
0
  6
CONTINUOUS
 62
     7
100
AcDbLine
 10
-185.7194533579009
 20
10.92411887915867
 30
0.0
 11
-175.7194533579009
 21
10.92411887915867
 31
0.0
  0
LINE
  5
2B7
330
1F
100
AcDbEntity
  8
0
  6
CONTINUOUS
 62
     7
100
AcDbLine
 10
-185.7194533579009
 20
9.92411887915867
 30
0.0
 11
-175.7194533579009
 21
9.92411887915867
 31
0.0
  0
LINE
  5
2B8
330
1F
100
AcDbEntity
  8
0
  6
CONTINUOUS
 62
     7
100
AcDbLine
 10
-185.7194533579009
 20
9.92411887915867
 30
0.0
 11
-185.7194533579009
 21
10.92411887915867
 31
0.0
  0
LINE
  5
2B9
330
1F
100
AcDbEntity
  8
0
  6
CONTINUOUS
 62
     7
100
AcDbLine
 10
-175.7194533579009
 20
9.92411887915867
 30
0.0
 11
-175.7194533579009
 21
10.92411887915867
 31
0.0
  0
LINE
  5
2BA
330
1F
100
AcDbEntity
  8
0
  6
CONTINUOUS
 62
     7
100
AcDbLine
 10
-185.3194533579012
 20
8.624118879158488
 30
0.0
 11
-176.1194533579005
 21
8.624118879158488
 31
0.0
  0
LINE
  5
2BB
330
1F
100
AcDbEntity
  8
0
  6
CONTINUOUS
 62
     7
100
AcDbLine
 10
-185.3194533579012
 20
8.624118879158488
 30
0.0
 11
-185.3194533579012
 21
9.92411887915867
 31
0.0
  0
LINE
  5
2BC
330
1F
100
AcDbEntity
  8
0
  6
CONTINUOUS
 62
     7
100
AcDbLine
 10
-176.1194533579005
 20
8.624118879158488
 30
0.0
 11
-176.1194533579005
 21
9.92411887915867
 31
0.0
  0
ELLIPSE
  5
2BD
330
1F
100
AcDbEntity
  8
0
  6
CONTINUOUS
 62
     7
100
AcDbEllipse
 10
-180.7194533579004
 20
10.9241188791589
 30
0.0
 11
0.0
 21
-39.08505712571149
 31
0.0
210
0.0
220
0.0
230
1.0
 40
0.2298676067164857
 41
4.712388971838971
 42
6.283185307179583
  0
ELLIPSE
  5
2BE
330
1F
100
AcDbEntity
  8
0
  6
CONTINUOUS
 62
     7
100
AcDbEllipse
 10
-180.7194533579004
 20
10.9241188791589
 30
0.0
 11
-7.403571697381179E-14
 21
-39.08505712571165
 31
0.0
210
0.0
220
0.0
230
1.0
 40
0.383891864523409
 41
0.0
 42
1.570796326794513
  0
LINE
  5
2BF
330
1F
100
AcDbEntity
  8
0
  6
CONTINUOUS
 62
     7
100
AcDbLine
 10
-352.0819350921499
 20
10.9241188791589
 30
0.0
 11
-360.0819350921499
 21
10.9241188791589
 31
0.0
  0
LINE
  5
2C0
330
1F
100
AcDbEntity
  8
0
  6
CONTINUOUS
 62
     7
100
AcDbLine
 10
-351.8319350921497
 20
8.624118879158488
 30
0.0
 11
-351.8319350921497
 21
4.124118879158488
 31
0.0
  0
LINE
  5
2C1
330
1F
100
AcDbEntity
  8
0
  6
CONTINUOUS
 62
     7
100
AcDbLine
 10
-351.8319350921497
 20
4.124118879158488
 30
0.0
 11
-352.3319350921497
 21
3.624118879158488
 31
0.0
  0
LINE
  5
2C2
330
1F
100
AcDbEntity
  8
0
  6
CONTINUOUS
 62
     7
100
AcDbLine
 10
-351.8319350921497
 20
8.624118879158488
 30
0.0
 11
-360.3319350921497
 21
8.624118879158488
 31
0.0
  0
LINE
  5
2C3
330
1F
100
AcDbEntity
  8
0
  6
CONTINUOUS
 62
     7
100
AcDbLine
 10
-360.3319350921497
 20
8.624118879158488
 30
0.0
 11
-360.3319350921497
 21
4.124118879158488
 31
0.0
  0
LINE
  5
2C4
330
1F
100
AcDbEntity
  8
0
  6
CONTINUOUS
 62
     7
100
AcDbLine
 10
-360.3319350921497
 20
4.124118879158488
 30
0.0
 11
-359.8319350921497
 21
3.624118879158488
 31
0.0
  0
LINE
  5
2C5
330
1F
100
AcDbEntity
  8
0
  6
CONTINUOUS
 62
     7
100
AcDbLine
 10
-352.3319350921497
 20
3.624118879158488
 30
0.0
 11
-359.8319350921497
 21
3.624118879158488
 31
0.0
  0
LINE
  5
2C6
330
1F
100
AcDbEntity
  8
0
  6
CONTINUOUS
 62
     7
100
AcDbLine
 10
-351.0819350921497
 20
10.92411887915867
 30
0.0
 11
-361.0819350921497
 21
10.92411887915867
 31
0.0
  0
LINE
  5
2C7
330
1F
100
AcDbEntity
  8
0
  6
CONTINUOUS
 62
     7
100
AcDbLine
 10
-351.0819350921497
 20
9.92411887915867
 30
0.0
 11
-361.0819350921497
 21
9.92411887915867
 31
0.0
  0
LINE
  5
2C8
330
1F
100
AcDbEntity
  8
0
  6
CONTINUOUS
 62
     7
100
AcDbLine
 10
-351.0819350921497
 20
9.92411887915867
 30
0.0
 11
-351.0819350921497
 21
10.92411887915867
 31
0.0
  0
LINE
  5
2C9
330
1F
100
AcDbEntity
  8
0
  6
CONTINUOUS
 62
     7
100
AcDbLine
 10
-361.0819350921497
 20
9.92411887915867
 30
0.0
 11
-361.0819350921497
 21
10.92411887915867
 31
0.0
  0
LINE
  5
2CA
330
1F
100
AcDbEntity
  8
0
  6
CONTINUOUS
 62
     7
100
AcDbLine
 10
-351.4819350921493
 20
8.624118879158488
 30
0.0
 11
-360.6819350921501
 21
8.624118879158488
 31
0.0
  0
LINE
  5
2CB
330
1F
100
AcDbEntity
  8
0
  6
CONTINUOUS
 62
     7
100
AcDbLine
 10
-351.4819350921493
 20
8.624118879158488
 30
0.0
 11
-351.4819350921493
 21
9.92411887915867
 31
0.0
  0
LINE
  5
2CC
330
1F
100
AcDbEntity
  8
0
  6
CONTINUOUS
 62
     7
100
AcDbLine
 10
-360.6819350921501
 20
8.624118879158488
 30
0.0
 11
-360.6819350921501
 21
9.92411887915867
 31
0.0
  0
ELLIPSE
  5
2CD
330
1F
100
AcDbEntity
  8
0
  6
CONTINUOUS
 62
     7
100
AcDbEllipse
 10
-356.0819350921502
 20
10.9241188791589
 30
0.0
 11
0.0
 21
39.08505712571174
 31
0.0
210
0.0
220
0.0
230
1.0
 40
0.2298676067164857
 41
3.141592653589798
 42
4.71238898038492
  0
ELLIPSE
  5
2CE
330
1F
100
AcDbEntity
  8
0
  6
CONTINUOUS
 62
     7
100
AcDbEllipse
 10
-356.0819350921502
 20
10.9241188791589
 30
0.0
 11
-7.403571697381179E-14
 21
39.08505712571172
 31
0.0
210
0.0
220
0.0
230
1.0
 40
0.383891864523409
 41
1.570796326794908
 42
3.14159265358979
  0
ELLIPSE
  5
2CF
330
1F
100
AcDbEntity
  8
0
  6
CONTINUOUS
 62
     7
100
AcDbEllipse
 10
261.9557594549883
 20
10.92411887915844
 30
0.0
 11
0.0
 21
-39.08505712571139
 31
0.0
210
0.0
220
0.0
230
1.0
 40
0.4154408443211794
 41
4.71238898038467
 42
7.853981633974067
  0
LINE
  5
2D0
330
1F
100
AcDbEntity
  8
0
  6
CONTINUOUS
 62
     7
100
AcDbLine
 10
267.205759454988
 20
10.92411887915867
 30
0.0
 11
265.955759454988
 21
10.92411887915867
 31
0.0
  0
LINE
  5
2D1
330
1F
100
AcDbEntity
  8
0
  6
CONTINUOUS
 62
     7
100
AcDbLine
 10
257.955759454988
 20
10.92411887915867
 30
0.0
 11
265.955759454988
 21
10.92411887915867
 31
0.0
  0
LINE
  5
2D2
330
1F
100
AcDbEntity
  8
0
  6
CONTINUOUS
 62
     7
100
AcDbLine
 10
257.7057594549879
 20
8.62411887915826
 30
0.0
 11
257.7057594549879
 21
4.12411887915826
 31
0.0
  0
LINE
  5
2D3
330
1F
100
AcDbEntity
  8
0
  6
CONTINUOUS
 62
     7
100
AcDbLine
 10
257.7057594549879
 20
4.12411887915826
 30
0.0
 11
258.2057594549879
 21
3.62411887915826
 31
0.0
  0
LINE
  5
2D4
330
1F
100
AcDbEntity
  8
0
  6
CONTINUOUS
 62
     7
100
AcDbLine
 10
257.7057594549879
 20
8.62411887915826
 30
0.0
 11
266.2057594549879
 21
8.62411887915826
 31
0.0
  0
LINE
  5
2D5
330
1F
100
AcDbEntity
  8
0
  6
CONTINUOUS
 62
     7
100
AcDbLine
 10
266.2057594549879
 20
8.62411887915826
 30
0.0
 11
266.2057594549879
 21
4.12411887915826
 31
0.0
  0
LINE
  5
2D6
330
1F
100
AcDbEntity
  8
0
  6
CONTINUOUS
 62
     7
100
AcDbLine
 10
266.2057594549879
 20
4.12411887915826
 30
0.0
 11
265.7057594549879
 21
3.62411887915826
 31
0.0
  0
LINE
  5
2D7
330
1F
100
AcDbEntity
  8
0
  6
CONTINUOUS
 62
     7
100
AcDbLine
 10
258.2057594549879
 20
3.62411887915826
 30
0.0
 11
265.7057594549879
 21
3.62411887915826
 31
0.0
  0
LINE
  5
2D8
330
1F
100
AcDbEntity
  8
0
  6
CONTINUOUS
 62
     7
100
AcDbLine
 10
256.9557594549879
 20
10.92411887915844
 30
0.0
 11
266.9557594549879
 21
10.92411887915844
 31
0.0
  0
LINE
  5
2D9
330
1F
100
AcDbEntity
  8
0
  6
CONTINUOUS
 62
     7
100
AcDbLine
 10
256.9557594549879
 20
9.924118879158442
 30
0.0
 11
266.9557594549879
 21
9.924118879158442
 31
0.0
  0
LINE
  5
2DA
330
1F
100
AcDbEntity
  8
0
  6
CONTINUOUS
 62
     7
100
AcDbLine
 10
256.9557594549879
 20
9.924118879158442
 30
0.0
 11
256.9557594549879
 21
10.92411887915844
 31
0.0
  0
LINE
  5
2DB
330
1F
100
AcDbEntity
  8
0
  6
CONTINUOUS
 62
     7
100
AcDbLine
 10
266.9557594549879
 20
9.924118879158442
 30
0.0
 11
266.9557594549879
 21
10.92411887915844
 31
0.0
  0
LINE
  5
2DC
330
1F
100
AcDbEntity
  8
0
  6
CONTINUOUS
 62
     7
100
AcDbLine
 10
257.3557594549875
 20
8.62411887915826
 30
0.0
 11
266.5557594549882
 21
8.62411887915826
 31
0.0
  0
LINE
  5
2DD
330
1F
100
AcDbEntity
  8
0
  6
CONTINUOUS
 62
     7
100
AcDbLine
 10
257.3557594549875
 20
8.62411887915826
 30
0.0
 11
257.3557594549875
 21
9.924118879158442
 31
0.0
  0
LINE
  5
2DE
330
1F
100
AcDbEntity
  8
0
  6
CONTINUOUS
 62
     7
100
AcDbLine
 10
266.5557594549882
 20
8.62411887915826
 30
0.0
 11
266.5557594549882
 21
9.924118879158442
 31
0.0
  0
LINE
  5
2DF
330
1F
100
AcDbEntity
  8
0
  6
CONTINUOUS
 62
     7
100
AcDbLine
 10
345.6370003221129
 20
10.92411887915867
 30
0.0
 11
353.6370003221129
 21
10.92411887915867
 31
0.0
  0
LINE
  5
2E0
330
1F
100
AcDbEntity
  8
0
  6
CONTINUOUS
 62
     7
100
AcDbLine
 10
345.3870003221127
 20
8.62411887915826
 30
0.0
 11
345.3870003221127
 21
4.12411887915826
 31
0.0
  0
LINE
  5
2E1
330
1F
100
AcDbEntity
  8
0
  6
CONTINUOUS
 62
     7
100
AcDbLine
 10
345.3870003221127
 20
4.12411887915826
 30
0.0
 11
345.8870003221127
 21
3.62411887915826
 31
0.0
  0
LINE
  5
2E2
330
1F
100
AcDbEntity
  8
0
  6
CONTINUOUS
 62
     7
100
AcDbLine
 10
345.3870003221127
 20
8.62411887915826
 30
0.0
 11
353.8870003221127
 21
8.62411887915826
 31
0.0
  0
LINE
  5
2E3
330
1F
100
AcDbEntity
  8
0
  6
CONTINUOUS
 62
     7
100
AcDbLine
 10
353.8870003221127
 20
8.62411887915826
 30
0.0
 11
353.8870003221127
 21
4.12411887915826
 31
0.0
  0
LINE
  5
2E4
330
1F
100
AcDbEntity
  8
0
  6
CONTINUOUS
 62
     7
100
AcDbLine
 10
353.8870003221127
 20
4.12411887915826
 30
0.0
 11
353.3870003221127
 21
3.62411887915826
 31
0.0
  0
LINE
  5
2E5
330
1F
100
AcDbEntity
  8
0
  6
CONTINUOUS
 62
     7
100
AcDbLine
 10
345.8870003221127
 20
3.62411887915826
 30
0.0
 11
353.3870003221127
 21
3.62411887915826
 31
0.0
  0
LINE
  5
2E6
330
1F
100
AcDbEntity
  8
0
  6
CONTINUOUS
 62
     7
100
AcDbLine
 10
344.6370003221127
 20
10.92411887915844
 30
0.0
 11
354.6370003221127
 21
10.92411887915844
 31
0.0
  0
LINE
  5
2E7
330
1F
100
AcDbEntity
  8
0
  6
CONTINUOUS
 62
     7
100
AcDbLine
 10
344.6370003221127
 20
9.924118879158442
 30
0.0
 11
354.6370003221127
 21
9.924118879158442
 31
0.0
  0
LINE
  5
2E8
330
1F
100
AcDbEntity
  8
0
  6
CONTINUOUS
 62
     7
100
AcDbLine
 10
344.6370003221127
 20
9.924118879158442
 30
0.0
 11
344.6370003221127
 21
10.92411887915844
 31
0.0
  0
LINE
  5
2E9
330
1F
100
AcDbEntity
  8
0
  6
CONTINUOUS
 62
     7
100
AcDbLine
 10
354.6370003221127
 20
9.924118879158442
 30
0.0
 11
354.6370003221127
 21
10.92411887915844
 31
0.0
  0
LINE
  5
2EA
330
1F
100
AcDbEntity
  8
0
  6
CONTINUOUS
 62
     7
100
AcDbLine
 10
345.0370003221124
 20
8.62411887915826
 30
0.0
 11
354.2370003221131
 21
8.62411887915826
 31
0.0
  0
LINE
  5
2EB
330
1F
100
AcDbEntity
  8
0
  6
CONTINUOUS
 62
     7
100
AcDbLine
 10
345.0370003221124
 20
8.62411887915826
 30
0.0
 11
345.0370003221124
 21
9.924118879158442
 31
0.0
  0
LINE
  5
2EC
330
1F
100
AcDbEntity
  8
0
  6
CONTINUOUS
 62
     7
100
AcDbLine
 10
354.2370003221131
 20
8.62411887915826
 30
0.0
 11
354.2370003221131
 21
9.924118879158442
 31
0.0
  0
ELLIPSE
  5
2ED
330
1F
100
AcDbEntity
  8
0
  6
CONTINUOUS
 62
     7
100
AcDbEllipse
 10
349.6370003221132
 20
10.92411887915867
 30
0.0
 11
0.0
 21
-39.08505712571149
 31
0.0
210
0.0
220
0.0
230
1.0
 40
0.2298676067164857
 41
4.712388971838971
 42
6.283185307179583
  0
ELLIPSE
  5
2EE
330
1F
100
AcDbEntity
  8
0
  6
CONTINUOUS
 62
     7
100
AcDbEllipse
 10
349.6370003221132
 20
10.92411887915867
 30
0.0
 11
-7.403571697381177E-14
 21
-39.08505712571158
 31
0.0
210
0.0
220
0.0
230
1.0
 40
0.383891864523409
 41
0.0
 42
1.570796326794513
  0
LINE
  5
2EF
330
1F
100
AcDbEntity
  8
0
  6
CONTINUOUS
 62
     7
100
AcDbLine
 10
178.2745185878638
 20
10.92411887915867
 30
0.0
 11
170.2745185878638
 21
10.92411887915867
 31
0.0
  0
LINE
  5
2F0
330
1F
100
AcDbEntity
  8
0
  6
CONTINUOUS
 62
     7
100
AcDbLine
 10
178.524518587864
 20
8.62411887915826
 30
0.0
 11
178.524518587864
 21
4.12411887915826
 31
0.0
  0
LINE
  5
2F1
330
1F
100
AcDbEntity
  8
0
  6
CONTINUOUS
 62
     7
100
AcDbLine
 10
178.524518587864
 20
4.12411887915826
 30
0.0
 11
178.024518587864
 21
3.62411887915826
 31
0.0
  0
LINE
  5
2F2
330
1F
100
AcDbEntity
  8
0
  6
CONTINUOUS
 62
     7
100
AcDbLine
 10
178.524518587864
 20
8.62411887915826
 30
0.0
 11
170.024518587864
 21
8.62411887915826
 31
0.0
  0
LINE
  5
2F3
330
1F
100
AcDbEntity
  8
0
  6
CONTINUOUS
 62
     7
100
AcDbLine
 10
170.024518587864
 20
8.62411887915826
 30
0.0
 11
170.024518587864
 21
4.12411887915826
 31
0.0
  0
LINE
  5
2F4
330
1F
100
AcDbEntity
  8
0
  6
CONTINUOUS
 62
     7
100
AcDbLine
 10
170.024518587864
 20
4.12411887915826
 30
0.0
 11
170.524518587864
 21
3.62411887915826
 31
0.0
  0
LINE
  5
2F5
330
1F
100
AcDbEntity
  8
0
  6
CONTINUOUS
 62
     7
100
AcDbLine
 10
178.024518587864
 20
3.62411887915826
 30
0.0
 11
170.524518587864
 21
3.62411887915826
 31
0.0
  0
LINE
  5
2F6
330
1F
100
AcDbEntity
  8
0
  6
CONTINUOUS
 62
     7
100
AcDbLine
 10
179.274518587864
 20
10.92411887915844
 30
0.0
 11
169.274518587864
 21
10.92411887915844
 31
0.0
  0
LINE
  5
2F7
330
1F
100
AcDbEntity
  8
0
  6
CONTINUOUS
 62
     7
100
AcDbLine
 10
179.274518587864
 20
9.924118879158442
 30
0.0
 11
169.274518587864
 21
9.924118879158442
 31
0.0
  0
LINE
  5
2F8
330
1F
100
AcDbEntity
  8
0
  6
CONTINUOUS
 62
     7
100
AcDbLine
 10
179.274518587864
 20
9.924118879158442
 30
0.0
 11
179.274518587864
 21
10.92411887915844
 31
0.0
  0
LINE
  5
2F9
330
1F
100
AcDbEntity
  8
0
  6
CONTINUOUS
 62
     7
100
AcDbLine
 10
169.274518587864
 20
9.924118879158442
 30
0.0
 11
169.274518587864
 21
10.92411887915844
 31
0.0
  0
LINE
  5
2FA
330
1F
100
AcDbEntity
  8
0
  6
CONTINUOUS
 62
     7
100
AcDbLine
 10
178.8745185878643
 20
8.62411887915826
 30
0.0
 11
169.6745185878636
 21
8.62411887915826
 31
0.0
  0
LINE
  5
2FB
330
1F
100
AcDbEntity
  8
0
  6
CONTINUOUS
 62
     7
100
AcDbLine
 10
178.8745185878643
 20
8.62411887915826
 30
0.0
 11
178.8745185878643
 21
9.924118879158442
 31
0.0
  0
LINE
  5
2FC
330
1F
100
AcDbEntity
  8
0
  6
CONTINUOUS
 62
     7
100
AcDbLine
 10
169.6745185878636
 20
8.62411887915826
 30
0.0
 11
169.6745185878636
 21
9.924118879158442
 31
0.0
  0
ELLIPSE
  5
2FD
330
1F
100
AcDbEntity
  8
0
  6
CONTINUOUS
 62
     7
100
AcDbEllipse
 10
174.2745185878634
 20
10.92411887915867
 30
0.0
 11
0.0
 21
39.08505712571174
 31
0.0
210
0.0
220
0.0
230
1.0
 40
0.2298676067164857
 41
3.141592653589798
 42
4.71238898038492
  0
ELLIPSE
  5
2FE
330
1F
100
AcDbEntity
  8
0
  6
CONTINUOUS
 62
     7
100
AcDbEllipse
 10
174.2745185878634
 20
10.92411887915867
 30
0.0
 11
-7.403571697381179E-14
 21
39.08505712571172
 31
0.0
210
0.0
220
0.0
230
1.0
 40
0.383891864523409
 41
1.570796326794908
 42
3.14159265358979
  0
ELLIPSE
  5
2FF
330
1F
100
AcDbEntity
  8
0
  6
CONTINUOUS
 62
     7
100
AcDbEllipse
 10
292.9844773351595
 20
587.8796797753178
 30
0.0
 11
0.0
 21
-39.08505712571139
 31
0.0
210
0.0
220
0.0
230
1.0
 40
0.4154408443211794
 41
4.71238898038467
 42
7.853981633974067
  0
LINE
  5
300
330
1F
100
AcDbEntity
  8
0
  6
CONTINUOUS
 62
     7
100
AcDbLine
 10
298.2344773351592
 20
587.879679775318
 30
0.0
 11
296.9844773351592
 21
587.879679775318
 31
0.0
  0
LINE
  5
301
330
1F
100
AcDbEntity
  8
0
  6
CONTINUOUS
 62
     7
100
AcDbLine
 10
288.9844773351592
 20
587.879679775318
 30
0.0
 11
296.9844773351592
 21
587.879679775318
 31
0.0
  0
LINE
  5
302
330
1F
100
AcDbEntity
  8
0
  6
CONTINUOUS
 62
     7
100
AcDbLine
 10
288.734477335159
 20
585.5796797753176
 30
0.0
 11
288.734477335159
 21
581.0796797753176
 31
0.0
  0
LINE
  5
303
330
1F
100
AcDbEntity
  8
0
  6
CONTINUOUS
 62
     7
100
AcDbLine
 10
288.734477335159
 20
581.0796797753176
 30
0.0
 11
289.234477335159
 21
580.5796797753176
 31
0.0
  0
LINE
  5
304
330
1F
100
AcDbEntity
  8
0
  6
CONTINUOUS
 62
     7
100
AcDbLine
 10
288.734477335159
 20
585.5796797753176
 30
0.0
 11
297.234477335159
 21
585.5796797753176
 31
0.0
  0
LINE
  5
305
330
1F
100
AcDbEntity
  8
0
  6
CONTINUOUS
 62
     7
100
AcDbLine
 10
297.234477335159
 20
585.5796797753176
 30
0.0
 11
297.234477335159
 21
581.0796797753176
 31
0.0
  0
LINE
  5
306
330
1F
100
AcDbEntity
  8
0
  6
CONTINUOUS
 62
     7
100
AcDbLine
 10
297.234477335159
 20
581.0796797753176
 30
0.0
 11
296.734477335159
 21
580.5796797753176
 31
0.0
  0
LINE
  5
307
330
1F
100
AcDbEntity
  8
0
  6
CONTINUOUS
 62
     7
100
AcDbLine
 10
289.234477335159
 20
580.5796797753176
 30
0.0
 11
296.734477335159
 21
580.5796797753176
 31
0.0
  0
LINE
  5
308
330
1F
100
AcDbEntity
  8
0
  6
CONTINUOUS
 62
     7
100
AcDbLine
 10
287.984477335159
 20
587.8796797753178
 30
0.0
 11
297.984477335159
 21
587.8796797753178
 31
0.0
  0
LINE
  5
309
330
1F
100
AcDbEntity
  8
0
  6
CONTINUOUS
 62
     7
100
AcDbLine
 10
287.984477335159
 20
586.8796797753178
 30
0.0
 11
297.984477335159
 21
586.8796797753178
 31
0.0
  0
LINE
  5
30A
330
1F
100
AcDbEntity
  8
0
  6
CONTINUOUS
 62
     7
100
AcDbLine
 10
287.984477335159
 20
586.8796797753178
 30
0.0
 11
287.984477335159
 21
587.8796797753178
 31
0.0
  0
LINE
  5
30B
330
1F
100
AcDbEntity
  8
0
  6
CONTINUOUS
 62
     7
100
AcDbLine
 10
297.984477335159
 20
586.8796797753178
 30
0.0
 11
297.984477335159
 21
587.8796797753178
 31
0.0
  0
LINE
  5
30C
330
1F
100
AcDbEntity
  8
0
  6
CONTINUOUS
 62
     7
100
AcDbLine
 10
288.3844773351586
 20
585.5796797753176
 30
0.0
 11
297.5844773351594
 21
585.5796797753176
 31
0.0
  0
LINE
  5
30D
330
1F
100
AcDbEntity
  8
0
  6
CONTINUOUS
 62
     7
100
AcDbLine
 10
288.3844773351586
 20
585.5796797753176
 30
0.0
 11
288.3844773351586
 21
586.8796797753178
 31
0.0
  0
LINE
  5
30E
330
1F
100
AcDbEntity
  8
0
  6
CONTINUOUS
 62
     7
100
AcDbLine
 10
297.5844773351594
 20
585.5796797753176
 30
0.0
 11
297.5844773351594
 21
586.8796797753178
 31
0.0
  0
LINE
  5
30F
330
1F
100
AcDbEntity
  8
0
  6
CONTINUOUS
 62
     7
100
AcDbLine
 10
376.665718202284
 20
587.879679775318
 30
0.0
 11
384.665718202284
 21
587.879679775318
 31
0.0
  0
LINE
  5
310
330
1F
100
AcDbEntity
  8
0
  6
CONTINUOUS
 62
     7
100
AcDbLine
 10
376.4157182022839
 20
585.5796797753176
 30
0.0
 11
376.4157182022839
 21
581.0796797753176
 31
0.0
  0
LINE
  5
311
330
1F
100
AcDbEntity
  8
0
  6
CONTINUOUS
 62
     7
100
AcDbLine
 10
376.4157182022839
 20
581.0796797753176
 30
0.0
 11
376.9157182022839
 21
580.5796797753176
 31
0.0
  0
LINE
  5
312
330
1F
100
AcDbEntity
  8
0
  6
CONTINUOUS
 62
     7
100
AcDbLine
 10
376.4157182022839
 20
585.5796797753176
 30
0.0
 11
384.9157182022839
 21
585.5796797753176
 31
0.0
  0
LINE
  5
313
330
1F
100
AcDbEntity
  8
0
  6
CONTINUOUS
 62
     7
100
AcDbLine
 10
384.9157182022839
 20
585.5796797753176
 30
0.0
 11
384.9157182022839
 21
581.0796797753176
 31
0.0
  0
LINE
  5
314
330
1F
100
AcDbEntity
  8
0
  6
CONTINUOUS
 62
     7
100
AcDbLine
 10
384.9157182022839
 20
581.0796797753176
 30
0.0
 11
384.4157182022839
 21
580.5796797753176
 31
0.0
  0
LINE
  5
315
330
1F
100
AcDbEntity
  8
0
  6
CONTINUOUS
 62
     7
100
AcDbLine
 10
376.9157182022839
 20
580.5796797753176
 30
0.0
 11
384.4157182022839
 21
580.5796797753176
 31
0.0
  0
LINE
  5
316
330
1F
100
AcDbEntity
  8
0
  6
CONTINUOUS
 62
     7
100
AcDbLine
 10
375.6657182022839
 20
587.8796797753178
 30
0.0
 11
385.6657182022839
 21
587.8796797753178
 31
0.0
  0
LINE
  5
317
330
1F
100
AcDbEntity
  8
0
  6
CONTINUOUS
 62
     7
100
AcDbLine
 10
375.6657182022839
 20
586.8796797753178
 30
0.0
 11
385.6657182022839
 21
586.8796797753178
 31
0.0
  0
LINE
  5
318
330
1F
100
AcDbEntity
  8
0
  6
CONTINUOUS
 62
     7
100
AcDbLine
 10
375.6657182022839
 20
586.8796797753178
 30
0.0
 11
375.6657182022839
 21
587.8796797753178
 31
0.0
  0
LINE
  5
319
330
1F
100
AcDbEntity
  8
0
  6
CONTINUOUS
 62
     7
100
AcDbLine
 10
385.6657182022839
 20
586.8796797753178
 30
0.0
 11
385.6657182022839
 21
587.8796797753178
 31
0.0
  0
LINE
  5
31A
330
1F
100
AcDbEntity
  8
0
  6
CONTINUOUS
 62
     7
100
AcDbLine
 10
376.0657182022835
 20
585.5796797753176
 30
0.0
 11
385.2657182022842
 21
585.5796797753176
 31
0.0
  0
LINE
  5
31B
330
1F
100
AcDbEntity
  8
0
  6
CONTINUOUS
 62
     7
100
AcDbLine
 10
376.0657182022835
 20
585.5796797753176
 30
0.0
 11
376.0657182022835
 21
586.8796797753178
 31
0.0
  0
LINE
  5
31C
330
1F
100
AcDbEntity
  8
0
  6
CONTINUOUS
 62
     7
100
AcDbLine
 10
385.2657182022842
 20
585.5796797753176
 30
0.0
 11
385.2657182022842
 21
586.8796797753178
 31
0.0
  0
ELLIPSE
  5
31D
330
1F
100
AcDbEntity
  8
0
  6
CONTINUOUS
 62
     7
100
AcDbEllipse
 10
380.6657182022843
 20
587.879679775318
 30
0.0
 11
0.0
 21
-39.08505712571149
 31
0.0
210
0.0
220
0.0
230
1.0
 40
0.2298676067164857
 41
4.712388971838971
 42
6.283185307179583
  0
ELLIPSE
  5
31E
330
1F
100
AcDbEntity
  8
0
  6
CONTINUOUS
 62
     7
100
AcDbEllipse
 10
380.6657182022843
 20
587.879679775318
 30
0.0
 11
0.0
 21
-39.08505712571158
 31
0.0
210
0.0
220
0.0
230
1.0
 40
0.383891864523409
 41
6.283185307179582
 42
7.853981633974099
  0
LINE
  5
31F
330
1F
100
AcDbEntity
  8
0
  6
CONTINUOUS
 62
     7
100
AcDbLine
 10
-259.7241942250282
 20
-431.1862512623043
 30
0.0
 11
-260.4006942250282
 21
-431.8627512623044
 31
0.0
  0
LINE
  5
320
330
1F
100
AcDbEntity
  8
0
  6
CONTINUOUS
 62
     7
100
AcDbLine
 10
-252.4006942250283
 20
-431.8627512623044
 30
0.0
 11
-253.0771942250283
 21
-431.1862512623043
 31
0.0
  0
LINE
  5
321
330
1F
100
AcDbEntity
  8
0
  6
CONTINUOUS
 62
     7
100
AcDbLine
 10
-259.7241942250282
 20
-431.1862512623043
 30
0.0
 11
-253.0771942250283
 21
-431.1862512623043
 31
0.0
  0
LINE
  5
322
330
1F
100
AcDbEntity
  8
0
  6
CONTINUOUS
 62
     7
100
AcDbLine
 10
-251.4006942250283
 20
-443.1862512623046
 30
0.0
 11
-252.4006942250283
 21
-443.1862512623046
 31
0.0
  0
LINE
  5
323
330
1F
100
AcDbEntity
  8
0
  6
CONTINUOUS
 62
     7
100
AcDbLine
 10
-248.7006942250275
 20
-439.5862512623044
 30
0.0
 11
-248.7006942250275
 21
-441.5862512623044
 31
0.0
  0
LINE
  5
324
330
1F
100
AcDbEntity
  8
0
  6
CONTINUOUS
 62
     7
100
AcDbLine
 10
-264.1006942250275
 20
-439.5862512623044
 30
0.0
 11
-264.1006942250275
 21
-441.5862512623044
 31
0.0
  0
LINE
  5
325
330
1F
100
AcDbEntity
  8
0
  6
CONTINUOUS
 62
     7
100
AcDbLine
 10
-263.9062477244904
 20
-439.0056946787036
 30
0.0
 11
-263.9062477244904
 21
-433.3668078459053
 31
0.0
  0
LINE
  5
326
330
1F
100
AcDbEntity
  8
0
  6
CONTINUOUS
 62
     7
100
AcDbLine
 10
-260.1534709747577
 20
-433.3668078459053
 30
0.0
 11
-260.1534709747577
 21
-439.0056946787036
 31
0.0
  0
LINE
  5
327
330
1F
100
AcDbEntity
  8
0
  6
CONTINUOUS
 62
     7
100
AcDbLine
 10
-262.0357191740009
 20
-432.7862512623045
 30
0.0
 11
-250.7773889248078
 21
-432.7862512623045
 31
0.0
  0
LINE
  5
328
330
1F
100
AcDbEntity
  8
0
  6
CONTINUOUS
 62
     7
100
AcDbLine
 10
-248.8951407255601
 20
-439.0056946787036
 30
0.0
 11
-248.8951407255601
 21
-433.3668078459053
 31
0.0
  0
LINE
  5
329
330
1F
100
AcDbEntity
  8
0
  6
CONTINUOUS
 62
     7
100
AcDbLine
 10
-252.6479174752926
 20
-439.0056946787036
 30
0.0
 11
-252.6479174752926
 21
-433.3668078459053
 31
0.0
  0
ARC
  5
32A
330
1F
100
AcDbEntity
  8
0
  6
CONTINUOUS
 62
     7
100
AcDbCircle
 10
-262.0298593496241
 20
-436.1087912623044
 30
0.0
 40
3.322545167359166
100
AcDbArc
 50
55.61546453026607
 51
115.6165354697341
  0
ARC
  5
32B
330
1F
100
AcDbEntity
  8
0
  6
CONTINUOUS
 62
     7
100
AcDbCircle
 10
-250.7715291004264
 20
-436.1087912623044
 30
0.0
 40
3.322545167359174
100
AcDbArc
 50
64.38346453026587
 51
124.3845354697339
  0
ARC
  5
32C
330
1F
100
AcDbEntity
  8
0
  6
CONTINUOUS
 62
     7
100
AcDbCircle
 10
-256.4006942250252
 20
-445.2056712623044
 30
0.0
 40
12.41942109461989
100
AcDbArc
 50
72.41201358286158
 51
107.5879864171384
  0
ARC
  5
32D
330
1F
100
AcDbEntity
  8
0
  6
CONTINUOUS
 62
     7
100
AcDbCircle
 10
-262.0298593496241
 20
-436.2637112623045
 30
0.0
 40
3.322545167359174
100
AcDbArc
 50
244.3834645302659
 51
304.3845354697339
  0
ARC
  5
32E
330
1F
100
AcDbEntity
  8
0
  6
CONTINUOUS
 62
     7
100
AcDbCircle
 10
-256.4006942250252
 20
-427.1668312623045
 30
0.0
 40
12.41942109461987
100
AcDbArc
 50
252.4120135828616
 51
287.5879864171384
  0
ARC
  5
32F
330
1F
100
AcDbEntity
  8
0
  6
CONTINUOUS
 62
     7
100
AcDbCircle
 10
-250.7715291004264
 20
-436.2637112623045
 30
0.0
 40
3.322545167359166
100
AcDbArc
 50
235.615464530266
 51
295.6165354697341
  0
LINE
  5
330
330
1F
100
AcDbEntity
  8
0
  6
CONTINUOUS
 62
     7
100
AcDbLine
 10
-263.4662924575483
 20
-433.1127995541049
 30
0.0
 11
-263.9062477244904
 21
-433.3668078459053
 31
0.0
  0
LINE
  5
331
330
1F
100
AcDbEntity
  8
0
  6
CONTINUOUS
 62
     7
100
AcDbLine
 10
-249.3350959925022
 20
-433.1127995541047
 30
0.0
 11
-248.8951407255601
 21
-433.3668078459053
 31
0.0
  0
LINE
  5
332
330
1F
100
AcDbEntity
  8
0
  6
CONTINUOUS
 62
     7
100
AcDbLine
 10
-263.4662924575483
 20
-439.2597029705042
 30
0.0
 11
-263.9062477244904
 21
-439.0056946787038
 31
0.0
  0
LINE
  5
333
330
1F
100
AcDbEntity
  8
0
  6
CONTINUOUS
 62
     7
100
AcDbLine
 10
-249.3350959925022
 20
-439.2597029705042
 30
0.0
 11
-248.8951407255601
 21
-439.0056946787038
 31
0.0
  0
LINE
  5
334
330
1F
100
AcDbEntity
  8
0
  6
CONTINUOUS
 62
     7
100
AcDbLine
 10
-262.0357191740054
 20
-439.5862512623044
 30
0.0
 11
-250.7656692760495
 21
-439.5862512623044
 31
0.0
  0
LINE
  5
335
330
1F
100
AcDbEntity
  8
0
  6
CONTINUOUS
 62
     7
100
AcDbLine
 10
-264.1006942250275
 20
-441.5862512623044
 30
0.0
 11
-248.6611422805145
 21
-441.5862512623044
 31
0.0
  0
LINE
  5
336
330
1F
100
AcDbEntity
  8
0
  6
CONTINUOUS
 62
     7
100
AcDbLine
 10
-248.7006942250275
 20
-439.5862512623044
 30
0.0
 11
-264.1006942250275
 21
-439.5862512623044
 31
0.0
  0
LINE
  5
337
330
1F
100
AcDbEntity
  8
0
  6
CONTINUOUS
 62
     7
100
AcDbLine
 10
-264.9006942250268
 20
-441.5862512623044
 30
0.0
 11
-247.9006942250268
 21
-441.5862512623044
 31
0.0
  0
LINE
  5
338
330
1F
100
AcDbEntity
  8
0
  6
CONTINUOUS
 62
     7
100
AcDbLine
 10
-247.9006942250268
 20
-441.5862512623044
 30
0.0
 11
-247.9006942250268
 21
-443.1862512623046
 31
0.0
  0
LINE
  5
339
330
1F
100
AcDbEntity
  8
0
  6
CONTINUOUS
 62
     7
100
AcDbLine
 10
-247.9006942250268
 20
-443.1862512623046
 30
0.0
 11
-264.9006942250268
 21
-443.1862512623046
 31
0.0
  0
LINE
  5
33A
330
1F
100
AcDbEntity
  8
0
  6
CONTINUOUS
 62
     7
100
AcDbLine
 10
-264.9006942250268
 20
-443.1862512623046
 30
0.0
 11
-264.9006942250268
 21
-441.5862512623044
 31
0.0
  0
LINE
  5
33B
330
1F
100
AcDbEntity
  8
0
  6
CONTINUOUS
 62
     7
100
AcDbLine
 10
-260.4006942250282
 20
-432.7862512623045
 30
0.0
 11
-260.4006942250282
 21
-431.8627512623044
 31
0.0
  0
LINE
  5
33C
330
1F
100
AcDbEntity
  8
0
  6
CONTINUOUS
 62
     7
100
AcDbLine
 10
-252.4006942250283
 20
-432.7862512623045
 30
0.0
 11
-252.4006942250283
 21
-431.8627512623044
 31
0.0
  0
LINE
  5
33D
330
1F
100
AcDbEntity
  8
0
  6
CONTINUOUS
 62
     7
100
AcDbLine
 10
-283.7241942250282
 20
-431.1862512623043
 30
0.0
 11
-284.4006942250282
 21
-431.8627512623044
 31
0.0
  0
LINE
  5
33E
330
1F
100
AcDbEntity
  8
0
  6
CONTINUOUS
 62
     7
100
AcDbLine
 10
-276.4006942250282
 20
-431.8627512623044
 30
0.0
 11
-277.0771942250283
 21
-431.1862512623043
 31
0.0
  0
LINE
  5
33F
330
1F
100
AcDbEntity
  8
0
  6
CONTINUOUS
 62
     7
100
AcDbLine
 10
-283.7241942250282
 20
-431.1862512623043
 30
0.0
 11
-277.0771942250283
 21
-431.1862512623043
 31
0.0
  0
LINE
  5
340
330
1F
100
AcDbEntity
  8
0
  6
CONTINUOUS
 62
     7
100
AcDbLine
 10
-275.4006942250282
 20
-443.1862512623046
 30
0.0
 11
-276.4006942250282
 21
-443.1862512623046
 31
0.0
  0
LINE
  5
341
330
1F
100
AcDbEntity
  8
0
  6
CONTINUOUS
 62
     7
100
AcDbLine
 10
-272.7006942250275
 20
-439.5862512623044
 30
0.0
 11
-272.7006942250275
 21
-441.5862512623044
 31
0.0
  0
LINE
  5
342
330
1F
100
AcDbEntity
  8
0
  6
CONTINUOUS
 62
     7
100
AcDbLine
 10
-288.1006942250275
 20
-439.5862512623044
 30
0.0
 11
-288.1006942250275
 21
-441.5862512623044
 31
0.0
  0
LINE
  5
343
330
1F
100
AcDbEntity
  8
0
  6
CONTINUOUS
 62
     7
100
AcDbLine
 10
-287.9062477244904
 20
-439.0056946787036
 30
0.0
 11
-287.9062477244904
 21
-433.3668078459053
 31
0.0
  0
LINE
  5
344
330
1F
100
AcDbEntity
  8
0
  6
CONTINUOUS
 62
     7
100
AcDbLine
 10
-284.1534709747577
 20
-433.3668078459053
 30
0.0
 11
-284.1534709747577
 21
-439.0056946787036
 31
0.0
  0
LINE
  5
345
330
1F
100
AcDbEntity
  8
0
  6
CONTINUOUS
 62
     7
100
AcDbLine
 10
-286.0357191740009
 20
-432.7862512623045
 30
0.0
 11
-274.7773889248077
 21
-432.7862512623045
 31
0.0
  0
LINE
  5
346
330
1F
100
AcDbEntity
  8
0
  6
CONTINUOUS
 62
     7
100
AcDbLine
 10
-272.8951407255601
 20
-439.0056946787036
 30
0.0
 11
-272.8951407255601
 21
-433.3668078459053
 31
0.0
  0
LINE
  5
347
330
1F
100
AcDbEntity
  8
0
  6
CONTINUOUS
 62
     7
100
AcDbLine
 10
-276.6479174752926
 20
-439.0056946787036
 30
0.0
 11
-276.6479174752926
 21
-433.3668078459053
 31
0.0
  0
ARC
  5
348
330
1F
100
AcDbEntity
  8
0
  6
CONTINUOUS
 62
     7
100
AcDbCircle
 10
-286.0298593496241
 20
-436.1087912623044
 30
0.0
 40
3.322545167359166
100
AcDbArc
 50
55.61546453026607
 51
115.6165354697341
  0
ARC
  5
349
330
1F
100
AcDbEntity
  8
0
  6
CONTINUOUS
 62
     7
100
AcDbCircle
 10
-274.7715291004264
 20
-436.1087912623044
 30
0.0
 40
3.322545167359174
100
AcDbArc
 50
64.38346453026587
 51
124.3845354697339
  0
ARC
  5
34A
330
1F
100
AcDbEntity
  8
0
  6
CONTINUOUS
 62
     7
100
AcDbCircle
 10
-280.4006942250252
 20
-445.2056712623044
 30
0.0
 40
12.41942109461989
100
AcDbArc
 50
72.41201358286158
 51
107.5879864171384
  0
ARC
  5
34B
330
1F
100
AcDbEntity
  8
0
  6
CONTINUOUS
 62
     7
100
AcDbCircle
 10
-286.0298593496241
 20
-436.2637112623045
 30
0.0
 40
3.322545167359174
100
AcDbArc
 50
244.3834645302659
 51
304.3845354697339
  0
ARC
  5
34C
330
1F
100
AcDbEntity
  8
0
  6
CONTINUOUS
 62
     7
100
AcDbCircle
 10
-280.4006942250252
 20
-427.1668312623045
 30
0.0
 40
12.41942109461987
100
AcDbArc
 50
252.4120135828616
 51
287.5879864171384
  0
ARC
  5
34D
330
1F
100
AcDbEntity
  8
0
  6
CONTINUOUS
 62
     7
100
AcDbCircle
 10
-274.7715291004264
 20
-436.2637112623045
 30
0.0
 40
3.322545167359166
100
AcDbArc
 50
235.615464530266
 51
295.6165354697341
  0
LINE
  5
34E
330
1F
100
AcDbEntity
  8
0
  6
CONTINUOUS
 62
     7
100
AcDbLine
 10
-287.4662924575483
 20
-433.1127995541049
 30
0.0
 11
-287.9062477244904
 21
-433.3668078459053
 31
0.0
  0
LINE
  5
34F
330
1F
100
AcDbEntity
  8
0
  6
CONTINUOUS
 62
     7
100
AcDbLine
 10
-273.3350959925021
 20
-433.1127995541047
 30
0.0
 11
-272.8951407255601
 21
-433.3668078459053
 31
0.0
  0
LINE
  5
350
330
1F
100
AcDbEntity
  8
0
  6
CONTINUOUS
 62
     7
100
AcDbLine
 10
-287.4662924575483
 20
-439.2597029705042
 30
0.0
 11
-287.9062477244904
 21
-439.0056946787038
 31
0.0
  0
LINE
  5
351
330
1F
100
AcDbEntity
  8
0
  6
CONTINUOUS
 62
     7
100
AcDbLine
 10
-273.3350959925021
 20
-439.2597029705042
 30
0.0
 11
-272.8951407255601
 21
-439.0056946787038
 31
0.0
  0
LINE
  5
352
330
1F
100
AcDbEntity
  8
0
  6
CONTINUOUS
 62
     7
100
AcDbLine
 10
-286.0357191740054
 20
-439.5862512623044
 30
0.0
 11
-274.7656692760495
 21
-439.5862512623044
 31
0.0
  0
LINE
  5
353
330
1F
100
AcDbEntity
  8
0
  6
CONTINUOUS
 62
     7
100
AcDbLine
 10
-288.1006942250275
 20
-441.5862512623044
 30
0.0
 11
-272.6611422805145
 21
-441.5862512623044
 31
0.0
  0
LINE
  5
354
330
1F
100
AcDbEntity
  8
0
  6
CONTINUOUS
 62
     7
100
AcDbLine
 10
-272.7006942250275
 20
-439.5862512623044
 30
0.0
 11
-288.1006942250275
 21
-439.5862512623044
 31
0.0
  0
LINE
  5
355
330
1F
100
AcDbEntity
  8
0
  6
CONTINUOUS
 62
     7
100
AcDbLine
 10
-288.9006942250268
 20
-441.5862512623044
 30
0.0
 11
-271.9006942250268
 21
-441.5862512623044
 31
0.0
  0
LINE
  5
356
330
1F
100
AcDbEntity
  8
0
  6
CONTINUOUS
 62
     7
100
AcDbLine
 10
-271.9006942250268
 20
-441.5862512623044
 30
0.0
 11
-271.9006942250268
 21
-443.1862512623046
 31
0.0
  0
LINE
  5
357
330
1F
100
AcDbEntity
  8
0
  6
CONTINUOUS
 62
     7
100
AcDbLine
 10
-271.9006942250268
 20
-443.1862512623046
 30
0.0
 11
-288.9006942250268
 21
-443.1862512623046
 31
0.0
  0
LINE
  5
358
330
1F
100
AcDbEntity
  8
0
  6
CONTINUOUS
 62
     7
100
AcDbLine
 10
-288.9006942250268
 20
-443.1862512623046
 30
0.0
 11
-288.9006942250268
 21
-441.5862512623044
 31
0.0
  0
LINE
  5
359
330
1F
100
AcDbEntity
  8
0
  6
CONTINUOUS
 62
     7
100
AcDbLine
 10
-284.4006942250282
 20
-432.7862512623045
 30
0.0
 11
-284.4006942250282
 21
-431.8627512623044
 31
0.0
  0
LINE
  5
35A
330
1F
100
AcDbEntity
  8
0
  6
CONTINUOUS
 62
     7
100
AcDbLine
 10
-276.4006942250282
 20
-432.7862512623045
 30
0.0
 11
-276.4006942250282
 21
-431.8627512623044
 31
0.0
  0
CIRCLE
  5
35B
330
1F
100
AcDbEntity
  8
0
  6
CONTINUOUS
 62
     7
100
AcDbCircle
 10
-268.4006942250251
 20
-513.1862512623047
 30
0.0
 40
24.0
  0
ARC
  5
35C
330
1F
100
AcDbEntity
  8
0
  6
CONTINUOUS
 62
     7
100
AcDbCircle
 10
-191.9006942250248
 20
656.8796797753203
 30
0.0
 40
1.5
100
AcDbArc
 50
0.0
 51
90.0
  0
ARC
  5
35D
330
1F
100
AcDbEntity
  8
0
  6
CONTINUOUS
 62
     7
100
AcDbCircle
 10
-191.9006942250248
 20
-575.2346194922588
 30
0.0
 40
1.5
100
AcDbArc
 50
0.0
 51
140.9548445984128
  0
LINE
  5
35E
330
1F
100
AcDbEntity
  8
0
  6
CONTINUOUS
 62
   150
100
AcDbLine
 10
-270.3642240679164
 20
-237.7433143392898
 30
0.0
 11
-287.8178010361717
 21
-203.0758811208414
 31
0.0
  0
LINE
  5
35F
330
1F
100
AcDbEntity
  8
0
  6
CONTINUOUS
 62
   150
100
AcDbLine
 10
-270.196790849468
 20
-203.0758811208414
 30
0.0
 11
-287.8178010361717
 21
-238.0758811208414
 31
0.0
  0
LINE
  5
360
330
1F
100
AcDbEntity
  8
0
  6
CONTINUOUS
 62
   150
100
AcDbLine
 10
-266.4371643821341
 20
-237.7433143392898
 30
0.0
 11
-248.9835874138789
 21
-203.0758811208414
 31
0.0
  0
LINE
  5
361
330
1F
100
AcDbEntity
  8
0
  6
CONTINUOUS
 62
   150
100
AcDbLine
 10
-266.6045976005826
 20
-203.0758811208414
 30
0.0
 11
-248.9835874138789
 21
-238.0758811208414
 31
0.0
  0
LINE
  5
362
330
1F
100
AcDbEntity
  8
0
  6
CONTINUOUS
 62
   150
100
AcDbLine
 10
-315.7806644392487
 20
42.33833244153587
 30
0.0
 11
-318.6090915639949
 21
39.50990531678966
 31
0.0
  0
LINE
  5
363
330
1F
100
AcDbEntity
  8
0
  6
CONTINUOUS
 62
   150
100
AcDbLine
 10
-318.6090915639949
 20
42.33833244153587
 30
0.0
 11
-315.7806644392487
 21
39.50990531678966
 31
0.0
  0
LINE
  5
364
330
1F
100
AcDbEntity
  8
0
  6
CONTINUOUS
 62
   150
100
AcDbLine
 10
-251.489699500903
 20
42.33833244153587
 30
0.0
 11
-254.3181266256493
 21
39.50990531678966
 31
0.0
  0
LINE
  5
365
330
1F
100
AcDbEntity
  8
0
  6
CONTINUOUS
 62
   150
100
AcDbLine
 10
-254.3181266256493
 20
42.33833244153587
 30
0.0
 11
-251.489699500903
 21
39.50990531678966
 31
0.0
  0
LINE
  5
366
330
1F
100
AcDbEntity
  8
0
  6
CONTINUOUS
 62
   150
100
AcDbLine
 10
-380.0716293775943
 20
42.33833244153587
 30
0.0
 11
-382.9000565023405
 21
39.50990531678966
 31
0.0
  0
LINE
  5
367
330
1F
100
AcDbEntity
  8
0
  6
CONTINUOUS
 62
   150
100
AcDbLine
 10
-382.9000565023405
 20
42.33833244153587
 30
0.0
 11
-380.0716293775943
 21
39.50990531678966
 31
0.0
  0
LINE
  5
368
330
1F
100
AcDbEntity
  8
0
  6
CONTINUOUS
 62
   150
100
AcDbLine
 10
-380.0716293775943
 20
114.3383324415359
 30
0.0
 11
-382.9000565023405
 21
111.5099053167897
 31
0.0
  0
LINE
  5
369
330
1F
100
AcDbEntity
  8
0
  6
CONTINUOUS
 62
   150
100
AcDbLine
 10
-382.9000565023405
 20
114.3383324415359
 30
0.0
 11
-380.0716293775943
 21
111.5099053167897
 31
0.0
  0
LINE
  5
36A
330
1F
100
AcDbEntity
  8
0
  6
CONTINUOUS
 62
   150
100
AcDbLine
 10
-315.7806644392487
 20
114.3383324415359
 30
0.0
 11
-318.6090915639949
 21
111.5099053167897
 31
0.0
  0
LINE
  5
36B
330
1F
100
AcDbEntity
  8
0
  6
CONTINUOUS
 62
   150
100
AcDbLine
 10
-318.6090915639949
 20
114.3383324415359
 30
0.0
 11
-315.7806644392487
 21
111.5099053167897
 31
0.0
  0
LINE
  5
36C
330
1F
100
AcDbEntity
  8
0
  6
CONTINUOUS
 62
   150
100
AcDbLine
 10
-251.489699500903
 20
114.3383324415359
 30
0.0
 11
-254.3181266256493
 21
111.5099053167897
 31
0.0
  0
LINE
  5
36D
330
1F
100
AcDbEntity
  8
0
  6
CONTINUOUS
 62
   150
100
AcDbLine
 10
-254.3181266256493
 20
114.3383324415359
 30
0.0
 11
-251.489699500903
 21
111.5099053167897
 31
0.0
  0
LINE
  5
36E
330
1F
100
AcDbEntity
  8
0
  6
CONTINUOUS
 62
   150
100
AcDbLine
 10
259.9922296120972
 20
-237.7433143392898
 30
0.0
 11
242.5386526438274
 21
-203.0758811208414
 31
0.0
  0
LINE
  5
36F
330
1F
100
AcDbEntity
  8
0
  6
CONTINUOUS
 62
   150
100
AcDbLine
 10
260.1596628305456
 20
-203.0758811208414
 30
0.0
 11
242.5386526438274
 21
-238.0758811208414
 31
0.0
  0
LINE
  5
370
330
1F
100
AcDbEntity
  8
0
  6
CONTINUOUS
 62
   150
100
AcDbLine
 10
263.9192892978795
 20
-237.7433143392898
 30
0.0
 11
281.3728662661347
 21
-203.0758811208414
 31
0.0
  0
LINE
  5
371
330
1F
100
AcDbEntity
  8
0
  6
CONTINUOUS
 62
   150
100
AcDbLine
 10
263.7518560794311
 20
-203.0758811208414
 30
0.0
 11
281.3728662661347
 21
-238.0758811208414
 31
0.0
  0
CIRCLE
  5
372
330
1F
100
AcDbEntity
  8
0
  6
CONTINUOUS
 62
   150
100
AcDbCircle
 10
-232.3382523889577
 20
-477.1237279945926
 30
0.0
 40
5.0
  0
CIRCLE
  5
373
330
1F
100
AcDbEntity
  8
0
  6
CONTINUOUS
 62
   150
100
AcDbCircle
 10
-217.400691353801
 20
-513.1862279945926
 30
0.0
 40
5.0
  0
CIRCLE
  5
374
330
1F
100
AcDbEntity
  8
0
  6
CONTINUOUS
 62
   150
100
AcDbCircle
 10
-232.3382523889572
 20
-549.2487279945926
 30
0.0
 40
5.0
  0
CIRCLE
  5
375
330
1F
100
AcDbEntity
  8
0
  6
CONTINUOUS
 62
   150
100
AcDbCircle
 10
-268.400691353801
 20
-564.1862279945926
 30
0.0
 40
5.0
  0
CIRCLE
  5
376
330
1F
100
AcDbEntity
  8
0
  6
CONTINUOUS
 62
   150
100
AcDbCircle
 10
-304.4631455774339
 20
-549.2487279945926
 30
0.0
 40
5.0
  0
CIRCLE
  5
377
330
1F
100
AcDbEntity
  8
0
  6
CONTINUOUS
 62
   150
100
AcDbCircle
 10
-319.4006913538011
 20
-513.1862512623047
 30
0.0
 40
5.0
  0
CIRCLE
  5
378
330
1F
100
AcDbEntity
  8
0
  6
CONTINUOUS
 62
   150
100
AcDbCircle
 10
-304.4631455774343
 20
-477.1237279945926
 30
0.0
 40
5.0
  0
CIRCLE
  5
379
330
1F
100
AcDbEntity
  8
0
  6
CONTINUOUS
 62
   150
100
AcDbCircle
 10
-268.4006913538014
 20
-462.1862279945925
 30
0.0
 40
5.0
  0
LINE
  5
37A
330
1F
100
AcDbEntity
  8
0
  6
CONTINUOUS
 62
   150
100
AcDbLine
 10
291.0209474922683
 20
339.2122465568691
 30
0.0
 11
273.5673705239985
 21
373.8796797753175
 31
0.0
  0
LINE
  5
37B
330
1F
100
AcDbEntity
  8
0
  6
CONTINUOUS
 62
   150
100
AcDbLine
 10
291.1883807107167
 20
373.8796797753175
 30
0.0
 11
273.5673705239985
 21
338.8796797753175
 31
0.0
  0
LINE
  5
37C
330
1F
100
AcDbEntity
  8
0
  6
CONTINUOUS
 62
   150
100
AcDbLine
 10
294.9480071780506
 20
339.2122465568691
 30
0.0
 11
312.4015841463058
 21
373.8796797753175
 31
0.0
  0
LINE
  5
37D
330
1F
100
AcDbEntity
  8
0
  6
CONTINUOUS
 62
   150
100
AcDbLine
 10
294.7805739596022
 20
373.8796797753175
 30
0.0
 11
312.4015841463058
 21
338.8796797753175
 31
0.0
  0
LINE
  5
37E
330
1F
100
AcDbEntity
  8
0
  6
CONTINUOUS
 62
   150
100
AcDbLine
 10
181.5557594549882
 20
-190.2758811208442
 30
0.0
 11
179.9557594549882
 21
-190.2758811208442
 31
0.0
  0
LINE
  5
37F
330
1F
100
AcDbEntity
  8
0
  6
CONTINUOUS
 62
   150
100
AcDbLine
 10
181.5557594549882
 20
-183.8758811208446
 30
0.0
 11
179.9557594549882
 21
-183.8758811208446
 31
0.0
  0
LINE
  5
380
330
1F
100
AcDbEntity
  8
0
  6
CONTINUOUS
 62
   150
100
AcDbLine
 10
189.1489214271231
 20
-184.7117116441428
 30
0.0
 11
189.5625974828534
 21
-189.4400505975411
 31
0.0
  0
LINE
  5
381
330
1F
100
AcDbEntity
  8
0
  6
CONTINUOUS
 62
   150
100
AcDbLine
 10
373.3844773351596
 20
386.6796797753149
 30
0.0
 11
374.9844773351596
 21
386.6796797753149
 31
0.0
  0
LINE
  5
382
330
1F
100
AcDbEntity
  8
0
  6
CONTINUOUS
 62
   150
100
AcDbLine
 10
373.3844773351596
 20
393.0796797753146
 30
0.0
 11
374.9844773351596
 21
393.0796797753146
 31
0.0
  0
LINE
  5
383
330
1F
100
AcDbEntity
  8
0
  6
CONTINUOUS
 62
   150
100
AcDbLine
 10
365.7913153630247
 20
392.2438492520163
 30
0.0
 11
365.3776393072944
 21
387.5155102986182
 31
0.0
  0
LINE
  5
384
330
1F
100
AcDbEntity
  8
0
  6
CONTINUOUS
 62
   150
100
AcDbLine
 10
-266.3056853441262
 20
9.090829352093152
 30
0.0
 11
-270.4957031059253
 21
9.457408406224005
 31
0.0
  0
LINE
  5
385
330
1F
100
AcDbEntity
  8
0
  6
CONTINUOUS
 62
   150
100
AcDbLine
 10
-178.6244444770014
 20
9.090829352093152
 30
0.0
 11
-182.8144622388004
 21
9.457408406224005
 31
0.0
  0
LINE
  5
386
330
1F
100
AcDbEntity
  8
0
  6
CONTINUOUS
 62
   150
100
AcDbLine
 10
-358.1769439730492
 20
9.090829352093152
 30
0.0
 11
-353.9869262112502
 21
9.457408406224005
 31
0.0
  0
LINE
  5
387
330
1F
100
AcDbEntity
  8
0
  6
CONTINUOUS
 62
   150
100
AcDbLine
 10
264.0507683358874
 20
9.090829352092925
 30
0.0
 11
259.8607505740883
 21
9.457408406223777
 31
0.0
  0
LINE
  5
388
330
1F
100
AcDbEntity
  8
0
  6
CONTINUOUS
 62
   150
100
AcDbLine
 10
351.7320092030122
 20
9.090829352092925
 30
0.0
 11
347.5419914412132
 21
9.457408406223777
 31
0.0
  0
LINE
  5
389
330
1F
100
AcDbEntity
  8
0
  6
CONTINUOUS
 62
   150
100
AcDbLine
 10
172.1795097069644
 20
9.090829352092925
 30
0.0
 11
176.3695274687635
 21
9.457408406223777
 31
0.0
  0
LINE
  5
38A
330
1F
100
AcDbEntity
  8
0
  6
CONTINUOUS
 62
   150
100
AcDbLine
 10
295.0794862160585
 20
586.0463902482522
 30
0.0
 11
290.8894684542595
 21
586.4129693023831
 31
0.0
  0
LINE
  5
38B
330
1F
100
AcDbEntity
  8
0
  6
CONTINUOUS
 62
   150
100
AcDbLine
 10
382.7607270831834
 20
586.0463902482522
 30
0.0
 11
378.5707093213844
 21
586.4129693023831
 31
0.0
  0
LINE
  5
38C
330
1F
100
AcDbEntity
  8
0
  6
CONTINUOUS
 62
   150
100
AcDbLine
 10
-259.6006942250281
 20
-432.7862512623045
 30
0.0
 11
-259.6006942250281
 21
-431.1862512623043
 31
0.0
  0
LINE
  5
38D
330
1F
100
AcDbEntity
  8
0
  6
CONTINUOUS
 62
   150
100
AcDbLine
 10
-253.2006942250285
 20
-432.7862512623045
 30
0.0
 11
-253.2006942250285
 21
-431.1862512623043
 31
0.0
  0
LINE
  5
38E
330
1F
100
AcDbEntity
  8
0
  6
CONTINUOUS
 62
   150
100
AcDbLine
 10
-254.0365247483267
 20
-440.3794132344393
 30
0.0
 11
-258.7648637017249
 21
-440.7930892901696
 31
0.0
  0
LINE
  5
38F
330
1F
100
AcDbEntity
  8
0
  6
CONTINUOUS
 62
   150
100
AcDbLine
 10
-283.6006942250281
 20
-432.7862512623045
 30
0.0
 11
-283.6006942250281
 21
-431.1862512623043
 31
0.0
  0
LINE
  5
390
330
1F
100
AcDbEntity
  8
0
  6
CONTINUOUS
 62
   150
100
AcDbLine
 10
-277.2006942250284
 20
-432.7862512623045
 30
0.0
 11
-277.2006942250284
 21
-431.1862512623043
 31
0.0
  0
LINE
  5
391
330
1F
100
AcDbEntity
  8
0
  6
CONTINUOUS
 62
   150
100
AcDbLine
 10
-278.0365247483267
 20
-440.3794132344393
 30
0.0
 11
-282.7648637017249
 21
-440.7930892901696
 31
0.0
  0
LINE
  5
392
330
1F
100
AcDbEntity
  8
0
  6
DASHED2
 62
   150
100
AcDbLine
 10
381.4661416422697
 20
687.1562825364626
 30
0.0
 11
383.8714655056806
 21
688.5484195232525
 31
0.0
  0
LINE
  5
393
330
1F
100
AcDbEntity
  8
0
  6
DASHED2
 62
   150
100
AcDbLine
 10
381.466141642272
 20
687.1562825364617
 30
0.0
 11
383.8744295700868
 21
685.7692794598138
 31
0.0
  0
LINE
  5
394
330
1F
100
AcDbEntity
  8
0
  6
DASHED2
 62
   150
100
AcDbLine
 10
381.4661416422697
 20
617.2796797753422
 30
0.0
 11
383.8714655056806
 21
618.671816762132
 31
0.0
  0
LINE
  5
395
330
1F
100
AcDbEntity
  8
0
  6
DASHED2
 62
   150
100
AcDbLine
 10
381.466141642272
 20
617.2796797753413
 30
0.0
 11
383.8744295700868
 21
615.8926766986933
 31
0.0
  0
LINE
  5
396
330
1F
100
AcDbEntity
  8
0
  6
PHANTOM
 62
   150
100
AcDbLine
 10
294.4557594549884
 20
240.9241188791586
 30
0.0
 11
294.4557594549884
 21
242.487548901767
 31
0.0
  0
LINE
  5
397
330
1F
100
AcDbEntity
  8
0
  6
PHANTOM
 62
   150
100
AcDbLine
 10
229.4557594549884
 20
240.9241188791586
 30
0.0
 11
229.4557594549884
 21
242.487548901767
 31
0.0
  0
ARC
  5
398
330
1F
100
AcDbEntity
  8
0
  6
PHANTOM
 62
   150
100
AcDbCircle
 10
261.9557594549884
 20
95.78126173628903
 30
0.0
 40
152.6428571428578
100
AcDbArc
 50
78.63046791182735
 51
101.3695320881726
  0
ARC
  5
399
330
1F
100
AcDbEntity
  8
0
  6
PHANTOM
 62
   150
100
AcDbCircle
 10
232.4557594549884
 20
242.487548901767
 30
0.0
 40
3.0
100
AcDbArc
 50
101.3695320881725
 51
180.0
  0
ARC
  5
39A
330
1F
100
AcDbEntity
  8
0
  6
PHANTOM
 62
   150
100
AcDbCircle
 10
291.4557594549884
 20
242.487548901767
 30
0.0
 40
3.0
100
AcDbArc
 50
0.0
 51
78.63046791182747
  0
LINE
  5
39B
330
1F
100
AcDbEntity
  8
LAYER0017
  6
CONTINUOUS
 62
     7
100
AcDbLine
 10
-398.4006942250253
 20
3.924118879158669
 30
0.0
 11
-398.4006942250253
 21
10.92411887915867
 31
0.0
  0
LINE
  5
39C
330
1F
100
AcDbEntity
  8
LAYER0017
  6
CONTINUOUS
 62
     7
100
AcDbLine
 10
-138.4006942250253
 20
10.92411887915867
 30
0.0
 11
-138.4006942250253
 21
3.924118879158669
 31
0.0
  0
LINE
  5
39D
330
1F
100
AcDbEntity
  8
LAYER0017
  6
CONTINUOUS
 62
     7
100
AcDbLine
 10
-198.4006942250253
 20
-170.0758811208414
 30
0.0
 11
-198.4006942250253
 21
-192.0758811208414
 31
0.0
  0
LINE
  5
39E
330
1F
100
AcDbEntity
  8
LAYER0017
  6
CONTINUOUS
 62
     7
100
AcDbLine
 10
-338.4006942250253
 20
-192.0758811208414
 30
0.0
 11
-338.4006942250253
 21
-170.0758811208414
 31
0.0
  0
LINE
  5
39F
330
1F
100
AcDbEntity
  8
LAYER0017
  6
CONTINUOUS
 62
     7
100
AcDbLine
 10
-394.2006942250282
 20
-57.07588112085588
 30
0.0
 11
-377.7532545252598
 21
-57.07588112084133
 31
0.0
  0
LINE
  5
3A0
330
1F
100
AcDbEntity
  8
LAYER0017
  6
CONTINUOUS
 62
     7
100
AcDbLine
 10
-356.2961599745449
 20
-133.0758811208413
 30
0.0
 11
-394.2006942250282
 21
-133.0758811208413
 31
0.0
  0
LINE
  5
3A1
330
1F
100
AcDbEntity
  8
LAYER0017
  6
CONTINUOUS
 62
     7
100
AcDbLine
 10
-202.5722671002859
 20
-196.0758811208414
 30
0.0
 11
-202.4006942250253
 21
-196.0758811208414
 31
0.0
  0
LINE
  5
3A2
330
1F
100
AcDbEntity
  8
LAYER0017
  6
CONTINUOUS
 62
     7
100
AcDbLine
 10
-334.4006942250253
 20
-196.0758811208414
 30
0.0
 11
-334.2291213497792
 21
-196.0758811208414
 31
0.0
  0
LINE
  5
3A3
330
1F
100
AcDbEntity
  8
LAYER0017
  6
CONTINUOUS
 62
     7
100
AcDbLine
 10
-205.4006942250253
 20
-198.0758811208414
 30
0.0
 11
-331.4006942250253
 21
-198.0758811208414
 31
0.0
  0
ARC
  5
3A4
330
1F
100
AcDbEntity
  8
LAYER0017
  6
CONTINUOUS
 62
     7
100
AcDbCircle
 10
-194.4006942250253
 20
-170.0758811208414
 30
0.0
 40
4.0
100
AcDbArc
 50
90.00000000000001
 51
180.0
  0
ARC
  5
3A5
330
1F
100
AcDbEntity
  8
LAYER0017
  6
CONTINUOUS
 62
     7
100
AcDbCircle
 10
-342.4006942250253
 20
-170.0758811208414
 30
0.0
 40
4.0
100
AcDbArc
 50
0.000000000000007
 51
90.00000000000001
  0
ARC
  5
3A6
330
1F
100
AcDbEntity
  8
LAYER0017
  6
CONTINUOUS
 62
     7
100
AcDbCircle
 10
-334.2291213497792
 20
-199.0758811208414
 30
0.0
 40
3.0
100
AcDbArc
 50
19.47122063447273
 51
90.00000000000001
  0
ARC
  5
3A7
330
1F
100
AcDbEntity
  8
LAYER0017
  6
CONTINUOUS
 62
     7
100
AcDbCircle
 10
-202.5722671002859
 20
-199.0758811208414
 30
0.0
 40
3.0
100
AcDbArc
 50
90.00000000000001
 51
160.5287793655273
  0
ARC
  5
3A8
330
1F
100
AcDbEntity
  8
LAYER0017
  6
CONTINUOUS
 62
     7
100
AcDbCircle
 10
-202.4006942250253
 20
-192.0758811208414
 30
0.0
 40
4.0
100
AcDbArc
 50
270.0
 51
0.0
  0
ARC
  5
3A9
330
1F
100
AcDbEntity
  8
LAYER0017
  6
CONTINUOUS
 62
     7
100
AcDbCircle
 10
-334.4006942250253
 20
-192.0758811208414
 30
0.0
 40
4.0
100
AcDbArc
 50
180.0
 51
270.0
  0
LINE
  5
3AA
330
1F
100
AcDbEntity
  8
LAYER0017
  6
CONTINUOUS
 62
     7
100
AcDbLine
 10
-345.2090427212806
 20
-166.0758811208414
 30
0.0
 11
-342.4006942250253
 21
-166.0758811208414
 31
0.0
  0
LINE
  5
3AB
330
1F
100
AcDbEntity
  8
LAYER0017
  6
CONTINUOUS
 62
     7
100
AcDbLine
 10
-194.4006942250253
 20
-166.0758811208414
 30
0.0
 11
-191.5923457287699
 21
-166.0758811208414
 31
0.0
  0
LINE
  5
3AC
330
1F
100
AcDbEntity
  8
LAYER0017
  6
CONTINUOUS
 62
     7
100
AcDbLine
 10
-394.2006942250282
 20
-133.0758811208413
 30
0.0
 11
-394.4006942250253
 21
-132.8758811208442
 31
0.0
  0
LINE
  5
3AD
330
1F
100
AcDbEntity
  8
LAYER0017
  6
CONTINUOUS
 62
     7
100
AcDbLine
 10
-394.2006942250282
 20
-57.07588112085588
 30
0.0
 11
-394.4006942250253
 21
-57.27588112085297
 31
0.0
  0
LINE
  5
3AE
330
1F
100
AcDbEntity
  8
LAYER0017
  6
CONTINUOUS
 62
     7
100
AcDbLine
 10
-140.0043413561489
 20
38.97647277576678
 30
0.0
 11
-139.4006942250253
 21
15.92411887915867
 31
0.0
  0
LINE
  5
3AF
330
1F
100
AcDbEntity
  8
LAYER0017
  6
CONTINUOUS
 62
     7
100
AcDbLine
 10
-183.1224057135096
 20
133.7835805597081
 30
0.0
 11
-154.2124186246929
 21
120.3026321830351
 31
0.0
  0
LINE
  5
3B0
330
1F
100
AcDbEntity
  8
LAYER0017
  6
CONTINUOUS
 62
     7
100
AcDbLine
 10
-300.9006942250253
 20
135.4241188791587
 30
0.0
 11
-300.9006942250253
 21
135.9241188791587
 31
0.0
  0
LINE
  5
3B1
330
1F
100
AcDbEntity
  8
LAYER0017
  6
CONTINUOUS
 62
     7
100
AcDbLine
 10
-235.9006942250253
 20
135.9241188791587
 30
0.0
 11
-235.9006942250253
 21
135.4241188791587
 31
0.0
  0
LINE
  5
3B2
330
1F
100
AcDbEntity
  8
LAYER0017
  6
CONTINUOUS
 62
     7
100
AcDbLine
 10
-143.344899781745
 20
40.92411887915867
 30
0.0
 11
-142.0036560060962
 21
40.92411887915867
 31
0.0
  0
LINE
  5
3B3
330
1F
100
AcDbEntity
  8
LAYER0017
  6
CONTINUOUS
 62
     7
100
AcDbLine
 10
-153.3488601611152
 20
119.0299812767428
 30
0.0
 11
-149.4006942251999
 21
50.92411888212726
 31
0.0
  0
LINE
  5
3B4
330
1F
100
AcDbEntity
  8
LAYER0017
  6
CONTINUOUS
 62
     7
100
AcDbLine
 10
-353.0450553439277
 20
133.9241188791587
 30
0.0
 11
-183.7563331061228
 21
133.9241188791587
 31
0.0
  0
LINE
  5
3B5
330
1F
100
AcDbEntity
  8
LAYER0017
  6
CONTINUOUS
 62
     7
100
AcDbLine
 10
-139.4006942250253
 20
15.92411887915867
 30
0.0
 11
-138.4006942250253
 21
15.92411887915867
 31
0.0
  0
ARC
  5
3B6
330
1F
100
AcDbEntity
  8
LAYER0017
  6
CONTINUOUS
 62
     7
100
AcDbCircle
 10
-183.7563331061228
 20
132.4241188791587
 30
0.0
 40
1.5
100
AcDbArc
 50
65.00000000002206
 51
90.00000000000001
  0
ARC
  5
3B7
330
1F
100
AcDbEntity
  8
LAYER0017
  6
CONTINUOUS
 62
     7
100
AcDbCircle
 10
-302.4006942250253
 20
135.4241188791587
 30
0.0
 40
1.5
100
AcDbArc
 50
270.0
 51
0.0
  0
ARC
  5
3B8
330
1F
100
AcDbEntity
  8
LAYER0017
  6
CONTINUOUS
 62
     7
100
AcDbCircle
 10
-234.4006942250253
 20
135.4241188791587
 30
0.0
 40
1.5
100
AcDbArc
 50
180.0
 51
270.0
  0
ARC
  5
3B9
330
1F
100
AcDbEntity
  8
LAYER0017
  6
CONTINUOUS
 62
     7
100
AcDbCircle
 10
-142.0036560060962
 20
38.92411887915867
 30
0.0
 40
2.0
100
AcDbArc
 50
1.499999999989826
 51
90.00000000000001
  0
ARC
  5
3BA
330
1F
100
AcDbEntity
  8
LAYER0017
  6
CONTINUOUS
 62
     7
100
AcDbCircle
 10
-154.8463460173061
 20
118.9431705024711
 30
0.0
 40
1.5
100
AcDbArc
 50
3.317781168325561
 51
65.00000000002206
  0
ARC
  5
3BB
330
1F
100
AcDbEntity
  8
LAYER0017
  6
CONTINUOUS
 62
     7
100
AcDbCircle
 10
-136.9216454236721
 20
51.64754200106316
 30
0.0
 40
12.5
100
AcDbArc
 50
183.3177811820536
 51
239.078690512707
  0
LINE
  5
3BC
330
1F
100
AcDbEntity
  8
LAYER0017
  6
CONTINUOUS
 62
     7
100
AcDbLine
 10
-382.588969825355
 20
120.3026321830264
 30
0.0
 11
-353.678982736541
 21
133.7835805597081
 31
0.0
  0
ARC
  5
3BD
330
1F
100
AcDbEntity
  8
LAYER0017
  6
CONTINUOUS
 62
     7
100
AcDbCircle
 10
-353.0450553439277
 20
132.4241188791587
 30
0.0
 40
1.5
100
AcDbArc
 50
90.00000000000001
 51
114.999999999978
  0
LINE
  5
3BE
330
1F
100
AcDbEntity
  8
LAYER0017
  6
CONTINUOUS
 62
     7
100
AcDbLine
 10
-396.7970470939017
 20
38.97647277576678
 30
0.0
 11
-397.4006942250253
 21
15.92411887915867
 31
0.0
  0
LINE
  5
3BF
330
1F
100
AcDbEntity
  8
LAYER0017
  6
CONTINUOUS
 62
     7
100
AcDbLine
 10
-393.4564886683056
 20
40.92411887915867
 30
0.0
 11
-394.7977324439544
 21
40.92411887915867
 31
0.0
  0
LINE
  5
3C0
330
1F
100
AcDbEntity
  8
LAYER0017
  6
CONTINUOUS
 62
     7
100
AcDbLine
 10
-397.4006942250253
 20
15.92411887915867
 30
0.0
 11
-398.4006942250253
 21
15.92411887915867
 31
0.0
  0
ARC
  5
3C1
330
1F
100
AcDbEntity
  8
LAYER0017
  6
CONTINUOUS
 62
     7
100
AcDbCircle
 10
-394.7977324439544
 20
38.92411887915867
 30
0.0
 40
2.0
100
AcDbArc
 50
89.99999999999999
 51
178.5000000000102
  0
ARC
  5
3C2
330
1F
100
AcDbEntity
  8
LAYER0017
  6
CONTINUOUS
 62
     7
100
AcDbCircle
 10
-381.9550424327444
 20
118.9431705024711
 30
0.0
 40
1.5
100
AcDbArc
 50
114.999999999978
 51
176.6822188316744
  0
ARC
  5
3C3
330
1F
100
AcDbEntity
  8
LAYER0017
  6
CONTINUOUS
 62
     7
100
AcDbCircle
 10
-399.8797430263785
 20
51.64754200106316
 30
0.0
 40
12.5
100
AcDbArc
 50
300.9213094872929
 51
356.6822188179464
  0
LINE
  5
3C4
330
1F
100
AcDbEntity
  8
LAYER0017
  6
CONTINUOUS
 62
     7
100
AcDbLine
 10
-383.4525282889354
 20
119.0299812767428
 30
0.0
 11
-383.5166362540139
 21
117.9241188791369
 31
0.0
  0
LINE
  5
3C5
330
1F
100
AcDbEntity
  8
LAYER0017
  6
CONTINUOUS
 62
     7
100
AcDbLine
 10
-386.485842939998
 20
66.70530354585415
 30
0.0
 11
-387.4006942248507
 21
50.92411888212726
 31
0.0
  0
ARC
  5
3C6
330
1F
100
AcDbEntity
  8
LAYER0017
  6
CONTINUOUS
 62
     7
100
AcDbCircle
 10
-217.1307194509995
 20
80.92411887915867
 30
0.0
 40
20.0
100
AcDbArc
 50
0.0
 51
180.0
  0
LINE
  5
3C7
330
1F
100
AcDbEntity
  8
LAYER0017
  6
CONTINUOUS
 62
     7
100
AcDbLine
 10
-237.1307194509995
 20
10.92411887915867
 30
0.0
 11
-237.1307194509995
 21
80.92411887915867
 31
0.0
  0
LINE
  5
3C8
330
1F
100
AcDbEntity
  8
LAYER0017
  6
CONTINUOUS
 62
     7
100
AcDbLine
 10
-197.1307194509995
 20
80.92411887915867
 30
0.0
 11
-197.1307194509995
 21
10.92411887915867
 31
0.0
  0
LINE
  5
3C9
330
1F
100
AcDbEntity
  8
LAYER0017
  6
CONTINUOUS
 62
     7
100
AcDbLine
 10
-138.4006942250253
 20
15.92411887915867
 30
0.0
 11
-138.4006942250253
 21
10.92411887915867
 31
0.0
  0
LINE
  5
3CA
330
1F
100
AcDbEntity
  8
LAYER0017
  6
CONTINUOUS
 62
     7
100
AcDbLine
 10
-398.4006942250253
 20
10.92411887915867
 30
0.0
 11
-398.4006942250253
 21
15.92411887915867
 31
0.0
  0
CIRCLE
  5
3CB
330
1F
100
AcDbEntity
  8
LAYER0017
  6
CONTINUOUS
 62
     7
100
AcDbCircle
 10
-268.4006942250253
 20
523.3796797753062
 30
0.0
 40
32.5
  0
ARC
  5
3CC
330
1F
100
AcDbEntity
  8
LAYER0017
  6
CONTINUOUS
 62
     7
100
AcDbCircle
 10
-268.4006942250253
 20
523.3796797753062
 30
0.0
 40
126.4403604000785
100
AcDbArc
 50
265.8652845619756
 51
314.997804048183
  0
ARC
  5
3CD
330
1F
100
AcDbEntity
  8
LAYER0017
  6
CONTINUOUS
 62
     7
100
AcDbCircle
 10
-268.4006942250253
 20
523.3796797753062
 30
0.0
 40
126.4403604000785
100
AcDbArc
 50
195.0021835302175
 51
229.1347154380244
  0
ARC
  5
3CE
330
1F
100
AcDbEntity
  8
LAYER0017
  6
CONTINUOUS
 62
     7
100
AcDbCircle
 10
-268.4006942250253
 20
523.3796797753062
 30
0.0
 40
130.0
100
AcDbArc
 50
282.730185121185
 51
283.6501169015784
  0
ARC
  5
3CF
330
1F
100
AcDbEntity
  8
LAYER0017
  6
CONTINUOUS
 62
     7
100
AcDbCircle
 10
-268.4006942250251
 20
523.3796797753062
 30
0.0
 40
130.0
100
AcDbArc
 50
237.4376960644116
 51
257.5623039355852
  0
ARC
  5
3D0
330
1F
100
AcDbEntity
  8
LAYER0017
  6
CONTINUOUS
 62
     7
100
AcDbCircle
 10
-268.4006942250253
 20
523.3796797753062
 30
0.0
 40
130.0
100
AcDbArc
 50
301.3497442835854
 51
212.2644729508963
  0
SPLINE
  5
3D1
330
1F
100
AcDbEntity
  8
LAYER0017
  6
CONTINUOUS
 62
     7
100
AcDbSpline
210
0.0
220
0.0
230
1.0
 70
     8
 71
     3
 72
     8
 73
     4
 74
     0
 42
0.000000001
 43
0.0000000001
 40
0.0
 40
0.0
 40
0.0
 40
0.0
 40
1.0
 40
1.0
 40
1.0
 40
1.0
 10
-178.9923346490964
 20
433.971320199391
 30
0.0
 10
-178.9928433024602
 20
433.9718288527402
 30
0.0
 10
-178.9944780284991
 20
433.9712132720052
 30
0.0
 10
-178.9972846952137
 20
433.9694169273317
 30
0.0
  0
SPLINE
  5
3D2
330
1F
100
AcDbEntity
  8
LAYER0017
  6
CONTINUOUS
 62
     7
100
AcDbSpline
210
0.0
220
0.0
230
1.0
 70
     8
 71
     3
 72
     8
 73
     4
 74
     0
 42
0.000000001
 43
0.0000000001
 40
0.0
 40
0.0
 40
0.0
 40
0.0
 40
1.0
 40
1.0
 40
1.0
 40
1.0
 10
-168.7631167877394
 20
465.8533581138509
 30
0.0
 10
-168.7626789830815
 20
465.853465687007
 30
0.0
 10
-168.7623190863947
 20
465.8534370674061
 30
0.0
 10
-168.762036880797
 20
465.8532741359268
 30
0.0
  0
SPLINE
  5
3D3
330
1F
100
AcDbEntity
  8
LAYER0017
  6
CONTINUOUS
 62
     7
100
AcDbSpline
210
0.0
220
0.0
230
1.0
 70
     8
 71
     3
 72
     8
 73
     4
 74
     0
 42
0.000000001
 43
0.0000000001
 40
0.0
 40
0.0
 40
0.0
 40
0.0
 40
1.0
 40
1.0
 40
1.0
 40
1.0
 10
-390.5314565825233
 20
490.6498520324572
 30
0.0
 10
-390.5329816826547
 20
490.6527938786354
 30
0.0
 10
-390.534084665544
 20
490.6541364378978
 30
0.0
 10
-390.5347768766064
 20
490.6539509605105
 30
0.0
  0
LINE
  5
3D4
330
1F
100
AcDbEntity
  8
LAYER0017
  6
CONTINUOUS
 62
     7
100
AcDbLine
 10
-190.4006942250248
 20
627.3796797753203
 30
0.0
 11
-190.4006942250248
 21
656.8796797753203
 31
0.0
  0
LINE
  5
3D5
330
1F
100
AcDbEntity
  8
LAYER0017
  6
CONTINUOUS
 62
     7
100
AcDbLine
 10
-303.4006942250253
 20
-201.0758811208414
 30
0.0
 11
-303.4006942250253
 21
-198.0758811208414
 31
0.0
  0
LINE
  5
3D6
330
1F
100
AcDbEntity
  8
LAYER0017
  6
CONTINUOUS
 62
     7
100
AcDbLine
 10
-233.4006942250253
 20
-198.0758811208414
 30
0.0
 11
-233.4006942250253
 21
-201.0758811208414
 31
0.0
  0
LINE
  5
3D7
330
1F
100
AcDbEntity
  8
LAYER0017
  6
CONTINUOUS
 62
     7
100
AcDbLine
 10
196.1273323302344
 20
-196.0758811208414
 30
0.0
 11
195.9557594549883
 21
-196.0758811208414
 31
0.0
  0
LINE
  5
3D8
330
1F
100
AcDbEntity
  8
LAYER0017
  6
CONTINUOUS
 62
     7
100
AcDbLine
 10
191.9557594549883
 20
-192.0758811208414
 30
0.0
 11
191.9557594549883
 21
-170.0758811208414
 31
0.0
  0
LINE
  5
3D9
330
1F
100
AcDbEntity
  8
LAYER0017
  6
CONTINUOUS
 62
     7
100
AcDbLine
 10
187.9557594549883
 20
-166.0758811208414
 30
0.0
 11
185.147410958733
 21
-166.0758811208414
 31
0.0
  0
LINE
  5
3DA
330
1F
100
AcDbEntity
  8
LAYER0017
  6
CONTINUOUS
 62
     7
100
AcDbLine
 10
388.6057594549825
 20
10.92411887915867
 30
0.0
 11
391.9557594549883
 21
10.92411887915867
 31
0.0
  0
LINE
  5
3DB
330
1F
100
AcDbEntity
  8
LAYER0017
  6
CONTINUOUS
 62
     7
100
AcDbLine
 10
391.9557594549883
 20
10.92411887915867
 30
0.0
 11
391.9557594549883
 21
3.924118879158669
 31
0.0
  0
LINE
  5
3DC
330
1F
100
AcDbEntity
  8
LAYER0017
  6
CONTINUOUS
 62
     7
100
AcDbLine
 10
331.9557594549884
 20
-170.0758811208414
 30
0.0
 11
331.9557594549884
 21
-192.0758811208414
 31
0.0
  0
LINE
  5
3DD
330
1F
100
AcDbEntity
  8
LAYER0017
  6
CONTINUOUS
 62
     7
100
AcDbLine
 10
327.9557594549884
 20
-196.0758811208414
 30
0.0
 11
327.7841865797278
 21
-196.0758811208414
 31
0.0
  0
LINE
  5
3DE
330
1F
100
AcDbEntity
  8
LAYER0017
  6
CONTINUOUS
 62
     7
100
AcDbLine
 10
335.9557594549884
 20
-166.0758811208414
 30
0.0
 11
338.7641079512292
 21
-166.0758811208414
 31
0.0
  0
LINE
  5
3DF
330
1F
100
AcDbEntity
  8
LAYER0017
  6
CONTINUOUS
 62
     7
100
AcDbLine
 10
379.8557594549825
 20
10.92411887915867
 30
0.0
 11
383.3057594549796
 21
10.92411887915867
 31
0.0
  0
LINE
  5
3E0
330
1F
100
AcDbEntity
  8
LAYER0017
  6
CONTINUOUS
 62
     7
100
AcDbLine
 10
383.3057594549796
 20
10.92411887915867
 30
0.0
 11
388.6057594549825
 21
10.92411887915867
 31
0.0
  0
ARC
  5
3E1
330
1F
100
AcDbEntity
  8
LAYER0017
  6
CONTINUOUS
 62
     7
100
AcDbCircle
 10
327.7841865797278
 20
-199.0758811208414
 30
0.0
 40
3.0
100
AcDbArc
 50
90.00000000000001
 51
160.5287793655164
  0
ARC
  5
3E2
330
1F
100
AcDbEntity
  8
LAYER0017
  6
CONTINUOUS
 62
     7
100
AcDbCircle
 10
335.9557594549884
 20
-170.0758811208414
 30
0.0
 40
4.0
100
AcDbArc
 50
90.00000000000001
 51
180.0
  0
ARC
  5
3E3
330
1F
100
AcDbEntity
  8
LAYER0017
  6
CONTINUOUS
 62
     7
100
AcDbCircle
 10
187.9557594549883
 20
-170.0758811208414
 30
0.0
 40
4.0
100
AcDbArc
 50
0.000000000000007
 51
90.00000000000001
  0
ARC
  5
3E4
330
1F
100
AcDbEntity
  8
LAYER0017
  6
CONTINUOUS
 62
     7
100
AcDbCircle
 10
196.1273323302344
 20
-199.0758811208414
 30
0.0
 40
3.0
100
AcDbArc
 50
19.47122063448356
 51
90.00000000000001
  0
ARC
  5
3E5
330
1F
100
AcDbEntity
  8
LAYER0017
  6
CONTINUOUS
 62
     7
100
AcDbCircle
 10
327.9557594549884
 20
-192.0758811208414
 30
0.0
 40
4.0
100
AcDbArc
 50
270.0
 51
0.0
  0
ARC
  5
3E6
330
1F
100
AcDbEntity
  8
LAYER0017
  6
CONTINUOUS
 62
     7
100
AcDbCircle
 10
195.9557594549883
 20
-192.0758811208414
 30
0.0
 40
4.0
100
AcDbArc
 50
180.0
 51
270.0
  0
LINE
  5
3E7
330
1F
100
AcDbEntity
  8
LAYER0017
  6
CONTINUOUS
 62
     7
100
AcDbLine
 10
131.9557594549883
 20
3.924118879158669
 30
0.0
 11
131.9557594549883
 21
10.92411887915867
 31
0.0
  0
LINE
  5
3E8
330
1F
100
AcDbEntity
  8
LAYER0017
  6
CONTINUOUS
 62
     7
100
AcDbLine
 10
131.9557594549883
 20
10.92411887915867
 30
0.0
 11
135.3057594549796
 21
10.92411887915867
 31
0.0
  0
LINE
  5
3E9
330
1F
100
AcDbEntity
  8
LAYER0017
  6
CONTINUOUS
 62
     7
100
AcDbLine
 10
379.8557594549825
 20
10.92411887915867
 30
0.0
 11
144.0557594549796
 21
10.92411887915867
 31
0.0
  0
LINE
  5
3EA
330
1F
100
AcDbEntity
  8
LAYER0017
  6
CONTINUOUS
 62
     7
100
AcDbLine
 10
146.9029387487576
 20
119.0129616966245
 30
0.0
 11
146.9039253910782
 21
119.0299812767428
 31
0.0
  0
LINE
  5
3EB
330
1F
100
AcDbEntity
  8
LAYER0017
  6
CONTINUOUS
 62
     7
100
AcDbLine
 10
147.7674838546559
 20
120.3026321830351
 30
0.0
 11
176.6774709434726
 21
133.7835805597081
 31
0.0
  0
LINE
  5
3EC
330
1F
100
AcDbEntity
  8
LAYER0017
  6
CONTINUOUS
 62
     7
100
AcDbLine
 10
347.2340479665041
 20
133.7835805597081
 30
0.0
 11
376.1440350553208
 21
120.3026321830351
 31
0.0
  0
ARC
  5
3ED
330
1F
100
AcDbEntity
  8
LAYER0017
  6
CONTINUOUS
 62
     7
100
AcDbCircle
 10
148.4014112472546
 20
118.9431705024711
 30
0.0
 40
1.5
100
AcDbArc
 50
114.9999999999982
 51
176.6822188316922
  0
ARC
  5
3EE
330
1F
100
AcDbEntity
  8
LAYER0017
  6
CONTINUOUS
 62
     7
100
AcDbCircle
 10
375.5101076627075
 20
118.9431705024711
 30
0.0
 40
1.5
100
AcDbArc
 50
3.317781168342609
 51
65.00000000000153
  0
SPLINE
  5
3EF
330
1F
100
AcDbEntity
  8
LAYER0017
  6
CONTINUOUS
 62
     7
100
AcDbSpline
210
0.0
220
0.0
230
1.0
 70
     8
 71
     3
 72
     8
 73
     4
 74
     0
 42
0.000000001
 43
0.0000000001
 40
0.0
 40
0.0
 40
0.0
 40
0.0
 40
0.0271740956001013
 40
0.0271740956001013
 40
0.0271740956001013
 40
0.0271740956001013
 10
147.7675881198852
 20
120.3026321830351
 30
0.0
 10
147.7624625713547
 20
120.3002268972144
 30
0.0
 10
147.7573368998023
 20
120.2978179635341
 30
0.0
 10
147.7522111059411
 20
120.2954053846282
 30
0.0
  0
SPLINE
  5
3F0
330
1F
100
AcDbEntity
  8
LAYER0017
  6
CONTINUOUS
 62
     7
100
AcDbSpline
210
0.0
220
0.0
230
1.0
 70
     8
 71
     3
 72
     8
 73
     4
 74
     0
 42
0.000000001
 43
0.0000000001
 40
0.0
 40
0.0
 40
0.0
 40
0.0
 40
1.0
 40
1.0
 40
1.0
 40
1.0
 10
146.9029387487576
 20
119.0129616966245
 30
0.0
 10
146.9032677566179
 20
119.0186370824034
 30
0.0
 10
146.9035968934663
 20
119.0243146986562
 30
0.0
 10
146.9039253920532
 20
119.0299812767428
 30
0.0
  0
LINE
  5
3F1
330
1F
100
AcDbEntity
  8
LAYER0017
  6
CONTINUOUS
 62
     7
100
AcDbLine
 10
132.9557594549883
 20
15.92411887915867
 30
0.0
 11
133.5594065861119
 21
38.97647277576678
 31
0.0
  0
LINE
  5
3F2
330
1F
100
AcDbEntity
  8
LAYER0017
  6
CONTINUOUS
 62
     7
100
AcDbLine
 10
131.9557594549883
 20
10.92411887915867
 30
0.0
 11
131.9557594549883
 21
15.92411887915867
 31
0.0
  0
LINE
  5
3F3
330
1F
100
AcDbEntity
  8
LAYER0017
  6
CONTINUOUS
 62
     7
100
AcDbLine
 10
135.5587212360592
 20
40.92411887915867
 30
0.0
 11
136.899965011708
 21
40.92411887915867
 31
0.0
  0
LINE
  5
3F4
330
1F
100
AcDbEntity
  8
LAYER0017
  6
CONTINUOUS
 62
     7
100
AcDbLine
 10
147.9557594549883
 20
10.92411887915867
 30
0.0
 11
131.9557594549883
 21
10.92411887915867
 31
0.0
  0
LINE
  5
3F5
330
1F
100
AcDbEntity
  8
LAYER0017
  6
CONTINUOUS
 62
     7
100
AcDbLine
 10
131.9557594549883
 20
15.92411887915867
 30
0.0
 11
132.9557594549883
 21
15.92411887915867
 31
0.0
  0
ARC
  5
3F6
330
1F
100
AcDbEntity
  8
LAYER0017
  6
CONTINUOUS
 62
     7
100
AcDbCircle
 10
135.5587212360592
 20
38.92411887915867
 30
0.0
 40
2.0
100
AcDbArc
 50
90.00000000000001
 51
178.5000000000103
  0
SPLINE
  5
3F7
330
1F
100
AcDbEntity
  8
LAYER0017
  6
CONTINUOUS
 62
     7
100
AcDbSpline
210
0.0
220
0.0
230
1.0
 70
    24
 71
     3
 72
     8
 73
     4
 74
     0
 42
0.000000001
 43
0.0000000001
 40
0.0207725952083994
 40
0.0207725952083994
 40
0.0207725952083994
 40
0.0207725952083994
 40
1.0
 40
1.0
 40
1.0
 40
1.0
 10
142.9557574354008
 20
50.92408404123333
 30
0.0
 10
144.2714845398482
 20
73.62037659303522
 30
0.0
 10
145.5872116442956
 20
96.31666914483714
 30
0.0
 10
146.9029387487576
 20
119.0129616966245
 30
0.0
  0
ARC
  5
3F8
330
1F
100
AcDbEntity
  8
LAYER0017
  6
CONTINUOUS
 62
     7
100
AcDbCircle
 10
130.4767106536206
 20
51.64754200106316
 30
0.0
 40
12.5
100
AcDbArc
 50
300.9213094872778
 51
356.6822188179927
  0
LINE
  5
3F9
330
1F
100
AcDbEntity
  8
LAYER0017
  6
CONTINUOUS
 62
     7
100
AcDbLine
 10
390.3521123238647
 20
38.97647277576678
 30
0.0
 11
390.9557594549883
 21
15.92411887915867
 31
0.0
  0
LINE
  5
3FA
330
1F
100
AcDbEntity
  8
LAYER0017
  6
CONTINUOUS
 62
     7
100
AcDbLine
 10
377.0075935188984
 20
119.0299812767428
 30
0.0
 11
380.9557594549884
 21
50.92411887915867
 31
0.0
  0
LINE
  5
3FB
330
1F
100
AcDbEntity
  8
LAYER0017
  6
CONTINUOUS
 62
     7
100
AcDbLine
 10
391.9557594549883
 20
15.92411887915867
 30
0.0
 11
391.9557594549883
 21
10.92411887915867
 31
0.0
  0
LINE
  5
3FC
330
1F
100
AcDbEntity
  8
LAYER0017
  6
CONTINUOUS
 62
     7
100
AcDbLine
 10
387.0115538982687
 20
40.92411887915867
 30
0.0
 11
388.3527976739175
 21
40.92411887915867
 31
0.0
  0
LINE
  5
3FD
330
1F
100
AcDbEntity
  8
LAYER0017
  6
CONTINUOUS
 62
     7
100
AcDbLine
 10
383.4557594549884
 20
10.92411887915867
 30
0.0
 11
375.9557594549884
 21
10.92411887915867
 31
0.0
  0
LINE
  5
3FE
330
1F
100
AcDbEntity
  8
LAYER0017
  6
CONTINUOUS
 62
     7
100
AcDbLine
 10
391.9557594549883
 20
10.92411887915867
 30
0.0
 11
388.4557594549884
 21
10.92411887915867
 31
0.0
  0
LINE
  5
3FF
330
1F
100
AcDbEntity
  8
LAYER0017
  6
CONTINUOUS
 62
     7
100
AcDbLine
 10
390.9557594549883
 20
15.92411887915867
 30
0.0
 11
391.9557594549883
 21
15.92411887915867
 31
0.0
  0
LINE
  5
400
330
1F
100
AcDbEntity
  8
LAYER0017
  6
CONTINUOUS
 62
     7
100
AcDbLine
 10
388.4557594549884
 20
10.92411887915867
 30
0.0
 11
383.4557594549884
 21
10.92411887915867
 31
0.0
  0
ARC
  5
401
330
1F
100
AcDbEntity
  8
LAYER0017
  6
CONTINUOUS
 62
     7
100
AcDbCircle
 10
388.3527976739175
 20
38.92411887915867
 30
0.0
 40
2.0
100
AcDbArc
 50
1.499999999989712
 51
90.00000000000001
  0
ARC
  5
402
330
1F
100
AcDbEntity
  8
LAYER0017
  6
CONTINUOUS
 62
     7
100
AcDbCircle
 10
393.4348082563415
 20
51.64754200106316
 30
0.0
 40
12.5
100
AcDbArc
 50
183.3177811820073
 51
239.0786905127202
  0
LINE
  5
403
330
1F
100
AcDbEntity
  8
LAYER0017
  6
CONTINUOUS
 62
     7
100
AcDbLine
 10
229.4557594549884
 20
135.4241188791587
 30
0.0
 11
229.4557594549884
 21
135.9241188791587
 31
0.0
  0
LINE
  5
404
330
1F
100
AcDbEntity
  8
LAYER0017
  6
CONTINUOUS
 62
     7
100
AcDbLine
 10
294.4557594549884
 20
135.9241188791587
 30
0.0
 11
294.4557594549884
 21
135.4241188791587
 31
0.0
  0
LINE
  5
405
330
1F
100
AcDbEntity
  8
LAYER0017
  6
CONTINUOUS
 62
     7
100
AcDbLine
 10
295.9557594549884
 20
133.9241188791587
 30
0.0
 11
346.6001205738908
 21
133.9241188791587
 31
0.0
  0
ARC
  5
406
330
1F
100
AcDbEntity
  8
LAYER0017
  6
CONTINUOUS
 62
     7
100
AcDbCircle
 10
346.6001205738908
 20
132.4241188791587
 30
0.0
 40
1.5
100
AcDbArc
 50
65.00000000002206
 51
90.00000000000001
  0
ARC
  5
407
330
1F
100
AcDbEntity
  8
LAYER0017
  6
CONTINUOUS
 62
     7
100
AcDbCircle
 10
227.9557594549884
 20
135.4241188791587
 30
0.0
 40
1.5
100
AcDbArc
 50
270.0
 51
0.0
  0
ARC
  5
408
330
1F
100
AcDbEntity
  8
LAYER0017
  6
CONTINUOUS
 62
     7
100
AcDbCircle
 10
295.9557594549884
 20
135.4241188791587
 30
0.0
 40
1.5
100
AcDbArc
 50
180.0
 51
270.0
  0
LINE
  5
409
330
1F
100
AcDbEntity
  8
LAYER0017
  6
CONTINUOUS
 62
     7
100
AcDbLine
 10
177.3113983360859
 20
133.9241188791587
 30
0.0
 11
295.9557594549884
 21
133.9241188791587
 31
0.0
  0
ARC
  5
40A
330
1F
100
AcDbEntity
  8
LAYER0017
  6
CONTINUOUS
 62
     7
100
AcDbCircle
 10
177.3113983360859
 20
132.4241188791587
 30
0.0
 40
1.5
100
AcDbArc
 50
90.00000000000001
 51
114.999999999978
  0
LINE
  5
40B
330
1F
100
AcDbEntity
  8
LAYER0017
  6
CONTINUOUS
 62
     7
100
AcDbLine
 10
226.9557594549884
 20
-201.0758811208414
 30
0.0
 11
226.9557594549884
 21
-198.0758811208414
 31
0.0
  0
LINE
  5
40C
330
1F
100
AcDbEntity
  8
LAYER0017
  6
CONTINUOUS
 62
     7
100
AcDbLine
 10
296.9557594549884
 20
-198.0758811208414
 30
0.0
 11
296.9557594549884
 21
-201.0758811208414
 31
0.0
  0
LINE
  5
40D
330
1F
100
AcDbEntity
  8
LAYER0017
  6
CONTINUOUS
 62
     7
100
AcDbLine
 10
-380.4006942250249
 20
-648.1862512623047
 30
0.0
 11
-191.9006942250248
 21
-648.1862512623047
 31
0.0
  0
LINE
  5
40E
330
1F
100
AcDbEntity
  8
LAYER0017
  6
CONTINUOUS
 62
     7
100
AcDbLine
 10
-190.4006942250248
 20
-575.2346194922588
 30
0.0
 11
-190.4006942250248
 21
-646.6862512623047
 31
0.0
  0
LINE
  5
40F
330
1F
100
AcDbEntity
  8
LAYER0017
  6
CONTINUOUS
 62
     7
100
AcDbLine
 10
-238.4006942250253
 20
-449.9406980589409
 30
0.0
 11
-238.4006942250253
 21
-447.1862512623046
 31
0.0
  0
LINE
  5
410
330
1F
100
AcDbEntity
  8
LAYER0017
  6
CONTINUOUS
 62
     7
100
AcDbLine
 10
-298.4006942250253
 20
-447.1862512623046
 30
0.0
 11
-298.4006942250253
 21
-449.9406980589409
 31
0.0
  0
LINE
  5
411
330
1F
100
AcDbEntity
  8
LAYER0017
  6
CONTINUOUS
 62
     7
100
AcDbLine
 10
-242.4006942250253
 20
-443.1862512623046
 30
0.0
 11
-294.4006942250253
 21
-443.1862512623046
 31
0.0
  0
CIRCLE
  5
412
330
1F
100
AcDbEntity
  8
LAYER0017
  6
CONTINUOUS
 62
     7
100
AcDbCircle
 10
-268.4006942250248
 20
-513.1862512623047
 30
0.0
 40
35.0
  0
ARC
  5
413
330
1F
100
AcDbEntity
  8
LAYER0017
  6
CONTINUOUS
 62
     7
100
AcDbCircle
 10
-242.4006942250253
 20
-447.1862512623046
 30
0.0
 40
4.0
100
AcDbArc
 50
0.000000000000007
 51
90.00000000000001
  0
ARC
  5
414
330
1F
100
AcDbEntity
  8
LAYER0017
  6
CONTINUOUS
 62
     7
100
AcDbCircle
 10
-294.4006942250253
 20
-447.1862512623046
 30
0.0
 40
4.0
100
AcDbArc
 50
90.00000000000001
 51
180.0
  0
CIRCLE
  5
415
330
1F
100
AcDbEntity
  8
LAYER0017
  6
CONTINUOUS
 62
     7
100
AcDbCircle
 10
-268.4006942250248
 20
-513.1862512623047
 30
0.0
 40
63.0
  0
ARC
  5
416
330
1F
100
AcDbEntity
  8
LAYER0017
  6
CONTINUOUS
 62
     7
100
AcDbCircle
 10
-268.4006942250248
 20
-513.1862512623047
 30
0.0
 40
70.0
100
AcDbArc
 50
115.3769335251507
 51
64.62306647484934
  0
LINE
  5
417
330
1F
100
AcDbEntity
  8
LAYER0017
  6
CONTINUOUS
 62
     7
100
AcDbLine
 10
257.9844773351595
 20
375.8796797753175
 30
0.0
 11
257.9844773351595
 21
378.8796797753175
 31
0.0
  0
LINE
  5
418
330
1F
100
AcDbEntity
  8
LAYER0017
  6
CONTINUOUS
 62
     7
100
AcDbLine
 10
327.9844773351595
 20
378.8796797753175
 30
0.0
 11
327.9844773351595
 21
375.8796797753175
 31
0.0
  0
LINE
  5
419
330
1F
100
AcDbEntity
  8
LAYER0017
  6
CONTINUOUS
 62
     7
100
AcDbLine
 10
162.9844773351585
 20
592.8796797752925
 30
0.0
 11
162.9844773351595
 21
587.8796797752927
 31
0.0
  0
LINE
  5
41A
330
1F
100
AcDbEntity
  8
LAYER0017
  6
CONTINUOUS
 62
     7
100
AcDbLine
 10
422.9844773351604
 20
587.8796797753425
 30
0.0
 11
422.9844773351595
 21
592.8796797753423
 31
0.0
  0
LINE
  5
41B
330
1F
100
AcDbEntity
  8
LAYER0017
  6
CONTINUOUS
 62
     7
100
AcDbLine
 10
421.9844773351585
 20
592.8796797753425
 30
0.0
 11
421.4607589037705
 21
612.8796797753421
 31
0.0
  0
LINE
  5
41C
330
1F
100
AcDbEntity
  8
LAYER0017
  6
CONTINUOUS
 62
     7
100
AcDbLine
 10
166.5441169350613
 20
690.6283724519526
 30
0.0
 11
163.9844773351585
 21
592.8796797752925
 31
0.0
  0
LINE
  5
41D
330
1F
100
AcDbEntity
  8
LAYER0017
  6
CONTINUOUS
 62
     7
100
AcDbLine
 10
207.7061888236228
 20
710.7391414558556
 30
0.0
 11
167.4096755299131
 21
691.948568710046
 31
0.0
  0
LINE
  5
41E
330
1F
100
AcDbEntity
  8
LAYER0017
  6
CONTINUOUS
 62
     7
100
AcDbLine
 10
260.4844773351349
 20
712.8796797753116
 30
0.0
 11
260.4844773351358
 21
712.3796797753121
 31
0.0
  0
LINE
  5
41F
330
1F
100
AcDbEntity
  8
LAYER0017
  6
CONTINUOUS
 62
     7
100
AcDbLine
 10
325.4844773351358
 20
712.3796797753243
 30
0.0
 11
325.4844773351349
 21
712.8796797753243
 31
0.0
  0
LINE
  5
420
330
1F
100
AcDbEntity
  8
LAYER0017
  6
CONTINUOUS
 62
     7
100
AcDbLine
 10
377.628867666979
 20
710.8796797753341
 30
0.0
 11
292.9844773351358
 21
710.879679775318
 31
0.0
  0
LINE
  5
421
330
1F
100
AcDbEntity
  8
LAYER0017
  6
CONTINUOUS
 62
     7
100
AcDbLine
 10
260.5924826918051
 20
710.8796797753112
 30
0.0
 11
208.3401162162343
 21
710.8796797753016
 31
0.0
  0
LINE
  5
422
330
1F
100
AcDbEntity
  8
LAYER0017
  6
CONTINUOUS
 62
     7
100
AcDbLine
 10
292.9844773351358
 20
710.879679775318
 30
0.0
 11
260.5924826918051
 21
710.8796797753112
 31
0.0
  0
LINE
  5
423
330
1F
100
AcDbEntity
  8
LAYER0017
  6
CONTINUOUS
 62
     7
100
AcDbLine
 10
369.6718523343523
 20
592.8796797753325
 30
0.0
 11
162.984477586743
 21
592.8796797752927
 31
0.0
  0
LINE
  5
424
330
1F
100
AcDbEntity
  8
LAYER0017
  6
CONTINUOUS
 62
     7
100
AcDbLine
 10
422.9844767694265
 20
592.8796797753428
 30
0.0
 11
397.9561235818153
 21
592.8796797753375
 31
0.0
  0
LINE
  5
425
330
1F
100
AcDbEntity
  8
LAYER0017
  6
CONTINUOUS
 62
     7
100
AcDbLine
 10
422.9844773351604
 20
587.8796797753425
 30
0.0
 11
292.9844773351595
 21
587.879679775318
 31
0.0
  0
LINE
  5
426
330
1F
100
AcDbEntity
  8
LAYER0017
  6
CONTINUOUS
 62
     7
100
AcDbLine
 10
243.2356311276978
 20
587.879679775308
 30
0.0
 11
162.9844773351595
 21
587.8796797752927
 31
0.0
  0
LINE
  5
427
330
1F
100
AcDbEntity
  8
LAYER0017
  6
CONTINUOUS
 62
     7
100
AcDbLine
 10
292.9844773351595
 20
587.879679775318
 30
0.0
 11
243.2356311276978
 21
587.879679775308
 31
0.0
  0
LINE
  5
428
330
1F
100
AcDbEntity
  8
LAYER0017
  6
CONTINUOUS
 62
     7
100
AcDbLine
 10
397.9561235818153
 20
592.8796797753375
 30
0.0
 11
369.6718523343523
 21
592.8796797753325
 31
0.0
  0
ARC
  5
429
330
1F
100
AcDbEntity
  8
LAYER0017
  6
CONTINUOUS
 62
     7
100
AcDbCircle
 10
208.3401162162343
 20
709.3796797753021
 30
0.0
 40
1.5
100
AcDbArc
 50
90.0000000000232
 51
115.0000000000036
  0
LINE
  5
42A
330
1F
100
AcDbEntity
  8
LAYER0017
  6
CONTINUOUS
 62
     7
100
AcDbLine
 10
378.2627950595895
 20
710.7391414558879
 30
0.0
 11
418.5592787792436
 21
691.9485825007057
 31
0.0
  0
ARC
  5
42B
330
1F
100
AcDbEntity
  8
LAYER0017
  6
CONTINUOUS
 62
     7
100
AcDbCircle
 10
377.628867666979
 20
709.3796797753344
 30
0.0
 40
1.5
100
AcDbArc
 50
65.00000000001806
 51
89.99999999999848
  0
ARC
  5
42C
330
1F
100
AcDbEntity
  8
LAYER0017
  6
CONTINUOUS
 62
     7
100
AcDbCircle
 10
168.0436029225245
 20
690.5891070294913
 30
0.0
 40
1.5
100
AcDbArc
 50
115.0000000000095
 51
178.5000000000114
  0
ARC
  5
42D
330
1F
100
AcDbEntity
  8
LAYER0017
  6
CONTINUOUS
 62
     7
100
AcDbCircle
 10
417.9253513866331
 20
690.5891208201506
 30
0.0
 40
1.5
100
AcDbArc
 50
40.14876867681743
 51
65.00000000001234
  0
LINE
  5
42E
330
1F
100
AcDbEntity
  8
LAYER0017
  6
CONTINUOUS
 62
     7
100
AcDbLine
 10
260.4844773351358
 20
712.379679775318
 30
0.0
 11
260.4844773351358
 21
712.879679775318
 31
0.0
  0
LINE
  5
42F
330
1F
100
AcDbEntity
  8
LAYER0017
  6
CONTINUOUS
 62
     7
100
AcDbLine
 10
325.4844773351358
 20
712.879679775318
 30
0.0
 11
325.4844773351358
 21
712.379679775318
 31
0.0
  0
ARC
  5
430
330
1F
100
AcDbEntity
  8
LAYER0017
  6
CONTINUOUS
 62
     7
100
AcDbCircle
 10
258.9844773351358
 20
712.379679775318
 30
0.0
 40
1.5
100
AcDbArc
 50
270.0
 51
0.0
  0
ARC
  5
431
330
1F
100
AcDbEntity
  8
LAYER0017
  6
CONTINUOUS
 62
     7
100
AcDbCircle
 10
326.9844773351358
 20
712.379679775318
 30
0.0
 40
1.5
100
AcDbArc
 50
180.0
 51
270.0
  0
ARC
  5
432
330
1F
100
AcDbEntity
  8
LAYER0017
  6
CONTINUOUS
 62
     7
100
AcDbCircle
 10
-268.4006942250248
 20
-513.1862512623047
 30
0.0
 40
80.70752515011567
100
AcDbArc
 50
103.9858327488712
 51
76.0141672511294
  0
ARC
  5
433
330
1F
100
AcDbEntity
  8
LAYER0017
  6
CONTINUOUS
 62
     7
100
AcDbCircle
 10
-268.4006942250248
 20
-513.1862512623047
 30
0.0
 40
80.70752515011567
100
AcDbArc
 50
84.99667248004845
 51
95.00332751995157
  0
ARC
  5
434
330
1F
100
AcDbEntity
  8
LAYER0017
  6
CONTINUOUS
 62
     7
100
AcDbCircle
 10
-191.9006942250248
 20
-646.6862512623047
 30
0.0
 40
1.5
100
AcDbArc
 50
270.0
 51
0.0
  0
LINE
  5
435
330
1F
100
AcDbEntity
  8
LAYER0017
  6
CONTINUOUS
 62
     7
100
AcDbLine
 10
-394.4006942250253
 20
-132.8758811208442
 30
0.0
 11
-394.4006942250253
 21
-57.27588112085297
 31
0.0
  0
LINE
  5
436
330
1F
100
AcDbEntity
  8
LAYER0017
  6
CONTINUOUS
 62
     7
100
AcDbLine
 10
-394.4006942250248
 20
658.1796797752945
 30
0.0
 11
-394.4006942250248
 21
582.5796797753032
 31
0.0
  0
LINE
  5
437
330
1F
100
AcDbEntity
  8
LAYER0017
  6
CONTINUOUS
 62
     7
100
AcDbLine
 10
-380.4006942250248
 20
658.3796797753207
 30
0.0
 11
-394.2006942250277
 21
658.3796797753062
 31
0.0
  0
LINE
  5
438
330
1F
100
AcDbEntity
  8
LAYER0017
  6
CONTINUOUS
 62
     7
100
AcDbLine
 10
-394.2006942250277
 20
582.3796797753062
 30
0.0
 11
-384.2411016828823
 21
582.3796797753062
 31
0.0
  0
LINE
  5
439
330
1F
100
AcDbEntity
  8
LAYER0017
  6
CONTINUOUS
 62
     7
100
AcDbLine
 10
-394.4006942250248
 20
658.1796797752945
 30
0.0
 11
-394.2006942250277
 21
658.3796797753062
 31
0.0
  0
LINE
  5
43A
330
1F
100
AcDbEntity
  8
LAYER0017
  6
CONTINUOUS
 62
     7
100
AcDbLine
 10
-394.4006942250248
 20
582.5796797753032
 30
0.0
 11
-394.2006942250277
 21
582.3796797753062
 31
0.0
  0
ARC
  5
43B
330
1F
100
AcDbEntity
  8
LAYER0017
  6
CONTINUOUS
 62
     7
100
AcDbCircle
 10
358.9557594549884
 20
-95.07588112084133
 30
0.0
 40
38.0
100
AcDbArc
 50
270.0
 51
55.63807213512957
  0
LINE
  5
43C
330
1F
100
AcDbEntity
  8
LAYER0017
  6
CONTINUOUS
 62
     7
100
AcDbLine
 10
-394.4006942250249
 20
-572.3862512623018
 30
0.0
 11
-394.4006942250249
 21
-647.9862512623076
 31
0.0
  0
LINE
  5
43D
330
1F
100
AcDbEntity
  8
LAYER0017
  6
CONTINUOUS
 62
     7
100
AcDbLine
 10
-345.3942004446995
 20
-572.1862512623047
 30
0.0
 11
-394.2006942250278
 21
-572.1862512623047
 31
0.0
  0
LINE
  5
43E
330
1F
100
AcDbEntity
  8
LAYER0017
  6
CONTINUOUS
 62
     7
100
AcDbLine
 10
-394.2006942250278
 20
-648.1862512623047
 30
0.0
 11
-380.4006942250249
 21
-648.1862512623047
 31
0.0
  0
LINE
  5
43F
330
1F
100
AcDbEntity
  8
LAYER0017
  6
CONTINUOUS
 62
     7
100
AcDbLine
 10
-394.4006942250249
 20
-647.9862512623076
 30
0.0
 11
-394.2006942250278
 21
-648.1862512623047
 31
0.0
  0
LINE
  5
440
330
1F
100
AcDbEntity
  8
LAYER0017
  6
CONTINUOUS
 62
     7
100
AcDbLine
 10
-394.4006942250249
 20
-572.3862512623018
 30
0.0
 11
-394.2006942250278
 21
-572.1862512623047
 31
0.0
  0
ARC
  5
441
330
1F
100
AcDbEntity
  8
LAYER0017
  6
CONTINUOUS
 62
     7
100
AcDbCircle
 10
195.9844773351596
 20
447.3796797753178
 30
0.0
 40
4.0
100
AcDbArc
 50
0.0
 51
180.0
  0
ARC
  5
442
330
1F
100
AcDbEntity
  8
LAYER0017
  6
CONTINUOUS
 62
     7
100
AcDbCircle
 10
225.862353765723
 20
499.1296797753178
 30
0.0
 40
4.0
100
AcDbArc
 50
120.0000000000098
 51
300.0000000000098
  0
ARC
  5
443
330
1F
100
AcDbEntity
  8
LAYER0017
  6
CONTINUOUS
 62
     7
100
AcDbCircle
 10
166.1066009045961
 20
499.1296797753178
 30
0.0
 40
4.0
100
AcDbArc
 50
239.9999999999902
 51
59.99999999999022
  0
LINE
  5
444
330
1F
100
AcDbEntity
  8
LAYER0017
  6
CONTINUOUS
 62
     7
100
AcDbLine
 10
161.7431994448524
 20
497.0300886291664
 30
0.0
 11
164.106600904597
 21
495.6655781601797
 31
0.0
  0
LINE
  5
445
330
1F
100
AcDbEntity
  8
LAYER0017
  6
CONTINUOUS
 62
     7
100
AcDbLine
 10
168.106600904597
 20
502.5937813904559
 30
0.0
 11
165.7431994448524
 21
503.9582918594418
 31
0.0
  0
ARC
  5
446
330
1F
100
AcDbEntity
  8
LAYER0017
  6
CONTINUOUS
 62
     7
100
AcDbCircle
 10
165.9931994448524
 20
504.3913045613347
 30
0.0
 40
0.5
100
AcDbArc
 50
143.1078974206611
 51
240.0
  0
ARC
  5
447
330
1F
100
AcDbEntity
  8
LAYER0017
  6
CONTINUOUS
 62
     7
100
AcDbCircle
 10
161.4931994448524
 20
496.5970759272744
 30
0.0
 40
0.5
100
AcDbArc
 50
60.0
 51
156.8921025793388
  0
LINE
  5
448
330
1F
100
AcDbEntity
  8
LAYER0017
  6
CONTINUOUS
 62
     7
100
AcDbLine
 10
226.2257552254667
 20
503.9582918594418
 30
0.0
 11
223.8623537657221
 21
502.5937813904559
 31
0.0
  0
LINE
  5
449
330
1F
100
AcDbEntity
  8
LAYER0017
  6
CONTINUOUS
 62
     7
100
AcDbLine
 10
227.8623537657221
 20
495.6655781601797
 30
0.0
 11
230.2257552254667
 21
497.0300886291655
 31
0.0
  0
ARC
  5
44A
330
1F
100
AcDbEntity
  8
LAYER0017
  6
CONTINUOUS
 62
     7
100
AcDbCircle
 10
230.4757552254667
 20
496.5970759272744
 30
0.0
 40
0.5
100
AcDbArc
 50
23.10789742066117
 51
120.0
  0
ARC
  5
44B
330
1F
100
AcDbEntity
  8
LAYER0017
  6
CONTINUOUS
 62
     7
100
AcDbCircle
 10
225.9757552254667
 20
504.3913045613338
 30
0.0
 40
0.5
100
AcDbArc
 50
300.0
 51
36.89210257933886
  0
LINE
  5
44C
330
1F
100
AcDbEntity
  8
LAYER0017
  6
CONTINUOUS
 62
     7
100
AcDbLine
 10
191.9844773351596
 20
444.6506588373452
 30
0.0
 11
191.9844773351596
 21
447.3796797753178
 31
0.0
  0
LINE
  5
44D
330
1F
100
AcDbEntity
  8
LAYER0017
  6
CONTINUOUS
 62
     7
100
AcDbLine
 10
199.9844773351596
 20
447.3796797753178
 30
0.0
 11
199.9844773351596
 21
444.6506588373452
 31
0.0
  0
ARC
  5
44E
330
1F
100
AcDbEntity
  8
LAYER0017
  6
CONTINUOUS
 62
     7
100
AcDbCircle
 10
200.4844773351596
 20
444.6506588373452
 30
0.0
 40
0.5
100
AcDbArc
 50
180.0
 51
276.8921025793388
  0
ARC
  5
44F
330
1F
100
AcDbEntity
  8
LAYER0017
  6
CONTINUOUS
 62
     7
100
AcDbCircle
 10
191.4844773351596
 20
444.6506588373452
 30
0.0
 40
0.5
100
AcDbArc
 50
263.1078974206612
 51
0.0
  0
ARC
  5
450
330
1F
100
AcDbEntity
  8
LAYER0017
  6
CONTINUOUS
 62
     7
100
AcDbCircle
 10
195.9844773351596
 20
481.8796797753178
 30
0.0
 40
38.0
100
AcDbArc
 50
231.6182724221579
 51
308.381727577842
  0
ARC
  5
451
330
1F
100
AcDbEntity
  8
LAYER0017
  6
CONTINUOUS
 62
     7
100
AcDbCircle
 10
195.9844773351596
 20
481.8796797753178
 30
0.0
 40
38.0
100
AcDbArc
 50
351.6182724221581
 51
68.38172757784206
  0
ARC
  5
452
330
1F
100
AcDbEntity
  8
LAYER0017
  6
CONTINUOUS
 62
     7
100
AcDbCircle
 10
195.9844773351596
 20
481.8796797753178
 30
0.0
 40
38.0
100
AcDbArc
 50
111.6182724221584
 51
188.3817275778417
  0
LINE
  5
453
330
1F
100
AcDbEntity
  8
0
  6
CENTERX2
 62
   222
100
AcDbLine
 10
-268.4006942250253
 20
194.2743790283837
 30
0.0
 11
-268.4006942250253
 21
-277.0758811208414
 31
0.0
  0
LINE
  5
454
330
1F
100
AcDbEntity
  8
0
  6
CENTERX2
 62
   222
100
AcDbLine
 10
-115.4300571935873
 20
523.3796797753205
 30
0.0
 11
-425.6657024799475
 21
523.3796797753209
 31
0.0
  0
LINE
  5
455
330
1F
100
AcDbEntity
  8
0
  6
CENTERX2
 62
   222
100
AcDbLine
 10
-342.9432970304124
 20
-95.07588112085588
 30
0.0
 11
-429.4373512146006
 21
-95.07588112085588
 31
0.0
  0
LINE
  5
456
330
1F
100
AcDbEntity
  8
0
  6
CENTERX2
 62
   222
100
AcDbLine
 10
261.9557594549884
 20
257.0055295534578
 30
0.0
 11
261.9557594549884
 21
-273.0758811208414
 31
0.0
  0
CIRCLE
  5
457
330
1F
100
AcDbEntity
  8
0
  6
CENTERX2
 62
   222
100
AcDbCircle
 10
-268.4006942250248
 20
-513.1862512623047
 30
0.0
 40
51.00002326771309
  0
LINE
  5
458
330
1F
100
AcDbEntity
  8
0
  6
CENTERX2
 62
   222
100
AcDbLine
 10
-268.4006942250248
 20
-669.9086236320727
 30
0.0
 11
-268.4006942250253
 21
-367.1862512623046
 31
0.0
  0
LINE
  5
459
330
1F
100
AcDbEntity
  8
0
  6
CENTERX2
 62
   222
100
AcDbLine
 10
-427.7603775462718
 20
-610.1862512623047
 30
0.0
 11
-188.4760073250923
 21
-610.1862512623047
 31
0.0
  0
LINE
  5
45A
330
1F
100
AcDbEntity
  8
0
  6
CENTERX2
 62
   222
100
AcDbLine
 10
292.9844773351595
 20
320.0666908597645
 30
0.0
 11
292.9844773351595
 21
732.5236470428251
 31
0.0
  0
LINE
  5
45B
330
1F
100
AcDbEntity
  8
0
  6
CENTERX2
 62
   222
100
AcDbLine
 10
-180.7194533579004
 20
14.54048890981866
 30
0.0
 11
-180.7194533579004
 21
-1.753856968821708
 31
0.0
  0
LINE
  5
45C
330
1F
100
AcDbEntity
  8
0
  6
CENTERX2
 62
   222
100
AcDbLine
 10
-356.0819350921502
 20
14.54048890981866
 30
0.0
 11
-356.0819350921502
 21
-1.753856968821708
 31
0.0
  0
LINE
  5
45D
330
1F
100
AcDbEntity
  8
0
  6
CENTERX2
 62
   222
100
AcDbLine
 10
349.6370003221132
 20
14.54048890981844
 30
0.0
 11
349.6370003221132
 21
-1.753856968821935
 31
0.0
  0
LINE
  5
45E
330
1F
100
AcDbEntity
  8
0
  6
CENTERX2
 62
   222
100
AcDbLine
 10
174.2745185878634
 20
14.54048890981844
 30
0.0
 11
174.2745185878634
 21
-1.753856968821935
 31
0.0
  0
LINE
  5
45F
330
1F
100
AcDbEntity
  8
0
  6
CENTERX2
 62
   222
100
AcDbLine
 10
380.6657182022843
 20
591.4960498059777
 30
0.0
 11
380.6657182022843
 21
575.2017039273373
 31
0.0
  0
LINE
  5
460
330
1F
100
AcDbEntity
  8
0
  6
CENTERX2
 62
   222
100
AcDbLine
 10
468.787525894846
 20
-95.07588112084187
 30
0.0
 11
311.9680519229434
 21
-95.07588112084187
 31
0.0
  0
LINE
  5
461
330
1F
100
AcDbEntity
  8
0
  6
CENTERX2
 62
   222
100
AcDbLine
 10
358.9557594549881
 20
-66.99941096213502
 30
0.0
 11
358.9557594549881
 21
-204.9076475606998
 31
0.0
  0
LINE
  5
462
330
1F
100
AcDbEntity
  8
0
  6
CENTER
 62
   222
100
AcDbLine
 10
-291.6743573868266
 20
-185.0758811208414
 30
0.0
 11
-245.1400664530925
 21
-185.0758811208414
 31
0.0
  0
LINE
  5
463
330
1F
100
AcDbEntity
  8
0
  6
CENTER
 62
   222
100
AcDbLine
 10
-256.4006942250253
 20
-174.7100439066423
 30
0.0
 11
-256.4006942250253
 21
-195.3260289685393
 31
0.0
  0
LINE
  5
464
330
1F
100
AcDbEntity
  8
0
  6
CENTER
 62
   222
100
AcDbLine
 10
-280.4006942250253
 20
-174.7100439066423
 30
0.0
 11
-280.4006942250253
 21
-195.3260289685393
 31
0.0
  0
LINE
  5
465
330
1F
100
AcDbEntity
  8
0
  6
CENTER
 62
   222
100
AcDbLine
 10
-203.6307194509995
 20
35.42411887915867
 30
0.0
 11
-230.6307194509995
 21
35.42411887915867
 31
0.0
  0
LINE
  5
466
330
1F
100
AcDbEntity
  8
0
  6
CENTER
 62
   222
100
AcDbLine
 10
-203.6307194509995
 20
80.92411887915867
 30
0.0
 11
-230.6307194509995
 21
80.92411887915867
 31
0.0
  0
LINE
  5
467
330
1F
100
AcDbEntity
  8
0
  6
CENTER
 62
   222
100
AcDbLine
 10
-217.1307194509995
 20
94.4241188791587
 30
0.0
 11
-217.1307194509995
 21
21.41774374955324
 31
0.0
  0
LINE
  5
468
330
1F
100
AcDbEntity
  8
0
  6
CENTER
 62
   222
100
AcDbLine
 10
-429.6665815414572
 20
620.3796797753062
 30
0.0
 11
-354.9512574814412
 21
620.3796797753062
 31
0.0
  0
LINE
  5
469
330
1F
100
AcDbEntity
  8
LAYER0017
  6
CENTERX2
 62
   222
100
AcDbLine
 10
-268.4006942250248
 20
672.146054732181
 30
0.0
 11
-268.400694225026
 21
287.6136149935321
 31
0.0
  0
LINE
  5
46A
330
1F
100
AcDbEntity
  8
LAYER0017
  6
CENTERX2
 62
   222
100
AcDbLine
 10
-224.8521544448436
 20
418.2442044164528
 30
0.0
 11
-214.576152112712
 21
393.4357402192291
 31
0.0
  0
LINE
  5
46B
330
1F
100
AcDbEntity
  8
LAYER0017
  6
CENTERX2
 62
   222
100
AcDbLine
 10
-134.4006942250248
 20
-513.1862512623047
 30
0.0
 11
-402.4006942250249
 21
-513.1862512623047
 31
0.0
  0
LINE
  5
46C
330
1F
100
AcDbEntity
  8
LAYER0017
  6
CENTERX2
 62
   222
100
AcDbLine
 10
-256.4006942250254
 20
-428.5351022078758
 30
0.0
 11
-256.4006942250248
 21
-487.3844936018833
 31
0.0
  0
LINE
  5
46D
330
1F
100
AcDbEntity
  8
LAYER0017
  6
CENTERX2
 62
   222
100
AcDbLine
 10
-280.4006942250254
 20
-428.535102207876
 30
0.0
 11
-280.4006942250248
 21
-487.3844936018835
 31
0.0
  0
LINE
  5
46E
330
1F
100
AcDbEntity
  8
LAYER0017
  6
CENTER
 62
   222
100
AcDbLine
 10
178.2521249111492
 20
-187.0758811208414
 30
0.0
 11
206.6943829906127
 21
-187.0758811208414
 31
0.0
  0
LINE
  5
46F
330
1F
100
AcDbEntity
  8
LAYER0017
  6
CENTER
 62
   222
100
AcDbLine
 10
-309.4052805773518
 20
-472.1815929946751
 30
0.0
 11
-299.1514348018077
 21
-482.4354387702041
 31
0.0
  0
LINE
  5
470
330
1F
100
AcDbEntity
  8
LAYER0017
  6
CENTER
 62
   222
100
AcDbLine
 10
-227.3961078727134
 20
-472.1815929946751
 30
0.0
 11
-237.649953648242
 21
-482.4354387702041
 31
0.0
  0
LINE
  5
471
330
1F
100
AcDbEntity
  8
LAYER0017
  6
CENTER
 62
   222
100
AcDbLine
 10
-309.4052805773513
 20
-554.1909095299197
 30
0.0
 11
-299.1514348018077
 21
-543.9370637543907
 31
0.0
  0
LINE
  5
472
330
1F
100
AcDbEntity
  8
LAYER0017
  6
CENTER
 62
   222
100
AcDbLine
 10
-227.3961078726984
 20
-554.1907656993135
 30
0.0
 11
-237.649953648242
 21
-543.9369199237844
 31
0.0
  0
LINE
  5
473
330
1F
100
AcDbEntity
  8
LAYER0017
  6
CENTER
 62
   222
100
AcDbLine
 10
376.6881118789987
 20
389.8796797753179
 30
0.0
 11
348.2458537995351
 21
389.8796797753179
 31
0.0
  0
LINE
  5
474
330
1F
100
AcDbEntity
  8
LAYER0018
  6
CONTINUOUS
 62
     7
100
AcDbLine
 10
-239.7485306205331
 20
396.573047943301
 30
0.0
 11
-245.0337873205704
 21
383.8133095374401
 31
0.0
  0
LINE
  5
475
330
1F
100
AcDbEntity
  8
LAYER0018
  6
CONTINUOUS
 62
     7
100
AcDbLine
 10
-245.0337873205704
 20
383.8133095374401
 30
0.0
 11
-383.6157171972577
 21
441.2158243922063
 31
0.0
  0
LINE
  5
476
330
1F
100
AcDbEntity
  8
LAYER0018
  6
CONTINUOUS
 62
     7
100
AcDbLine
 10
-383.6157171972577
 20
441.2158243922063
 30
0.0
 11
-378.3277846608385
 21
453.9820228385257
 31
0.0
  0
LINE
  5
477
330
1F
100
AcDbEntity
  8
LAYER0003
  6
CONTINUOUS
 62
     7
100
AcDbLine
 10
-404.4006942250253
 20
-511.5968671079724
 30
0.0
 11
-404.4006942250253
 21
-708.775635416637
 31
0.0
  0
LINE
  5
478
330
1F
100
AcDbEntity
  8
LAYER0003
  6
CONTINUOUS
 62
     7
100
AcDbLine
 10
-404.4006942250253
 20
-511.5968671079724
 30
0.0
 11
-412.4006942250253
 21
-510.1862512623047
 31
0.0
  0
LINE
  5
479
330
1F
100
AcDbEntity
  8
LAYER0003
  6
CONTINUOUS
 62
     7
100
AcDbLine
 10
-412.4006942250253
 20
-710.1862512623047
 30
0.0
 11
-404.4006942250253
 21
-708.775635416637
 31
0.0
  0
LINE
  5
47A
330
1F
100
AcDbEntity
  8
LAYER0003
  6
CONTINUOUS
 62
     7
100
AcDbLine
 10
-412.4006942250253
 20
-510.1862512623047
 30
0.0
 11
-412.4006942250253
 21
-710.1862512623047
 31
0.0
  0
LINE
  5
47B
330
1F
100
AcDbEntity
  8
LAYER0003
  6
CONTINUOUS
 62
     7
100
AcDbLine
 10
-420.4006942250253
 20
-511.5968671079724
 30
0.0
 11
-420.4006942250253
 21
-708.775635416637
 31
0.0
  0
LINE
  5
47C
330
1F
100
AcDbEntity
  8
LAYER0003
  6
CONTINUOUS
 62
     7
100
AcDbLine
 10
-420.4006942250253
 20
-708.775635416637
 30
0.0
 11
-412.4006942250253
 21
-710.1862512623047
 31
0.0
  0
LINE
  5
47D
330
1F
100
AcDbEntity
  8
LAYER0003
  6
CONTINUOUS
 62
     7
100
AcDbLine
 10
-412.4006942250253
 20
-510.1862512623047
 30
0.0
 11
-420.4006942250253
 21
-511.5968671079724
 31
0.0
  0
LINE
  5
47E
330
1F
100
AcDbEntity
  8
LAYER0003
  6
CONTINUOUS
 62
     7
100
AcDbLine
 10
-404.4006942250253
 20
-634.1862512623047
 30
0.0
 11
-397.4006942250253
 21
-634.1862512623047
 31
0.0
  0
LINE
  5
47F
330
1F
100
AcDbEntity
  8
LAYER0003
  6
CONTINUOUS
 62
     7
100
AcDbLine
 10
-397.4006942250253
 20
-586.1862512623047
 30
0.0
 11
-404.4006942250253
 21
-586.1862512623047
 31
0.0
  0
LINE
  5
480
330
1F
100
AcDbEntity
  8
LAYER0003
  6
CONTINUOUS
 62
     7
100
AcDbLine
 10
-404.4006942250249
 20
718.9690639296384
 30
0.0
 11
-404.4006942250249
 21
521.7902956209739
 31
0.0
  0
LINE
  5
481
330
1F
100
AcDbEntity
  8
LAYER0003
  6
CONTINUOUS
 62
     7
100
AcDbLine
 10
-404.4006942250249
 20
718.9690639296384
 30
0.0
 11
-412.4006942250249
 21
720.3796797753062
 31
0.0
  0
LINE
  5
482
330
1F
100
AcDbEntity
  8
LAYER0003
  6
CONTINUOUS
 62
     7
100
AcDbLine
 10
-412.4006942250249
 20
520.3796797753062
 30
0.0
 11
-404.4006942250249
 21
521.7902956209739
 31
0.0
  0
LINE
  5
483
330
1F
100
AcDbEntity
  8
LAYER0003
  6
CONTINUOUS
 62
     7
100
AcDbLine
 10
-412.4006942250249
 20
720.3796797753062
 30
0.0
 11
-412.4006942250249
 21
520.3796797753062
 31
0.0
  0
LINE
  5
484
330
1F
100
AcDbEntity
  8
LAYER0003
  6
CONTINUOUS
 62
     7
100
AcDbLine
 10
-420.4006942250249
 20
718.9690639296384
 30
0.0
 11
-420.4006942250249
 21
521.7902956209739
 31
0.0
  0
LINE
  5
485
330
1F
100
AcDbEntity
  8
LAYER0003
  6
CONTINUOUS
 62
     7
100
AcDbLine
 10
-420.4006942250249
 20
521.7902956209739
 30
0.0
 11
-412.4006942250249
 21
520.3796797753062
 31
0.0
  0
LINE
  5
486
330
1F
100
AcDbEntity
  8
LAYER0003
  6
CONTINUOUS
 62
     7
100
AcDbLine
 10
-412.4006942250249
 20
720.3796797753062
 30
0.0
 11
-420.4006942250249
 21
718.9690639296384
 31
0.0
  0
LINE
  5
487
330
1F
100
AcDbEntity
  8
LAYER0003
  6
CONTINUOUS
 62
     7
100
AcDbLine
 10
-404.4006942250249
 20
596.3796797753062
 30
0.0
 11
-397.4006942250248
 21
596.3796797753062
 31
0.0
  0
LINE
  5
488
330
1F
100
AcDbEntity
  8
LAYER0003
  6
CONTINUOUS
 62
     7
100
AcDbLine
 10
-397.4006942250248
 20
644.3796797753062
 30
0.0
 11
-404.4006942250249
 21
644.3796797753062
 31
0.0
  0
LINE
  5
489
330
1F
100
AcDbEntity
  8
LAYER0003
  6
CONTINUOUS
 62
     7
100
AcDbLine
 10
-404.4006942250253
 20
3.513503033476439
 30
0.0
 11
-404.4006942250253
 21
-193.6652652751881
 31
0.0
  0
LINE
  5
48A
330
1F
100
AcDbEntity
  8
LAYER0003
  6
CONTINUOUS
 62
     7
100
AcDbLine
 10
-404.4006942250253
 20
3.513503033476439
 30
0.0
 11
-412.4006942250253
 21
4.924118879144174
 31
0.0
  0
LINE
  5
48B
330
1F
100
AcDbEntity
  8
LAYER0003
  6
CONTINUOUS
 62
     7
100
AcDbLine
 10
-412.4006942250253
 20
-195.0758811208558
 30
0.0
 11
-404.4006942250253
 21
-193.6652652751881
 31
0.0
  0
LINE
  5
48C
330
1F
100
AcDbEntity
  8
LAYER0003
  6
CONTINUOUS
 62
     7
100
AcDbLine
 10
-412.4006942250253
 20
4.924118879144174
 30
0.0
 11
-412.4006942250253
 21
-195.0758811208558
 31
0.0
  0
LINE
  5
48D
330
1F
100
AcDbEntity
  8
LAYER0003
  6
CONTINUOUS
 62
     7
100
AcDbLine
 10
-420.4006942250253
 20
3.513503033476439
 30
0.0
 11
-420.4006942250253
 21
-193.6652652751881
 31
0.0
  0
LINE
  5
48E
330
1F
100
AcDbEntity
  8
LAYER0003
  6
CONTINUOUS
 62
     7
100
AcDbLine
 10
-420.4006942250253
 20
-193.6652652751881
 30
0.0
 11
-412.4006942250253
 21
-195.0758811208558
 31
0.0
  0
LINE
  5
48F
330
1F
100
AcDbEntity
  8
LAYER0003
  6
CONTINUOUS
 62
     7
100
AcDbLine
 10
-412.4006942250253
 20
4.924118879144174
 30
0.0
 11
-420.4006942250253
 21
3.513503033476439
 31
0.0
  0
LINE
  5
490
330
1F
100
AcDbEntity
  8
LAYER0003
  6
CONTINUOUS
 62
     7
100
AcDbLine
 10
-404.4006942250253
 20
-119.0758811208558
 30
0.0
 11
-397.4006942250253
 21
-119.0758811208558
 31
0.0
  0
LINE
  5
491
330
1F
100
AcDbEntity
  8
LAYER0003
  6
CONTINUOUS
 62
     7
100
AcDbLine
 10
-397.4006942250253
 20
-71.07588112085583
 30
0.0
 11
-404.4006942250253
 21
-71.07588112085583
 31
0.0
  0
ARC
  5
492
330
1F
100
AcDbEntity
  8
LAYER0003
  6
CONTINUOUS
 62
     7
100
AcDbCircle
 10
195.9844773351596
 20
481.8796797753179
 30
0.0
 40
76.99999999999996
100
AcDbArc
 50
344.2749506998409
 51
75.72504930015913
  0
LINE
  5
493
330
1F
100
AcDbEntity
  8
LAYER0003
  6
CONTINUOUS
 62
     7
100
AcDbLine
 10
264.2523318756932
 20
458.6310231166521
 30
0.0
 11
220.9218684498115
 21
483.647877839696
 31
0.0
  0
LINE
  5
494
330
1F
100
AcDbEntity
  8
LAYER0003
  6
CONTINUOUS
 62
     7
100
AcDbLine
 10
209.9844773351595
 20
502.5919949525259
 30
0.0
 11
209.9844773351593
 21
552.6257043986138
 31
0.0
  0
LINE
  5
495
330
1F
100
AcDbEntity
  8
LAYER0003
  6
CONTINUOUS
 62
     7
100
AcDbLine
 10
171.0470862205074
 20
483.647877839696
 30
0.0
 11
127.7166227946258
 21
458.631023116652
 31
0.0
  0
ARC
  5
496
330
1F
100
AcDbEntity
  8
LAYER0003
  6
CONTINUOUS
 62
     7
100
AcDbCircle
 10
195.9844773351596
 20
481.8796797753178
 30
0.0
 40
77.00000000000004
100
AcDbArc
 50
104.274950699841
 51
195.7250493001591
  0
LINE
  5
497
330
1F
100
AcDbEntity
  8
LAYER0003
  6
CONTINUOUS
 62
     7
100
AcDbLine
 10
181.9844773351595
 20
552.6257043986138
 30
0.0
 11
181.9844773351595
 21
502.5919949525258
 31
0.0
  0
ARC
  5
498
330
1F
100
AcDbEntity
  8
LAYER0003
  6
CONTINUOUS
 62
     7
100
AcDbCircle
 10
195.9844773351595
 20
481.8796797753179
 30
0.0
 40
76.99999999999994
100
AcDbArc
 50
224.2749506998409
 51
315.7250493001592
  0
LINE
  5
499
330
1F
100
AcDbEntity
  8
LAYER0003
  6
CONTINUOUS
 62
     7
100
AcDbLine
 10
141.7166227946258
 20
434.3823118106877
 30
0.0
 11
185.0470862205074
 21
459.3991665337317
 31
0.0
  0
LINE
  5
49A
330
1F
100
AcDbEntity
  8
LAYER0003
  6
CONTINUOUS
 62
     7
100
AcDbLine
 10
206.9218684498115
 20
459.3991665337318
 30
0.0
 11
250.2523318756932
 21
434.3823118106879
 31
0.0
  0
CIRCLE
  5
49B
330
1F
100
AcDbEntity
  8
LAYER0003
  6
CONTINUOUS
 62
     7
100
AcDbCircle
 10
195.9844773351595
 20
481.8796797753179
 30
0.0
 40
100.0
  0
ARC
  5
49C
330
1F
100
AcDbEntity
  8
LAYER0003
  6
CONTINUOUS
 62
     7
100
AcDbCircle
 10
358.9557594549881
 20
-95.07588112084176
 30
0.0
 40
76.99999999999996
100
AcDbArc
 50
344.2749506998409
 51
71.92859452766628
  0
LINE
  5
49D
330
1F
100
AcDbEntity
  8
LAYER0003
  6
CONTINUOUS
 62
     7
100
AcDbLine
 10
427.2236139955218
 20
-118.3245377795076
 30
0.0
 11
396.5498765365451
 21
-100.6150472005154
 31
0.0
  0
ARC
  5
49E
330
1F
100
AcDbEntity
  8
LAYER0003
  6
CONTINUOUS
 62
     7
100
AcDbCircle
 10
358.9557594549881
 20
-95.07588112084187
 30
0.0
 40
76.99999999999994
100
AcDbArc
 50
250.2017204357678
 51
315.7250493001591
  0
LINE
  5
49F
330
1F
100
AcDbEntity
  8
LAYER0003
  6
CONTINUOUS
 62
     7
100
AcDbLine
 10
382.5498765365446
 20
-124.8637585064795
 30
0.0
 11
413.2236139955219
 21
-142.5732490854718
 31
0.0
  0
ARC
  5
4A0
330
1F
100
AcDbEntity
  8
LAYER0003
  6
CONTINUOUS
 62
     7
100
AcDbCircle
 10
358.9557594549881
 20
-95.07588112084179
 30
0.0
 40
100.0
100
AcDbArc
 50
254.3357331486266
 51
71.63012778555171
  0
ARC
  5
4A1
330
1F
100
AcDbEntity
  8
LAYER0003
  6
CONTINUOUS
 62
     7
100
AcDbCircle
 10
358.9557594549881
 20
-95.07588112084179
 30
0.0
 40
84.81232995288885
100
AcDbArc
 50
251.4368345441485
 51
71.83770130145292
  0
CIRCLE
  5
4A2
330
1F
100
AcDbEntity
  8
LAYER0002
  6
CONTINUOUS
 62
     7
100
AcDbCircle
 10
195.9844773351595
 20
481.8796797753179
 30
0.0
 40
85.49999999999999
  0
LINE
  5
4A3
330
1F
100
AcDbEntity
  8
LAYER0004
  6
CENTERX2
 62
   222
100
AcDbLine
 10
81.37073237281231
 20
481.8796797753176
 30
0.0
 11
313.3715648877787
 21
481.879679775318
 31
0.0
  0
LINE
  5
4A4
330
1F
100
AcDbEntity
  8
LAYER0004
  6
CENTERX2
 62
   222
100
AcDbLine
 10
195.9844773351595
 20
372.2509828592119
 30
0.0
 11
195.9844773351595
 21
598.361169236103
 31
0.0
  0
SPLINE
  5
4A5
330
1F
100
AcDbEntity
  8
LAYER0017
  6
PHANTOM
 62
   150
100
AcDbSpline
210
0.0
220
0.0
230
1.0
 70
    24
 71
     3
 72
     8
 73
     4
 74
     0
 42
0.000000001
 43
0.0000000001
 40
0.0
 40
0.0
 40
0.0
 40
0.0
 40
0.3684277053280742
 40
0.3684277053280742
 40
0.3684277053280742
 40
0.3684277053280742
 10
145.417838406709
 20
198.3949807963931
 30
0.0
 10
145.912871854057
 20
206.9343077631384
 30
0.0
 10
146.4079053014063
 20
215.4736347298825
 30
0.0
 10
146.9029387487576
 20
224.0129616966244
 30
0.0
  0
LINE
  5
4A6
330
1F
100
AcDbEntity
  8
LAYER0017
  6
PHANTOM
 62
   150
100
AcDbLine
 10
147.7674838546559
 20
225.302632183035
 30
0.0
 11
176.6774709434726
 21
238.7835805597081
 31
0.0
  0
LINE
  5
4A7
330
1F
100
AcDbEntity
  8
LAYER0017
  6
PHANTOM
 62
   150
100
AcDbLine
 10
177.3113983360859
 20
238.9241188791586
 30
0.0
 11
227.9557594549884
 21
238.9241188791586
 31
0.0
  0
LINE
  5
4A8
330
1F
100
AcDbEntity
  8
LAYER0017
  6
PHANTOM
 62
   150
100
AcDbLine
 10
295.9557594549884
 20
238.9241188791586
 30
0.0
 11
346.6001205738908
 21
238.9241188791586
 31
0.0
  0
LINE
  5
4A9
330
1F
100
AcDbEntity
  8
LAYER0017
  6
PHANTOM
 62
   150
100
AcDbLine
 10
347.2340479665041
 20
238.7835805597081
 30
0.0
 11
376.1440350553208
 21
225.302632183035
 31
0.0
  0
LINE
  5
4AA
330
1F
100
AcDbEntity
  8
LAYER0017
  6
PHANTOM
 62
   150
100
AcDbLine
 10
377.0075935188984
 20
224.0299812767428
 30
0.0
 11
378.4936805032658
 21
198.3949807963931
 31
0.0
  0
LINE
  5
4AB
330
1F
100
AcDbEntity
  8
LAYER0017
  6
PHANTOM
 62
   150
100
AcDbLine
 10
146.9029387487576
 20
224.0129616966244
 30
0.0
 11
146.9039253910782
 21
224.0299812767428
 31
0.0
  0
ARC
  5
4AC
330
1F
100
AcDbEntity
  8
LAYER0017
  6
PHANTOM
 62
   150
100
AcDbCircle
 10
148.4014112472546
 20
223.943170502471
 30
0.0
 40
1.5
100
AcDbArc
 50
114.9999999999982
 51
176.6822188316922
  0
SPLINE
  5
4AD
330
1F
100
AcDbEntity
  8
LAYER0017
  6
PHANTOM
 62
   150
100
AcDbSpline
210
0.0
220
0.0
230
1.0
 70
     8
 71
     3
 72
     8
 73
     4
 74
     0
 42
0.000000001
 43
0.0000000001
 40
0.0
 40
0.0
 40
0.0
 40
0.0
 40
0.0271740956001013
 40
0.0271740956001013
 40
0.0271740956001013
 40
0.0271740956001013
 10
147.7675881198852
 20
225.302632183035
 30
0.0
 10
147.7624625713547
 20
225.3002268972143
 30
0.0
 10
147.7573368998023
 20
225.297817963534
 30
0.0
 10
147.7522111059411
 20
225.2954053846281
 30
0.0
  0
SPLINE
  5
4AE
330
1F
100
AcDbEntity
  8
LAYER0017
  6
PHANTOM
 62
   150
100
AcDbSpline
210
0.0
220
0.0
230
1.0
 70
     8
 71
     3
 72
     8
 73
     4
 74
     0
 42
0.000000001
 43
0.0000000001
 40
0.0
 40
0.0
 40
0.0
 40
0.0
 40
1.0
 40
1.0
 40
1.0
 40
1.0
 10
146.9029387487576
 20
224.0129616966244
 30
0.0
 10
146.9032677566179
 20
224.0186370824033
 30
0.0
 10
146.9035968934663
 20
224.0243146986561
 30
0.0
 10
146.9039253920532
 20
224.0299812767428
 30
0.0
  0
ARC
  5
4AF
330
1F
100
AcDbEntity
  8
LAYER0017
  6
PHANTOM
 62
   150
100
AcDbCircle
 10
177.3113983360859
 20
237.4241188791586
 30
0.0
 40
1.5
100
AcDbArc
 50
90.00000000000001
 51
114.999999999978
  0
LINE
  5
4B0
330
1F
100
AcDbEntity
  8
LAYER0017
  6
PHANTOM
 62
   150
100
AcDbLine
 10
229.4557594549884
 20
240.4241188791586
 30
0.0
 11
229.4557594549884
 21
240.9241188791586
 31
0.0
  0
LINE
  5
4B1
330
1F
100
AcDbEntity
  8
LAYER0017
  6
PHANTOM
 62
   150
100
AcDbLine
 10
294.4557594549884
 20
240.9241188791586
 30
0.0
 11
294.4557594549884
 21
240.4241188791586
 31
0.0
  0
ARC
  5
4B2
330
1F
100
AcDbEntity
  8
LAYER0017
  6
PHANTOM
 62
   150
100
AcDbCircle
 10
227.9557594549884
 20
240.4241188791586
 30
0.0
 40
1.5
100
AcDbArc
 50
270.0
 51
0.0
  0
ARC
  5
4B3
330
1F
100
AcDbEntity
  8
LAYER0017
  6
PHANTOM
 62
   150
100
AcDbCircle
 10
295.9557594549884
 20
240.4241188791586
 30
0.0
 40
1.5
100
AcDbArc
 50
180.0
 51
270.0
  0
ARC
  5
4B4
330
1F
100
AcDbEntity
  8
LAYER0017
  6
PHANTOM
 62
   150
100
AcDbCircle
 10
346.6001205738908
 20
237.4241188791586
 30
0.0
 40
1.5
100
AcDbArc
 50
65.00000000002206
 51
90.00000000000001
  0
ARC
  5
4B5
330
1F
100
AcDbEntity
  8
LAYER0017
  6
PHANTOM
 62
   150
100
AcDbCircle
 10
375.5101076627075
 20
223.943170502471
 30
0.0
 40
1.5
100
AcDbArc
 50
3.317781168342609
 51
65.00000000000153
  0
INSERT
  5
4B6
330
1F
100
AcDbEntity
  8
0
  6
CONTINUOUS
100
AcDbBlockReference
  2
DC_GROUP_1
 10
0.0
 20
0.0
 30
0.0
  0
INSERT
  5
4B7
330
1F
100
AcDbEntity
  8
0
  6
CONTINUOUS
100
AcDbBlockReference
  2
DC_GROUP_2
 10
0.0
 20
0.0
 30
0.0
  0
INSERT
  5
4B8
330
1F
100
AcDbEntity
  8
LAYER0003
  6
CONTINUOUS
100
AcDbBlockReference
  2
DC_GROUP_3
 10
0.0
 20
0.0
 30
0.0
  0
INSERT
  5
4B9
330
1F
100
AcDbEntity
  8
LAYER0003
  6
CONTINUOUS
100
AcDbBlockReference
  2
DC_GROUP_4
 10
0.0
 20
0.0
 30
0.0
  0
INSERT
  5
4BA
330
1F
100
AcDbEntity
  8
LAYER0003
  6
CONTINUOUS
100
AcDbBlockReference
  2
DC_GROUP_5
 10
0.0
 20
0.0
 30
0.0
  0
INSERT
  5
4BB
330
1F
100
AcDbEntity
  8
LAYER0003
  6
CONTINUOUS
100
AcDbBlockReference
  2
DC_GROUP_6
 10
0.0
 20
0.0
 30
0.0
  0
INSERT
  5
4BC
330
1F
100
AcDbEntity
  8
LAYER0003
  6
CONTINUOUS
100
AcDbBlockReference
  2
DC_GROUP_7
 10
0.0
 20
0.0
 30
0.0
  0
INSERT
  5
4BD
330
1F
100
AcDbEntity
  8
LAYER0003
  6
CONTINUOUS
100
AcDbBlockReference
  2
DC_GROUP_8
 10
0.0
 20
0.0
 30
0.0
  0
INSERT
  5
4BE
330
1F
100
AcDbEntity
  8
LAYER0003
  6
CONTINUOUS
100
AcDbBlockReference
  2
DC_GROUP_9
 10
0.0
 20
0.0
 30
0.0
  0
INSERT
  5
4BF
330
1F
100
AcDbEntity
  8
LAYER0003
  6
CONTINUOUS
100
AcDbBlockReference
  2
DC_GROUP_10
 10
0.0
 20
0.0
 30
0.0
  0
TEXT
  5
4C1
330
1F
100
AcDbEntity
  8
0
 62
     7
100
AcDbText
 10
284.2041630244756
 20
-617.3734884906758
 30
0.0
 40
40.0
  1
000
 41
0.7689423076923078
  7
DCSTYLE0
 72
     5
 11
344.2041630244756
 21
-617.3734884906758
 31
0.0
100
AcDbText
  0
VIEWPORT
  5
B6
330
1B
100
AcDbEntity
 67
     1
  8
0
100
AcDbViewport
 10
19.56047217669447
 20
11.16869789026009
 30
0.0
 40
2695.36232230891
 41
4328.129694915389
 68
     1
 69
     1
1001
ACAD
1000
MVIEW
1002
{
1070
    16
1010
0.0
1020
0.0
1030
0.0
1010
0.0
1020
0.0
1030
1.0
1040
0.0
1040
4328.129694915389
1040
19.56047217669447
1040
11.16869789026009
1040
50.0
1040
0.0
1040
0.0
1070
     0
1070
   100
1070
     0
1070
     3
1070
     0
1070
     0
1070
     0
1070
     0
1040
0.0
1040
0.0
1040
0.0
1040
0.5
1040
0.5
1040
0.0
1040
0.0
1070
     0
1002
{
1002
}
1002
}
  0
ENDSEC
  0
SECTION
  2
OBJECTS
  0
DICTIONARY
  5
C
330
0
100
AcDbDictionary
  3
ACAD_GROUP
350
D
  3
ACAD_LAYOUT
350
1A
  3
ACAD_MATERIAL
350
43
  3
ACAD_MLEADERSTYLE
350
6B
  3
ACAD_MLINESTYLE
350
17
  3
ACAD_PLOTSETTINGS
350
19
  3
ACAD_SCALELIST
350
47
  3
ACAD_VISUALSTYLE
350
2A
  3
ACDBHEADERROUNDTRIPXREC
350
4C2
  3
ACDBVARIABLEDICTIONARY
350
4E3
  0
DICTIONARY
  5
4EA
330
8
100
AcDbDictionary
280
     1
  3
ACAD_XREC_ROUNDTRIP
360
4EB
  0
DICTIONARY
  5
D
102
{ACAD_REACTORS
330
C
102
}
330
C
100
AcDbDictionary
  0
DICTIONARY
  5
1A
102
{ACAD_REACTORS
330
C
102
}
330
C
100
AcDbDictionary
  0
DICTIONARY
  5
43
102
{ACAD_REACTORS
330
C
102
}
330
C
100
AcDbDictionary
  3
BYBLOCK
350
45
  3
BYLAYER
350
44
  3
GLOBAL
350
46
  0
DICTIONARY
  5
6B
102
{ACAD_REACTORS
330
C
102
}
330
C
100
AcDbDictionary
  3
STANDARD
350
6C
  0
DICTIONARY
  5
17
102
{ACAD_REACTORS
330
C
102
}
330
C
100
AcDbDictionary
  3
STANDARD
350
18
  0
DICTIONARY
  5
19
102
{ACAD_REACTORS
330
C
102
}
330
C
100
AcDbDictionary
  0
DICTIONARY
  5
47
102
{ACAD_REACTORS
330
C
102
}
330
C
100
AcDbDictionary
  3
A0
350
48
  3
A1
350
49
  3
A2
350
4A
  3
A3
350
4B
  3
A4
350
4C
  3
A5
350
4D
  3
A6
350
4E
  3
A7
350
4F
  3
A8
350
50
  3
A9
350
51
  3
B0
350
52
  3
B1
350
53
  3
B2
350
54
  3
B3
350
55
  3
B4
350
56
  3
B5
350
57
  3
B6
350
58
  3
B7
350
59
  3
B8
350
5A
  3
B9
350
5B
  3
C0
350
5C
  3
C1
350
5D
  3
C2
350
5E
  3
C3
350
5F
  3
C4
350
60
  3
C5
350
61
  3
C6
350
62
  3
C7
350
63
  3
C8
350
64
  3
C9
350
65
  3
D0
350
66
  3
D1
350
67
  3
D2
350
68
  0
DICTIONARY
  5
2A
102
{ACAD_REACTORS
330
C
102
}
330
C
100
AcDbDictionary
  3
2DWIREFRAME
350
2F
  3
BASIC
350
32
  3
BRIGHTEN
350
36
  3
COLORCHANGE
350
3A
  3
CONCEPTUAL
350
34
  3
DIM
350
35
  3
EDGECOLOROFF
350
3D
  3
FACEPATTERN
350
39
  3
FLAT
350
2B
  3
FLATWITHEDGES
350
2C
  3
GOURAUD
350
2D
  3
GOURAUDWITHEDGES
350
2E
  3
HIDDEN
350
31
  3
JITTEROFF
350
3B
  3
LINEPATTERN
350
38
  3
OVERHANGOFF
350
3C
  3
REALISTIC
350
33
  3
SHADED
350
42
  3
SHADED_WITH_EDGES
350
41
  3
SHADES_OF_GRAY
350
3E
  3
SKETCHY
350
3F
  3
THICKEN
350
37
  3
WIREFRAME
350
30
  3
X-RAY
350
40
  0
DICTIONARY
  5
4C2
102
{ACAD_REACTORS
330
C
102
}
330
C
100
AcDbDictionary
  3
CEPSNID
350
4CC
  3
CEPSNTYPE
350
4CB
  3
DIMSTYLEDATA
350
4E2
  3
FINGERPRINTGUID
350
4CD
  3
HYPERLINKBASE
350
4C5
  3
INSUNITS
350
4CA
  3
LAYOUTDICT
350
4C7
  3
LWETCUNION
350
4C9
  3
PLOTSETDICT
350
4C8
  3
PSVPSCALE
350
4CF
  3
PUCSBASE
350
4D2
  3
PUCSORGBACK
350
4D8
  3
PUCSORGBOTTOM
350
4D4
  3
PUCSORGFRONT
350
4D7
  3
PUCSORGLEFT
350
4D5
  3
PUCSORGRIGHT
350
4D6
  3
PUCSORGTOP
350
4D3
  3
PUCSORTHOREF
350
4D0
  3
PUCSORTHOVIEW
350
4D1
  3
STYLESHEET
350
4C6
  3
TSTACKALIGN
350
4C3
  3
TSTACKSIZE
350
4C4
  3
UCSBASE
350
4DB
  3
UCSORGBACK
350
4E1
  3
UCSORGBOTTOM
350
4DD
  3
UCSORGFRONT
350
4E0
  3
UCSORGLEFT
350
4DE
  3
UCSORGRIGHT
350
4DF
  3
UCSORGTOP
350
4DC
  3
UCSORTHOREF
350
4D9
  3
UCSORTHOVIEW
350
4DA
  3
VERSIONGUID
350
4CE
  0
DICTIONARY
  5
4E3
102
{ACAD_REACTORS
330
C
102
}
330
C
100
AcDbDictionary
  3
CANNOSCALE
350
4EC
  3
CMLEADERSTYLE
350
4E5
  3
CTABLESTYLE
350
4E4
  3
DIMASSOC
350
4E8
  3
HIDETEXT
350
4E9
  3
MSLTSCALE
350
4ED
  0
XRECORD
  5
4EB
102
{ACAD_REACTORS
330
4EA
102
}
330
4EA
100
AcDbXrecord
102
VTR_0.000_0.000_1.000_1.000_VISUALSTYLE
340
2F
102
VTR_0.000_0.000_1.000_1.000_GRIDDISPLAY
 70
     3
102
VTR_0.000_0.000_1.000_1.000_GRIDMAJOR
 70
     5
102
VTR_0.000_0.000_1.000_1.000_DEFAULTLIGHTING
280
     1
102
VTR_0.000_0.000_1.000_1.000_DEFAULTLIGHTINGTYPE
 70
     1
102
VTR_0.000_0.000_1.000_1.000_BRIGHTNESS
141
0.0
102
VTR_0.000_0.000_1.000_1.000_CONTRAST
142
0.0
  0
MATERIAL
  5
45
102
{ACAD_REACTORS
330
43
102
}
102
{ACAD_XDICTIONARY
360
4F0
102
}
330
43
100
AcDbMaterial
  1
BYBLOCK
  0
MATERIAL
  5
44
102
{ACAD_REACTORS
330
43
102
}
102
{ACAD_XDICTIONARY
360
4EE
102
}
330
43
100
AcDbMaterial
  1
BYLAYER
  0
MATERIAL
  5
46
102
{ACAD_REACTORS
330
43
102
}
102
{ACAD_XDICTIONARY
360
4F2
102
}
330
43
100
AcDbMaterial
  1
GLOBAL
  0
ACAD_PROXY_OBJECT
  5
6C
102
{ACAD_REACTORS
330
6B
102
}
330
6B
100
AcDbProxyObject
 90
      499
 91
      505
 93
      610
310
40901902A4063FBFFFFFE056BD1B81E855B9FC0AD7A3703D0AD73F4214DD185B99185C9900AD7A3703D0AC73F90141901A02B5E8DC0F42B1CFC02B5E8DC0F42B1CFE5764000000000000300FC0
340
14
340
0
340
11
340
0
 94
        0
1001
ACAD_MLEADERVER
1070
     2
  0
MLINESTYLE
  5
18
102
{ACAD_REACTORS
330
17
102
}
330
17
100
AcDbMlineStyle
  2
Standard
 70
     0
  3

 62
   256
 51
90.0
 52
90.0
 71
     2
 49
0.5
 62
   256
  6
BYLAYER
 49
-0.5
 62
   256
  6
BYLAYER
  0
ACAD_PROXY_OBJECT
  5
48
102
{ACAD_REACTORS
330
47
102
}
330
47
100
AcDbProxyObject
 90
      499
 91
      503
 93
       41
310
903313A31580
  0
ACAD_PROXY_OBJECT
  5
49
102
{ACAD_REACTORS
330
47
102
}
330
47
100
AcDbProxyObject
 90
      499
 91
      503
 93
      105
310
903313A324000000000000004000
  0
ACAD_PROXY_OBJECT
  5
4A
102
{ACAD_REACTORS
330
47
102
}
330
47
100
AcDbProxyObject
 90
      499
 91
      503
 93
      105
310
903313A344000000000000104000
  0
ACAD_PROXY_OBJECT
  5
4B
102
{ACAD_REACTORS
330
47
102
}
330
47
100
AcDbProxyObject
 90
      499
 91
      503
 93
      105
310
903313A354000000000000144000
  0
ACAD_PROXY_OBJECT
  5
4C
102
{ACAD_REACTORS
330
47
102
}
330
47
100
AcDbProxyObject
 90
      499
 91
      503
 93
      105
310
903313A384000000000000204000
  0
ACAD_PROXY_OBJECT
  5
4D
102
{ACAD_REACTORS
330
47
102
}
330
47
100
AcDbProxyObject
 90
      499
 91
      503
 93
      113
310
904313A31304000000000000244000
  0
ACAD_PROXY_OBJECT
  5
4E
102
{ACAD_REACTORS
330
47
102
}
330
47
100
AcDbProxyObject
 90
      499
 91
      503
 93
      113
310
904313A31364000000000000304000
  0
ACAD_PROXY_OBJECT
  5
4F
102
{ACAD_REACTORS
330
47
102
}
330
47
100
AcDbProxyObject
 90
      499
 91
      503
 93
      113
310
904313A32304000000000000344000
  0
ACAD_PROXY_OBJECT
  5
50
102
{ACAD_REACTORS
330
47
102
}
330
47
100
AcDbProxyObject
 90
      499
 91
      503
 93
      113
310
904313A333040000000000003E4000
  0
ACAD_PROXY_OBJECT
  5
51
102
{ACAD_REACTORS
330
47
102
}
330
47
100
AcDbProxyObject
 90
      499
 91
      503
 93
      113
310
904313A34304000000000000444000
  0
ACAD_PROXY_OBJECT
  5
52
102
{ACAD_REACTORS
330
47
102
}
330
47
100
AcDbProxyObject
 90
      499
 91
      503
 93
      113
310
904313A35304000000000000494000
  0
ACAD_PROXY_OBJECT
  5
53
102
{ACAD_REACTORS
330
47
102
}
330
47
100
AcDbProxyObject
 90
      499
 91
      503
 93
      121
310
905313A3130304000000000000594000
  0
ACAD_PROXY_OBJECT
  5
54
102
{ACAD_REACTORS
330
47
102
}
330
47
100
AcDbProxyObject
 90
      499
 91
      503
 93
      105
310
903323A310000000000000010100
  0
ACAD_PROXY_OBJECT
  5
55
102
{ACAD_REACTORS
330
47
102
}
330
47
100
AcDbProxyObject
 90
      499
 91
      503
 93
      105
310
903343A310000000000000410100
  0
ACAD_PROXY_OBJECT
  5
56
102
{ACAD_REACTORS
330
47
102
}
330
47
100
AcDbProxyObject
 90
      499
 91
      503
 93
      105
310
903383A310000000000000810100
  0
ACAD_PROXY_OBJECT
  5
57
102
{ACAD_REACTORS
330
47
102
}
330
47
100
AcDbProxyObject
 90
      499
 91
      503
 93
      113
310
90431303A310000000000000910100
  0
ACAD_PROXY_OBJECT
  5
58
102
{ACAD_REACTORS
330
47
102
}
330
47
100
AcDbProxyObject
 90
      499
 91
      503
 93
      121
310
9053130303A310000000000001650100
  0
ACAD_PROXY_OBJECT
  5
59
102
{ACAD_REACTORS
330
47
102
}
330
47
100
AcDbProxyObject
 90
      499
 91
      503
 93
      257
310
90E312F31323822203D2031272D3022000000000000200FC000000000000284000
  0
ACAD_PROXY_OBJECT
  5
5A
102
{ACAD_REACTORS
330
47
102
}
330
47
100
AcDbProxyObject
 90
      499
 91
      503
 93
      249
310
90D312F363422203D2031272D3022000000000000240FC000000000000284000
  0
ACAD_PROXY_OBJECT
  5
5B
102
{ACAD_REACTORS
330
47
102
}
330
47
100
AcDbProxyObject
 90
      499
 91
      503
 93
      249
310
90D312F333222203D2031272D3022000000000000280FC000000000000284000
  0
ACAD_PROXY_OBJECT
  5
5C
102
{ACAD_REACTORS
330
47
102
}
330
47
100
AcDbProxyObject
 90
      499
 91
      503
 93
      249
310
90D312F313622203D2031272D30220000000000002C0FC000000000000284000
  0
ACAD_PROXY_OBJECT
  5
5D
102
{ACAD_REACTORS
330
47
102
}
330
47
100
AcDbProxyObject
 90
      499
 91
      503
 93
      249
310
90D332F333222203D2031272D30220000000000002E0FC000000000000284000
  0
ACAD_PROXY_OBJECT
  5
5E
102
{ACAD_REACTORS
330
47
102
}
330
47
100
AcDbProxyObject
 90
      499
 91
      503
 93
      241
310
90C312F3822203D2031272D3022000000000000300FC000000000000284000
  0
ACAD_PROXY_OBJECT
  5
5F
102
{ACAD_REACTORS
330
47
102
}
330
47
100
AcDbProxyObject
 90
      499
 91
      503
 93
      249
310
90D332F313622203D2031272D3022000000000000320FC000000000000284000
  0
ACAD_PROXY_OBJECT
  5
60
102
{ACAD_REACTORS
330
47
102
}
330
47
100
AcDbProxyObject
 90
      499
 91
      503
 93
      241
310
90C312F3422203D2031272D3022000000000000340FC000000000000284000
  0
ACAD_PROXY_OBJECT
  5
61
102
{ACAD_REACTORS
330
47
102
}
330
47
100
AcDbProxyObject
 90
      499
 91
      503
 93
      241
310
90C332F3822203D2031272D3022000000000000360FC000000000000284000
  0
ACAD_PROXY_OBJECT
  5
62
102
{ACAD_REACTORS
330
47
102
}
330
47
100
AcDbProxyObject
 90
      499
 91
      503
 93
      241
310
90C312F3222203D2031272D3022000000000000380FC000000000000284000
  0
ACAD_PROXY_OBJECT
  5
63
102
{ACAD_REACTORS
330
47
102
}
330
47
100
AcDbProxyObject
 90
      499
 91
      503
 93
      241
310
90C332F3422203D2031272D30220000000000003A0FC000000000000284000
  0
ACAD_PROXY_OBJECT
  5
64
102
{ACAD_REACTORS
330
47
102
}
330
47
100
AcDbProxyObject
 90
      499
 91
      503
 93
      161
310
90A3122203D2031272D30224000000000000284000
  0
ACAD_PROXY_OBJECT
  5
65
102
{ACAD_REACTORS
330
47
102
}
330
47
100
AcDbProxyObject
 90
      499
 91
      503
 93
      257
310
90E312D312F3222203D2031272D30220000000000003E0FC000000000000284000
  0
ACAD_PROXY_OBJECT
  5
66
102
{ACAD_REACTORS
330
47
102
}
330
47
100
AcDbProxyObject
 90
      499
 91
      503
 93
      225
310
90A3322203D2031272D302200000000000002100000000000000284000
  0
ACAD_PROXY_OBJECT
  5
67
102
{ACAD_REACTORS
330
47
102
}
330
47
100
AcDbProxyObject
 90
      499
 91
      503
 93
      225
310
90A3622203D2031272D302200000000000006100000000000000284000
  0
ACAD_PROXY_OBJECT
  5
68
102
{ACAD_REACTORS
330
47
102
}
330
47
100
AcDbProxyObject
 90
      499
 91
      503
 93
      249
310
90D31272D3022203D2031272D30220000000000000A100000000000000284000
  0
ACAD_PROXY_OBJECT
  5
2F
102
{ACAD_REACTORS
330
2A
102
}
330
2A
100
AcDbProxyObject
 90
      499
 91
      501
 93
      436
310
42CC9915DA5C99599C985B595049028333333333333E33F0000000000000F90107901411070040501600405405064090741402480A0340
1001
ACAD
1000
AcDbSavedByObjectVersion
1070
     0
  0
ACAD_PROXY_OBJECT
  5
32
102
{ACAD_REACTORS
330
2A
102
}
330
2A
100
AcDbProxyObject
 90
      499
 91
      501
 93
      388
310
4150985CDA58D07406404333333333333E33F0000000000000F90107A41107004050150841D405064090741402480A0350
1001
ACAD
1000
AcDbSavedByObjectVersion
1070
     0
  0
ACAD_PROXY_OBJECT
  5
36
102
{ACAD_REACTORS
330
2A
102
}
330
2A
100
AcDbProxyObject
 90
      499
 91
      501
 93
      428
310
42109C9A59DA1D195B90C409028333333333333E33F0000000000000F9010790141107004050150841D405064090741402480A029950
1001
ACAD
1000
AcDbSavedByObjectVersion
1070
     0
  0
ACAD_PROXY_OBJECT
  5
3A
102
{ACAD_REACTORS
330
2A
102
}
330
2A
100
AcDbProxyObject
 90
      499
 91
      501
 93
      452
310
42D0DBDB1BDC90DA185B99D95104090240C333333333333E33F0000000000000F90108901411070040501508421405064090741402480A0350
1001
ACAD
1000
AcDbSavedByObjectVersion
1070
     0
  0
ACAD_PROXY_OBJECT
  5
34
102
{ACAD_REACTORS
330
2A
102
}
330
2A
100
AcDbProxyObject
 90
      499
 91
      501
 93
      500
310
4290DBDB98D95C1D1D585B10940D028333333333333E33F0000000000000F90107902409070040501000000000018199010841D405064090740C02480A0340
1001
ACAD
1000
AcDbSavedByObjectVersion
1070
     0
  0
ACAD_PROXY_OBJECT
  5
35
102
{ACAD_REACTORS
330
2A
102
}
330
2A
100
AcDbProxyObject
 90
      499
 91
      501
 93
      412
310
40D11A5B50B409028333333333333E33F0000000000000F9010790141107004050150841D405064090741402480A02677FFFFFD0
1001
ACAD
1000
AcDbSavedByObjectVersion
1070
     0
  0
ACAD_PROXY_OBJECT
  5
3D
102
{ACAD_REACTORS
330
2A
102
}
330
2A
100
AcDbProxyObject
 90
      499
 91
      501
 93
      452
310
43115919D950DBDB1BDC93D999916409028333333333333E33F0000000000000F9010790141107004050150841D405064090741402480A0350
1001
ACAD
1000
AcDbSavedByObjectVersion
1070
     0
  0
ACAD_PROXY_OBJECT
  5
39
102
{ACAD_REACTORS
330
2A
102
}
330
2A
100
AcDbProxyObject
 90
      499
 91
      501
 93
      444
310
42D19858D95C185D1D195C9B90F409028333333333333E33F0000000000000F9010790141107004050150841D405064090741402480A0350
1001
ACAD
1000
AcDbSavedByObjectVersion
1070
     0
  0
ACAD_PROXY_OBJECT
  5
2B
102
{ACAD_REACTORS
330
2A
102
}
330
2A
100
AcDbProxyObject
 90
      499
 91
      501
 93
      380
310
41119B185D240901404333333333333E33F0000000000000F9010740A907004050150841D405064090741402480A1B50
1001
ACAD
1000
AcDbSavedByObjectVersion
1070
     0
  0
ACAD_PROXY_OBJECT
  5
2C
102
{ACAD_REACTORS
330
2A
102
}
330
2A
100
AcDbProxyObject
 90
      499
 91
      501
 93
      468
310
43519B185D15DA5D1A115919D95CD0140901404333333333333E33F0000000000000F90107409019070040501600405405064090741402480A1B50
1001
ACAD
1000
AcDbSavedByObjectVersion
1070
     0
  0
ACAD_PROXY_OBJECT
  5
2D
102
{ACAD_REACTORS
330
2A
102
}
330
2A
100
AcDbProxyObject
 90
      499
 91
      501
 93
      404
310
41D1DBDD5C985D5910240902404333333333333E33F0000000000000F9010740A9070040501641D405064090741402480A1B50
1001
ACAD
1000
AcDbSavedByObjectVersion
1070
     0
  0
ACAD_PROXY_OBJECT
  5
2E
102
{ACAD_REACTORS
330
2A
102
}
330
2A
100
AcDbProxyObject
 90
      499
 91
      501
 93
      492
310
4411DBDD5C985D5915DA5D1A115919D95CD0340902404333333333333E33F0000000000000F90107409019070040501600405405064090741402480A1B50
1001
ACAD
1000
AcDbSavedByObjectVersion
1070
     0
  0
ACAD_PROXY_OBJECT
  5
31
102
{ACAD_REACTORS
330
2A
102
}
330
2A
100
AcDbProxyObject
 90
      499
 91
      501
 93
      476
310
41921A5919195B90640502408333333333333E33F0000000000000F901079024090700405020000000000001110200405405064090740C02480A0340
1001
ACAD
1000
AcDbSavedByObjectVersion
1070
     0
  0
ACAD_PROXY_OBJECT
  5
3B
102
{ACAD_REACTORS
330
2A
102
}
330
2A
100
AcDbProxyObject
 90
      499
 91
      501
 93
      428
310
42529A5D1D195C93D999914409028333333333333E33F0000000000000F9010790141107004050150A41D405064090741402480A0350
1001
ACAD
1000
AcDbSavedByObjectVersion
1070
     0
  0
ACAD_PROXY_OBJECT
  5
38
102
{ACAD_REACTORS
330
2A
102
}
330
2A
100
AcDbProxyObject
 90
      499
 91
      501
 93
      444
310
42D31A5B995C185D1D195C9B90E409028333333333333E33F0000000000000F9010790141107004050750841D405064090741402483A0350
1001
ACAD
1000
AcDbSavedByObjectVersion
1070
     0
  0
ACAD_PROXY_OBJECT
  5
3C
102
{ACAD_REACTORS
330
2A
102
}
330
2A
100
AcDbProxyObject
 90
      499
 91
      501
 93
      444
310
42D3DD995C9A185B99D3D999915409028333333333333E33F0000000000000F9010790141107004050150941D405064090741402480A0350
1001
ACAD
1000
AcDbSavedByObjectVersion
1070
     0
  0
ACAD_PROXY_OBJECT
  5
33
102
{ACAD_REACTORS
330
2A
102
}
330
2A
100
AcDbProxyObject
 90
      499
 91
      501
 93
      428
310
425499585B1A5CDD1A58D08409038333333333333E33F0000000000000F9010740A907004050150800405405064090740C02480A1B40
1001
ACAD
1000
AcDbSavedByObjectVersion
1070
     0
  0
ACAD_PROXY_OBJECT
  5
42
102
{ACAD_REACTORS
330
2A
102
}
330
2A
100
AcDbProxyObject
 90
      499
 91
      501
 93
      420
310
4194DA1859195911B40902404333333333333E33F0000000000000F9010740A41107004050150800405405064090840C02480A0B40
1001
ACAD
1000
AcDbSavedByObjectVersion
1070
     0
  0
ACAD_PROXY_OBJECT
  5
41
102
{ACAD_REACTORS
330
2A
102
}
330
2A
100
AcDbProxyObject
 90
      499
 91
      501
 93
      516
310
4454DA18591959081DDA5D1A08195919D95CD1A40902404333333333333E33F0000000000000F901074090142907004050250800405405064090740C02480A0B40
1001
ACAD
1000
AcDbSavedByObjectVersion
1070
     0
  0
ACAD_PROXY_OBJECT
  5
3E
102
{ACAD_REACTORS
330
2A
102
}
330
2A
100
AcDbProxyObject
 90
      499
 91
      501
 93
      532
310
4394DA1859195CC81BD98811DC985E5174090240C333333333333E33F0000000000000F901079024090741D01000000000000111010841D405064090740C02480A0340
1001
ACAD
1000
AcDbSavedByObjectVersion
1070
     0
  0
ACAD_PROXY_OBJECT
  5
3F
102
{ACAD_REACTORS
330
2A
102
}
330
2A
100
AcDbProxyObject
 90
      499
 91
      501
 93
      476
310
41D4DAD95D18DA1E51840502408333333333333E33F0000000000000F901079024090741D01000000000000111010B41D405064090741802480A0340
1001
ACAD
1000
AcDbSavedByObjectVersion
1070
     0
  0
ACAD_PROXY_OBJECT
  5
37
102
{ACAD_REACTORS
330
2A
102
}
330
2A
100
AcDbProxyObject
 90
      499
 91
      501
 93
      412
310
41D51A1A58DAD95B90D409028333333333333E33F0000000000000F9010790141107004050150C41D405064090741402480A0350
1001
ACAD
1000
AcDbSavedByObjectVersion
1070
     0
  0
ACAD_PROXY_OBJECT
  5
30
102
{ACAD_REACTORS
330
2A
102
}
330
2A
100
AcDbProxyObject
 90
      499
 91
      501
 93
      420
310
4255DA5C99599C985B595059028333333333333E33F0000000000000F90107901411070040501600405405064090740C02480A0340
1001
ACAD
1000
AcDbSavedByObjectVersion
1070
     0
  0
ACAD_PROXY_OBJECT
  5
40
102
{ACAD_REACTORS
330
2A
102
}
330
2A
100
AcDbProxyObject
 90
      499
 91
      501
 93
      404
310
41560B54985E51940902404000000000000E03F0000000000000F9010740501907004050150841D405064090740C02480A1B40
1001
ACAD
1000
AcDbSavedByObjectVersion
1070
     0
  0
XRECORD
  5
4CC
102
{ACAD_REACTORS
330
4C2
102
}
330
4C2
100
AcDbXrecord
340
0
  0
XRECORD
  5
4CB
102
{ACAD_REACTORS
330
4C2
102
}
330
4C2
100
AcDbXrecord
 90
        0
  0
XRECORD
  5
4E2
102
{ACAD_REACTORS
330
4C2
102
}
330
4C2
100
AcDbXrecord
1000
DSTYLE
1002
{
1070
   179
 70
     3
1070
   171
 70
     2
1070
   143
 40
0.0393700787401575
1070
    41
 40
2.000107526779175
1070
    79
 70
     2
1070
   141
 40
0.0
1070
   271
 70
     3
1070
    43
 40
10.0
1070
   278
 70
    46
1070
    44
 40
1.0
1070
    42
 40
1.0
1070
   147
 40
0.09
1070
   272
 70
     3
1070
   146
 40
0.65
1070
   172
 70
     0
1070
   340
340
11
1070
   140
 40
3.5
1070
   284
 70
     0
1070
    90
 70
     1
1002
}
  0
XRECORD
  5
4CD
102
{ACAD_REACTORS
330
4C2
102
}
330
4C2
100
AcDbXrecord
  1
{8005e8bd-c89f-4e48-adab-46c7b49116b1}
  0
XRECORD
  5
4C5
102
{ACAD_REACTORS
330
4C2
102
}
330
4C2
100
AcDbXrecord
  1

  0
XRECORD
  5
4CA
102
{ACAD_REACTORS
330
4C2
102
}
330
4C2
100
AcDbXrecord
 90
        4
  0
XRECORD
  5
4C7
102
{ACAD_REACTORS
330
4C2
102
}
330
4C2
100
AcDbXrecord
340
1A
  0
XRECORD
  5
4C9
102
{ACAD_REACTORS
330
4C2
102
}
330
4C2
100
AcDbXrecord
 90
    10781
  0
XRECORD
  5
4C8
102
{ACAD_REACTORS
330
4C2
102
}
330
4C2
100
AcDbXrecord
340
19
  0
XRECORD
  5
4CF
102
{ACAD_REACTORS
330
4C2
102
}
330
4C2
100
AcDbXrecord
 40
0.0
  0
XRECORD
  5
4D2
102
{ACAD_REACTORS
330
4C2
102
}
330
4C2
100
AcDbXrecord
340
0
  0
XRECORD
  5
4D8
102
{ACAD_REACTORS
330
4C2
102
}
330
4C2
100
AcDbXrecord
 10
0.0
 20
0.0
 30
0.0
  0
XRECORD
  5
4D4
102
{ACAD_REACTORS
330
4C2
102
}
330
4C2
100
AcDbXrecord
 10
0.0
 20
0.0
 30
0.0
  0
XRECORD
  5
4D7
102
{ACAD_REACTORS
330
4C2
102
}
330
4C2
100
AcDbXrecord
 10
0.0
 20
0.0
 30
0.0
  0
XRECORD
  5
4D5
102
{ACAD_REACTORS
330
4C2
102
}
330
4C2
100
AcDbXrecord
 10
0.0
 20
0.0
 30
0.0
  0
XRECORD
  5
4D6
102
{ACAD_REACTORS
330
4C2
102
}
330
4C2
100
AcDbXrecord
 10
0.0
 20
0.0
 30
0.0
  0
XRECORD
  5
4D3
102
{ACAD_REACTORS
330
4C2
102
}
330
4C2
100
AcDbXrecord
 10
0.0
 20
0.0
 30
0.0
  0
XRECORD
  5
4D0
102
{ACAD_REACTORS
330
4C2
102
}
330
4C2
100
AcDbXrecord
340
0
  0
XRECORD
  5
4D1
102
{ACAD_REACTORS
330
4C2
102
}
330
4C2
100
AcDbXrecord
 70
     0
  0
XRECORD
  5
4C6
102
{ACAD_REACTORS
330
4C2
102
}
330
4C2
100
AcDbXrecord
  1

  0
XRECORD
  5
4C3
102
{ACAD_REACTORS
330
4C2
102
}
330
4C2
100
AcDbXrecord
 90
        1
  0
XRECORD
  5
4C4
102
{ACAD_REACTORS
330
4C2
102
}
330
4C2
100
AcDbXrecord
 90
       70
  0
XRECORD
  5
4DB
102
{ACAD_REACTORS
330
4C2
102
}
330
4C2
100
AcDbXrecord
340
0
  0
XRECORD
  5
4E1
102
{ACAD_REACTORS
330
4C2
102
}
330
4C2
100
AcDbXrecord
 10
0.0
 20
0.0
 30
0.0
  0
XRECORD
  5
4DD
102
{ACAD_REACTORS
330
4C2
102
}
330
4C2
100
AcDbXrecord
 10
0.0
 20
0.0
 30
0.0
  0
XRECORD
  5
4E0
102
{ACAD_REACTORS
330
4C2
102
}
330
4C2
100
AcDbXrecord
 10
0.0
 20
0.0
 30
0.0
  0
XRECORD
  5
4DE
102
{ACAD_REACTORS
330
4C2
102
}
330
4C2
100
AcDbXrecord
 10
0.0
 20
0.0
 30
0.0
  0
XRECORD
  5
4DF
102
{ACAD_REACTORS
330
4C2
102
}
330
4C2
100
AcDbXrecord
 10
0.0
 20
0.0
 30
0.0
  0
XRECORD
  5
4DC
102
{ACAD_REACTORS
330
4C2
102
}
330
4C2
100
AcDbXrecord
 10
0.0
 20
0.0
 30
0.0
  0
XRECORD
  5
4D9
102
{ACAD_REACTORS
330
4C2
102
}
330
4C2
100
AcDbXrecord
340
0
  0
XRECORD
  5
4DA
102
{ACAD_REACTORS
330
4C2
102
}
330
4C2
100
AcDbXrecord
 70
     0
  0
XRECORD
  5
4CE
102
{ACAD_REACTORS
330
4C2
102
}
330
4C2
100
AcDbXrecord
  1
{FAEB1C32-E019-11D5-929B-00C0DF256EC4}
  0
DICTIONARYVAR
  5
4EC
102
{ACAD_REACTORS
330
4E3
102
}
330
4E3
100
DictionaryVariables
280
     0
  1
1:1
  0
DICTIONARYVAR
  5
4E5
102
{ACAD_REACTORS
330
4E3
102
}
330
4E3
100
DictionaryVariables
280
     0
  1
Standard
  0
DICTIONARYVAR
  5
4E4
102
{ACAD_REACTORS
330
4E3
102
}
330
4E3
100
DictionaryVariables
280
     0
  1
Standard
  0
DICTIONARYVAR
  5
4E8
102
{ACAD_REACTORS
330
4E3
102
}
330
4E3
100
DictionaryVariables
280
     0
  1
2
  0
DICTIONARYVAR
  5
4E9
102
{ACAD_REACTORS
330
4E3
102
}
330
4E3
100
DictionaryVariables
280
     0
  1
1
  0
DICTIONARYVAR
  5
4ED
102
{ACAD_REACTORS
330
4E3
102
}
330
4E3
100
DictionaryVariables
280
     0
  1
1
  0
DICTIONARY
  5
4F0
330
45
100
AcDbDictionary
280
     1
  3
ACAD_XREC_ROUNDTRIP
360
4F1
  0
DICTIONARY
  5
4EE
330
44
100
AcDbDictionary
280
     1
  3
ACAD_XREC_ROUNDTRIP
360
4EF
  0
DICTIONARY
  5
4F2
330
46
100
AcDbDictionary
280
     1
  3
ACAD_XREC_ROUNDTRIP
360
4F3
  0
XRECORD
  5
4F1
102
{ACAD_REACTORS
330
4F0
102
}
330
4F0
100
AcDbXrecord
102
MATERIAL
148
0.0
149
0.0
149
0.0
 93
        0
 94
      127
282
     0
 72
     1
 77
     1
171
     1
175
     1
179
     1
273
     0
  0
XRECORD
  5
4EF
102
{ACAD_REACTORS
330
4EE
102
}
330
4EE
100
AcDbXrecord
102
MATERIAL
148
0.0
149
0.0
149
0.0
 93
        0
 94
      127
282
     0
 72
     1
 77
     1
171
     1
175
     1
179
     1
273
     0
  0
XRECORD
  5
4F3
102
{ACAD_REACTORS
330
4F2
102
}
330
4F2
100
AcDbXrecord
102
MATERIAL
148
0.0
149
0.0
149
0.0
 93
        0
 94
      127
282
     0
 72
     1
 77
     1
171
     1
175
     1
179
     1
273
     0
  0
ENDSEC
  0
EOF
