  0
SECTION
  2
HEADER
  9
$ACADVER
  1
AC1014
  9
$ACADMAINTVER
 70
     9
  9
$DWGCODEPAGE
  3
ANSI_932
  9
$INSBASE
 10
0.0
 20
0.0
 30
0.0
  9
$EXTMIN
 10
-1732.990254984203
 20
-1261.5
 30
0.0
  9
$EXTMAX
 10
1728.996792054084
 20
1261.5
 30
0.0
  9
$LIMMIN
 10
-594.5
 20
-420.5
  9
$LIMMAX
 10
594.5
 20
420.5
  9
$ORTHOMODE
 70
     0
  9
$REGENMODE
 70
     1
  9
$FILLMODE
 70
     1
  9
$QTEXTMODE
 70
     0
  9
$MIRRTEXT
 70
     1
  9
$DRAGMODE
 70
     2
  9
$LTSCALE
 40
0.25
  9
$OSMODE
 70
    37
  9
$ATTMODE
 70
     1
  9
$TEXTSIZE
 40
0.2
  9
$TRACEWID
 40
0.05
  9
$TEXTSTYLE
  7
STANDARD
  9
$CLAYER
  8
0
  9
$CELTYPE
  6
BYLAYER
  9
$CECOLOR
 62
   256
  9
$CELTSCALE
 40
1.0
  9
$DELOBJ
 70
     1
  9
$DISPSILH
 70
     0
  9
$DIMSCALE
 40
1.0
  9
$DIMASZ
 40
2.000107526779175
  9
$DIMEXO
 40
1.0
  9
$DIMDLI
 40
10.0
  9
$DIMRND
 40
0.0
  9
$DIMDLE
 40
0.0
  9
$DIMEXE
 40
1.0
  9
$DIMTP
 40
0.0
  9
$DIMTM
 40
0.0
  9
$DIMTXT
 40
3.5
  9
$DIMCEN
 40
0.0
  9
$DIMTSZ
 40
0.0
  9
$DIMTOL
 70
     0
  9
$DIMLIM
 70
     0
  9
$DIMTIH
 70
     0
  9
$DIMTOH
 70
     0
  9
$DIMSE1
 70
     0
  9
$DIMSE2
 70
     0
  9
$DIMTAD
 70
     1
  9
$DIMZIN
 70
     8
  9
$DIMBLK
  1

  9
$DIMASO
 70
     1
  9
$DIMSHO
 70
     1
  9
$DIMPOST
  1

  9
$DIMAPOST
  1

  9
$DIMALT
 70
     0
  9
$DIMALTD
 70
     2
  9
$DIMALTF
 40
0.0393700787401575
  9
$DIMLFAC
 40
1.0
  9
$DIMTOFL
 70
     0
  9
$DIMTVP
 40
0.0
  9
$DIMTIX
 70
     0
  9
$DIMSOXD
 70
     0
  9
$DIMSAH
 70
     0
  9
$DIMBLK1
  1

  9
$DIMBLK2
  1

  9
$DIMSTYLE
  2
STANDARD
  9
$DIMCLRD
 70
     0
  9
$DIMCLRE
 70
     0
  9
$DIMCLRT
 70
     0
  9
$DIMTFAC
 40
0.65
  9
$DIMGAP
 40
0.09
  9
$DIMJUST
 70
     0
  9
$DIMSD1
 70
     0
  9
$DIMSD2
 70
     0
  9
$DIMTOLJ
 70
     0
  9
$DIMTZIN
 70
     0
  9
$DIMALTZ
 70
     0
  9
$DIMALTTZ
 70
     0
  9
$DIMFIT
 70
     3
  9
$DIMUPT
 70
     0
  9
$DIMUNIT
 70
     2
  9
$DIMDEC
 70
     3
  9
$DIMTDEC
 70
     3
  9
$DIMALTU
 70
     2
  9
$DIMALTTD
 70
     3
  9
$DIMTXSTY
  7
STANDARD
  9
$DIMAUNIT
 70
     0
  9
$LUNITS
 70
     2
  9
$LUPREC
 70
     4
  9
$SKETCHINC
 40
0.1
  9
$FILLETRAD
 40
0.5
  9
$AUNITS
 70
     0
  9
$AUPREC
 70
     0
  9
$MENU
  1
.
  9
$ELEVATION
 40
0.0
  9
$PELEVATION
 40
0.0
  9
$THICKNESS
 40
0.0
  9
$LIMCHECK
 70
     0
  9
$CHAMFERA
 40
0.0
  9
$CHAMFERB
 40
0.0
  9
$CHAMFERC
 40
0.0
  9
$CHAMFERD
 40
0.0
  9
$SKPOLY
 70
     0
  9
$TDCREATE
 40
2458444.671760231
  9
$TDUPDATE
 40
2458444.671760417
  9
$TDINDWG
 40
0.0000000116
  9
$TDUSRTIMER
 40
0.0000000116
  9
$USRTIMER
 70
     1
  9
$ANGBASE
 50
0.0
  9
$ANGDIR
 70
     0
  9
$PDMODE
 70
     0
  9
$PDSIZE
 40
1.0
  9
$PLINEWID
 40
0.0
  9
$COORDS
 70
     1
  9
$SPLFRAME
 70
     0
  9
$SPLINETYPE
 70
     6
  9
$SPLINESEGS
 70
     8
  9
$ATTDIA
 70
     0
  9
$ATTREQ
 70
     1
  9
$HANDLING
 70
     1
  9
$HANDSEED
  5
64A
  9
$SURFTAB1
 70
     6
  9
$SURFTAB2
 70
     6
  9
$SURFTYPE
 70
     6
  9
$SURFU
 70
     6
  9
$SURFV
 70
     6
  9
$UCSNAME
  2

  9
$UCSORG
 10
0.0
 20
0.0
 30
0.0
  9
$UCSXDIR
 10
1.0
 20
0.0
 30
0.0
  9
$UCSYDIR
 10
0.0
 20
1.0
 30
0.0
  9
$PUCSNAME
  2

  9
$PUCSORG
 10
0.0
 20
0.0
 30
0.0
  9
$PUCSXDIR
 10
1.0
 20
0.0
 30
0.0
  9
$PUCSYDIR
 10
0.0
 20
1.0
 30
0.0
  9
$USERI1
 70
     0
  9
$USERI2
 70
     0
  9
$USERI3
 70
     0
  9
$USERI4
 70
     0
  9
$USERI5
 70
     0
  9
$USERR1
 40
0.0
  9
$USERR2
 40
0.0
  9
$USERR3
 40
0.0
  9
$USERR4
 40
0.0
  9
$USERR5
 40
0.0
  9
$WORLDVIEW
 70
     1
  9
$SHADEDGE
 70
     3
  9
$SHADEDIF
 70
    70
  9
$TILEMODE
 70
     1
  9
$MAXACTVP
 70
    64
  9
$PINSBASE
 10
0.0
 20
0.0
 30
0.0
  9
$PLIMCHECK
 70
     0
  9
$PEXTMIN
 10
1.000000000000000E+20
 20
1.000000000000000E+20
 30
1.000000000000000E+20
  9
$PEXTMAX
 10
-1.000000000000000E+20
 20
-1.000000000000000E+20
 30
-1.000000000000000E+20
  9
$PLIMMIN
 10
0.0
 20
0.0
  9
$PLIMMAX
 10
12.0
 20
9.0
  9
$UNITMODE
 70
     0
  9
$VISRETAIN
 70
     0
  9
$PLINEGEN
 70
     1
  9
$PSLTSCALE
 70
     0
  9
$TREEDEPTH
 70
  3020
  9
$PICKSTYLE
 70
     1
  9
$CMLSTYLE
  2
STANDARD
  9
$CMLJUST
 70
     0
  9
$CMLSCALE
 40
1.0
  9
$PROXYGRAPHICS
 70
     0
  9
$MEASUREMENT
 70
     1
  0
ENDSEC
  0
SECTION
  2
CLASSES
  0
CLASS
  1
ACDBDICTIONARYWDFLT
  2
AcDbDictionaryWithDefault
  3
ObjectDBX Classes
 90
        0
280
     0
281
     0
  0
CLASS
  1
VISUALSTYLE
  2
AcDbVisualStyle
  3
ObjectDBX Classes
 90
     4095
280
     0
281
     0
  0
CLASS
  1
MATERIAL
  2
AcDbMaterial
  3
ObjectDBX Classes
 90
     1153
280
     0
281
     0
  0
CLASS
  1
SCALE
  2
AcDbScale
  3
ObjectDBX Classes
 90
     1153
280
     0
281
     0
  0
CLASS
  1
TABLESTYLE
  2
AcDbTableStyle
  3
ObjectDBX Classes
 90
     4095
280
     0
281
     0
  0
CLASS
  1
MLEADERSTYLE
  2
AcDbMLeaderStyle
  3
ACDB_MLEADERSTYLE_CLASS
 90
     4095
280
     0
281
     0
  0
CLASS
  1
SUN
  2
AcDbSun
  3
SCENEOE
 90
     1153
280
     0
281
     0
  0
CLASS
  1
DICTIONARYVAR
  2
AcDbDictionaryVar
  3
ObjectDBX Classes
 90
        0
280
     0
281
     0
  0
CLASS
  1
XRECORD
  2
AcDbXrecord
  3
ObjectDBX Classes
 90
        0
280
     0
281
     0
  0
CLASS
  1
LWPOLYLINE
  2
AcDbPolyline
  3
ObjectDBX Classes
 90
        0
280
     0
281
     1
  0
CLASS
  1
HATCH
  2
AcDbHatch
  3
ObjectDBX Classes
 90
        0
280
     0
281
     1
  0
CLASS
  1
ACDBPLACEHOLDER
  2
AcDbPlaceHolder
  3
ObjectDBX Classes
 90
        0
280
     0
281
     0
  0
CLASS
  1
LAYOUT
  2
AcDbLayout
  3
ObjectDBX Classes
 90
        0
280
     0
281
     0
  0
ENDSEC
  0
SECTION
  2
TABLES
  0
TABLE
  2
VPORT
  5
8
102
{ACAD_XDICTIONARY
360
63F
102
}
330
0
100
AcDbSymbolTable
 70
     1
  0
VPORT
  5
29
330
8
100
AcDbSymbolTableRecord
100
AcDbViewportTableRecord
  2
*ACTIVE
 70
     0
 10
0.0
 20
0.0
 11
1.0
 21
1.0
 12
-1.996731465059387
 22
0.0000000000011937
 13
0.0
 23
0.0
 14
0.5
 24
0.5
 15
0.5
 25
0.5
 16
0.0
 26
0.0
 36
1.0
 17
0.0
 27
0.0
 37
0.0
 40
857.8199999999975
 41
1.37217084702271
 42
50.0
 43
0.0
 44
0.0
 50
0.0
 51
0.0
 71
     0
 72
  1000
 73
     1
 74
     1
 75
     0
 76
     0
 77
     0
 78
     0
  0
ENDTAB
  0
TABLE
  2
LTYPE
  5
5
330
0
100
AcDbSymbolTable
 70
    67
  0
LTYPE
  5
14
330
5
100
AcDbSymbolTableRecord
100
AcDbLinetypeTableRecord
  2
BYBLOCK
 70
     0
  3

 72
    65
 73
     0
 40
0.0
  0
LTYPE
  5
15
330
5
100
AcDbSymbolTableRecord
100
AcDbLinetypeTableRecord
  2
BYLAYER
 70
     0
  3

 72
    65
 73
     0
 40
0.0
  0
LTYPE
  5
16
330
5
100
AcDbSymbolTableRecord
100
AcDbLinetypeTableRecord
  2
CONTINUOUS
 70
     0
  3
Solid line
 72
    65
 73
     0
 40
0.0
  0
LTYPE
  5
6F
330
5
100
AcDbSymbolTableRecord
100
AcDbLinetypeTableRecord
  2
HIDDENX2
 70
     0
  3
Hidden (2x) ____ ____ ____ ____ ____ ____ ____ 
 72
    65
 73
     2
 40
19.05
 49
12.7
 74
     0
 49
-6.35
 74
     0
  0
LTYPE
  5
70
330
5
100
AcDbSymbolTableRecord
100
AcDbLinetypeTableRecord
  2
HIDDEN
 70
     0
  3
Hidden __ __ __ __ __ __ __ __ __ __ __ __ __ __
 72
    65
 73
     2
 40
9.524999999999999
 49
6.35
 74
     0
 49
-3.175
 74
     0
  0
LTYPE
  5
71
330
5
100
AcDbSymbolTableRecord
100
AcDbLinetypeTableRecord
  2
HIDDEN2
 70
     0
  3
Hidden (.5x) _ _ _ _ _ _ _ _ _ _ _ _ _ _ _ _ _ 
 72
    65
 73
     2
 40
4.762499999999999
 49
3.175
 74
     0
 49
-1.5875
 74
     0
  0
LTYPE
  5
72
330
5
100
AcDbSymbolTableRecord
100
AcDbLinetypeTableRecord
  2
DASHED
 70
     0
  3
Dashed __ __ __ __ __ __ __ __ __ __ __ __ __ _
 72
    65
 73
     2
 40
19.05
 49
12.7
 74
     0
 49
-6.35
 74
     0
  0
LTYPE
  5
73
330
5
100
AcDbSymbolTableRecord
100
AcDbLinetypeTableRecord
  2
DASHED2
 70
     0
  3
Dashed (.5x) _ _ _ _ _ _ _ _ _ _ _ _ _ _ _ _ _ 
 72
    65
 73
     2
 40
9.524999999999999
 49
6.35
 74
     0
 49
-3.175
 74
     0
  0
LTYPE
  5
74
330
5
100
AcDbSymbolTableRecord
100
AcDbLinetypeTableRecord
  2
DASHEDX2
 70
     0
  3
Dashed (2x) ____  ____  ____  ____  ____  ___
 72
    65
 73
     2
 40
38.09999999999999
 49
25.4
 74
     0
 49
-12.7
 74
     0
  0
LTYPE
  5
75
330
5
100
AcDbSymbolTableRecord
100
AcDbLinetypeTableRecord
  2
DOTX2
 70
     0
  3
Dot (2x) .  .  .  .  .  .  .  .  .  .  .  .  .  .
 72
    65
 73
     2
 40
12.7
 49
0.0
 74
     0
 49
-12.7
 74
     0
  0
LTYPE
  5
76
330
5
100
AcDbSymbolTableRecord
100
AcDbLinetypeTableRecord
  2
DOT
 70
     0
  3
Dot . . . . . . . . . . . . . . . . . . . . . . . .
 72
    65
 73
     2
 40
6.35
 49
0.0
 74
     0
 49
-6.35
 74
     0
  0
LTYPE
  5
77
330
5
100
AcDbSymbolTableRecord
100
AcDbLinetypeTableRecord
  2
DOT2
 70
     0
  3
Dot (.5x) ........................................
 72
    65
 73
     2
 40
3.175
 49
0.0
 74
     0
 49
-3.175
 74
     0
  0
LTYPE
  5
78
330
5
100
AcDbSymbolTableRecord
100
AcDbLinetypeTableRecord
  2
CENTERX2
 70
     0
  3
Center (2x) ________  __  ________  __  _____
 72
    65
 73
     4
 40
101.6
 49
63.5
 74
     0
 49
-12.7
 74
     0
 49
12.7
 74
     0
 49
-12.7
 74
     0
  0
LTYPE
  5
79
330
5
100
AcDbSymbolTableRecord
100
AcDbLinetypeTableRecord
  2
CENTER
 70
     0
  3
Center ____ _ ____ _ ____ _ ____ _ ____ _ ____
 72
    65
 73
     4
 40
50.8
 49
31.75
 74
     0
 49
-6.35
 74
     0
 49
6.35
 74
     0
 49
-6.35
 74
     0
  0
LTYPE
  5
7A
330
5
100
AcDbSymbolTableRecord
100
AcDbLinetypeTableRecord
  2
CENTER2
 70
     0
  3
Center (.5x) ___ _ ___ _ ___ _ ___ _ ___ _ ___
 72
    65
 73
     4
 40
28.575
 49
19.05
 74
     0
 49
-3.175
 74
     0
 49
3.175
 74
     0
 49
-3.175
 74
     0
  0
LTYPE
  5
7B
330
5
100
AcDbSymbolTableRecord
100
AcDbLinetypeTableRecord
  2
DASHDOTX2
 70
     0
  3
Dash dot (2x) ____  .  ____  .  ____  .  ___
 72
    65
 73
     4
 40
50.8
 49
25.4
 74
     0
 49
-12.7
 74
     0
 49
0.0
 74
     0
 49
-12.7
 74
     0
  0
LTYPE
  5
7C
330
5
100
AcDbSymbolTableRecord
100
AcDbLinetypeTableRecord
  2
DASHDOT
 70
     0
  3
Dash dot __ . __ . __ . __ . __ . __ . __ . __
 72
    65
 73
     4
 40
25.4
 49
12.7
 74
     0
 49
-6.35
 74
     0
 49
0.0
 74
     0
 49
-6.35
 74
     0
  0
LTYPE
  5
7D
330
5
100
AcDbSymbolTableRecord
100
AcDbLinetypeTableRecord
  2
DASHDOT2
 70
     0
  3
Dash dot (.5x) _._._._._._._._._._._._._._._.
 72
    65
 73
     4
 40
12.7
 49
6.35
 74
     0
 49
-3.175
 74
     0
 49
0.0
 74
     0
 49
-3.175
 74
     0
  0
LTYPE
  5
7E
330
5
100
AcDbSymbolTableRecord
100
AcDbLinetypeTableRecord
  2
DIVIDEX2
 70
     0
  3
Divide (2x) ________  .  .  ________  .  .  _
 72
    65
 73
     6
 40
63.5
 49
25.4
 74
     0
 49
-12.7
 74
     0
 49
0.0
 74
     0
 49
-12.7
 74
     0
 49
0.0
 74
     0
 49
-12.7
 74
     0
  0
LTYPE
  5
7F
330
5
100
AcDbSymbolTableRecord
100
AcDbLinetypeTableRecord
  2
DIVIDE
 70
     0
  3
Divide ____ . . ____ . . ____ . . ____ . . ____
 72
    65
 73
     6
 40
31.75
 49
12.7
 74
     0
 49
-6.35
 74
     0
 49
0.0
 74
     0
 49
-6.35
 74
     0
 49
0.0
 74
     0
 49
-6.35
 74
     0
  0
LTYPE
  5
80
330
5
100
AcDbSymbolTableRecord
100
AcDbLinetypeTableRecord
  2
DIVIDE2
 70
     0
  3
Divide (.5x) __..__..__..__..__..__..__..__.._
 72
    65
 73
     6
 40
15.875
 49
6.35
 74
     0
 49
-3.175
 74
     0
 49
0.0
 74
     0
 49
-3.175
 74
     0
 49
0.0
 74
     0
 49
-3.175
 74
     0
  0
LTYPE
  5
81
330
5
100
AcDbSymbolTableRecord
100
AcDbLinetypeTableRecord
  2
BORDERX2
 70
     0
  3
Border (2x) ____  ____  .  ____  ____  .  ___
 72
    65
 73
     6
 40
88.89999999999999
 49
25.4
 74
     0
 49
-12.7
 74
     0
 49
25.4
 74
     0
 49
-12.7
 74
     0
 49
0.0
 74
     0
 49
-12.7
 74
     0
  0
LTYPE
  5
82
330
5
100
AcDbSymbolTableRecord
100
AcDbLinetypeTableRecord
  2
BORDER
 70
     0
  3
Border __ __ . __ __ . __ __ . __ __ . __ __ .
 72
    65
 73
     6
 40
44.45
 49
12.7
 74
     0
 49
-6.35
 74
     0
 49
12.7
 74
     0
 49
-6.35
 74
     0
 49
0.0
 74
     0
 49
-6.35
 74
     0
  0
LTYPE
  5
83
330
5
100
AcDbSymbolTableRecord
100
AcDbLinetypeTableRecord
  2
BORDER2
 70
     0
  3
Border (.5x) __.__.__.__.__.__.__.__.__.__.__.
 72
    65
 73
     6
 40
22.225
 49
6.35
 74
     0
 49
-3.175
 74
     0
 49
6.35
 74
     0
 49
-3.175
 74
     0
 49
0.0
 74
     0
 49
-3.175
 74
     0
  0
LTYPE
  5
84
330
5
100
AcDbSymbolTableRecord
100
AcDbLinetypeTableRecord
  2
PHANTOMX2
 70
     0
  3
Phantom (2x) ____________    ____    ____   _
 72
    65
 73
     6
 40
127.0
 49
63.5
 74
     0
 49
-12.7
 74
     0
 49
12.7
 74
     0
 49
-12.7
 74
     0
 49
12.7
 74
     0
 49
-12.7
 74
     0
  0
LTYPE
  5
85
330
5
100
AcDbSymbolTableRecord
100
AcDbLinetypeTableRecord
  2
PHANTOM
 70
     0
  3
Phantom ______  __  __  ______  __  __  ______ 
 72
    65
 73
     6
 40
63.5
 49
31.75
 74
     0
 49
-6.35
 74
     0
 49
6.35
 74
     0
 49
-6.35
 74
     0
 49
6.35
 74
     0
 49
-6.35
 74
     0
  0
LTYPE
  5
86
330
5
100
AcDbSymbolTableRecord
100
AcDbLinetypeTableRecord
  2
PHANTOM2
 70
     0
  3
Phantom (.5x) ___ _ _ ___ _ _ ___ _ _ ___ _ _
 72
    65
 73
     6
 40
31.75
 49
15.875
 74
     0
 49
-3.175
 74
     0
 49
3.175
 74
     0
 49
-3.175
 74
     0
 49
3.175
 74
     0
 49
-3.175
 74
     0
  0
LTYPE
  5
87
330
5
100
AcDbSymbolTableRecord
100
AcDbLinetypeTableRecord
  2
ACAD_ISO06W100
 70
     0
  3
ISO long-dash triple-dot ____ ... ____ ... ____
 72
    65
 73
     8
 40
36.0
 49
24.0
 74
     0
 49
-3.0
 74
     0
 49
0.0
 74
     0
 49
-3.0
 74
     0
 49
0.0
 74
     0
 49
-3.0
 74
     0
 49
0.0
 74
     0
 49
-3.0
 74
     0
  0
LTYPE
  5
88
330
5
100
AcDbSymbolTableRecord
100
AcDbLinetypeTableRecord
  2
ACAD_ISO13W100
 70
     0
  3
ISO double-dash double-dot __ __ . . __ __ . . _
 72
    65
 73
     8
 40
36.0
 49
12.0
 74
     0
 49
-3.0
 74
     0
 49
12.0
 74
     0
 49
-3.0
 74
     0
 49
0.0
 74
     0
 49
-3.0
 74
     0
 49
0.0
 74
     0
 49
-3.0
 74
     0
  0
LTYPE
  5
89
330
5
100
AcDbSymbolTableRecord
100
AcDbLinetypeTableRecord
  2
ACAD_ISO14W100
 70
     0
  3
ISO dash triple-dot __ . . . __ . . . __ . . . _
 72
    65
 73
     8
 40
24.0
 49
12.0
 74
     0
 49
-3.0
 74
     0
 49
0.0
 74
     0
 49
-3.0
 74
     0
 49
0.0
 74
     0
 49
-3.0
 74
     0
 49
0.0
 74
     0
 49
-3.0
 74
     0
  0
LTYPE
  5
8A
330
5
100
AcDbSymbolTableRecord
100
AcDbLinetypeTableRecord
  2
ACAD_ISO02W100
 70
     0
  3
ISO dash __ __ __ __ __ __ __ __ __ __ __ __ __
 72
    65
 73
     2
 40
15.0
 49
12.0
 74
     0
 49
-3.0
 74
     0
  0
LTYPE
  5
8B
330
5
100
AcDbSymbolTableRecord
100
AcDbLinetypeTableRecord
  2
ACAD_ISO03W100
 70
     0
  3
ISO dash space __    __    __    __    __    __
 72
    65
 73
     2
 40
30.0
 49
12.0
 74
     0
 49
-18.0
 74
     0
  0
LTYPE
  5
8C
330
5
100
AcDbSymbolTableRecord
100
AcDbLinetypeTableRecord
  2
ACAD_ISO04W100
 70
     0
  3
ISO long-dash dot ____ . ____ . ____ . ____ . _
 72
    65
 73
     4
 40
30.0
 49
24.0
 74
     0
 49
-3.0
 74
     0
 49
0.0
 74
     0
 49
-3.0
 74
     0
  0
LTYPE
  5
8D
330
5
100
AcDbSymbolTableRecord
100
AcDbLinetypeTableRecord
  2
ACAD_ISO05W100
 70
     0
  3
ISO long-dash double-dot ____ .. ____ .. ____ . 
 72
    65
 73
     6
 40
33.0
 49
24.0
 74
     0
 49
-3.0
 74
     0
 49
0.0
 74
     0
 49
-3.0
 74
     0
 49
0.0
 74
     0
 49
-3.0
 74
     0
  0
LTYPE
  5
8E
330
5
100
AcDbSymbolTableRecord
100
AcDbLinetypeTableRecord
  2
ACAD_ISO07W100
 70
     0
  3
ISO dot . . . . . . . . . . . . . . . . . . . . 
 72
    65
 73
     2
 40
3.0
 49
0.0
 74
     0
 49
-3.0
 74
     0
  0
LTYPE
  5
8F
330
5
100
AcDbSymbolTableRecord
100
AcDbLinetypeTableRecord
  2
ACAD_ISO08W100
 70
     0
  3
ISO long-dash short-dash ____ __ ____ __ ____ _
 72
    65
 73
     4
 40
36.0
 49
24.0
 74
     0
 49
-3.0
 74
     0
 49
6.0
 74
     0
 49
-3.0
 74
     0
  0
LTYPE
  5
90
330
5
100
AcDbSymbolTableRecord
100
AcDbLinetypeTableRecord
  2
ACAD_ISO09W100
 70
     0
  3
ISO long-dash double-short-dash ____ __ __ ____
 72
    65
 73
     6
 40
45.0
 49
24.0
 74
     0
 49
-3.0
 74
     0
 49
6.0
 74
     0
 49
-3.0
 74
     0
 49
6.0
 74
     0
 49
-3.0
 74
     0
  0
LTYPE
  5
91
330
5
100
AcDbSymbolTableRecord
100
AcDbLinetypeTableRecord
  2
ACAD_ISO10W100
 70
     0
  3
ISO dash dot __ . __ . __ . __ . __ . __ . __ . 
 72
    65
 73
     4
 40
18.0
 49
12.0
 74
     0
 49
-3.0
 74
     0
 49
0.0
 74
     0
 49
-3.0
 74
     0
  0
LTYPE
  5
92
330
5
100
AcDbSymbolTableRecord
100
AcDbLinetypeTableRecord
  2
ACAD_ISO11W100
 70
     0
  3
ISO double-dash dot __ __ . __ __ . __ __ . __ _
 72
    65
 73
     6
 40
33.0
 49
12.0
 74
     0
 49
-3.0
 74
     0
 49
12.0
 74
     0
 49
-3.0
 74
     0
 49
0.0
 74
     0
 49
-3.0
 74
     0
  0
LTYPE
  5
93
330
5
100
AcDbSymbolTableRecord
100
AcDbLinetypeTableRecord
  2
ACAD_ISO12W100
 70
     0
  3
ISO dash double-dot __ . . __ . . __ . . __ . . 
 72
    65
 73
     6
 40
21.0
 49
12.0
 74
     0
 49
-3.0
 74
     0
 49
0.0
 74
     0
 49
-3.0
 74
     0
 49
0.0
 74
     0
 49
-3.0
 74
     0
  0
LTYPE
  5
94
330
5
100
AcDbSymbolTableRecord
100
AcDbLinetypeTableRecord
  2
ACAD_ISO15W100
 70
     0
  3
ISO double-dash triple-dot __ __ . . . __ __ . .
 72
    65
 73
    10
 40
39.0
 49
12.0
 74
     0
 49
-3.0
 74
     0
 49
12.0
 74
     0
 49
-3.0
 74
     0
 49
0.0
 74
     0
 49
-3.0
 74
     0
 49
0.0
 74
     0
 49
-3.0
 74
     0
 49
0.0
 74
     0
 49
-3.0
 74
     0
  0
LTYPE
  5
95
330
5
100
AcDbSymbolTableRecord
100
AcDbLinetypeTableRecord
  2
JIS_02_0_7
 70
     0
  3
HIDDEN0.75 _ _ _ _ _ _ _ _ _ _ _ _ _ _ _ _ _ 
 72
    65
 73
     2
 40
1.35
 49
0.75
 74
     0
 49
-0.6
 74
     0
  0
LTYPE
  5
96
330
5
100
AcDbSymbolTableRecord
100
AcDbLinetypeTableRecord
  2
JIS_02_1_0
 70
     0
  3
HIDDEN01 _ _ _ _ _ _ _ _ _ _ _ _ _ _ _ _ _ 
 72
    65
 73
     2
 40
2.0
 49
1.0
 74
     0
 49
-1.0
 74
     0
  0
LTYPE
  5
97
330
5
100
AcDbSymbolTableRecord
100
AcDbLinetypeTableRecord
  2
JIS_02_1_2
 70
     0
  3
HIDDEN01.25  _ _ _ _ _ _ _ _ _ _ _ _ _ _ _ _ _ 
 72
    65
 73
     2
 40
2.5
 49
1.25
 74
     0
 49
-1.25
 74
     0
  0
LTYPE
  5
98
330
5
100
AcDbSymbolTableRecord
100
AcDbLinetypeTableRecord
  2
JIS_02_2_0
 70
     0
  3
HIDDEN02 __ __ __ __ __ __ __ __ __ __ __ 
 72
    65
 73
     2
 40
3.0
 49
2.0
 74
     0
 49
-1.0
 74
     0
  0
LTYPE
  5
99
330
5
100
AcDbSymbolTableRecord
100
AcDbLinetypeTableRecord
  2
JIS_02_4_0
 70
     0
  3
HIDDEN04 ____ ____ ____ ____ ____ ____ ____ 
 72
    65
 73
     2
 40
5.5
 49
4.0
 74
     0
 49
-1.5
 74
     0
  0
LTYPE
  5
9A
330
5
100
AcDbSymbolTableRecord
100
AcDbLinetypeTableRecord
  2
JIS_08_11
 70
     0
  3
1SASEN11 ___ _ ___ _ ___ _ ___ _ ___ _ ___
 72
    65
 73
     4
 40
12.8
 49
11.0
 74
     0
 49
-0.6
 74
     0
 49
0.6
 74
     0
 49
-0.6
 74
     0
  0
LTYPE
  5
9B
330
5
100
AcDbSymbolTableRecord
100
AcDbLinetypeTableRecord
  2
JIS_08_15
 70
     0
  3
1SASEN15 ____ _ ____ _ ____ _ ____ _ ____ 
 72
    65
 73
     4
 40
17.25
 49
15.0
 74
     0
 49
-0.75
 74
     0
 49
0.75
 74
     0
 49
-0.75
 74
     0
  0
LTYPE
  5
9C
330
5
100
AcDbSymbolTableRecord
100
AcDbLinetypeTableRecord
  2
JIS_08_25
 70
     0
  3
1SASEN25 ________  __  ________  __  _____
 72
    65
 73
     4
 40
28.0
 49
25.0
 74
     0
 49
-1.125
 74
     0
 49
0.75
 74
     0
 49
-1.125
 74
     0
  0
LTYPE
  5
9D
330
5
100
AcDbSymbolTableRecord
100
AcDbLinetypeTableRecord
  2
JIS_08_37
 70
     0
  3
1SASEN37 ________  __  ________  __  _____
 72
    65
 73
     4
 40
40.5
 49
37.5
 74
     0
 49
-1.125
 74
     0
 49
0.75
 74
     0
 49
-1.125
 74
     0
  0
LTYPE
  5
9E
330
5
100
AcDbSymbolTableRecord
100
AcDbLinetypeTableRecord
  2
JIS_08_50
 70
     0
  3
1SASEN50 _______________  __  ____________
 72
    65
 73
     4
 40
53.0
 49
50.0
 74
     0
 49
-1.125
 74
     0
 49
0.75
 74
     0
 49
-1.125
 74
     0
  0
LTYPE
  5
9F
330
5
100
AcDbSymbolTableRecord
100
AcDbLinetypeTableRecord
  2
JIS_09_08
 70
     0
  3
2SASEN8 __ _ _ __ _ _ __ _ _ __ _ _ __ _ _ 
 72
    65
 73
     6
 40
10.75
 49
8.0
 74
     0
 49
-0.55
 74
     0
 49
0.55
 74
     0
 49
-0.55
 74
     0
 49
0.55
 74
     0
 49
-0.55
 74
     0
  0
LTYPE
  5
A0
330
5
100
AcDbSymbolTableRecord
100
AcDbLinetypeTableRecord
  2
JIS_09_15
 70
     0
  3
2SASEN15 ___ _ _ ___ _ _ ___ _ _ ___ _ _ ___ 
 72
    65
 73
     6
 40
18.9
 49
15.0
 74
     0
 49
-0.9
 74
     0
 49
0.6
 74
     0
 49
-0.9
 74
     0
 49
0.6
 74
     0
 49
-0.9
 74
     0
  0
LTYPE
  5
A1
330
5
100
AcDbSymbolTableRecord
100
AcDbLinetypeTableRecord
  2
JIS_09_29
 70
     0
  3
2SASEN29 ______　__  __  ______　__  __  ___
 72
    65
 73
     6
 40
34.0
 49
29.0
 74
     0
 49
-1.2
 74
     0
 49
0.7
 74
     0
 49
-1.2
 74
     0
 49
0.7
 74
     0
 49
-1.2
 74
     0
  0
LTYPE
  5
A2
330
5
100
AcDbSymbolTableRecord
100
AcDbLinetypeTableRecord
  2
JIS_09_50
 70
     0
  3
2SASEN50 ____________　__  __  _____________
 72
    65
 73
     6
 40
55.0
 49
50.0
 74
     0
 49
-1.2
 74
     0
 49
0.7
 74
     0
 49
-1.2
 74
     0
 49
0.7
 74
     0
 49
-1.2
 74
     0
  0
LTYPE
  5
A3
330
5
100
AcDbSymbolTableRecord
100
AcDbLinetypeTableRecord
  2
SXF_破線
 70
     0
  3
02 dashed -- -- -- -- -- --
 72
    65
 73
     2
 40
7.5
 49
6.0
 74
     0
 49
-1.5
 74
     0
  0
LTYPE
  5
A4
330
5
100
AcDbSymbolTableRecord
100
AcDbLinetypeTableRecord
  2
SXF_跳び破線
 70
     0
  3
03 dashed_spaced --  --  --  --
 72
    65
 73
     2
 40
12.0
 49
6.0
 74
     0
 49
-6.0
 74
     0
  0
LTYPE
  5
A5
330
5
100
AcDbSymbolTableRecord
100
AcDbLinetypeTableRecord
  2
SXF_一点長鎖線
 70
     0
  3
04 long_dashed_dotted ---- . ---- . ----
 72
    65
 73
     4
 40
15.25
 49
12.0
 74
     0
 49
-1.5
 74
     0
 49
0.25
 74
     0
 49
-1.5
 74
     0
  0
LTYPE
  5
A6
330
5
100
AcDbSymbolTableRecord
100
AcDbLinetypeTableRecord
  2
SXF_二点長鎖線
 70
     0
  3
05 long_dashed_double-dotted ---- . . ---- 
 72
    65
 73
     6
 40
17.0
 49
12.0
 74
     0
 49
-1.5
 74
     0
 49
0.25
 74
     0
 49
-1.5
 74
     0
 49
0.25
 74
     0
 49
-1.5
 74
     0
  0
LTYPE
  5
A7
330
5
100
AcDbSymbolTableRecord
100
AcDbLinetypeTableRecord
  2
SXF_三点長鎖線
 70
     0
  3
06 long_dashed_triplicate-dotted ---- ... ---- 
 72
    65
 73
     8
 40
18.75
 49
12.0
 74
     0
 49
-1.5
 74
     0
 49
0.25
 74
     0
 49
-1.5
 74
     0
 49
0.25
 74
     0
 49
-1.5
 74
     0
 49
0.25
 74
     0
 49
-1.5
 74
     0
  0
LTYPE
  5
A8
330
5
100
AcDbSymbolTableRecord
100
AcDbLinetypeTableRecord
  2
SXF_点線
 70
     0
  3
07 dotted . . . . . . . . . . . . 
 72
    65
 73
     2
 40
1.75
 49
0.25
 74
     0
 49
-1.5
 74
     0
  0
LTYPE
  5
A9
330
5
100
AcDbSymbolTableRecord
100
AcDbLinetypeTableRecord
  2
SXF_一点鎖線
 70
     0
  3
08 chain ---- - --- - --- - ---
 72
    65
 73
     4
 40
18.5
 49
12.0
 74
     0
 49
-1.5
 74
     0
 49
3.5
 74
     0
 49
-1.5
 74
     0
  0
LTYPE
  5
AA
330
5
100
AcDbSymbolTableRecord
100
AcDbLinetypeTableRecord
  2
SXF_二点鎖線
 70
     0
  3
09 chain_double_dash ---- - - ---- - - ----
 72
    65
 73
     6
 40
23.5
 49
12.0
 74
     0
 49
-1.5
 74
     0
 49
3.5
 74
     0
 49
-1.5
 74
     0
 49
3.5
 74
     0
 49
-1.5
 74
     0
  0
LTYPE
  5
AB
330
5
100
AcDbSymbolTableRecord
100
AcDbLinetypeTableRecord
  2
SXF_一点短鎖線
 70
     0
  3
10 dashed_dotted -- . -- . -- . --
 72
    65
 73
     4
 40
9.25
 49
6.0
 74
     0
 49
-1.5
 74
     0
 49
0.25
 74
     0
 49
-1.5
 74
     0
  0
LTYPE
  5
AC
330
5
100
AcDbSymbolTableRecord
100
AcDbLinetypeTableRecord
  2
SXF_一点二短鎖線
 70
     0
  3
11 double-dashed_dotted -- -- . -- --
 72
    65
 73
     6
 40
16.75
 49
6.0
 74
     0
 49
-1.5
 74
     0
 49
6.0
 74
     0
 49
-1.5
 74
     0
 49
0.25
 74
     0
 49
-1.5
 74
     0
  0
LTYPE
  5
AD
330
5
100
AcDbSymbolTableRecord
100
AcDbLinetypeTableRecord
  2
SXF_二点短鎖線
 70
     0
  3
12 dashed_double_dotted -- . . -- . . --
 72
    65
 73
     6
 40
11.0
 49
6.0
 74
     0
 49
-1.5
 74
     0
 49
0.25
 74
     0
 49
-1.5
 74
     0
 49
0.25
 74
     0
 49
-1.5
 74
     0
  0
LTYPE
  5
AE
330
5
100
AcDbSymbolTableRecord
100
AcDbLinetypeTableRecord
  2
SXF_二点二短鎖線
 70
     0
  3
13 double-dashed_double-dotted -- -- . . -- --
 72
    65
 73
     8
 40
18.5
 49
6.0
 74
     0
 49
-1.5
 74
     0
 49
6.0
 74
     0
 49
-1.5
 74
     0
 49
0.25
 74
     0
 49
-1.5
 74
     0
 49
0.25
 74
     0
 49
-1.5
 74
     0
  0
LTYPE
  5
AF
330
5
100
AcDbSymbolTableRecord
100
AcDbLinetypeTableRecord
  2
SXF_三点短鎖線
 70
     0
  3
14 dashed triplicate-dotted -- . . . -- . . . --
 72
    65
 73
     8
 40
12.75
 49
6.0
 74
     0
 49
-1.5
 74
     0
 49
0.25
 74
     0
 49
-1.5
 74
     0
 49
0.25
 74
     0
 49
-1.5
 74
     0
 49
0.25
 74
     0
 49
-1.5
 74
     0
  0
LTYPE
  5
B0
330
5
100
AcDbSymbolTableRecord
100
AcDbLinetypeTableRecord
  2
SXF_三点二短鎖線
 70
     0
  3
15 double-dashed triplicate-dotted -- -- . . . -- -- 
 72
    65
 73
    10
 40
20.25
 49
6.0
 74
     0
 49
-1.5
 74
     0
 49
6.0
 74
     0
 49
-1.5
 74
     0
 49
0.25
 74
     0
 49
-1.5
 74
     0
 49
0.25
 74
     0
 49
-1.5
 74
     0
 49
0.25
 74
     0
 49
-1.5
 74
     0
  0
ENDTAB
  0
TABLE
  2
LAYER
  5
2
330
0
100
AcDbSymbolTable
 70
     4
  0
LAYER
  5
10
330
2
100
AcDbSymbolTableRecord
100
AcDbLayerTableRecord
  2
0
 70
     0
 62
     7
  6
CONTINUOUS
  0
LAYER
  5
B1
330
2
100
AcDbSymbolTableRecord
100
AcDbLayerTableRecord
  2
LAYER0016
 70
     0
 62
     7
  6
CONTINUOUS
  0
LAYER
  5
B2
330
2
100
AcDbSymbolTableRecord
100
AcDbLayerTableRecord
  2
LAYER0032
 70
     0
 62
     7
  6
CONTINUOUS
  0
LAYER
  5
B3
330
2
100
AcDbSymbolTableRecord
100
AcDbLayerTableRecord
  2
LAYER0064
 70
     0
 62
     7
  6
CONTINUOUS
  0
ENDTAB
  0
TABLE
  2
STYLE
  5
3
330
0
100
AcDbSymbolTable
 70
     2
  0
STYLE
  5
11
330
3
100
AcDbSymbolTableRecord
100
AcDbTextStyleTableRecord
  2
STANDARD
 70
     0
 40
0.0
 41
1.0
 50
0.0
 71
     0
 42
0.2
  3
txt.shx
  4
bigfont.shx
  0
STYLE
  5
576
330
3
100
AcDbSymbolTableRecord
100
AcDbTextStyleTableRecord
  2
DCSTYLE0
 70
     0
 40
0.0
 41
1.0
 50
0.0
 71
     0
 42
0.2
  3
ＭＳ ゴシック
  4

1001
ACAD
1000
ＭＳ ゴシック
1071
    32802
  0
ENDTAB
  0
TABLE
  2
VIEW
  5
6
330
0
100
AcDbSymbolTable
 70
     0
  0
ENDTAB
  0
TABLE
  2
UCS
  5
7
330
0
100
AcDbSymbolTable
 70
     0
  0
ENDTAB
  0
TABLE
  2
APPID
  5
9
330
0
100
AcDbSymbolTable
 70
     3
  0
APPID
  5
12
330
9
100
AcDbSymbolTableRecord
100
AcDbRegAppTableRecord
  2
ACAD
 70
     0
  0
APPID
  5
6E
330
9
100
AcDbSymbolTableRecord
100
AcDbRegAppTableRecord
  2
DAFUSIONOUT
 70
     0
  0
APPID
  5
649
330
9
100
AcDbSymbolTableRecord
100
AcDbRegAppTableRecord
  2
ACAD_MLEADERVER
 70
     0
  0
ENDTAB
  0
TABLE
  2
DIMSTYLE
  5
A
330
0
100
AcDbSymbolTable
 70
     1
  0
DIMSTYLE
105
27
330
A
100
AcDbSymbolTableRecord
100
AcDbDimStyleTableRecord
  2
STANDARD
 70
     0
  3

  4

  5

  6

  7

 40
1.0
 41
0.18
 42
0.0625
 43
0.38
 44
0.18
 45
0.0
 46
0.0
 47
0.0
 48
0.0
140
0.18
141
0.09
142
0.0
143
25.4
144
1.0
145
0.0
146
1.0
147
0.09
 71
     0
 72
     0
 73
     1
 74
     1
 75
     0
 76
     0
 77
     0
 78
     0
170
     0
171
     2
172
     0
173
     0
174
     0
175
     0
176
     0
177
     0
178
     0
270
     2
271
     4
272
     4
273
     2
274
     2
340
11
275
     0
280
     0
281
     0
282
     0
283
     1
284
     0
285
     0
286
     0
287
     3
288
     0
  0
ENDTAB
  0
TABLE
  2
BLOCK_RECORD
  5
1
330
0
100
AcDbSymbolTable
 70
    15
  0
BLOCK_RECORD
  5
1F
330
1
100
AcDbSymbolTableRecord
100
AcDbBlockTableRecord
  2
*MODEL_SPACE
  0
BLOCK_RECORD
  5
1B
330
1
100
AcDbSymbolTableRecord
100
AcDbBlockTableRecord
  2
*PAPER_SPACE
  0
BLOCK_RECORD
  5
B5
330
1
100
AcDbSymbolTableRecord
100
AcDbBlockTableRecord
  2
DC_GROUP_1
  0
BLOCK_RECORD
  5
B8
330
1
100
AcDbSymbolTableRecord
100
AcDbBlockTableRecord
  2
DC_GROUP_2
  0
BLOCK_RECORD
  5
BB
330
1
100
AcDbSymbolTableRecord
100
AcDbBlockTableRecord
  2
DC_GROUP_3
  0
BLOCK_RECORD
  5
BE
330
1
100
AcDbSymbolTableRecord
100
AcDbBlockTableRecord
  2
DC_GROUP_4
  0
BLOCK_RECORD
  5
C1
330
1
100
AcDbSymbolTableRecord
100
AcDbBlockTableRecord
  2
DC_GROUP_5
  0
BLOCK_RECORD
  5
C4
330
1
100
AcDbSymbolTableRecord
100
AcDbBlockTableRecord
  2
DC_GROUP_6
  0
BLOCK_RECORD
  5
C7
330
1
100
AcDbSymbolTableRecord
100
AcDbBlockTableRecord
  2
DC_GROUP_7
  0
BLOCK_RECORD
  5
CA
330
1
100
AcDbSymbolTableRecord
100
AcDbBlockTableRecord
  2
DC_GROUP_8
  0
BLOCK_RECORD
  5
CD
330
1
100
AcDbSymbolTableRecord
100
AcDbBlockTableRecord
  2
DC_GROUP_9
  0
BLOCK_RECORD
  5
D0
330
1
100
AcDbSymbolTableRecord
100
AcDbBlockTableRecord
  2
DC_GROUP_10
  0
BLOCK_RECORD
  5
D3
330
1
100
AcDbSymbolTableRecord
100
AcDbBlockTableRecord
  2
DC_GROUP_11
  0
BLOCK_RECORD
  5
D6
330
1
100
AcDbSymbolTableRecord
100
AcDbBlockTableRecord
  2
DC_GROUP_12
  0
BLOCK_RECORD
  5
D9
330
1
100
AcDbSymbolTableRecord
100
AcDbBlockTableRecord
  2
DC_GROUP_13
  0
BLOCK_RECORD
  5
DC
330
1
100
AcDbSymbolTableRecord
100
AcDbBlockTableRecord
  2
DC_GROUP_14
  0
BLOCK_RECORD
  5
DF
330
1
100
AcDbSymbolTableRecord
100
AcDbBlockTableRecord
  2
DC_GROUP_15
  0
ENDTAB
  0
ENDSEC
  0
SECTION
  2
BLOCKS
  0
BLOCK
  5
20
330
1F
100
AcDbEntity
  8
0
100
AcDbBlockBegin
  2
*MODEL_SPACE
 70
     0
 10
0.0
 20
0.0
 30
0.0
  3
*MODEL_SPACE
  1

  0
ENDBLK
  5
21
330
1F
100
AcDbEntity
  8
0
100
AcDbBlockEnd
  0
BLOCK
  5
1C
330
1B
100
AcDbEntity
 67
     1
  8
0
100
AcDbBlockBegin
  2
*PAPER_SPACE
 70
     0
 10
0.0
 20
0.0
 30
0.0
  3
*PAPER_SPACE
  1

  0
ENDBLK
  5
1D
330
1B
100
AcDbEntity
 67
     1
  8
0
100
AcDbBlockEnd
  0
BLOCK
  5
B6
330
B5
100
AcDbEntity
  8
0
100
AcDbBlockBegin
  2
DC_GROUP_1
 70
     0
 10
0.0
 20
0.0
 30
0.0
  3
DC_GROUP_1
  1

  0
LINE
  5
E2
330
B5
100
AcDbEntity
  8
LAYER0032
  6
DASHED2
 62
     4
100
AcDbLine
 10
253.9639511619051
 20
266.2154299193992
 30
0.0
 11
253.9639511619051
 21
362.2154299193993
 31
0.0
  0
LINE
  5
E3
330
B5
100
AcDbEntity
  8
LAYER0032
  6
DASHED2
 62
     4
100
AcDbLine
 10
263.9639511619051
 20
350.7154299193991
 30
0.0
 11
253.9639511619051
 21
350.7154299193991
 31
0.0
  0
LINE
  5
E4
330
B5
100
AcDbEntity
  8
LAYER0032
  6
DASHED2
 62
     4
100
AcDbLine
 10
263.9639511619051
 20
332.715429919399
 30
0.0
 11
253.9639511619051
 21
332.7154299193991
 31
0.0
  0
LINE
  5
E5
330
B5
100
AcDbEntity
  8
LAYER0032
  6
DASHED2
 62
     4
100
AcDbLine
 10
263.9639511619051
 20
352.7154299193991
 30
0.0
 11
253.9639511619051
 21
352.7154299193991
 31
0.0
  0
LINE
  5
E6
330
B5
100
AcDbEntity
  8
LAYER0032
  6
DASHED2
 62
     4
100
AcDbLine
 10
263.9639511619051
 20
330.7154299193988
 30
0.0
 11
253.9639511619051
 21
330.7154299193991
 31
0.0
  0
LINE
  5
E7
330
B5
100
AcDbEntity
  8
LAYER0032
  6
DASHED2
 62
     4
100
AcDbLine
 10
263.9639511619051
 20
295.7154299193991
 30
0.0
 11
253.9639511619051
 21
295.7154299193992
 31
0.0
  0
LINE
  5
E8
330
B5
100
AcDbEntity
  8
LAYER0032
  6
DASHED2
 62
     4
100
AcDbLine
 10
263.9639511619051
 20
277.715429919399
 30
0.0
 11
253.9639511619051
 21
277.7154299193992
 31
0.0
  0
LINE
  5
E9
330
B5
100
AcDbEntity
  8
LAYER0032
  6
DASHED2
 62
     4
100
AcDbLine
 10
263.9639511619051
 20
297.7154299193992
 30
0.0
 11
253.9639511619051
 21
297.7154299193992
 31
0.0
  0
LINE
  5
EA
330
B5
100
AcDbEntity
  8
LAYER0032
  6
DASHED2
 62
     4
100
AcDbLine
 10
263.9639511619051
 20
275.715429919399
 30
0.0
 11
253.9639511619051
 21
275.7154299193992
 31
0.0
  0
LINE
  5
EB
330
B5
100
AcDbEntity
  8
LAYER0016
  6
CONTINUOUS
 62
     3
100
AcDbLine
 10
258.9639511619052
 20
258.2154299193992
 30
0.0
 11
258.9639511619052
 21
370.2154299193992
 31
0.0
  0
LINE
  5
EC
330
B5
100
AcDbEntity
  8
LAYER0016
  6
CONTINUOUS
 62
     3
100
AcDbLine
 10
172.9639511619051
 20
258.2154299193992
 30
0.0
 11
172.9639511619051
 21
370.2154299193992
 31
0.0
  0
LINE
  5
ED
330
B5
100
AcDbEntity
  8
LAYER0016
  6
CONTINUOUS
 62
     3
100
AcDbLine
 10
254.9639511619051
 20
374.2154299193992
 30
0.0
 11
176.9639511619051
 21
374.2154299193992
 31
0.0
  0
ARC
  5
EE
330
B5
100
AcDbEntity
  8
LAYER0016
  6
CONTINUOUS
 62
     3
100
AcDbCircle
 10
176.9639511619051
 20
370.2154299193992
 30
0.0
 40
4.0
100
AcDbArc
 50
89.99999999999999
 51
180.0
  0
ARC
  5
EF
330
B5
100
AcDbEntity
  8
LAYER0016
  6
CONTINUOUS
 62
     3
100
AcDbCircle
 10
254.9639511619051
 20
370.2154299193992
 30
0.0
 40
4.0
100
AcDbArc
 50
0.0000000000000459
 51
90.00000000000004
  0
ARC
  5
F0
330
B5
100
AcDbEntity
  8
LAYER0016
  6
CONTINUOUS
 62
     3
100
AcDbCircle
 10
254.9639511619051
 20
258.2154299193992
 30
0.0
 40
4.0
100
AcDbArc
 50
269.9999999999999
 51
359.9999999999999
  0
ARC
  5
F1
330
B5
100
AcDbEntity
  8
LAYER0016
  6
CONTINUOUS
 62
     3
100
AcDbCircle
 10
176.9639511619051
 20
258.2154299193992
 30
0.0
 40
4.0
100
AcDbArc
 50
180.0
 51
270.0000000000001
  0
LINE
  5
F2
330
B5
100
AcDbEntity
  8
LAYER0016
  6
CONTINUOUS
 62
     3
100
AcDbLine
 10
263.9639511619051
 20
355.7154299193991
 30
0.0
 11
263.9639511619051
 21
327.7154299193991
 31
0.0
  0
LINE
  5
F3
330
B5
100
AcDbEntity
  8
LAYER0016
  6
CONTINUOUS
 62
     3
100
AcDbLine
 10
260.9639511619052
 20
357.7154299193991
 30
0.0
 11
261.9639511619051
 21
357.7154299193991
 31
0.0
  0
LINE
  5
F4
330
B5
100
AcDbEntity
  8
LAYER0016
  6
CONTINUOUS
 62
     3
100
AcDbLine
 10
261.9639511619051
 20
325.7154299193991
 30
0.0
 11
260.9639511619052
 21
325.7154299193991
 31
0.0
  0
LINE
  5
F5
330
B5
100
AcDbEntity
  8
LAYER0016
  6
CONTINUOUS
 62
     3
100
AcDbLine
 10
263.9639511619051
 20
300.7154299193991
 30
0.0
 11
263.9639511619051
 21
272.7154299193991
 31
0.0
  0
LINE
  5
F6
330
B5
100
AcDbEntity
  8
LAYER0016
  6
CONTINUOUS
 62
     3
100
AcDbLine
 10
260.9639511619052
 20
302.7154299193991
 30
0.0
 11
261.9639511619051
 21
302.7154299193991
 31
0.0
  0
LINE
  5
F7
330
B5
100
AcDbEntity
  8
LAYER0016
  6
CONTINUOUS
 62
     3
100
AcDbLine
 10
261.9639511619051
 20
270.7154299193991
 30
0.0
 11
260.9639511619052
 21
270.7154299193991
 31
0.0
  0
LINE
  5
F8
330
B5
100
AcDbEntity
  8
LAYER0016
  6
CONTINUOUS
 62
     3
100
AcDbLine
 10
184.942474572694
 20
349.6913101074603
 30
0.0
 11
184.942474572694
 21
278.739549731338
 31
0.0
  0
LINE
  5
F9
330
B5
100
AcDbEntity
  8
LAYER0016
  6
CONTINUOUS
 62
     3
100
AcDbLine
 10
246.985427751116
 20
349.6913101074603
 30
0.0
 11
246.985427751116
 21
278.739549731338
 31
0.0
  0
LINE
  5
FA
330
B5
100
AcDbEntity
  8
LAYER0016
  6
CONTINUOUS
 62
     3
100
AcDbLine
 10
243.1487928112213
 20
352.5780614534085
 30
0.0
 11
188.7791095125888
 21
352.5780614534085
 31
0.0
  0
LINE
  5
FB
330
B5
100
AcDbEntity
  8
LAYER0016
  6
CONTINUOUS
 62
     3
100
AcDbLine
 10
243.1487928112213
 20
275.85279838539
 30
0.0
 11
188.7791095125888
 21
275.85279838539
 31
0.0
  0
LINE
  5
FC
330
B5
100
AcDbEntity
  8
LAYER0016
  6
CONTINUOUS
 62
     3
100
AcDbLine
 10
244.9716719103976
 20
370.8427184184927
 30
0.0
 11
186.9562304134126
 21
370.8427184184927
 31
0.0
  0
LINE
  5
FD
330
B5
100
AcDbEntity
  8
LAYER0016
  6
CONTINUOUS
 62
     3
100
AcDbLine
 10
176.4658177752617
 20
360.22943359721
 30
0.0
 11
176.4658177752617
 21
268.2014262415884
 31
0.0
  0
LINE
  5
FE
330
B5
100
AcDbEntity
  8
LAYER0016
  6
CONTINUOUS
 62
     3
100
AcDbLine
 10
255.4620845485484
 20
360.22943359721
 30
0.0
 11
255.4620845485484
 21
268.2014262415884
 31
0.0
  0
ARC
  5
FF
330
B5
100
AcDbEntity
  8
LAYER0016
  6
CONTINUOUS
 62
     3
100
AcDbCircle
 10
260.9639511619052
 20
359.7154299193991
 30
0.0
 40
2.0
100
AcDbArc
 50
180.0
 51
270.0
  0
ARC
  5
100
330
B5
100
AcDbEntity
  8
LAYER0016
  6
CONTINUOUS
 62
     3
100
AcDbCircle
 10
260.9639511619052
 20
323.7154299193991
 30
0.0
 40
2.0
100
AcDbArc
 50
90.0
 51
180.0
  0
ARC
  5
101
330
B5
100
AcDbEntity
  8
LAYER0016
  6
CONTINUOUS
 62
     3
100
AcDbCircle
 10
260.9639511619052
 20
304.7154299193991
 30
0.0
 40
2.0
100
AcDbArc
 50
180.0
 51
270.0
  0
ARC
  5
102
330
B5
100
AcDbEntity
  8
LAYER0016
  6
CONTINUOUS
 62
     3
100
AcDbCircle
 10
260.9639511619052
 20
268.7154299193991
 30
0.0
 40
2.0
100
AcDbArc
 50
90.0
 51
180.0
  0
ARC
  5
103
330
B5
100
AcDbEntity
  8
LAYER0016
  6
CONTINUOUS
 62
     3
100
AcDbCircle
 10
261.9639511619051
 20
355.7154299193991
 30
0.0
 40
2.0
100
AcDbArc
 50
0.0
 51
90.0
  0
ARC
  5
104
330
B5
100
AcDbEntity
  8
LAYER0016
  6
CONTINUOUS
 62
     3
100
AcDbCircle
 10
261.9639511619051
 20
327.7154299193991
 30
0.0
 40
2.0
100
AcDbArc
 50
270.0
 51
0.0
  0
ARC
  5
105
330
B5
100
AcDbEntity
  8
LAYER0016
  6
CONTINUOUS
 62
     3
100
AcDbCircle
 10
261.9639511619051
 20
300.7154299193991
 30
0.0
 40
2.0
100
AcDbArc
 50
0.0
 51
90.0
  0
ARC
  5
106
330
B5
100
AcDbEntity
  8
LAYER0016
  6
CONTINUOUS
 62
     3
100
AcDbCircle
 10
261.9639511619051
 20
272.7154299193991
 30
0.0
 40
2.0
100
AcDbArc
 50
270.0
 51
0.0
  0
ARC
  5
107
330
B5
100
AcDbEntity
  8
LAYER0016
  6
CONTINUOUS
 62
     3
100
AcDbCircle
 10
177.9639511619051
 20
259.2154299193992
 30
0.0
 40
7.0
100
AcDbArc
 50
2.373433839545746
 51
86.80335978383614
  0
ARC
  5
108
330
B5
100
AcDbEntity
  8
LAYER0016
  6
CONTINUOUS
 62
     3
100
AcDbCircle
 10
253.9639511619051
 20
259.2154299193992
 30
0.0
 40
7.0
100
AcDbArc
 50
93.19664021616524
 51
177.6265661604542
  0
ARC
  5
109
330
B5
100
AcDbEntity
  8
LAYER0016
  6
CONTINUOUS
 62
     3
100
AcDbCircle
 10
177.9639511619051
 20
369.2154299193992
 30
0.0
 40
7.0
100
AcDbArc
 50
273.1966402161633
 51
357.6265661604541
  0
ARC
  5
10A
330
B5
100
AcDbEntity
  8
LAYER0016
  6
CONTINUOUS
 62
     3
100
AcDbCircle
 10
253.9639511619051
 20
369.2154299193992
 30
0.0
 40
7.0
100
AcDbArc
 50
182.3734338395461
 51
266.8033597838346
  0
ARC
  5
10B
330
B5
100
AcDbEntity
  8
LAYER0016
  6
CONTINUOUS
 62
     3
100
AcDbCircle
 10
253.4620845485484
 20
360.22943359721
 30
0.0
 40
2.0
100
AcDbArc
 50
0.0
 51
86.80335978383572
  0
ARC
  5
10C
330
B5
100
AcDbEntity
  8
LAYER0016
  6
CONTINUOUS
 62
     3
100
AcDbCircle
 10
244.9716719103976
 20
368.8427184184927
 30
0.0
 40
2.0
100
AcDbArc
 50
2.373433839546104
 51
90.0
  0
ARC
  5
10D
330
B5
100
AcDbEntity
  8
LAYER0016
  6
CONTINUOUS
 62
     3
100
AcDbCircle
 10
186.9562304134126
 20
368.8427184184927
 30
0.0
 40
2.0
100
AcDbArc
 50
90.0
 51
177.6265661604523
  0
ARC
  5
10E
330
B5
100
AcDbEntity
  8
LAYER0016
  6
CONTINUOUS
 62
     3
100
AcDbCircle
 10
178.4658177752617
 20
360.22943359721
 30
0.0
 40
2.0
100
AcDbArc
 50
93.19664021616636
 51
180.0
  0
ARC
  5
10F
330
B5
100
AcDbEntity
  8
LAYER0016
  6
CONTINUOUS
 62
     3
100
AcDbCircle
 10
253.4620845485484
 20
268.2014262415884
 30
0.0
 40
2.0
100
AcDbArc
 50
273.1966402161649
 51
0.0
  0
ARC
  5
110
330
B5
100
AcDbEntity
  8
LAYER0016
  6
CONTINUOUS
 62
     3
100
AcDbCircle
 10
244.9716719103976
 20
259.5881414203056
 30
0.0
 40
2.0
100
AcDbArc
 50
270.0
 51
357.6265661604541
  0
ARC
  5
111
330
B5
100
AcDbEntity
  8
LAYER0016
  6
CONTINUOUS
 62
     3
100
AcDbCircle
 10
186.9562304134126
 20
259.5881414203056
 30
0.0
 40
2.0
100
AcDbArc
 50
182.3734338395459
 51
270.0
  0
ARC
  5
112
330
B5
100
AcDbEntity
  8
LAYER0016
  6
CONTINUOUS
 62
     3
100
AcDbCircle
 10
178.4658177752617
 20
268.2014262415884
 30
0.0
 40
2.0
100
AcDbArc
 50
180.0
 51
266.8033597838354
  0
LINE
  5
113
330
B5
100
AcDbEntity
  8
LAYER0016
  6
CONTINUOUS
 62
     3
100
AcDbLine
 10
220.9639511619051
 20
252.2154299193993
 30
0.0
 11
220.9639511619051
 21
240.2154299193993
 31
0.0
  0
LINE
  5
114
330
B5
100
AcDbEntity
  8
LAYER0016
  6
CONTINUOUS
 62
     3
100
AcDbLine
 10
210.9639511619051
 20
252.2154299193993
 30
0.0
 11
210.9639511619051
 21
240.2154299193993
 31
0.0
  0
LINE
  5
115
330
B5
100
AcDbEntity
  8
LAYER0016
  6
CONTINUOUS
 62
     3
100
AcDbLine
 10
222.9639511619051
 20
252.2154299193993
 30
0.0
 11
222.9639511619051
 21
240.2154299193993
 31
0.0
  0
LINE
  5
116
330
B5
100
AcDbEntity
  8
LAYER0016
  6
CONTINUOUS
 62
     3
100
AcDbLine
 10
208.9639511619051
 20
252.2154299193993
 30
0.0
 11
208.9639511619051
 21
240.2154299193993
 31
0.0
  0
LINE
  5
117
330
B5
100
AcDbEntity
  8
LAYER0016
  6
CONTINUOUS
 62
     3
100
AcDbLine
 10
228.9639511619051
 20
262.0522430354434
 30
0.0
 11
228.9639511619051
 21
240.2154299193993
 31
0.0
  0
LINE
  5
118
330
B5
100
AcDbEntity
  8
LAYER0016
  6
CONTINUOUS
 62
     3
100
AcDbLine
 10
202.9639511619051
 20
262.0522430354434
 30
0.0
 11
202.9639511619051
 21
240.2154299193993
 31
0.0
  0
LINE
  5
119
330
B5
100
AcDbEntity
  8
LAYER0016
  6
CONTINUOUS
 62
     3
100
AcDbLine
 10
222.9639511619051
 20
252.2154299193993
 30
0.0
 11
208.9639511619051
 21
252.2154299193993
 31
0.0
  0
LINE
  5
11A
330
B5
100
AcDbEntity
  8
LAYER0016
  6
CONTINUOUS
 62
     3
100
AcDbLine
 10
228.9639511619051
 20
240.2154299193993
 30
0.0
 11
222.9639511619051
 21
240.2154299193993
 31
0.0
  0
LINE
  5
11B
330
B5
100
AcDbEntity
  8
LAYER0016
  6
CONTINUOUS
 62
     3
100
AcDbLine
 10
220.9639511619051
 20
240.2154299193993
 30
0.0
 11
210.9639511619051
 21
240.2154299193993
 31
0.0
  0
LINE
  5
11C
330
B5
100
AcDbEntity
  8
LAYER0016
  6
CONTINUOUS
 62
     3
100
AcDbLine
 10
208.9639511619051
 20
240.2154299193993
 30
0.0
 11
202.9639511619051
 21
240.2154299193993
 31
0.0
  0
LINE
  5
11D
330
B5
100
AcDbEntity
  8
LAYER0016
  6
CONTINUOUS
 62
     3
100
AcDbLine
 10
228.9639511619051
 20
262.0522430354434
 30
0.0
 11
202.9639511619051
 21
262.0522430354434
 31
0.0
  0
LINE
  5
11E
330
B5
100
AcDbEntity
  8
LAYER0016
  6
CONTINUOUS
 62
     3
100
AcDbLine
 10
244.9716719103976
 20
257.5881414203056
 30
0.0
 11
228.9639511619051
 21
257.5881414203056
 31
0.0
  0
LINE
  5
11F
330
B5
100
AcDbEntity
  8
LAYER0016
  6
CONTINUOUS
 62
     3
100
AcDbLine
 10
202.9639511619051
 20
257.5881414203056
 30
0.0
 11
186.9562304134126
 21
257.5881414203056
 31
0.0
  0
LINE
  5
120
330
B5
100
AcDbEntity
  8
LAYER0016
  6
CONTINUOUS
 62
     3
100
AcDbLine
 10
254.9639511619051
 20
254.2154299193993
 30
0.0
 11
228.9639511619051
 21
254.2154299193993
 31
0.0
  0
LINE
  5
121
330
B5
100
AcDbEntity
  8
LAYER0016
  6
CONTINUOUS
 62
     3
100
AcDbLine
 10
202.9639511619051
 20
254.2154299193993
 30
0.0
 11
176.9639511619051
 21
254.2154299193993
 31
0.0
  0
LINE
  5
122
330
B5
100
AcDbEntity
  8
LAYER0016
  6
CENTER
 62
     4
100
AcDbLine
 10
251.1215220460223
 20
341.7154299193991
 30
0.0
 11
266.9757244473945
 21
341.7154299193991
 31
0.0
  0
LINE
  5
123
330
B5
100
AcDbEntity
  8
LAYER0016
  6
CENTER
 62
     4
100
AcDbLine
 10
251.1215220460223
 20
286.7154299193991
 30
0.0
 11
266.9757244473945
 21
286.7154299193991
 31
0.0
  0
LINE
  5
124
330
B5
100
AcDbEntity
  8
LAYER0016
  6
CENTER
 62
     4
100
AcDbLine
 10
235.8458976541824
 20
246.2154299193993
 30
0.0
 11
201.0982293799868
 21
246.2154299193993
 31
0.0
  0
LINE
  5
125
330
B5
100
AcDbEntity
  8
LAYER0016
  6
CENTER
 62
     4
100
AcDbLine
 10
215.9639511619051
 20
378.9117085116264
 30
0.0
 11
215.9639511619051
 21
238.4121545419565
 31
0.0
  0
LINE
  5
126
330
B5
100
AcDbEntity
  8
LAYER0016
  6
CENTER
 62
     4
100
AcDbLine
 10
265.0794980323001
 20
314.2154299193992
 30
0.0
 11
156.1232544344198
 21
314.2154299193992
 31
0.0
  0
LINE
  5
127
330
B5
100
AcDbEntity
  8
LAYER0016
  6
DASHED2
 62
     4
100
AcDbLine
 10
222.9639511619051
 20
248.4654299193993
 30
0.0
 11
228.9639511619051
 21
248.4654299193993
 31
0.0
  0
LINE
  5
128
330
B5
100
AcDbEntity
  8
LAYER0016
  6
DASHED2
 62
     4
100
AcDbLine
 10
222.9639511619051
 20
243.9654299193993
 30
0.0
 11
228.9639511619051
 21
243.9654299193993
 31
0.0
  0
LINE
  5
129
330
B5
100
AcDbEntity
  8
LAYER0016
  6
DASHED2
 62
     4
100
AcDbLine
 10
210.9639511619051
 20
243.2154299193993
 30
0.0
 11
220.9639511619051
 21
243.2154299193993
 31
0.0
  0
LINE
  5
12A
330
B5
100
AcDbEntity
  8
LAYER0016
  6
DASHED2
 62
     4
100
AcDbLine
 10
210.9639511619051
 20
249.2154299193993
 30
0.0
 11
220.9639511619051
 21
249.2154299193993
 31
0.0
  0
LINE
  5
12B
330
B5
100
AcDbEntity
  8
LAYER0064
  6
CONTINUOUS
 62
     3
100
AcDbLine
 10
228.9639511619051
 20
249.7154299193993
 30
0.0
 11
228.9639511619051
 21
242.7154299193993
 31
0.0
  0
POINT
  5
12C
330
B5
100
AcDbEntity
  8
LAYER0016
  6
CONTINUOUS
 62
     7
100
AcDbPoint
 10
215.9639511619051
 20
254.2154299193993
 30
0.0
  0
INSERT
  5
12D
330
B5
100
AcDbEntity
  8
LAYER0016
  6
CONTINUOUS
100
AcDbBlockReference
  2
DC_GROUP_2
 10
0.0
 20
0.0
 30
0.0
  0
INSERT
  5
12E
330
B5
100
AcDbEntity
  8
LAYER0016
  6
CONTINUOUS
100
AcDbBlockReference
  2
DC_GROUP_3
 10
0.0
 20
0.0
 30
0.0
  0
INSERT
  5
12F
330
B5
100
AcDbEntity
  8
LAYER0016
  6
CONTINUOUS
100
AcDbBlockReference
  2
DC_GROUP_4
 10
0.0
 20
0.0
 30
0.0
  0
INSERT
  5
130
330
B5
100
AcDbEntity
  8
LAYER0016
  6
CONTINUOUS
100
AcDbBlockReference
  2
DC_GROUP_5
 10
0.0
 20
0.0
 30
0.0
  0
INSERT
  5
131
330
B5
100
AcDbEntity
  8
LAYER0016
  6
CONTINUOUS
100
AcDbBlockReference
  2
DC_GROUP_6
 10
0.0
 20
0.0
 30
0.0
  0
ENDBLK
  5
B7
330
B5
100
AcDbEntity
  8
0
100
AcDbBlockEnd
  0
BLOCK
  5
B9
330
B8
100
AcDbEntity
  8
0
100
AcDbBlockBegin
  2
DC_GROUP_2
 70
     0
 10
0.0
 20
0.0
 30
0.0
  3
DC_GROUP_2
  1

  0
CIRCLE
  5
132
330
B8
100
AcDbEntity
  8
LAYER0016
  6
CONTINUOUS
 62
     3
100
AcDbCircle
 10
177.9639511619051
 20
369.2154299193992
 30
0.0
 40
3.8
  0
CIRCLE
  5
133
330
B8
100
AcDbEntity
  8
LAYER0016
  6
CONTINUOUS
 62
     3
100
AcDbCircle
 10
177.9639511619051
 20
369.2154299193992
 30
0.0
 40
3.5
  0
LINE
  5
134
330
B8
100
AcDbEntity
  8
LAYER0016
  6
CONTINUOUS
 62
     3
100
AcDbLine
 10
179.4488754023969
 20
370.7003541598909
 30
0.0
 11
176.4790269214134
 21
367.7305056789074
 31
0.0
  0
LINE
  5
135
330
B8
100
AcDbEntity
  8
LAYER0016
  6
CONTINUOUS
 62
     3
100
AcDbLine
 10
176.4790269214134
 20
370.7003541598909
 30
0.0
 11
179.4488754023969
 21
367.7305056789074
 31
0.0
  0
ENDBLK
  5
BA
330
B8
100
AcDbEntity
  8
0
100
AcDbBlockEnd
  0
BLOCK
  5
BC
330
BB
100
AcDbEntity
  8
0
100
AcDbBlockBegin
  2
DC_GROUP_3
 70
     0
 10
0.0
 20
0.0
 30
0.0
  3
DC_GROUP_3
  1

  0
CIRCLE
  5
136
330
BB
100
AcDbEntity
  8
LAYER0016
  6
CONTINUOUS
 62
     3
100
AcDbCircle
 10
253.9639511619051
 20
369.2154299193992
 30
0.0
 40
3.8
  0
CIRCLE
  5
137
330
BB
100
AcDbEntity
  8
LAYER0016
  6
CONTINUOUS
 62
     3
100
AcDbCircle
 10
253.9639511619051
 20
369.2154299193992
 30
0.0
 40
3.5
  0
LINE
  5
138
330
BB
100
AcDbEntity
  8
LAYER0016
  6
CONTINUOUS
 62
     3
100
AcDbLine
 10
255.4488754023969
 20
370.7003541598909
 30
0.0
 11
252.4790269214134
 21
367.7305056789074
 31
0.0
  0
LINE
  5
139
330
BB
100
AcDbEntity
  8
LAYER0016
  6
CONTINUOUS
 62
     3
100
AcDbLine
 10
252.4790269214134
 20
370.7003541598909
 30
0.0
 11
255.4488754023969
 21
367.7305056789074
 31
0.0
  0
ENDBLK
  5
BD
330
BB
100
AcDbEntity
  8
0
100
AcDbBlockEnd
  0
BLOCK
  5
BF
330
BE
100
AcDbEntity
  8
0
100
AcDbBlockBegin
  2
DC_GROUP_4
 70
     0
 10
0.0
 20
0.0
 30
0.0
  3
DC_GROUP_4
  1

  0
CIRCLE
  5
13A
330
BE
100
AcDbEntity
  8
LAYER0016
  6
CONTINUOUS
 62
     3
100
AcDbCircle
 10
253.9639511619051
 20
259.2154299193992
 30
0.0
 40
3.8
  0
CIRCLE
  5
13B
330
BE
100
AcDbEntity
  8
LAYER0016
  6
CONTINUOUS
 62
     3
100
AcDbCircle
 10
253.9639511619051
 20
259.2154299193992
 30
0.0
 40
3.5
  0
LINE
  5
13C
330
BE
100
AcDbEntity
  8
LAYER0016
  6
CONTINUOUS
 62
     3
100
AcDbLine
 10
255.4488754023969
 20
260.7003541598909
 30
0.0
 11
252.4790269214134
 21
257.7305056789074
 31
0.0
  0
LINE
  5
13D
330
BE
100
AcDbEntity
  8
LAYER0016
  6
CONTINUOUS
 62
     3
100
AcDbLine
 10
252.4790269214134
 20
260.7003541598909
 30
0.0
 11
255.4488754023969
 21
257.7305056789074
 31
0.0
  0
ENDBLK
  5
C0
330
BE
100
AcDbEntity
  8
0
100
AcDbBlockEnd
  0
BLOCK
  5
C2
330
C1
100
AcDbEntity
  8
0
100
AcDbBlockBegin
  2
DC_GROUP_5
 70
     0
 10
0.0
 20
0.0
 30
0.0
  3
DC_GROUP_5
  1

  0
CIRCLE
  5
13E
330
C1
100
AcDbEntity
  8
LAYER0016
  6
CONTINUOUS
 62
     3
100
AcDbCircle
 10
177.9639511619051
 20
259.2154299193992
 30
0.0
 40
3.8
  0
CIRCLE
  5
13F
330
C1
100
AcDbEntity
  8
LAYER0016
  6
CONTINUOUS
 62
     3
100
AcDbCircle
 10
177.9639511619051
 20
259.2154299193992
 30
0.0
 40
3.5
  0
LINE
  5
140
330
C1
100
AcDbEntity
  8
LAYER0016
  6
CONTINUOUS
 62
     3
100
AcDbLine
 10
179.4488754023969
 20
260.7003541598909
 30
0.0
 11
176.4790269214134
 21
257.7305056789074
 31
0.0
  0
LINE
  5
141
330
C1
100
AcDbEntity
  8
LAYER0016
  6
CONTINUOUS
 62
     3
100
AcDbLine
 10
176.4790269214134
 20
260.7003541598909
 30
0.0
 11
179.4488754023969
 21
257.7305056789074
 31
0.0
  0
ENDBLK
  5
C3
330
C1
100
AcDbEntity
  8
0
100
AcDbBlockEnd
  0
BLOCK
  5
C5
330
C4
100
AcDbEntity
  8
0
100
AcDbBlockBegin
  2
DC_GROUP_6
 70
     0
 10
0.0
 20
0.0
 30
0.0
  3
DC_GROUP_6
  1

  0
LINE
  5
142
330
C4
100
AcDbEntity
  8
LAYER0016
  6
CONTINUOUS
 62
     3
100
AcDbLine
 10
229.9639511619051
 20
242.7154299193993
 30
0.0
 11
233.5639511619051
 21
242.7154299193993
 31
0.0
  0
LINE
  5
143
330
C4
100
AcDbEntity
  8
LAYER0016
  6
CONTINUOUS
 62
     3
100
AcDbLine
 10
233.5639511619051
 20
242.7154299193993
 30
0.0
 11
233.9639511619051
 21
243.4082502424269
 31
0.0
  0
LINE
  5
144
330
C4
100
AcDbEntity
  8
LAYER0016
  6
CONTINUOUS
 62
     3
100
AcDbLine
 10
233.5639511619051
 20
242.7154299193993
 30
0.0
 11
233.5639511619051
 21
249.7154299193993
 31
0.0
  0
LINE
  5
145
330
C4
100
AcDbEntity
  8
LAYER0016
  6
CONTINUOUS
 62
     3
100
AcDbLine
 10
229.9639511619051
 20
249.7154299193993
 30
0.0
 11
233.5639511619051
 21
249.7154299193993
 31
0.0
  0
LINE
  5
146
330
C4
100
AcDbEntity
  8
LAYER0016
  6
CONTINUOUS
 62
     3
100
AcDbLine
 10
233.5639511619051
 20
249.7154299193993
 30
0.0
 11
233.9639511619051
 21
249.0226095963717
 31
0.0
  0
LINE
  5
147
330
C4
100
AcDbEntity
  8
LAYER0016
  6
CONTINUOUS
 62
     3
100
AcDbLine
 10
233.9639511619051
 20
243.4082502424269
 30
0.0
 11
233.9639511619051
 21
249.0226095963717
 31
0.0
  0
LINE
  5
148
330
C4
100
AcDbEntity
  8
LAYER0016
  6
CONTINUOUS
 62
     3
100
AcDbLine
 10
229.9639511619051
 20
250.0154299193993
 30
0.0
 11
228.9639511619051
 21
250.0154299193993
 31
0.0
  0
LINE
  5
149
330
C4
100
AcDbEntity
  8
LAYER0016
  6
CONTINUOUS
 62
     3
100
AcDbLine
 10
228.9639511619051
 20
242.4154299193993
 30
0.0
 11
228.9639511619051
 21
250.0154299193993
 31
0.0
  0
LINE
  5
14A
330
C4
100
AcDbEntity
  8
LAYER0016
  6
CONTINUOUS
 62
     3
100
AcDbLine
 10
228.9639511619051
 20
242.4154299193993
 30
0.0
 11
229.9639511619051
 21
242.4154299193993
 31
0.0
  0
LINE
  5
14B
330
C4
100
AcDbEntity
  8
LAYER0016
  6
CONTINUOUS
 62
     3
100
AcDbLine
 10
229.9639511619051
 20
242.4154299193993
 30
0.0
 11
229.9639511619051
 21
250.0154299193993
 31
0.0
  0
LINE
  5
14C
330
C4
100
AcDbEntity
  8
LAYER0016
  6
CONTINUOUS
 62
     3
100
AcDbLine
 10
229.9639511619051
 20
246.2154299193993
 30
0.0
 11
228.9639511619051
 21
245.9474807269681
 31
0.0
  0
LINE
  5
14D
330
C4
100
AcDbEntity
  8
LAYER0016
  6
CONTINUOUS
 62
     3
100
AcDbLine
 10
229.9639511619051
 20
246.4833791118305
 30
0.0
 11
228.9639511619051
 21
246.2154299193993
 31
0.0
  0
LINE
  5
14E
330
C4
100
AcDbEntity
  8
LAYER0016
  6
CONTINUOUS
 62
     3
100
AcDbLine
 10
222.9639511619051
 20
248.2154299193993
 30
0.0
 11
220.9639511619051
 21
248.2154299193993
 31
0.0
  0
LINE
  5
14F
330
C4
100
AcDbEntity
  8
LAYER0016
  6
CONTINUOUS
 62
     3
100
AcDbLine
 10
210.9639511619051
 20
248.2154299193993
 30
0.0
 11
208.9639511619051
 21
248.2154299193993
 31
0.0
  0
LINE
  5
150
330
C4
100
AcDbEntity
  8
LAYER0016
  6
CONTINUOUS
 62
     3
100
AcDbLine
 10
222.9639511619051
 20
244.2154299193993
 30
0.0
 11
220.9639511619051
 21
244.2154299193993
 31
0.0
  0
LINE
  5
151
330
C4
100
AcDbEntity
  8
LAYER0016
  6
CONTINUOUS
 62
     3
100
AcDbLine
 10
210.9639511619051
 20
244.2154299193993
 30
0.0
 11
208.9639511619051
 21
244.2154299193993
 31
0.0
  0
ENDBLK
  5
C6
330
C4
100
AcDbEntity
  8
0
100
AcDbBlockEnd
  0
BLOCK
  5
C8
330
C7
100
AcDbEntity
  8
0
100
AcDbBlockBegin
  2
DC_GROUP_7
 70
     0
 10
0.0
 20
0.0
 30
0.0
  3
DC_GROUP_7
  1

  0
LINE
  5
152
330
C7
100
AcDbEntity
  8
LAYER0032
  6
DASHED2
 62
     4
100
AcDbLine
 10
253.8017397262457
 20
-60.64526728596226
 30
0.0
 11
252.825149093828
 21
-88.61116398959982
 31
0.0
  0
LINE
  5
153
330
C7
100
AcDbEntity
  8
LAYER0032
  6
DASHED2
 62
     4
100
AcDbLine
 10
263.9639511619051
 20
-66.0001395290333
 30
0.0
 11
253.5449019280042
 21
-66.00013952903325
 31
0.0
  0
LINE
  5
154
330
C7
100
AcDbEntity
  8
LAYER0032
  6
DASHED2
 62
     4
100
AcDbLine
 10
263.9639511619051
 20
-84.00013952903342
 30
0.0
 11
252.9163280771527
 21
-84.00013952903325
 31
0.0
  0
LINE
  5
155
330
C7
100
AcDbEntity
  8
LAYER0032
  6
DASHED2
 62
     4
100
AcDbLine
 10
263.9639511619051
 20
-64.00013952903325
 30
0.0
 11
253.6147434669877
 21
-64.00013952903325
 31
0.0
  0
LINE
  5
156
330
C7
100
AcDbEntity
  8
LAYER0032
  6
DASHED2
 62
     4
100
AcDbLine
 10
263.9639511619051
 20
-86.00013952903348
 30
0.0
 11
252.8464865381692
 21
-86.00013952903325
 31
0.0
  0
LINE
  5
157
330
C7
100
AcDbEntity
  8
LAYER0016
  6
CONTINUOUS
 62
     3
100
AcDbLine
 10
182.3397825759431
 20
-129.0001395290746
 30
0.0
 11
249.5881197478672
 21
-129.0001395290746
 31
0.0
  0
LINE
  5
158
330
C7
100
AcDbEntity
  8
LAYER0016
  6
CONTINUOUS
 62
     3
100
AcDbLine
 10
256.7052590360856
 20
-63.46047796108186
 30
0.0
 11
254.5850738829627
 21
-124.1746370125875
 31
0.0
  0
LINE
  5
159
330
C7
100
AcDbEntity
  8
LAYER0016
  6
CONTINUOUS
 62
     3
100
AcDbLine
 10
175.2226432877336
 20
-63.46047796133243
 30
0.0
 11
177.3428284408476
 21
-124.1746370125865
 31
0.0
  0
LINE
  5
15A
330
C7
100
AcDbEntity
  8
LAYER0016
  6
CONTINUOUS
 62
     3
100
AcDbLine
 10
172.9639511619051
 20
-55.00013952903234
 30
0.0
 11
172.9639511619051
 21
-56.00013952903234
 31
0.0
  0
LINE
  5
15B
330
C7
100
AcDbEntity
  8
LAYER0016
  6
CONTINUOUS
 62
     3
100
AcDbLine
 10
258.9639511619052
 20
-55.00013952903331
 30
0.0
 11
258.9639511619052
 21
-56.00013952903331
 31
0.0
  0
LINE
  5
15C
330
C7
100
AcDbEntity
  8
LAYER0016
  6
CONTINUOUS
 62
     3
100
AcDbLine
 10
172.9639511619051
 20
-56.00013952903234
 30
0.0
 11
172.9639511619051
 21
-94.0001395290333
 31
0.0
  0
LINE
  5
15D
330
C7
100
AcDbEntity
  8
LAYER0016
  6
CONTINUOUS
 62
     3
100
AcDbLine
 10
263.9639511619051
 20
-61.00013952903331
 30
0.0
 11
263.9639511619051
 21
-89.0001395290333
 31
0.0
  0
LINE
  5
15E
330
C7
100
AcDbEntity
  8
LAYER0016
  6
CONTINUOUS
 62
     3
100
AcDbLine
 10
260.9639511619052
 20
-59.00013952903331
 30
0.0
 11
261.9639511619051
 21
-59.00013952903331
 31
0.0
  0
LINE
  5
15F
330
C7
100
AcDbEntity
  8
LAYER0016
  6
CONTINUOUS
 62
     3
100
AcDbLine
 10
257.6749304122046
 20
-91.0001395290333
 30
0.0
 11
261.9639511619051
 21
-91.0001395290333
 31
0.0
  0
ARC
  5
160
330
C7
100
AcDbEntity
  8
LAYER0016
  6
CONTINUOUS
 62
     3
100
AcDbCircle
 10
261.9639511619051
 20
-61.00013952903331
 30
0.0
 40
2.0
100
AcDbArc
 50
0.0
 51
90.0
  0
ARC
  5
161
330
C7
100
AcDbEntity
  8
LAYER0016
  6
CONTINUOUS
 62
     3
100
AcDbCircle
 10
260.9639511619052
 20
-57.00013952903331
 30
0.0
 40
2.0
100
AcDbArc
 50
180.0
 51
270.0
  0
ARC
  5
162
330
C7
100
AcDbEntity
  8
LAYER0016
  6
CONTINUOUS
 62
     3
100
AcDbCircle
 10
261.9639511619051
 20
-89.0001395290333
 30
0.0
 40
2.0
100
AcDbArc
 50
270.0
 51
0.0
  0
ARC
  5
163
330
C7
100
AcDbEntity
  8
LAYER0016
  6
CONTINUOUS
 62
     3
100
AcDbCircle
 10
257.6749304122046
 20
-93.0001395290333
 30
0.0
 40
2.0
100
AcDbArc
 50
90.0
 51
178.0000000000078
  0
ARC
  5
164
330
C7
100
AcDbEntity
  8
LAYER0016
  6
CONTINUOUS
 62
     3
100
AcDbCircle
 10
174.9639511619051
 20
-94.0001395290333
 30
0.0
 40
2.0
100
AcDbArc
 50
180.0
 51
262.2754532322205
  0
ARC
  5
165
330
C7
100
AcDbEntity
  8
LAYER0016
  6
CONTINUOUS
 62
     3
100
AcDbCircle
 10
174.4263082337707
 20
-97.96384235367802
 30
0.0
 40
2.0
100
AcDbArc
 50
2.000000000003641
 51
82.2754532322394
  0
ARC
  5
166
330
C7
100
AcDbEntity
  8
LAYER0016
  6
CONTINUOUS
 62
     3
100
AcDbCircle
 10
249.5881197478672
 20
-124.0001395290746
 30
0.0
 40
5.0
100
AcDbArc
 50
270.0
 51
357.9999999999964
  0
ARC
  5
167
330
C7
100
AcDbEntity
  8
LAYER0016
  6
CONTINUOUS
 62
     3
100
AcDbCircle
 10
182.3397825759431
 20
-124.0001395290746
 30
0.0
 40
5.0
100
AcDbArc
 50
181.9999999999932
 51
270.0
  0
LINE
  5
168
330
C7
100
AcDbEntity
  8
LAYER0016
  6
CONTINUOUS
 62
     3
100
AcDbLine
 10
175.1048533284689
 20
-62.00013952903325
 30
0.0
 11
256.8230489953414
 21
-62.00013952903348
 31
0.0
  0
ARC
  5
169
330
C7
100
AcDbEntity
  8
LAYER0016
  6
CONTINUOUS
 62
     3
100
AcDbCircle
 10
256.8230489953422
 20
-60.00013952903348
 30
0.0
 40
2.0
100
AcDbArc
 50
269.9999999999772
 51
357.9999999999833
  0
ARC
  5
16A
330
C7
100
AcDbEntity
  8
LAYER0016
  6
CONTINUOUS
 62
     3
100
AcDbCircle
 10
258.7040406901256
 20
-63.53027695448688
 30
0.0
 40
2.0
100
AcDbArc
 50
118.0503910017231
 51
177.9999999999999
  0
ARC
  5
16B
330
C7
100
AcDbEntity
  8
LAYER0016
  6
CONTINUOUS
 62
     3
100
AcDbCircle
 10
175.1048533284697
 20
-60.00013952903331
 30
0.0
 40
2.0
100
AcDbArc
 50
182.000000000002
 51
269.9999999999764
  0
ARC
  5
16C
330
C7
100
AcDbEntity
  8
LAYER0016
  6
CONTINUOUS
 62
     3
100
AcDbCircle
 10
173.2238616336952
 20
-63.53027695473745
 30
0.0
 40
2.0
100
AcDbArc
 50
1.999999999999605
 51
61.94960900007703
  0
LINE
  5
16D
330
C7
100
AcDbEntity
  8
LAYER0016
  6
CONTINUOUS
 62
     3
100
AcDbLine
 10
258.9639511619034
 20
-56.00013952908157
 30
0.0
 11
258.8218306493786
 21
-60.06993852243906
 31
0.0
  0
LINE
  5
16E
330
C7
100
AcDbEntity
  8
LAYER0016
  6
CONTINUOUS
 62
     3
100
AcDbLine
 10
173.1060716744316
 20
-60.06993852243838
 30
0.0
 11
172.9639511619051
 21
-56.00013952903234
 31
0.0
  0
LINE
  5
16F
330
C7
100
AcDbEntity
  8
LAYER0016
  6
CONTINUOUS
 62
     3
100
AcDbLine
 10
249.5881197478672
 20
-104.1994742490951
 30
0.0
 11
182.3397825759431
 21
-104.1994742490951
 31
0.0
  0
LINE
  5
170
330
C7
100
AcDbEntity
  8
LAYER0016
  6
CONTINUOUS
 62
     3
100
AcDbLine
 10
228.9639511619051
 20
-43.00013952904558
 30
0.0
 11
228.9639511619051
 21
-61.50013952904479
 31
0.0
  0
LINE
  5
171
330
C7
100
AcDbEntity
  8
LAYER0016
  6
CONTINUOUS
 62
     3
100
AcDbLine
 10
222.9639511619051
 20
-43.00013952904558
 30
0.0
 11
222.9639511619051
 21
-61.50013952904479
 31
0.0
  0
LINE
  5
172
330
C7
100
AcDbEntity
  8
LAYER0016
  6
CONTINUOUS
 62
     3
100
AcDbLine
 10
208.9639511619051
 20
-43.00013952904558
 30
0.0
 11
208.9639511619051
 21
-61.50013952904479
 31
0.0
  0
LINE
  5
173
330
C7
100
AcDbEntity
  8
LAYER0016
  6
CONTINUOUS
 62
     3
100
AcDbLine
 10
202.9639511619051
 20
-43.00013952904558
 30
0.0
 11
202.9639511619051
 21
-61.50013952904479
 31
0.0
  0
LINE
  5
174
330
C7
100
AcDbEntity
  8
LAYER0016
  6
CONTINUOUS
 62
     3
100
AcDbLine
 10
220.9639511619051
 20
-68.0001395290407
 30
0.0
 11
220.9639511619051
 21
-49.50013952904115
 31
0.0
  0
LINE
  5
175
330
C7
100
AcDbEntity
  8
LAYER0016
  6
CONTINUOUS
 62
     3
100
AcDbLine
 10
210.9639511619051
 20
-68.0001395290407
 30
0.0
 11
210.9639511619051
 21
-49.50013952904115
 31
0.0
  0
LINE
  5
176
330
C7
100
AcDbEntity
  8
LAYER0016
  6
CONTINUOUS
 62
     3
100
AcDbLine
 10
210.9639511619051
 20
-68.0001395290407
 30
0.0
 11
220.9639511619051
 21
-68.0001395290407
 31
0.0
  0
LINE
  5
177
330
C7
100
AcDbEntity
  8
LAYER0016
  6
CONTINUOUS
 62
     3
100
AcDbLine
 10
202.9639511619051
 20
-43.00013952904558
 30
0.0
 11
228.9639511619051
 21
-43.00013952904558
 31
0.0
  0
LINE
  5
178
330
C7
100
AcDbEntity
  8
LAYER0016
  6
CONTINUOUS
 62
     3
100
AcDbLine
 10
202.9639511619051
 20
-61.50013952904479
 30
0.0
 11
208.9639511619051
 21
-61.50013952904479
 31
0.0
  0
LINE
  5
179
330
C7
100
AcDbEntity
  8
LAYER0016
  6
CONTINUOUS
 62
     3
100
AcDbLine
 10
222.9639511619051
 20
-61.50013952904479
 30
0.0
 11
228.9639511619051
 21
-61.50013952904479
 31
0.0
  0
LINE
  5
17A
330
C7
100
AcDbEntity
  8
LAYER0016
  6
CONTINUOUS
 62
     3
100
AcDbLine
 10
210.9639511619051
 20
-49.50013952904115
 30
0.0
 11
220.9639511619051
 21
-49.50013952904115
 31
0.0
  0
LINE
  5
17B
330
C7
100
AcDbEntity
  8
LAYER0016
  6
CONTINUOUS
 62
     3
100
AcDbLine
 10
172.9639511619051
 20
-55.00013952903234
 30
0.0
 11
202.9639511619051
 21
-55.00013952903234
 31
0.0
  0
LINE
  5
17C
330
C7
100
AcDbEntity
  8
LAYER0016
  6
CONTINUOUS
 62
     3
100
AcDbLine
 10
233.9639511619051
 20
-55.00013952903234
 30
0.0
 11
258.9639511619052
 21
-55.00013952903234
 31
0.0
  0
LINE
  5
17D
330
C7
100
AcDbEntity
  8
LAYER0016
  6
CONTINUOUS
 62
     3
100
AcDbLine
 10
258.9639511619052
 20
-56.00013952906758
 30
0.0
 11
233.9639511619051
 21
-56.00013952905735
 31
0.0
  0
LINE
  5
17E
330
C7
100
AcDbEntity
  8
LAYER0016
  6
CONTINUOUS
 62
     3
100
AcDbLine
 10
202.9639511619051
 20
-56.00013952904462
 30
0.0
 11
172.9639511619051
 21
-56.00013952903234
 31
0.0
  0
LINE
  5
17F
330
C7
100
AcDbEntity
  8
LAYER0016
  6
CONTINUOUS
 62
     3
100
AcDbLine
 10
241.7670848472084
 20
-18.00013952903331
 30
0.0
 11
190.1608174766017
 21
-18.00013952903331
 31
0.0
  0
LINE
  5
180
330
C7
100
AcDbEntity
  8
LAYER0016
  6
CONTINUOUS
 62
     3
100
AcDbLine
 10
258.9639511619052
 20
-55.00013952903234
 30
0.0
 11
258.6996079561576
 21
-47.43034053562732
 31
0.0
  0
LINE
  5
181
330
C7
100
AcDbEntity
  8
LAYER0016
  6
CONTINUOUS
 62
     3
100
AcDbLine
 10
172.963951161905
 20
-55.00013952903331
 30
0.0
 11
173.2282943676527
 21
-47.4303405356271
 31
0.0
  0
LINE
  5
182
330
C7
100
AcDbEntity
  8
LAYER0016
  6
CONTINUOUS
 62
     3
100
AcDbLine
 10
177.7570632013599
 20
-41.82483846956583
 30
0.0
 11
185.4623543726722
 21
-21.29003881240496
 31
0.0
  0
LINE
  5
183
330
C7
100
AcDbEntity
  8
LAYER0016
  6
CONTINUOUS
 62
     3
100
AcDbLine
 10
254.1993672976744
 20
-41.90321898681239
 30
0.0
 11
246.465547951138
 21
-21.29003881240496
 31
0.0
  0
ARC
  5
184
330
C7
100
AcDbEntity
  8
LAYER0016
  6
CONTINUOUS
 62
     3
100
AcDbCircle
 10
190.1608174766017
 20
-23.00013952903336
 30
0.0
 40
5.0
100
AcDbArc
 50
90.0
 51
159.9999999999996
  0
ARC
  5
185
330
C7
100
AcDbEntity
  8
LAYER0016
  6
CONTINUOUS
 62
     3
100
AcDbCircle
 10
241.7670848472084
 20
-23.00013952903325
 30
0.0
 40
5.0
100
AcDbArc
 50
20.00000000000004
 51
90.0
  0
ARC
  5
186
330
C7
100
AcDbEntity
  8
LAYER0016
  6
CONTINUOUS
 62
     3
100
AcDbCircle
 10
175.2270760216908
 20
-47.50013952903223
 30
0.0
 40
2.0
100
AcDbArc
 50
90.0
 51
177.9999999999964
  0
ARC
  5
187
330
C7
100
AcDbEntity
  8
LAYER0016
  6
CONTINUOUS
 62
     3
100
AcDbCircle
 10
256.7008263021194
 20
-47.50013952903234
 30
0.0
 40
2.0
100
AcDbArc
 50
2.000000000000393
 51
90.0
  0
LINE
  5
188
330
C7
100
AcDbEntity
  8
LAYER0016
  6
CONTINUOUS
 62
     3
100
AcDbLine
 10
175.2270760216908
 20
-45.50013952903234
 30
0.0
 11
202.9639511619051
 21
-45.50013952903234
 31
0.0
  0
LINE
  5
189
330
C7
100
AcDbEntity
  8
LAYER0016
  6
CONTINUOUS
 62
     3
100
AcDbLine
 10
228.9639511619051
 20
-45.50013952903234
 30
0.0
 11
256.7008263021194
 21
-45.50013952903234
 31
0.0
  0
POINT
  5
18A
330
C7
100
AcDbEntity
  8
LAYER0016
  6
CONTINUOUS
 62
     7
100
AcDbPoint
 10
171.4639511619051
 20
-75.0001395290333
 30
0.0
  0
POINT
  5
18B
330
C7
100
AcDbEntity
  8
LAYER0016
  6
CONTINUOUS
 62
     7
100
AcDbPoint
 10
215.9639511619051
 20
-55.50013952904115
 30
0.0
  0
LINE
  5
18C
330
C7
100
AcDbEntity
  8
LAYER0016
  6
CENTER
 62
     4
100
AcDbLine
 10
235.8458976541824
 20
-55.50013952904115
 30
0.0
 11
199.8896126378373
 21
-55.50013952904115
 31
0.0
  0
LINE
  5
18D
330
C7
100
AcDbEntity
  8
LAYER0016
  6
CENTER
 62
     4
100
AcDbLine
 10
251.6136451075569
 20
-75.0001395290333
 30
0.0
 11
267.0449426534374
 21
-75.0001395290333
 31
0.0
  0
LINE
  5
18E
330
C7
100
AcDbEntity
  8
LAYER0016
  6
CENTER
 62
     4
100
AcDbLine
 10
215.9639511619051
 20
-11.99145003594359
 30
0.0
 11
215.9639511619051
 21
-133.3463297219512
 31
0.0
  0
LINE
  5
18F
330
C7
100
AcDbEntity
  8
LAYER0016
  6
DASHED2
 62
     4
100
AcDbLine
 10
228.9639511619051
 20
-53.25013952904115
 30
0.0
 11
222.9639511619051
 21
-53.25013952904115
 31
0.0
  0
LINE
  5
190
330
C7
100
AcDbEntity
  8
LAYER0016
  6
DASHED2
 62
     4
100
AcDbLine
 10
222.9639511619051
 20
-57.75013952904115
 30
0.0
 11
228.9639511619051
 21
-57.75013952904115
 31
0.0
  0
LINE
  5
191
330
C7
100
AcDbEntity
  8
LAYER0016
  6
DASHED2
 62
     4
100
AcDbLine
 10
210.9639511619051
 20
-52.50013952904115
 30
0.0
 11
220.9639511619051
 21
-52.50013952904115
 31
0.0
  0
LINE
  5
192
330
C7
100
AcDbEntity
  8
LAYER0016
  6
DASHED2
 62
     4
100
AcDbLine
 10
210.9639511619051
 20
-58.50013952904115
 30
0.0
 11
220.9639511619051
 21
-58.50013952904115
 31
0.0
  0
INSERT
  5
193
330
C7
100
AcDbEntity
  8
LAYER0016
  6
CONTINUOUS
100
AcDbBlockReference
  2
DC_GROUP_8
 10
0.0
 20
0.0
 30
0.0
  0
INSERT
  5
194
330
C7
100
AcDbEntity
  8
LAYER0016
  6
CONTINUOUS
100
AcDbBlockReference
  2
DC_GROUP_9
 10
0.0
 20
0.0
 30
0.0
  0
INSERT
  5
195
330
C7
100
AcDbEntity
  8
LAYER0016
  6
CONTINUOUS
100
AcDbBlockReference
  2
DC_GROUP_10
 10
0.0
 20
0.0
 30
0.0
  0
ENDBLK
  5
C9
330
C7
100
AcDbEntity
  8
0
100
AcDbBlockEnd
  0
BLOCK
  5
CB
330
CA
100
AcDbEntity
  8
0
100
AcDbBlockBegin
  2
DC_GROUP_8
 70
     0
 10
0.0
 20
0.0
 30
0.0
  3
DC_GROUP_8
  1

  0
LINE
  5
196
330
CA
100
AcDbEntity
  8
LAYER0016
  6
CONTINUOUS
 62
     3
100
AcDbLine
 10
181.7639511619051
 20
-45.50013952903234
 30
0.0
 11
174.1639511619051
 21
-45.50013952903234
 31
0.0
  0
LINE
  5
197
330
CA
100
AcDbEntity
  8
LAYER0016
  6
CONTINUOUS
 62
     3
100
AcDbLine
 10
181.7639511619051
 20
-44.50013952903234
 30
0.0
 11
174.1639511619051
 21
-44.50013952903234
 31
0.0
  0
LINE
  5
198
330
CA
100
AcDbEntity
  8
LAYER0016
  6
CONTINUOUS
 62
     3
100
AcDbLine
 10
181.7639511619051
 20
-44.50013952903234
 30
0.0
 11
181.7639511619051
 21
-45.50013952903234
 31
0.0
  0
LINE
  5
199
330
CA
100
AcDbEntity
  8
LAYER0016
  6
CONTINUOUS
 62
     3
100
AcDbLine
 10
174.1639511619051
 20
-44.50013952903234
 30
0.0
 11
174.1639511619051
 21
-45.50013952903234
 31
0.0
  0
LINE
  5
19A
330
CA
100
AcDbEntity
  8
LAYER0016
  6
CONTINUOUS
 62
     3
100
AcDbLine
 10
177.9639511619051
 20
-44.50013952903234
 30
0.0
 11
178.2319003543362
 21
-45.50013952903234
 31
0.0
  0
LINE
  5
19B
330
CA
100
AcDbEntity
  8
LAYER0016
  6
CONTINUOUS
 62
     3
100
AcDbLine
 10
177.696001969474
 20
-44.50013952903234
 30
0.0
 11
177.9639511619051
 21
-45.50013952903234
 31
0.0
  0
LINE
  5
19C
330
CA
100
AcDbEntity
  8
LAYER0016
  6
CONTINUOUS
 62
     3
100
AcDbLine
 10
181.4639511619051
 20
-44.50013952903234
 30
0.0
 11
181.3959144187893
 21
-43.20192113385141
 31
0.0
  0
LINE
  5
19D
330
CA
100
AcDbEntity
  8
LAYER0016
  6
CONTINUOUS
 62
     3
100
AcDbLine
 10
174.4639511619051
 20
-44.50013952903234
 30
0.0
 11
174.531987905021
 21
-43.20192113385141
 31
0.0
  0
ARC
  5
19E
330
CA
100
AcDbEntity
  8
LAYER0016
  6
CONTINUOUS
 62
     3
100
AcDbCircle
 10
180.4338632117988
 20
-43.25234010116637
 30
0.0
 40
0.9633714741142343
100
AcDbArc
 50
2.999999999999763
 51
71.15103117240795
  0
ARC
  5
19F
330
CA
100
AcDbEntity
  8
LAYER0016
  6
CONTINUOUS
 62
     3
100
AcDbCircle
 10
175.4940391120115
 20
-43.25234010116637
 30
0.0
 40
0.9633714741142343
100
AcDbArc
 50
108.8489688275915
 51
176.9999999999997
  0
ARC
  5
1A0
330
CA
100
AcDbEntity
  8
LAYER0016
  6
CONTINUOUS
 62
     3
100
AcDbCircle
 10
177.9639511619051
 20
-50.90013952903232
 30
0.0
 40
9.0
100
AcDbArc
 50
71.99999999999974
 51
107.9999999999997
  0
ENDBLK
  5
CC
330
CA
100
AcDbEntity
  8
0
100
AcDbBlockEnd
  0
BLOCK
  5
CE
330
CD
100
AcDbEntity
  8
0
100
AcDbBlockBegin
  2
DC_GROUP_9
 70
     0
 10
0.0
 20
0.0
 30
0.0
  3
DC_GROUP_9
  1

  0
LINE
  5
1A1
330
CD
100
AcDbEntity
  8
LAYER0016
  6
CONTINUOUS
 62
     3
100
AcDbLine
 10
257.7639511619051
 20
-45.50013952903234
 30
0.0
 11
250.1639511619051
 21
-45.50013952903234
 31
0.0
  0
LINE
  5
1A2
330
CD
100
AcDbEntity
  8
LAYER0016
  6
CONTINUOUS
 62
     3
100
AcDbLine
 10
257.7639511619051
 20
-44.50013952903234
 30
0.0
 11
250.1639511619051
 21
-44.50013952903234
 31
0.0
  0
LINE
  5
1A3
330
CD
100
AcDbEntity
  8
LAYER0016
  6
CONTINUOUS
 62
     3
100
AcDbLine
 10
257.7639511619051
 20
-44.50013952903234
 30
0.0
 11
257.7639511619051
 21
-45.50013952903234
 31
0.0
  0
LINE
  5
1A4
330
CD
100
AcDbEntity
  8
LAYER0016
  6
CONTINUOUS
 62
     3
100
AcDbLine
 10
250.1639511619051
 20
-44.50013952903234
 30
0.0
 11
250.1639511619051
 21
-45.50013952903234
 31
0.0
  0
LINE
  5
1A5
330
CD
100
AcDbEntity
  8
LAYER0016
  6
CONTINUOUS
 62
     3
100
AcDbLine
 10
253.9639511619051
 20
-44.50013952903234
 30
0.0
 11
254.2319003543362
 21
-45.50013952903234
 31
0.0
  0
LINE
  5
1A6
330
CD
100
AcDbEntity
  8
LAYER0016
  6
CONTINUOUS
 62
     3
100
AcDbLine
 10
253.696001969474
 20
-44.50013952903234
 30
0.0
 11
253.9639511619051
 21
-45.50013952903234
 31
0.0
  0
LINE
  5
1A7
330
CD
100
AcDbEntity
  8
LAYER0016
  6
CONTINUOUS
 62
     3
100
AcDbLine
 10
257.4639511619051
 20
-44.50013952903234
 30
0.0
 11
257.3959144187893
 21
-43.20192113385141
 31
0.0
  0
LINE
  5
1A8
330
CD
100
AcDbEntity
  8
LAYER0016
  6
CONTINUOUS
 62
     3
100
AcDbLine
 10
250.4639511619051
 20
-44.50013952903234
 30
0.0
 11
250.5319879050209
 21
-43.20192113385141
 31
0.0
  0
ARC
  5
1A9
330
CD
100
AcDbEntity
  8
LAYER0016
  6
CONTINUOUS
 62
     3
100
AcDbCircle
 10
256.4338632117988
 20
-43.25234010116637
 30
0.0
 40
0.9633714741142343
100
AcDbArc
 50
2.999999999999788
 51
71.15103117240798
  0
ARC
  5
1AA
330
CD
100
AcDbEntity
  8
LAYER0016
  6
CONTINUOUS
 62
     3
100
AcDbCircle
 10
251.4940391120115
 20
-43.25234010116637
 30
0.0
 40
0.9633714741142343
100
AcDbArc
 50
108.8489688275916
 51
176.9999999999997
  0
ARC
  5
1AB
330
CD
100
AcDbEntity
  8
LAYER0016
  6
CONTINUOUS
 62
     3
100
AcDbCircle
 10
253.9639511619051
 20
-50.90013952903232
 30
0.0
 40
9.0
100
AcDbArc
 50
71.99999999999977
 51
107.9999999999998
  0
ENDBLK
  5
CF
330
CD
100
AcDbEntity
  8
0
100
AcDbBlockEnd
  0
BLOCK
  5
D1
330
D0
100
AcDbEntity
  8
0
100
AcDbBlockBegin
  2
DC_GROUP_10
 70
     0
 10
0.0
 20
0.0
 30
0.0
  3
DC_GROUP_10
  1

  0
LINE
  5
1AC
330
D0
100
AcDbEntity
  8
LAYER0016
  6
CONTINUOUS
 62
     3
100
AcDbLine
 10
229.9639511619051
 20
-59.00013952904115
 30
0.0
 11
233.5639511619052
 21
-59.00013952904115
 31
0.0
  0
LINE
  5
1AD
330
D0
100
AcDbEntity
  8
LAYER0016
  6
CONTINUOUS
 62
     3
100
AcDbLine
 10
233.5639511619052
 20
-59.00013952904115
 30
0.0
 11
233.9639511619051
 21
-58.3073192060136
 31
0.0
  0
LINE
  5
1AE
330
D0
100
AcDbEntity
  8
LAYER0016
  6
CONTINUOUS
 62
     3
100
AcDbLine
 10
233.5639511619052
 20
-59.00013952904115
 30
0.0
 11
233.5639511619052
 21
-52.00013952904115
 31
0.0
  0
LINE
  5
1AF
330
D0
100
AcDbEntity
  8
LAYER0016
  6
CONTINUOUS
 62
     3
100
AcDbLine
 10
229.9639511619051
 20
-52.00013952904115
 30
0.0
 11
233.5639511619052
 21
-52.00013952904115
 31
0.0
  0
LINE
  5
1B0
330
D0
100
AcDbEntity
  8
LAYER0016
  6
CONTINUOUS
 62
     3
100
AcDbLine
 10
233.5639511619052
 20
-52.00013952904115
 30
0.0
 11
233.9639511619051
 21
-52.6929598520687
 31
0.0
  0
LINE
  5
1B1
330
D0
100
AcDbEntity
  8
LAYER0016
  6
CONTINUOUS
 62
     3
100
AcDbLine
 10
233.9639511619051
 20
-58.3073192060136
 30
0.0
 11
233.9639511619051
 21
-52.6929598520687
 31
0.0
  0
LINE
  5
1B2
330
D0
100
AcDbEntity
  8
LAYER0016
  6
CONTINUOUS
 62
     3
100
AcDbLine
 10
229.9639511619051
 20
-51.70013952904114
 30
0.0
 11
228.9639511619051
 21
-51.70013952904114
 31
0.0
  0
LINE
  5
1B3
330
D0
100
AcDbEntity
  8
LAYER0016
  6
CONTINUOUS
 62
     3
100
AcDbLine
 10
228.9639511619051
 20
-59.30013952904116
 30
0.0
 11
228.9639511619051
 21
-51.70013952904114
 31
0.0
  0
LINE
  5
1B4
330
D0
100
AcDbEntity
  8
LAYER0016
  6
CONTINUOUS
 62
     3
100
AcDbLine
 10
228.9639511619051
 20
-59.30013952904116
 30
0.0
 11
229.9639511619051
 21
-59.30013952904116
 31
0.0
  0
LINE
  5
1B5
330
D0
100
AcDbEntity
  8
LAYER0016
  6
CONTINUOUS
 62
     3
100
AcDbLine
 10
229.9639511619051
 20
-59.30013952904116
 30
0.0
 11
229.9639511619051
 21
-51.70013952904114
 31
0.0
  0
LINE
  5
1B6
330
D0
100
AcDbEntity
  8
LAYER0016
  6
CONTINUOUS
 62
     3
100
AcDbLine
 10
229.9639511619051
 20
-55.50013952904115
 30
0.0
 11
228.9639511619051
 21
-55.76808872147225
 31
0.0
  0
LINE
  5
1B7
330
D0
100
AcDbEntity
  8
LAYER0016
  6
CONTINUOUS
 62
     3
100
AcDbLine
 10
229.9639511619051
 20
-55.23219033661005
 30
0.0
 11
228.9639511619051
 21
-55.50013952904115
 31
0.0
  0
LINE
  5
1B8
330
D0
100
AcDbEntity
  8
LAYER0016
  6
CONTINUOUS
 62
     3
100
AcDbLine
 10
222.9639511619051
 20
-53.50013952904115
 30
0.0
 11
220.9639511619051
 21
-53.50013952904115
 31
0.0
  0
LINE
  5
1B9
330
D0
100
AcDbEntity
  8
LAYER0016
  6
CONTINUOUS
 62
     3
100
AcDbLine
 10
210.9639511619051
 20
-53.50013952904115
 30
0.0
 11
208.9639511619051
 21
-53.50013952904115
 31
0.0
  0
LINE
  5
1BA
330
D0
100
AcDbEntity
  8
LAYER0016
  6
CONTINUOUS
 62
     3
100
AcDbLine
 10
222.9639511619051
 20
-57.50013952904115
 30
0.0
 11
220.9639511619051
 21
-57.50013952904115
 31
0.0
  0
LINE
  5
1BB
330
D0
100
AcDbEntity
  8
LAYER0016
  6
CONTINUOUS
 62
     3
100
AcDbLine
 10
210.9639511619051
 20
-57.50013952904115
 30
0.0
 11
208.9639511619051
 21
-57.50013952904115
 31
0.0
  0
ENDBLK
  5
D2
330
D0
100
AcDbEntity
  8
0
100
AcDbBlockEnd
  0
BLOCK
  5
D4
330
D3
100
AcDbEntity
  8
0
100
AcDbBlockBegin
  2
DC_GROUP_11
 70
     0
 10
0.0
 20
0.0
 30
0.0
  3
DC_GROUP_11
  1

  0
LINE
  5
1BC
330
D3
100
AcDbEntity
  8
LAYER0016
  6
CONTINUOUS
 62
     3
100
AcDbLine
 10
560.0011097079883
 20
-55.00013952903298
 30
0.0
 11
560.0011097079883
 21
-56.00013952903298
 31
0.0
  0
LINE
  5
1BD
330
D3
100
AcDbEntity
  8
LAYER0016
  6
CONTINUOUS
 62
     3
100
AcDbLine
 10
440.0011097079883
 20
-55.00013952903298
 30
0.0
 11
440.0011097079883
 21
-56.00013952903298
 31
0.0
  0
LINE
  5
1BE
330
D3
100
AcDbEntity
  8
LAYER0016
  6
CONTINUOUS
 62
     3
100
AcDbLine
 10
560.0011097079865
 20
-56.00013952908121
 30
0.0
 11
559.8589891954617
 21
-60.06993852243873
 31
0.0
  0
LINE
  5
1BF
330
D3
100
AcDbEntity
  8
LAYER0016
  6
CONTINUOUS
 62
     3
100
AcDbLine
 10
460.8878610539363
 20
-129.0001395290801
 30
0.0
 11
539.1143583620402
 21
-129.0001395290801
 31
0.0
  0
LINE
  5
1C0
330
D3
100
AcDbEntity
  8
LAYER0016
  6
CONTINUOUS
 62
     3
100
AcDbLine
 10
440.0011097079883
 20
-56.00013952903298
 30
0.0
 11
440.1432302205147
 21
-60.06993852243805
 31
0.0
  0
LINE
  5
1C1
330
D3
100
AcDbEntity
  8
LAYER0016
  6
CONTINUOUS
 62
     3
100
AcDbLine
 10
560.0011097079865
 20
-56.00013952908121
 30
0.0
 11
438.0011097079883
 21
-56.00013952903218
 31
0.0
  0
LINE
  5
1C2
330
D3
100
AcDbEntity
  8
LAYER0016
  6
CONTINUOUS
 62
     3
100
AcDbLine
 10
438.0011097079883
 20
-55.00013952903298
 30
0.0
 11
560.0011097079883
 21
-55.00013952903298
 31
0.0
  0
LINE
  5
1C3
330
D3
100
AcDbEntity
  8
LAYER0016
  6
CONTINUOUS
 62
     3
100
AcDbLine
 10
442.2598018338166
 20
-63.46047796133222
 30
0.0
 11
443.6389318234413
 21
-102.9535936542926
 31
0.0
  0
LINE
  5
1C4
330
D3
100
AcDbEntity
  8
LAYER0016
  6
CONTINUOUS
 62
     3
100
AcDbLine
 10
557.7424175821687
 20
-63.46047796108188
 30
0.0
 11
556.3632875925351
 21
-102.9535936542926
 31
0.0
  0
ARC
  5
1C5
330
D3
100
AcDbEntity
  8
LAYER0016
  6
CONTINUOUS
 62
     3
100
AcDbCircle
 10
557.8602075414236
 20
-60.00013952903315
 30
0.0
 40
2.0
100
AcDbArc
 50
269.9999999999772
 51
357.9999999999833
  0
ARC
  5
1C6
330
D3
100
AcDbEntity
  8
LAYER0016
  6
CONTINUOUS
 62
     3
100
AcDbCircle
 10
442.1420118745528
 20
-60.00013952903298
 30
0.0
 40
2.0
100
AcDbArc
 50
182.000000000002
 51
269.9999999999769
  0
ARC
  5
1C7
330
D3
100
AcDbEntity
  8
LAYER0016
  6
CONTINUOUS
 62
     3
100
AcDbCircle
 10
440.2610201797783
 20
-63.53027695473712
 30
0.0
 40
2.0
100
AcDbArc
 50
1.999999999997138
 51
61.94960900007703
  0
ARC
  5
1C8
330
D3
100
AcDbEntity
  8
LAYER0016
  6
CONTINUOUS
 62
     3
100
AcDbCircle
 10
559.7411992362069
 20
-63.53027695448655
 30
0.0
 40
2.0
100
AcDbArc
 50
118.0503910017231
 51
178.0000000000094
  0
LINE
  5
1C9
330
D3
100
AcDbEntity
  8
LAYER0016
  6
CONTINUOUS
 62
     3
100
AcDbLine
 10
543.4444853809624
 20
-126.5001395290801
 30
0.0
 11
555.6964604763617
 21
-105.2790961707802
 31
0.0
  0
LINE
  5
1CA
330
D3
100
AcDbEntity
  8
LAYER0016
  6
CONTINUOUS
 62
     3
100
AcDbLine
 10
456.5577340350142
 20
-126.5001395290801
 30
0.0
 11
444.3057589396145
 21
-105.2790961707801
 31
0.0
  0
ARC
  5
1CB
330
D3
100
AcDbEntity
  8
LAYER0016
  6
CONTINUOUS
 62
     3
100
AcDbCircle
 10
460.8878610539363
 20
-124.0001395290801
 30
0.0
 40
5.0
100
AcDbArc
 50
210.0000000000004
 51
270.0
  0
ARC
  5
1CC
330
D3
100
AcDbEntity
  8
LAYER0016
  6
CONTINUOUS
 62
     3
100
AcDbCircle
 10
539.1143583620402
 20
-124.0001395290801
 30
0.0
 40
5.0
100
AcDbArc
 50
270.0
 51
329.9999999999996
  0
ARC
  5
1CD
330
D3
100
AcDbEntity
  8
LAYER0016
  6
CONTINUOUS
 62
     3
100
AcDbCircle
 10
551.3663334574397
 20
-102.7790961707801
 30
0.0
 40
5.0
100
AcDbArc
 50
329.9999999999994
 51
358.0000000000001
  0
ARC
  5
1CE
330
D3
100
AcDbEntity
  8
LAYER0016
  6
CONTINUOUS
 62
     3
100
AcDbCircle
 10
448.6358859585367
 20
-102.77909617078
 30
0.0
 40
5.0
100
AcDbArc
 50
182.0000000000009
 51
210.0000000000004
  0
CIRCLE
  5
1CF
330
D3
100
AcDbEntity
  8
LAYER0016
  6
CONTINUOUS
 62
     3
100
AcDbCircle
 10
472.5011097079881
 20
-75.00013952903298
 30
0.0
 40
16.0
  0
CIRCLE
  5
1D0
330
D3
100
AcDbEntity
  8
LAYER0016
  6
CONTINUOUS
 62
     3
100
AcDbCircle
 10
527.5011097079881
 20
-75.00013952903298
 30
0.0
 40
16.0
  0
LINE
  5
1D1
330
D3
100
AcDbEntity
  8
LAYER0016
  6
CONTINUOUS
 62
     3
100
AcDbLine
 10
458.2533028592076
 20
-62.00013952903383
 30
0.0
 11
442.1420118745522
 21
-62.00013952903383
 31
0.0
  0
LINE
  5
1D2
330
D3
100
AcDbEntity
  8
LAYER0016
  6
CONTINUOUS
 62
     3
100
AcDbLine
 10
486.7489165567762
 20
-62.00013952904978
 30
0.0
 11
513.2533028591905
 21
-62.00013952904978
 31
0.0
  0
LINE
  5
1D3
330
D3
100
AcDbEntity
  8
LAYER0016
  6
CONTINUOUS
 62
     3
100
AcDbLine
 10
541.7489165567946
 20
-62.00013952907189
 30
0.0
 11
557.8602075414227
 21
-62.00013952908036
 31
0.0
  0
ARC
  5
1D4
330
D3
100
AcDbEntity
  8
LAYER0016
  6
CONTINUOUS
 62
     3
100
AcDbCircle
 10
541.7489165567946
 20
-64.00013952907385
 30
0.0
 40
2.0
100
AcDbArc
 50
90.0
 51
217.669886964164
  0
ARC
  5
1D5
330
D3
100
AcDbEntity
  8
LAYER0016
  6
CONTINUOUS
 62
     3
100
AcDbCircle
 10
513.2533028591905
 20
-64.00013952906242
 30
0.0
 40
2.0
100
AcDbArc
 50
322.3301130357879
 51
90.0
  0
ARC
  5
1D6
330
D3
100
AcDbEntity
  8
LAYER0016
  6
CONTINUOUS
 62
     3
100
AcDbCircle
 10
486.7489165567762
 20
-64.00013952904978
 30
0.0
 40
2.0
100
AcDbArc
 50
90.0
 51
217.6698869642622
  0
ARC
  5
1D7
330
D3
100
AcDbEntity
  8
LAYER0016
  6
CONTINUOUS
 62
     3
100
AcDbCircle
 10
458.2533028592076
 20
-64.00013952904028
 30
0.0
 40
2.0
100
AcDbArc
 50
322.3301130357004
 51
90.0
  0
LINE
  5
1D8
330
D3
100
AcDbEntity
  8
LAYER0016
  6
CONTINUOUS
 62
     3
100
AcDbLine
 10
437.5898864349573
 20
-68.00013952902809
 30
0.0
 11
428.0011097079883
 21
-68.00013952902809
 31
0.0
  0
LINE
  5
1D9
330
D3
100
AcDbEntity
  8
LAYER0016
  6
CONTINUOUS
 62
     3
100
AcDbLine
 10
438.0011097079883
 20
-55.00013952903298
 30
0.0
 11
438.0011097079883
 21
-57.50013952903218
 31
0.0
  0
LINE
  5
1DA
330
D3
100
AcDbEntity
  8
LAYER0016
  6
CONTINUOUS
 62
     3
100
AcDbLine
 10
426.0011097079883
 20
-66.00013952902809
 30
0.0
 11
426.0011097079883
 21
-53.50013952902479
 31
0.0
  0
LINE
  5
1DB
330
D3
100
AcDbEntity
  8
LAYER0016
  6
CONTINUOUS
 62
     3
100
AcDbLine
 10
430.0011097079883
 20
-61.50013952903218
 30
0.0
 11
434.0011097079883
 21
-61.50013952903218
 31
0.0
  0
ARC
  5
1DC
330
D3
100
AcDbEntity
  8
LAYER0016
  6
CONTINUOUS
 62
     3
100
AcDbCircle
 10
436.0011097079883
 20
-53.00013952903298
 30
0.0
 40
10.0
100
AcDbArc
 50
90.0
 51
180.0
  0
ARC
  5
1DD
330
D3
100
AcDbEntity
  8
LAYER0016
  6
CONTINUOUS
 62
     3
100
AcDbCircle
 10
430.0011097079883
 20
-57.50013952903218
 30
0.0
 40
4.0
100
AcDbArc
 50
180.0
 51
270.0
  0
ARC
  5
1DE
330
D3
100
AcDbEntity
  8
LAYER0016
  6
CONTINUOUS
 62
     3
100
AcDbCircle
 10
434.0011097079883
 20
-57.50013952903218
 30
0.0
 40
4.0
100
AcDbArc
 50
270.0
 51
0.0
  0
ARC
  5
1DF
330
D3
100
AcDbEntity
  8
LAYER0016
  6
CONTINUOUS
 62
     3
100
AcDbCircle
 10
428.0011097079883
 20
-66.00013952902809
 30
0.0
 40
2.0
100
AcDbArc
 50
180.0
 51
270.0
  0
LINE
  5
1E0
330
D3
100
AcDbEntity
  8
LAYER0016
  6
CONTINUOUS
 62
     3
100
AcDbLine
 10
441.6014237777598
 20
-43.00013952903298
 30
0.0
 11
436.0011097079883
 21
-43.00013952903298
 31
0.0
  0
ARC
  5
1E1
330
D3
100
AcDbEntity
  8
LAYER0016
  6
CONTINUOUS
 62
     3
100
AcDbCircle
 10
437.5898864349573
 20
-73.00013952902806
 30
0.0
 40
5.0
100
AcDbArc
 50
1.999999999999088
 51
90.0
  0
LINE
  5
1E2
330
D3
100
AcDbEntity
  8
LAYER0016
  6
CONTINUOUS
 62
     3
100
AcDbLine
 10
446.7344482518935
 20
-42.06863130607185
 30
0.0
 11
462.5393142031663
 21
-20.13225734727776
 31
0.0
  0
LINE
  5
1E3
330
D3
100
AcDbEntity
  8
LAYER0016
  6
CONTINUOUS
 62
     3
100
AcDbLine
 10
466.6350744246114
 20
-18.00013952903301
 30
0.0
 11
533.3671449913653
 21
-18.00013952903301
 31
0.0
  0
LINE
  5
1E4
330
D3
100
AcDbEntity
  8
LAYER0016
  6
CONTINUOUS
 62
     3
100
AcDbLine
 10
440.0011097079883
 20
-55.00013952903298
 30
0.0
 11
440.2654529137359
 21
-47.43034053562799
 31
0.0
  0
LINE
  5
1E5
330
D3
100
AcDbEntity
  8
LAYER0016
  6
CONTINUOUS
 62
     3
100
AcDbLine
 10
560.0011097079883
 20
-55.00013952903298
 30
0.0
 11
559.7367665022408
 21
-47.43034053562822
 31
0.0
  0
LINE
  5
1E6
330
D3
100
AcDbEntity
  8
LAYER0016
  6
CONTINUOUS
 62
     3
100
AcDbLine
 10
537.4629052128101
 20
-20.13225734727779
 30
0.0
 11
553.2677711640832
 21
-42.06863130607185
 31
0.0
  0
LINE
  5
1E7
330
D3
100
AcDbEntity
  8
LAYER0016
  6
CONTINUOUS
 62
     3
100
AcDbLine
 10
442.264234567774
 20
-45.50013952903301
 30
0.0
 11
557.7379848482025
 21
-45.50013952903301
 31
0.0
  0
ARC
  5
1E8
330
D3
100
AcDbEntity
  8
LAYER0016
  6
CONTINUOUS
 62
     3
100
AcDbCircle
 10
442.264234567774
 20
-47.50013952903301
 30
0.0
 40
2.0
100
AcDbArc
 50
90.0
 51
177.9999999999996
  0
ARC
  5
1E9
330
D3
100
AcDbEntity
  8
LAYER0016
  6
CONTINUOUS
 62
     3
100
AcDbCircle
 10
557.7379848482025
 20
-47.50013952903284
 30
0.0
 40
2.0
100
AcDbArc
 50
2.000000000000413
 51
90.0
  0
ARC
  5
1EA
330
D3
100
AcDbEntity
  8
LAYER0016
  6
CONTINUOUS
 62
     3
100
AcDbCircle
 10
466.6350744246114
 20
-23.00013952903298
 30
0.0
 40
5.0
100
AcDbArc
 50
90.0
 51
144.9999999999999
  0
ARC
  5
1EB
330
D3
100
AcDbEntity
  8
LAYER0016
  6
CONTINUOUS
 62
     3
100
AcDbCircle
 10
533.3671449913653
 20
-23.00013952903301
 30
0.0
 40
5.0
100
AcDbArc
 50
34.99999999999989
 51
90.0
  0
CIRCLE
  5
1EC
330
D3
100
AcDbEntity
  8
LAYER0016
  6
CONTINUOUS
 62
   150
100
AcDbCircle
 10
527.5011097079881
 20
-75.00013952903298
 30
0.0
 40
9.000000000000028
  0
CIRCLE
  5
1ED
330
D3
100
AcDbEntity
  8
LAYER0016
  6
CONTINUOUS
 62
   150
100
AcDbCircle
 10
472.5011097079881
 20
-75.00013952903298
 30
0.0
 40
9.000000000000028
  0
CIRCLE
  5
1EE
330
D3
100
AcDbEntity
  8
LAYER0016
  6
CONTINUOUS
 62
     7
100
AcDbCircle
 10
527.5011097079881
 20
-75.00013952903298
 30
0.0
 40
11.00000000000006
  0
CIRCLE
  5
1EF
330
D3
100
AcDbEntity
  8
LAYER0016
  6
CONTINUOUS
 62
     7
100
AcDbCircle
 10
472.5011097079881
 20
-75.00013952903298
 30
0.0
 40
11.00000000000006
  0
POINT
  5
1F0
330
D3
100
AcDbEntity
  8
LAYER0016
  6
CONTINUOUS
 62
     7
100
AcDbPoint
 10
443.6824389325067
 20
-104.1994742490948
 30
0.0
  0
LINE
  5
1F1
330
D3
100
AcDbEntity
  8
LAYER0016
  6
DASHED2
 62
     4
100
AcDbLine
 10
430.0011097079883
 20
-49.50013952902479
 30
0.0
 11
434.0011097079883
 21
-49.50013952902479
 31
0.0
  0
LINE
  5
1F2
330
D3
100
AcDbEntity
  8
LAYER0016
  6
DASHED2
 62
     4
100
AcDbLine
 10
438.0011097079883
 20
-53.50013952902479
 30
0.0
 11
438.0011097079883
 21
-56.00013952903298
 31
0.0
  0
ARC
  5
1F3
330
D3
100
AcDbEntity
  8
LAYER0016
  6
DASHED2
 62
     4
100
AcDbCircle
 10
430.0011097079883
 20
-53.50013952902479
 30
0.0
 40
4.0
100
AcDbArc
 50
90.0
 51
180.0
  0
ARC
  5
1F4
330
D3
100
AcDbEntity
  8
LAYER0016
  6
DASHED2
 62
     4
100
AcDbCircle
 10
434.0011097079883
 20
-53.50013952902479
 30
0.0
 40
4.0
100
AcDbArc
 50
0.0
 51
90.0
  0
LINE
  5
1F5
330
D3
100
AcDbEntity
  8
LAYER0016
  6
DASHED2
 62
     4
100
AcDbLine
 10
437.0011097079883
 20
-43.00013952903298
 30
0.0
 11
437.0011097079883
 21
-49.00013952903298
 31
0.0
  0
LINE
  5
1F6
330
D3
100
AcDbEntity
  8
LAYER0016
  6
DASHED2
 62
     4
100
AcDbLine
 10
440.2106343249387
 20
-49.00013952903298
 30
0.0
 11
437.0011097079883
 21
-49.00013952903298
 31
0.0
  0
INSERT
  5
1F7
330
D3
100
AcDbEntity
  8
LAYER0016
  6
CONTINUOUS
100
AcDbBlockReference
  2
DC_GROUP_12
 10
0.0
 20
0.0
 30
0.0
  0
INSERT
  5
1F8
330
D3
100
AcDbEntity
  8
LAYER0016
  6
CONTINUOUS
100
AcDbBlockReference
  2
DC_GROUP_13
 10
0.0
 20
0.0
 30
0.0
  0
INSERT
  5
1F9
330
D3
100
AcDbEntity
  8
LAYER0016
  6
CONTINUOUS
100
AcDbBlockReference
  2
DC_GROUP_14
 10
0.0
 20
0.0
 30
0.0
  0
ENDBLK
  5
D5
330
D3
100
AcDbEntity
  8
0
100
AcDbBlockEnd
  0
BLOCK
  5
D7
330
D6
100
AcDbEntity
  8
0
100
AcDbBlockBegin
  2
DC_GROUP_12
 70
     0
 10
0.0
 20
0.0
 30
0.0
  3
DC_GROUP_12
  1

  0
LINE
  5
1FA
330
D6
100
AcDbEntity
  8
LAYER0016
  6
CONTINUOUS
 62
     3
100
AcDbLine
 10
558.8011097079883
 20
-45.50013952903204
 30
0.0
 11
551.2011097079882
 21
-45.50013952903201
 31
0.0
  0
LINE
  5
1FB
330
D6
100
AcDbEntity
  8
LAYER0016
  6
CONTINUOUS
 62
     3
100
AcDbLine
 10
558.8011097079883
 20
-44.50013952903204
 30
0.0
 11
551.2011097079882
 21
-44.50013952903201
 31
0.0
  0
LINE
  5
1FC
330
D6
100
AcDbEntity
  8
LAYER0016
  6
CONTINUOUS
 62
     3
100
AcDbLine
 10
558.8011097079883
 20
-44.50013952903204
 30
0.0
 11
558.8011097079883
 21
-45.50013952903204
 31
0.0
  0
LINE
  5
1FD
330
D6
100
AcDbEntity
  8
LAYER0016
  6
CONTINUOUS
 62
     3
100
AcDbLine
 10
551.2011097079882
 20
-44.50013952903201
 30
0.0
 11
551.2011097079882
 21
-45.50013952903201
 31
0.0
  0
LINE
  5
1FE
330
D6
100
AcDbEntity
  8
LAYER0016
  6
CONTINUOUS
 62
     3
100
AcDbLine
 10
555.0011097079881
 20
-44.50013952903201
 30
0.0
 11
555.2690589004193
 21
-45.50013952903201
 31
0.0
  0
LINE
  5
1FF
330
D6
100
AcDbEntity
  8
LAYER0016
  6
CONTINUOUS
 62
     3
100
AcDbLine
 10
554.7331605155572
 20
-44.50013952903201
 30
0.0
 11
555.0011097079881
 21
-45.50013952903201
 31
0.0
  0
LINE
  5
200
330
D6
100
AcDbEntity
  8
LAYER0016
  6
CONTINUOUS
 62
     3
100
AcDbLine
 10
558.5011097079881
 20
-44.50013952903204
 30
0.0
 11
558.4330729648724
 21
-43.20192113385109
 31
0.0
  0
LINE
  5
201
330
D6
100
AcDbEntity
  8
LAYER0016
  6
CONTINUOUS
 62
     3
100
AcDbLine
 10
551.5011097079881
 20
-44.50013952903201
 30
0.0
 11
551.5691464511041
 21
-43.20192113385106
 31
0.0
  0
ARC
  5
202
330
D6
100
AcDbEntity
  8
LAYER0016
  6
CONTINUOUS
 62
     3
100
AcDbCircle
 10
557.4710217578819
 20
-43.25234010116604
 30
0.0
 40
0.9633714741142343
100
AcDbArc
 50
2.999999999999788
 51
71.15103117240798
  0
ARC
  5
203
330
D6
100
AcDbEntity
  8
LAYER0016
  6
CONTINUOUS
 62
     3
100
AcDbCircle
 10
552.5311976580946
 20
-43.25234010116601
 30
0.0
 40
0.9633714741142343
100
AcDbArc
 50
108.8489688275916
 51
176.9999999999997
  0
ARC
  5
204
330
D6
100
AcDbEntity
  8
LAYER0016
  6
CONTINUOUS
 62
     3
100
AcDbCircle
 10
555.0011097079881
 20
-50.90013952903202
 30
0.0
 40
9.0
100
AcDbArc
 50
71.99999999999977
 51
107.9999999999998
  0
ENDBLK
  5
D8
330
D6
100
AcDbEntity
  8
0
100
AcDbBlockEnd
  0
BLOCK
  5
DA
330
D9
100
AcDbEntity
  8
0
100
AcDbBlockBegin
  2
DC_GROUP_13
 70
     0
 10
0.0
 20
0.0
 30
0.0
  3
DC_GROUP_13
  1

  0
LINE
  5
205
330
D9
100
AcDbEntity
  8
LAYER0016
  6
CONTINUOUS
 62
     3
100
AcDbLine
 10
448.8011097079883
 20
-45.50013952903204
 30
0.0
 11
441.2011097079884
 21
-45.50013952903201
 31
0.0
  0
LINE
  5
206
330
D9
100
AcDbEntity
  8
LAYER0016
  6
CONTINUOUS
 62
     3
100
AcDbLine
 10
448.8011097079883
 20
-44.50013952903204
 30
0.0
 11
441.2011097079884
 21
-44.50013952903201
 31
0.0
  0
LINE
  5
207
330
D9
100
AcDbEntity
  8
LAYER0016
  6
CONTINUOUS
 62
     3
100
AcDbLine
 10
448.8011097079883
 20
-44.50013952903204
 30
0.0
 11
448.8011097079883
 21
-45.50013952903204
 31
0.0
  0
LINE
  5
208
330
D9
100
AcDbEntity
  8
LAYER0016
  6
CONTINUOUS
 62
     3
100
AcDbLine
 10
441.2011097079884
 20
-44.50013952903201
 30
0.0
 11
441.2011097079884
 21
-45.50013952903201
 31
0.0
  0
LINE
  5
209
330
D9
100
AcDbEntity
  8
LAYER0016
  6
CONTINUOUS
 62
     3
100
AcDbLine
 10
445.0011097079883
 20
-44.50013952903201
 30
0.0
 11
445.2690589004195
 21
-45.50013952903201
 31
0.0
  0
LINE
  5
20A
330
D9
100
AcDbEntity
  8
LAYER0016
  6
CONTINUOUS
 62
     3
100
AcDbLine
 10
444.7331605155572
 20
-44.50013952903201
 30
0.0
 11
445.0011097079883
 21
-45.50013952903201
 31
0.0
  0
LINE
  5
20B
330
D9
100
AcDbEntity
  8
LAYER0016
  6
CONTINUOUS
 62
     3
100
AcDbLine
 10
448.5011097079883
 20
-44.50013952903204
 30
0.0
 11
448.4330729648724
 21
-43.20192113385109
 31
0.0
  0
LINE
  5
20C
330
D9
100
AcDbEntity
  8
LAYER0016
  6
CONTINUOUS
 62
     3
100
AcDbLine
 10
441.5011097079883
 20
-44.50013952903201
 30
0.0
 11
441.5691464511041
 21
-43.20192113385106
 31
0.0
  0
ARC
  5
20D
330
D9
100
AcDbEntity
  8
LAYER0016
  6
CONTINUOUS
 62
     3
100
AcDbCircle
 10
447.4710217578819
 20
-43.25234010116604
 30
0.0
 40
0.9633714741142343
100
AcDbArc
 50
2.999999999999763
 51
71.15103117240795
  0
ARC
  5
20E
330
D9
100
AcDbEntity
  8
LAYER0016
  6
CONTINUOUS
 62
     3
100
AcDbCircle
 10
442.5311976580946
 20
-43.25234010116601
 30
0.0
 40
0.9633714741142343
100
AcDbArc
 50
108.8489688275915
 51
176.9999999999997
  0
ARC
  5
20F
330
D9
100
AcDbEntity
  8
LAYER0016
  6
CONTINUOUS
 62
     3
100
AcDbCircle
 10
445.0011097079883
 20
-50.90013952903202
 30
0.0
 40
9.0
100
AcDbArc
 50
71.99999999999974
 51
107.9999999999997
  0
ENDBLK
  5
DB
330
D9
100
AcDbEntity
  8
0
100
AcDbBlockEnd
  0
BLOCK
  5
DD
330
DC
100
AcDbEntity
  8
0
100
AcDbBlockBegin
  2
DC_GROUP_14
 70
     0
 10
0.0
 20
0.0
 30
0.0
  3
DC_GROUP_14
  1

  0
CIRCLE
  5
210
330
DC
100
AcDbEntity
  8
LAYER0016
  6
CONTINUOUS
 62
     3
100
AcDbCircle
 10
432.0011097079883
 20
-55.50013952903014
 30
0.0
 40
2.807179676972449
  0
CIRCLE
  5
211
330
DC
100
AcDbEntity
  8
LAYER0016
  6
CONTINUOUS
 62
     3
100
AcDbCircle
 10
432.0011097079883
 20
-55.50013952903014
 30
0.0
 40
3.5
  0
LINE
  5
212
330
DC
100
AcDbEntity
  8
LAYER0016
  6
CONTINUOUS
 62
     3
100
AcDbLine
 10
430.2690589004193
 20
-55.50013952903014
 30
0.0
 11
431.1350843042038
 21
-57.00013952903014
 31
0.0
  0
LINE
  5
213
330
DC
100
AcDbEntity
  8
LAYER0016
  6
CONTINUOUS
 62
     3
100
AcDbLine
 10
431.1350843042038
 20
-57.00013952903014
 30
0.0
 11
432.8671351117727
 21
-57.00013952903014
 31
0.0
  0
LINE
  5
214
330
DC
100
AcDbEntity
  8
LAYER0016
  6
CONTINUOUS
 62
     3
100
AcDbLine
 10
432.8671351117727
 20
-57.00013952903014
 30
0.0
 11
433.7331605155572
 21
-55.50013952903014
 31
0.0
  0
LINE
  5
215
330
DC
100
AcDbEntity
  8
LAYER0016
  6
CONTINUOUS
 62
     3
100
AcDbLine
 10
433.7331605155572
 20
-55.50013952903014
 30
0.0
 11
432.8671351117727
 21
-54.00013952903014
 31
0.0
  0
LINE
  5
216
330
DC
100
AcDbEntity
  8
LAYER0016
  6
CONTINUOUS
 62
     3
100
AcDbLine
 10
432.8671351117727
 20
-54.00013952903014
 30
0.0
 11
431.1350843042038
 21
-54.00013952903014
 31
0.0
  0
LINE
  5
217
330
DC
100
AcDbEntity
  8
LAYER0016
  6
CONTINUOUS
 62
     3
100
AcDbLine
 10
431.1350843042038
 20
-54.00013952903014
 30
0.0
 11
430.2690589004193
 21
-55.50013952903014
 31
0.0
  0
CIRCLE
  5
218
330
DC
100
AcDbEntity
  8
LAYER0016
  6
CONTINUOUS
 62
     3
100
AcDbCircle
 10
432.0011097079883
 20
-55.50013952903014
 30
0.0
 40
3.800000000000001
  0
ENDBLK
  5
DE
330
DC
100
AcDbEntity
  8
0
100
AcDbBlockEnd
  0
BLOCK
  5
E0
330
DF
100
AcDbEntity
  8
0
100
AcDbBlockBegin
  2
DC_GROUP_15
 70
     0
 10
0.0
 20
0.0
 30
0.0
  3
DC_GROUP_15
  1

  0
LINE
  5
219
330
DF
100
AcDbEntity
  8
0
  6
DIVIDE
 62
     4
100
AcDbLine
 10
426.0011097079883
 20
-56.00013952902738
 30
0.0
 11
304.0011097079882
 21
-56.00013952902729
 31
0.0
  0
LINE
  5
21A
330
DF
100
AcDbEntity
  8
0
  6
DIVIDE
 62
     4
100
AcDbLine
 10
401.4629052128101
 20
-90.86802171073542
 30
0.0
 11
418.6285175573835
 21
-66.35298665632509
 31
0.0
  0
LINE
  5
21B
330
DF
100
AcDbEntity
  8
0
  6
DIVIDE
 62
     4
100
AcDbLine
 10
397.3671449913652
 20
-93.00013952898017
 30
0.0
 11
330.6350744246113
 21
-93.00013952898017
 31
0.0
  0
LINE
  5
21C
330
DF
100
AcDbEntity
  8
0
  6
DIVIDE
 62
     4
100
AcDbLine
 10
424.0011097079881
 20
-56.00013952902738
 30
0.0
 11
423.7367665022406
 21
-63.56993852243228
 31
0.0
  0
LINE
  5
21D
330
DF
100
AcDbEntity
  8
0
  6
DIVIDE
 62
     4
100
AcDbLine
 10
304.0011097079882
 20
-56.00013952902729
 30
0.0
 11
304.2654529137358
 21
-63.56993852243203
 31
0.0
  0
LINE
  5
21E
330
DF
100
AcDbEntity
  8
0
  6
DIVIDE
 62
     4
100
AcDbLine
 10
326.5393142031663
 20
-90.86802171073536
 30
0.0
 11
309.3737018585929
 21
-66.352986656325
 31
0.0
  0
LINE
  5
21F
330
DF
100
AcDbEntity
  8
0
  6
DIVIDE
 62
     4
100
AcDbLine
 10
306.2642345677739
 20
-65.50013952902724
 30
0.0
 11
421.7379848482025
 21
-65.50013952902724
 31
0.0
  0
ARC
  5
220
330
DF
100
AcDbEntity
  8
0
  6
DIVIDE
 62
     4
100
AcDbCircle
 10
421.7379848482025
 20
-63.50013952902727
 30
0.0
 40
2.0
100
AcDbArc
 50
270.0
 51
357.9999999999996
  0
ARC
  5
221
330
DF
100
AcDbEntity
  8
0
  6
DIVIDE
 62
     4
100
AcDbCircle
 10
306.2642345677739
 20
-63.50013952902741
 30
0.0
 40
2.0
100
AcDbArc
 50
182.0000000000004
 51
270.0
  0
ARC
  5
222
330
DF
100
AcDbEntity
  8
0
  6
DIVIDE
 62
     4
100
AcDbCircle
 10
397.3671449913652
 20
-88.00013952898017
 30
0.0
 40
5.0
100
AcDbArc
 50
270.0
 51
324.9999999999998
  0
ARC
  5
223
330
DF
100
AcDbEntity
  8
0
  6
DIVIDE
 62
     4
100
AcDbCircle
 10
330.6350744246113
 20
-88.00013952898017
 30
0.0
 40
5.0
100
AcDbArc
 50
214.9999999999999
 51
270.0
  0
ARC
  5
224
330
DF
100
AcDbEntity
  8
0
  6
DIVIDE
 62
     4
100
AcDbCircle
 10
420.2668216459614
 20
-67.50013952902721
 30
0.0
 40
2.0
100
AcDbArc
 50
90.0
 51
144.9999999999981
  0
ARC
  5
225
330
DF
100
AcDbEntity
  8
0
  6
DIVIDE
 62
     4
100
AcDbCircle
 10
307.735397770015
 20
-67.50013952902724
 30
0.0
 40
2.0
100
AcDbArc
 50
35.00000000000456
 51
90.0
  0
POINT
  5
226
330
DF
100
AcDbEntity
  8
0
  6
DIVIDE
 62
     4
100
AcDbPoint
 10
432.0011097079882
 20
-55.50013952903014
 30
0.0
  0
ENDBLK
  5
E1
330
DF
100
AcDbEntity
  8
0
100
AcDbBlockEnd
  0
ENDSEC
  0
SECTION
  2
ENTITIES
  0
LINE
  5
227
330
1F
100
AcDbEntity
  8
0
  6
CENTER
 62
     4
100
AcDbLine
 10
-458.8443428025843
 20
-244.3811744000887
 30
0.0
 11
-458.8443428025842
 21
200.8271432561179
 31
0.0
  0
LINE
  5
228
330
1F
100
AcDbEntity
  8
0
  6
CENTER
 62
     4
100
AcDbLine
 10
-210.7026898658769
 20
-244.3811744000886
 30
0.0
 11
-210.7026898658769
 21
91.27730784525482
 31
0.0
  0
LINE
  5
229
330
1F
100
AcDbEntity
  8
0
  6
CENTER
 62
     4
100
AcDbLine
 10
-458.8443428025842
 20
400.7140547596528
 30
0.0
 11
-458.8443428025842
 21
228.2837864463097
 31
0.0
  0
LINE
  5
22A
330
1F
100
AcDbEntity
  8
0
  6
CENTER
 62
     4
100
AcDbLine
 10
-578.9945726381071
 20
314.2154299193992
 30
0.0
 11
-358.3579927532919
 21
314.2154299193992
 31
0.0
  0
LINE
  5
22B
330
1F
100
AcDbEntity
  8
0
  6
CENTER
 62
     4
100
AcDbLine
 10
-223.764785396015
 20
380.610527433642
 30
0.0
 11
-223.764785396015
 21
271.8373115800637
 31
0.0
  0
LINE
  5
22C
330
1F
100
AcDbEntity
  8
0
  6
CENTER
 62
     4
100
AcDbLine
 10
-278.6386410711322
 20
327.4855029120999
 30
0.0
 11
-168.6293659464905
 21
327.4855029120999
 31
0.0
  0
LINE
  5
22D
330
1F
100
AcDbEntity
  8
0
  6
CENTER
 62
     4
100
AcDbLine
 10
-255.1549587188682
 20
-75.00013952907379
 30
0.0
 11
-164.6658768128694
 21
-75.00013952907379
 31
0.0
  0
LINE
  5
22E
330
1F
100
AcDbEntity
  8
0
  6
CENTER
 62
     4
100
AcDbLine
 10
-183.2026898658769
 20
-60.93853827660637
 30
0.0
 11
-183.2026898658769
 21
-87.44718345884523
 31
0.0
  0
LINE
  5
22F
330
1F
100
AcDbEntity
  8
0
  6
CENTER
 62
     4
100
AcDbLine
 10
-238.2026898658768
 20
-60.93853827660637
 30
0.0
 11
-238.2026898658768
 21
-87.44718345884517
 31
0.0
  0
LINE
  5
230
330
1F
100
AcDbEntity
  8
0
  6
CENTER
 62
     4
100
AcDbLine
 10
-263.7647853960149
 20
358.7494633931997
 30
0.0
 11
-263.7647853960149
 21
377.219179888045
 31
0.0
  0
LINE
  5
231
330
1F
100
AcDbEntity
  8
0
  6
CENTER
 62
     4
100
AcDbLine
 10
-254.5750302413759
 20
367.4855029120999
 30
0.0
 11
-273.4506745712728
 21
367.4855029120999
 31
0.0
  0
LINE
  5
232
330
1F
100
AcDbEntity
  8
0
  6
CENTER
 62
     4
100
AcDbLine
 10
-183.764785396015
 20
357.531679888045
 30
0.0
 11
-183.764785396015
 21
376.6102881354677
 31
0.0
  0
LINE
  5
233
330
1F
100
AcDbEntity
  8
0
  6
CENTER
 62
     4
100
AcDbLine
 10
-193.2799271485923
 20
367.4855029120999
 30
0.0
 11
-174.810210653747
 21
367.4855029120999
 31
0.0
  0
LINE
  5
234
330
1F
100
AcDbEntity
  8
0
  6
CENTER
 62
     4
100
AcDbLine
 10
-193.2799271485923
 20
287.4855029120999
 30
0.0
 11
-174.6072467362212
 21
287.4855029120999
 31
0.0
  0
LINE
  5
235
330
1F
100
AcDbEntity
  8
0
  6
CENTER
 62
     4
100
AcDbLine
 10
-183.764785396015
 20
296.8454685478389
 30
0.0
 11
-183.764785396015
 21
277.7668603004161
 31
0.0
  0
LINE
  5
236
330
1F
100
AcDbEntity
  8
0
  6
CENTER
 62
     4
100
AcDbLine
 10
-254.5750302413759
 20
287.4855029120999
 30
0.0
 11
-273.4506745712728
 21
287.4855029120999
 31
0.0
  0
LINE
  5
237
330
1F
100
AcDbEntity
  8
0
  6
CENTER
 62
     4
100
AcDbLine
 10
-263.7647853960149
 20
296.8454685478389
 30
0.0
 11
-263.7647853960149
 21
277.7668603004161
 31
0.0
  0
LINE
  5
238
330
1F
100
AcDbEntity
  8
0
  6
CENTER
 62
     4
100
AcDbLine
 10
-458.8443428025843
 20
-409.9823706507237
 30
0.0
 11
-458.8443428025843
 21
-285.7424439197168
 31
0.0
  0
LINE
  5
239
330
1F
100
AcDbEntity
  8
0
  6
CENTER
 62
     4
100
AcDbLine
 10
81.96395116190504
 20
-244.3811744000479
 30
0.0
 11
81.96395116190516
 21
200.8271432561588
 31
0.0
  0
LINE
  5
23A
330
1F
100
AcDbEntity
  8
0
  6
CENTER
 62
     4
100
AcDbLine
 10
500.0011097079882
 20
-244.3811744000478
 30
0.0
 11
500.0011097079882
 21
91.27730784529564
 31
0.0
  0
LINE
  5
23B
330
1F
100
AcDbEntity
  8
0
  6
CENTER
 62
     4
100
AcDbLine
 10
81.96395116190516
 20
400.7140547596529
 30
0.0
 11
81.96395116190516
 21
228.2837864463097
 31
0.0
  0
LINE
  5
23C
330
1F
100
AcDbEntity
  8
0
  6
CENTER
 62
     4
100
AcDbLine
 10
-38.18627867361784
 20
314.2154299193992
 30
0.0
 11
156.1232544344198
 21
314.2154299193992
 31
0.0
  0
LINE
  5
23D
330
1F
100
AcDbEntity
  8
0
  6
CENTER
 62
     4
100
AcDbLine
 10
405.6760656933992
 20
380.610527433642
 30
0.0
 11
405.6760656933992
 21
271.8373115800637
 31
0.0
  0
LINE
  5
23E
330
1F
100
AcDbEntity
  8
0
  6
CENTER
 62
     4
100
AcDbLine
 10
350.802210018282
 20
327.4855029120999
 30
0.0
 11
460.8114851429237
 21
327.4855029120999
 31
0.0
  0
LINE
  5
23F
330
1F
100
AcDbEntity
  8
0
  6
CENTER
 62
     4
100
AcDbLine
 10
365.6760656933992
 20
358.7494633931997
 30
0.0
 11
365.6760656933992
 21
377.219179888045
 31
0.0
  0
LINE
  5
240
330
1F
100
AcDbEntity
  8
0
  6
CENTER
 62
     4
100
AcDbLine
 10
374.8658208480383
 20
367.4855029120999
 30
0.0
 11
355.9901765181414
 21
367.4855029120999
 31
0.0
  0
LINE
  5
241
330
1F
100
AcDbEntity
  8
0
  6
CENTER
 62
     4
100
AcDbLine
 10
445.6760656933992
 20
357.531679888045
 30
0.0
 11
445.6760656933992
 21
376.6102881354677
 31
0.0
  0
LINE
  5
242
330
1F
100
AcDbEntity
  8
0
  6
CENTER
 62
     4
100
AcDbLine
 10
436.1609239408218
 20
367.4855029120999
 30
0.0
 11
454.6306404356673
 21
367.4855029120999
 31
0.0
  0
LINE
  5
243
330
1F
100
AcDbEntity
  8
0
  6
CENTER
 62
     4
100
AcDbLine
 10
436.1609239408218
 20
287.4855029120999
 30
0.0
 11
454.833604353193
 21
287.4855029120999
 31
0.0
  0
LINE
  5
244
330
1F
100
AcDbEntity
  8
0
  6
CENTER
 62
     4
100
AcDbLine
 10
445.6760656933992
 20
296.8454685478389
 30
0.0
 11
445.6760656933992
 21
277.7668603004161
 31
0.0
  0
LINE
  5
245
330
1F
100
AcDbEntity
  8
0
  6
CENTER
 62
     4
100
AcDbLine
 10
374.8658208480383
 20
287.4855029120999
 30
0.0
 11
355.9901765181414
 21
287.4855029120999
 31
0.0
  0
LINE
  5
246
330
1F
100
AcDbEntity
  8
0
  6
CENTER
 62
     4
100
AcDbLine
 10
365.6760656933992
 20
296.8454685478389
 30
0.0
 11
365.6760656933992
 21
277.7668603004161
 31
0.0
  0
LINE
  5
247
330
1F
100
AcDbEntity
  8
0
  6
CENTER
 62
     4
100
AcDbLine
 10
81.96395116190516
 20
-409.9823706507237
 30
0.0
 11
81.96395116190516
 21
-285.7424439197168
 31
0.0
  0
CIRCLE
  5
248
330
1F
100
AcDbEntity
  8
0
  6
CONTINUOUS
 62
     4
100
AcDbCircle
 10
-238.2026898658769
 20
-75.00013952907379
 30
0.0
 40
10.4775
  0
CIRCLE
  5
249
330
1F
100
AcDbEntity
  8
0
  6
CONTINUOUS
 62
     4
100
AcDbCircle
 10
-183.2026898658769
 20
-75.00013952907379
 30
0.0
 40
10.4775
  0
LINE
  5
24A
330
1F
100
AcDbEntity
  8
0
  6
CONTINUOUS
 62
     4
100
AcDbLine
 10
-519.2524728901881
 20
-105.5001395290739
 30
0.0
 11
-523.5453661090016
 21
-112.0001395290737
 31
0.0
  0
LINE
  5
24B
330
1F
100
AcDbEntity
  8
0
  6
CONTINUOUS
 62
     4
100
AcDbLine
 10
-519.2524728901881
 20
-112.0001395290736
 30
0.0
 11
-523.5453661090016
 21
-105.5001395290739
 31
0.0
  0
LINE
  5
24C
330
1F
100
AcDbEntity
  8
0
  6
CONTINUOUS
 62
     4
100
AcDbLine
 10
-513.5453661090017
 20
-105.5001395290739
 30
0.0
 11
-517.8382593278152
 21
-112.0001395290735
 31
0.0
  0
LINE
  5
24D
330
1F
100
AcDbEntity
  8
0
  6
CONTINUOUS
 62
     4
100
AcDbLine
 10
-513.5453661090012
 20
-112.0001395290733
 30
0.0
 11
-517.8382593278152
 21
-105.5001395290739
 31
0.0
  0
LINE
  5
24E
330
1F
100
AcDbEntity
  8
0
  6
CONTINUOUS
 62
     4
100
AcDbLine
 10
-451.8443428025842
 20
-207.0001395290743
 30
0.0
 11
-452.5943428025842
 21
-211.5001395290743
 31
0.0
  0
LINE
  5
24F
330
1F
100
AcDbEntity
  8
0
  6
CONTINUOUS
 62
     4
100
AcDbLine
 10
-452.5943428025842
 20
-211.5001395290743
 30
0.0
 11
-452.5943428025842
 21
-235.2501395290742
 31
0.0
  0
LINE
  5
250
330
1F
100
AcDbEntity
  8
0
  6
CONTINUOUS
 62
     4
100
AcDbLine
 10
-465.8443428025842
 20
-207.0001395290743
 30
0.0
 11
-465.0943428025842
 21
-211.5001395290743
 31
0.0
  0
LINE
  5
251
330
1F
100
AcDbEntity
  8
0
  6
CONTINUOUS
 62
     4
100
AcDbLine
 10
-465.0943428025842
 20
-211.5001395290743
 30
0.0
 11
-465.0943428025842
 21
-235.2501395290742
 31
0.0
  0
LINE
  5
252
330
1F
100
AcDbEntity
  8
0
  6
CONTINUOUS
 62
     4
100
AcDbLine
 10
-451.8443428025842
 20
-207.0001395290745
 30
0.0
 11
-452.5943428025842
 21
-211.5001395290745
 31
0.0
  0
LINE
  5
253
330
1F
100
AcDbEntity
  8
0
  6
CONTINUOUS
 62
     4
100
AcDbLine
 10
-452.5943428025842
 20
-211.5001395290745
 30
0.0
 11
-452.5943428025842
 21
-235.2501395290745
 31
0.0
  0
LINE
  5
254
330
1F
100
AcDbEntity
  8
0
  6
CONTINUOUS
 62
     4
100
AcDbLine
 10
-465.8443428025842
 20
-207.0001395290745
 30
0.0
 11
-465.0943428025842
 21
-211.5001395290745
 31
0.0
  0
LINE
  5
255
330
1F
100
AcDbEntity
  8
0
  6
CONTINUOUS
 62
     4
100
AcDbLine
 10
-465.0943428025842
 20
-211.5001395290745
 30
0.0
 11
-465.0943428025842
 21
-235.2501395290745
 31
0.0
  0
LINE
  5
256
330
1F
100
AcDbEntity
  8
0
  6
CONTINUOUS
 62
     4
100
AcDbLine
 10
-203.7026898658769
 20
-207.0001395290741
 30
0.0
 11
-204.4526898658769
 21
-211.5001395290741
 31
0.0
  0
LINE
  5
257
330
1F
100
AcDbEntity
  8
0
  6
CONTINUOUS
 62
     4
100
AcDbLine
 10
-204.4526898658769
 20
-211.5001395290741
 30
0.0
 11
-204.4526898658769
 21
-235.2501395290741
 31
0.0
  0
LINE
  5
258
330
1F
100
AcDbEntity
  8
0
  6
CONTINUOUS
 62
     4
100
AcDbLine
 10
-217.7026898658769
 20
-207.0001395290741
 30
0.0
 11
-216.9526898658769
 21
-211.5001395290741
 31
0.0
  0
LINE
  5
259
330
1F
100
AcDbEntity
  8
0
  6
CONTINUOUS
 62
     4
100
AcDbLine
 10
-216.9526898658769
 20
-211.5001395290741
 30
0.0
 11
-216.9526898658769
 21
-235.2501395290741
 31
0.0
  0
LINE
  5
25A
330
1F
100
AcDbEntity
  8
0
  6
CONTINUOUS
 62
     4
100
AcDbLine
 10
-203.7026898658769
 20
-207.0001395290743
 30
0.0
 11
-204.4526898658769
 21
-211.5001395290743
 31
0.0
  0
LINE
  5
25B
330
1F
100
AcDbEntity
  8
0
  6
CONTINUOUS
 62
     4
100
AcDbLine
 10
-204.4526898658769
 20
-211.5001395290743
 30
0.0
 11
-204.4526898658769
 21
-235.2501395290743
 31
0.0
  0
LINE
  5
25C
330
1F
100
AcDbEntity
  8
0
  6
CONTINUOUS
 62
     4
100
AcDbLine
 10
-217.7026898658769
 20
-207.0001395290743
 30
0.0
 11
-216.9526898658769
 21
-211.5001395290743
 31
0.0
  0
LINE
  5
25D
330
1F
100
AcDbEntity
  8
0
  6
CONTINUOUS
 62
     4
100
AcDbLine
 10
-216.9526898658769
 20
-211.5001395290743
 30
0.0
 11
-216.9526898658769
 21
-235.2501395290743
 31
0.0
  0
LINE
  5
25E
330
1F
100
AcDbEntity
  8
0
  6
CONTINUOUS
 62
     4
100
AcDbLine
 10
-498.3639048587133
 20
-311.0792420086842
 30
0.0
 11
-450.4791797652061
 21
-298.2485685900925
 31
0.0
  0
LINE
  5
25F
330
1F
100
AcDbEntity
  8
0
  6
CONTINUOUS
 62
     4
100
AcDbLine
 10
-420.7354636553337
 20
-295.4551447806019
 30
0.0
 11
-467.2095058399623
 21
-307.9078268529831
 31
0.0
  0
LINE
  5
260
330
1F
100
AcDbEntity
  8
0
  6
CONTINUOUS
 62
     4
100
AcDbLine
 10
-450.4791797652061
 20
-298.2485685900925
 30
0.0
 11
-467.2095058399623
 21
-307.9078268529831
 31
0.0
  0
LINE
  5
261
330
1F
100
AcDbEntity
  8
0
  6
CONTINUOUS
 62
     4
100
AcDbLine
 10
21.55582107430121
 20
-105.5001395290331
 30
0.0
 11
17.26292785548765
 21
-112.0001395290329
 31
0.0
  0
LINE
  5
262
330
1F
100
AcDbEntity
  8
0
  6
CONTINUOUS
 62
     4
100
AcDbLine
 10
21.55582107430121
 20
-112.0001395290328
 30
0.0
 11
17.26292785548765
 21
-105.5001395290331
 31
0.0
  0
LINE
  5
263
330
1F
100
AcDbEntity
  8
0
  6
CONTINUOUS
 62
     4
100
AcDbLine
 10
27.26292785548753
 20
-105.5001395290331
 30
0.0
 11
22.97003463667409
 21
-112.0001395290327
 31
0.0
  0
LINE
  5
264
330
1F
100
AcDbEntity
  8
0
  6
CONTINUOUS
 62
     4
100
AcDbLine
 10
27.26292785548816
 20
-112.0001395290325
 30
0.0
 11
22.97003463667409
 21
-105.5001395290331
 31
0.0
  0
LINE
  5
265
330
1F
100
AcDbEntity
  8
0
  6
CONTINUOUS
 62
     4
100
AcDbLine
 10
88.96395116190516
 20
-207.0001395290335
 30
0.0
 11
88.21395116190516
 21
-211.5001395290335
 31
0.0
  0
LINE
  5
266
330
1F
100
AcDbEntity
  8
0
  6
CONTINUOUS
 62
     4
100
AcDbLine
 10
88.21395116190516
 20
-211.5001395290335
 30
0.0
 11
88.21395116190516
 21
-235.2501395290334
 31
0.0
  0
LINE
  5
267
330
1F
100
AcDbEntity
  8
0
  6
CONTINUOUS
 62
     4
100
AcDbLine
 10
74.96395116190516
 20
-207.0001395290335
 30
0.0
 11
75.71395116190516
 21
-211.5001395290335
 31
0.0
  0
LINE
  5
268
330
1F
100
AcDbEntity
  8
0
  6
CONTINUOUS
 62
     4
100
AcDbLine
 10
75.71395116190516
 20
-211.5001395290335
 30
0.0
 11
75.71395116190516
 21
-235.2501395290334
 31
0.0
  0
LINE
  5
269
330
1F
100
AcDbEntity
  8
0
  6
CONTINUOUS
 62
     4
100
AcDbLine
 10
88.96395116190516
 20
-207.0001395290337
 30
0.0
 11
88.21395116190516
 21
-211.5001395290337
 31
0.0
  0
LINE
  5
26A
330
1F
100
AcDbEntity
  8
0
  6
CONTINUOUS
 62
     4
100
AcDbLine
 10
88.21395116190516
 20
-211.5001395290337
 30
0.0
 11
88.21395116190516
 21
-235.2501395290337
 31
0.0
  0
LINE
  5
26B
330
1F
100
AcDbEntity
  8
0
  6
CONTINUOUS
 62
     4
100
AcDbLine
 10
74.96395116190516
 20
-207.0001395290337
 30
0.0
 11
75.71395116190516
 21
-211.5001395290337
 31
0.0
  0
LINE
  5
26C
330
1F
100
AcDbEntity
  8
0
  6
CONTINUOUS
 62
     4
100
AcDbLine
 10
75.71395116190516
 20
-211.5001395290337
 30
0.0
 11
75.71395116190516
 21
-235.2501395290337
 31
0.0
  0
LINE
  5
26D
330
1F
100
AcDbEntity
  8
0
  6
CONTINUOUS
 62
     4
100
AcDbLine
 10
507.0011097079883
 20
-207.0001395290333
 30
0.0
 11
506.2511097079883
 21
-211.5001395290333
 31
0.0
  0
LINE
  5
26E
330
1F
100
AcDbEntity
  8
0
  6
CONTINUOUS
 62
     4
100
AcDbLine
 10
506.2511097079883
 20
-211.5001395290333
 30
0.0
 11
506.2511097079883
 21
-235.2501395290333
 31
0.0
  0
LINE
  5
26F
330
1F
100
AcDbEntity
  8
0
  6
CONTINUOUS
 62
     4
100
AcDbLine
 10
493.0011097079883
 20
-207.0001395290333
 30
0.0
 11
493.7511097079883
 21
-211.5001395290333
 31
0.0
  0
LINE
  5
270
330
1F
100
AcDbEntity
  8
0
  6
CONTINUOUS
 62
     4
100
AcDbLine
 10
493.7511097079883
 20
-211.5001395290333
 30
0.0
 11
493.7511097079883
 21
-235.2501395290333
 31
0.0
  0
LINE
  5
271
330
1F
100
AcDbEntity
  8
0
  6
CONTINUOUS
 62
     4
100
AcDbLine
 10
507.0011097079883
 20
-207.0001395290335
 30
0.0
 11
506.2511097079883
 21
-211.5001395290335
 31
0.0
  0
LINE
  5
272
330
1F
100
AcDbEntity
  8
0
  6
CONTINUOUS
 62
     4
100
AcDbLine
 10
506.2511097079883
 20
-211.5001395290335
 30
0.0
 11
506.2511097079883
 21
-235.2501395290335
 31
0.0
  0
LINE
  5
273
330
1F
100
AcDbEntity
  8
0
  6
CONTINUOUS
 62
     4
100
AcDbLine
 10
493.0011097079883
 20
-207.0001395290335
 30
0.0
 11
493.7511097079883
 21
-211.5001395290335
 31
0.0
  0
LINE
  5
274
330
1F
100
AcDbEntity
  8
0
  6
CONTINUOUS
 62
     4
100
AcDbLine
 10
493.7511097079883
 20
-211.5001395290335
 30
0.0
 11
493.7511097079883
 21
-235.2501395290335
 31
0.0
  0
LINE
  5
275
330
1F
100
AcDbEntity
  8
0
  6
CONTINUOUS
 62
     4
100
AcDbLine
 10
42.44438910577608
 20
-311.0792420086842
 30
0.0
 11
90.32911419928328
 21
-298.2485685900925
 31
0.0
  0
LINE
  5
276
330
1F
100
AcDbEntity
  8
0
  6
CONTINUOUS
 62
     4
100
AcDbLine
 10
120.0728303091557
 20
-295.4551447806019
 30
0.0
 11
73.59878812452709
 21
-307.9078268529831
 31
0.0
  0
LINE
  5
277
330
1F
100
AcDbEntity
  8
0
  6
CONTINUOUS
 62
     4
100
AcDbLine
 10
90.32911419928328
 20
-298.2485685900925
 30
0.0
 11
73.59878812452709
 21
-307.9078268529831
 31
0.0
  0
LINE
  5
278
330
1F
100
AcDbEntity
  8
0
  6
DIVIDE
 62
     4
100
AcDbLine
 10
-380.0920826621453
 20
187.999860470926
 30
0.0
 11
-557.596602943023
 21
187.999860470926
 31
0.0
  0
ARC
  5
279
330
1F
100
AcDbEntity
  8
0
  6
DIVIDE
 62
     4
100
AcDbCircle
 10
-380.0920826621453
 20
181.9998604709257
 30
0.0
 40
6.0
100
AcDbArc
 50
1.499999999998375
 51
90.0
  0
ARC
  5
27A
330
1F
100
AcDbEntity
  8
0
  6
DIVIDE
 62
     4
100
AcDbCircle
 10
-557.596602943023
 20
181.999860470926
 30
0.0
 40
6.0
100
AcDbArc
 50
90.0
 51
178.4999999999995
  0
LINE
  5
27B
330
1F
100
AcDbEntity
  8
0
  6
DIVIDE
 62
     4
100
AcDbLine
 10
-372.7137258268692
 20
129.4410808727209
 30
0.0
 11
-374.094138712292
 21
182.1569221607729
 31
0.0
  0
LINE
  5
27C
330
1F
100
AcDbEntity
  8
0
  6
DIVIDE
 62
     4
100
AcDbLine
 10
-563.5945468928763
 20
182.1569221607733
 30
0.0
 11
-564.9749597782992
 21
129.4410808727212
 31
0.0
  0
LINE
  5
27D
330
1F
100
AcDbEntity
  8
0
  6
DIVIDE
 62
     4
100
AcDbLine
 10
160.7162113023439
 20
187.9998604709668
 30
0.0
 11
-16.78830897853373
 21
187.9998604709668
 31
0.0
  0
ARC
  5
27E
330
1F
100
AcDbEntity
  8
0
  6
DIVIDE
 62
     4
100
AcDbCircle
 10
160.7162113023439
 20
181.9998604709666
 30
0.0
 40
6.0
100
AcDbArc
 50
1.499999999998375
 51
90.0
  0
ARC
  5
27F
330
1F
100
AcDbEntity
  8
0
  6
DIVIDE
 62
     4
100
AcDbCircle
 10
-16.78830897853373
 20
181.9998604709668
 30
0.0
 40
6.0
100
AcDbArc
 50
90.0
 51
178.4999999999995
  0
LINE
  5
280
330
1F
100
AcDbEntity
  8
0
  6
DIVIDE
 62
     4
100
AcDbLine
 10
168.0945681376201
 20
129.4410808727617
 30
0.0
 11
166.7141552521973
 21
182.1569221608137
 31
0.0
  0
LINE
  5
281
330
1F
100
AcDbEntity
  8
0
  6
DIVIDE
 62
     4
100
AcDbLine
 10
-22.78625292838706
 20
182.1569221608141
 30
0.0
 11
-24.16666581380986
 21
129.441080872762
 31
0.0
  0
LINE
  5
282
330
1F
100
AcDbEntity
  8
0
  6
DIVIDE
 62
     4
100
AcDbLine
 10
259.3240661573627
 20
-75.00013952903332
 30
0.0
 11
280.6338290152423
 21
-75.00013952903332
 31
0.0
  0
LINE
  5
283
330
1F
100
AcDbEntity
  8
0
  6
CONTINUOUS
 62
     3
100
AcDbLine
 10
-228.2026898658769
 20
-181.0001395290743
 30
0.0
 11
-228.2026898658769
 21
-184.5001395290741
 31
0.0
  0
LINE
  5
284
330
1F
100
AcDbEntity
  8
0
  6
CONTINUOUS
 62
     3
100
AcDbLine
 10
-193.2026898658769
 20
-181.0001395290743
 30
0.0
 11
-193.2026898658769
 21
-184.5001395290741
 31
0.0
  0
LINE
  5
285
330
1F
100
AcDbEntity
  8
0
  6
CONTINUOUS
 62
     3
100
AcDbLine
 10
-189.7026898658771
 20
-184.5001395290741
 30
0.0
 11
-231.7026898658769
 21
-184.5001395290741
 31
0.0
  0
LINE
  5
286
330
1F
100
AcDbEntity
  8
0
  6
CONTINUOUS
 62
     3
100
AcDbLine
 10
-189.7026898658771
 20
-200.5001395290741
 30
0.0
 11
-231.7026898658769
 21
-200.5001395290741
 31
0.0
  0
LINE
  5
287
330
1F
100
AcDbEntity
  8
0
  6
CONTINUOUS
 62
     3
100
AcDbLine
 10
-232.7026898658769
 20
-185.5001395290741
 30
0.0
 11
-232.7026898658769
 21
-199.5001395290741
 31
0.0
  0
LINE
  5
288
330
1F
100
AcDbEntity
  8
0
  6
CONTINUOUS
 62
     3
100
AcDbLine
 10
-188.7026898658771
 20
-185.5001395290741
 30
0.0
 11
-188.7026898658771
 21
-199.5001395290741
 31
0.0
  0
LINE
  5
289
330
1F
100
AcDbEntity
  8
0
  6
CONTINUOUS
 62
     3
100
AcDbLine
 10
-285.7026898658769
 20
-53.00013952907379
 30
0.0
 11
-135.7026898658769
 21
-53.00013952907379
 31
0.0
  0
LINE
  5
28A
330
1F
100
AcDbEntity
  8
0
  6
CONTINUOUS
 62
     3
100
AcDbLine
 10
-558.8443428025842
 20
389.2154299193992
 30
0.0
 11
-378.8443428025842
 21
389.2154299193992
 31
0.0
  0
LINE
  5
28B
330
1F
100
AcDbEntity
  8
0
  6
CONTINUOUS
 62
     3
100
AcDbLine
 10
-558.8443428025842
 20
239.2154299193992
 30
0.0
 11
-378.8443428025842
 21
239.2154299193992
 31
0.0
  0
LINE
  5
28C
330
1F
100
AcDbEntity
  8
0
  6
CONTINUOUS
 62
     3
100
AcDbLine
 10
-368.8443428025842
 20
249.2154299193992
 30
0.0
 11
-368.8443428025842
 21
379.2154299193992
 31
0.0
  0
LINE
  5
28D
330
1F
100
AcDbEntity
  8
0
  6
CONTINUOUS
 62
     3
100
AcDbLine
 10
-568.8443428025842
 20
249.2154299193992
 30
0.0
 11
-568.8443428025842
 21
379.2154299193992
 31
0.0
  0
ARC
  5
28E
330
1F
100
AcDbEntity
  8
0
  6
CONTINUOUS
 62
     3
100
AcDbCircle
 10
-558.8443428025842
 20
249.2154299193992
 30
0.0
 40
10.0
100
AcDbArc
 50
180.0
 51
270.0
  0
ARC
  5
28F
330
1F
100
AcDbEntity
  8
0
  6
CONTINUOUS
 62
     3
100
AcDbCircle
 10
-558.8443428025842
 20
379.2154299193992
 30
0.0
 40
10.0
100
AcDbArc
 50
90.0
 51
180.0
  0
ARC
  5
290
330
1F
100
AcDbEntity
  8
0
  6
CONTINUOUS
 62
     3
100
AcDbCircle
 10
-378.8443428025842
 20
379.2154299193992
 30
0.0
 40
10.0
100
AcDbArc
 50
0.0
 51
90.0
  0
ARC
  5
291
330
1F
100
AcDbEntity
  8
0
  6
CONTINUOUS
 62
     3
100
AcDbCircle
 10
-378.8443428025842
 20
249.2154299193992
 30
0.0
 40
10.0
100
AcDbArc
 50
270.0
 51
0.0
  0
CIRCLE
  5
292
330
1F
100
AcDbEntity
  8
0
  6
CONTINUOUS
 62
     3
100
AcDbCircle
 10
-223.764785396015
 20
327.4855029120999
 30
0.0
 40
4.499999999997442
  0
CIRCLE
  5
293
330
1F
100
AcDbEntity
  8
0
  6
CONTINUOUS
 62
     3
100
AcDbCircle
 10
-223.764785396015
 20
327.4855029120999
 30
0.0
 40
6.999999999999773
  0
CIRCLE
  5
294
330
1F
100
AcDbEntity
  8
0
  6
CONTINUOUS
 62
     3
100
AcDbCircle
 10
-223.764785396015
 20
327.4855029120999
 30
0.0
 40
21.99999999999989
  0
CIRCLE
  5
295
330
1F
100
AcDbEntity
  8
0
  6
CONTINUOUS
 62
     3
100
AcDbCircle
 10
-223.764785396015
 20
327.4855029120999
 30
0.0
 40
8.000000000000057
  0
LINE
  5
296
330
1F
100
AcDbEntity
  8
0
  6
CONTINUOUS
 62
     3
100
AcDbLine
 10
-380.0920826621453
 20
77.99986047092597
 30
0.0
 11
-557.596602943023
 21
77.99986047092597
 31
0.0
  0
ARC
  5
297
330
1F
100
AcDbEntity
  8
0
  6
CONTINUOUS
 62
     3
100
AcDbCircle
 10
-380.0920826621453
 20
71.9998604709258
 30
0.0
 40
6.0
100
AcDbArc
 50
1.499999999998375
 51
90.0
  0
LINE
  5
298
330
1F
100
AcDbEntity
  8
0
  6
CONTINUOUS
 62
     3
100
AcDbLine
 10
-371.1431089283967
 20
-40.53835862581262
 30
0.0
 11
-374.094138712292
 21
72.15692216077281
 31
0.0
  0
LINE
  5
299
330
1F
100
AcDbEntity
  8
0
  6
CONTINUOUS
 62
     3
100
AcDbLine
 10
-368.8443428025842
 20
-52.00013952907436
 30
0.0
 11
-369.0552011101676
 21
-43.9477856324858
 31
0.0
  0
ARC
  5
29A
330
1F
100
AcDbEntity
  8
0
  6
CONTINUOUS
 62
     3
100
AcDbCircle
 10
-371.054515760118
 20
-44.00013952912745
 30
0.0
 40
2.0
100
AcDbArc
 50
1.500000000742695
 51
90.0
  0
ARC
  5
29B
330
1F
100
AcDbEntity
  8
0
  6
CONTINUOUS
 62
     3
100
AcDbCircle
 10
-369.1437942784456
 20
-40.48600472919684
 30
0.0
 40
2.0
100
AcDbArc
 50
181.5000000000003
 51
241.4659873453205
  0
LINE
  5
29C
330
1F
100
AcDbEntity
  8
0
  6
CONTINUOUS
 62
     3
100
AcDbLine
 10
-563.5945468928763
 20
72.15692216077326
 30
0.0
 11
-566.5455766767717
 21
-40.53835862581222
 31
0.0
  0
ARC
  5
29D
330
1F
100
AcDbEntity
  8
0
  6
CONTINUOUS
 62
     3
100
AcDbCircle
 10
-557.596602943023
 20
71.99986047092597
 30
0.0
 40
6.0
100
AcDbArc
 50
90.0
 51
178.4999999999995
  0
LINE
  5
29E
330
1F
100
AcDbEntity
  8
0
  6
CONTINUOUS
 62
     3
100
AcDbLine
 10
-568.8443428025843
 20
-52.00013952907436
 30
0.0
 11
-568.6334844950014
 21
-43.94778563251207
 31
0.0
  0
ARC
  5
29F
330
1F
100
AcDbEntity
  8
0
  6
CONTINUOUS
 62
     3
100
AcDbCircle
 10
-566.6341698450503
 20
-44.00013952912745
 30
0.0
 40
2.0
100
AcDbArc
 50
90.0
 51
178.5000000000103
  0
ARC
  5
2A0
330
1F
100
AcDbEntity
  8
0
  6
CONTINUOUS
 62
     3
100
AcDbCircle
 10
-568.5448913267227
 20
-40.48600472919684
 30
0.0
 40
2.0
100
AcDbArc
 50
298.5340126546895
 51
358.5000000000103
  0
LINE
  5
2A1
330
1F
100
AcDbEntity
  8
0
  6
CONTINUOUS
 62
     3
100
AcDbLine
 10
-566.3219955411638
 20
-32.00013952907402
 30
0.0
 11
-547.8367141669252
 21
-32.00013952907402
 31
0.0
  0
LINE
  5
2A2
330
1F
100
AcDbEntity
  8
0
  6
CONTINUOUS
 62
     3
100
AcDbLine
 10
-371.054515760118
 20
-42.00013952912654
 30
0.0
 11
-566.6341698450503
 21
-42.00013952912654
 31
0.0
  0
LINE
  5
2A3
330
1F
100
AcDbEntity
  8
0
  6
CONTINUOUS
 62
     3
100
AcDbLine
 10
-371.3666900640044
 20
-32.00013952907402
 30
0.0
 11
-389.851971438243
 21
-32.00013952907402
 31
0.0
  0
LINE
  5
2A4
330
1F
100
AcDbEntity
  8
0
  6
CONTINUOUS
 62
     3
100
AcDbLine
 10
-280.4528939561702
 20
72.15692216077309
 30
0.0
 11
-283.4039237399598
 21
-40.53835862181249
 31
0.0
  0
LINE
  5
2A5
330
1F
100
AcDbEntity
  8
0
  6
CONTINUOUS
 62
     3
100
AcDbLine
 10
-285.7026898658769
 20
-52.00013952907379
 30
0.0
 11
-285.4918315582931
 21
-43.94778563247
 31
0.0
  0
LINE
  5
2A6
330
1F
100
AcDbEntity
  8
0
  6
CONTINUOUS
 62
     3
100
AcDbLine
 10
-137.9128628234118
 20
-42.00013952908573
 30
0.0
 11
-283.4925169083419
 21
-42.00013952908573
 31
0.0
  0
ARC
  5
2A7
330
1F
100
AcDbEntity
  8
0
  6
CONTINUOUS
 62
     3
100
AcDbCircle
 10
-283.4925169083419
 20
-44.00013952908584
 30
0.0
 40
2.0
100
AcDbArc
 50
90.0
 51
178.4999999999973
  0
ARC
  5
2A8
330
1F
100
AcDbEntity
  8
0
  6
CONTINUOUS
 62
     3
100
AcDbCircle
 10
-285.4032383899109
 20
-40.48600472519665
 30
0.0
 40
2.0
100
AcDbArc
 50
298.5340126262903
 51
358.4999999999973
  0
LINE
  5
2A9
330
1F
100
AcDbEntity
  8
0
  6
CONTINUOUS
 62
     3
100
AcDbLine
 10
-283.1803426044565
 20
-32.00013952907379
 30
0.0
 11
-264.695061230218
 21
-32.00013952907379
 31
0.0
  0
LINE
  5
2AA
330
1F
100
AcDbEntity
  8
0
  6
CONTINUOUS
 62
     3
100
AcDbLine
 10
-135.7026898658769
 20
-52.00013952907391
 30
0.0
 11
-135.9135481734608
 21
-43.94778563246409
 31
0.0
  0
ARC
  5
2AB
330
1F
100
AcDbEntity
  8
0
  6
CONTINUOUS
 62
     3
100
AcDbCircle
 10
-137.9128628234118
 20
-44.00013952908584
 30
0.0
 40
2.0
100
AcDbArc
 50
1.500000000172552
 51
90.0
  0
ARC
  5
2AC
330
1F
100
AcDbEntity
  8
0
  6
CONTINUOUS
 62
     3
100
AcDbCircle
 10
-136.002141341843
 20
-40.48600472519665
 30
0.0
 40
2.0
100
AcDbArc
 50
181.4999999999994
 51
241.4659873737091
  0
LINE
  5
2AD
330
1F
100
AcDbEntity
  8
0
  6
CONTINUOUS
 62
     3
100
AcDbLine
 10
-140.9524857755837
 20
72.15692216077349
 30
0.0
 11
-138.0014559917942
 21
-40.53835862181238
 31
0.0
  0
ARC
  5
2AE
330
1F
100
AcDbEntity
  8
0
  6
CONTINUOUS
 62
     3
100
AcDbCircle
 10
-146.9504297254369
 20
71.99986047092654
 30
0.0
 40
6.0
100
AcDbArc
 50
1.499999999998375
 51
90.0
  0
LINE
  5
2AF
330
1F
100
AcDbEntity
  8
0
  6
CONTINUOUS
 62
     3
100
AcDbLine
 10
-274.4549500063168
 20
77.99986047092631
 30
0.0
 11
-146.9504297254369
 21
77.99986047092631
 31
0.0
  0
ARC
  5
2B0
330
1F
100
AcDbEntity
  8
0
  6
CONTINUOUS
 62
     3
100
AcDbCircle
 10
-274.4549500063168
 20
71.99986047092654
 30
0.0
 40
6.0
100
AcDbArc
 50
90.0
 51
178.500000000006
  0
LINE
  5
2B1
330
1F
100
AcDbEntity
  8
0
  6
CONTINUOUS
 62
     3
100
AcDbLine
 10
-138.2250371272972
 20
-32.00013952907379
 30
0.0
 11
-164.2103185015359
 21
-32.00013952907379
 31
0.0
  0
LINE
  5
2B2
330
1F
100
AcDbEntity
  8
0
  6
CONTINUOUS
 62
     3
100
AcDbLine
 10
-378.8443428025842
 20
386.9549418736722
 30
0.0
 11
-558.8443428025842
 21
386.9549418736722
 31
0.0
  0
LINE
  5
2B3
330
1F
100
AcDbEntity
  8
0
  6
CONTINUOUS
 62
     3
100
AcDbLine
 10
-376.0045007494959
 20
265.2107017012659
 30
0.0
 11
-394.8396145844508
 21
246.375587866311
 31
0.0
  0
LINE
  5
2B4
330
1F
100
AcDbEntity
  8
0
  6
CONTINUOUS
 62
     3
100
AcDbLine
 10
-374.2471414366152
 20
269.4533423883852
 30
0.0
 11
-374.2471414366152
 21
358.9775174504132
 31
0.0
  0
LINE
  5
2B5
330
1F
100
AcDbEntity
  8
0
  6
CONTINUOUS
 62
     3
100
AcDbLine
 10
-399.0822552715701
 20
383.8126312853681
 30
0.0
 11
-538.6064303335982
 21
383.8126312853681
 31
0.0
  0
LINE
  5
2B6
330
1F
100
AcDbEntity
  8
0
  6
CONTINUOUS
 62
     3
100
AcDbLine
 10
-563.4415441685532
 20
358.9775174504132
 30
0.0
 11
-563.4415441685532
 21
269.4533423883852
 31
0.0
  0
LINE
  5
2B7
330
1F
100
AcDbEntity
  8
0
  6
CONTINUOUS
 62
     3
100
AcDbLine
 10
-538.6064303335982
 20
244.6182285534303
 30
0.0
 11
-399.0822552715701
 21
244.6182285534303
 31
0.0
  0
LINE
  5
2B8
330
1F
100
AcDbEntity
  8
0
  6
CONTINUOUS
 62
     3
100
AcDbLine
 10
-393.6464925601598
 20
243.4951364937001
 30
0.0
 11
-373.1240493768851
 21
264.0175796769749
 31
0.0
  0
LINE
  5
2B9
330
1F
100
AcDbEntity
  8
0
  6
CONTINUOUS
 62
     3
100
AcDbLine
 10
-376.0045007494959
 20
363.2201581375324
 30
0.0
 11
-394.8396145844507
 21
382.0552719724874
 31
0.0
  0
LINE
  5
2BA
330
1F
100
AcDbEntity
  8
0
  6
CONTINUOUS
 62
     3
100
AcDbLine
 10
-393.6464925601598
 20
384.9357233450983
 30
0.0
 11
-373.1240493768851
 21
364.4132801618235
 31
0.0
  0
ARC
  5
2BB
330
1F
100
AcDbEntity
  8
0
  6
CONTINUOUS
 62
     3
100
AcDbCircle
 10
-397.8891332472791
 20
380.6930826579789
 30
0.0
 40
6.0
100
AcDbArc
 50
44.99999999999981
 51
90.0
  0
ARC
  5
2BC
330
1F
100
AcDbEntity
  8
0
  6
CONTINUOUS
 62
     3
100
AcDbCircle
 10
-558.8443428025842
 20
379.2154299193992
 30
0.0
 40
7.74
100
AcDbArc
 50
90.0
 51
180.0
  0
LINE
  5
2BD
330
1F
100
AcDbEntity
  8
0
  6
CONTINUOUS
 62
     3
100
AcDbLine
 10
-561.6841848556725
 20
363.2201581375323
 30
0.0
 11
-542.8490710207174
 21
382.0552719724874
 31
0.0
  0
LINE
  5
2BE
330
1F
100
AcDbEntity
  8
0
  6
CONTINUOUS
 62
     3
100
AcDbLine
 10
-544.0421930450085
 20
384.9357233450983
 30
0.0
 11
-564.564636228283
 21
364.4132801618235
 31
0.0
  0
ARC
  5
2BF
330
1F
100
AcDbEntity
  8
0
  6
CONTINUOUS
 62
     3
100
AcDbCircle
 10
-560.3219955411638
 20
360.1706394747041
 30
0.0
 40
6.0
100
AcDbArc
 50
135.0
 51
180.0
  0
ARC
  5
2C0
330
1F
100
AcDbEntity
  8
0
  6
CONTINUOUS
 62
     3
100
AcDbCircle
 10
-539.799552357889
 20
380.6930826579789
 30
0.0
 40
6.0
100
AcDbArc
 50
90.0
 51
135.0
  0
LINE
  5
2C1
330
1F
100
AcDbEntity
  8
0
  6
CONTINUOUS
 62
     3
100
AcDbLine
 10
-561.6841848556724
 20
265.2107017012659
 30
0.0
 11
-542.8490710207174
 21
246.375587866311
 31
0.0
  0
LINE
  5
2C2
330
1F
100
AcDbEntity
  8
0
  6
CONTINUOUS
 62
     3
100
AcDbLine
 10
-544.0421930450085
 20
243.4951364937001
 30
0.0
 11
-564.564636228283
 21
264.0175796769749
 31
0.0
  0
ARC
  5
2C3
330
1F
100
AcDbEntity
  8
0
  6
CONTINUOUS
 62
     3
100
AcDbCircle
 10
-560.3219955411638
 20
268.260220364094
 30
0.0
 40
6.0
100
AcDbArc
 50
180.0
 51
225.0
  0
ARC
  5
2C4
330
1F
100
AcDbEntity
  8
0
  6
CONTINUOUS
 62
     3
100
AcDbCircle
 10
-538.6064303335982
 20
377.8126312853681
 30
0.0
 40
6.0
100
AcDbArc
 50
90.0
 51
134.9999999999996
  0
ARC
  5
2C5
330
1F
100
AcDbEntity
  8
0
  6
CONTINUOUS
 62
     3
100
AcDbCircle
 10
-557.4415441685532
 20
358.9775174504132
 30
0.0
 40
6.0
100
AcDbArc
 50
135.0000000000004
 51
180.0
  0
ARC
  5
2C6
330
1F
100
AcDbEntity
  8
0
  6
CONTINUOUS
 62
     3
100
AcDbCircle
 10
-557.4415441685532
 20
269.4533423883852
 30
0.0
 40
6.0
100
AcDbArc
 50
180.0
 51
225.0000000000004
  0
ARC
  5
2C7
330
1F
100
AcDbEntity
  8
0
  6
CONTINUOUS
 62
     3
100
AcDbCircle
 10
-538.6064303335982
 20
250.6182285534303
 30
0.0
 40
6.0
100
AcDbArc
 50
224.9999999999996
 51
270.0
  0
ARC
  5
2C8
330
1F
100
AcDbEntity
  8
0
  6
CONTINUOUS
 62
     3
100
AcDbCircle
 10
-399.0822552715701
 20
250.6182285534303
 30
0.0
 40
6.0
100
AcDbArc
 50
270.0
 51
314.9999999999997
  0
ARC
  5
2C9
330
1F
100
AcDbEntity
  8
0
  6
CONTINUOUS
 62
     3
100
AcDbCircle
 10
-380.2471414366152
 20
269.4533423883852
 30
0.0
 40
6.0
100
AcDbArc
 50
315.0000000000002
 51
0.0
  0
ARC
  5
2CA
330
1F
100
AcDbEntity
  8
0
  6
CONTINUOUS
 62
     3
100
AcDbCircle
 10
-380.2471414366152
 20
358.9775174504132
 30
0.0
 40
6.0
100
AcDbArc
 50
0.0
 51
44.99999999999981
  0
ARC
  5
2CB
330
1F
100
AcDbEntity
  8
0
  6
CONTINUOUS
 62
     3
100
AcDbCircle
 10
-399.0822552715701
 20
377.8126312853681
 30
0.0
 40
6.0
100
AcDbArc
 50
44.99999999999972
 51
90.0
  0
ARC
  5
2CC
330
1F
100
AcDbEntity
  8
0
  6
CONTINUOUS
 62
     3
100
AcDbCircle
 10
-378.8443428025842
 20
379.2154299193992
 30
0.0
 40
7.74
100
AcDbArc
 50
0.0
 51
90.0
  0
LINE
  5
2CD
330
1F
100
AcDbEntity
  8
0
  6
CONTINUOUS
 62
     3
100
AcDbLine
 10
-371.1048308483112
 20
249.2154299193992
 30
0.0
 11
-371.1048308483112
 21
379.2154299193992
 31
0.0
  0
ARC
  5
2CE
330
1F
100
AcDbEntity
  8
0
  6
CONTINUOUS
 62
     3
100
AcDbCircle
 10
-377.3666900640044
 20
360.1706394747041
 30
0.0
 40
6.0
100
AcDbArc
 50
0.0
 51
44.99999999999991
  0
ARC
  5
2CF
330
1F
100
AcDbEntity
  8
0
  6
CONTINUOUS
 62
     3
100
AcDbCircle
 10
-377.3666900640044
 20
268.260220364094
 30
0.0
 40
6.0
100
AcDbArc
 50
314.9999999999997
 51
0.0
  0
ARC
  5
2D0
330
1F
100
AcDbEntity
  8
0
  6
CONTINUOUS
 62
     3
100
AcDbCircle
 10
-397.8891332472791
 20
247.7377771808194
 30
0.0
 40
6.0
100
AcDbArc
 50
270.0
 51
315.0000000000001
  0
LINE
  5
2D1
330
1F
100
AcDbEntity
  8
0
  6
CONTINUOUS
 62
     3
100
AcDbLine
 10
-378.8443428025842
 20
241.4759179651262
 30
0.0
 11
-558.8443428025842
 21
241.4759179651262
 31
0.0
  0
ARC
  5
2D2
330
1F
100
AcDbEntity
  8
0
  6
CONTINUOUS
 62
     3
100
AcDbCircle
 10
-378.8443428025842
 20
249.2154299193992
 30
0.0
 40
7.74
100
AcDbArc
 50
270.0
 51
0.0
  0
ARC
  5
2D3
330
1F
100
AcDbEntity
  8
0
  6
CONTINUOUS
 62
     3
100
AcDbCircle
 10
-539.799552357889
 20
247.7377771808194
 30
0.0
 40
6.0
100
AcDbArc
 50
225.0
 51
270.0
  0
LINE
  5
2D4
330
1F
100
AcDbEntity
  8
0
  6
CONTINUOUS
 62
     3
100
AcDbLine
 10
-566.583854756857
 20
249.2154299193992
 30
0.0
 11
-566.583854756857
 21
379.2154299193992
 31
0.0
  0
ARC
  5
2D5
330
1F
100
AcDbEntity
  8
0
  6
CONTINUOUS
 62
     3
100
AcDbCircle
 10
-558.8443428025842
 20
249.2154299193992
 30
0.0
 40
7.74
100
AcDbArc
 50
180.0
 51
270.0
  0
LINE
  5
2D6
330
1F
100
AcDbEntity
  8
0
  6
CONTINUOUS
 62
     3
100
AcDbLine
 10
-568.8443428025842
 20
-52.00013952907402
 30
0.0
 11
-368.8443428025842
 21
-52.00013952907402
 31
0.0
  0
LINE
  5
2D7
330
1F
100
AcDbEntity
  8
0
  6
CONTINUOUS
 62
     3
100
AcDbLine
 10
-285.7026898658769
 20
-52.00013952907379
 30
0.0
 11
-135.7026898658769
 21
-52.00013952907379
 31
0.0
  0
LINE
  5
2D8
330
1F
100
AcDbEntity
  8
0
  6
CONTINUOUS
 62
     3
100
AcDbLine
 10
-568.8443428025842
 20
-53.00013952907339
 30
0.0
 11
-568.8443428025842
 21
-52.00013952907402
 31
0.0
  0
LINE
  5
2D9
330
1F
100
AcDbEntity
  8
0
  6
CONTINUOUS
 62
     3
100
AcDbLine
 10
-368.8443428025842
 20
-53.00013952907612
 30
0.0
 11
-368.8443428025842
 21
-52.00013952907402
 31
0.0
  0
LINE
  5
2DA
330
1F
100
AcDbEntity
  8
0
  6
CONTINUOUS
 62
     3
100
AcDbLine
 10
-285.7026898658769
 20
-53.00013952907379
 30
0.0
 11
-285.7026898658769
 21
-52.00013952907368
 31
0.0
  0
LINE
  5
2DB
330
1F
100
AcDbEntity
  8
0
  6
CONTINUOUS
 62
     3
100
AcDbLine
 10
-135.7026898658769
 20
-53.00013952907368
 30
0.0
 11
-135.7026898658769
 21
-52.00013952907231
 31
0.0
  0
LINE
  5
2DC
330
1F
100
AcDbEntity
  8
0
  6
CONTINUOUS
 62
     3
100
AcDbLine
 10
-558.0943428025842
 20
-66.10013952907336
 30
0.0
 11
-559.5943428025842
 21
-64.60013952907336
 31
0.0
  0
LINE
  5
2DD
330
1F
100
AcDbEntity
  8
0
  6
CONTINUOUS
 62
     3
100
AcDbLine
 10
-564.9443428025842
 20
-66.10013952907336
 30
0.0
 11
-552.7443428025841
 21
-66.10013952907336
 31
0.0
  0
LINE
  5
2DE
330
1F
100
AcDbEntity
  8
0
  6
CONTINUOUS
 62
     3
100
AcDbLine
 10
-564.9443428025842
 20
-66.10013952907336
 30
0.0
 11
-564.9443428025842
 21
-64.60013952907336
 31
0.0
  0
LINE
  5
2DF
330
1F
100
AcDbEntity
  8
0
  6
CONTINUOUS
 62
     3
100
AcDbLine
 10
-552.7443428025841
 20
-66.10013952907336
 30
0.0
 11
-552.7443428025841
 21
-64.60013952907336
 31
0.0
  0
LINE
  5
2E0
330
1F
100
AcDbEntity
  8
0
  6
CONTINUOUS
 62
     3
100
AcDbLine
 10
-565.0943428025842
 20
-64.60013952907336
 30
0.0
 11
-552.5943428025842
 21
-64.60013952907336
 31
0.0
  0
LINE
  5
2E1
330
1F
100
AcDbEntity
  8
0
  6
CONTINUOUS
 62
     3
100
AcDbLine
 10
-565.0943428025842
 20
-63.00013952907339
 30
0.0
 11
-552.5943428025842
 21
-63.00013952907339
 31
0.0
  0
LINE
  5
2E2
330
1F
100
AcDbEntity
  8
0
  6
CONTINUOUS
 62
     3
100
AcDbLine
 10
-565.0943428025842
 20
-64.60013952907336
 30
0.0
 11
-565.0943428025842
 21
-63.00013952907339
 31
0.0
  0
LINE
  5
2E3
330
1F
100
AcDbEntity
  8
0
  6
CONTINUOUS
 62
     3
100
AcDbLine
 10
-552.5943428025842
 20
-64.60013952907336
 30
0.0
 11
-552.5943428025842
 21
-63.00013952907339
 31
0.0
  0
LINE
  5
2E4
330
1F
100
AcDbEntity
  8
0
  6
CONTINUOUS
 62
     3
100
AcDbLine
 10
-564.0943428025842
 20
-66.10013952907336
 30
0.0
 11
-563.9922876879104
 21
-68.0474671218448
 31
0.0
  0
LINE
  5
2E5
330
1F
100
AcDbEntity
  8
0
  6
CONTINUOUS
 62
     3
100
AcDbLine
 10
-553.5943428025842
 20
-66.10013952907336
 30
0.0
 11
-553.696397917258
 21
-68.0474671218448
 31
0.0
  0
ARC
  5
2E6
330
1F
100
AcDbEntity
  8
0
  6
CONTINUOUS
 62
     3
100
AcDbCircle
 10
-562.511189073651
 20
-67.9698460325723
 30
0.0
 40
1.483131194015235
100
AcDbArc
 50
182.9999999999999
 51
249.8984180338057
  0
ARC
  5
2E7
330
1F
100
AcDbEntity
  8
0
  6
CONTINUOUS
 62
     3
100
AcDbCircle
 10
-555.1774965315174
 20
-67.9698460325723
 30
0.0
 40
1.483131194015235
100
AcDbArc
 50
290.1015819661944
 51
357.0000000000001
  0
ARC
  5
2E8
330
1F
100
AcDbEntity
  8
0
  6
CONTINUOUS
 62
     3
100
AcDbCircle
 10
-558.8443428025842
 20
-56.00013952907339
 30
0.0
 40
14.0
100
AcDbArc
 50
252.6428571428572
 51
287.3571428571428
  0
LINE
  5
2E9
330
1F
100
AcDbEntity
  8
0
  6
CONTINUOUS
 62
     3
100
AcDbLine
 10
-378.0943428025842
 20
-66.10013952907399
 30
0.0
 11
-379.5943428025842
 21
-64.60013952907399
 31
0.0
  0
LINE
  5
2EA
330
1F
100
AcDbEntity
  8
0
  6
CONTINUOUS
 62
     3
100
AcDbLine
 10
-384.9443428025841
 20
-66.10013952907399
 30
0.0
 11
-372.7443428025842
 21
-66.10013952907399
 31
0.0
  0
LINE
  5
2EB
330
1F
100
AcDbEntity
  8
0
  6
CONTINUOUS
 62
     3
100
AcDbLine
 10
-384.9443428025841
 20
-66.10013952907399
 30
0.0
 11
-384.9443428025841
 21
-64.60013952907399
 31
0.0
  0
LINE
  5
2EC
330
1F
100
AcDbEntity
  8
0
  6
CONTINUOUS
 62
     3
100
AcDbLine
 10
-372.7443428025842
 20
-66.10013952907399
 30
0.0
 11
-372.7443428025842
 21
-64.60013952907399
 31
0.0
  0
LINE
  5
2ED
330
1F
100
AcDbEntity
  8
0
  6
CONTINUOUS
 62
     3
100
AcDbLine
 10
-385.0943428025842
 20
-64.60013952907399
 30
0.0
 11
-372.5943428025842
 21
-64.60013952907399
 31
0.0
  0
LINE
  5
2EE
330
1F
100
AcDbEntity
  8
0
  6
CONTINUOUS
 62
     3
100
AcDbLine
 10
-385.0943428025842
 20
-63.00013952907402
 30
0.0
 11
-372.5943428025842
 21
-63.00013952907402
 31
0.0
  0
LINE
  5
2EF
330
1F
100
AcDbEntity
  8
0
  6
CONTINUOUS
 62
     3
100
AcDbLine
 10
-385.0943428025842
 20
-64.60013952907399
 30
0.0
 11
-385.0943428025842
 21
-63.00013952907402
 31
0.0
  0
LINE
  5
2F0
330
1F
100
AcDbEntity
  8
0
  6
CONTINUOUS
 62
     3
100
AcDbLine
 10
-372.5943428025842
 20
-64.60013952907399
 30
0.0
 11
-372.5943428025842
 21
-63.00013952907402
 31
0.0
  0
LINE
  5
2F1
330
1F
100
AcDbEntity
  8
0
  6
CONTINUOUS
 62
     3
100
AcDbLine
 10
-384.0943428025842
 20
-66.10013952907399
 30
0.0
 11
-383.9922876879104
 21
-68.04746712184537
 31
0.0
  0
LINE
  5
2F2
330
1F
100
AcDbEntity
  8
0
  6
CONTINUOUS
 62
     3
100
AcDbLine
 10
-373.5943428025842
 20
-66.10013952907399
 30
0.0
 11
-373.6963979172579
 21
-68.04746712184537
 31
0.0
  0
ARC
  5
2F3
330
1F
100
AcDbEntity
  8
0
  6
CONTINUOUS
 62
     3
100
AcDbCircle
 10
-382.5111890736511
 20
-67.96984603257287
 30
0.0
 40
1.483131194015235
100
AcDbArc
 50
183.0
 51
249.8984180338047
  0
ARC
  5
2F4
330
1F
100
AcDbEntity
  8
0
  6
CONTINUOUS
 62
     3
100
AcDbCircle
 10
-375.1774965315174
 20
-67.96984603257287
 30
0.0
 40
1.483131194015235
100
AcDbArc
 50
290.1015819661953
 51
356.9999999999999
  0
ARC
  5
2F5
330
1F
100
AcDbEntity
  8
0
  6
CONTINUOUS
 62
     3
100
AcDbCircle
 10
-378.8443428025842
 20
-56.00013952907396
 30
0.0
 40
14.0
100
AcDbArc
 50
252.6428571428571
 51
287.3571428571427
  0
LINE
  5
2F6
330
1F
100
AcDbEntity
  8
0
  6
CONTINUOUS
 62
     3
100
AcDbLine
 10
-568.8443428025842
 20
-53.00013952907402
 30
0.0
 11
-368.8443428025841
 21
-53.00013952907402
 31
0.0
  0
LINE
  5
2F7
330
1F
100
AcDbEntity
  8
0
  6
CONTINUOUS
 62
     3
100
AcDbLine
 10
-378.8443428025842
 20
-61.00013952907402
 30
0.0
 11
-558.8443428025842
 21
-61.00013952907396
 31
0.0
  0
LINE
  5
2F8
330
1F
100
AcDbEntity
  8
0
  6
CONTINUOUS
 62
     3
100
AcDbLine
 10
-555.9271499626808
 20
-94.00013952907402
 30
0.0
 11
-381.7615356424872
 21
-94.00013952907402
 31
0.0
  0
LINE
  5
2F9
330
1F
100
AcDbEntity
  8
0
  6
CONTINUOUS
 62
     3
100
AcDbLine
 10
-393.8443428025842
 20
-63.00013952907402
 30
0.0
 11
-393.8443428025842
 21
-93.00013952907396
 31
0.0
  0
LINE
  5
2FA
330
1F
100
AcDbEntity
  8
0
  6
CONTINUOUS
 62
     3
100
AcDbLine
 10
-543.8443428025842
 20
-63.00013952907402
 30
0.0
 11
-543.8443428025842
 21
-93.00013952907396
 31
0.0
  0
LINE
  5
2FB
330
1F
100
AcDbEntity
  8
0
  6
CONTINUOUS
 62
     3
100
AcDbLine
 10
-543.8443428025842
 20
-63.00013952907402
 30
0.0
 11
-393.8443428025842
 21
-63.00013952907402
 31
0.0
  0
LINE
  5
2FC
330
1F
100
AcDbEntity
  8
0
  6
CONTINUOUS
 62
     3
100
AcDbLine
 10
-543.8443428025842
 20
-93.00013952907396
 30
0.0
 11
-393.8443428025842
 21
-93.00013952907396
 31
0.0
  0
LINE
  5
2FD
330
1F
100
AcDbEntity
  8
0
  6
CONTINUOUS
 62
     3
100
AcDbLine
 10
-568.844342802584
 20
-53.00013952907402
 30
0.0
 11
-568.6334844950001
 21
-61.0524934256885
 31
0.0
  0
LINE
  5
2FE
330
1F
100
AcDbEntity
  8
0
  6
CONTINUOUS
 62
     3
100
AcDbLine
 10
-561.9250939125342
 20
-88.15720121892024
 30
0.0
 11
-562.4126612020606
 21
-69.53775762827966
 31
0.0
  0
ARC
  5
2FF
330
1F
100
AcDbEntity
  8
0
  6
CONTINUOUS
 62
     3
100
AcDbCircle
 10
-555.9271499626808
 20
-88.00013952907408
 30
0.0
 40
6.0
100
AcDbArc
 50
181.4999999999897
 51
270.0
  0
LINE
  5
300
330
1F
100
AcDbEntity
  8
0
  6
CONTINUOUS
 62
     3
100
AcDbLine
 10
-368.844342802584
 20
-53.00013952907396
 30
0.0
 11
-369.7884069141055
 21
-89.05249342569213
 31
0.0
  0
ARC
  5
301
330
1F
100
AcDbEntity
  8
0
  6
CONTINUOUS
 62
     3
100
AcDbCircle
 10
-371.7877215640566
 20
-89.00013952907425
 30
0.0
 40
2.0
100
AcDbArc
 50
270.0
 51
358.4999999999386
  0
LINE
  5
302
330
1F
100
AcDbEntity
  8
0
  6
CONTINUOUS
 62
     3
100
AcDbLine
 10
-371.7877215640566
 20
-91.00013952907425
 30
0.0
 11
-375.5165376440893
 21
-91.00013952907425
 31
0.0
  0
LINE
  5
303
330
1F
100
AcDbEntity
  8
0
  6
CONTINUOUS
 62
     3
100
AcDbLine
 10
-375.763591692634
 20
-88.15720121891933
 30
0.0
 11
-375.2760244031076
 21
-69.53775762828029
 31
0.0
  0
ARC
  5
304
330
1F
100
AcDbEntity
  8
0
  6
CONTINUOUS
 62
     3
100
AcDbCircle
 10
-381.7615356424872
 20
-88.00013952907402
 30
0.0
 40
6.0
100
AcDbArc
 50
270.0
 51
358.5000000000186
  0
ARC
  5
305
330
1F
100
AcDbEntity
  8
0
  6
CONTINUOUS
 62
     3
100
AcDbCircle
 10
-375.5165376440893
 20
-93.00013952907368
 30
0.0
 40
2.0
100
AcDbArc
 50
90.0
 51
141.3178125465077
  0
LINE
  5
306
330
1F
100
AcDbEntity
  8
0
  6
CONTINUOUS
 62
     3
100
AcDbLine
 10
-566.6341698450489
 20
-63.00013952907402
 30
0.0
 11
-544.4175092519121
 21
-63.00013952907402
 31
0.0
  0
ARC
  5
307
330
1F
100
AcDbEntity
  8
0
  6
CONTINUOUS
 62
     3
100
AcDbCircle
 10
-566.6341698450489
 20
-61.00013952907402
 30
0.0
 40
2.0
100
AcDbArc
 50
181.4999999999653
 51
270.0
  0
ARC
  5
308
330
1F
100
AcDbEntity
  8
0
  6
CONTINUOUS
 62
     3
100
AcDbCircle
 10
-371.0545157601193
 20
-61.00013952907402
 30
0.0
 40
2.0
100
AcDbArc
 50
270.0
 51
358.5000000000346
  0
LINE
  5
309
330
1F
100
AcDbEntity
  8
0
  6
CONTINUOUS
 62
     3
100
AcDbLine
 10
-371.0545157601193
 20
-63.00013952907402
 30
0.0
 11
-393.271176353256
 21
-63.00013952907402
 31
0.0
  0
LINE
  5
30A
330
1F
100
AcDbEntity
  8
0
  6
CONTINUOUS
 62
     3
100
AcDbLine
 10
-491.3443428025843
 20
-153.5001395290741
 30
0.0
 11
-491.3443428025843
 21
-113.1341141252894
 31
0.0
  0
LINE
  5
30B
330
1F
100
AcDbEntity
  8
0
  6
CONTINUOUS
 62
     3
100
AcDbLine
 10
-426.3443428025842
 20
-153.5001395290741
 30
0.0
 11
-426.3443428025842
 21
-113.1341141252895
 31
0.0
  0
LINE
  5
30C
330
1F
100
AcDbEntity
  8
0
  6
CONTINUOUS
 62
     3
100
AcDbLine
 10
-492.68408876474
 20
-108.1341141252894
 30
0.0
 11
-495.8636758772524
 21
-102.6269076993265
 31
0.0
  0
LINE
  5
30D
330
1F
100
AcDbEntity
  8
0
  6
CONTINUOUS
 62
     3
100
AcDbLine
 10
-425.0045968404286
 20
-108.1341141252895
 30
0.0
 11
-419.7310941485323
 21
-99.00013952907396
 31
0.0
  0
ARC
  5
30E
330
1F
100
AcDbEntity
  8
0
  6
CONTINUOUS
 62
     3
100
AcDbCircle
 10
-501.3443428025843
 20
-113.1341141252894
 30
0.0
 40
10.0
100
AcDbArc
 50
0.0
 51
30.00000000000016
  0
ARC
  5
30F
330
1F
100
AcDbEntity
  8
0
  6
CONTINUOUS
 62
     3
100
AcDbCircle
 10
-416.3443428025842
 20
-113.1341141252895
 30
0.0
 40
10.0
100
AcDbArc
 50
150.0
 51
180.0
  0
ARC
  5
310
330
1F
100
AcDbEntity
  8
0
  6
CONTINUOUS
 62
     3
100
AcDbCircle
 10
-411.0708401106879
 20
-104.000139529074
 30
0.0
 40
10.0
100
AcDbArc
 50
90.0
 51
149.9999999999997
  0
LINE
  5
311
330
1F
100
AcDbEntity
  8
0
  6
CONTINUOUS
 62
     3
100
AcDbLine
 10
-145.7026898658769
 20
-61.00013952907379
 30
0.0
 11
-165.8826313347018
 21
-61.00013952907379
 31
0.0
  0
LINE
  5
312
330
1F
100
AcDbEntity
  8
0
  6
CONTINUOUS
 62
     3
100
AcDbLine
 10
-272.7854970259737
 20
-94.00013952907379
 30
0.0
 11
-148.6198827057802
 21
-94.00013952907379
 31
0.0
  0
CIRCLE
  5
313
330
1F
100
AcDbEntity
  8
0
  6
CONTINUOUS
 62
     3
100
AcDbCircle
 10
-238.2026898658769
 20
-75.00013952907379
 30
0.0
 40
9.315499999999998
  0
ARC
  5
314
330
1F
100
AcDbEntity
  8
0
  6
CONTINUOUS
 62
     3
100
AcDbCircle
 10
-238.2026898658769
 20
-75.00013952907379
 30
0.0
 40
15.0
100
AcDbArc
 50
181.5
 51
358.5000000000001
  0
CIRCLE
  5
315
330
1F
100
AcDbEntity
  8
0
  6
CONTINUOUS
 62
     3
100
AcDbCircle
 10
-183.2026898658769
 20
-75.00013952907379
 30
0.0
 40
9.315499999999998
  0
ARC
  5
316
330
1F
100
AcDbEntity
  8
0
  6
CONTINUOUS
 62
     3
100
AcDbCircle
 10
-183.2026898658769
 20
-75.00013952907379
 30
0.0
 40
15.0
100
AcDbArc
 50
181.4999999999999
 51
358.5000000000001
  0
LINE
  5
317
330
1F
100
AcDbEntity
  8
0
  6
CONTINUOUS
 62
     3
100
AcDbLine
 10
-253.1975497405103
 20
-75.39279375369192
 30
0.0
 11
-253.5234337471009
 21
-62.94778563245823
 31
0.0
  0
LINE
  5
318
330
1F
100
AcDbEntity
  8
0
  6
CONTINUOUS
 62
     3
100
AcDbLine
 10
-223.2078299912436
 20
-75.39279375369192
 30
0.0
 11
-222.881945984653
 21
-62.94778563245801
 31
0.0
  0
LINE
  5
319
330
1F
100
AcDbEntity
  8
0
  6
CONTINUOUS
 62
     3
100
AcDbLine
 10
-198.1975497405103
 20
-75.39279375369192
 30
0.0
 11
-198.5234337471007
 21
-62.94778563245801
 31
0.0
  0
LINE
  5
31A
330
1F
100
AcDbEntity
  8
0
  6
CONTINUOUS
 62
     3
100
AcDbLine
 10
-168.2078299912434
 20
-75.39279375369192
 30
0.0
 11
-167.881945984653
 21
-62.94778563245801
 31
0.0
  0
LINE
  5
31B
330
1F
100
AcDbEntity
  8
0
  6
CONTINUOUS
 62
     3
100
AcDbLine
 10
-200.5227483970519
 20
-61.00013952907379
 30
0.0
 11
-220.8826313347018
 21
-61.00013952907379
 31
0.0
  0
LINE
  5
31C
330
1F
100
AcDbEntity
  8
0
  6
CONTINUOUS
 62
     3
100
AcDbLine
 10
-275.7026898658769
 20
-61.00013952907379
 30
0.0
 11
-255.5227483970519
 21
-61.00013952907379
 31
0.0
  0
LINE
  5
31D
330
1F
100
AcDbEntity
  8
0
  6
CONTINUOUS
 62
     3
100
AcDbLine
 10
-279.7026898658769
 20
-93.00013952907368
 30
0.0
 11
-276.6584803721812
 21
-93.00013952907368
 31
0.0
  0
ARC
  5
31E
330
1F
100
AcDbEntity
  8
0
  6
CONTINUOUS
 62
     3
100
AcDbCircle
 10
-279.7026898658769
 20
-91.00013952907368
 30
0.0
 40
2.0
100
AcDbArc
 50
239.9999999999999
 51
270.0
  0
LINE
  5
31F
330
1F
100
AcDbEntity
  8
0
  6
CONTINUOUS
 62
     3
100
AcDbLine
 10
-285.7026898658768
 20
-53.00013952907379
 30
0.0
 11
-285.4918315582927
 21
-61.05249342568941
 31
0.0
  0
LINE
  5
320
330
1F
100
AcDbEntity
  8
0
  6
CONTINUOUS
 62
     3
100
AcDbLine
 10
-280.7026898658769
 20
-68.61975315954707
 30
0.0
 11
-280.7026898658769
 21
-92.73601212728185
 31
0.0
  0
ARC
  5
321
330
1F
100
AcDbEntity
  8
0
  6
CONTINUOUS
 62
     3
100
AcDbCircle
 10
-279.7093388087021
 20
-91.00013952907379
 30
0.0
 40
2.0
100
AcDbArc
 50
240.2197026005161
 51
270.0
  0
LINE
  5
322
330
1F
100
AcDbEntity
  8
0
  6
CONTINUOUS
 62
     3
100
AcDbLine
 10
-142.6219387559269
 20
-88.1572012189216
 30
0.0
 11
-142.1343714664002
 21
-69.53775762827597
 31
0.0
  0
ARC
  5
323
330
1F
100
AcDbEntity
  8
0
  6
CONTINUOUS
 62
     3
100
AcDbCircle
 10
-148.6198827057802
 20
-88.00013952907362
 30
0.0
 40
6.0
100
AcDbArc
 50
270.0
 51
358.499999999993
  0
LINE
  5
324
330
1F
100
AcDbEntity
  8
0
  6
CONTINUOUS
 62
     3
100
AcDbLine
 10
-278.783440975827
 20
-88.15720121892114
 30
0.0
 11
-279.2710082653534
 21
-69.53775762827944
 31
0.0
  0
ARC
  5
325
330
1F
100
AcDbEntity
  8
0
  6
CONTINUOUS
 62
     3
100
AcDbCircle
 10
-272.7854970259737
 20
-88.00013952907379
 30
0.0
 40
6.0
100
AcDbArc
 50
181.500000000001
 51
270.0
  0
ARC
  5
326
330
1F
100
AcDbEntity
  8
0
  6
CONTINUOUS
 62
     3
100
AcDbCircle
 10
-276.6584803721812
 20
-95.00013952907368
 30
0.0
 40
2.0
100
AcDbArc
 50
61.04497562813861
 51
90.0
  0
ARC
  5
327
330
1F
100
AcDbEntity
  8
0
  6
CONTINUOUS
 62
     3
100
AcDbCircle
 10
-255.5227483970519
 20
-63.00013952907379
 30
0.0
 40
2.0
100
AcDbArc
 50
1.499999999995391
 51
90.0
  0
ARC
  5
328
330
1F
100
AcDbEntity
  8
0
  6
CONTINUOUS
 62
     3
100
AcDbCircle
 10
-220.8826313347018
 20
-63.00013952907379
 30
0.0
 40
2.0
100
AcDbArc
 50
90.0
 51
178.4999999999997
  0
ARC
  5
329
330
1F
100
AcDbEntity
  8
0
  6
CONTINUOUS
 62
     3
100
AcDbCircle
 10
-200.5227483970519
 20
-63.00013952907379
 30
0.0
 40
2.0
100
AcDbArc
 50
1.500000000001089
 51
90.0
  0
ARC
  5
32A
330
1F
100
AcDbEntity
  8
0
  6
CONTINUOUS
 62
     3
100
AcDbCircle
 10
-165.8826313347018
 20
-63.00013952907385
 30
0.0
 40
2.0
100
AcDbArc
 50
90.0
 51
178.4999999999973
  0
LINE
  5
32B
330
1F
100
AcDbEntity
  8
0
  6
CONTINUOUS
 62
     3
100
AcDbLine
 10
-135.7026898658769
 20
-53.00013952907385
 30
0.0
 11
-135.9135481734608
 21
-61.05249342568838
 31
0.0
  0
ARC
  5
32C
330
1F
100
AcDbEntity
  8
0
  6
CONTINUOUS
 62
     3
100
AcDbCircle
 10
-137.912862823412
 20
-61.00013952907379
 30
0.0
 40
2.0
100
AcDbArc
 50
270.0
 51
358.5000000000346
  0
LINE
  5
32D
330
1F
100
AcDbEntity
  8
0
  6
CONTINUOUS
 62
     3
100
AcDbLine
 10
-137.912862823412
 20
-63.00013952907379
 30
0.0
 11
-167.6295234165489
 21
-63.00013952907379
 31
0.0
  0
ARC
  5
32E
330
1F
100
AcDbEntity
  8
0
  6
CONTINUOUS
 62
     3
100
AcDbCircle
 10
-283.4925169083417
 20
-61.00013952907373
 30
0.0
 40
2.0
100
AcDbArc
 50
181.4999999999999
 51
270.0
  0
LINE
  5
32F
330
1F
100
AcDbEntity
  8
0
  6
CONTINUOUS
 62
     3
100
AcDbLine
 10
-243.2026898658769
 20
-153.5001395290739
 30
0.0
 11
-243.2026898658769
 21
-113.1341141252893
 31
0.0
  0
LINE
  5
330
330
1F
100
AcDbEntity
  8
0
  6
CONTINUOUS
 62
     3
100
AcDbLine
 10
-178.2026898658769
 20
-153.5001395290739
 30
0.0
 11
-178.2026898658769
 21
-113.1341141252893
 31
0.0
  0
LINE
  5
331
330
1F
100
AcDbEntity
  8
0
  6
CONTINUOUS
 62
     3
100
AcDbLine
 10
-244.5424358280326
 20
-108.1341141252893
 30
0.0
 11
-249.8159385199289
 21
-99.00013952907382
 31
0.0
  0
LINE
  5
332
330
1F
100
AcDbEntity
  8
0
  6
CONTINUOUS
 62
     3
100
AcDbLine
 10
-176.8629439037213
 20
-108.1341141252893
 30
0.0
 11
-171.5894412118251
 21
-99.00013952907382
 31
0.0
  0
ARC
  5
333
330
1F
100
AcDbEntity
  8
0
  6
CONTINUOUS
 62
     3
100
AcDbCircle
 10
-253.2026898658769
 20
-113.1341141252893
 30
0.0
 40
10.0
100
AcDbArc
 50
0.0
 51
29.99999999999992
  0
ARC
  5
334
330
1F
100
AcDbEntity
  8
0
  6
CONTINUOUS
 62
     3
100
AcDbCircle
 10
-168.2026898658769
 20
-113.1341141252893
 30
0.0
 40
10.0
100
AcDbArc
 50
150.0
 51
180.0
  0
ARC
  5
335
330
1F
100
AcDbEntity
  8
0
  6
CONTINUOUS
 62
     3
100
AcDbCircle
 10
-162.9291871739806
 20
-104.0001395290738
 30
0.0
 40
10.0
100
AcDbArc
 50
90.0
 51
150.0000000000002
  0
ARC
  5
336
330
1F
100
AcDbEntity
  8
0
  6
CONTINUOUS
 62
     3
100
AcDbCircle
 10
-258.4761925577732
 20
-104.0001395290738
 30
0.0
 40
10.0
100
AcDbArc
 50
29.99999999999988
 51
90.0
  0
LINE
  5
337
330
1F
100
AcDbEntity
  8
0
  6
CONTINUOUS
 62
     3
100
AcDbLine
 10
-144.9526898658769
 20
-66.10013952906972
 30
0.0
 11
-146.4526898658769
 21
-64.60013952906972
 31
0.0
  0
LINE
  5
338
330
1F
100
AcDbEntity
  8
0
  6
CONTINUOUS
 62
     3
100
AcDbLine
 10
-151.8026898658769
 20
-66.10013952906972
 30
0.0
 11
-139.602689865877
 21
-66.10013952906972
 31
0.0
  0
LINE
  5
339
330
1F
100
AcDbEntity
  8
0
  6
CONTINUOUS
 62
     3
100
AcDbLine
 10
-151.8026898658769
 20
-66.10013952906972
 30
0.0
 11
-151.8026898658769
 21
-64.60013952906972
 31
0.0
  0
LINE
  5
33A
330
1F
100
AcDbEntity
  8
0
  6
CONTINUOUS
 62
     3
100
AcDbLine
 10
-139.602689865877
 20
-66.10013952906972
 30
0.0
 11
-139.602689865877
 21
-64.60013952906972
 31
0.0
  0
LINE
  5
33B
330
1F
100
AcDbEntity
  8
0
  6
CONTINUOUS
 62
     3
100
AcDbLine
 10
-151.9526898658769
 20
-64.60013952906972
 30
0.0
 11
-139.4526898658769
 21
-64.60013952906972
 31
0.0
  0
LINE
  5
33C
330
1F
100
AcDbEntity
  8
0
  6
CONTINUOUS
 62
     3
100
AcDbLine
 10
-151.9526898658769
 20
-64.60013952906972
 30
0.0
 11
-151.9526898658769
 21
-63.00013952906976
 31
0.0
  0
LINE
  5
33D
330
1F
100
AcDbEntity
  8
0
  6
CONTINUOUS
 62
     3
100
AcDbLine
 10
-139.4526898658769
 20
-64.60013952906972
 30
0.0
 11
-139.4526898658769
 21
-63.00013952906976
 31
0.0
  0
LINE
  5
33E
330
1F
100
AcDbEntity
  8
0
  6
CONTINUOUS
 62
     3
100
AcDbLine
 10
-150.9526898658769
 20
-66.10013952906972
 30
0.0
 11
-150.8506347512032
 21
-68.04746712184117
 31
0.0
  0
LINE
  5
33F
330
1F
100
AcDbEntity
  8
0
  6
CONTINUOUS
 62
     3
100
AcDbLine
 10
-140.4526898658769
 20
-66.10013952906972
 30
0.0
 11
-140.5547449805507
 21
-68.04746712184117
 31
0.0
  0
ARC
  5
340
330
1F
100
AcDbEntity
  8
0
  6
CONTINUOUS
 62
     3
100
AcDbCircle
 10
-149.3695361369437
 20
-67.96984603256861
 30
0.0
 40
1.483131194015235
100
AcDbArc
 50
183.0
 51
249.8984180338047
  0
ARC
  5
341
330
1F
100
AcDbEntity
  8
0
  6
CONTINUOUS
 62
     3
100
AcDbCircle
 10
-142.0358435948102
 20
-67.96984603256861
 30
0.0
 40
1.483131194015235
100
AcDbArc
 50
290.1015819661953
 51
356.9999999999999
  0
ARC
  5
342
330
1F
100
AcDbEntity
  8
0
  6
CONTINUOUS
 62
     3
100
AcDbCircle
 10
-145.7026898658769
 20
-56.0001395290697
 30
0.0
 40
14.0
100
AcDbArc
 50
252.6428571428571
 51
287.3571428571428
  0
LINE
  5
343
330
1F
100
AcDbEntity
  8
0
  6
CONTINUOUS
 62
     3
100
AcDbLine
 10
-274.9526898658769
 20
-66.10013952907319
 30
0.0
 11
-276.4526898658769
 21
-64.60013952907319
 31
0.0
  0
LINE
  5
344
330
1F
100
AcDbEntity
  8
0
  6
CONTINUOUS
 62
     3
100
AcDbLine
 10
-281.802689865877
 20
-66.10013952907319
 30
0.0
 11
-269.6026898658769
 21
-66.10013952907319
 31
0.0
  0
LINE
  5
345
330
1F
100
AcDbEntity
  8
0
  6
CONTINUOUS
 62
     3
100
AcDbLine
 10
-281.802689865877
 20
-66.10013952907319
 30
0.0
 11
-281.802689865877
 21
-64.60013952907319
 31
0.0
  0
LINE
  5
346
330
1F
100
AcDbEntity
  8
0
  6
CONTINUOUS
 62
     3
100
AcDbLine
 10
-269.6026898658769
 20
-66.10013952907319
 30
0.0
 11
-269.6026898658769
 21
-64.60013952907319
 31
0.0
  0
LINE
  5
347
330
1F
100
AcDbEntity
  8
0
  6
CONTINUOUS
 62
     3
100
AcDbLine
 10
-281.9526898658769
 20
-64.60013952907319
 30
0.0
 11
-269.4526898658769
 21
-64.60013952907319
 31
0.0
  0
LINE
  5
348
330
1F
100
AcDbEntity
  8
0
  6
CONTINUOUS
 62
     3
100
AcDbLine
 10
-281.9526898658769
 20
-64.60013952907319
 30
0.0
 11
-281.9526898658769
 21
-63.00013952907317
 31
0.0
  0
LINE
  5
349
330
1F
100
AcDbEntity
  8
0
  6
CONTINUOUS
 62
     3
100
AcDbLine
 10
-269.4526898658769
 20
-64.60013952907319
 30
0.0
 11
-269.4526898658769
 21
-63.00013952907317
 31
0.0
  0
LINE
  5
34A
330
1F
100
AcDbEntity
  8
0
  6
CONTINUOUS
 62
     3
100
AcDbLine
 10
-280.9526898658769
 20
-66.10013952907319
 30
0.0
 11
-280.8506347512032
 21
-68.04746712184458
 31
0.0
  0
LINE
  5
34B
330
1F
100
AcDbEntity
  8
0
  6
CONTINUOUS
 62
     3
100
AcDbLine
 10
-270.4526898658769
 20
-66.10013952907319
 30
0.0
 11
-270.5547449805507
 21
-68.04746712184458
 31
0.0
  0
ARC
  5
34C
330
1F
100
AcDbEntity
  8
0
  6
CONTINUOUS
 62
     3
100
AcDbCircle
 10
-279.3695361369438
 20
-67.96984603257208
 30
0.0
 40
1.483131194015235
100
AcDbArc
 50
183.0
 51
249.8984180338047
  0
ARC
  5
34D
330
1F
100
AcDbEntity
  8
0
  6
CONTINUOUS
 62
     3
100
AcDbCircle
 10
-272.0358435948101
 20
-67.96984603257208
 30
0.0
 40
1.483131194015235
100
AcDbArc
 50
290.1015819661953
 51
356.9999999999999
  0
ARC
  5
34E
330
1F
100
AcDbEntity
  8
0
  6
CONTINUOUS
 62
     3
100
AcDbCircle
 10
-275.7026898658769
 20
-56.00013952907317
 30
0.0
 40
14.0
100
AcDbArc
 50
252.6428571428571
 51
287.3571428571427
  0
LINE
  5
34F
330
1F
100
AcDbEntity
  8
0
  6
CONTINUOUS
 62
     3
100
AcDbLine
 10
-283.4925169083418
 20
-63.00013952907379
 30
0.0
 11
-253.775856315205
 21
-63.00013952907379
 31
0.0
  0
LINE
  5
350
330
1F
100
AcDbEntity
  8
0
  6
CONTINUOUS
 62
     3
100
AcDbLine
 10
-492.6840887647398
 20
-108.1341141252896
 30
0.0
 11
-497.9575914566364
 21
-99.0001395290741
 31
0.0
  0
CIRCLE
  5
351
330
1F
100
AcDbEntity
  8
0
  6
CONTINUOUS
 62
     3
100
AcDbCircle
 10
-263.7647853960149
 20
367.4855029120999
 30
0.0
 40
6.0
  0
ARC
  5
352
330
1F
100
AcDbEntity
  8
0
  6
CONTINUOUS
 62
     3
100
AcDbCircle
 10
-266.264785396015
 20
369.9855029120999
 30
0.0
 40
10.0
100
AcDbArc
 50
90.0
 51
180.0
  0
CIRCLE
  5
353
330
1F
100
AcDbEntity
  8
0
  6
CONTINUOUS
 62
     3
100
AcDbCircle
 10
-183.764785396015
 20
367.4855029120999
 30
0.0
 40
6.0
  0
ARC
  5
354
330
1F
100
AcDbEntity
  8
0
  6
CONTINUOUS
 62
     3
100
AcDbCircle
 10
-181.264785396015
 20
369.9855029120999
 30
0.0
 40
10.0
100
AcDbArc
 50
0.0
 51
90.0
  0
LINE
  5
355
330
1F
100
AcDbEntity
  8
0
  6
CONTINUOUS
 62
     3
100
AcDbLine
 10
-266.264785396015
 20
379.9855029120999
 30
0.0
 11
-181.264785396015
 21
379.9855029120999
 31
0.0
  0
LINE
  5
356
330
1F
100
AcDbEntity
  8
0
  6
CONTINUOUS
 62
     3
100
AcDbLine
 10
-276.264785396015
 20
369.9855029120999
 30
0.0
 11
-276.264785396015
 21
284.9855029120999
 31
0.0
  0
LINE
  5
357
330
1F
100
AcDbEntity
  8
0
  6
CONTINUOUS
 62
     3
100
AcDbLine
 10
-171.264785396015
 20
369.9855029120999
 30
0.0
 11
-171.264785396015
 21
284.9855029120999
 31
0.0
  0
CIRCLE
  5
358
330
1F
100
AcDbEntity
  8
0
  6
CONTINUOUS
 62
     3
100
AcDbCircle
 10
-183.764785396015
 20
287.4855029120999
 30
0.0
 40
6.0
  0
ARC
  5
359
330
1F
100
AcDbEntity
  8
0
  6
CONTINUOUS
 62
     3
100
AcDbCircle
 10
-181.264785396015
 20
284.9855029120999
 30
0.0
 40
10.0
100
AcDbArc
 50
270.0
 51
0.0
  0
CIRCLE
  5
35A
330
1F
100
AcDbEntity
  8
0
  6
CONTINUOUS
 62
     3
100
AcDbCircle
 10
-263.7647853960149
 20
287.4855029120999
 30
0.0
 40
6.0
  0
ARC
  5
35B
330
1F
100
AcDbEntity
  8
0
  6
CONTINUOUS
 62
     3
100
AcDbCircle
 10
-266.264785396015
 20
284.9855029120999
 30
0.0
 40
10.0
100
AcDbArc
 50
180.0
 51
270.0
  0
LINE
  5
35C
330
1F
100
AcDbEntity
  8
0
  6
CONTINUOUS
 62
     3
100
AcDbLine
 10
-181.264785396015
 20
274.9855029120999
 30
0.0
 11
-266.264785396015
 21
274.9855029120999
 31
0.0
  0
CIRCLE
  5
35D
330
1F
100
AcDbEntity
  8
0
  6
CONTINUOUS
 62
     3
100
AcDbCircle
 10
-223.764785396015
 20
327.4855029120999
 30
0.0
 40
35.0000000000001
  0
CIRCLE
  5
35E
330
1F
100
AcDbEntity
  8
0
  6
CONTINUOUS
 62
     3
100
AcDbCircle
 10
-223.764785396015
 20
327.4855029120999
 30
0.0
 40
33.5000000000001
  0
LINE
  5
35F
330
1F
100
AcDbEntity
  8
0
  6
CONTINUOUS
 62
     3
100
AcDbLine
 10
-177.2026898658769
 20
-181.0001395290739
 30
0.0
 11
-244.2026898658767
 21
-181.0001395290739
 31
0.0
  0
LINE
  5
360
330
1F
100
AcDbEntity
  8
0
  6
CONTINUOUS
 62
     3
100
AcDbLine
 10
-175.7026898658769
 20
-170.5001395290739
 30
0.0
 11
-175.7026898658769
 21
-176.0001395290739
 31
0.0
  0
LINE
  5
361
330
1F
100
AcDbEntity
  8
0
  6
CONTINUOUS
 62
     3
100
AcDbLine
 10
-175.7026898658769
 20
-176.0001395290739
 30
0.0
 11
-177.2026898658769
 21
-181.0001395290739
 31
0.0
  0
LINE
  5
362
330
1F
100
AcDbEntity
  8
0
  6
CONTINUOUS
 62
     3
100
AcDbLine
 10
-175.7026898658769
 20
-176.0001395290739
 30
0.0
 11
-245.7026898658769
 21
-176.0001395290739
 31
0.0
  0
LINE
  5
363
330
1F
100
AcDbEntity
  8
0
  6
CONTINUOUS
 62
     3
100
AcDbLine
 10
-245.7026898658769
 20
-170.5001395290739
 30
0.0
 11
-245.7026898658769
 21
-176.0001395290739
 31
0.0
  0
LINE
  5
364
330
1F
100
AcDbEntity
  8
0
  6
CONTINUOUS
 62
     3
100
AcDbLine
 10
-245.7026898658769
 20
-176.0001395290739
 30
0.0
 11
-244.2026898658769
 21
-181.0001395290739
 31
0.0
  0
LINE
  5
365
330
1F
100
AcDbEntity
  8
0
  6
CONTINUOUS
 62
     3
100
AcDbLine
 10
-158.2026898658769
 20
-170.5001395290739
 30
0.0
 11
-158.2026898658769
 21
-160.5001395290739
 31
0.0
  0
LINE
  5
366
330
1F
100
AcDbEntity
  8
0
  6
CONTINUOUS
 62
     3
100
AcDbLine
 10
-263.2026898658769
 20
-170.5001395290739
 30
0.0
 11
-263.2026898658769
 21
-160.5001395290739
 31
0.0
  0
LINE
  5
367
330
1F
100
AcDbEntity
  8
0
  6
CONTINUOUS
 62
     3
100
AcDbLine
 10
-263.2026898658769
 20
-170.5001395290739
 30
0.0
 11
-158.2026898658769
 21
-170.5001395290739
 31
0.0
  0
LINE
  5
368
330
1F
100
AcDbEntity
  8
0
  6
CONTINUOUS
 62
     3
100
AcDbLine
 10
-261.2026898658769
 20
-158.5001395290739
 30
0.0
 11
-160.2026898658769
 21
-158.5001395290739
 31
0.0
  0
ARC
  5
369
330
1F
100
AcDbEntity
  8
0
  6
CONTINUOUS
 62
     3
100
AcDbCircle
 10
-160.2026898658769
 20
-160.5001395290739
 30
0.0
 40
2.0
100
AcDbArc
 50
0.0
 51
90.0
  0
ARC
  5
36A
330
1F
100
AcDbEntity
  8
0
  6
CONTINUOUS
 62
     3
100
AcDbCircle
 10
-261.2026898658769
 20
-160.5001395290739
 30
0.0
 40
2.0
100
AcDbArc
 50
90.0
 51
180.0
  0
ARC
  5
36B
330
1F
100
AcDbEntity
  8
0
  6
CONTINUOUS
 62
     3
100
AcDbCircle
 10
-173.2026898658769
 20
-153.5001395290739
 30
0.0
 40
5.0
100
AcDbArc
 50
180.0
 51
270.0
  0
ARC
  5
36C
330
1F
100
AcDbEntity
  8
0
  6
CONTINUOUS
 62
     3
100
AcDbCircle
 10
-248.2026898658769
 20
-153.5001395290739
 30
0.0
 40
5.0
100
AcDbArc
 50
270.0
 51
0.0
  0
LINE
  5
36D
330
1F
100
AcDbEntity
  8
0
  6
CONTINUOUS
 62
     3
100
AcDbLine
 10
-476.3443428025842
 20
-181.0001395290745
 30
0.0
 11
-476.3443428025842
 21
-184.5001395290743
 31
0.0
  0
LINE
  5
36E
330
1F
100
AcDbEntity
  8
0
  6
CONTINUOUS
 62
     3
100
AcDbLine
 10
-441.3443428025843
 20
-181.0001395290745
 30
0.0
 11
-441.3443428025843
 21
-184.5001395290742
 31
0.0
  0
LINE
  5
36F
330
1F
100
AcDbEntity
  8
0
  6
CONTINUOUS
 62
     3
100
AcDbLine
 10
-437.8443428025843
 20
-184.5001395290743
 30
0.0
 11
-479.8443428025842
 21
-184.5001395290743
 31
0.0
  0
LINE
  5
370
330
1F
100
AcDbEntity
  8
0
  6
CONTINUOUS
 62
     3
100
AcDbLine
 10
-437.8443428025843
 20
-200.5001395290742
 30
0.0
 11
-479.8443428025842
 21
-200.5001395290742
 31
0.0
  0
LINE
  5
371
330
1F
100
AcDbEntity
  8
0
  6
CONTINUOUS
 62
     3
100
AcDbLine
 10
-480.8443428025842
 20
-185.5001395290743
 30
0.0
 11
-480.8443428025842
 21
-199.5001395290742
 31
0.0
  0
LINE
  5
372
330
1F
100
AcDbEntity
  8
0
  6
CONTINUOUS
 62
     3
100
AcDbLine
 10
-436.8443428025843
 20
-185.5001395290743
 30
0.0
 11
-436.8443428025843
 21
-199.5001395290742
 31
0.0
  0
LINE
  5
373
330
1F
100
AcDbEntity
  8
0
  6
CONTINUOUS
 62
     3
100
AcDbLine
 10
-425.3443428025842
 20
-181.0001395290741
 30
0.0
 11
-492.344342802584
 21
-181.0001395290741
 31
0.0
  0
LINE
  5
374
330
1F
100
AcDbEntity
  8
0
  6
CONTINUOUS
 62
     3
100
AcDbLine
 10
-423.8443428025842
 20
-170.5001395290741
 30
0.0
 11
-423.8443428025842
 21
-176.0001395290741
 31
0.0
  0
LINE
  5
375
330
1F
100
AcDbEntity
  8
0
  6
CONTINUOUS
 62
     3
100
AcDbLine
 10
-423.8443428025842
 20
-176.0001395290741
 30
0.0
 11
-425.3443428025842
 21
-181.0001395290741
 31
0.0
  0
LINE
  5
376
330
1F
100
AcDbEntity
  8
0
  6
CONTINUOUS
 62
     3
100
AcDbLine
 10
-423.8443428025842
 20
-176.0001395290741
 30
0.0
 11
-493.8443428025842
 21
-176.0001395290741
 31
0.0
  0
LINE
  5
377
330
1F
100
AcDbEntity
  8
0
  6
CONTINUOUS
 62
     3
100
AcDbLine
 10
-493.8443428025842
 20
-170.5001395290741
 30
0.0
 11
-493.8443428025842
 21
-176.0001395290741
 31
0.0
  0
LINE
  5
378
330
1F
100
AcDbEntity
  8
0
  6
CONTINUOUS
 62
     3
100
AcDbLine
 10
-493.8443428025842
 20
-176.0001395290741
 30
0.0
 11
-492.3443428025842
 21
-181.0001395290741
 31
0.0
  0
LINE
  5
379
330
1F
100
AcDbEntity
  8
0
  6
CONTINUOUS
 62
     3
100
AcDbLine
 10
-406.3443428025842
 20
-170.5001395290741
 30
0.0
 11
-406.3443428025842
 21
-160.5001395290741
 31
0.0
  0
LINE
  5
37A
330
1F
100
AcDbEntity
  8
0
  6
CONTINUOUS
 62
     3
100
AcDbLine
 10
-511.3443428025842
 20
-170.5001395290741
 30
0.0
 11
-511.3443428025842
 21
-160.5001395290741
 31
0.0
  0
LINE
  5
37B
330
1F
100
AcDbEntity
  8
0
  6
CONTINUOUS
 62
     3
100
AcDbLine
 10
-511.3443428025842
 20
-170.5001395290741
 30
0.0
 11
-406.3443428025842
 21
-170.5001395290741
 31
0.0
  0
LINE
  5
37C
330
1F
100
AcDbEntity
  8
0
  6
CONTINUOUS
 62
     3
100
AcDbLine
 10
-509.3443428025842
 20
-158.5001395290741
 30
0.0
 11
-408.3443428025842
 21
-158.5001395290741
 31
0.0
  0
ARC
  5
37D
330
1F
100
AcDbEntity
  8
0
  6
CONTINUOUS
 62
     3
100
AcDbCircle
 10
-408.3443428025842
 20
-160.5001395290741
 30
0.0
 40
2.0
100
AcDbArc
 50
0.0
 51
90.0
  0
ARC
  5
37E
330
1F
100
AcDbEntity
  8
0
  6
CONTINUOUS
 62
     3
100
AcDbCircle
 10
-509.3443428025842
 20
-160.5001395290741
 30
0.0
 40
2.0
100
AcDbArc
 50
90.0
 51
180.0
  0
ARC
  5
37F
330
1F
100
AcDbEntity
  8
0
  6
CONTINUOUS
 62
     3
100
AcDbCircle
 10
-421.3443428025842
 20
-153.5001395290741
 30
0.0
 40
5.0
100
AcDbArc
 50
180.0
 51
270.0
  0
ARC
  5
380
330
1F
100
AcDbEntity
  8
0
  6
CONTINUOUS
 62
     3
100
AcDbCircle
 10
-496.3443428025842
 20
-153.5001395290741
 30
0.0
 40
5.0
100
AcDbArc
 50
270.0
 51
0.0
  0
LINE
  5
381
330
1F
100
AcDbEntity
  8
0
  6
CONTINUOUS
 62
     3
100
AcDbLine
 10
-505.5453661090014
 20
-105.0001395290737
 30
0.0
 11
-531.545366109002
 21
-105.0001395290737
 31
0.0
  0
ARC
  5
382
330
1F
100
AcDbEntity
  8
0
  6
CONTINUOUS
 62
     3
100
AcDbCircle
 10
-506.6178454944803
 20
-104.000139529074
 30
0.0
 40
10.0
100
AcDbArc
 50
30.00000000000033
 51
68.99021849220266
  0
LINE
  5
383
330
1F
100
AcDbEntity
  8
0
  6
CONTINUOUS
 62
     3
100
AcDbLine
 10
-522.5453661090015
 20
-113.0001395290738
 30
0.0
 11
-514.5453661090016
 21
-113.0001395290738
 31
0.0
  0
LINE
  5
384
330
1F
100
AcDbEntity
  8
0
  6
CONTINUOUS
 62
     3
100
AcDbLine
 10
-513.5453661090016
 20
-112.0001395290738
 30
0.0
 11
-513.5453661090016
 21
-105.5001395290737
 31
0.0
  0
LINE
  5
385
330
1F
100
AcDbEntity
  8
0
  6
CONTINUOUS
 62
     3
100
AcDbLine
 10
-523.5453661090016
 20
-112.0001395290738
 30
0.0
 11
-523.5453661090016
 21
-105.5001395290739
 31
0.0
  0
LINE
  5
386
330
1F
100
AcDbEntity
  8
0
  6
CONTINUOUS
 62
     3
100
AcDbLine
 10
-519.2524728901881
 20
-112.0001395290736
 30
0.0
 11
-519.2524728901881
 21
-105.5001395290739
 31
0.0
  0
LINE
  5
387
330
1F
100
AcDbEntity
  8
0
  6
CONTINUOUS
 62
     3
100
AcDbLine
 10
-517.8382593278152
 20
-112.0001395290738
 30
0.0
 11
-517.8382593278152
 21
-105.5001395290739
 31
0.0
  0
LINE
  5
388
330
1F
100
AcDbEntity
  8
0
  6
CONTINUOUS
 62
     3
100
AcDbLine
 10
-523.5453661090016
 20
-112.0001395290738
 30
0.0
 11
-522.5453661090015
 21
-113.0001395290738
 31
0.0
  0
LINE
  5
389
330
1F
100
AcDbEntity
  8
0
  6
CONTINUOUS
 62
     3
100
AcDbLine
 10
-514.5453661090016
 20
-113.0001395290738
 30
0.0
 11
-513.5453661090016
 21
-112.0001395290738
 31
0.0
  0
LINE
  5
38A
330
1F
100
AcDbEntity
  8
0
  6
CONTINUOUS
 62
     3
100
AcDbLine
 10
-519.2524728901881
 20
-112.0001395290738
 30
0.0
 11
-517.8382593278152
 21
-112.0001395290738
 31
0.0
  0
LINE
  5
38B
330
1F
100
AcDbEntity
  8
0
  6
CONTINUOUS
 62
     3
100
AcDbLine
 10
-523.5453661090016
 20
-105.5001395290739
 30
0.0
 11
-513.5453661090017
 21
-105.5001395290739
 31
0.0
  0
ARC
  5
38C
330
1F
100
AcDbEntity
  8
0
  6
CONTINUOUS
 62
     3
100
AcDbCircle
 10
-521.3989194995949
 20
-110.1965230055569
 30
0.0
 40
2.803616523516803
100
AcDbArc
 50
220.0396696777675
 51
319.9603303222328
  0
ARC
  5
38D
330
1F
100
AcDbEntity
  8
0
  6
CONTINUOUS
 62
     3
100
AcDbCircle
 10
-515.6918127184083
 20
-110.1965230055569
 30
0.0
 40
2.803616523516803
100
AcDbArc
 50
220.0396696777671
 51
319.9603303222321
  0
LINE
  5
38E
330
1F
100
AcDbEntity
  8
0
  6
CONTINUOUS
 62
     3
100
AcDbLine
 10
-524.0453661090017
 20
-105.0001395290737
 30
0.0
 11
-523.5453661090016
 21
-105.5001395290739
 31
0.0
  0
LINE
  5
38F
330
1F
100
AcDbEntity
  8
0
  6
CONTINUOUS
 62
     3
100
AcDbLine
 10
-513.0453661090016
 20
-105.0001395290737
 30
0.0
 11
-513.5453661090016
 21
-105.5001395290737
 31
0.0
  0
LINE
  5
390
330
1F
100
AcDbEntity
  8
0
  6
CONTINUOUS
 62
     3
100
AcDbLine
 10
-476.3443428025842
 20
-361.8479704404509
 30
0.0
 11
-476.3443428025842
 21
-365.3479704404507
 31
0.0
  0
LINE
  5
391
330
1F
100
AcDbEntity
  8
0
  6
CONTINUOUS
 62
     3
100
AcDbLine
 10
-441.3443428025843
 20
-361.8479704404509
 30
0.0
 11
-441.3443428025843
 21
-365.3479704404506
 31
0.0
  0
LINE
  5
392
330
1F
100
AcDbEntity
  8
0
  6
CONTINUOUS
 62
     3
100
AcDbLine
 10
-437.8443428025843
 20
-365.3479704404507
 30
0.0
 11
-479.8443428025842
 21
-365.3479704404507
 31
0.0
  0
LINE
  5
393
330
1F
100
AcDbEntity
  8
0
  6
CONTINUOUS
 62
     3
100
AcDbLine
 10
-437.8443428025843
 20
-381.3479704404506
 30
0.0
 11
-479.8443428025842
 21
-381.3479704404506
 31
0.0
  0
LINE
  5
394
330
1F
100
AcDbEntity
  8
0
  6
CONTINUOUS
 62
     3
100
AcDbLine
 10
-480.8443428025842
 20
-366.3479704404507
 30
0.0
 11
-480.8443428025842
 21
-380.3479704404506
 31
0.0
  0
LINE
  5
395
330
1F
100
AcDbEntity
  8
0
  6
CONTINUOUS
 62
     3
100
AcDbLine
 10
-436.8443428025843
 20
-366.3479704404507
 30
0.0
 11
-436.8443428025843
 21
-380.3479704404506
 31
0.0
  0
LINE
  5
396
330
1F
100
AcDbEntity
  8
0
  6
CONTINUOUS
 62
     3
100
AcDbLine
 10
-466.8443428025843
 20
-381.3479704404506
 30
0.0
 11
-466.8443428025843
 21
-388.3479704404508
 31
0.0
  0
LINE
  5
397
330
1F
100
AcDbEntity
  8
0
  6
CONTINUOUS
 62
     3
100
AcDbLine
 10
-450.8443428025842
 20
-381.3479704404506
 30
0.0
 11
-450.8443428025842
 21
-388.3479704404506
 31
0.0
  0
LINE
  5
398
330
1F
100
AcDbEntity
  8
0
  6
CONTINUOUS
 62
     3
100
AcDbLine
 10
-450.8443428025842
 20
-388.3479704404506
 30
0.0
 11
-466.8443428025843
 21
-388.3479704404508
 31
0.0
  0
LINE
  5
399
330
1F
100
AcDbEntity
  8
0
  6
CONTINUOUS
 62
     3
100
AcDbLine
 10
-465.3443428025846
 20
-393.3479704404507
 30
0.0
 11
-452.3443428025847
 21
-393.3479704404507
 31
0.0
  0
LINE
  5
39A
330
1F
100
AcDbEntity
  8
0
  6
CONTINUOUS
 62
     3
100
AcDbLine
 10
-452.3443428025847
 20
-393.3479704404507
 30
0.0
 11
-451.344342802584
 21
-392.347970440451
 31
0.0
  0
LINE
  5
39B
330
1F
100
AcDbEntity
  8
0
  6
CONTINUOUS
 62
     3
100
AcDbLine
 10
-465.3443428025846
 20
-393.3479704404507
 30
0.0
 11
-466.3443428025844
 21
-392.3479704404507
 31
0.0
  0
LINE
  5
39C
330
1F
100
AcDbEntity
  8
0
  6
CONTINUOUS
 62
     3
100
AcDbLine
 10
-454.3443428025826
 20
-399.3479704404507
 30
0.0
 11
-463.3443428025864
 21
-399.3479704404505
 31
0.0
  0
LINE
  5
39D
330
1F
100
AcDbEntity
  8
0
  6
CONTINUOUS
 62
     3
100
AcDbLine
 10
-454.3443428025871
 20
-403.3479704404505
 30
0.0
 11
-463.3443428025818
 21
-403.3479704404505
 31
0.0
  0
LINE
  5
39E
330
1F
100
AcDbEntity
  8
0
  6
CONTINUOUS
 62
     3
100
AcDbLine
 10
-463.3443428025839
 20
-394.3479704404489
 30
0.0
 11
-463.3443428025835
 21
-398.6477629022382
 31
0.0
  0
ARC
  5
39F
330
1F
100
AcDbEntity
  8
0
  6
CONTINUOUS
 62
     3
100
AcDbCircle
 10
-464.3443428025839
 20
-394.3479704404489
 30
0.0
 40
1.0
100
AcDbArc
 50
0.0
 51
90.0
  0
LINE
  5
3A0
330
1F
100
AcDbEntity
  8
0
  6
CONTINUOUS
 62
     3
100
AcDbLine
 10
-454.3443428025846
 20
-394.3479704404498
 30
0.0
 11
-454.3443428025851
 21
-398.6477629022394
 31
0.0
  0
ARC
  5
3A1
330
1F
100
AcDbEntity
  8
0
  6
CONTINUOUS
 62
     3
100
AcDbCircle
 10
-453.3443428025846
 20
-394.3479704404498
 30
0.0
 40
1.0
100
AcDbArc
 50
89.99999999999675
 51
180.0
  0
LINE
  5
3A2
330
1F
100
AcDbEntity
  8
0
  6
CONTINUOUS
 62
     3
100
AcDbLine
 10
-451.8443428025843
 20
-400.2578960261171
 30
0.0
 11
-451.8443428025844
 21
-402.4380448547856
 31
0.0
  0
LINE
  5
3A3
330
1F
100
AcDbEntity
  8
0
  6
CONTINUOUS
 62
     3
100
AcDbLine
 10
-465.8443428025838
 20
-400.2578960261163
 30
0.0
 11
-465.8443428025842
 21
-402.4380448547844
 31
0.0
  0
LINE
  5
3A4
330
1F
100
AcDbEntity
  8
0
  6
CONTINUOUS
 62
     3
100
AcDbLine
 10
-463.3443428025818
 20
-403.3479704404505
 30
0.0
 11
-465.8443428025842
 21
-402.4380448547844
 31
0.0
  0
LINE
  5
3A5
330
1F
100
AcDbEntity
  8
0
  6
CONTINUOUS
 62
     3
100
AcDbLine
 10
-464.0023226592568
 20
-399.5874555230238
 30
0.0
 11
-465.8443428025838
 21
-400.2578960261163
 31
0.0
  0
ARC
  5
3A6
330
1F
100
AcDbEntity
  8
0
  6
CONTINUOUS
 62
     3
100
AcDbCircle
 10
-464.3443428025835
 20
-398.6477629022382
 30
0.0
 40
1.0
100
AcDbArc
 50
290.0000000000552
 51
0.0
  0
LINE
  5
3A7
330
1F
100
AcDbEntity
  8
0
  6
CONTINUOUS
 62
     3
100
AcDbLine
 10
-451.8443428025844
 20
-402.4380448547856
 30
0.0
 11
-454.3443428025871
 21
-403.3479704404505
 31
0.0
  0
LINE
  5
3A8
330
1F
100
AcDbEntity
  8
0
  6
CONTINUOUS
 62
     3
100
AcDbLine
 10
-453.6863629459116
 20
-399.587455523025
 30
0.0
 11
-451.8443428025843
 21
-400.2578960261171
 31
0.0
  0
ARC
  5
3A9
330
1F
100
AcDbEntity
  8
0
  6
CONTINUOUS
 62
     3
100
AcDbCircle
 10
-453.3443428025851
 20
-398.6477629022394
 30
0.0
 40
1.0
100
AcDbArc
 50
180.0
 51
249.9999999999448
  0
LINE
  5
3AA
330
1F
100
AcDbEntity
  8
0
  6
CONTINUOUS
 62
     3
100
AcDbLine
 10
-466.3443428025843
 20
-388.3479704404506
 30
0.0
 11
-466.3443428025844
 21
-392.3479704404507
 31
0.0
  0
LINE
  5
3AB
330
1F
100
AcDbEntity
  8
0
  6
CONTINUOUS
 62
     3
100
AcDbLine
 10
-451.3443428025843
 20
-388.3479704404506
 30
0.0
 11
-451.344342802584
 21
-392.347970440451
 31
0.0
  0
LINE
  5
3AC
330
1F
100
AcDbEntity
  8
0
  6
CONTINUOUS
 62
     3
100
AcDbLine
 10
-451.8443428025843
 20
-400.2578960261171
 30
0.0
 11
-465.8443428025838
 21
-400.2578960261171
 31
0.0
  0
LINE
  5
3AD
330
1F
100
AcDbEntity
  8
0
  6
CONTINUOUS
 62
     3
100
AcDbLine
 10
-451.8443428025844
 20
-402.4380448547856
 30
0.0
 11
-465.8443428025842
 21
-402.4380448547856
 31
0.0
  0
LINE
  5
3AE
330
1F
100
AcDbEntity
  8
0
  6
CONTINUOUS
 62
     3
100
AcDbLine
 10
-450.8443428025842
 20
-382.3479704404506
 30
0.0
 11
-466.8443428025843
 21
-382.3479704404506
 31
0.0
  0
LINE
  5
3AF
330
1F
100
AcDbEntity
  8
0
  6
CONTINUOUS
 62
     3
100
AcDbLine
 10
-450.8443428025842
 20
-383.3479704404506
 30
0.0
 11
-466.8443428025843
 21
-383.3479704404506
 31
0.0
  0
LINE
  5
3B0
330
1F
100
AcDbEntity
  8
0
  6
CONTINUOUS
 62
     3
100
AcDbLine
 10
-450.8443428025842
 20
-384.3479704404506
 30
0.0
 11
-466.8443428025843
 21
-384.3479704404506
 31
0.0
  0
LINE
  5
3B1
330
1F
100
AcDbEntity
  8
0
  6
CONTINUOUS
 62
     3
100
AcDbLine
 10
-425.3443428025842
 20
-361.8479704404505
 30
0.0
 11
-492.344342802584
 21
-361.8479704404505
 31
0.0
  0
LINE
  5
3B2
330
1F
100
AcDbEntity
  8
0
  6
CONTINUOUS
 62
     3
100
AcDbLine
 10
-423.8443428025842
 20
-351.3479704404505
 30
0.0
 11
-423.8443428025842
 21
-356.8479704404505
 31
0.0
  0
LINE
  5
3B3
330
1F
100
AcDbEntity
  8
0
  6
CONTINUOUS
 62
     3
100
AcDbLine
 10
-423.8443428025842
 20
-356.8479704404505
 30
0.0
 11
-425.3443428025842
 21
-361.8479704404505
 31
0.0
  0
LINE
  5
3B4
330
1F
100
AcDbEntity
  8
0
  6
CONTINUOUS
 62
     3
100
AcDbLine
 10
-423.8443428025842
 20
-356.8479704404505
 30
0.0
 11
-493.8443428025842
 21
-356.8479704404505
 31
0.0
  0
LINE
  5
3B5
330
1F
100
AcDbEntity
  8
0
  6
CONTINUOUS
 62
     3
100
AcDbLine
 10
-493.8443428025842
 20
-351.3479704404505
 30
0.0
 11
-493.8443428025842
 21
-356.8479704404505
 31
0.0
  0
LINE
  5
3B6
330
1F
100
AcDbEntity
  8
0
  6
CONTINUOUS
 62
     3
100
AcDbLine
 10
-493.8443428025842
 20
-356.8479704404505
 30
0.0
 11
-492.3443428025842
 21
-361.8479704404505
 31
0.0
  0
LINE
  5
3B7
330
1F
100
AcDbEntity
  8
0
  6
CONTINUOUS
 62
     3
100
AcDbLine
 10
-406.3443428025842
 20
-351.3479704404505
 30
0.0
 11
-406.3443428025842
 21
-341.3479704404505
 31
0.0
  0
LINE
  5
3B8
330
1F
100
AcDbEntity
  8
0
  6
CONTINUOUS
 62
     3
100
AcDbLine
 10
-511.3443428025842
 20
-351.3479704404505
 30
0.0
 11
-511.3443428025842
 21
-341.3479704404505
 31
0.0
  0
LINE
  5
3B9
330
1F
100
AcDbEntity
  8
0
  6
CONTINUOUS
 62
     3
100
AcDbLine
 10
-511.3443428025842
 20
-351.3479704404505
 30
0.0
 11
-406.3443428025842
 21
-351.3479704404505
 31
0.0
  0
LINE
  5
3BA
330
1F
100
AcDbEntity
  8
0
  6
CONTINUOUS
 62
     3
100
AcDbLine
 10
-509.3443428025842
 20
-339.3479704404505
 30
0.0
 11
-408.3443428025842
 21
-339.3479704404505
 31
0.0
  0
ARC
  5
3BB
330
1F
100
AcDbEntity
  8
0
  6
CONTINUOUS
 62
     3
100
AcDbCircle
 10
-408.3443428025842
 20
-341.3479704404505
 30
0.0
 40
2.0
100
AcDbArc
 50
0.0
 51
90.0
  0
ARC
  5
3BC
330
1F
100
AcDbEntity
  8
0
  6
CONTINUOUS
 62
     3
100
AcDbCircle
 10
-509.3443428025842
 20
-341.3479704404505
 30
0.0
 40
2.0
100
AcDbArc
 50
90.0
 51
180.0
  0
ARC
  5
3BD
330
1F
100
AcDbEntity
  8
0
  6
CONTINUOUS
 62
     3
100
AcDbCircle
 10
-421.3443428025842
 20
-334.3479704404505
 30
0.0
 40
5.0
100
AcDbArc
 50
180.0
 51
270.0
  0
ARC
  5
3BE
330
1F
100
AcDbEntity
  8
0
  6
CONTINUOUS
 62
     3
100
AcDbCircle
 10
-496.3443428025842
 20
-334.3479704404505
 30
0.0
 40
5.0
100
AcDbArc
 50
270.0
 51
0.0
  0
LINE
  5
3BF
330
1F
100
AcDbEntity
  8
0
  6
CONTINUOUS
 62
     3
100
AcDbLine
 10
-426.3443428025842
 20
-334.3479704404505
 30
0.0
 11
-426.3443428025842
 21
-296.9580394185516
 31
0.0
  0
LINE
  5
3C0
330
1F
100
AcDbEntity
  8
0
  6
CONTINUOUS
 62
     3
100
AcDbLine
 10
-491.3443428025843
 20
-334.3479704404505
 30
0.0
 11
-491.3443428025843
 21
-309.1983560245242
 31
0.0
  0
LINE
  5
3C1
330
1F
100
AcDbEntity
  8
0
  6
CONTINUOUS
 62
     3
100
AcDbLine
 10
-450.8443428025842
 20
-200.5001395290742
 30
0.0
 11
-450.8443428025842
 21
-206.0001395290743
 31
0.0
  0
LINE
  5
3C2
330
1F
100
AcDbEntity
  8
0
  6
CONTINUOUS
 62
     3
100
AcDbLine
 10
-466.8443428025843
 20
-200.5001395290742
 30
0.0
 11
-466.8443428025843
 21
-206.0001395290743
 31
0.0
  0
LINE
  5
3C3
330
1F
100
AcDbEntity
  8
0
  6
CONTINUOUS
 62
     3
100
AcDbLine
 10
-466.8443428025843
 20
-201.5001395290743
 30
0.0
 11
-450.8443428025842
 21
-201.5001395290743
 31
0.0
  0
LINE
  5
3C4
330
1F
100
AcDbEntity
  8
0
  6
CONTINUOUS
 62
     3
100
AcDbLine
 10
-466.8443428025843
 20
-202.5001395290742
 30
0.0
 11
-450.8443428025842
 21
-202.5001395290742
 31
0.0
  0
LINE
  5
3C5
330
1F
100
AcDbEntity
  8
0
  6
CONTINUOUS
 62
     3
100
AcDbLine
 10
-451.8443428025842
 20
-206.5001395290743
 30
0.0
 11
-451.8443428025842
 21
-234.5001395290742
 31
0.0
  0
LINE
  5
3C6
330
1F
100
AcDbEntity
  8
0
  6
CONTINUOUS
 62
     3
100
AcDbLine
 10
-451.8443428025842
 20
-234.5001395290742
 30
0.0
 11
-465.8443428025842
 21
-234.5001395290742
 31
0.0
  0
LINE
  5
3C7
330
1F
100
AcDbEntity
  8
0
  6
CONTINUOUS
 62
     3
100
AcDbLine
 10
-451.8443428025842
 20
-211.5001395290743
 30
0.0
 11
-465.8443428025842
 21
-211.5001395290743
 31
0.0
  0
LINE
  5
3C8
330
1F
100
AcDbEntity
  8
0
  6
CONTINUOUS
 62
     3
100
AcDbLine
 10
-465.8443428025842
 20
-206.5001395290743
 30
0.0
 11
-465.8443428025842
 21
-234.5001395290742
 31
0.0
  0
LINE
  5
3C9
330
1F
100
AcDbEntity
  8
0
  6
CONTINUOUS
 62
     3
100
AcDbLine
 10
-453.8443428025842
 20
-236.5001395290742
 30
0.0
 11
-463.8443428025842
 21
-236.5001395290742
 31
0.0
  0
LINE
  5
3CA
330
1F
100
AcDbEntity
  8
0
  6
CONTINUOUS
 62
     3
100
AcDbLine
 10
-451.8443428025842
 20
-234.5001395290742
 30
0.0
 11
-453.8443428025842
 21
-236.5001395290742
 31
0.0
  0
LINE
  5
3CB
330
1F
100
AcDbEntity
  8
0
  6
CONTINUOUS
 62
     3
100
AcDbLine
 10
-465.8443428025842
 20
-234.5001395290742
 30
0.0
 11
-463.8443428025842
 21
-236.5001395290742
 31
0.0
  0
LINE
  5
3CC
330
1F
100
AcDbEntity
  8
0
  6
CONTINUOUS
 62
     3
100
AcDbLine
 10
-466.3443428025843
 20
-206.5001395290743
 30
0.0
 11
-451.3443428025842
 21
-206.5001395290743
 31
0.0
  0
LINE
  5
3CD
330
1F
100
AcDbEntity
  8
0
  6
CONTINUOUS
 62
     3
100
AcDbLine
 10
-466.8443428025843
 20
-206.0001395290743
 30
0.0
 11
-466.3443428025843
 21
-206.5001395290743
 31
0.0
  0
LINE
  5
3CE
330
1F
100
AcDbEntity
  8
0
  6
CONTINUOUS
 62
     3
100
AcDbLine
 10
-450.8443428025842
 20
-206.0001395290743
 30
0.0
 11
-451.3443428025842
 21
-206.5001395290743
 31
0.0
  0
LINE
  5
3CF
330
1F
100
AcDbEntity
  8
0
  6
CONTINUOUS
 62
     3
100
AcDbLine
 10
-450.8443428025842
 20
-200.5001395290745
 30
0.0
 11
-450.8443428025842
 21
-206.0001395290745
 31
0.0
  0
LINE
  5
3D0
330
1F
100
AcDbEntity
  8
0
  6
CONTINUOUS
 62
     3
100
AcDbLine
 10
-466.8443428025843
 20
-200.5001395290745
 30
0.0
 11
-466.8443428025843
 21
-206.0001395290745
 31
0.0
  0
LINE
  5
3D1
330
1F
100
AcDbEntity
  8
0
  6
CONTINUOUS
 62
     3
100
AcDbLine
 10
-466.8443428025843
 20
-201.5001395290745
 30
0.0
 11
-450.8443428025842
 21
-201.5001395290745
 31
0.0
  0
LINE
  5
3D2
330
1F
100
AcDbEntity
  8
0
  6
CONTINUOUS
 62
     3
100
AcDbLine
 10
-466.8443428025843
 20
-202.5001395290745
 30
0.0
 11
-450.8443428025842
 21
-202.5001395290745
 31
0.0
  0
LINE
  5
3D3
330
1F
100
AcDbEntity
  8
0
  6
CONTINUOUS
 62
     3
100
AcDbLine
 10
-451.8443428025842
 20
-206.5001395290745
 30
0.0
 11
-451.8443428025842
 21
-234.5001395290745
 31
0.0
  0
LINE
  5
3D4
330
1F
100
AcDbEntity
  8
0
  6
CONTINUOUS
 62
     3
100
AcDbLine
 10
-451.8443428025842
 20
-234.5001395290745
 30
0.0
 11
-465.8443428025842
 21
-234.5001395290745
 31
0.0
  0
LINE
  5
3D5
330
1F
100
AcDbEntity
  8
0
  6
CONTINUOUS
 62
     3
100
AcDbLine
 10
-451.8443428025842
 20
-211.5001395290745
 30
0.0
 11
-465.8443428025842
 21
-211.5001395290745
 31
0.0
  0
LINE
  5
3D6
330
1F
100
AcDbEntity
  8
0
  6
CONTINUOUS
 62
     3
100
AcDbLine
 10
-465.8443428025842
 20
-206.5001395290745
 30
0.0
 11
-465.8443428025842
 21
-234.5001395290745
 31
0.0
  0
LINE
  5
3D7
330
1F
100
AcDbEntity
  8
0
  6
CONTINUOUS
 62
     3
100
AcDbLine
 10
-453.8443428025842
 20
-236.5001395290745
 30
0.0
 11
-463.8443428025842
 21
-236.5001395290745
 31
0.0
  0
LINE
  5
3D8
330
1F
100
AcDbEntity
  8
0
  6
CONTINUOUS
 62
     3
100
AcDbLine
 10
-451.8443428025842
 20
-234.5001395290745
 30
0.0
 11
-453.8443428025842
 21
-236.5001395290745
 31
0.0
  0
LINE
  5
3D9
330
1F
100
AcDbEntity
  8
0
  6
CONTINUOUS
 62
     3
100
AcDbLine
 10
-465.8443428025842
 20
-234.5001395290745
 30
0.0
 11
-463.8443428025842
 21
-236.5001395290745
 31
0.0
  0
LINE
  5
3DA
330
1F
100
AcDbEntity
  8
0
  6
CONTINUOUS
 62
     3
100
AcDbLine
 10
-466.3443428025843
 20
-206.5001395290745
 30
0.0
 11
-451.3443428025842
 21
-206.5001395290745
 31
0.0
  0
LINE
  5
3DB
330
1F
100
AcDbEntity
  8
0
  6
CONTINUOUS
 62
     3
100
AcDbLine
 10
-466.8443428025843
 20
-206.0001395290745
 30
0.0
 11
-466.3443428025843
 21
-206.5001395290745
 31
0.0
  0
LINE
  5
3DC
330
1F
100
AcDbEntity
  8
0
  6
CONTINUOUS
 62
     3
100
AcDbLine
 10
-450.8443428025842
 20
-206.0001395290745
 30
0.0
 11
-451.3443428025842
 21
-206.5001395290745
 31
0.0
  0
LINE
  5
3DD
330
1F
100
AcDbEntity
  8
0
  6
CONTINUOUS
 62
     3
100
AcDbLine
 10
-202.7026898658769
 20
-200.5001395290741
 30
0.0
 11
-202.7026898658769
 21
-206.0001395290741
 31
0.0
  0
LINE
  5
3DE
330
1F
100
AcDbEntity
  8
0
  6
CONTINUOUS
 62
     3
100
AcDbLine
 10
-218.7026898658769
 20
-200.5001395290741
 30
0.0
 11
-218.7026898658769
 21
-206.0001395290741
 31
0.0
  0
LINE
  5
3DF
330
1F
100
AcDbEntity
  8
0
  6
CONTINUOUS
 62
     3
100
AcDbLine
 10
-218.7026898658771
 20
-201.5001395290741
 30
0.0
 11
-202.7026898658769
 21
-201.5001395290741
 31
0.0
  0
LINE
  5
3E0
330
1F
100
AcDbEntity
  8
0
  6
CONTINUOUS
 62
     3
100
AcDbLine
 10
-218.7026898658771
 20
-202.5001395290741
 30
0.0
 11
-202.7026898658769
 21
-202.5001395290741
 31
0.0
  0
LINE
  5
3E1
330
1F
100
AcDbEntity
  8
0
  6
CONTINUOUS
 62
     3
100
AcDbLine
 10
-203.7026898658769
 20
-206.5001395290741
 30
0.0
 11
-203.7026898658769
 21
-234.5001395290741
 31
0.0
  0
LINE
  5
3E2
330
1F
100
AcDbEntity
  8
0
  6
CONTINUOUS
 62
     3
100
AcDbLine
 10
-203.7026898658769
 20
-234.5001395290741
 30
0.0
 11
-217.7026898658769
 21
-234.5001395290741
 31
0.0
  0
LINE
  5
3E3
330
1F
100
AcDbEntity
  8
0
  6
CONTINUOUS
 62
     3
100
AcDbLine
 10
-203.7026898658769
 20
-211.5001395290741
 30
0.0
 11
-217.7026898658769
 21
-211.5001395290741
 31
0.0
  0
LINE
  5
3E4
330
1F
100
AcDbEntity
  8
0
  6
CONTINUOUS
 62
     3
100
AcDbLine
 10
-217.7026898658769
 20
-206.5001395290741
 30
0.0
 11
-217.7026898658769
 21
-234.5001395290741
 31
0.0
  0
LINE
  5
3E5
330
1F
100
AcDbEntity
  8
0
  6
CONTINUOUS
 62
     3
100
AcDbLine
 10
-205.7026898658769
 20
-236.5001395290741
 30
0.0
 11
-215.7026898658769
 21
-236.5001395290741
 31
0.0
  0
LINE
  5
3E6
330
1F
100
AcDbEntity
  8
0
  6
CONTINUOUS
 62
     3
100
AcDbLine
 10
-203.7026898658769
 20
-234.5001395290741
 30
0.0
 11
-205.7026898658769
 21
-236.5001395290741
 31
0.0
  0
LINE
  5
3E7
330
1F
100
AcDbEntity
  8
0
  6
CONTINUOUS
 62
     3
100
AcDbLine
 10
-217.7026898658769
 20
-234.5001395290741
 30
0.0
 11
-215.7026898658769
 21
-236.5001395290741
 31
0.0
  0
LINE
  5
3E8
330
1F
100
AcDbEntity
  8
0
  6
CONTINUOUS
 62
     3
100
AcDbLine
 10
-218.2026898658769
 20
-206.5001395290741
 30
0.0
 11
-203.2026898658769
 21
-206.5001395290741
 31
0.0
  0
LINE
  5
3E9
330
1F
100
AcDbEntity
  8
0
  6
CONTINUOUS
 62
     3
100
AcDbLine
 10
-218.7026898658769
 20
-206.0001395290741
 30
0.0
 11
-218.2026898658769
 21
-206.5001395290741
 31
0.0
  0
LINE
  5
3EA
330
1F
100
AcDbEntity
  8
0
  6
CONTINUOUS
 62
     3
100
AcDbLine
 10
-202.7026898658769
 20
-206.0001395290741
 30
0.0
 11
-203.2026898658769
 21
-206.5001395290741
 31
0.0
  0
LINE
  5
3EB
330
1F
100
AcDbEntity
  8
0
  6
CONTINUOUS
 62
     3
100
AcDbLine
 10
-202.7026898658769
 20
-200.5001395290743
 30
0.0
 11
-202.7026898658769
 21
-206.0001395290743
 31
0.0
  0
LINE
  5
3EC
330
1F
100
AcDbEntity
  8
0
  6
CONTINUOUS
 62
     3
100
AcDbLine
 10
-218.7026898658769
 20
-200.5001395290743
 30
0.0
 11
-218.7026898658769
 21
-206.0001395290743
 31
0.0
  0
LINE
  5
3ED
330
1F
100
AcDbEntity
  8
0
  6
CONTINUOUS
 62
     3
100
AcDbLine
 10
-218.7026898658771
 20
-201.5001395290743
 30
0.0
 11
-202.7026898658769
 21
-201.5001395290743
 31
0.0
  0
LINE
  5
3EE
330
1F
100
AcDbEntity
  8
0
  6
CONTINUOUS
 62
     3
100
AcDbLine
 10
-218.7026898658771
 20
-202.5001395290743
 30
0.0
 11
-202.7026898658769
 21
-202.5001395290743
 31
0.0
  0
LINE
  5
3EF
330
1F
100
AcDbEntity
  8
0
  6
CONTINUOUS
 62
     3
100
AcDbLine
 10
-203.7026898658769
 20
-206.5001395290743
 30
0.0
 11
-203.7026898658769
 21
-234.5001395290743
 31
0.0
  0
LINE
  5
3F0
330
1F
100
AcDbEntity
  8
0
  6
CONTINUOUS
 62
     3
100
AcDbLine
 10
-203.7026898658769
 20
-234.5001395290743
 30
0.0
 11
-217.7026898658769
 21
-234.5001395290743
 31
0.0
  0
LINE
  5
3F1
330
1F
100
AcDbEntity
  8
0
  6
CONTINUOUS
 62
     3
100
AcDbLine
 10
-203.7026898658769
 20
-211.5001395290743
 30
0.0
 11
-217.7026898658769
 21
-211.5001395290743
 31
0.0
  0
LINE
  5
3F2
330
1F
100
AcDbEntity
  8
0
  6
CONTINUOUS
 62
     3
100
AcDbLine
 10
-217.7026898658769
 20
-206.5001395290743
 30
0.0
 11
-217.7026898658769
 21
-234.5001395290743
 31
0.0
  0
LINE
  5
3F3
330
1F
100
AcDbEntity
  8
0
  6
CONTINUOUS
 62
     3
100
AcDbLine
 10
-205.7026898658769
 20
-236.5001395290743
 30
0.0
 11
-215.7026898658769
 21
-236.5001395290743
 31
0.0
  0
LINE
  5
3F4
330
1F
100
AcDbEntity
  8
0
  6
CONTINUOUS
 62
     3
100
AcDbLine
 10
-203.7026898658769
 20
-234.5001395290743
 30
0.0
 11
-205.7026898658769
 21
-236.5001395290743
 31
0.0
  0
LINE
  5
3F5
330
1F
100
AcDbEntity
  8
0
  6
CONTINUOUS
 62
     3
100
AcDbLine
 10
-217.7026898658769
 20
-234.5001395290743
 30
0.0
 11
-215.7026898658769
 21
-236.5001395290743
 31
0.0
  0
LINE
  5
3F6
330
1F
100
AcDbEntity
  8
0
  6
CONTINUOUS
 62
     3
100
AcDbLine
 10
-218.2026898658769
 20
-206.5001395290743
 30
0.0
 11
-203.2026898658769
 21
-206.5001395290743
 31
0.0
  0
LINE
  5
3F7
330
1F
100
AcDbEntity
  8
0
  6
CONTINUOUS
 62
     3
100
AcDbLine
 10
-218.7026898658769
 20
-206.0001395290743
 30
0.0
 11
-218.2026898658769
 21
-206.5001395290743
 31
0.0
  0
LINE
  5
3F8
330
1F
100
AcDbEntity
  8
0
  6
CONTINUOUS
 62
     3
100
AcDbLine
 10
-202.7026898658769
 20
-206.0001395290743
 30
0.0
 11
-203.2026898658769
 21
-206.5001395290743
 31
0.0
  0
LINE
  5
3F9
330
1F
100
AcDbEntity
  8
0
  6
CONTINUOUS
 62
     3
100
AcDbLine
 10
-479.8443428025842
 20
-184.5001395290743
 30
0.0
 11
-480.8443428025842
 21
-185.5001395290743
 31
0.0
  0
LINE
  5
3FA
330
1F
100
AcDbEntity
  8
0
  6
CONTINUOUS
 62
     3
100
AcDbLine
 10
-479.8443428025842
 20
-200.5001395290742
 30
0.0
 11
-480.8443428025842
 21
-199.5001395290742
 31
0.0
  0
LINE
  5
3FB
330
1F
100
AcDbEntity
  8
0
  6
CONTINUOUS
 62
     3
100
AcDbLine
 10
-437.8443428025843
 20
-184.5001395290743
 30
0.0
 11
-436.8443428025843
 21
-185.5001395290743
 31
0.0
  0
LINE
  5
3FC
330
1F
100
AcDbEntity
  8
0
  6
CONTINUOUS
 62
     3
100
AcDbLine
 10
-437.8443428025843
 20
-200.5001395290742
 30
0.0
 11
-436.8443428025843
 21
-199.5001395290742
 31
0.0
  0
LINE
  5
3FD
330
1F
100
AcDbEntity
  8
0
  6
CONTINUOUS
 62
     3
100
AcDbLine
 10
-231.7026898658769
 20
-184.5001395290741
 30
0.0
 11
-232.7026898658769
 21
-185.5001395290741
 31
0.0
  0
LINE
  5
3FE
330
1F
100
AcDbEntity
  8
0
  6
CONTINUOUS
 62
     3
100
AcDbLine
 10
-231.7026898658769
 20
-200.5001395290741
 30
0.0
 11
-232.7026898658769
 21
-199.5001395290741
 31
0.0
  0
LINE
  5
3FF
330
1F
100
AcDbEntity
  8
0
  6
CONTINUOUS
 62
     3
100
AcDbLine
 10
-189.7026898658771
 20
-200.5001395290741
 30
0.0
 11
-188.7026898658771
 21
-199.5001395290741
 31
0.0
  0
LINE
  5
400
330
1F
100
AcDbEntity
  8
0
  6
CONTINUOUS
 62
     3
100
AcDbLine
 10
-189.7026898658771
 20
-184.5001395290741
 30
0.0
 11
-188.7026898658771
 21
-185.5001395290741
 31
0.0
  0
LINE
  5
401
330
1F
100
AcDbEntity
  8
0
  6
CONTINUOUS
 62
     3
100
AcDbLine
 10
-479.8443428025842
 20
-365.3479704404507
 30
0.0
 11
-480.8443428025842
 21
-366.3479704404507
 31
0.0
  0
LINE
  5
402
330
1F
100
AcDbEntity
  8
0
  6
CONTINUOUS
 62
     3
100
AcDbLine
 10
-479.8443428025842
 20
-381.3479704404506
 30
0.0
 11
-480.8443428025842
 21
-380.3479704404506
 31
0.0
  0
LINE
  5
403
330
1F
100
AcDbEntity
  8
0
  6
CONTINUOUS
 62
     3
100
AcDbLine
 10
-437.8443428025843
 20
-381.3479704404506
 30
0.0
 11
-436.8443428025843
 21
-380.3479704404506
 31
0.0
  0
LINE
  5
404
330
1F
100
AcDbEntity
  8
0
  6
CONTINUOUS
 62
     3
100
AcDbLine
 10
-437.8443428025843
 20
-365.3479704404507
 30
0.0
 11
-436.8443428025843
 21
-366.3479704404507
 31
0.0
  0
ARC
  5
405
330
1F
100
AcDbEntity
  8
0
  6
CONTINUOUS
 62
     3
100
AcDbCircle
 10
-531.545366109002
 20
-103.0001395290737
 30
0.0
 40
2.0
100
AcDbArc
 50
180.0
 51
270.0
  0
ARC
  5
406
330
1F
100
AcDbEntity
  8
0
  6
CONTINUOUS
 62
     3
100
AcDbCircle
 10
-535.545366109002
 20
-96.0001395290737
 30
0.0
 40
2.0
100
AcDbArc
 50
0.0
 51
90.0
  0
LINE
  5
407
330
1F
100
AcDbEntity
  8
0
  6
CONTINUOUS
 62
     3
100
AcDbLine
 10
-533.545366109002
 20
-103.0001395290737
 30
0.0
 11
-533.545366109002
 21
-96.0001395290737
 31
0.0
  0
ARC
  5
408
330
1F
100
AcDbEntity
  8
0
  6
CONTINUOUS
 62
     3
100
AcDbCircle
 10
-505.5453661090014
 20
-103.0001395290737
 30
0.0
 40
2.0
100
AcDbArc
 50
270.0
 51
0.0
  0
LINE
  5
409
330
1F
100
AcDbEntity
  8
0
  6
CONTINUOUS
 62
     3
100
AcDbLine
 10
-503.5453661090013
 20
-96.0001395290737
 30
0.0
 11
-503.5453661090013
 21
-103.0001395290737
 31
0.0
  0
ARC
  5
40A
330
1F
100
AcDbEntity
  8
0
  6
CONTINUOUS
 62
     3
100
AcDbCircle
 10
-501.5453661090013
 20
-96.0001395290737
 30
0.0
 40
2.0
100
AcDbArc
 50
90.0
 51
180.0
  0
LINE
  5
40B
330
1F
100
AcDbEntity
  8
0
  6
CONTINUOUS
 62
     3
100
AcDbLine
 10
482.5011097079882
 20
-181.0001395290334
 30
0.0
 11
482.5011097079882
 21
-184.5001395290332
 31
0.0
  0
LINE
  5
40C
330
1F
100
AcDbEntity
  8
0
  6
CONTINUOUS
 62
     3
100
AcDbLine
 10
517.5011097079882
 20
-181.0001395290334
 30
0.0
 11
517.5011097079882
 21
-184.5001395290332
 31
0.0
  0
LINE
  5
40D
330
1F
100
AcDbEntity
  8
0
  6
CONTINUOUS
 62
     3
100
AcDbLine
 10
521.0011097079881
 20
-184.5001395290332
 30
0.0
 11
479.0011097079882
 21
-184.5001395290332
 31
0.0
  0
LINE
  5
40E
330
1F
100
AcDbEntity
  8
0
  6
CONTINUOUS
 62
     3
100
AcDbLine
 10
521.0011097079881
 20
-200.5001395290333
 30
0.0
 11
479.0011097079882
 21
-200.5001395290333
 31
0.0
  0
LINE
  5
40F
330
1F
100
AcDbEntity
  8
0
  6
CONTINUOUS
 62
     3
100
AcDbLine
 10
478.0011097079882
 20
-185.5001395290332
 30
0.0
 11
478.0011097079882
 21
-199.5001395290333
 31
0.0
  0
LINE
  5
410
330
1F
100
AcDbEntity
  8
0
  6
CONTINUOUS
 62
     3
100
AcDbLine
 10
522.0011097079881
 20
-185.5001395290332
 30
0.0
 11
522.0011097079881
 21
-199.5001395290333
 31
0.0
  0
LINE
  5
411
330
1F
100
AcDbEntity
  8
0
  6
CONTINUOUS
 62
     3
100
AcDbLine
 10
-18.03604883809487
 20
389.2154299193993
 30
0.0
 11
161.9639511619051
 21
389.2154299193993
 31
0.0
  0
LINE
  5
412
330
1F
100
AcDbEntity
  8
0
  6
CONTINUOUS
 62
     3
100
AcDbLine
 10
-18.03604883809487
 20
239.2154299193992
 30
0.0
 11
161.9639511619051
 21
239.2154299193992
 31
0.0
  0
LINE
  5
413
330
1F
100
AcDbEntity
  8
0
  6
CONTINUOUS
 62
     3
100
AcDbLine
 10
171.9639511619051
 20
249.2154299193992
 30
0.0
 11
171.9639511619051
 21
379.2154299193992
 31
0.0
  0
LINE
  5
414
330
1F
100
AcDbEntity
  8
0
  6
CONTINUOUS
 62
     3
100
AcDbLine
 10
-28.03604883809487
 20
249.2154299193992
 30
0.0
 11
-28.03604883809487
 21
379.2154299193992
 31
0.0
  0
ARC
  5
415
330
1F
100
AcDbEntity
  8
0
  6
CONTINUOUS
 62
     3
100
AcDbCircle
 10
-18.03604883809487
 20
249.2154299193992
 30
0.0
 40
10.0
100
AcDbArc
 50
180.0
 51
270.0
  0
ARC
  5
416
330
1F
100
AcDbEntity
  8
0
  6
CONTINUOUS
 62
     3
100
AcDbCircle
 10
-18.03604883809487
 20
379.2154299193992
 30
0.0
 40
10.0
100
AcDbArc
 50
90.0
 51
180.0
  0
ARC
  5
417
330
1F
100
AcDbEntity
  8
0
  6
CONTINUOUS
 62
     3
100
AcDbCircle
 10
161.9639511619051
 20
379.2154299193992
 30
0.0
 40
10.0
100
AcDbArc
 50
0.0
 51
90.0
  0
ARC
  5
418
330
1F
100
AcDbEntity
  8
0
  6
CONTINUOUS
 62
     3
100
AcDbCircle
 10
161.9639511619051
 20
249.2154299193992
 30
0.0
 40
10.0
100
AcDbArc
 50
270.0
 51
0.0
  0
CIRCLE
  5
419
330
1F
100
AcDbEntity
  8
0
  6
CONTINUOUS
 62
     3
100
AcDbCircle
 10
405.6760656933992
 20
327.4855029120999
 30
0.0
 40
4.499999999997442
  0
CIRCLE
  5
41A
330
1F
100
AcDbEntity
  8
0
  6
CONTINUOUS
 62
     3
100
AcDbCircle
 10
405.6760656933992
 20
327.4855029120999
 30
0.0
 40
6.999999999999773
  0
CIRCLE
  5
41B
330
1F
100
AcDbEntity
  8
0
  6
CONTINUOUS
 62
     3
100
AcDbCircle
 10
405.6760656933992
 20
327.4855029120999
 30
0.0
 40
21.99999999999989
  0
CIRCLE
  5
41C
330
1F
100
AcDbEntity
  8
0
  6
CONTINUOUS
 62
     3
100
AcDbCircle
 10
405.6760656933992
 20
327.4855029120999
 30
0.0
 40
8.000000000000057
  0
LINE
  5
41D
330
1F
100
AcDbEntity
  8
0
  6
CONTINUOUS
 62
     3
100
AcDbLine
 10
160.7162113023439
 20
77.99986047096678
 30
0.0
 11
-16.78830897853373
 21
77.99986047096678
 31
0.0
  0
ARC
  5
41E
330
1F
100
AcDbEntity
  8
0
  6
CONTINUOUS
 62
     3
100
AcDbCircle
 10
160.7162113023439
 20
71.99986047096661
 30
0.0
 40
6.0
100
AcDbArc
 50
1.499999999998375
 51
90.0
  0
LINE
  5
41F
330
1F
100
AcDbEntity
  8
0
  6
CONTINUOUS
 62
     3
100
AcDbLine
 10
169.6651850360926
 20
-40.53835862577181
 30
0.0
 11
166.7141552521973
 21
72.15692216081362
 31
0.0
  0
LINE
  5
420
330
1F
100
AcDbEntity
  8
0
  6
CONTINUOUS
 62
     3
100
AcDbLine
 10
171.9639511619051
 20
-52.00013952903355
 30
0.0
 11
171.7530928543217
 21
-43.94778563244499
 31
0.0
  0
ARC
  5
421
330
1F
100
AcDbEntity
  8
0
  6
CONTINUOUS
 62
     3
100
AcDbCircle
 10
169.7537782043713
 20
-44.00013952908664
 30
0.0
 40
2.0
100
AcDbArc
 50
1.500000000742695
 51
90.0
  0
ARC
  5
422
330
1F
100
AcDbEntity
  8
0
  6
CONTINUOUS
 62
     3
100
AcDbCircle
 10
171.6644996860437
 20
-40.48600472915602
 30
0.0
 40
2.0
100
AcDbArc
 50
181.5000000000003
 51
241.4659873453205
  0
LINE
  5
423
330
1F
100
AcDbEntity
  8
0
  6
CONTINUOUS
 62
     3
100
AcDbLine
 10
-22.78625292838706
 20
72.15692216081408
 30
0.0
 11
-25.73728271228237
 21
-40.53835862577141
 31
0.0
  0
ARC
  5
424
330
1F
100
AcDbEntity
  8
0
  6
CONTINUOUS
 62
     3
100
AcDbCircle
 10
-16.78830897853373
 20
71.99986047096678
 30
0.0
 40
6.0
100
AcDbArc
 50
90.0
 51
178.4999999999995
  0
LINE
  5
425
330
1F
100
AcDbEntity
  8
0
  6
CONTINUOUS
 62
     3
100
AcDbLine
 10
-28.03604883809493
 20
-52.00013952903355
 30
0.0
 11
-27.82519053051215
 21
-43.94778563247125
 31
0.0
  0
ARC
  5
426
330
1F
100
AcDbEntity
  8
0
  6
CONTINUOUS
 62
     3
100
AcDbCircle
 10
-25.82587588056106
 20
-44.00013952908664
 30
0.0
 40
2.0
100
AcDbArc
 50
90.0
 51
178.5000000000103
  0
ARC
  5
427
330
1F
100
AcDbEntity
  8
0
  6
CONTINUOUS
 62
     3
100
AcDbCircle
 10
-27.73659736223345
 20
-40.48600472915602
 30
0.0
 40
2.0
100
AcDbArc
 50
298.5340126546895
 51
358.5000000000103
  0
LINE
  5
428
330
1F
100
AcDbEntity
  8
0
  6
CONTINUOUS
 62
     3
100
AcDbLine
 10
-25.51370157667458
 20
-32.00013952903321
 30
0.0
 11
-7.028420202435939
 21
-32.00013952903321
 31
0.0
  0
LINE
  5
429
330
1F
100
AcDbEntity
  8
0
  6
CONTINUOUS
 62
     3
100
AcDbLine
 10
169.7537782043713
 20
-42.00013952908573
 30
0.0
 11
-25.82587588056106
 21
-42.00013952908573
 31
0.0
  0
LINE
  5
42A
330
1F
100
AcDbEntity
  8
0
  6
CONTINUOUS
 62
     3
100
AcDbLine
 10
169.4416039004848
 20
-32.00013952903321
 30
0.0
 11
150.9563225262463
 21
-32.00013952903321
 31
0.0
  0
LINE
  5
42B
330
1F
100
AcDbEntity
  8
0
  6
CONTINUOUS
 62
     3
100
AcDbLine
 10
430.2509056176949
 20
72.1569221608139
 30
0.0
 11
427.2998758339054
 21
-40.53835862177168
 31
0.0
  0
LINE
  5
42C
330
1F
100
AcDbEntity
  8
0
  6
CONTINUOUS
 62
     3
100
AcDbLine
 10
425.0011097079883
 20
-52.00013952903298
 30
0.0
 11
425.2119680155721
 21
-43.94778563242919
 31
0.0
  0
ARC
  5
42D
330
1F
100
AcDbEntity
  8
0
  6
CONTINUOUS
 62
     3
100
AcDbCircle
 10
427.2112826655233
 20
-44.00013952904503
 30
0.0
 40
2.0
100
AcDbArc
 50
90.0
 51
178.4999999999973
  0
ARC
  5
42E
330
1F
100
AcDbEntity
  8
0
  6
CONTINUOUS
 62
     3
100
AcDbCircle
 10
425.3005611839543
 20
-40.48600472515584
 30
0.0
 40
2.0
100
AcDbArc
 50
298.5340126262903
 51
358.4999999999973
  0
LINE
  5
42F
330
1F
100
AcDbEntity
  8
0
  6
CONTINUOUS
 62
     3
100
AcDbLine
 10
427.5234569694086
 20
-32.00013952903298
 30
0.0
 11
453.9886627891962
 21
-32.00013952903298
 31
0.0
  0
LINE
  5
430
330
1F
100
AcDbEntity
  8
0
  6
CONTINUOUS
 62
     3
100
AcDbLine
 10
575.0011097079883
 20
-52.00013952903309
 30
0.0
 11
574.7902514004044
 21
-43.94778563242328
 31
0.0
  0
ARC
  5
431
330
1F
100
AcDbEntity
  8
0
  6
CONTINUOUS
 62
     3
100
AcDbCircle
 10
572.7909367504534
 20
-44.00013952904503
 30
0.0
 40
2.0
100
AcDbArc
 50
1.500000000172552
 51
90.0
  0
ARC
  5
432
330
1F
100
AcDbEntity
  8
0
  6
CONTINUOUS
 62
     3
100
AcDbCircle
 10
574.7016582320222
 20
-40.48600472515584
 30
0.0
 40
2.0
100
AcDbArc
 50
181.4999999999994
 51
241.4659873737091
  0
LINE
  5
433
330
1F
100
AcDbEntity
  8
0
  6
CONTINUOUS
 62
     3
100
AcDbLine
 10
569.7513137982816
 20
72.1569221608143
 30
0.0
 11
572.702343582071
 21
-40.53835862177156
 31
0.0
  0
ARC
  5
434
330
1F
100
AcDbEntity
  8
0
  6
CONTINUOUS
 62
     3
100
AcDbCircle
 10
563.7533698484282
 20
71.99986047096735
 30
0.0
 40
6.0
100
AcDbArc
 50
1.499999999998375
 51
90.0
  0
LINE
  5
435
330
1F
100
AcDbEntity
  8
0
  6
CONTINUOUS
 62
     3
100
AcDbLine
 10
436.2488495675483
 20
77.99986047096712
 30
0.0
 11
563.7533698484282
 21
77.99986047096712
 31
0.0
  0
ARC
  5
436
330
1F
100
AcDbEntity
  8
0
  6
CONTINUOUS
 62
     3
100
AcDbCircle
 10
436.2488495675483
 20
71.99986047096735
 30
0.0
 40
6.0
100
AcDbArc
 50
90.0
 51
178.500000000006
  0
LINE
  5
437
330
1F
100
AcDbEntity
  8
0
  6
CONTINUOUS
 62
     3
100
AcDbLine
 10
572.4787624465679
 20
-32.00013952903298
 30
0.0
 11
546.0135566267804
 21
-32.00013952903298
 31
0.0
  0
LINE
  5
438
330
1F
100
AcDbEntity
  8
0
  6
CONTINUOUS
 62
     3
100
AcDbLine
 10
161.9639511619051
 20
386.9549418736722
 30
0.0
 11
-18.03604883809487
 21
386.9549418736722
 31
0.0
  0
LINE
  5
439
330
1F
100
AcDbEntity
  8
0
  6
CONTINUOUS
 62
     3
100
AcDbLine
 10
164.8037932149934
 20
265.2107017012659
 30
0.0
 11
145.9686793800385
 21
246.375587866311
 31
0.0
  0
LINE
  5
43A
330
1F
100
AcDbEntity
  8
0
  6
CONTINUOUS
 62
     3
100
AcDbLine
 10
166.5611525278741
 20
269.4533423883852
 30
0.0
 11
166.5611525278741
 21
358.9775174504132
 31
0.0
  0
LINE
  5
43B
330
1F
100
AcDbEntity
  8
0
  6
CONTINUOUS
 62
     3
100
AcDbLine
 10
141.7260386929191
 20
383.8126312853681
 30
0.0
 11
2.201863630891125
 21
383.8126312853681
 31
0.0
  0
LINE
  5
43C
330
1F
100
AcDbEntity
  8
0
  6
CONTINUOUS
 62
     3
100
AcDbLine
 10
-22.63325020406387
 20
358.9775174504132
 30
0.0
 11
-22.63325020406387
 21
269.4533423883852
 31
0.0
  0
LINE
  5
43D
330
1F
100
AcDbEntity
  8
0
  6
CONTINUOUS
 62
     3
100
AcDbLine
 10
2.201863630891125
 20
244.6182285534303
 30
0.0
 11
141.7260386929191
 21
244.6182285534303
 31
0.0
  0
LINE
  5
43E
330
1F
100
AcDbEntity
  8
0
  6
CONTINUOUS
 62
     3
100
AcDbLine
 10
147.1618014043295
 20
243.4951364937001
 30
0.0
 11
167.6842445876042
 21
264.0175796769749
 31
0.0
  0
LINE
  5
43F
330
1F
100
AcDbEntity
  8
0
  6
CONTINUOUS
 62
     3
100
AcDbLine
 10
164.8037932149934
 20
363.2201581375324
 30
0.0
 11
145.9686793800386
 21
382.0552719724874
 31
0.0
  0
LINE
  5
440
330
1F
100
AcDbEntity
  8
0
  6
CONTINUOUS
 62
     3
100
AcDbLine
 10
147.1618014043295
 20
384.9357233450983
 30
0.0
 11
167.6842445876042
 21
364.4132801618235
 31
0.0
  0
ARC
  5
441
330
1F
100
AcDbEntity
  8
0
  6
CONTINUOUS
 62
     3
100
AcDbCircle
 10
142.9191607172102
 20
380.6930826579789
 30
0.0
 40
6.0
100
AcDbArc
 50
44.99999999999981
 51
90.0
  0
ARC
  5
442
330
1F
100
AcDbEntity
  8
0
  6
CONTINUOUS
 62
     3
100
AcDbCircle
 10
-18.03604883809487
 20
379.2154299193992
 30
0.0
 40
7.74
100
AcDbArc
 50
90.0
 51
180.0
  0
LINE
  5
443
330
1F
100
AcDbEntity
  8
0
  6
CONTINUOUS
 62
     3
100
AcDbLine
 10
-20.87589089118313
 20
363.2201581375323
 30
0.0
 11
-2.040777056228137
 21
382.0552719724874
 31
0.0
  0
LINE
  5
444
330
1F
100
AcDbEntity
  8
0
  6
CONTINUOUS
 62
     3
100
AcDbLine
 10
-3.233899080519166
 20
384.9357233450983
 30
0.0
 11
-23.75634226379373
 21
364.4132801618235
 31
0.0
  0
ARC
  5
445
330
1F
100
AcDbEntity
  8
0
  6
CONTINUOUS
 62
     3
100
AcDbCircle
 10
-19.51370157667458
 20
360.1706394747041
 30
0.0
 40
6.0
100
AcDbArc
 50
135.0
 51
180.0
  0
ARC
  5
446
330
1F
100
AcDbEntity
  8
0
  6
CONTINUOUS
 62
     3
100
AcDbCircle
 10
1.008741606600267
 20
380.6930826579789
 30
0.0
 40
6.0
100
AcDbArc
 50
90.0
 51
135.0
  0
LINE
  5
447
330
1F
100
AcDbEntity
  8
0
  6
CONTINUOUS
 62
     3
100
AcDbLine
 10
-20.87589089118308
 20
265.2107017012659
 30
0.0
 11
-2.040777056228137
 21
246.375587866311
 31
0.0
  0
LINE
  5
448
330
1F
100
AcDbEntity
  8
0
  6
CONTINUOUS
 62
     3
100
AcDbLine
 10
-3.233899080519166
 20
243.4951364937001
 30
0.0
 11
-23.75634226379373
 21
264.0175796769749
 31
0.0
  0
ARC
  5
449
330
1F
100
AcDbEntity
  8
0
  6
CONTINUOUS
 62
     3
100
AcDbCircle
 10
-19.51370157667458
 20
268.260220364094
 30
0.0
 40
6.0
100
AcDbArc
 50
180.0
 51
225.0
  0
ARC
  5
44A
330
1F
100
AcDbEntity
  8
0
  6
CONTINUOUS
 62
     3
100
AcDbCircle
 10
2.201863630891125
 20
377.8126312853681
 30
0.0
 40
6.0
100
AcDbArc
 50
90.0
 51
134.9999999999996
  0
ARC
  5
44B
330
1F
100
AcDbEntity
  8
0
  6
CONTINUOUS
 62
     3
100
AcDbCircle
 10
-16.63325020406387
 20
358.9775174504132
 30
0.0
 40
6.0
100
AcDbArc
 50
135.0000000000004
 51
180.0
  0
ARC
  5
44C
330
1F
100
AcDbEntity
  8
0
  6
CONTINUOUS
 62
     3
100
AcDbCircle
 10
-16.63325020406387
 20
269.4533423883852
 30
0.0
 40
6.0
100
AcDbArc
 50
180.0
 51
225.0000000000004
  0
ARC
  5
44D
330
1F
100
AcDbEntity
  8
0
  6
CONTINUOUS
 62
     3
100
AcDbCircle
 10
2.201863630891125
 20
250.6182285534303
 30
0.0
 40
6.0
100
AcDbArc
 50
224.9999999999996
 51
270.0
  0
ARC
  5
44E
330
1F
100
AcDbEntity
  8
0
  6
CONTINUOUS
 62
     3
100
AcDbCircle
 10
141.7260386929191
 20
250.6182285534303
 30
0.0
 40
6.0
100
AcDbArc
 50
270.0
 51
314.9999999999997
  0
ARC
  5
44F
330
1F
100
AcDbEntity
  8
0
  6
CONTINUOUS
 62
     3
100
AcDbCircle
 10
160.5611525278741
 20
269.4533423883852
 30
0.0
 40
6.0
100
AcDbArc
 50
315.0000000000002
 51
0.0
  0
ARC
  5
450
330
1F
100
AcDbEntity
  8
0
  6
CONTINUOUS
 62
     3
100
AcDbCircle
 10
160.5611525278741
 20
358.9775174504132
 30
0.0
 40
6.0
100
AcDbArc
 50
0.0
 51
44.99999999999981
  0
ARC
  5
451
330
1F
100
AcDbEntity
  8
0
  6
CONTINUOUS
 62
     3
100
AcDbCircle
 10
141.7260386929191
 20
377.8126312853681
 30
0.0
 40
6.0
100
AcDbArc
 50
44.99999999999972
 51
90.0
  0
ARC
  5
452
330
1F
100
AcDbEntity
  8
0
  6
CONTINUOUS
 62
     3
100
AcDbCircle
 10
161.9639511619051
 20
379.2154299193992
 30
0.0
 40
7.74
100
AcDbArc
 50
0.0
 51
90.0
  0
LINE
  5
453
330
1F
100
AcDbEntity
  8
0
  6
CONTINUOUS
 62
     3
100
AcDbLine
 10
169.7034631161781
 20
249.2154299193992
 30
0.0
 11
169.7034631161781
 21
379.2154299193992
 31
0.0
  0
ARC
  5
454
330
1F
100
AcDbEntity
  8
0
  6
CONTINUOUS
 62
     3
100
AcDbCircle
 10
163.4416039004848
 20
360.1706394747041
 30
0.0
 40
6.0
100
AcDbArc
 50
0.0
 51
44.99999999999991
  0
ARC
  5
455
330
1F
100
AcDbEntity
  8
0
  6
CONTINUOUS
 62
     3
100
AcDbCircle
 10
163.4416039004848
 20
268.260220364094
 30
0.0
 40
6.0
100
AcDbArc
 50
314.9999999999997
 51
0.0
  0
ARC
  5
456
330
1F
100
AcDbEntity
  8
0
  6
CONTINUOUS
 62
     3
100
AcDbCircle
 10
142.9191607172102
 20
247.7377771808194
 30
0.0
 40
6.0
100
AcDbArc
 50
270.0
 51
315.0000000000001
  0
LINE
  5
457
330
1F
100
AcDbEntity
  8
0
  6
CONTINUOUS
 62
     3
100
AcDbLine
 10
161.9639511619051
 20
241.4759179651262
 30
0.0
 11
-18.03604883809487
 21
241.4759179651262
 31
0.0
  0
ARC
  5
458
330
1F
100
AcDbEntity
  8
0
  6
CONTINUOUS
 62
     3
100
AcDbCircle
 10
161.9639511619051
 20
249.2154299193992
 30
0.0
 40
7.74
100
AcDbArc
 50
270.0
 51
0.0
  0
ARC
  5
459
330
1F
100
AcDbEntity
  8
0
  6
CONTINUOUS
 62
     3
100
AcDbCircle
 10
1.008741606600267
 20
247.7377771808194
 30
0.0
 40
6.0
100
AcDbArc
 50
225.0
 51
270.0
  0
LINE
  5
45A
330
1F
100
AcDbEntity
  8
0
  6
CONTINUOUS
 62
     3
100
AcDbLine
 10
-25.77556079236774
 20
249.2154299193992
 30
0.0
 11
-25.77556079236774
 21
379.2154299193992
 31
0.0
  0
ARC
  5
45B
330
1F
100
AcDbEntity
  8
0
  6
CONTINUOUS
 62
     3
100
AcDbCircle
 10
-18.03604883809487
 20
249.2154299193992
 30
0.0
 40
7.74
100
AcDbArc
 50
180.0
 51
270.0
  0
LINE
  5
45C
330
1F
100
AcDbEntity
  8
0
  6
CONTINUOUS
 62
     3
100
AcDbLine
 10
-28.03604883809487
 20
-52.00013952903321
 30
0.0
 11
171.9639511619051
 21
-52.00013952903321
 31
0.0
  0
LINE
  5
45D
330
1F
100
AcDbEntity
  8
0
  6
CONTINUOUS
 62
     3
100
AcDbLine
 10
-28.03604883809487
 20
-53.00013952903258
 30
0.0
 11
-28.03604883809487
 21
-52.00013952903321
 31
0.0
  0
LINE
  5
45E
330
1F
100
AcDbEntity
  8
0
  6
CONTINUOUS
 62
     3
100
AcDbLine
 10
171.9639511619051
 20
-53.00013952903531
 30
0.0
 11
171.9639511619051
 21
-52.00013952903321
 31
0.0
  0
LINE
  5
45F
330
1F
100
AcDbEntity
  8
0
  6
CONTINUOUS
 62
     3
100
AcDbLine
 10
425.0011097079883
 20
-53.00013952903298
 30
0.0
 11
425.0011097079883
 21
-52.00013952903286
 31
0.0
  0
LINE
  5
460
330
1F
100
AcDbEntity
  8
0
  6
CONTINUOUS
 62
     3
100
AcDbLine
 10
575.0011097079883
 20
-53.00013952903286
 30
0.0
 11
575.0011097079883
 21
-52.0001395290315
 31
0.0
  0
LINE
  5
461
330
1F
100
AcDbEntity
  8
0
  6
CONTINUOUS
 62
     3
100
AcDbLine
 10
-17.28604883809487
 20
-66.10013952903255
 30
0.0
 11
-18.78604883809487
 21
-64.60013952903255
 31
0.0
  0
LINE
  5
462
330
1F
100
AcDbEntity
  8
0
  6
CONTINUOUS
 62
     3
100
AcDbLine
 10
-24.13604883809484
 20
-66.10013952903255
 30
0.0
 11
-11.93604883809485
 21
-66.10013952903255
 31
0.0
  0
LINE
  5
463
330
1F
100
AcDbEntity
  8
0
  6
CONTINUOUS
 62
     3
100
AcDbLine
 10
-24.13604883809484
 20
-66.10013952903255
 30
0.0
 11
-24.13604883809484
 21
-64.60013952903255
 31
0.0
  0
LINE
  5
464
330
1F
100
AcDbEntity
  8
0
  6
CONTINUOUS
 62
     3
100
AcDbLine
 10
-11.93604883809485
 20
-66.10013952903255
 30
0.0
 11
-11.93604883809485
 21
-64.60013952903255
 31
0.0
  0
LINE
  5
465
330
1F
100
AcDbEntity
  8
0
  6
CONTINUOUS
 62
     3
100
AcDbLine
 10
-24.28604883809487
 20
-64.60013952903255
 30
0.0
 11
-11.78604883809487
 21
-64.60013952903255
 31
0.0
  0
LINE
  5
466
330
1F
100
AcDbEntity
  8
0
  6
CONTINUOUS
 62
     3
100
AcDbLine
 10
-24.28604883809487
 20
-63.00013952903258
 30
0.0
 11
-11.78604883809487
 21
-63.00013952903258
 31
0.0
  0
LINE
  5
467
330
1F
100
AcDbEntity
  8
0
  6
CONTINUOUS
 62
     3
100
AcDbLine
 10
-24.28604883809487
 20
-64.60013952903255
 30
0.0
 11
-24.28604883809487
 21
-63.00013952903258
 31
0.0
  0
LINE
  5
468
330
1F
100
AcDbEntity
  8
0
  6
CONTINUOUS
 62
     3
100
AcDbLine
 10
-11.78604883809487
 20
-64.60013952903255
 30
0.0
 11
-11.78604883809487
 21
-63.00013952903258
 31
0.0
  0
LINE
  5
469
330
1F
100
AcDbEntity
  8
0
  6
CONTINUOUS
 62
     3
100
AcDbLine
 10
-23.28604883809487
 20
-66.10013952903255
 30
0.0
 11
-23.18399372342117
 21
-68.04746712180399
 31
0.0
  0
LINE
  5
46A
330
1F
100
AcDbEntity
  8
0
  6
CONTINUOUS
 62
     3
100
AcDbLine
 10
-12.78604883809487
 20
-66.10013952903255
 30
0.0
 11
-12.88810395276863
 21
-68.04746712180399
 31
0.0
  0
ARC
  5
46B
330
1F
100
AcDbEntity
  8
0
  6
CONTINUOUS
 62
     3
100
AcDbCircle
 10
-21.70289510916177
 20
-67.96984603253149
 30
0.0
 40
1.483131194015235
100
AcDbArc
 50
182.9999999999999
 51
249.8984180338057
  0
ARC
  5
46C
330
1F
100
AcDbEntity
  8
0
  6
CONTINUOUS
 62
     3
100
AcDbCircle
 10
-14.36920256702808
 20
-67.96984603253149
 30
0.0
 40
1.483131194015235
100
AcDbArc
 50
290.1015819661944
 51
357.0000000000001
  0
ARC
  5
46D
330
1F
100
AcDbEntity
  8
0
  6
CONTINUOUS
 62
     3
100
AcDbCircle
 10
-18.03604883809487
 20
-56.00013952903258
 30
0.0
 40
14.0
100
AcDbArc
 50
252.6428571428572
 51
287.3571428571428
  0
LINE
  5
46E
330
1F
100
AcDbEntity
  8
0
  6
CONTINUOUS
 62
     3
100
AcDbLine
 10
162.7139511619051
 20
-66.10013952903317
 30
0.0
 11
161.2139511619051
 21
-64.60013952903317
 31
0.0
  0
LINE
  5
46F
330
1F
100
AcDbEntity
  8
0
  6
CONTINUOUS
 62
     3
100
AcDbLine
 10
155.8639511619052
 20
-66.10013952903317
 30
0.0
 11
168.0639511619051
 21
-66.10013952903317
 31
0.0
  0
LINE
  5
470
330
1F
100
AcDbEntity
  8
0
  6
CONTINUOUS
 62
     3
100
AcDbLine
 10
155.8639511619052
 20
-66.10013952903317
 30
0.0
 11
155.8639511619052
 21
-64.60013952903317
 31
0.0
  0
LINE
  5
471
330
1F
100
AcDbEntity
  8
0
  6
CONTINUOUS
 62
     3
100
AcDbLine
 10
168.0639511619051
 20
-66.10013952903317
 30
0.0
 11
168.0639511619051
 21
-64.60013952903317
 31
0.0
  0
LINE
  5
472
330
1F
100
AcDbEntity
  8
0
  6
CONTINUOUS
 62
     3
100
AcDbLine
 10
155.7139511619051
 20
-64.60013952903317
 30
0.0
 11
168.2139511619051
 21
-64.60013952903317
 31
0.0
  0
LINE
  5
473
330
1F
100
AcDbEntity
  8
0
  6
CONTINUOUS
 62
     3
100
AcDbLine
 10
155.7139511619051
 20
-63.00013952903321
 30
0.0
 11
168.2139511619051
 21
-63.00013952903321
 31
0.0
  0
LINE
  5
474
330
1F
100
AcDbEntity
  8
0
  6
CONTINUOUS
 62
     3
100
AcDbLine
 10
155.7139511619051
 20
-64.60013952903317
 30
0.0
 11
155.7139511619051
 21
-63.00013952903321
 31
0.0
  0
LINE
  5
475
330
1F
100
AcDbEntity
  8
0
  6
CONTINUOUS
 62
     3
100
AcDbLine
 10
168.2139511619051
 20
-64.60013952903317
 30
0.0
 11
168.2139511619051
 21
-63.00013952903321
 31
0.0
  0
LINE
  5
476
330
1F
100
AcDbEntity
  8
0
  6
CONTINUOUS
 62
     3
100
AcDbLine
 10
156.7139511619051
 20
-66.10013952903317
 30
0.0
 11
156.8160062765788
 21
-68.04746712180456
 31
0.0
  0
LINE
  5
477
330
1F
100
AcDbEntity
  8
0
  6
CONTINUOUS
 62
     3
100
AcDbLine
 10
167.2139511619051
 20
-66.10013952903317
 30
0.0
 11
167.1118960472314
 21
-68.04746712180456
 31
0.0
  0
ARC
  5
478
330
1F
100
AcDbEntity
  8
0
  6
CONTINUOUS
 62
     3
100
AcDbCircle
 10
158.2971048908382
 20
-67.96984603253206
 30
0.0
 40
1.483131194015235
100
AcDbArc
 50
183.0
 51
249.8984180338047
  0
ARC
  5
479
330
1F
100
AcDbEntity
  8
0
  6
CONTINUOUS
 62
     3
100
AcDbCircle
 10
165.6307974329719
 20
-67.96984603253206
 30
0.0
 40
1.483131194015235
100
AcDbArc
 50
290.1015819661953
 51
356.9999999999999
  0
ARC
  5
47A
330
1F
100
AcDbEntity
  8
0
  6
CONTINUOUS
 62
     3
100
AcDbCircle
 10
161.9639511619051
 20
-56.00013952903315
 30
0.0
 40
14.0
100
AcDbArc
 50
252.6428571428571
 51
287.3571428571427
  0
LINE
  5
47B
330
1F
100
AcDbEntity
  8
0
  6
CONTINUOUS
 62
     3
100
AcDbLine
 10
-28.03604883809487
 20
-53.00013952903321
 30
0.0
 11
171.9639511619052
 21
-53.00013952903321
 31
0.0
  0
LINE
  5
47C
330
1F
100
AcDbEntity
  8
0
  6
CONTINUOUS
 62
     3
100
AcDbLine
 10
161.9639511619051
 20
-61.00013952903321
 30
0.0
 11
-18.03604883809487
 21
-61.00013952903315
 31
0.0
  0
LINE
  5
47D
330
1F
100
AcDbEntity
  8
0
  6
CONTINUOUS
 62
     3
100
AcDbLine
 10
-15.11885599819158
 20
-94.0001395290332
 30
0.0
 11
159.0467583220021
 21
-94.0001395290332
 31
0.0
  0
LINE
  5
47E
330
1F
100
AcDbEntity
  8
0
  6
CONTINUOUS
 62
     3
100
AcDbLine
 10
146.9639511619051
 20
-63.00013952903321
 30
0.0
 11
146.9639511619051
 21
-93.00013952903315
 31
0.0
  0
LINE
  5
47F
330
1F
100
AcDbEntity
  8
0
  6
CONTINUOUS
 62
     3
100
AcDbLine
 10
-3.036048838094871
 20
-63.00013952903321
 30
0.0
 11
-3.036048838094871
 21
-93.00013952903315
 31
0.0
  0
LINE
  5
480
330
1F
100
AcDbEntity
  8
0
  6
CONTINUOUS
 62
     3
100
AcDbLine
 10
-3.036048838094871
 20
-63.00013952903321
 30
0.0
 11
146.9639511619051
 21
-63.00013952903321
 31
0.0
  0
LINE
  5
481
330
1F
100
AcDbEntity
  8
0
  6
CONTINUOUS
 62
     3
100
AcDbLine
 10
-3.036048838094871
 20
-93.00013952903315
 30
0.0
 11
146.9639511619051
 21
-93.00013952903315
 31
0.0
  0
LINE
  5
482
330
1F
100
AcDbEntity
  8
0
  6
CONTINUOUS
 62
     3
100
AcDbLine
 10
-28.03604883809476
 20
-53.00013952903321
 30
0.0
 11
-27.82519053051078
 21
-61.05249342564768
 31
0.0
  0
LINE
  5
483
330
1F
100
AcDbEntity
  8
0
  6
CONTINUOUS
 62
     3
100
AcDbLine
 10
-21.11679994804484
 20
-88.15720121887942
 30
0.0
 11
-21.60436723757135
 21
-69.53775762823885
 31
0.0
  0
ARC
  5
484
330
1F
100
AcDbEntity
  8
0
  6
CONTINUOUS
 62
     3
100
AcDbCircle
 10
-15.11885599819158
 20
-88.00013952903326
 30
0.0
 40
6.0
100
AcDbArc
 50
181.4999999999897
 51
270.0
  0
LINE
  5
485
330
1F
100
AcDbEntity
  8
0
  6
CONTINUOUS
 62
     3
100
AcDbLine
 10
171.9639511619052
 20
-53.00013952903315
 30
0.0
 11
171.0198870503838
 21
-89.05249342565132
 31
0.0
  0
ARC
  5
486
330
1F
100
AcDbEntity
  8
0
  6
CONTINUOUS
 62
     3
100
AcDbCircle
 10
169.0205724004327
 20
-89.00013952903343
 30
0.0
 40
2.0
100
AcDbArc
 50
270.0
 51
358.4999999999386
  0
LINE
  5
487
330
1F
100
AcDbEntity
  8
0
  6
CONTINUOUS
 62
     3
100
AcDbLine
 10
169.0205724004327
 20
-91.00013952903343
 30
0.0
 11
165.2917563204
 21
-91.00013952903343
 31
0.0
  0
LINE
  5
488
330
1F
100
AcDbEntity
  8
0
  6
CONTINUOUS
 62
     3
100
AcDbLine
 10
165.0447022718553
 20
-88.15720121887851
 30
0.0
 11
165.5322695613817
 21
-69.53775762823948
 31
0.0
  0
ARC
  5
489
330
1F
100
AcDbEntity
  8
0
  6
CONTINUOUS
 62
     3
100
AcDbCircle
 10
159.0467583220021
 20
-88.0001395290332
 30
0.0
 40
6.0
100
AcDbArc
 50
270.0
 51
358.5000000000186
  0
ARC
  5
48A
330
1F
100
AcDbEntity
  8
0
  6
CONTINUOUS
 62
     3
100
AcDbCircle
 10
165.2917563204
 20
-93.00013952903286
 30
0.0
 40
2.0
100
AcDbArc
 50
90.0
 51
141.3178125465077
  0
LINE
  5
48B
330
1F
100
AcDbEntity
  8
0
  6
CONTINUOUS
 62
     3
100
AcDbLine
 10
-25.82587588055964
 20
-63.00013952903321
 30
0.0
 11
-3.609215287422842
 21
-63.00013952903321
 31
0.0
  0
ARC
  5
48C
330
1F
100
AcDbEntity
  8
0
  6
CONTINUOUS
 62
     3
100
AcDbCircle
 10
-25.82587588055964
 20
-61.00013952903321
 30
0.0
 40
2.0
100
AcDbArc
 50
181.4999999999653
 51
270.0
  0
ARC
  5
48D
330
1F
100
AcDbEntity
  8
0
  6
CONTINUOUS
 62
     3
100
AcDbCircle
 10
169.75377820437
 20
-61.00013952903321
 30
0.0
 40
2.0
100
AcDbArc
 50
270.0
 51
358.5000000000346
  0
LINE
  5
48E
330
1F
100
AcDbEntity
  8
0
  6
CONTINUOUS
 62
     3
100
AcDbLine
 10
169.75377820437
 20
-63.00013952903321
 30
0.0
 11
147.5371176112333
 21
-63.00013952903321
 31
0.0
  0
LINE
  5
48F
330
1F
100
AcDbEntity
  8
0
  6
CONTINUOUS
 62
     3
100
AcDbLine
 10
49.46395116190502
 20
-153.5001395290333
 30
0.0
 11
49.46395116190502
 21
-113.1341141252486
 31
0.0
  0
LINE
  5
490
330
1F
100
AcDbEntity
  8
0
  6
CONTINUOUS
 62
     3
100
AcDbLine
 10
114.4639511619051
 20
-153.5001395290333
 30
0.0
 11
114.4639511619051
 21
-113.1341141252487
 31
0.0
  0
LINE
  5
491
330
1F
100
AcDbEntity
  8
0
  6
CONTINUOUS
 62
     3
100
AcDbLine
 10
48.12420519974933
 20
-108.1341141252486
 30
0.0
 11
44.9446180872369
 21
-102.6269076992857
 31
0.0
  0
LINE
  5
492
330
1F
100
AcDbEntity
  8
0
  6
CONTINUOUS
 62
     3
100
AcDbLine
 10
115.8036971240607
 20
-108.1341141252487
 30
0.0
 11
121.077199815957
 21
-99.00013952903315
 31
0.0
  0
ARC
  5
493
330
1F
100
AcDbEntity
  8
0
  6
CONTINUOUS
 62
     3
100
AcDbCircle
 10
39.46395116190502
 20
-113.1341141252486
 30
0.0
 40
10.0
100
AcDbArc
 50
0.0
 51
30.00000000000016
  0
ARC
  5
494
330
1F
100
AcDbEntity
  8
0
  6
CONTINUOUS
 62
     3
100
AcDbCircle
 10
124.4639511619051
 20
-113.1341141252487
 30
0.0
 40
10.0
100
AcDbArc
 50
150.0
 51
180.0
  0
ARC
  5
495
330
1F
100
AcDbEntity
  8
0
  6
CONTINUOUS
 62
     3
100
AcDbCircle
 10
129.7374538538014
 20
-104.0001395290332
 30
0.0
 40
10.0
100
AcDbArc
 50
90.0
 51
149.9999999999997
  0
LINE
  5
496
330
1F
100
AcDbEntity
  8
0
  6
CONTINUOUS
 62
     3
100
AcDbLine
 10
574.7916223354349
 20
-61.00013952903298
 30
0.0
 11
559.5922583489925
 21
-61.00013952903298
 31
0.0
  0
LINE
  5
497
330
1F
100
AcDbEntity
  8
0
  6
CONTINUOUS
 62
     3
100
AcDbLine
 10
431.0011097079883
 20
-93.00013952903286
 30
0.0
 11
434.045319201684
 21
-93.00013952903286
 31
0.0
  0
ARC
  5
498
330
1F
100
AcDbEntity
  8
0
  6
CONTINUOUS
 62
     3
100
AcDbCircle
 10
431.0011097079883
 20
-91.00013952903286
 30
0.0
 40
2.0
100
AcDbArc
 50
239.9999999999999
 51
270.0
  0
LINE
  5
499
330
1F
100
AcDbEntity
  8
0
  6
CONTINUOUS
 62
     3
100
AcDbLine
 10
425.0011097079883
 20
-53.00013952903298
 30
0.0
 11
425.2119680155724
 21
-61.05249342564859
 31
0.0
  0
LINE
  5
49A
330
1F
100
AcDbEntity
  8
0
  6
CONTINUOUS
 62
     3
100
AcDbLine
 10
430.0011097079883
 20
-68.00013952902809
 30
0.0
 11
430.0011097079883
 21
-92.73601212724104
 31
0.0
  0
ARC
  5
49B
330
1F
100
AcDbEntity
  8
0
  6
CONTINUOUS
 62
     3
100
AcDbCircle
 10
430.9944607651631
 20
-91.00013952903298
 30
0.0
 40
2.0
100
AcDbArc
 50
240.2197026005161
 51
270.0
  0
LINE
  5
49C
330
1F
100
AcDbEntity
  8
0
  6
CONTINUOUS
 62
     3
100
AcDbLine
 10
568.0818608179383
 20
-88.15720121888079
 30
0.0
 11
568.5694281074651
 21
-69.53775762823516
 31
0.0
  0
ARC
  5
49D
330
1F
100
AcDbEntity
  8
0
  6
CONTINUOUS
 62
     3
100
AcDbCircle
 10
562.0839168680849
 20
-88.00013952903281
 30
0.0
 40
6.0
100
AcDbArc
 50
270.0
 51
358.499999999993
  0
LINE
  5
49E
330
1F
100
AcDbEntity
  8
0
  6
CONTINUOUS
 62
     3
100
AcDbLine
 10
431.9203585980382
 20
-88.15720121888033
 30
0.0
 11
431.3925273615624
 21
-68.00013952902809
 31
0.0
  0
ARC
  5
49F
330
1F
100
AcDbEntity
  8
0
  6
CONTINUOUS
 62
     3
100
AcDbCircle
 10
437.9183025478916
 20
-88.00013952903298
 30
0.0
 40
6.0
100
AcDbArc
 50
181.500000000001
 51
270.0
  0
ARC
  5
4A0
330
1F
100
AcDbEntity
  8
0
  6
CONTINUOUS
 62
     3
100
AcDbCircle
 10
434.045319201684
 20
-95.00013952903286
 30
0.0
 40
2.0
100
AcDbArc
 50
61.04497562813861
 51
90.0
  0
LINE
  5
4A1
330
1F
100
AcDbEntity
  8
0
  6
CONTINUOUS
 62
     3
100
AcDbLine
 10
575.0011097079883
 20
-53.00013952903304
 30
0.0
 11
574.7902514004044
 21
-61.05249342564757
 31
0.0
  0
ARC
  5
4A2
330
1F
100
AcDbEntity
  8
0
  6
CONTINUOUS
 62
     3
100
AcDbCircle
 10
572.7909367504532
 20
-61.00013952903298
 30
0.0
 40
2.0
100
AcDbArc
 50
270.0
 51
358.5000000000346
  0
LINE
  5
4A3
330
1F
100
AcDbEntity
  8
0
  6
CONTINUOUS
 62
     3
100
AcDbLine
 10
572.7909367504532
 20
-63.00013952903298
 30
0.0
 11
557.8127401855311
 21
-63.00013952903298
 31
0.0
  0
ARC
  5
4A4
330
1F
100
AcDbEntity
  8
0
  6
CONTINUOUS
 62
     3
100
AcDbCircle
 10
427.2112826655235
 20
-61.00013952903292
 30
0.0
 40
2.0
100
AcDbArc
 50
181.4999999999999
 51
232.7649349217463
  0
LINE
  5
4A5
330
1F
100
AcDbEntity
  8
0
  6
CONTINUOUS
 62
     3
100
AcDbLine
 10
467.5011097079882
 20
-153.500139529033
 30
0.0
 11
467.5011097079882
 21
-129.0001395290801
 31
0.0
  0
LINE
  5
4A6
330
1F
100
AcDbEntity
  8
0
  6
CONTINUOUS
 62
     3
100
AcDbLine
 10
532.5011097079883
 20
-153.500139529033
 30
0.0
 11
532.5011097079883
 21
-129.0001395290801
 31
0.0
  0
LINE
  5
4A7
330
1F
100
AcDbEntity
  8
0
  6
CONTINUOUS
 62
     3
100
AcDbLine
 10
565.7511097079883
 20
-66.10013952902891
 30
0.0
 11
564.2511097079882
 21
-64.60013952902891
 31
0.0
  0
LINE
  5
4A8
330
1F
100
AcDbEntity
  8
0
  6
CONTINUOUS
 62
     3
100
AcDbLine
 10
558.9011097079882
 20
-66.10013952902891
 30
0.0
 11
571.1011097079883
 21
-66.10013952902891
 31
0.0
  0
LINE
  5
4A9
330
1F
100
AcDbEntity
  8
0
  6
CONTINUOUS
 62
     3
100
AcDbLine
 10
558.9011097079882
 20
-66.10013952902891
 30
0.0
 11
558.9011097079882
 21
-64.60013952902891
 31
0.0
  0
LINE
  5
4AA
330
1F
100
AcDbEntity
  8
0
  6
CONTINUOUS
 62
     3
100
AcDbLine
 10
571.1011097079883
 20
-66.10013952902891
 30
0.0
 11
571.1011097079883
 21
-64.60013952902891
 31
0.0
  0
LINE
  5
4AB
330
1F
100
AcDbEntity
  8
0
  6
CONTINUOUS
 62
     3
100
AcDbLine
 10
558.7511097079882
 20
-64.60013952902891
 30
0.0
 11
571.2511097079883
 21
-64.60013952902891
 31
0.0
  0
LINE
  5
4AC
330
1F
100
AcDbEntity
  8
0
  6
CONTINUOUS
 62
     3
100
AcDbLine
 10
558.7511097079882
 20
-64.60013952902891
 30
0.0
 11
558.7511097079882
 21
-63.00013952902894
 31
0.0
  0
LINE
  5
4AD
330
1F
100
AcDbEntity
  8
0
  6
CONTINUOUS
 62
     3
100
AcDbLine
 10
571.2511097079883
 20
-64.60013952902891
 30
0.0
 11
571.2511097079883
 21
-63.00013952902894
 31
0.0
  0
LINE
  5
4AE
330
1F
100
AcDbEntity
  8
0
  6
CONTINUOUS
 62
     3
100
AcDbLine
 10
559.7511097079882
 20
-66.10013952902891
 30
0.0
 11
559.8531648226619
 21
-68.04746712180035
 31
0.0
  0
LINE
  5
4AF
330
1F
100
AcDbEntity
  8
0
  6
CONTINUOUS
 62
     3
100
AcDbLine
 10
570.2511097079883
 20
-66.10013952902891
 30
0.0
 11
570.1490545933144
 21
-68.04746712180035
 31
0.0
  0
ARC
  5
4B0
330
1F
100
AcDbEntity
  8
0
  6
CONTINUOUS
 62
     3
100
AcDbCircle
 10
561.3342634369214
 20
-67.9698460325278
 30
0.0
 40
1.483131194015235
100
AcDbArc
 50
183.0
 51
249.8984180338047
  0
ARC
  5
4B1
330
1F
100
AcDbEntity
  8
0
  6
CONTINUOUS
 62
     3
100
AcDbCircle
 10
568.6679559790551
 20
-67.9698460325278
 30
0.0
 40
1.483131194015235
100
AcDbArc
 50
290.1015819661953
 51
356.9999999999999
  0
ARC
  5
4B2
330
1F
100
AcDbEntity
  8
0
  6
CONTINUOUS
 62
     3
100
AcDbCircle
 10
565.0011097079882
 20
-56.00013952902889
 30
0.0
 40
14.0
100
AcDbArc
 50
252.6428571428571
 51
287.3571428571428
  0
LINE
  5
4B3
330
1F
100
AcDbEntity
  8
0
  6
CONTINUOUS
 62
     3
100
AcDbLine
 10
48.12420519974944
 20
-108.1341141252488
 30
0.0
 11
42.85070250785293
 21
-99.00013952903329
 31
0.0
  0
CIRCLE
  5
4B4
330
1F
100
AcDbEntity
  8
0
  6
CONTINUOUS
 62
     3
100
AcDbCircle
 10
365.6760656933992
 20
367.4855029120999
 30
0.0
 40
6.0
  0
ARC
  5
4B5
330
1F
100
AcDbEntity
  8
0
  6
CONTINUOUS
 62
     3
100
AcDbCircle
 10
363.1760656933992
 20
369.9855029120999
 30
0.0
 40
10.0
100
AcDbArc
 50
90.0
 51
180.0
  0
CIRCLE
  5
4B6
330
1F
100
AcDbEntity
  8
0
  6
CONTINUOUS
 62
     3
100
AcDbCircle
 10
445.6760656933992
 20
367.4855029120999
 30
0.0
 40
6.0
  0
ARC
  5
4B7
330
1F
100
AcDbEntity
  8
0
  6
CONTINUOUS
 62
     3
100
AcDbCircle
 10
448.1760656933992
 20
369.9855029120999
 30
0.0
 40
10.0
100
AcDbArc
 50
0.0
 51
90.0
  0
LINE
  5
4B8
330
1F
100
AcDbEntity
  8
0
  6
CONTINUOUS
 62
     3
100
AcDbLine
 10
363.1760656933992
 20
379.9855029120999
 30
0.0
 11
448.1760656933992
 21
379.9855029120999
 31
0.0
  0
LINE
  5
4B9
330
1F
100
AcDbEntity
  8
0
  6
CONTINUOUS
 62
     3
100
AcDbLine
 10
353.1760656933992
 20
369.9855029120999
 30
0.0
 11
353.1760656933992
 21
284.9855029120999
 31
0.0
  0
LINE
  5
4BA
330
1F
100
AcDbEntity
  8
0
  6
CONTINUOUS
 62
     3
100
AcDbLine
 10
458.1760656933992
 20
369.9855029120999
 30
0.0
 11
458.1760656933992
 21
284.9855029120999
 31
0.0
  0
CIRCLE
  5
4BB
330
1F
100
AcDbEntity
  8
0
  6
CONTINUOUS
 62
     3
100
AcDbCircle
 10
445.6760656933992
 20
287.4855029120999
 30
0.0
 40
6.0
  0
ARC
  5
4BC
330
1F
100
AcDbEntity
  8
0
  6
CONTINUOUS
 62
     3
100
AcDbCircle
 10
448.1760656933992
 20
284.9855029120999
 30
0.0
 40
10.0
100
AcDbArc
 50
270.0
 51
0.0
  0
CIRCLE
  5
4BD
330
1F
100
AcDbEntity
  8
0
  6
CONTINUOUS
 62
     3
100
AcDbCircle
 10
365.6760656933992
 20
287.4855029120999
 30
0.0
 40
6.0
  0
ARC
  5
4BE
330
1F
100
AcDbEntity
  8
0
  6
CONTINUOUS
 62
     3
100
AcDbCircle
 10
363.1760656933992
 20
284.9855029120999
 30
0.0
 40
10.0
100
AcDbArc
 50
180.0
 51
270.0
  0
LINE
  5
4BF
330
1F
100
AcDbEntity
  8
0
  6
CONTINUOUS
 62
     3
100
AcDbLine
 10
448.1760656933992
 20
274.9855029120999
 30
0.0
 11
363.1760656933992
 21
274.9855029120999
 31
0.0
  0
CIRCLE
  5
4C0
330
1F
100
AcDbEntity
  8
0
  6
CONTINUOUS
 62
     3
100
AcDbCircle
 10
405.6760656933992
 20
327.4855029120999
 30
0.0
 40
35.0000000000001
  0
CIRCLE
  5
4C1
330
1F
100
AcDbEntity
  8
0
  6
CONTINUOUS
 62
     3
100
AcDbCircle
 10
405.6760656933992
 20
327.4855029120999
 30
0.0
 40
33.5000000000001
  0
LINE
  5
4C2
330
1F
100
AcDbEntity
  8
0
  6
CONTINUOUS
 62
     3
100
AcDbLine
 10
533.5011097079882
 20
-181.000139529033
 30
0.0
 11
466.5011097079883
 21
-181.000139529033
 31
0.0
  0
LINE
  5
4C3
330
1F
100
AcDbEntity
  8
0
  6
CONTINUOUS
 62
     3
100
AcDbLine
 10
535.0011097079882
 20
-170.500139529033
 30
0.0
 11
535.0011097079882
 21
-176.000139529033
 31
0.0
  0
LINE
  5
4C4
330
1F
100
AcDbEntity
  8
0
  6
CONTINUOUS
 62
     3
100
AcDbLine
 10
535.0011097079882
 20
-176.000139529033
 30
0.0
 11
533.5011097079882
 21
-181.000139529033
 31
0.0
  0
LINE
  5
4C5
330
1F
100
AcDbEntity
  8
0
  6
CONTINUOUS
 62
     3
100
AcDbLine
 10
535.0011097079882
 20
-176.000139529033
 30
0.0
 11
465.0011097079882
 21
-176.000139529033
 31
0.0
  0
LINE
  5
4C6
330
1F
100
AcDbEntity
  8
0
  6
CONTINUOUS
 62
     3
100
AcDbLine
 10
465.0011097079882
 20
-170.500139529033
 30
0.0
 11
465.0011097079882
 21
-176.000139529033
 31
0.0
  0
LINE
  5
4C7
330
1F
100
AcDbEntity
  8
0
  6
CONTINUOUS
 62
     3
100
AcDbLine
 10
465.0011097079882
 20
-176.000139529033
 30
0.0
 11
466.5011097079882
 21
-181.000139529033
 31
0.0
  0
LINE
  5
4C8
330
1F
100
AcDbEntity
  8
0
  6
CONTINUOUS
 62
     3
100
AcDbLine
 10
552.5011097079882
 20
-170.500139529033
 30
0.0
 11
552.5011097079882
 21
-160.500139529033
 31
0.0
  0
LINE
  5
4C9
330
1F
100
AcDbEntity
  8
0
  6
CONTINUOUS
 62
     3
100
AcDbLine
 10
447.5011097079882
 20
-170.500139529033
 30
0.0
 11
447.5011097079882
 21
-160.500139529033
 31
0.0
  0
LINE
  5
4CA
330
1F
100
AcDbEntity
  8
0
  6
CONTINUOUS
 62
     3
100
AcDbLine
 10
447.5011097079882
 20
-170.500139529033
 30
0.0
 11
552.5011097079882
 21
-170.500139529033
 31
0.0
  0
LINE
  5
4CB
330
1F
100
AcDbEntity
  8
0
  6
CONTINUOUS
 62
     3
100
AcDbLine
 10
449.5011097079882
 20
-158.500139529033
 30
0.0
 11
550.5011097079882
 21
-158.500139529033
 31
0.0
  0
ARC
  5
4CC
330
1F
100
AcDbEntity
  8
0
  6
CONTINUOUS
 62
     3
100
AcDbCircle
 10
550.5011097079882
 20
-160.500139529033
 30
0.0
 40
2.0
100
AcDbArc
 50
0.0
 51
90.0
  0
ARC
  5
4CD
330
1F
100
AcDbEntity
  8
0
  6
CONTINUOUS
 62
     3
100
AcDbCircle
 10
449.5011097079882
 20
-160.500139529033
 30
0.0
 40
2.0
100
AcDbArc
 50
90.0
 51
180.0
  0
ARC
  5
4CE
330
1F
100
AcDbEntity
  8
0
  6
CONTINUOUS
 62
     3
100
AcDbCircle
 10
537.5011097079883
 20
-153.500139529033
 30
0.0
 40
5.0
100
AcDbArc
 50
180.0
 51
270.0
  0
ARC
  5
4CF
330
1F
100
AcDbEntity
  8
0
  6
CONTINUOUS
 62
     3
100
AcDbCircle
 10
462.5011097079882
 20
-153.500139529033
 30
0.0
 40
5.0
100
AcDbArc
 50
270.0
 51
0.0
  0
LINE
  5
4D0
330
1F
100
AcDbEntity
  8
0
  6
CONTINUOUS
 62
     3
100
AcDbLine
 10
64.46395116190516
 20
-181.0001395290337
 30
0.0
 11
64.46395116190516
 21
-184.5001395290335
 31
0.0
  0
LINE
  5
4D1
330
1F
100
AcDbEntity
  8
0
  6
CONTINUOUS
 62
     3
100
AcDbLine
 10
99.46395116190502
 20
-181.0001395290337
 30
0.0
 11
99.46395116190502
 21
-184.5001395290334
 31
0.0
  0
LINE
  5
4D2
330
1F
100
AcDbEntity
  8
0
  6
CONTINUOUS
 62
     3
100
AcDbLine
 10
102.963951161905
 20
-184.5001395290335
 30
0.0
 11
60.96395116190516
 21
-184.5001395290335
 31
0.0
  0
LINE
  5
4D3
330
1F
100
AcDbEntity
  8
0
  6
CONTINUOUS
 62
     3
100
AcDbLine
 10
102.963951161905
 20
-200.5001395290334
 30
0.0
 11
60.96395116190516
 21
-200.5001395290334
 31
0.0
  0
LINE
  5
4D4
330
1F
100
AcDbEntity
  8
0
  6
CONTINUOUS
 62
     3
100
AcDbLine
 10
59.96395116190516
 20
-185.5001395290335
 30
0.0
 11
59.96395116190516
 21
-199.5001395290334
 31
0.0
  0
LINE
  5
4D5
330
1F
100
AcDbEntity
  8
0
  6
CONTINUOUS
 62
     3
100
AcDbLine
 10
103.963951161905
 20
-185.5001395290335
 30
0.0
 11
103.963951161905
 21
-199.5001395290334
 31
0.0
  0
LINE
  5
4D6
330
1F
100
AcDbEntity
  8
0
  6
CONTINUOUS
 62
     3
100
AcDbLine
 10
115.4639511619051
 20
-181.0001395290333
 30
0.0
 11
48.46395116190524
 21
-181.0001395290333
 31
0.0
  0
LINE
  5
4D7
330
1F
100
AcDbEntity
  8
0
  6
CONTINUOUS
 62
     3
100
AcDbLine
 10
116.9639511619051
 20
-170.5001395290333
 30
0.0
 11
116.9639511619051
 21
-176.0001395290333
 31
0.0
  0
LINE
  5
4D8
330
1F
100
AcDbEntity
  8
0
  6
CONTINUOUS
 62
     3
100
AcDbLine
 10
116.9639511619051
 20
-176.0001395290333
 30
0.0
 11
115.4639511619051
 21
-181.0001395290333
 31
0.0
  0
LINE
  5
4D9
330
1F
100
AcDbEntity
  8
0
  6
CONTINUOUS
 62
     3
100
AcDbLine
 10
116.9639511619051
 20
-176.0001395290333
 30
0.0
 11
46.96395116190513
 21
-176.0001395290333
 31
0.0
  0
LINE
  5
4DA
330
1F
100
AcDbEntity
  8
0
  6
CONTINUOUS
 62
     3
100
AcDbLine
 10
46.96395116190513
 20
-170.5001395290333
 30
0.0
 11
46.96395116190513
 21
-176.0001395290333
 31
0.0
  0
LINE
  5
4DB
330
1F
100
AcDbEntity
  8
0
  6
CONTINUOUS
 62
     3
100
AcDbLine
 10
46.96395116190513
 20
-176.0001395290333
 30
0.0
 11
48.46395116190513
 21
-181.0001395290333
 31
0.0
  0
LINE
  5
4DC
330
1F
100
AcDbEntity
  8
0
  6
CONTINUOUS
 62
     3
100
AcDbLine
 10
134.4639511619051
 20
-170.5001395290333
 30
0.0
 11
134.4639511619051
 21
-160.5001395290333
 31
0.0
  0
LINE
  5
4DD
330
1F
100
AcDbEntity
  8
0
  6
CONTINUOUS
 62
     3
100
AcDbLine
 10
29.46395116190513
 20
-170.5001395290333
 30
0.0
 11
29.46395116190513
 21
-160.5001395290333
 31
0.0
  0
LINE
  5
4DE
330
1F
100
AcDbEntity
  8
0
  6
CONTINUOUS
 62
     3
100
AcDbLine
 10
29.46395116190513
 20
-170.5001395290333
 30
0.0
 11
134.4639511619051
 21
-170.5001395290333
 31
0.0
  0
LINE
  5
4DF
330
1F
100
AcDbEntity
  8
0
  6
CONTINUOUS
 62
     3
100
AcDbLine
 10
31.46395116190513
 20
-158.5001395290333
 30
0.0
 11
132.4639511619051
 21
-158.5001395290333
 31
0.0
  0
ARC
  5
4E0
330
1F
100
AcDbEntity
  8
0
  6
CONTINUOUS
 62
     3
100
AcDbCircle
 10
132.4639511619051
 20
-160.5001395290333
 30
0.0
 40
2.0
100
AcDbArc
 50
0.0
 51
90.0
  0
ARC
  5
4E1
330
1F
100
AcDbEntity
  8
0
  6
CONTINUOUS
 62
     3
100
AcDbCircle
 10
31.46395116190513
 20
-160.5001395290333
 30
0.0
 40
2.0
100
AcDbArc
 50
90.0
 51
180.0
  0
ARC
  5
4E2
330
1F
100
AcDbEntity
  8
0
  6
CONTINUOUS
 62
     3
100
AcDbCircle
 10
119.4639511619051
 20
-153.5001395290333
 30
0.0
 40
5.0
100
AcDbArc
 50
180.0
 51
270.0
  0
ARC
  5
4E3
330
1F
100
AcDbEntity
  8
0
  6
CONTINUOUS
 62
     3
100
AcDbCircle
 10
44.46395116190513
 20
-153.5001395290333
 30
0.0
 40
5.0
100
AcDbArc
 50
270.0
 51
0.0
  0
LINE
  5
4E4
330
1F
100
AcDbEntity
  8
0
  6
CONTINUOUS
 62
     3
100
AcDbLine
 10
35.26292785548787
 20
-105.0001395290329
 30
0.0
 11
9.262927855487305
 21
-105.0001395290329
 31
0.0
  0
ARC
  5
4E5
330
1F
100
AcDbEntity
  8
0
  6
CONTINUOUS
 62
     3
100
AcDbCircle
 10
34.19044847000896
 20
-104.0001395290332
 30
0.0
 40
10.0
100
AcDbArc
 50
30.00000000000033
 51
68.99021849220266
  0
LINE
  5
4E6
330
1F
100
AcDbEntity
  8
0
  6
CONTINUOUS
 62
     3
100
AcDbLine
 10
18.26292785548776
 20
-113.0001395290329
 30
0.0
 11
26.26292785548765
 21
-113.0001395290329
 31
0.0
  0
LINE
  5
4E7
330
1F
100
AcDbEntity
  8
0
  6
CONTINUOUS
 62
     3
100
AcDbLine
 10
27.26292785548765
 20
-112.0001395290329
 30
0.0
 11
27.26292785548765
 21
-105.5001395290329
 31
0.0
  0
LINE
  5
4E8
330
1F
100
AcDbEntity
  8
0
  6
CONTINUOUS
 62
     3
100
AcDbLine
 10
17.26292785548765
 20
-112.0001395290329
 30
0.0
 11
17.26292785548765
 21
-105.5001395290331
 31
0.0
  0
LINE
  5
4E9
330
1F
100
AcDbEntity
  8
0
  6
CONTINUOUS
 62
     3
100
AcDbLine
 10
21.55582107430121
 20
-112.0001395290328
 30
0.0
 11
21.55582107430121
 21
-105.5001395290331
 31
0.0
  0
LINE
  5
4EA
330
1F
100
AcDbEntity
  8
0
  6
CONTINUOUS
 62
     3
100
AcDbLine
 10
22.97003463667409
 20
-112.0001395290329
 30
0.0
 11
22.97003463667409
 21
-105.5001395290331
 31
0.0
  0
LINE
  5
4EB
330
1F
100
AcDbEntity
  8
0
  6
CONTINUOUS
 62
     3
100
AcDbLine
 10
17.26292785548765
 20
-112.0001395290329
 30
0.0
 11
18.26292785548776
 21
-113.0001395290329
 31
0.0
  0
LINE
  5
4EC
330
1F
100
AcDbEntity
  8
0
  6
CONTINUOUS
 62
     3
100
AcDbLine
 10
26.26292785548765
 20
-113.0001395290329
 30
0.0
 11
27.26292785548765
 21
-112.0001395290329
 31
0.0
  0
LINE
  5
4ED
330
1F
100
AcDbEntity
  8
0
  6
CONTINUOUS
 62
     3
100
AcDbLine
 10
21.55582107430121
 20
-112.0001395290329
 30
0.0
 11
22.97003463667409
 21
-112.0001395290329
 31
0.0
  0
LINE
  5
4EE
330
1F
100
AcDbEntity
  8
0
  6
CONTINUOUS
 62
     3
100
AcDbLine
 10
17.26292785548765
 20
-105.5001395290331
 30
0.0
 11
27.26292785548753
 21
-105.5001395290331
 31
0.0
  0
ARC
  5
4EF
330
1F
100
AcDbEntity
  8
0
  6
CONTINUOUS
 62
     3
100
AcDbCircle
 10
19.40937446489443
 20
-110.1965230055161
 30
0.0
 40
2.803616523516803
100
AcDbArc
 50
220.0396696777675
 51
319.9603303222328
  0
ARC
  5
4F0
330
1F
100
AcDbEntity
  8
0
  6
CONTINUOUS
 62
     3
100
AcDbCircle
 10
25.11648124608104
 20
-110.1965230055161
 30
0.0
 40
2.803616523516803
100
AcDbArc
 50
220.0396696777671
 51
319.9603303222321
  0
LINE
  5
4F1
330
1F
100
AcDbEntity
  8
0
  6
CONTINUOUS
 62
     3
100
AcDbLine
 10
16.76292785548753
 20
-105.0001395290329
 30
0.0
 11
17.26292785548765
 21
-105.5001395290331
 31
0.0
  0
LINE
  5
4F2
330
1F
100
AcDbEntity
  8
0
  6
CONTINUOUS
 62
     3
100
AcDbLine
 10
27.76292785548765
 20
-105.0001395290329
 30
0.0
 11
27.26292785548765
 21
-105.5001395290329
 31
0.0
  0
LINE
  5
4F3
330
1F
100
AcDbEntity
  8
0
  6
CONTINUOUS
 62
     3
100
AcDbLine
 10
89.96395116190516
 20
-200.5001395290334
 30
0.0
 11
89.96395116190516
 21
-206.0001395290335
 31
0.0
  0
LINE
  5
4F4
330
1F
100
AcDbEntity
  8
0
  6
CONTINUOUS
 62
     3
100
AcDbLine
 10
73.96395116190504
 20
-200.5001395290334
 30
0.0
 11
73.96395116190504
 21
-206.0001395290335
 31
0.0
  0
LINE
  5
4F5
330
1F
100
AcDbEntity
  8
0
  6
CONTINUOUS
 62
     3
100
AcDbLine
 10
73.96395116190504
 20
-201.5001395290335
 30
0.0
 11
89.96395116190516
 21
-201.5001395290335
 31
0.0
  0
LINE
  5
4F6
330
1F
100
AcDbEntity
  8
0
  6
CONTINUOUS
 62
     3
100
AcDbLine
 10
73.96395116190504
 20
-202.5001395290334
 30
0.0
 11
89.96395116190516
 21
-202.5001395290334
 31
0.0
  0
LINE
  5
4F7
330
1F
100
AcDbEntity
  8
0
  6
CONTINUOUS
 62
     3
100
AcDbLine
 10
88.96395116190516
 20
-206.5001395290335
 30
0.0
 11
88.96395116190516
 21
-234.5001395290334
 31
0.0
  0
LINE
  5
4F8
330
1F
100
AcDbEntity
  8
0
  6
CONTINUOUS
 62
     3
100
AcDbLine
 10
88.96395116190516
 20
-234.5001395290334
 30
0.0
 11
74.96395116190516
 21
-234.5001395290334
 31
0.0
  0
LINE
  5
4F9
330
1F
100
AcDbEntity
  8
0
  6
CONTINUOUS
 62
     3
100
AcDbLine
 10
88.96395116190516
 20
-211.5001395290335
 30
0.0
 11
74.96395116190516
 21
-211.5001395290335
 31
0.0
  0
LINE
  5
4FA
330
1F
100
AcDbEntity
  8
0
  6
CONTINUOUS
 62
     3
100
AcDbLine
 10
74.96395116190516
 20
-206.5001395290335
 30
0.0
 11
74.96395116190516
 21
-234.5001395290334
 31
0.0
  0
LINE
  5
4FB
330
1F
100
AcDbEntity
  8
0
  6
CONTINUOUS
 62
     3
100
AcDbLine
 10
86.96395116190516
 20
-236.5001395290334
 30
0.0
 11
76.96395116190516
 21
-236.5001395290334
 31
0.0
  0
LINE
  5
4FC
330
1F
100
AcDbEntity
  8
0
  6
CONTINUOUS
 62
     3
100
AcDbLine
 10
88.96395116190516
 20
-234.5001395290334
 30
0.0
 11
86.96395116190516
 21
-236.5001395290334
 31
0.0
  0
LINE
  5
4FD
330
1F
100
AcDbEntity
  8
0
  6
CONTINUOUS
 62
     3
100
AcDbLine
 10
74.96395116190516
 20
-234.5001395290334
 30
0.0
 11
76.96395116190516
 21
-236.5001395290334
 31
0.0
  0
LINE
  5
4FE
330
1F
100
AcDbEntity
  8
0
  6
CONTINUOUS
 62
     3
100
AcDbLine
 10
74.46395116190504
 20
-206.5001395290335
 30
0.0
 11
89.46395116190516
 21
-206.5001395290335
 31
0.0
  0
LINE
  5
4FF
330
1F
100
AcDbEntity
  8
0
  6
CONTINUOUS
 62
     3
100
AcDbLine
 10
73.96395116190504
 20
-206.0001395290335
 30
0.0
 11
74.46395116190504
 21
-206.5001395290335
 31
0.0
  0
LINE
  5
500
330
1F
100
AcDbEntity
  8
0
  6
CONTINUOUS
 62
     3
100
AcDbLine
 10
89.96395116190516
 20
-206.0001395290335
 30
0.0
 11
89.46395116190516
 21
-206.5001395290335
 31
0.0
  0
LINE
  5
501
330
1F
100
AcDbEntity
  8
0
  6
CONTINUOUS
 62
     3
100
AcDbLine
 10
89.96395116190516
 20
-200.5001395290337
 30
0.0
 11
89.96395116190516
 21
-206.0001395290337
 31
0.0
  0
LINE
  5
502
330
1F
100
AcDbEntity
  8
0
  6
CONTINUOUS
 62
     3
100
AcDbLine
 10
73.96395116190504
 20
-200.5001395290337
 30
0.0
 11
73.96395116190504
 21
-206.0001395290337
 31
0.0
  0
LINE
  5
503
330
1F
100
AcDbEntity
  8
0
  6
CONTINUOUS
 62
     3
100
AcDbLine
 10
73.96395116190504
 20
-201.5001395290337
 30
0.0
 11
89.96395116190516
 21
-201.5001395290337
 31
0.0
  0
LINE
  5
504
330
1F
100
AcDbEntity
  8
0
  6
CONTINUOUS
 62
     3
100
AcDbLine
 10
73.96395116190504
 20
-202.5001395290337
 30
0.0
 11
89.96395116190516
 21
-202.5001395290337
 31
0.0
  0
LINE
  5
505
330
1F
100
AcDbEntity
  8
0
  6
CONTINUOUS
 62
     3
100
AcDbLine
 10
88.96395116190516
 20
-206.5001395290337
 30
0.0
 11
88.96395116190516
 21
-234.5001395290337
 31
0.0
  0
LINE
  5
506
330
1F
100
AcDbEntity
  8
0
  6
CONTINUOUS
 62
     3
100
AcDbLine
 10
88.96395116190516
 20
-234.5001395290337
 30
0.0
 11
74.96395116190516
 21
-234.5001395290337
 31
0.0
  0
LINE
  5
507
330
1F
100
AcDbEntity
  8
0
  6
CONTINUOUS
 62
     3
100
AcDbLine
 10
88.96395116190516
 20
-211.5001395290337
 30
0.0
 11
74.96395116190516
 21
-211.5001395290337
 31
0.0
  0
LINE
  5
508
330
1F
100
AcDbEntity
  8
0
  6
CONTINUOUS
 62
     3
100
AcDbLine
 10
74.96395116190516
 20
-206.5001395290337
 30
0.0
 11
74.96395116190516
 21
-234.5001395290337
 31
0.0
  0
LINE
  5
509
330
1F
100
AcDbEntity
  8
0
  6
CONTINUOUS
 62
     3
100
AcDbLine
 10
86.96395116190516
 20
-236.5001395290337
 30
0.0
 11
76.96395116190516
 21
-236.5001395290337
 31
0.0
  0
LINE
  5
50A
330
1F
100
AcDbEntity
  8
0
  6
CONTINUOUS
 62
     3
100
AcDbLine
 10
88.96395116190516
 20
-234.5001395290337
 30
0.0
 11
86.96395116190516
 21
-236.5001395290337
 31
0.0
  0
LINE
  5
50B
330
1F
100
AcDbEntity
  8
0
  6
CONTINUOUS
 62
     3
100
AcDbLine
 10
74.96395116190516
 20
-234.5001395290337
 30
0.0
 11
76.96395116190516
 21
-236.5001395290337
 31
0.0
  0
LINE
  5
50C
330
1F
100
AcDbEntity
  8
0
  6
CONTINUOUS
 62
     3
100
AcDbLine
 10
74.46395116190504
 20
-206.5001395290337
 30
0.0
 11
89.46395116190516
 21
-206.5001395290337
 31
0.0
  0
LINE
  5
50D
330
1F
100
AcDbEntity
  8
0
  6
CONTINUOUS
 62
     3
100
AcDbLine
 10
73.96395116190504
 20
-206.0001395290337
 30
0.0
 11
74.46395116190504
 21
-206.5001395290337
 31
0.0
  0
LINE
  5
50E
330
1F
100
AcDbEntity
  8
0
  6
CONTINUOUS
 62
     3
100
AcDbLine
 10
89.96395116190516
 20
-206.0001395290337
 30
0.0
 11
89.46395116190516
 21
-206.5001395290337
 31
0.0
  0
LINE
  5
50F
330
1F
100
AcDbEntity
  8
0
  6
CONTINUOUS
 62
     3
100
AcDbLine
 10
508.0011097079883
 20
-200.5001395290333
 30
0.0
 11
508.0011097079883
 21
-206.0001395290333
 31
0.0
  0
LINE
  5
510
330
1F
100
AcDbEntity
  8
0
  6
CONTINUOUS
 62
     3
100
AcDbLine
 10
492.0011097079882
 20
-200.5001395290333
 30
0.0
 11
492.0011097079882
 21
-206.0001395290333
 31
0.0
  0
LINE
  5
511
330
1F
100
AcDbEntity
  8
0
  6
CONTINUOUS
 62
     3
100
AcDbLine
 10
492.0011097079881
 20
-201.5001395290333
 30
0.0
 11
508.0011097079883
 21
-201.5001395290333
 31
0.0
  0
LINE
  5
512
330
1F
100
AcDbEntity
  8
0
  6
CONTINUOUS
 62
     3
100
AcDbLine
 10
492.0011097079881
 20
-202.5001395290333
 30
0.0
 11
508.0011097079883
 21
-202.5001395290333
 31
0.0
  0
LINE
  5
513
330
1F
100
AcDbEntity
  8
0
  6
CONTINUOUS
 62
     3
100
AcDbLine
 10
507.0011097079883
 20
-206.5001395290333
 30
0.0
 11
507.0011097079883
 21
-234.5001395290333
 31
0.0
  0
LINE
  5
514
330
1F
100
AcDbEntity
  8
0
  6
CONTINUOUS
 62
     3
100
AcDbLine
 10
507.0011097079883
 20
-234.5001395290333
 30
0.0
 11
493.0011097079883
 21
-234.5001395290333
 31
0.0
  0
LINE
  5
515
330
1F
100
AcDbEntity
  8
0
  6
CONTINUOUS
 62
     3
100
AcDbLine
 10
507.0011097079883
 20
-211.5001395290333
 30
0.0
 11
493.0011097079883
 21
-211.5001395290333
 31
0.0
  0
LINE
  5
516
330
1F
100
AcDbEntity
  8
0
  6
CONTINUOUS
 62
     3
100
AcDbLine
 10
493.0011097079883
 20
-206.5001395290333
 30
0.0
 11
493.0011097079883
 21
-234.5001395290333
 31
0.0
  0
LINE
  5
517
330
1F
100
AcDbEntity
  8
0
  6
CONTINUOUS
 62
     3
100
AcDbLine
 10
505.0011097079883
 20
-236.5001395290333
 30
0.0
 11
495.0011097079883
 21
-236.5001395290333
 31
0.0
  0
LINE
  5
518
330
1F
100
AcDbEntity
  8
0
  6
CONTINUOUS
 62
     3
100
AcDbLine
 10
507.0011097079883
 20
-234.5001395290333
 30
0.0
 11
505.0011097079883
 21
-236.5001395290333
 31
0.0
  0
LINE
  5
519
330
1F
100
AcDbEntity
  8
0
  6
CONTINUOUS
 62
     3
100
AcDbLine
 10
493.0011097079883
 20
-234.5001395290333
 30
0.0
 11
495.0011097079883
 21
-236.5001395290333
 31
0.0
  0
LINE
  5
51A
330
1F
100
AcDbEntity
  8
0
  6
CONTINUOUS
 62
     3
100
AcDbLine
 10
492.5011097079882
 20
-206.5001395290333
 30
0.0
 11
507.5011097079883
 21
-206.5001395290333
 31
0.0
  0
LINE
  5
51B
330
1F
100
AcDbEntity
  8
0
  6
CONTINUOUS
 62
     3
100
AcDbLine
 10
492.0011097079882
 20
-206.0001395290333
 30
0.0
 11
492.5011097079882
 21
-206.5001395290333
 31
0.0
  0
LINE
  5
51C
330
1F
100
AcDbEntity
  8
0
  6
CONTINUOUS
 62
     3
100
AcDbLine
 10
508.0011097079883
 20
-206.0001395290333
 30
0.0
 11
507.5011097079883
 21
-206.5001395290333
 31
0.0
  0
LINE
  5
51D
330
1F
100
AcDbEntity
  8
0
  6
CONTINUOUS
 62
     3
100
AcDbLine
 10
508.0011097079883
 20
-200.5001395290335
 30
0.0
 11
508.0011097079883
 21
-206.0001395290335
 31
0.0
  0
LINE
  5
51E
330
1F
100
AcDbEntity
  8
0
  6
CONTINUOUS
 62
     3
100
AcDbLine
 10
492.0011097079882
 20
-200.5001395290335
 30
0.0
 11
492.0011097079882
 21
-206.0001395290335
 31
0.0
  0
LINE
  5
51F
330
1F
100
AcDbEntity
  8
0
  6
CONTINUOUS
 62
     3
100
AcDbLine
 10
492.0011097079881
 20
-201.5001395290335
 30
0.0
 11
508.0011097079883
 21
-201.5001395290335
 31
0.0
  0
LINE
  5
520
330
1F
100
AcDbEntity
  8
0
  6
CONTINUOUS
 62
     3
100
AcDbLine
 10
492.0011097079881
 20
-202.5001395290335
 30
0.0
 11
508.0011097079883
 21
-202.5001395290335
 31
0.0
  0
LINE
  5
521
330
1F
100
AcDbEntity
  8
0
  6
CONTINUOUS
 62
     3
100
AcDbLine
 10
507.0011097079883
 20
-206.5001395290335
 30
0.0
 11
507.0011097079883
 21
-234.5001395290335
 31
0.0
  0
LINE
  5
522
330
1F
100
AcDbEntity
  8
0
  6
CONTINUOUS
 62
     3
100
AcDbLine
 10
507.0011097079883
 20
-234.5001395290335
 30
0.0
 11
493.0011097079883
 21
-234.5001395290335
 31
0.0
  0
LINE
  5
523
330
1F
100
AcDbEntity
  8
0
  6
CONTINUOUS
 62
     3
100
AcDbLine
 10
507.0011097079883
 20
-211.5001395290335
 30
0.0
 11
493.0011097079883
 21
-211.5001395290335
 31
0.0
  0
LINE
  5
524
330
1F
100
AcDbEntity
  8
0
  6
CONTINUOUS
 62
     3
100
AcDbLine
 10
493.0011097079883
 20
-206.5001395290335
 30
0.0
 11
493.0011097079883
 21
-234.5001395290335
 31
0.0
  0
LINE
  5
525
330
1F
100
AcDbEntity
  8
0
  6
CONTINUOUS
 62
     3
100
AcDbLine
 10
505.0011097079883
 20
-236.5001395290335
 30
0.0
 11
495.0011097079883
 21
-236.5001395290335
 31
0.0
  0
LINE
  5
526
330
1F
100
AcDbEntity
  8
0
  6
CONTINUOUS
 62
     3
100
AcDbLine
 10
507.0011097079883
 20
-234.5001395290335
 30
0.0
 11
505.0011097079883
 21
-236.5001395290335
 31
0.0
  0
LINE
  5
527
330
1F
100
AcDbEntity
  8
0
  6
CONTINUOUS
 62
     3
100
AcDbLine
 10
493.0011097079883
 20
-234.5001395290335
 30
0.0
 11
495.0011097079883
 21
-236.5001395290335
 31
0.0
  0
LINE
  5
528
330
1F
100
AcDbEntity
  8
0
  6
CONTINUOUS
 62
     3
100
AcDbLine
 10
492.5011097079882
 20
-206.5001395290335
 30
0.0
 11
507.5011097079883
 21
-206.5001395290335
 31
0.0
  0
LINE
  5
529
330
1F
100
AcDbEntity
  8
0
  6
CONTINUOUS
 62
     3
100
AcDbLine
 10
492.0011097079882
 20
-206.0001395290335
 30
0.0
 11
492.5011097079882
 21
-206.5001395290335
 31
0.0
  0
LINE
  5
52A
330
1F
100
AcDbEntity
  8
0
  6
CONTINUOUS
 62
     3
100
AcDbLine
 10
508.0011097079883
 20
-206.0001395290335
 30
0.0
 11
507.5011097079883
 21
-206.5001395290335
 31
0.0
  0
LINE
  5
52B
330
1F
100
AcDbEntity
  8
0
  6
CONTINUOUS
 62
     3
100
AcDbLine
 10
60.96395116190516
 20
-184.5001395290335
 30
0.0
 11
59.96395116190516
 21
-185.5001395290335
 31
0.0
  0
LINE
  5
52C
330
1F
100
AcDbEntity
  8
0
  6
CONTINUOUS
 62
     3
100
AcDbLine
 10
60.96395116190516
 20
-200.5001395290334
 30
0.0
 11
59.96395116190516
 21
-199.5001395290334
 31
0.0
  0
LINE
  5
52D
330
1F
100
AcDbEntity
  8
0
  6
CONTINUOUS
 62
     3
100
AcDbLine
 10
102.963951161905
 20
-184.5001395290335
 30
0.0
 11
103.963951161905
 21
-185.5001395290335
 31
0.0
  0
LINE
  5
52E
330
1F
100
AcDbEntity
  8
0
  6
CONTINUOUS
 62
     3
100
AcDbLine
 10
102.963951161905
 20
-200.5001395290334
 30
0.0
 11
103.963951161905
 21
-199.5001395290334
 31
0.0
  0
LINE
  5
52F
330
1F
100
AcDbEntity
  8
0
  6
CONTINUOUS
 62
     3
100
AcDbLine
 10
479.0011097079882
 20
-184.5001395290332
 30
0.0
 11
478.0011097079882
 21
-185.5001395290332
 31
0.0
  0
LINE
  5
530
330
1F
100
AcDbEntity
  8
0
  6
CONTINUOUS
 62
     3
100
AcDbLine
 10
479.0011097079882
 20
-200.5001395290333
 30
0.0
 11
478.0011097079882
 21
-199.5001395290333
 31
0.0
  0
LINE
  5
531
330
1F
100
AcDbEntity
  8
0
  6
CONTINUOUS
 62
     3
100
AcDbLine
 10
521.0011097079881
 20
-200.5001395290333
 30
0.0
 11
522.0011097079881
 21
-199.5001395290333
 31
0.0
  0
LINE
  5
532
330
1F
100
AcDbEntity
  8
0
  6
CONTINUOUS
 62
     3
100
AcDbLine
 10
521.0011097079881
 20
-184.5001395290332
 30
0.0
 11
522.0011097079881
 21
-185.5001395290332
 31
0.0
  0
ARC
  5
533
330
1F
100
AcDbEntity
  8
0
  6
CONTINUOUS
 62
     3
100
AcDbCircle
 10
9.262927855487305
 20
-103.0001395290329
 30
0.0
 40
2.0
100
AcDbArc
 50
180.0
 51
270.0
  0
ARC
  5
534
330
1F
100
AcDbEntity
  8
0
  6
CONTINUOUS
 62
     3
100
AcDbCircle
 10
5.262927855487362
 20
-96.0001395290329
 30
0.0
 40
2.0
100
AcDbArc
 50
0.0
 51
90.0
  0
LINE
  5
535
330
1F
100
AcDbEntity
  8
0
  6
CONTINUOUS
 62
     3
100
AcDbLine
 10
7.262927855487362
 20
-103.0001395290329
 30
0.0
 11
7.262927855487362
 21
-96.0001395290329
 31
0.0
  0
ARC
  5
536
330
1F
100
AcDbEntity
  8
0
  6
CONTINUOUS
 62
     3
100
AcDbCircle
 10
35.26292785548787
 20
-103.0001395290329
 30
0.0
 40
2.0
100
AcDbArc
 50
270.0
 51
0.0
  0
LINE
  5
537
330
1F
100
AcDbEntity
  8
0
  6
CONTINUOUS
 62
     3
100
AcDbLine
 10
37.26292785548799
 20
-96.0001395290329
 30
0.0
 11
37.26292785548799
 21
-103.0001395290329
 31
0.0
  0
ARC
  5
538
330
1F
100
AcDbEntity
  8
0
  6
CONTINUOUS
 62
     3
100
AcDbCircle
 10
39.26292785548799
 20
-96.0001395290329
 30
0.0
 40
2.0
100
AcDbArc
 50
90.0
 51
180.0
  0
LINE
  5
539
330
1F
100
AcDbEntity
  8
0
  6
CONTINUOUS
 62
     3
100
AcDbLine
 10
425.0011097079883
 20
-53.00013952903298
 30
0.0
 11
426.0011097079883
 21
-53.00013952903298
 31
0.0
  0
LINE
  5
53A
330
1F
100
AcDbEntity
  8
0
  6
CONTINUOUS
 62
     3
100
AcDbLine
 10
559.9312681690049
 20
-53.00013952903298
 30
0.0
 11
575.0011097079883
 21
-53.00013952903298
 31
0.0
  0
LINE
  5
53B
330
1F
100
AcDbEntity
  8
0
  6
CONTINUOUS
 62
     3
100
AcDbLine
 10
427.2112826655233
 20
-42.00013952904492
 30
0.0
 11
443.6632008918765
 21
-42.00013952904492
 31
0.0
  0
LINE
  5
53C
330
1F
100
AcDbEntity
  8
0
  6
CONTINUOUS
 62
     3
100
AcDbLine
 10
556.3390185241
 20
-42.00013952904492
 30
0.0
 11
572.7909367504534
 21
-42.00013952904492
 31
0.0
  0
LINE
  5
53D
330
1F
100
AcDbEntity
  8
0
  6
CONTINUOUS
 62
     3
100
AcDbLine
 10
425.0011097079883
 20
-52.00013952903298
 30
0.0
 11
426.0512353369221
 21
-52.00013952903298
 31
0.0
  0
LINE
  5
53E
330
1F
100
AcDbEntity
  8
0
  6
CONTINUOUS
 62
     3
100
AcDbLine
 10
559.896347399513
 20
-52.00013952903298
 30
0.0
 11
575.0011097079883
 21
-52.00013952903298
 31
0.0
  0
LINE
  5
53F
330
1F
100
AcDbEntity
  8
0
  6
CONTINUOUS
 62
     3
100
AcDbLine
 10
437.9183025478916
 20
-94.00013952903298
 30
0.0
 11
443.3262703157781
 21
-94.00013952903298
 31
0.0
  0
LINE
  5
540
330
1F
100
AcDbEntity
  8
0
  6
CONTINUOUS
 62
     3
100
AcDbLine
 10
556.6759491001982
 20
-94.00013952903298
 30
0.0
 11
562.0839168680849
 21
-94.00013952903298
 31
0.0
  0
LINE
  5
541
330
1F
100
AcDbEntity
  8
0
  6
CONTINUOUS
 62
     3
100
AcDbLine
 10
64.46395116190527
 20
-361.8479704404509
 30
0.0
 11
64.46395116190527
 21
-365.3479704404507
 31
0.0
  0
LINE
  5
542
330
1F
100
AcDbEntity
  8
0
  6
CONTINUOUS
 62
     3
100
AcDbLine
 10
99.46395116190513
 20
-361.8479704404509
 30
0.0
 11
99.46395116190513
 21
-365.3479704404506
 31
0.0
  0
LINE
  5
543
330
1F
100
AcDbEntity
  8
0
  6
CONTINUOUS
 62
     3
100
AcDbLine
 10
102.9639511619051
 20
-365.3479704404507
 30
0.0
 11
60.96395116190527
 21
-365.3479704404507
 31
0.0
  0
LINE
  5
544
330
1F
100
AcDbEntity
  8
0
  6
CONTINUOUS
 62
     3
100
AcDbLine
 10
102.9639511619051
 20
-381.3479704404506
 30
0.0
 11
60.96395116190527
 21
-381.3479704404506
 31
0.0
  0
LINE
  5
545
330
1F
100
AcDbEntity
  8
0
  6
CONTINUOUS
 62
     3
100
AcDbLine
 10
59.96395116190527
 20
-366.3479704404507
 30
0.0
 11
59.96395116190527
 21
-380.3479704404506
 31
0.0
  0
LINE
  5
546
330
1F
100
AcDbEntity
  8
0
  6
CONTINUOUS
 62
     3
100
AcDbLine
 10
103.9639511619051
 20
-366.3479704404507
 30
0.0
 11
103.9639511619051
 21
-380.3479704404506
 31
0.0
  0
LINE
  5
547
330
1F
100
AcDbEntity
  8
0
  6
CONTINUOUS
 62
     3
100
AcDbLine
 10
73.96395116190516
 20
-381.3479704404506
 30
0.0
 11
73.96395116190516
 21
-388.3479704404508
 31
0.0
  0
LINE
  5
548
330
1F
100
AcDbEntity
  8
0
  6
CONTINUOUS
 62
     3
100
AcDbLine
 10
89.96395116190527
 20
-381.3479704404506
 30
0.0
 11
89.96395116190527
 21
-388.3479704404506
 31
0.0
  0
LINE
  5
549
330
1F
100
AcDbEntity
  8
0
  6
CONTINUOUS
 62
     3
100
AcDbLine
 10
89.96395116190527
 20
-388.3479704404506
 30
0.0
 11
73.96395116190516
 21
-388.3479704404508
 31
0.0
  0
LINE
  5
54A
330
1F
100
AcDbEntity
  8
0
  6
CONTINUOUS
 62
     3
100
AcDbLine
 10
75.46395116190476
 20
-393.3479704404507
 30
0.0
 11
88.46395116190465
 21
-393.3479704404507
 31
0.0
  0
LINE
  5
54B
330
1F
100
AcDbEntity
  8
0
  6
CONTINUOUS
 62
     3
100
AcDbLine
 10
88.46395116190465
 20
-393.3479704404507
 30
0.0
 11
89.46395116190533
 21
-392.347970440451
 31
0.0
  0
LINE
  5
54C
330
1F
100
AcDbEntity
  8
0
  6
CONTINUOUS
 62
     3
100
AcDbLine
 10
75.46395116190476
 20
-393.3479704404507
 30
0.0
 11
74.46395116190504
 21
-392.3479704404507
 31
0.0
  0
LINE
  5
54D
330
1F
100
AcDbEntity
  8
0
  6
CONTINUOUS
 62
     3
100
AcDbLine
 10
86.4639511619068
 20
-399.3479704404507
 30
0.0
 11
77.463951161903
 21
-399.3479704404505
 31
0.0
  0
LINE
  5
54E
330
1F
100
AcDbEntity
  8
0
  6
CONTINUOUS
 62
     3
100
AcDbLine
 10
86.46395116190226
 20
-403.3479704404505
 30
0.0
 11
77.46395116190766
 21
-403.3479704404505
 31
0.0
  0
LINE
  5
54F
330
1F
100
AcDbEntity
  8
0
  6
CONTINUOUS
 62
     3
100
AcDbLine
 10
77.46395116190544
 20
-394.3479704404489
 30
0.0
 11
77.46395116190595
 21
-398.6477629022382
 31
0.0
  0
ARC
  5
550
330
1F
100
AcDbEntity
  8
0
  6
CONTINUOUS
 62
     3
100
AcDbCircle
 10
76.46395116190544
 20
-394.3479704404489
 30
0.0
 40
1.0
100
AcDbArc
 50
0.0
 51
90.0
  0
LINE
  5
551
330
1F
100
AcDbEntity
  8
0
  6
CONTINUOUS
 62
     3
100
AcDbLine
 10
86.46395116190476
 20
-394.3479704404498
 30
0.0
 11
86.46395116190436
 21
-398.6477629022394
 31
0.0
  0
ARC
  5
552
330
1F
100
AcDbEntity
  8
0
  6
CONTINUOUS
 62
     3
100
AcDbCircle
 10
87.46395116190476
 20
-394.3479704404498
 30
0.0
 40
1.0
100
AcDbArc
 50
89.99999999999675
 51
180.0
  0
LINE
  5
553
330
1F
100
AcDbEntity
  8
0
  6
CONTINUOUS
 62
     3
100
AcDbLine
 10
88.96395116190516
 20
-400.2578960261171
 30
0.0
 11
88.96395116190499
 21
-402.4380448547856
 31
0.0
  0
LINE
  5
554
330
1F
100
AcDbEntity
  8
0
  6
CONTINUOUS
 62
     3
100
AcDbLine
 10
74.96395116190556
 20
-400.2578960261163
 30
0.0
 11
74.96395116190527
 21
-402.4380448547844
 31
0.0
  0
LINE
  5
555
330
1F
100
AcDbEntity
  8
0
  6
CONTINUOUS
 62
     3
100
AcDbLine
 10
77.46395116190766
 20
-403.3479704404505
 30
0.0
 11
74.96395116190527
 21
-402.4380448547844
 31
0.0
  0
LINE
  5
556
330
1F
100
AcDbEntity
  8
0
  6
CONTINUOUS
 62
     3
100
AcDbLine
 10
76.80597130523259
 20
-399.5874555230238
 30
0.0
 11
74.96395116190556
 21
-400.2578960261163
 31
0.0
  0
ARC
  5
557
330
1F
100
AcDbEntity
  8
0
  6
CONTINUOUS
 62
     3
100
AcDbCircle
 10
76.46395116190595
 20
-398.6477629022382
 30
0.0
 40
1.0
100
AcDbArc
 50
290.0000000000552
 51
0.0
  0
LINE
  5
558
330
1F
100
AcDbEntity
  8
0
  6
CONTINUOUS
 62
     3
100
AcDbLine
 10
88.96395116190499
 20
-402.4380448547856
 30
0.0
 11
86.46395116190226
 21
-403.3479704404505
 31
0.0
  0
LINE
  5
559
330
1F
100
AcDbEntity
  8
0
  6
CONTINUOUS
 62
     3
100
AcDbLine
 10
87.12193101857778
 20
-399.587455523025
 30
0.0
 11
88.96395116190516
 21
-400.2578960261171
 31
0.0
  0
ARC
  5
55A
330
1F
100
AcDbEntity
  8
0
  6
CONTINUOUS
 62
     3
100
AcDbCircle
 10
87.46395116190436
 20
-398.6477629022394
 30
0.0
 40
1.0
100
AcDbArc
 50
180.0
 51
249.9999999999448
  0
LINE
  5
55B
330
1F
100
AcDbEntity
  8
0
  6
CONTINUOUS
 62
     3
100
AcDbLine
 10
74.46395116190516
 20
-388.3479704404506
 30
0.0
 11
74.46395116190504
 21
-392.3479704404507
 31
0.0
  0
LINE
  5
55C
330
1F
100
AcDbEntity
  8
0
  6
CONTINUOUS
 62
     3
100
AcDbLine
 10
89.46395116190516
 20
-388.3479704404506
 30
0.0
 11
89.46395116190533
 21
-392.347970440451
 31
0.0
  0
LINE
  5
55D
330
1F
100
AcDbEntity
  8
0
  6
CONTINUOUS
 62
     3
100
AcDbLine
 10
88.96395116190516
 20
-400.2578960261171
 30
0.0
 11
74.96395116190556
 21
-400.2578960261171
 31
0.0
  0
LINE
  5
55E
330
1F
100
AcDbEntity
  8
0
  6
CONTINUOUS
 62
     3
100
AcDbLine
 10
88.96395116190499
 20
-402.4380448547856
 30
0.0
 11
74.96395116190527
 21
-402.4380448547856
 31
0.0
  0
LINE
  5
55F
330
1F
100
AcDbEntity
  8
0
  6
CONTINUOUS
 62
     3
100
AcDbLine
 10
89.96395116190527
 20
-382.3479704404506
 30
0.0
 11
73.96395116190516
 21
-382.3479704404506
 31
0.0
  0
LINE
  5
560
330
1F
100
AcDbEntity
  8
0
  6
CONTINUOUS
 62
     3
100
AcDbLine
 10
89.96395116190527
 20
-383.3479704404506
 30
0.0
 11
73.96395116190516
 21
-383.3479704404506
 31
0.0
  0
LINE
  5
561
330
1F
100
AcDbEntity
  8
0
  6
CONTINUOUS
 62
     3
100
AcDbLine
 10
89.96395116190527
 20
-384.3479704404506
 30
0.0
 11
73.96395116190516
 21
-384.3479704404506
 31
0.0
  0
LINE
  5
562
330
1F
100
AcDbEntity
  8
0
  6
CONTINUOUS
 62
     3
100
AcDbLine
 10
115.4639511619052
 20
-361.8479704404505
 30
0.0
 11
48.46395116190538
 21
-361.8479704404505
 31
0.0
  0
LINE
  5
563
330
1F
100
AcDbEntity
  8
0
  6
CONTINUOUS
 62
     3
100
AcDbLine
 10
116.9639511619052
 20
-351.3479704404505
 30
0.0
 11
116.9639511619052
 21
-356.8479704404505
 31
0.0
  0
LINE
  5
564
330
1F
100
AcDbEntity
  8
0
  6
CONTINUOUS
 62
     3
100
AcDbLine
 10
116.9639511619052
 20
-356.8479704404505
 30
0.0
 11
115.4639511619052
 21
-361.8479704404505
 31
0.0
  0
LINE
  5
565
330
1F
100
AcDbEntity
  8
0
  6
CONTINUOUS
 62
     3
100
AcDbLine
 10
116.9639511619052
 20
-356.8479704404505
 30
0.0
 11
46.96395116190527
 21
-356.8479704404505
 31
0.0
  0
LINE
  5
566
330
1F
100
AcDbEntity
  8
0
  6
CONTINUOUS
 62
     3
100
AcDbLine
 10
46.96395116190527
 20
-351.3479704404505
 30
0.0
 11
46.96395116190527
 21
-356.8479704404505
 31
0.0
  0
LINE
  5
567
330
1F
100
AcDbEntity
  8
0
  6
CONTINUOUS
 62
     3
100
AcDbLine
 10
46.96395116190527
 20
-356.8479704404505
 30
0.0
 11
48.46395116190527
 21
-361.8479704404505
 31
0.0
  0
LINE
  5
568
330
1F
100
AcDbEntity
  8
0
  6
CONTINUOUS
 62
     3
100
AcDbLine
 10
134.4639511619052
 20
-351.3479704404505
 30
0.0
 11
134.4639511619052
 21
-341.3479704404505
 31
0.0
  0
LINE
  5
569
330
1F
100
AcDbEntity
  8
0
  6
CONTINUOUS
 62
     3
100
AcDbLine
 10
29.46395116190524
 20
-351.3479704404505
 30
0.0
 11
29.46395116190524
 21
-341.3479704404505
 31
0.0
  0
LINE
  5
56A
330
1F
100
AcDbEntity
  8
0
  6
CONTINUOUS
 62
     3
100
AcDbLine
 10
29.46395116190524
 20
-351.3479704404505
 30
0.0
 11
134.4639511619052
 21
-351.3479704404505
 31
0.0
  0
LINE
  5
56B
330
1F
100
AcDbEntity
  8
0
  6
CONTINUOUS
 62
     3
100
AcDbLine
 10
31.46395116190524
 20
-339.3479704404505
 30
0.0
 11
132.4639511619052
 21
-339.3479704404505
 31
0.0
  0
ARC
  5
56C
330
1F
100
AcDbEntity
  8
0
  6
CONTINUOUS
 62
     3
100
AcDbCircle
 10
132.4639511619052
 20
-341.3479704404505
 30
0.0
 40
2.0
100
AcDbArc
 50
0.0
 51
90.0
  0
ARC
  5
56D
330
1F
100
AcDbEntity
  8
0
  6
CONTINUOUS
 62
     3
100
AcDbCircle
 10
31.46395116190524
 20
-341.3479704404505
 30
0.0
 40
2.0
100
AcDbArc
 50
90.0
 51
180.0
  0
ARC
  5
56E
330
1F
100
AcDbEntity
  8
0
  6
CONTINUOUS
 62
     3
100
AcDbCircle
 10
119.4639511619052
 20
-334.3479704404505
 30
0.0
 40
5.0
100
AcDbArc
 50
180.0
 51
270.0
  0
ARC
  5
56F
330
1F
100
AcDbEntity
  8
0
  6
CONTINUOUS
 62
     3
100
AcDbCircle
 10
44.46395116190527
 20
-334.3479704404505
 30
0.0
 40
5.0
100
AcDbArc
 50
270.0
 51
0.0
  0
LINE
  5
570
330
1F
100
AcDbEntity
  8
0
  6
CONTINUOUS
 62
     3
100
AcDbLine
 10
114.4639511619052
 20
-334.3479704404505
 30
0.0
 11
114.4639511619052
 21
-296.9580394185516
 31
0.0
  0
LINE
  5
571
330
1F
100
AcDbEntity
  8
0
  6
CONTINUOUS
 62
     3
100
AcDbLine
 10
49.46395116190516
 20
-334.3479704404505
 30
0.0
 11
49.46395116190516
 21
-309.1983560245242
 31
0.0
  0
LINE
  5
572
330
1F
100
AcDbEntity
  8
0
  6
CONTINUOUS
 62
     3
100
AcDbLine
 10
60.96395116190527
 20
-365.3479704404507
 30
0.0
 11
59.96395116190527
 21
-366.3479704404507
 31
0.0
  0
LINE
  5
573
330
1F
100
AcDbEntity
  8
0
  6
CONTINUOUS
 62
     3
100
AcDbLine
 10
60.96395116190527
 20
-381.3479704404506
 30
0.0
 11
59.96395116190527
 21
-380.3479704404506
 31
0.0
  0
LINE
  5
574
330
1F
100
AcDbEntity
  8
0
  6
CONTINUOUS
 62
     3
100
AcDbLine
 10
102.9639511619051
 20
-381.3479704404506
 30
0.0
 11
103.9639511619051
 21
-380.3479704404506
 31
0.0
  0
LINE
  5
575
330
1F
100
AcDbEntity
  8
0
  6
CONTINUOUS
 62
     3
100
AcDbLine
 10
102.9639511619051
 20
-365.3479704404507
 30
0.0
 11
103.9639511619051
 21
-366.3479704404507
 31
0.0
  0
TEXT
  5
577
330
1F
100
AcDbEntity
  8
0
 62
     7
100
AcDbText
 10
536.1396345004162
 20
-405.3263659880893
 30
0.0
 40
20.0
  1
000
 41
0.7689423076923078
  7
DCSTYLE0
 72
     5
 11
566.1396345004162
 21
-405.3263659880893
 31
0.0
100
AcDbText
  0
LINE
  5
578
330
1F
100
AcDbEntity
  8
LAYER0016
  6
CONTINUOUS
 62
     7
100
AcDbLine
 10
-258.4942929577796
 20
-309.8181056933336
 30
0.0
 11
-258.4942929577796
 21
-324.8181056933337
 31
0.0
  0
LINE
  5
579
330
1F
100
AcDbEntity
  8
LAYER0016
  6
CONTINUOUS
 62
     7
100
AcDbLine
 10
-258.4942929577796
 20
-324.8181056933337
 30
0.0
 11
-240.9692301433127
 21
-324.8181056933337
 31
0.0
  0
LINE
  5
57A
330
1F
100
AcDbEntity
  8
LAYER0016
  6
CONTINUOUS
 62
     7
100
AcDbLine
 10
-205.4942929577796
 20
-324.8181056933337
 30
0.0
 11
-205.4942929577796
 21
-309.8181056933336
 31
0.0
  0
LINE
  5
57B
330
1F
100
AcDbEntity
  8
LAYER0016
  6
CONTINUOUS
 62
     7
100
AcDbLine
 10
-205.4942929577796
 20
-309.8181056933336
 30
0.0
 11
-258.4942929577796
 21
-309.8181056933336
 31
0.0
  0
LINE
  5
57C
330
1F
100
AcDbEntity
  8
LAYER0016
  6
CONTINUOUS
 62
     7
100
AcDbLine
 10
-258.4942929577796
 20
-325.8181056933336
 30
0.0
 11
-258.4942929577796
 21
-340.8181056933336
 31
0.0
  0
LINE
  5
57D
330
1F
100
AcDbEntity
  8
LAYER0016
  6
CONTINUOUS
 62
     7
100
AcDbLine
 10
-258.4942929577796
 20
-340.8181056933336
 30
0.0
 11
-213.4942929577796
 21
-340.8181056933336
 31
0.0
  0
LINE
  5
57E
330
1F
100
AcDbEntity
  8
LAYER0016
  6
CONTINUOUS
 62
     7
100
AcDbLine
 10
-213.4942929577796
 20
-340.8181056933336
 30
0.0
 11
-213.4942929577796
 21
-325.8181056933336
 31
0.0
  0
LINE
  5
57F
330
1F
100
AcDbEntity
  8
LAYER0016
  6
CONTINUOUS
 62
     7
100
AcDbLine
 10
-213.4942929577796
 20
-325.8181056933336
 30
0.0
 11
-231.0193557722464
 21
-325.8181056933336
 31
0.0
  0
LINE
  5
580
330
1F
100
AcDbEntity
  8
LAYER0016
  6
CONTINUOUS
 62
     7
100
AcDbLine
 10
-258.4942929577796
 20
-388.9823706507237
 30
0.0
 11
-258.4942929577796
 21
-404.9823706507237
 31
0.0
  0
LINE
  5
581
330
1F
100
AcDbEntity
  8
LAYER0016
  6
CONTINUOUS
 62
     7
100
AcDbLine
 10
-258.4942929577796
 20
-404.9823706507237
 30
0.0
 11
-213.4942929577796
 21
-404.9823706507237
 31
0.0
  0
LINE
  5
582
330
1F
100
AcDbEntity
  8
LAYER0016
  6
CONTINUOUS
 62
     7
100
AcDbLine
 10
-231.0193557722464
 20
-324.8181056933337
 30
0.0
 11
-205.4942929577796
 21
-324.8181056933337
 31
0.0
  0
LINE
  5
583
330
1F
100
AcDbEntity
  8
LAYER0016
  6
CONTINUOUS
 62
     7
100
AcDbLine
 10
-240.9692301433127
 20
-325.8181056933336
 30
0.0
 11
-258.4942929577796
 21
-325.8181056933336
 31
0.0
  0
LINE
  5
584
330
1F
100
AcDbEntity
  8
LAYER0016
  6
CONTINUOUS
 62
     7
100
AcDbLine
 10
-230.9942929577795
 20
-389.8922962363893
 30
0.0
 11
-230.9942929577795
 21
-393.0724450650582
 31
0.0
  0
LINE
  5
585
330
1F
100
AcDbEntity
  8
LAYER0016
  6
CONTINUOUS
 62
     7
100
AcDbLine
 10
-228.4942929577796
 20
-393.9823706507237
 30
0.0
 11
-228.4942929577796
 21
-399.9823706507237
 31
0.0
  0
LINE
  5
586
330
1F
100
AcDbEntity
  8
LAYER0016
  6
CONTINUOUS
 62
     7
100
AcDbLine
 10
-230.9942929577795
 20
-404.0724450650582
 30
0.0
 11
-230.9942929577795
 21
-400.8922962363893
 31
0.0
  0
LINE
  5
587
330
1F
100
AcDbEntity
  8
LAYER0016
  6
CONTINUOUS
 62
     7
100
AcDbLine
 10
-243.4942929577795
 20
-393.9823706507237
 30
0.0
 11
-243.4942929577795
 21
-399.9823706507237
 31
0.0
  0
LINE
  5
588
330
1F
100
AcDbEntity
  8
LAYER0016
  6
CONTINUOUS
 62
     7
100
AcDbLine
 10
-240.9942929577796
 20
-389.8922962363893
 30
0.0
 11
-240.9942929577796
 21
-393.0724450650582
 31
0.0
  0
LINE
  5
589
330
1F
100
AcDbEntity
  8
LAYER0016
  6
CONTINUOUS
 62
     7
100
AcDbLine
 10
-240.9942929577796
 20
-404.0724450650582
 30
0.0
 11
-240.9942929577796
 21
-400.8922962363893
 31
0.0
  0
ARC
  5
58A
330
1F
100
AcDbEntity
  8
LAYER0016
  6
CONTINUOUS
 62
     7
100
AcDbCircle
 10
-235.9942929577795
 20
-325.3181056933336
 30
0.0
 40
5.0
100
AcDbArc
 50
5.739170477268057
 51
174.2608295227319
  0
LINE
  5
58B
330
1F
100
AcDbEntity
  8
LAYER0016
  6
CONTINUOUS
 62
     7
100
AcDbLine
 10
-213.4942929577796
 20
-388.9823706507237
 30
0.0
 11
-205.4942929577796
 21
-396.9823706507236
 31
0.0
  0
LINE
  5
58C
330
1F
100
AcDbEntity
  8
LAYER0016
  6
CONTINUOUS
 62
     7
100
AcDbLine
 10
-205.4942929577796
 20
-396.9823706507236
 30
0.0
 11
-213.4942929577796
 21
-404.9823706507237
 31
0.0
  0
LINE
  5
58D
330
1F
100
AcDbEntity
  8
LAYER0016
  6
CONTINUOUS
 62
     7
100
AcDbLine
 10
-258.4942929577796
 20
-388.9823706507237
 30
0.0
 11
-213.4942929577796
 21
-388.9823706507237
 31
0.0
  0
ARC
  5
58E
330
1F
100
AcDbEntity
  8
LAYER0016
  6
CONTINUOUS
 62
     7
100
AcDbCircle
 10
-235.9942929577795
 20
-325.3181056933336
 30
0.0
 40
5.0
100
AcDbArc
 50
185.7391704772681
 51
354.260829522732
  0
CIRCLE
  5
58F
330
1F
100
AcDbEntity
  8
LAYER0016
  6
CONTINUOUS
 62
     7
100
AcDbCircle
 10
-220.9942929577796
 20
-396.9823706507236
 30
0.0
 40
2.399999999999958
  0
CIRCLE
  5
590
330
1F
100
AcDbEntity
  8
LAYER0016
  6
CONTINUOUS
 62
     7
100
AcDbCircle
 10
-250.9942929577796
 20
-396.9823706507236
 30
0.0
 40
2.399999999999985
  0
LINE
  5
591
330
1F
100
AcDbEntity
  8
LAYER0016
  6
CONTINUOUS
 62
     7
100
AcDbLine
 10
-228.5109781842314
 20
-388.9823706507237
 30
0.0
 11
-243.4776077313273
 21
-388.9823706507237
 31
0.0
  0
LINE
  5
592
330
1F
100
AcDbEntity
  8
LAYER0016
  6
CONTINUOUS
 62
     7
100
AcDbLine
 10
-228.4942929577796
 20
-393.9823706507237
 30
0.0
 11
-243.4942929577795
 21
-393.9823706507237
 31
0.0
  0
LINE
  5
593
330
1F
100
AcDbEntity
  8
LAYER0016
  6
CONTINUOUS
 62
     7
100
AcDbLine
 10
-228.4942929577796
 20
-399.9823706507237
 30
0.0
 11
-243.4942929577795
 21
-399.9823706507237
 31
0.0
  0
LINE
  5
594
330
1F
100
AcDbEntity
  8
LAYER0016
  6
CONTINUOUS
 62
     7
100
AcDbLine
 10
-228.4942929577796
 20
-393.9823706507237
 30
0.0
 11
-230.9942929577795
 21
-393.0724450650582
 31
0.0
  0
LINE
  5
595
330
1F
100
AcDbEntity
  8
LAYER0016
  6
CONTINUOUS
 62
     7
100
AcDbLine
 10
-228.4942929577796
 20
-399.9823706507237
 30
0.0
 11
-230.9942929577795
 21
-400.8922962363893
 31
0.0
  0
LINE
  5
596
330
1F
100
AcDbEntity
  8
LAYER0016
  6
CONTINUOUS
 62
     7
100
AcDbLine
 10
-230.9942929577795
 20
-393.0724450650582
 30
0.0
 11
-240.9942929577796
 21
-393.0724450650581
 31
0.0
  0
LINE
  5
597
330
1F
100
AcDbEntity
  8
LAYER0016
  6
CONTINUOUS
 62
     7
100
AcDbLine
 10
-230.9942929577795
 20
-400.8922962363893
 30
0.0
 11
-240.9942929577793
 21
-400.8922962363893
 31
0.0
  0
LINE
  5
598
330
1F
100
AcDbEntity
  8
LAYER0016
  6
CONTINUOUS
 62
     7
100
AcDbLine
 10
-230.9942929577795
 20
-389.8922962363893
 30
0.0
 11
-228.4942929577796
 21
-388.9823706507237
 31
0.0
  0
LINE
  5
599
330
1F
100
AcDbEntity
  8
LAYER0016
  6
CONTINUOUS
 62
     7
100
AcDbLine
 10
-230.9942929577795
 20
-389.8922962363893
 30
0.0
 11
-240.9942929577796
 21
-389.8922962363893
 31
0.0
  0
LINE
  5
59A
330
1F
100
AcDbEntity
  8
LAYER0016
  6
CONTINUOUS
 62
     7
100
AcDbLine
 10
-230.9942929577795
 20
-404.0724450650582
 30
0.0
 11
-228.4942929577796
 21
-404.9823706507237
 31
0.0
  0
LINE
  5
59B
330
1F
100
AcDbEntity
  8
LAYER0016
  6
CONTINUOUS
 62
     7
100
AcDbLine
 10
-230.9942929577795
 20
-404.0724450650582
 30
0.0
 11
-240.9942929577796
 21
-404.0724450650582
 31
0.0
  0
LINE
  5
59C
330
1F
100
AcDbEntity
  8
LAYER0016
  6
CONTINUOUS
 62
     7
100
AcDbLine
 10
-243.4942929577795
 20
-393.9823706507237
 30
0.0
 11
-240.9942929577796
 21
-393.0724450650582
 31
0.0
  0
LINE
  5
59D
330
1F
100
AcDbEntity
  8
LAYER0016
  6
CONTINUOUS
 62
     7
100
AcDbLine
 10
-243.4942929577795
 20
-399.9823706507237
 30
0.0
 11
-240.9942929577796
 21
-400.8922962363893
 31
0.0
  0
LINE
  5
59E
330
1F
100
AcDbEntity
  8
LAYER0016
  6
CONTINUOUS
 62
     7
100
AcDbLine
 10
-240.9942929577796
 20
-389.8922962363893
 30
0.0
 11
-243.4942929577795
 21
-388.9823706507237
 31
0.0
  0
LINE
  5
59F
330
1F
100
AcDbEntity
  8
LAYER0016
  6
CONTINUOUS
 62
     7
100
AcDbLine
 10
-240.9942929577796
 20
-404.0724450650582
 30
0.0
 11
-243.4942929577795
 21
-404.9823706507237
 31
0.0
  0
LINE
  5
5A0
330
1F
100
AcDbEntity
  8
LAYER0016
  6
CONTINUOUS
 62
     7
100
AcDbLine
 10
172.9639511619051
 20
325.7154299193988
 30
0.0
 11
171.9639511619051
 21
325.7154299193988
 31
0.0
  0
LINE
  5
5A1
330
1F
100
AcDbEntity
  8
LAYER0016
  6
CONTINUOUS
 62
     7
100
AcDbLine
 10
172.9639511619051
 20
302.715429919399
 30
0.0
 11
171.9639511619051
 21
302.715429919399
 31
0.0
  0
LINE
  5
5A2
330
1F
100
AcDbEntity
  8
LAYER0016
  6
CONTINUOUS
 62
     7
100
AcDbLine
 10
172.9639511619051
 20
357.7154299193988
 30
0.0
 11
171.9639511619051
 21
357.7154299193988
 31
0.0
  0
LINE
  5
5A3
330
1F
100
AcDbEntity
  8
LAYER0016
  6
CONTINUOUS
 62
     7
100
AcDbLine
 10
172.9639511619051
 20
270.7154299193988
 30
0.0
 11
171.9639511619051
 21
270.7154299193988
 31
0.0
  0
LINE
  5
5A4
330
1F
100
AcDbEntity
  8
LAYER0016
  6
CONTINUOUS
 62
     7
100
AcDbLine
 10
172.9639511619051
 20
-59.00013952903308
 30
0.0
 11
171.8068356324901
 21
-59.00013952903308
 31
0.0
  0
LINE
  5
5A5
330
1F
100
AcDbEntity
  8
LAYER0016
  6
CONTINUOUS
 62
     7
100
AcDbLine
 10
172.9639511619051
 20
-91.00013952903319
 30
0.0
 11
169.0205724004327
 21
-91.00013952903319
 31
0.0
  0
LINE
  5
5A6
330
1F
100
AcDbEntity
  8
LAYER0016
  6
CONTINUOUS
 62
     7
100
AcDbLine
 10
282.3140010067098
 20
-309.8181056933336
 30
0.0
 11
282.3140010067098
 21
-324.8181056933337
 31
0.0
  0
LINE
  5
5A7
330
1F
100
AcDbEntity
  8
LAYER0016
  6
CONTINUOUS
 62
     7
100
AcDbLine
 10
282.3140010067098
 20
-324.8181056933337
 30
0.0
 11
299.8390638211766
 21
-324.8181056933337
 31
0.0
  0
LINE
  5
5A8
330
1F
100
AcDbEntity
  8
LAYER0016
  6
CONTINUOUS
 62
     7
100
AcDbLine
 10
335.3140010067098
 20
-324.8181056933337
 30
0.0
 11
335.3140010067098
 21
-309.8181056933336
 31
0.0
  0
LINE
  5
5A9
330
1F
100
AcDbEntity
  8
LAYER0016
  6
CONTINUOUS
 62
     7
100
AcDbLine
 10
335.3140010067098
 20
-309.8181056933336
 30
0.0
 11
282.3140010067098
 21
-309.8181056933336
 31
0.0
  0
LINE
  5
5AA
330
1F
100
AcDbEntity
  8
LAYER0016
  6
CONTINUOUS
 62
     7
100
AcDbLine
 10
282.3140010067098
 20
-325.8181056933336
 30
0.0
 11
282.3140010067098
 21
-340.8181056933336
 31
0.0
  0
LINE
  5
5AB
330
1F
100
AcDbEntity
  8
LAYER0016
  6
CONTINUOUS
 62
     7
100
AcDbLine
 10
282.3140010067098
 20
-340.8181056933336
 30
0.0
 11
327.3140010067098
 21
-340.8181056933336
 31
0.0
  0
LINE
  5
5AC
330
1F
100
AcDbEntity
  8
LAYER0016
  6
CONTINUOUS
 62
     7
100
AcDbLine
 10
327.3140010067098
 20
-340.8181056933336
 30
0.0
 11
327.3140010067098
 21
-325.8181056933336
 31
0.0
  0
LINE
  5
5AD
330
1F
100
AcDbEntity
  8
LAYER0016
  6
CONTINUOUS
 62
     7
100
AcDbLine
 10
327.3140010067098
 20
-325.8181056933336
 30
0.0
 11
309.788938192243
 21
-325.8181056933336
 31
0.0
  0
LINE
  5
5AE
330
1F
100
AcDbEntity
  8
LAYER0016
  6
CONTINUOUS
 62
     7
100
AcDbLine
 10
282.3140010067098
 20
-388.9823706507237
 30
0.0
 11
282.3140010067098
 21
-404.9823706507237
 31
0.0
  0
LINE
  5
5AF
330
1F
100
AcDbEntity
  8
LAYER0016
  6
CONTINUOUS
 62
     7
100
AcDbLine
 10
282.3140010067098
 20
-404.9823706507237
 30
0.0
 11
327.3140010067098
 21
-404.9823706507237
 31
0.0
  0
LINE
  5
5B0
330
1F
100
AcDbEntity
  8
LAYER0016
  6
CONTINUOUS
 62
     7
100
AcDbLine
 10
309.788938192243
 20
-324.8181056933337
 30
0.0
 11
335.3140010067098
 21
-324.8181056933337
 31
0.0
  0
LINE
  5
5B1
330
1F
100
AcDbEntity
  8
LAYER0016
  6
CONTINUOUS
 62
     7
100
AcDbLine
 10
299.8390638211766
 20
-325.8181056933336
 30
0.0
 11
282.3140010067098
 21
-325.8181056933336
 31
0.0
  0
LINE
  5
5B2
330
1F
100
AcDbEntity
  8
LAYER0016
  6
CONTINUOUS
 62
     7
100
AcDbLine
 10
309.8140010067099
 20
-389.8922962363893
 30
0.0
 11
309.8140010067099
 21
-393.0724450650582
 31
0.0
  0
LINE
  5
5B3
330
1F
100
AcDbEntity
  8
LAYER0016
  6
CONTINUOUS
 62
     7
100
AcDbLine
 10
312.3140010067098
 20
-393.9823706507237
 30
0.0
 11
312.3140010067098
 21
-399.9823706507237
 31
0.0
  0
LINE
  5
5B4
330
1F
100
AcDbEntity
  8
LAYER0016
  6
CONTINUOUS
 62
     7
100
AcDbLine
 10
309.8140010067099
 20
-404.0724450650582
 30
0.0
 11
309.8140010067099
 21
-400.8922962363893
 31
0.0
  0
LINE
  5
5B5
330
1F
100
AcDbEntity
  8
LAYER0016
  6
CONTINUOUS
 62
     7
100
AcDbLine
 10
297.3140010067099
 20
-393.9823706507237
 30
0.0
 11
297.3140010067099
 21
-399.9823706507237
 31
0.0
  0
LINE
  5
5B6
330
1F
100
AcDbEntity
  8
LAYER0016
  6
CONTINUOUS
 62
     7
100
AcDbLine
 10
299.8140010067098
 20
-389.8922962363893
 30
0.0
 11
299.8140010067098
 21
-393.0724450650582
 31
0.0
  0
LINE
  5
5B7
330
1F
100
AcDbEntity
  8
LAYER0016
  6
CONTINUOUS
 62
     7
100
AcDbLine
 10
299.8140010067098
 20
-404.0724450650582
 30
0.0
 11
299.8140010067098
 21
-400.8922962363893
 31
0.0
  0
ARC
  5
5B8
330
1F
100
AcDbEntity
  8
LAYER0016
  6
CONTINUOUS
 62
     7
100
AcDbCircle
 10
304.8140010067099
 20
-325.3181056933336
 30
0.0
 40
5.0
100
AcDbArc
 50
5.739170477268057
 51
174.2608295227319
  0
LINE
  5
5B9
330
1F
100
AcDbEntity
  8
LAYER0016
  6
CONTINUOUS
 62
     7
100
AcDbLine
 10
327.3140010067098
 20
-388.9823706507237
 30
0.0
 11
335.3140010067098
 21
-396.9823706507236
 31
0.0
  0
LINE
  5
5BA
330
1F
100
AcDbEntity
  8
LAYER0016
  6
CONTINUOUS
 62
     7
100
AcDbLine
 10
335.3140010067098
 20
-396.9823706507236
 30
0.0
 11
327.3140010067098
 21
-404.9823706507237
 31
0.0
  0
LINE
  5
5BB
330
1F
100
AcDbEntity
  8
LAYER0016
  6
CONTINUOUS
 62
     7
100
AcDbLine
 10
282.3140010067098
 20
-388.9823706507237
 30
0.0
 11
327.3140010067098
 21
-388.9823706507237
 31
0.0
  0
ARC
  5
5BC
330
1F
100
AcDbEntity
  8
LAYER0016
  6
CONTINUOUS
 62
     7
100
AcDbCircle
 10
304.8140010067099
 20
-325.3181056933336
 30
0.0
 40
5.0
100
AcDbArc
 50
185.7391704772681
 51
354.260829522732
  0
CIRCLE
  5
5BD
330
1F
100
AcDbEntity
  8
LAYER0016
  6
CONTINUOUS
 62
     7
100
AcDbCircle
 10
319.8140010067098
 20
-396.9823706507236
 30
0.0
 40
2.399999999999958
  0
CIRCLE
  5
5BE
330
1F
100
AcDbEntity
  8
LAYER0016
  6
CONTINUOUS
 62
     7
100
AcDbCircle
 10
289.8140010067098
 20
-396.9823706507236
 30
0.0
 40
2.399999999999985
  0
LINE
  5
5BF
330
1F
100
AcDbEntity
  8
LAYER0016
  6
CONTINUOUS
 62
     7
100
AcDbLine
 10
312.2973157802579
 20
-388.9823706507237
 30
0.0
 11
297.3306862331621
 21
-388.9823706507237
 31
0.0
  0
LINE
  5
5C0
330
1F
100
AcDbEntity
  8
LAYER0016
  6
CONTINUOUS
 62
     7
100
AcDbLine
 10
312.3140010067098
 20
-393.9823706507237
 30
0.0
 11
297.3140010067099
 21
-393.9823706507237
 31
0.0
  0
LINE
  5
5C1
330
1F
100
AcDbEntity
  8
LAYER0016
  6
CONTINUOUS
 62
     7
100
AcDbLine
 10
312.3140010067098
 20
-399.9823706507237
 30
0.0
 11
297.3140010067099
 21
-399.9823706507237
 31
0.0
  0
LINE
  5
5C2
330
1F
100
AcDbEntity
  8
LAYER0016
  6
CONTINUOUS
 62
     7
100
AcDbLine
 10
312.3140010067098
 20
-393.9823706507237
 30
0.0
 11
309.8140010067099
 21
-393.0724450650582
 31
0.0
  0
LINE
  5
5C3
330
1F
100
AcDbEntity
  8
LAYER0016
  6
CONTINUOUS
 62
     7
100
AcDbLine
 10
312.3140010067098
 20
-399.9823706507237
 30
0.0
 11
309.8140010067099
 21
-400.8922962363893
 31
0.0
  0
LINE
  5
5C4
330
1F
100
AcDbEntity
  8
LAYER0016
  6
CONTINUOUS
 62
     7
100
AcDbLine
 10
309.8140010067099
 20
-393.0724450650582
 30
0.0
 11
299.8140010067098
 21
-393.0724450650581
 31
0.0
  0
LINE
  5
5C5
330
1F
100
AcDbEntity
  8
LAYER0016
  6
CONTINUOUS
 62
     7
100
AcDbLine
 10
309.8140010067099
 20
-400.8922962363893
 30
0.0
 11
299.8140010067101
 21
-400.8922962363893
 31
0.0
  0
LINE
  5
5C6
330
1F
100
AcDbEntity
  8
LAYER0016
  6
CONTINUOUS
 62
     7
100
AcDbLine
 10
309.8140010067099
 20
-389.8922962363893
 30
0.0
 11
312.3140010067098
 21
-388.9823706507237
 31
0.0
  0
LINE
  5
5C7
330
1F
100
AcDbEntity
  8
LAYER0016
  6
CONTINUOUS
 62
     7
100
AcDbLine
 10
309.8140010067099
 20
-389.8922962363893
 30
0.0
 11
299.8140010067098
 21
-389.8922962363893
 31
0.0
  0
LINE
  5
5C8
330
1F
100
AcDbEntity
  8
LAYER0016
  6
CONTINUOUS
 62
     7
100
AcDbLine
 10
309.8140010067099
 20
-404.0724450650582
 30
0.0
 11
312.3140010067098
 21
-404.9823706507237
 31
0.0
  0
LINE
  5
5C9
330
1F
100
AcDbEntity
  8
LAYER0016
  6
CONTINUOUS
 62
     7
100
AcDbLine
 10
309.8140010067099
 20
-404.0724450650582
 30
0.0
 11
299.8140010067098
 21
-404.0724450650582
 31
0.0
  0
LINE
  5
5CA
330
1F
100
AcDbEntity
  8
LAYER0016
  6
CONTINUOUS
 62
     7
100
AcDbLine
 10
297.3140010067099
 20
-393.9823706507237
 30
0.0
 11
299.8140010067098
 21
-393.0724450650582
 31
0.0
  0
LINE
  5
5CB
330
1F
100
AcDbEntity
  8
LAYER0016
  6
CONTINUOUS
 62
     7
100
AcDbLine
 10
297.3140010067099
 20
-399.9823706507237
 30
0.0
 11
299.8140010067098
 21
-400.8922962363893
 31
0.0
  0
LINE
  5
5CC
330
1F
100
AcDbEntity
  8
LAYER0016
  6
CONTINUOUS
 62
     7
100
AcDbLine
 10
299.8140010067098
 20
-389.8922962363893
 30
0.0
 11
297.3140010067099
 21
-388.9823706507237
 31
0.0
  0
LINE
  5
5CD
330
1F
100
AcDbEntity
  8
LAYER0016
  6
CONTINUOUS
 62
     7
100
AcDbLine
 10
299.8140010067098
 20
-404.0724450650582
 30
0.0
 11
297.3140010067099
 21
-404.9823706507237
 31
0.0
  0
LINE
  5
5CE
330
1F
100
AcDbEntity
  8
LAYER0016
  6
CENTER
 62
     4
100
AcDbLine
 10
-235.9942929577795
 20
-304.8181056933337
 30
0.0
 11
-235.9942929577795
 21
-345.8181056933336
 31
0.0
  0
LINE
  5
5CF
330
1F
100
AcDbEntity
  8
LAYER0016
  6
CENTER
 62
     4
100
AcDbLine
 10
-220.9942929577796
 20
-306.8181056933337
 30
0.0
 11
-220.9942929577796
 21
-343.8181056933336
 31
0.0
  0
LINE
  5
5D0
330
1F
100
AcDbEntity
  8
LAYER0016
  6
CENTER
 62
     4
100
AcDbLine
 10
-200.4942929577796
 20
-325.3181056933336
 30
0.0
 11
-263.4942929577796
 21
-325.3181056933336
 31
0.0
  0
LINE
  5
5D1
330
1F
100
AcDbEntity
  8
LAYER0016
  6
CENTER
 62
     4
100
AcDbLine
 10
-200.4942929577796
 20
-396.9823706507236
 30
0.0
 11
-263.4942929577796
 21
-396.9823706507236
 31
0.0
  0
LINE
  5
5D2
330
1F
100
AcDbEntity
  8
LAYER0016
  6
CENTER
 62
     4
100
AcDbLine
 10
-235.9942929577795
 20
-383.9823706507237
 30
0.0
 11
-235.9942929577795
 21
-409.9823706507237
 31
0.0
  0
LINE
  5
5D3
330
1F
100
AcDbEntity
  8
LAYER0016
  6
CENTER
 62
     4
100
AcDbLine
 10
-250.9942929577796
 20
-390.9823706507236
 30
0.0
 11
-250.9942929577796
 21
-402.9823706507236
 31
0.0
  0
LINE
  5
5D4
330
1F
100
AcDbEntity
  8
LAYER0016
  6
CENTER
 62
     4
100
AcDbLine
 10
-220.9942929577796
 20
-390.9823706507236
 30
0.0
 11
-220.9942929577796
 21
-402.9823706507236
 31
0.0
  0
LINE
  5
5D5
330
1F
100
AcDbEntity
  8
LAYER0016
  6
CENTER
 62
     4
100
AcDbLine
 10
-250.9942929577796
 20
-306.8181056933337
 30
0.0
 11
-250.9942929577796
 21
-343.8181056933336
 31
0.0
  0
LINE
  5
5D6
330
1F
100
AcDbEntity
  8
LAYER0016
  6
CENTER
 62
     4
100
AcDbLine
 10
304.8140010067099
 20
-304.8181056933337
 30
0.0
 11
304.8140010067099
 21
-345.8181056933336
 31
0.0
  0
LINE
  5
5D7
330
1F
100
AcDbEntity
  8
LAYER0016
  6
CENTER
 62
     4
100
AcDbLine
 10
319.8140010067098
 20
-306.8181056933337
 30
0.0
 11
319.8140010067098
 21
-343.8181056933336
 31
0.0
  0
LINE
  5
5D8
330
1F
100
AcDbEntity
  8
LAYER0016
  6
CENTER
 62
     4
100
AcDbLine
 10
340.3140010067098
 20
-325.3181056933336
 30
0.0
 11
277.3140010067098
 21
-325.3181056933336
 31
0.0
  0
LINE
  5
5D9
330
1F
100
AcDbEntity
  8
LAYER0016
  6
CENTER
 62
     4
100
AcDbLine
 10
340.3140010067098
 20
-396.9823706507236
 30
0.0
 11
277.3140010067098
 21
-396.9823706507236
 31
0.0
  0
LINE
  5
5DA
330
1F
100
AcDbEntity
  8
LAYER0016
  6
CENTER
 62
     4
100
AcDbLine
 10
304.8140010067099
 20
-383.9823706507237
 30
0.0
 11
304.8140010067099
 21
-409.9823706507237
 31
0.0
  0
LINE
  5
5DB
330
1F
100
AcDbEntity
  8
LAYER0016
  6
CENTER
 62
     4
100
AcDbLine
 10
289.8140010067098
 20
-390.9823706507236
 30
0.0
 11
289.8140010067098
 21
-402.9823706507236
 31
0.0
  0
LINE
  5
5DC
330
1F
100
AcDbEntity
  8
LAYER0016
  6
CENTER
 62
     4
100
AcDbLine
 10
319.8140010067098
 20
-390.9823706507236
 30
0.0
 11
319.8140010067098
 21
-402.9823706507236
 31
0.0
  0
LINE
  5
5DD
330
1F
100
AcDbEntity
  8
LAYER0016
  6
CENTER
 62
     4
100
AcDbLine
 10
289.8140010067098
 20
-306.8181056933337
 30
0.0
 11
289.8140010067098
 21
-343.8181056933336
 31
0.0
  0
CIRCLE
  5
5DE
330
1F
100
AcDbEntity
  8
LAYER0016
  6
CONTINUOUS
 62
     4
100
AcDbCircle
 10
-250.9942929577796
 20
-396.9823706507236
 30
0.0
 40
3.0
  0
CIRCLE
  5
5DF
330
1F
100
AcDbEntity
  8
LAYER0016
  6
CONTINUOUS
 62
     4
100
AcDbCircle
 10
-220.9942929577796
 20
-396.9823706507236
 30
0.0
 40
3.0
  0
CIRCLE
  5
5E0
330
1F
100
AcDbEntity
  8
LAYER0016
  6
CONTINUOUS
 62
     4
100
AcDbCircle
 10
289.8140010067098
 20
-396.9823706507236
 30
0.0
 40
3.0
  0
CIRCLE
  5
5E1
330
1F
100
AcDbEntity
  8
LAYER0016
  6
CONTINUOUS
 62
     4
100
AcDbCircle
 10
319.8140010067098
 20
-396.9823706507236
 30
0.0
 40
3.0
  0
LINE
  5
5E2
330
1F
100
AcDbEntity
  8
LAYER0016
  6
DASHED
 62
     4
100
AcDbLine
 10
-218.5942929577795
 20
-309.8181056933336
 30
0.0
 11
-218.5942929577795
 21
-324.8181056933337
 31
0.0
  0
LINE
  5
5E3
330
1F
100
AcDbEntity
  8
LAYER0016
  6
DASHED
 62
     4
100
AcDbLine
 10
-223.3942929577797
 20
-309.8181056933336
 30
0.0
 11
-223.3942929577797
 21
-324.8181056933337
 31
0.0
  0
LINE
  5
5E4
330
1F
100
AcDbEntity
  8
LAYER0016
  6
DASHED
 62
     4
100
AcDbLine
 10
-253.3942929577796
 20
-309.8181056933336
 30
0.0
 11
-253.3942929577796
 21
-324.8181056933337
 31
0.0
  0
LINE
  5
5E5
330
1F
100
AcDbEntity
  8
LAYER0016
  6
DASHED
 62
     4
100
AcDbLine
 10
-248.5942929577795
 20
-309.8181056933336
 30
0.0
 11
-248.5942929577795
 21
-324.8181056933337
 31
0.0
  0
LINE
  5
5E6
330
1F
100
AcDbEntity
  8
LAYER0016
  6
DASHED
 62
     4
100
AcDbLine
 10
322.2140010067099
 20
-309.8181056933336
 30
0.0
 11
322.2140010067099
 21
-324.8181056933337
 31
0.0
  0
LINE
  5
5E7
330
1F
100
AcDbEntity
  8
LAYER0016
  6
DASHED
 62
     4
100
AcDbLine
 10
317.4140010067097
 20
-309.8181056933336
 30
0.0
 11
317.4140010067097
 21
-324.8181056933337
 31
0.0
  0
LINE
  5
5E8
330
1F
100
AcDbEntity
  8
LAYER0016
  6
DASHED
 62
     4
100
AcDbLine
 10
287.4140010067098
 20
-309.8181056933336
 30
0.0
 11
287.4140010067098
 21
-324.8181056933337
 31
0.0
  0
LINE
  5
5E9
330
1F
100
AcDbEntity
  8
LAYER0016
  6
DASHED
 62
     4
100
AcDbLine
 10
292.2140010067099
 20
-309.8181056933336
 30
0.0
 11
292.2140010067099
 21
-324.8181056933337
 31
0.0
  0
LINE
  5
5EA
330
1F
100
AcDbEntity
  8
LAYER0016
  6
CONTINUOUS
 62
     2
100
AcDbLine
 10
-213.4942929577796
 20
-324.8181056933337
 30
0.0
 11
-213.4942929577796
 21
-309.8181056933336
 31
0.0
  0
LINE
  5
5EB
330
1F
100
AcDbEntity
  8
LAYER0016
  6
CONTINUOUS
 62
     2
100
AcDbLine
 10
327.3140010067098
 20
-324.8181056933337
 30
0.0
 11
327.3140010067098
 21
-309.8181056933336
 31
0.0
  0
LINE
  5
5EC
330
1F
100
AcDbEntity
  8
LAYER0016
  6
DASHED
 62
     2
100
AcDbLine
 10
-217.9942929577796
 20
-309.8181056933336
 30
0.0
 11
-217.9942929577796
 21
-324.8181056933337
 31
0.0
  0
LINE
  5
5ED
330
1F
100
AcDbEntity
  8
LAYER0016
  6
DASHED
 62
     2
100
AcDbLine
 10
-223.9942929577796
 20
-309.8181056933336
 30
0.0
 11
-223.9942929577796
 21
-324.8181056933337
 31
0.0
  0
LINE
  5
5EE
330
1F
100
AcDbEntity
  8
LAYER0016
  6
DASHED
 62
     2
100
AcDbLine
 10
-225.9942929577796
 20
-334.8181056933336
 30
0.0
 11
-215.9942929577796
 21
-334.8181056933336
 31
0.0
  0
LINE
  5
5EF
330
1F
100
AcDbEntity
  8
LAYER0016
  6
DASHED
 62
     2
100
AcDbLine
 10
-215.9942929577796
 20
-334.8181056933336
 30
0.0
 11
-215.9942929577796
 21
-340.8181056933336
 31
0.0
  0
LINE
  5
5F0
330
1F
100
AcDbEntity
  8
LAYER0016
  6
DASHED
 62
     2
100
AcDbLine
 10
-225.9942929577796
 20
-334.8181056933336
 30
0.0
 11
-225.9942929577796
 21
-340.8181056933336
 31
0.0
  0
LINE
  5
5F1
330
1F
100
AcDbEntity
  8
LAYER0016
  6
DASHED
 62
     2
100
AcDbLine
 10
-217.9942929577796
 20
-325.8181056933336
 30
0.0
 11
-217.9942929577796
 21
-334.8181056933336
 31
0.0
  0
LINE
  5
5F2
330
1F
100
AcDbEntity
  8
LAYER0016
  6
DASHED
 62
     2
100
AcDbLine
 10
-223.9942929577796
 20
-325.8181056933336
 30
0.0
 11
-223.9942929577796
 21
-334.8181056933336
 31
0.0
  0
ARC
  5
5F3
330
1F
100
AcDbEntity
  8
LAYER0016
  6
DASHED
 62
     2
100
AcDbCircle
 10
-235.9942929577795
 20
-325.3181056933336
 30
0.0
 40
7.5
100
AcDbArc
 50
3.822553729274103
 51
176.1774462707259
  0
ARC
  5
5F4
330
1F
100
AcDbEntity
  8
LAYER0016
  6
DASHED
 62
     2
100
AcDbCircle
 10
-235.9942929577795
 20
-325.3181056933336
 30
0.0
 40
7.5
100
AcDbArc
 50
183.8225537292741
 51
356.1774462707257
  0
LINE
  5
5F5
330
1F
100
AcDbEntity
  8
LAYER0016
  6
DASHED
 62
     2
100
AcDbLine
 10
-253.9942929577796
 20
-309.8181056933336
 30
0.0
 11
-253.9942929577796
 21
-324.8181056933337
 31
0.0
  0
LINE
  5
5F6
330
1F
100
AcDbEntity
  8
LAYER0016
  6
DASHED
 62
     2
100
AcDbLine
 10
-253.9942929577796
 20
-325.8181056933336
 30
0.0
 11
-253.9942929577796
 21
-334.8181056933336
 31
0.0
  0
LINE
  5
5F7
330
1F
100
AcDbEntity
  8
LAYER0016
  6
DASHED
 62
     2
100
AcDbLine
 10
-247.9942929577795
 20
-309.8181056933336
 30
0.0
 11
-247.9942929577795
 21
-324.8181056933337
 31
0.0
  0
LINE
  5
5F8
330
1F
100
AcDbEntity
  8
LAYER0016
  6
DASHED
 62
     2
100
AcDbLine
 10
-247.9942929577795
 20
-325.8181056933336
 30
0.0
 11
-247.9942929577795
 21
-334.8181056933336
 31
0.0
  0
LINE
  5
5F9
330
1F
100
AcDbEntity
  8
LAYER0016
  6
DASHED
 62
     2
100
AcDbLine
 10
-255.9942929577795
 20
-334.8181056933336
 30
0.0
 11
-245.9942929577796
 21
-334.8181056933336
 31
0.0
  0
LINE
  5
5FA
330
1F
100
AcDbEntity
  8
LAYER0016
  6
DASHED
 62
     2
100
AcDbLine
 10
-245.9942929577796
 20
-334.8181056933336
 30
0.0
 11
-245.9942929577796
 21
-340.8181056933336
 31
0.0
  0
LINE
  5
5FB
330
1F
100
AcDbEntity
  8
LAYER0016
  6
DASHED
 62
     2
100
AcDbLine
 10
-255.9942929577795
 20
-334.8181056933336
 30
0.0
 11
-255.9942929577795
 21
-340.8181056933336
 31
0.0
  0
LINE
  5
5FC
330
1F
100
AcDbEntity
  8
LAYER0016
  6
DASHED
 62
     2
100
AcDbLine
 10
322.8140010067098
 20
-309.8181056933336
 30
0.0
 11
322.8140010067098
 21
-324.8181056933337
 31
0.0
  0
LINE
  5
5FD
330
1F
100
AcDbEntity
  8
LAYER0016
  6
DASHED
 62
     2
100
AcDbLine
 10
316.8140010067098
 20
-309.8181056933336
 30
0.0
 11
316.8140010067098
 21
-324.8181056933337
 31
0.0
  0
LINE
  5
5FE
330
1F
100
AcDbEntity
  8
LAYER0016
  6
DASHED
 62
     2
100
AcDbLine
 10
314.8140010067098
 20
-334.8181056933336
 30
0.0
 11
324.8140010067098
 21
-334.8181056933336
 31
0.0
  0
LINE
  5
5FF
330
1F
100
AcDbEntity
  8
LAYER0016
  6
DASHED
 62
     2
100
AcDbLine
 10
324.8140010067098
 20
-334.8181056933336
 30
0.0
 11
324.8140010067098
 21
-340.8181056933336
 31
0.0
  0
LINE
  5
600
330
1F
100
AcDbEntity
  8
LAYER0016
  6
DASHED
 62
     2
100
AcDbLine
 10
314.8140010067098
 20
-334.8181056933336
 30
0.0
 11
314.8140010067098
 21
-340.8181056933336
 31
0.0
  0
LINE
  5
601
330
1F
100
AcDbEntity
  8
LAYER0016
  6
DASHED
 62
     2
100
AcDbLine
 10
322.8140010067098
 20
-325.8181056933336
 30
0.0
 11
322.8140010067098
 21
-334.8181056933336
 31
0.0
  0
LINE
  5
602
330
1F
100
AcDbEntity
  8
LAYER0016
  6
DASHED
 62
     2
100
AcDbLine
 10
316.8140010067098
 20
-325.8181056933336
 30
0.0
 11
316.8140010067098
 21
-334.8181056933336
 31
0.0
  0
ARC
  5
603
330
1F
100
AcDbEntity
  8
LAYER0016
  6
DASHED
 62
     2
100
AcDbCircle
 10
304.8140010067099
 20
-325.3181056933336
 30
0.0
 40
7.5
100
AcDbArc
 50
3.822553729274103
 51
176.1774462707259
  0
ARC
  5
604
330
1F
100
AcDbEntity
  8
LAYER0016
  6
DASHED
 62
     2
100
AcDbCircle
 10
304.8140010067099
 20
-325.3181056933336
 30
0.0
 40
7.5
100
AcDbArc
 50
183.8225537292741
 51
356.1774462707257
  0
LINE
  5
605
330
1F
100
AcDbEntity
  8
LAYER0016
  6
DASHED
 62
     2
100
AcDbLine
 10
286.8140010067098
 20
-309.8181056933336
 30
0.0
 11
286.8140010067098
 21
-324.8181056933337
 31
0.0
  0
LINE
  5
606
330
1F
100
AcDbEntity
  8
LAYER0016
  6
DASHED
 62
     2
100
AcDbLine
 10
286.8140010067098
 20
-325.8181056933336
 30
0.0
 11
286.8140010067098
 21
-334.8181056933336
 31
0.0
  0
LINE
  5
607
330
1F
100
AcDbEntity
  8
LAYER0016
  6
DASHED
 62
     2
100
AcDbLine
 10
292.8140010067099
 20
-309.8181056933336
 30
0.0
 11
292.8140010067099
 21
-324.8181056933337
 31
0.0
  0
LINE
  5
608
330
1F
100
AcDbEntity
  8
LAYER0016
  6
DASHED
 62
     2
100
AcDbLine
 10
292.8140010067099
 20
-325.8181056933336
 30
0.0
 11
292.8140010067099
 21
-334.8181056933336
 31
0.0
  0
LINE
  5
609
330
1F
100
AcDbEntity
  8
LAYER0016
  6
DASHED
 62
     2
100
AcDbLine
 10
284.8140010067099
 20
-334.8181056933336
 30
0.0
 11
294.8140010067098
 21
-334.8181056933336
 31
0.0
  0
LINE
  5
60A
330
1F
100
AcDbEntity
  8
LAYER0016
  6
DASHED
 62
     2
100
AcDbLine
 10
294.8140010067098
 20
-334.8181056933336
 30
0.0
 11
294.8140010067098
 21
-340.8181056933336
 31
0.0
  0
LINE
  5
60B
330
1F
100
AcDbEntity
  8
LAYER0016
  6
DASHED
 62
     2
100
AcDbLine
 10
284.8140010067099
 20
-334.8181056933336
 30
0.0
 11
284.8140010067099
 21
-340.8181056933336
 31
0.0
  0
ARC
  5
60C
330
1F
100
AcDbEntity
  8
0
  6
DIVIDE
 62
     4
100
AcDbCircle
 10
432.0011097079882
 20
-55.50013952903014
 30
0.0
 40
128.0009796769724
100
AcDbArc
 50
12.38132759092101
 51
177.6387112956513
  0
LINE
  5
60D
330
1F
100
AcDbEntity
  8
0
  6
PHANTOM
 62
     4
100
AcDbLine
 10
-88.16757584889046
 20
420.5
 30
0.0
 11
-88.16757584889046
 21
-420.5
 31
0.0
  0
LINE
  5
60E
330
1F
100
AcDbEntity
  8
0
  6
DIVIDE
 62
     4
100
AcDbLine
 10
428.0011097079881
 20
-68.00013952902809
 30
0.0
 11
417.475168699333
 21
-68.00013952902809
 31
0.0
  0
LINE
  5
60F
330
1F
100
AcDbEntity
  8
0
  6
CENTERX2
 62
   222
100
AcDbLine
 10
492.5011097079881
 20
-75.00013952903298
 30
0.0
 11
452.5011097079881
 21
-75.00013952903298
 31
0.0
  0
LINE
  5
610
330
1F
100
AcDbEntity
  8
0
  6
CENTERX2
 62
   222
100
AcDbLine
 10
472.5011097079881
 20
-55.00013952903298
 30
0.0
 11
472.5011097079881
 21
-95.00013952903298
 31
0.0
  0
LINE
  5
611
330
1F
100
AcDbEntity
  8
0
  6
CENTERX2
 62
   222
100
AcDbLine
 10
547.5011097079881
 20
-75.00013952903298
 30
0.0
 11
507.5011097079881
 21
-75.00013952903298
 31
0.0
  0
LINE
  5
612
330
1F
100
AcDbEntity
  8
0
  6
CENTERX2
 62
   222
100
AcDbLine
 10
527.5011097079881
 20
-55.00013952903298
 30
0.0
 11
527.5011097079881
 21
-95.00013952903298
 31
0.0
  0
INSERT
  5
613
330
1F
100
AcDbEntity
  8
LAYER0032
  6
CONTINUOUS
100
AcDbBlockReference
  2
DC_GROUP_1
 10
0.0
 20
0.0
 30
0.0
  0
INSERT
  5
614
330
1F
100
AcDbEntity
  8
LAYER0032
  6
CONTINUOUS
100
AcDbBlockReference
  2
DC_GROUP_7
 10
0.0
 20
0.0
 30
0.0
  0
INSERT
  5
615
330
1F
100
AcDbEntity
  8
LAYER0016
  6
CONTINUOUS
100
AcDbBlockReference
  2
DC_GROUP_11
 10
0.0
 20
0.0
 30
0.0
  0
INSERT
  5
616
330
1F
100
AcDbEntity
  8
0
  6
CONTINUOUS
100
AcDbBlockReference
  2
DC_GROUP_15
 10
0.0
 20
0.0
 30
0.0
  0
VIEWPORT
  5
B4
330
1B
100
AcDbEntity
 67
     1
  8
0
100
AcDbViewport
 10
-1.996731465059383
 20
0.0
 30
0.0
 40
3461.987047038287
 41
2523.0
 68
     1
 69
     1
1001
ACAD
1000
MVIEW
1002
{
1070
    16
1010
0.0
1020
0.0
1030
0.0
1010
0.0
1020
0.0
1030
1.0
1040
0.0
1040
2523.0
1040
-1.996731465059383
1040
0.0
1040
50.0
1040
0.0
1040
0.0
1070
     0
1070
   100
1070
     0
1070
     3
1070
     0
1070
     0
1070
     0
1070
     0
1040
0.0
1040
0.0
1040
0.0
1040
0.5
1040
0.5
1040
0.0
1040
0.0
1070
     0
1002
{
1002
}
1002
}
  0
ENDSEC
  0
SECTION
  2
OBJECTS
  0
DICTIONARY
  5
C
330
0
100
AcDbDictionary
  3
ACAD_GROUP
350
D
  3
ACAD_LAYOUT
350
1A
  3
ACAD_MATERIAL
350
43
  3
ACAD_MLEADERSTYLE
350
6B
  3
ACAD_MLINESTYLE
350
17
  3
ACAD_PLOTSETTINGS
350
19
  3
ACAD_SCALELIST
350
47
  3
ACAD_VISUALSTYLE
350
2A
  3
ACDBHEADERROUNDTRIPXREC
350
617
  3
ACDBVARIABLEDICTIONARY
350
638
  0
DICTIONARY
  5
63F
330
8
100
AcDbDictionary
280
     1
  3
ACAD_XREC_ROUNDTRIP
360
640
  0
DICTIONARY
  5
D
102
{ACAD_REACTORS
330
C
102
}
330
C
100
AcDbDictionary
  0
DICTIONARY
  5
1A
102
{ACAD_REACTORS
330
C
102
}
330
C
100
AcDbDictionary
  0
DICTIONARY
  5
43
102
{ACAD_REACTORS
330
C
102
}
330
C
100
AcDbDictionary
  3
BYBLOCK
350
45
  3
BYLAYER
350
44
  3
GLOBAL
350
46
  0
DICTIONARY
  5
6B
102
{ACAD_REACTORS
330
C
102
}
330
C
100
AcDbDictionary
  3
STANDARD
350
6C
  0
DICTIONARY
  5
17
102
{ACAD_REACTORS
330
C
102
}
330
C
100
AcDbDictionary
  3
STANDARD
350
18
  0
DICTIONARY
  5
19
102
{ACAD_REACTORS
330
C
102
}
330
C
100
AcDbDictionary
  0
DICTIONARY
  5
47
102
{ACAD_REACTORS
330
C
102
}
330
C
100
AcDbDictionary
  3
A0
350
48
  3
A1
350
49
  3
A2
350
4A
  3
A3
350
4B
  3
A4
350
4C
  3
A5
350
4D
  3
A6
350
4E
  3
A7
350
4F
  3
A8
350
50
  3
A9
350
51
  3
B0
350
52
  3
B1
350
53
  3
B2
350
54
  3
B3
350
55
  3
B4
350
56
  3
B5
350
57
  3
B6
350
58
  3
B7
350
59
  3
B8
350
5A
  3
B9
350
5B
  3
C0
350
5C
  3
C1
350
5D
  3
C2
350
5E
  3
C3
350
5F
  3
C4
350
60
  3
C5
350
61
  3
C6
350
62
  3
C7
350
63
  3
C8
350
64
  3
C9
350
65
  3
D0
350
66
  3
D1
350
67
  3
D2
350
68
  0
DICTIONARY
  5
2A
102
{ACAD_REACTORS
330
C
102
}
330
C
100
AcDbDictionary
  3
2DWIREFRAME
350
2F
  3
BASIC
350
32
  3
BRIGHTEN
350
36
  3
COLORCHANGE
350
3A
  3
CONCEPTUAL
350
34
  3
DIM
350
35
  3
EDGECOLOROFF
350
3D
  3
FACEPATTERN
350
39
  3
FLAT
350
2B
  3
FLATWITHEDGES
350
2C
  3
GOURAUD
350
2D
  3
GOURAUDWITHEDGES
350
2E
  3
HIDDEN
350
31
  3
JITTEROFF
350
3B
  3
LINEPATTERN
350
38
  3
OVERHANGOFF
350
3C
  3
REALISTIC
350
33
  3
SHADED
350
42
  3
SHADED_WITH_EDGES
350
41
  3
SHADES_OF_GRAY
350
3E
  3
SKETCHY
350
3F
  3
THICKEN
350
37
  3
WIREFRAME
350
30
  3
X-RAY
350
40
  0
DICTIONARY
  5
617
102
{ACAD_REACTORS
330
C
102
}
330
C
100
AcDbDictionary
  3
CEPSNID
350
621
  3
CEPSNTYPE
350
620
  3
DIMSTYLEDATA
350
637
  3
FINGERPRINTGUID
350
622
  3
HYPERLINKBASE
350
61A
  3
INSUNITS
350
61F
  3
LAYOUTDICT
350
61C
  3
LWETCUNION
350
61E
  3
PLOTSETDICT
350
61D
  3
PSVPSCALE
350
624
  3
PUCSBASE
350
627
  3
PUCSORGBACK
350
62D
  3
PUCSORGBOTTOM
350
629
  3
PUCSORGFRONT
350
62C
  3
PUCSORGLEFT
350
62A
  3
PUCSORGRIGHT
350
62B
  3
PUCSORGTOP
350
628
  3
PUCSORTHOREF
350
625
  3
PUCSORTHOVIEW
350
626
  3
STYLESHEET
350
61B
  3
TSTACKALIGN
350
618
  3
TSTACKSIZE
350
619
  3
UCSBASE
350
630
  3
UCSORGBACK
350
636
  3
UCSORGBOTTOM
350
632
  3
UCSORGFRONT
350
635
  3
UCSORGLEFT
350
633
  3
UCSORGRIGHT
350
634
  3
UCSORGTOP
350
631
  3
UCSORTHOREF
350
62E
  3
UCSORTHOVIEW
350
62F
  3
VERSIONGUID
350
623
  0
DICTIONARY
  5
638
102
{ACAD_REACTORS
330
C
102
}
330
C
100
AcDbDictionary
  3
CANNOSCALE
350
641
  3
CMLEADERSTYLE
350
63A
  3
CTABLESTYLE
350
639
  3
DIMASSOC
350
63D
  3
HIDETEXT
350
63E
  3
MSLTSCALE
350
642
  0
XRECORD
  5
640
102
{ACAD_REACTORS
330
63F
102
}
330
63F
100
AcDbXrecord
102
VTR_0.000_0.000_1.000_1.000_VISUALSTYLE
340
2F
102
VTR_0.000_0.000_1.000_1.000_GRIDDISPLAY
 70
     3
102
VTR_0.000_0.000_1.000_1.000_GRIDMAJOR
 70
     5
102
VTR_0.000_0.000_1.000_1.000_DEFAULTLIGHTING
280
     1
102
VTR_0.000_0.000_1.000_1.000_DEFAULTLIGHTINGTYPE
 70
     1
102
VTR_0.000_0.000_1.000_1.000_BRIGHTNESS
141
0.0
102
VTR_0.000_0.000_1.000_1.000_CONTRAST
142
0.0
  0
MATERIAL
  5
45
102
{ACAD_REACTORS
330
43
102
}
102
{ACAD_XDICTIONARY
360
645
102
}
330
43
100
AcDbMaterial
  1
BYBLOCK
  0
MATERIAL
  5
44
102
{ACAD_REACTORS
330
43
102
}
102
{ACAD_XDICTIONARY
360
643
102
}
330
43
100
AcDbMaterial
  1
BYLAYER
  0
MATERIAL
  5
46
102
{ACAD_REACTORS
330
43
102
}
102
{ACAD_XDICTIONARY
360
647
102
}
330
43
100
AcDbMaterial
  1
GLOBAL
  0
ACAD_PROXY_OBJECT
  5
6C
102
{ACAD_REACTORS
330
6B
102
}
330
6B
100
AcDbProxyObject
 90
      499
 91
      505
 93
      610
310
40901902A4063FBFFFFFE056BD1B81E855B9FC0AD7A3703D0AD73F4214DD185B99185C9900AD7A3703D0AC73F90141901A02B5E8DC0F42B1CFC02B5E8DC0F42B1CFE5764000000000000300FC0
340
14
340
0
340
11
340
0
 94
        0
1001
ACAD_MLEADERVER
1070
     2
  0
MLINESTYLE
  5
18
102
{ACAD_REACTORS
330
17
102
}
330
17
100
AcDbMlineStyle
  2
Standard
 70
     0
  3

 62
   256
 51
90.0
 52
90.0
 71
     2
 49
0.5
 62
   256
  6
BYLAYER
 49
-0.5
 62
   256
  6
BYLAYER
  0
ACAD_PROXY_OBJECT
  5
48
102
{ACAD_REACTORS
330
47
102
}
330
47
100
AcDbProxyObject
 90
      499
 91
      503
 93
       41
310
903313A31580
  0
ACAD_PROXY_OBJECT
  5
49
102
{ACAD_REACTORS
330
47
102
}
330
47
100
AcDbProxyObject
 90
      499
 91
      503
 93
      105
310
903313A324000000000000004000
  0
ACAD_PROXY_OBJECT
  5
4A
102
{ACAD_REACTORS
330
47
102
}
330
47
100
AcDbProxyObject
 90
      499
 91
      503
 93
      105
310
903313A344000000000000104000
  0
ACAD_PROXY_OBJECT
  5
4B
102
{ACAD_REACTORS
330
47
102
}
330
47
100
AcDbProxyObject
 90
      499
 91
      503
 93
      105
310
903313A354000000000000144000
  0
ACAD_PROXY_OBJECT
  5
4C
102
{ACAD_REACTORS
330
47
102
}
330
47
100
AcDbProxyObject
 90
      499
 91
      503
 93
      105
310
903313A384000000000000204000
  0
ACAD_PROXY_OBJECT
  5
4D
102
{ACAD_REACTORS
330
47
102
}
330
47
100
AcDbProxyObject
 90
      499
 91
      503
 93
      113
310
904313A31304000000000000244000
  0
ACAD_PROXY_OBJECT
  5
4E
102
{ACAD_REACTORS
330
47
102
}
330
47
100
AcDbProxyObject
 90
      499
 91
      503
 93
      113
310
904313A31364000000000000304000
  0
ACAD_PROXY_OBJECT
  5
4F
102
{ACAD_REACTORS
330
47
102
}
330
47
100
AcDbProxyObject
 90
      499
 91
      503
 93
      113
310
904313A32304000000000000344000
  0
ACAD_PROXY_OBJECT
  5
50
102
{ACAD_REACTORS
330
47
102
}
330
47
100
AcDbProxyObject
 90
      499
 91
      503
 93
      113
310
904313A333040000000000003E4000
  0
ACAD_PROXY_OBJECT
  5
51
102
{ACAD_REACTORS
330
47
102
}
330
47
100
AcDbProxyObject
 90
      499
 91
      503
 93
      113
310
904313A34304000000000000444000
  0
ACAD_PROXY_OBJECT
  5
52
102
{ACAD_REACTORS
330
47
102
}
330
47
100
AcDbProxyObject
 90
      499
 91
      503
 93
      113
310
904313A35304000000000000494000
  0
ACAD_PROXY_OBJECT
  5
53
102
{ACAD_REACTORS
330
47
102
}
330
47
100
AcDbProxyObject
 90
      499
 91
      503
 93
      121
310
905313A3130304000000000000594000
  0
ACAD_PROXY_OBJECT
  5
54
102
{ACAD_REACTORS
330
47
102
}
330
47
100
AcDbProxyObject
 90
      499
 91
      503
 93
      105
310
903323A310000000000000010100
  0
ACAD_PROXY_OBJECT
  5
55
102
{ACAD_REACTORS
330
47
102
}
330
47
100
AcDbProxyObject
 90
      499
 91
      503
 93
      105
310
903343A310000000000000410100
  0
ACAD_PROXY_OBJECT
  5
56
102
{ACAD_REACTORS
330
47
102
}
330
47
100
AcDbProxyObject
 90
      499
 91
      503
 93
      105
310
903383A310000000000000810100
  0
ACAD_PROXY_OBJECT
  5
57
102
{ACAD_REACTORS
330
47
102
}
330
47
100
AcDbProxyObject
 90
      499
 91
      503
 93
      113
310
90431303A310000000000000910100
  0
ACAD_PROXY_OBJECT
  5
58
102
{ACAD_REACTORS
330
47
102
}
330
47
100
AcDbProxyObject
 90
      499
 91
      503
 93
      121
310
9053130303A310000000000001650100
  0
ACAD_PROXY_OBJECT
  5
59
102
{ACAD_REACTORS
330
47
102
}
330
47
100
AcDbProxyObject
 90
      499
 91
      503
 93
      257
310
90E312F31323822203D2031272D3022000000000000200FC000000000000284000
  0
ACAD_PROXY_OBJECT
  5
5A
102
{ACAD_REACTORS
330
47
102
}
330
47
100
AcDbProxyObject
 90
      499
 91
      503
 93
      249
310
90D312F363422203D2031272D3022000000000000240FC000000000000284000
  0
ACAD_PROXY_OBJECT
  5
5B
102
{ACAD_REACTORS
330
47
102
}
330
47
100
AcDbProxyObject
 90
      499
 91
      503
 93
      249
310
90D312F333222203D2031272D3022000000000000280FC000000000000284000
  0
ACAD_PROXY_OBJECT
  5
5C
102
{ACAD_REACTORS
330
47
102
}
330
47
100
AcDbProxyObject
 90
      499
 91
      503
 93
      249
310
90D312F313622203D2031272D30220000000000002C0FC000000000000284000
  0
ACAD_PROXY_OBJECT
  5
5D
102
{ACAD_REACTORS
330
47
102
}
330
47
100
AcDbProxyObject
 90
      499
 91
      503
 93
      249
310
90D332F333222203D2031272D30220000000000002E0FC000000000000284000
  0
ACAD_PROXY_OBJECT
  5
5E
102
{ACAD_REACTORS
330
47
102
}
330
47
100
AcDbProxyObject
 90
      499
 91
      503
 93
      241
310
90C312F3822203D2031272D3022000000000000300FC000000000000284000
  0
ACAD_PROXY_OBJECT
  5
5F
102
{ACAD_REACTORS
330
47
102
}
330
47
100
AcDbProxyObject
 90
      499
 91
      503
 93
      249
310
90D332F313622203D2031272D3022000000000000320FC000000000000284000
  0
ACAD_PROXY_OBJECT
  5
60
102
{ACAD_REACTORS
330
47
102
}
330
47
100
AcDbProxyObject
 90
      499
 91
      503
 93
      241
310
90C312F3422203D2031272D3022000000000000340FC000000000000284000
  0
ACAD_PROXY_OBJECT
  5
61
102
{ACAD_REACTORS
330
47
102
}
330
47
100
AcDbProxyObject
 90
      499
 91
      503
 93
      241
310
90C332F3822203D2031272D3022000000000000360FC000000000000284000
  0
ACAD_PROXY_OBJECT
  5
62
102
{ACAD_REACTORS
330
47
102
}
330
47
100
AcDbProxyObject
 90
      499
 91
      503
 93
      241
310
90C312F3222203D2031272D3022000000000000380FC000000000000284000
  0
ACAD_PROXY_OBJECT
  5
63
102
{ACAD_REACTORS
330
47
102
}
330
47
100
AcDbProxyObject
 90
      499
 91
      503
 93
      241
310
90C332F3422203D2031272D30220000000000003A0FC000000000000284000
  0
ACAD_PROXY_OBJECT
  5
64
102
{ACAD_REACTORS
330
47
102
}
330
47
100
AcDbProxyObject
 90
      499
 91
      503
 93
      161
310
90A3122203D2031272D30224000000000000284000
  0
ACAD_PROXY_OBJECT
  5
65
102
{ACAD_REACTORS
330
47
102
}
330
47
100
AcDbProxyObject
 90
      499
 91
      503
 93
      257
310
90E312D312F3222203D2031272D30220000000000003E0FC000000000000284000
  0
ACAD_PROXY_OBJECT
  5
66
102
{ACAD_REACTORS
330
47
102
}
330
47
100
AcDbProxyObject
 90
      499
 91
      503
 93
      225
310
90A3322203D2031272D302200000000000002100000000000000284000
  0
ACAD_PROXY_OBJECT
  5
67
102
{ACAD_REACTORS
330
47
102
}
330
47
100
AcDbProxyObject
 90
      499
 91
      503
 93
      225
310
90A3622203D2031272D302200000000000006100000000000000284000
  0
ACAD_PROXY_OBJECT
  5
68
102
{ACAD_REACTORS
330
47
102
}
330
47
100
AcDbProxyObject
 90
      499
 91
      503
 93
      249
310
90D31272D3022203D2031272D30220000000000000A100000000000000284000
  0
ACAD_PROXY_OBJECT
  5
2F
102
{ACAD_REACTORS
330
2A
102
}
330
2A
100
AcDbProxyObject
 90
      499
 91
      501
 93
      436
310
42CC9915DA5C99599C985B595049028333333333333E33F0000000000000F90107901411070040501600405405064090741402480A0340
1001
ACAD
1000
AcDbSavedByObjectVersion
1070
     0
  0
ACAD_PROXY_OBJECT
  5
32
102
{ACAD_REACTORS
330
2A
102
}
330
2A
100
AcDbProxyObject
 90
      499
 91
      501
 93
      388
310
4150985CDA58D07406404333333333333E33F0000000000000F90107A41107004050150841D405064090741402480A0350
1001
ACAD
1000
AcDbSavedByObjectVersion
1070
     0
  0
ACAD_PROXY_OBJECT
  5
36
102
{ACAD_REACTORS
330
2A
102
}
330
2A
100
AcDbProxyObject
 90
      499
 91
      501
 93
      428
310
42109C9A59DA1D195B90C409028333333333333E33F0000000000000F9010790141107004050150841D405064090741402480A029950
1001
ACAD
1000
AcDbSavedByObjectVersion
1070
     0
  0
ACAD_PROXY_OBJECT
  5
3A
102
{ACAD_REACTORS
330
2A
102
}
330
2A
100
AcDbProxyObject
 90
      499
 91
      501
 93
      452
310
42D0DBDB1BDC90DA185B99D95104090240C333333333333E33F0000000000000F90108901411070040501508421405064090741402480A0350
1001
ACAD
1000
AcDbSavedByObjectVersion
1070
     0
  0
ACAD_PROXY_OBJECT
  5
34
102
{ACAD_REACTORS
330
2A
102
}
330
2A
100
AcDbProxyObject
 90
      499
 91
      501
 93
      500
310
4290DBDB98D95C1D1D585B10940D028333333333333E33F0000000000000F90107902409070040501000000000018199010841D405064090740C02480A0340
1001
ACAD
1000
AcDbSavedByObjectVersion
1070
     0
  0
ACAD_PROXY_OBJECT
  5
35
102
{ACAD_REACTORS
330
2A
102
}
330
2A
100
AcDbProxyObject
 90
      499
 91
      501
 93
      412
310
40D11A5B50B409028333333333333E33F0000000000000F9010790141107004050150841D405064090741402480A02677FFFFFD0
1001
ACAD
1000
AcDbSavedByObjectVersion
1070
     0
  0
ACAD_PROXY_OBJECT
  5
3D
102
{ACAD_REACTORS
330
2A
102
}
330
2A
100
AcDbProxyObject
 90
      499
 91
      501
 93
      452
310
43115919D950DBDB1BDC93D999916409028333333333333E33F0000000000000F9010790141107004050150841D405064090741402480A0350
1001
ACAD
1000
AcDbSavedByObjectVersion
1070
     0
  0
ACAD_PROXY_OBJECT
  5
39
102
{ACAD_REACTORS
330
2A
102
}
330
2A
100
AcDbProxyObject
 90
      499
 91
      501
 93
      444
310
42D19858D95C185D1D195C9B90F409028333333333333E33F0000000000000F9010790141107004050150841D405064090741402480A0350
1001
ACAD
1000
AcDbSavedByObjectVersion
1070
     0
  0
ACAD_PROXY_OBJECT
  5
2B
102
{ACAD_REACTORS
330
2A
102
}
330
2A
100
AcDbProxyObject
 90
      499
 91
      501
 93
      380
310
41119B185D240901404333333333333E33F0000000000000F9010740A907004050150841D405064090741402480A1B50
1001
ACAD
1000
AcDbSavedByObjectVersion
1070
     0
  0
ACAD_PROXY_OBJECT
  5
2C
102
{ACAD_REACTORS
330
2A
102
}
330
2A
100
AcDbProxyObject
 90
      499
 91
      501
 93
      468
310
43519B185D15DA5D1A115919D95CD0140901404333333333333E33F0000000000000F90107409019070040501600405405064090741402480A1B50
1001
ACAD
1000
AcDbSavedByObjectVersion
1070
     0
  0
ACAD_PROXY_OBJECT
  5
2D
102
{ACAD_REACTORS
330
2A
102
}
330
2A
100
AcDbProxyObject
 90
      499
 91
      501
 93
      404
310
41D1DBDD5C985D5910240902404333333333333E33F0000000000000F9010740A9070040501641D405064090741402480A1B50
1001
ACAD
1000
AcDbSavedByObjectVersion
1070
     0
  0
ACAD_PROXY_OBJECT
  5
2E
102
{ACAD_REACTORS
330
2A
102
}
330
2A
100
AcDbProxyObject
 90
      499
 91
      501
 93
      492
310
4411DBDD5C985D5915DA5D1A115919D95CD0340902404333333333333E33F0000000000000F90107409019070040501600405405064090741402480A1B50
1001
ACAD
1000
AcDbSavedByObjectVersion
1070
     0
  0
ACAD_PROXY_OBJECT
  5
31
102
{ACAD_REACTORS
330
2A
102
}
330
2A
100
AcDbProxyObject
 90
      499
 91
      501
 93
      476
310
41921A5919195B90640502408333333333333E33F0000000000000F901079024090700405020000000000001110200405405064090740C02480A0340
1001
ACAD
1000
AcDbSavedByObjectVersion
1070
     0
  0
ACAD_PROXY_OBJECT
  5
3B
102
{ACAD_REACTORS
330
2A
102
}
330
2A
100
AcDbProxyObject
 90
      499
 91
      501
 93
      428
310
42529A5D1D195C93D999914409028333333333333E33F0000000000000F9010790141107004050150A41D405064090741402480A0350
1001
ACAD
1000
AcDbSavedByObjectVersion
1070
     0
  0
ACAD_PROXY_OBJECT
  5
38
102
{ACAD_REACTORS
330
2A
102
}
330
2A
100
AcDbProxyObject
 90
      499
 91
      501
 93
      444
310
42D31A5B995C185D1D195C9B90E409028333333333333E33F0000000000000F9010790141107004050750841D405064090741402483A0350
1001
ACAD
1000
AcDbSavedByObjectVersion
1070
     0
  0
ACAD_PROXY_OBJECT
  5
3C
102
{ACAD_REACTORS
330
2A
102
}
330
2A
100
AcDbProxyObject
 90
      499
 91
      501
 93
      444
310
42D3DD995C9A185B99D3D999915409028333333333333E33F0000000000000F9010790141107004050150941D405064090741402480A0350
1001
ACAD
1000
AcDbSavedByObjectVersion
1070
     0
  0
ACAD_PROXY_OBJECT
  5
33
102
{ACAD_REACTORS
330
2A
102
}
330
2A
100
AcDbProxyObject
 90
      499
 91
      501
 93
      428
310
425499585B1A5CDD1A58D08409038333333333333E33F0000000000000F9010740A907004050150800405405064090740C02480A1B40
1001
ACAD
1000
AcDbSavedByObjectVersion
1070
     0
  0
ACAD_PROXY_OBJECT
  5
42
102
{ACAD_REACTORS
330
2A
102
}
330
2A
100
AcDbProxyObject
 90
      499
 91
      501
 93
      420
310
4194DA1859195911B40902404333333333333E33F0000000000000F9010740A41107004050150800405405064090840C02480A0B40
1001
ACAD
1000
AcDbSavedByObjectVersion
1070
     0
  0
ACAD_PROXY_OBJECT
  5
41
102
{ACAD_REACTORS
330
2A
102
}
330
2A
100
AcDbProxyObject
 90
      499
 91
      501
 93
      516
310
4454DA18591959081DDA5D1A08195919D95CD1A40902404333333333333E33F0000000000000F901074090142907004050250800405405064090740C02480A0B40
1001
ACAD
1000
AcDbSavedByObjectVersion
1070
     0
  0
ACAD_PROXY_OBJECT
  5
3E
102
{ACAD_REACTORS
330
2A
102
}
330
2A
100
AcDbProxyObject
 90
      499
 91
      501
 93
      532
310
4394DA1859195CC81BD98811DC985E5174090240C333333333333E33F0000000000000F901079024090741D01000000000000111010841D405064090740C02480A0340
1001
ACAD
1000
AcDbSavedByObjectVersion
1070
     0
  0
ACAD_PROXY_OBJECT
  5
3F
102
{ACAD_REACTORS
330
2A
102
}
330
2A
100
AcDbProxyObject
 90
      499
 91
      501
 93
      476
310
41D4DAD95D18DA1E51840502408333333333333E33F0000000000000F901079024090741D01000000000000111010B41D405064090741802480A0340
1001
ACAD
1000
AcDbSavedByObjectVersion
1070
     0
  0
ACAD_PROXY_OBJECT
  5
37
102
{ACAD_REACTORS
330
2A
102
}
330
2A
100
AcDbProxyObject
 90
      499
 91
      501
 93
      412
310
41D51A1A58DAD95B90D409028333333333333E33F0000000000000F9010790141107004050150C41D405064090741402480A0350
1001
ACAD
1000
AcDbSavedByObjectVersion
1070
     0
  0
ACAD_PROXY_OBJECT
  5
30
102
{ACAD_REACTORS
330
2A
102
}
330
2A
100
AcDbProxyObject
 90
      499
 91
      501
 93
      420
310
4255DA5C99599C985B595059028333333333333E33F0000000000000F90107901411070040501600405405064090740C02480A0340
1001
ACAD
1000
AcDbSavedByObjectVersion
1070
     0
  0
ACAD_PROXY_OBJECT
  5
40
102
{ACAD_REACTORS
330
2A
102
}
330
2A
100
AcDbProxyObject
 90
      499
 91
      501
 93
      404
310
41560B54985E51940902404000000000000E03F0000000000000F9010740501907004050150841D405064090740C02480A1B40
1001
ACAD
1000
AcDbSavedByObjectVersion
1070
     0
  0
XRECORD
  5
621
102
{ACAD_REACTORS
330
617
102
}
330
617
100
AcDbXrecord
340
0
  0
XRECORD
  5
620
102
{ACAD_REACTORS
330
617
102
}
330
617
100
AcDbXrecord
 90
        0
  0
XRECORD
  5
637
102
{ACAD_REACTORS
330
617
102
}
330
617
100
AcDbXrecord
1000
DSTYLE
1002
{
1070
   179
 70
     3
1070
   171
 70
     2
1070
   143
 40
0.0393700787401575
1070
    41
 40
2.000107526779175
1070
    79
 70
     2
1070
   141
 40
0.0
1070
   271
 70
     3
1070
    43
 40
10.0
1070
   278
 70
    46
1070
    44
 40
1.0
1070
    42
 40
1.0
1070
   147
 40
0.09
1070
   272
 70
     3
1070
   146
 40
0.65
1070
   172
 70
     0
1070
   340
340
11
1070
   140
 40
3.5
1070
   284
 70
     0
1070
    90
 70
     1
1002
}
  0
XRECORD
  5
622
102
{ACAD_REACTORS
330
617
102
}
330
617
100
AcDbXrecord
  1
{de4d86a2-44d5-466b-8df9-ef34475483ea}
  0
XRECORD
  5
61A
102
{ACAD_REACTORS
330
617
102
}
330
617
100
AcDbXrecord
  1

  0
XRECORD
  5
61F
102
{ACAD_REACTORS
330
617
102
}
330
617
100
AcDbXrecord
 90
        4
  0
XRECORD
  5
61C
102
{ACAD_REACTORS
330
617
102
}
330
617
100
AcDbXrecord
340
1A
  0
XRECORD
  5
61E
102
{ACAD_REACTORS
330
617
102
}
330
617
100
AcDbXrecord
 90
    10781
  0
XRECORD
  5
61D
102
{ACAD_REACTORS
330
617
102
}
330
617
100
AcDbXrecord
340
19
  0
XRECORD
  5
624
102
{ACAD_REACTORS
330
617
102
}
330
617
100
AcDbXrecord
 40
0.0
  0
XRECORD
  5
627
102
{ACAD_REACTORS
330
617
102
}
330
617
100
AcDbXrecord
340
0
  0
XRECORD
  5
62D
102
{ACAD_REACTORS
330
617
102
}
330
617
100
AcDbXrecord
 10
0.0
 20
0.0
 30
0.0
  0
XRECORD
  5
629
102
{ACAD_REACTORS
330
617
102
}
330
617
100
AcDbXrecord
 10
0.0
 20
0.0
 30
0.0
  0
XRECORD
  5
62C
102
{ACAD_REACTORS
330
617
102
}
330
617
100
AcDbXrecord
 10
0.0
 20
0.0
 30
0.0
  0
XRECORD
  5
62A
102
{ACAD_REACTORS
330
617
102
}
330
617
100
AcDbXrecord
 10
0.0
 20
0.0
 30
0.0
  0
XRECORD
  5
62B
102
{ACAD_REACTORS
330
617
102
}
330
617
100
AcDbXrecord
 10
0.0
 20
0.0
 30
0.0
  0
XRECORD
  5
628
102
{ACAD_REACTORS
330
617
102
}
330
617
100
AcDbXrecord
 10
0.0
 20
0.0
 30
0.0
  0
XRECORD
  5
625
102
{ACAD_REACTORS
330
617
102
}
330
617
100
AcDbXrecord
340
0
  0
XRECORD
  5
626
102
{ACAD_REACTORS
330
617
102
}
330
617
100
AcDbXrecord
 70
     0
  0
XRECORD
  5
61B
102
{ACAD_REACTORS
330
617
102
}
330
617
100
AcDbXrecord
  1

  0
XRECORD
  5
618
102
{ACAD_REACTORS
330
617
102
}
330
617
100
AcDbXrecord
 90
        1
  0
XRECORD
  5
619
102
{ACAD_REACTORS
330
617
102
}
330
617
100
AcDbXrecord
 90
       70
  0
XRECORD
  5
630
102
{ACAD_REACTORS
330
617
102
}
330
617
100
AcDbXrecord
340
0
  0
XRECORD
  5
636
102
{ACAD_REACTORS
330
617
102
}
330
617
100
AcDbXrecord
 10
0.0
 20
0.0
 30
0.0
  0
XRECORD
  5
632
102
{ACAD_REACTORS
330
617
102
}
330
617
100
AcDbXrecord
 10
0.0
 20
0.0
 30
0.0
  0
XRECORD
  5
635
102
{ACAD_REACTORS
330
617
102
}
330
617
100
AcDbXrecord
 10
0.0
 20
0.0
 30
0.0
  0
XRECORD
  5
633
102
{ACAD_REACTORS
330
617
102
}
330
617
100
AcDbXrecord
 10
0.0
 20
0.0
 30
0.0
  0
XRECORD
  5
634
102
{ACAD_REACTORS
330
617
102
}
330
617
100
AcDbXrecord
 10
0.0
 20
0.0
 30
0.0
  0
XRECORD
  5
631
102
{ACAD_REACTORS
330
617
102
}
330
617
100
AcDbXrecord
 10
0.0
 20
0.0
 30
0.0
  0
XRECORD
  5
62E
102
{ACAD_REACTORS
330
617
102
}
330
617
100
AcDbXrecord
340
0
  0
XRECORD
  5
62F
102
{ACAD_REACTORS
330
617
102
}
330
617
100
AcDbXrecord
 70
     0
  0
XRECORD
  5
623
102
{ACAD_REACTORS
330
617
102
}
330
617
100
AcDbXrecord
  1
{FAEB1C32-E019-11D5-929B-00C0DF256EC4}
  0
DICTIONARYVAR
  5
641
102
{ACAD_REACTORS
330
638
102
}
330
638
100
DictionaryVariables
280
     0
  1
1:1
  0
DICTIONARYVAR
  5
63A
102
{ACAD_REACTORS
330
638
102
}
330
638
100
DictionaryVariables
280
     0
  1
Standard
  0
DICTIONARYVAR
  5
639
102
{ACAD_REACTORS
330
638
102
}
330
638
100
DictionaryVariables
280
     0
  1
Standard
  0
DICTIONARYVAR
  5
63D
102
{ACAD_REACTORS
330
638
102
}
330
638
100
DictionaryVariables
280
     0
  1
2
  0
DICTIONARYVAR
  5
63E
102
{ACAD_REACTORS
330
638
102
}
330
638
100
DictionaryVariables
280
     0
  1
1
  0
DICTIONARYVAR
  5
642
102
{ACAD_REACTORS
330
638
102
}
330
638
100
DictionaryVariables
280
     0
  1
1
  0
DICTIONARY
  5
645
330
45
100
AcDbDictionary
280
     1
  3
ACAD_XREC_ROUNDTRIP
360
646
  0
DICTIONARY
  5
643
330
44
100
AcDbDictionary
280
     1
  3
ACAD_XREC_ROUNDTRIP
360
644
  0
DICTIONARY
  5
647
330
46
100
AcDbDictionary
280
     1
  3
ACAD_XREC_ROUNDTRIP
360
648
  0
XRECORD
  5
646
102
{ACAD_REACTORS
330
645
102
}
330
645
100
AcDbXrecord
102
MATERIAL
148
0.0
149
0.0
149
0.0
 93
        0
 94
      127
282
     0
 72
     1
 77
     1
171
     1
175
     1
179
     1
273
     0
  0
XRECORD
  5
644
102
{ACAD_REACTORS
330
643
102
}
330
643
100
AcDbXrecord
102
MATERIAL
148
0.0
149
0.0
149
0.0
 93
        0
 94
      127
282
     0
 72
     1
 77
     1
171
     1
175
     1
179
     1
273
     0
  0
XRECORD
  5
648
102
{ACAD_REACTORS
330
647
102
}
330
647
100
AcDbXrecord
102
MATERIAL
148
0.0
149
0.0
149
0.0
 93
        0
 94
      127
282
     0
 72
     1
 77
     1
171
     1
175
     1
179
     1
273
     0
  0
ENDSEC
  0
EOF
