  0
SECTION
  2
HEADER
  9
$ACADVER
  1
AC1009
  9
$DWGCODEPAGE
  3
ansi_932
  9
$INSBASE
 10
0.0
 20
0.0
 30
0.0
  9
$EXTMIN
 10
-984.7684694564462
 20
-847.2177996081208
 30
0.0
  9
$EXTMAX
 10
1054.22371389489
 20
847.8001825495751
 30
0.0
  9
$LIMMIN
 10
-420.5
 20
-297.0
  9
$LIMMAX
 10
420.5
 20
297.0
  9
$ORTHOMODE
 70
     0
  9
$REGENMODE
 70
     1
  9
$FILLMODE
 70
     1
  9
$QTEXTMODE
 70
     0
  9
$MIRRTEXT
 70
     1
  9
$DRAGMODE
 70
     2
  9
$LTSCALE
 40
0.25
  9
$OSMODE
 70
    37
  9
$ATTMODE
 70
     1
  9
$TEXTSIZE
 40
0.2
  9
$TRACEWID
 40
0.05
  9
$TEXTSTYLE
  7
STANDARD
  9
$CLAYER
  8
0
  9
$CELTYPE
  6
BYLAYER
  9
$CECOLOR
 62
   256
  9
$DIMSCALE
 40
1.0
  9
$DIMASZ
 40
1.800315856933594
  9
$DIMEXO
 40
1.0
  9
$DIMDLI
 40
10.0
  9
$DIMRND
 40
0.0
  9
$DIMDLE
 40
0.0
  9
$DIMEXE
 40
1.0
  9
$DIMTP
 40
0.0
  9
$DIMTM
 40
0.0
  9
$DIMTXT
 40
3.5
  9
$DIMCEN
 40
0.0
  9
$DIMTSZ
 40
0.0
  9
$DIMTOL
 70
     0
  9
$DIMLIM
 70
     0
  9
$DIMTIH
 70
     0
  9
$DIMTOH
 70
     0
  9
$DIMSE1
 70
     0
  9
$DIMSE2
 70
     0
  9
$DIMTAD
 70
     1
  9
$DIMZIN
 70
     8
  9
$DIMBLK
  1

  9
$DIMASO
 70
     1
  9
$DIMSHO
 70
     1
  9
$DIMPOST
  1

  9
$DIMAPOST
  1

  9
$DIMALT
 70
     0
  9
$DIMALTD
 70
     2
  9
$DIMALTF
 40
0.0393700787401575
  9
$DIMLFAC
 40
1.0
  9
$DIMTOFL
 70
     0
  9
$DIMTVP
 40
0.0
  9
$DIMTIX
 70
     0
  9
$DIMSOXD
 70
     0
  9
$DIMSAH
 70
     0
  9
$DIMBLK1
  1

  9
$DIMBLK2
  1

  9
$DIMSTYLE
  2
STANDARD
  9
$DIMCLRD
 70
     0
  9
$DIMCLRE
 70
     0
  9
$DIMCLRT
 70
     0
  9
$DIMTFAC
 40
0.65
  9
$DIMGAP
 40
0.09
  9
$LUNITS
 70
     2
  9
$LUPREC
 70
     4
  9
$SKETCHINC
 40
0.1
  9
$FILLETRAD
 40
0.5
  9
$AUNITS
 70
     0
  9
$AUPREC
 70
     0
  9
$MENU
  1
.
  9
$ELEVATION
 40
0.0
  9
$PELEVATION
 40
0.0
  9
$THICKNESS
 40
0.0
  9
$LIMCHECK
 70
     0
  9
$CHAMFERA
 40
0.0
  9
$CHAMFERB
 40
0.0
  9
$SKPOLY
 70
     0
  9
$TDCREATE
 40
2460949.564558148
  9
$TDUPDATE
 40
2460949.564558692
  9
$TDINDWG
 40
0.0000000116
  9
$TDUSRTIMER
 40
0.0000000116
  9
$USRTIMER
 70
     1
  9
$ANGBASE
 50
0.0
  9
$ANGDIR
 70
     0
  9
$PDMODE
 70
     0
  9
$PDSIZE
 40
1.0
  9
$PLINEWID
 40
0.0
  9
$COORDS
 70
     1
  9
$SPLFRAME
 70
     0
  9
$SPLINETYPE
 70
     6
  9
$SPLINESEGS
 70
     8
  9
$ATTDIA
 70
     0
  9
$ATTREQ
 70
     1
  9
$HANDLING
 70
     1
  9
$HANDSEED
  5
3D8
  9
$SURFTAB1
 70
     6
  9
$SURFTAB2
 70
     6
  9
$SURFTYPE
 70
     6
  9
$SURFU
 70
     6
  9
$SURFV
 70
     6
  9
$UCSNAME
  2

  9
$UCSORG
 10
0.0
 20
0.0
 30
0.0
  9
$UCSXDIR
 10
1.0
 20
0.0
 30
0.0
  9
$UCSYDIR
 10
0.0
 20
1.0
 30
0.0
  9
$PUCSNAME
  2

  9
$PUCSORG
 10
0.0
 20
0.0
 30
0.0
  9
$PUCSXDIR
 10
1.0
 20
0.0
 30
0.0
  9
$PUCSYDIR
 10
0.0
 20
1.0
 30
0.0
  9
$USERI1
 70
     0
  9
$USERI2
 70
     0
  9
$USERI3
 70
     0
  9
$USERI4
 70
     0
  9
$USERI5
 70
     0
  9
$USERR1
 40
0.0
  9
$USERR2
 40
0.0
  9
$USERR3
 40
0.0
  9
$USERR4
 40
0.0
  9
$USERR5
 40
0.0
  9
$WORLDVIEW
 70
     1
  9
$SHADEDGE
 70
     3
  9
$SHADEDIF
 70
    70
  9
$TILEMODE
 70
     1
  9
$MAXACTVP
 70
    64
  9
$PLIMCHECK
 70
     0
  9
$PEXTMIN
 10
1.000000000000000E+20
 20
1.000000000000000E+20
 30
1.000000000000000E+20
  9
$PEXTMAX
 10
-1.000000000000000E+20
 20
-1.000000000000000E+20
 30
-1.000000000000000E+20
  9
$PLIMMIN
 10
0.0
 20
0.0
  9
$PLIMMAX
 10
12.0
 20
9.0
  9
$UNITMODE
 70
     0
  9
$VISRETAIN
 70
     0
  9
$PLINEGEN
 70
     1
  9
$PSLTSCALE
 70
     0
  0
ENDSEC
  0
SECTION
  2
TABLES
  0
TABLE
  2
VPORT
 70
     1
  0
VPORT
  2
*ACTIVE
 70
     0
 10
0.0
 20
0.0
 11
1.0
 21
1.0
 12
48.57262221922207
 22
-1.536212555782868
 13
0.0
 23
0.0
 14
0.5
 24
0.5
 15
0.5
 25
0.5
 16
0.0
 26
0.0
 36
1.0
 17
0.0
 27
0.0
 37
0.0
 40
580.0340181476969
 41
1.24389452991658
 42
50.0
 43
0.0
 44
0.0
 50
0.0
 51
0.0
 71
     0
 72
  1000
 73
     1
 74
     1
 75
     0
 76
     0
 77
     0
 78
     0
  0
ENDTAB
  0
TABLE
  2
LTYPE
 70
    67
  0
LTYPE
  2
CONTINUOUS
 70
     0
  3
Solid line
 72
    65
 73
     0
 40
0.0
  0
LTYPE
  2
HIDDENX2
 70
     0
  3
Hidden (2x) ____ ____ ____ ____ ____ ____ ____ 
 72
    65
 73
     2
 40
19.05
 49
12.7
 49
-6.35
  0
LTYPE
  2
HIDDEN
 70
     0
  3
Hidden __ __ __ __ __ __ __ __ __ __ __ __ __ __
 72
    65
 73
     2
 40
9.524999999999999
 49
6.35
 49
-3.175
  0
LTYPE
  2
HIDDEN2
 70
     0
  3
Hidden (.5x) _ _ _ _ _ _ _ _ _ _ _ _ _ _ _ _ _ 
 72
    65
 73
     2
 40
4.762499999999999
 49
3.175
 49
-1.5875
  0
LTYPE
  2
DASHED
 70
     0
  3
Dashed __ __ __ __ __ __ __ __ __ __ __ __ __ _
 72
    65
 73
     2
 40
19.05
 49
12.7
 49
-6.35
  0
LTYPE
  2
DASHED2
 70
     0
  3
Dashed (.5x) _ _ _ _ _ _ _ _ _ _ _ _ _ _ _ _ _ 
 72
    65
 73
     2
 40
9.524999999999999
 49
6.35
 49
-3.175
  0
LTYPE
  2
DASHEDX2
 70
     0
  3
Dashed (2x) ____  ____  ____  ____  ____  ___
 72
    65
 73
     2
 40
38.09999999999999
 49
25.4
 49
-12.7
  0
LTYPE
  2
DOTX2
 70
     0
  3
Dot (2x) .  .  .  .  .  .  .  .  .  .  .  .  .  .
 72
    65
 73
     2
 40
12.7
 49
0.0
 49
-12.7
  0
LTYPE
  2
DOT
 70
     0
  3
Dot . . . . . . . . . . . . . . . . . . . . . . . .
 72
    65
 73
     2
 40
6.35
 49
0.0
 49
-6.35
  0
LTYPE
  2
DOT2
 70
     0
  3
Dot (.5x) ........................................
 72
    65
 73
     2
 40
3.175
 49
0.0
 49
-3.175
  0
LTYPE
  2
CENTERX2
 70
     0
  3
Center (2x) ________  __  ________  __  _____
 72
    65
 73
     4
 40
101.6
 49
63.5
 49
-12.7
 49
12.7
 49
-12.7
  0
LTYPE
  2
CENTER
 70
     0
  3
Center ____ _ ____ _ ____ _ ____ _ ____ _ ____
 72
    65
 73
     4
 40
50.8
 49
31.75
 49
-6.35
 49
6.35
 49
-6.35
  0
LTYPE
  2
CENTER2
 70
     0
  3
Center (.5x) ___ _ ___ _ ___ _ ___ _ ___ _ ___
 72
    65
 73
     4
 40
28.575
 49
19.05
 49
-3.175
 49
3.175
 49
-3.175
  0
LTYPE
  2
DASHDOTX2
 70
     0
  3
Dash dot (2x) ____  .  ____  .  ____  .  ___
 72
    65
 73
     4
 40
50.8
 49
25.4
 49
-12.7
 49
0.0
 49
-12.7
  0
LTYPE
  2
DASHDOT
 70
     0
  3
Dash dot __ . __ . __ . __ . __ . __ . __ . __
 72
    65
 73
     4
 40
25.4
 49
12.7
 49
-6.35
 49
0.0
 49
-6.35
  0
LTYPE
  2
DASHDOT2
 70
     0
  3
Dash dot (.5x) _._._._._._._._._._._._._._._.
 72
    65
 73
     4
 40
12.7
 49
6.35
 49
-3.175
 49
0.0
 49
-3.175
  0
LTYPE
  2
DIVIDEX2
 70
     0
  3
Divide (2x) ________  .  .  ________  .  .  _
 72
    65
 73
     6
 40
63.5
 49
25.4
 49
-12.7
 49
0.0
 49
-12.7
 49
0.0
 49
-12.7
  0
LTYPE
  2
DIVIDE
 70
     0
  3
Divide ____ . . ____ . . ____ . . ____ . . ____
 72
    65
 73
     6
 40
31.75
 49
12.7
 49
-6.35
 49
0.0
 49
-6.35
 49
0.0
 49
-6.35
  0
LTYPE
  2
DIVIDE2
 70
     0
  3
Divide (.5x) __..__..__..__..__..__..__..__.._
 72
    65
 73
     6
 40
15.875
 49
6.35
 49
-3.175
 49
0.0
 49
-3.175
 49
0.0
 49
-3.175
  0
LTYPE
  2
BORDERX2
 70
     0
  3
Border (2x) ____  ____  .  ____  ____  .  ___
 72
    65
 73
     6
 40
88.89999999999999
 49
25.4
 49
-12.7
 49
25.4
 49
-12.7
 49
0.0
 49
-12.7
  0
LTYPE
  2
BORDER
 70
     0
  3
Border __ __ . __ __ . __ __ . __ __ . __ __ .
 72
    65
 73
     6
 40
44.45
 49
12.7
 49
-6.35
 49
12.7
 49
-6.35
 49
0.0
 49
-6.35
  0
LTYPE
  2
BORDER2
 70
     0
  3
Border (.5x) __.__.__.__.__.__.__.__.__.__.__.
 72
    65
 73
     6
 40
22.225
 49
6.35
 49
-3.175
 49
6.35
 49
-3.175
 49
0.0
 49
-3.175
  0
LTYPE
  2
PHANTOMX2
 70
     0
  3
Phantom (2x) ____________    ____    ____   _
 72
    65
 73
     6
 40
127.0
 49
63.5
 49
-12.7
 49
12.7
 49
-12.7
 49
12.7
 49
-12.7
  0
LTYPE
  2
PHANTOM
 70
     0
  3
Phantom ______  __  __  ______  __  __  ______ 
 72
    65
 73
     6
 40
63.5
 49
31.75
 49
-6.35
 49
6.35
 49
-6.35
 49
6.35
 49
-6.35
  0
LTYPE
  2
PHANTOM2
 70
     0
  3
Phantom (.5x) ___ _ _ ___ _ _ ___ _ _ ___ _ _
 72
    65
 73
     6
 40
31.75
 49
15.875
 49
-3.175
 49
3.175
 49
-3.175
 49
3.175
 49
-3.175
  0
LTYPE
  2
ACAD_ISO06W100
 70
     0
  3
ISO long-dash triple-dot ____ ... ____ ... ____
 72
    65
 73
     8
 40
36.0
 49
24.0
 49
-3.0
 49
0.0
 49
-3.0
 49
0.0
 49
-3.0
 49
0.0
 49
-3.0
  0
LTYPE
  2
ACAD_ISO13W100
 70
     0
  3
ISO double-dash double-dot __ __ . . __ __ . . _
 72
    65
 73
     8
 40
36.0
 49
12.0
 49
-3.0
 49
12.0
 49
-3.0
 49
0.0
 49
-3.0
 49
0.0
 49
-3.0
  0
LTYPE
  2
ACAD_ISO14W100
 70
     0
  3
ISO dash triple-dot __ . . . __ . . . __ . . . _
 72
    65
 73
     8
 40
24.0
 49
12.0
 49
-3.0
 49
0.0
 49
-3.0
 49
0.0
 49
-3.0
 49
0.0
 49
-3.0
  0
LTYPE
  2
ACAD_ISO02W100
 70
     0
  3
ISO dash __ __ __ __ __ __ __ __ __ __ __ __ __
 72
    65
 73
     2
 40
15.0
 49
12.0
 49
-3.0
  0
LTYPE
  2
ACAD_ISO03W100
 70
     0
  3
ISO dash space __    __    __    __    __    __
 72
    65
 73
     2
 40
30.0
 49
12.0
 49
-18.0
  0
LTYPE
  2
ACAD_ISO04W100
 70
     0
  3
ISO long-dash dot ____ . ____ . ____ . ____ . _
 72
    65
 73
     4
 40
30.0
 49
24.0
 49
-3.0
 49
0.0
 49
-3.0
  0
LTYPE
  2
ACAD_ISO05W100
 70
     0
  3
ISO long-dash double-dot ____ .. ____ .. ____ . 
 72
    65
 73
     6
 40
33.0
 49
24.0
 49
-3.0
 49
0.0
 49
-3.0
 49
0.0
 49
-3.0
  0
LTYPE
  2
ACAD_ISO07W100
 70
     0
  3
ISO dot . . . . . . . . . . . . . . . . . . . . 
 72
    65
 73
     2
 40
3.0
 49
0.0
 49
-3.0
  0
LTYPE
  2
ACAD_ISO08W100
 70
     0
  3
ISO long-dash short-dash ____ __ ____ __ ____ _
 72
    65
 73
     4
 40
36.0
 49
24.0
 49
-3.0
 49
6.0
 49
-3.0
  0
LTYPE
  2
ACAD_ISO09W100
 70
     0
  3
ISO long-dash double-short-dash ____ __ __ ____
 72
    65
 73
     6
 40
45.0
 49
24.0
 49
-3.0
 49
6.0
 49
-3.0
 49
6.0
 49
-3.0
  0
LTYPE
  2
ACAD_ISO10W100
 70
     0
  3
ISO dash dot __ . __ . __ . __ . __ . __ . __ . 
 72
    65
 73
     4
 40
18.0
 49
12.0
 49
-3.0
 49
0.0
 49
-3.0
  0
LTYPE
  2
ACAD_ISO11W100
 70
     0
  3
ISO double-dash dot __ __ . __ __ . __ __ . __ _
 72
    65
 73
     6
 40
33.0
 49
12.0
 49
-3.0
 49
12.0
 49
-3.0
 49
0.0
 49
-3.0
  0
LTYPE
  2
ACAD_ISO12W100
 70
     0
  3
ISO dash double-dot __ . . __ . . __ . . __ . . 
 72
    65
 73
     6
 40
21.0
 49
12.0
 49
-3.0
 49
0.0
 49
-3.0
 49
0.0
 49
-3.0
  0
LTYPE
  2
ACAD_ISO15W100
 70
     0
  3
ISO double-dash triple-dot __ __ . . . __ __ . .
 72
    65
 73
    10
 40
39.0
 49
12.0
 49
-3.0
 49
12.0
 49
-3.0
 49
0.0
 49
-3.0
 49
0.0
 49
-3.0
 49
0.0
 49
-3.0
  0
LTYPE
  2
JIS_02_0_7
 70
     0
  3
HIDDEN0.75 _ _ _ _ _ _ _ _ _ _ _ _ _ _ _ _ _ 
 72
    65
 73
     2
 40
1.35
 49
0.75
 49
-0.6
  0
LTYPE
  2
JIS_02_1_0
 70
     0
  3
HIDDEN01 _ _ _ _ _ _ _ _ _ _ _ _ _ _ _ _ _ 
 72
    65
 73
     2
 40
2.0
 49
1.0
 49
-1.0
  0
LTYPE
  2
JIS_02_1_2
 70
     0
  3
HIDDEN01.25  _ _ _ _ _ _ _ _ _ _ _ _ _ _ _ _ _ 
 72
    65
 73
     2
 40
2.5
 49
1.25
 49
-1.25
  0
LTYPE
  2
JIS_02_2_0
 70
     0
  3
HIDDEN02 __ __ __ __ __ __ __ __ __ __ __ 
 72
    65
 73
     2
 40
3.0
 49
2.0
 49
-1.0
  0
LTYPE
  2
JIS_02_4_0
 70
     0
  3
HIDDEN04 ____ ____ ____ ____ ____ ____ ____ 
 72
    65
 73
     2
 40
5.5
 49
4.0
 49
-1.5
  0
LTYPE
  2
JIS_08_11
 70
     0
  3
1SASEN11 ___ _ ___ _ ___ _ ___ _ ___ _ ___
 72
    65
 73
     4
 40
12.8
 49
11.0
 49
-0.6
 49
0.6
 49
-0.6
  0
LTYPE
  2
JIS_08_15
 70
     0
  3
1SASEN15 ____ _ ____ _ ____ _ ____ _ ____ 
 72
    65
 73
     4
 40
17.25
 49
15.0
 49
-0.75
 49
0.75
 49
-0.75
  0
LTYPE
  2
JIS_08_25
 70
     0
  3
1SASEN25 ________  __  ________  __  _____
 72
    65
 73
     4
 40
28.0
 49
25.0
 49
-1.125
 49
0.75
 49
-1.125
  0
LTYPE
  2
JIS_08_37
 70
     0
  3
1SASEN37 ________  __  ________  __  _____
 72
    65
 73
     4
 40
40.5
 49
37.5
 49
-1.125
 49
0.75
 49
-1.125
  0
LTYPE
  2
JIS_08_50
 70
     0
  3
1SASEN50 _______________  __  ____________
 72
    65
 73
     4
 40
53.0
 49
50.0
 49
-1.125
 49
0.75
 49
-1.125
  0
LTYPE
  2
JIS_09_08
 70
     0
  3
2SASEN8 __ _ _ __ _ _ __ _ _ __ _ _ __ _ _ 
 72
    65
 73
     6
 40
10.75
 49
8.0
 49
-0.55
 49
0.55
 49
-0.55
 49
0.55
 49
-0.55
  0
LTYPE
  2
JIS_09_15
 70
     0
  3
2SASEN15 ___ _ _ ___ _ _ ___ _ _ ___ _ _ ___ 
 72
    65
 73
     6
 40
18.9
 49
15.0
 49
-0.9
 49
0.6
 49
-0.9
 49
0.6
 49
-0.9
  0
LTYPE
  2
JIS_09_29
 70
     0
  3
2SASEN29 ______　__  __  ______　__  __  ___
 72
    65
 73
     6
 40
34.0
 49
29.0
 49
-1.2
 49
0.7
 49
-1.2
 49
0.7
 49
-1.2
  0
LTYPE
  2
JIS_09_50
 70
     0
  3
2SASEN50 ____________　__  __  _____________
 72
    65
 73
     6
 40
55.0
 49
50.0
 49
-1.2
 49
0.7
 49
-1.2
 49
0.7
 49
-1.2
  0
LTYPE
  2
SXF_破線
 70
     0
  3
02 dashed -- -- -- -- -- --
 72
    65
 73
     2
 40
7.5
 49
6.0
 49
-1.5
  0
LTYPE
  2
SXF_跳び破線
 70
     0
  3
03 dashed_spaced --  --  --  --
 72
    65
 73
     2
 40
12.0
 49
6.0
 49
-6.0
  0
LTYPE
  2
SXF_一点長鎖線
 70
     0
  3
04 long_dashed_dotted ---- . ---- . ----
 72
    65
 73
     4
 40
15.25
 49
12.0
 49
-1.5
 49
0.25
 49
-1.5
  0
LTYPE
  2
SXF_二点長鎖線
 70
     0
  3
05 long_dashed_double-dotted ---- . . ---- 
 72
    65
 73
     6
 40
17.0
 49
12.0
 49
-1.5
 49
0.25
 49
-1.5
 49
0.25
 49
-1.5
  0
LTYPE
  2
SXF_三点長鎖線
 70
     0
  3
06 long_dashed_triplicate-dotted ---- ... ---- 
 72
    65
 73
     8
 40
18.75
 49
12.0
 49
-1.5
 49
0.25
 49
-1.5
 49
0.25
 49
-1.5
 49
0.25
 49
-1.5
  0
LTYPE
  2
SXF_点線
 70
     0
  3
07 dotted . . . . . . . . . . . . 
 72
    65
 73
     2
 40
1.75
 49
0.25
 49
-1.5
  0
LTYPE
  2
SXF_一点鎖線
 70
     0
  3
08 chain ---- - --- - --- - ---
 72
    65
 73
     4
 40
18.5
 49
12.0
 49
-1.5
 49
3.5
 49
-1.5
  0
LTYPE
  2
SXF_二点鎖線
 70
     0
  3
09 chain_double_dash ---- - - ---- - - ----
 72
    65
 73
     6
 40
23.5
 49
12.0
 49
-1.5
 49
3.5
 49
-1.5
 49
3.5
 49
-1.5
  0
LTYPE
  2
SXF_一点短鎖線
 70
     0
  3
10 dashed_dotted -- . -- . -- . --
 72
    65
 73
     4
 40
9.25
 49
6.0
 49
-1.5
 49
0.25
 49
-1.5
  0
LTYPE
  2
SXF_一点二短鎖線
 70
     0
  3
11 double-dashed_dotted -- -- . -- --
 72
    65
 73
     6
 40
16.75
 49
6.0
 49
-1.5
 49
6.0
 49
-1.5
 49
0.25
 49
-1.5
  0
LTYPE
  2
SXF_二点短鎖線
 70
     0
  3
12 dashed_double_dotted -- . . -- . . --
 72
    65
 73
     6
 40
11.0
 49
6.0
 49
-1.5
 49
0.25
 49
-1.5
 49
0.25
 49
-1.5
  0
LTYPE
  2
SXF_二点二短鎖線
 70
     0
  3
13 double-dashed_double-dotted -- -- . . -- --
 72
    65
 73
     8
 40
18.5
 49
6.0
 49
-1.5
 49
6.0
 49
-1.5
 49
0.25
 49
-1.5
 49
0.25
 49
-1.5
  0
LTYPE
  2
SXF_三点短鎖線
 70
     0
  3
14 dashed triplicate-dotted -- . . . -- . . . --
 72
    65
 73
     8
 40
12.75
 49
6.0
 49
-1.5
 49
0.25
 49
-1.5
 49
0.25
 49
-1.5
 49
0.25
 49
-1.5
  0
LTYPE
  2
SXF_三点二短鎖線
 70
     0
  3
15 double-dashed triplicate-dotted -- -- . . . -- -- 
 72
    65
 73
    10
 40
20.25
 49
6.0
 49
-1.5
 49
6.0
 49
-1.5
 49
0.25
 49
-1.5
 49
0.25
 49
-1.5
 49
0.25
 49
-1.5
  0
ENDTAB
  0
TABLE
  2
LAYER
 70
     3
  0
LAYER
  2
0
 70
     0
 62
     7
  6
CONTINUOUS
  0
LAYER
  2
LAYER0016
 70
     0
 62
     7
  6
CONTINUOUS
  0
LAYER
  2
LAYER0240
 70
     0
 62
     7
  6
CONTINUOUS
  0
ENDTAB
  0
TABLE
  2
STYLE
 70
     2
  0
STYLE
  2
STANDARD
 70
     0
 40
0.0
 41
1.0
 50
0.0
 71
     0
 42
0.2
  3
txt.shx
  4
bigfont.shx
  0
STYLE
  2
DCSTYLE0
 70
     0
 40
0.0
 41
1.0
 50
0.0
 71
     0
 42
0.2
  3
ＭＳ ゴシック
  4

  0
ENDTAB
  0
TABLE
  2
VIEW
 70
     0
  0
ENDTAB
  0
TABLE
  2
UCS
 70
     0
  0
ENDTAB
  0
TABLE
  2
APPID
 70
     2
  0
APPID
  2
ACAD
 70
     0
  0
APPID
  2
DAFUSIONOUT
 70
     0
  0
ENDTAB
  0
TABLE
  2
DIMSTYLE
 70
     1
  0
DIMSTYLE
  2
STANDARD
 70
     0
  3

  4

  5

  6

  7

 40
1.0
 41
0.18
 42
0.0625
 43
0.38
 44
0.18
 45
0.0
 46
0.0
 47
0.0
 48
0.0
140
0.18
141
0.09
142
0.0
143
25.4
144
1.0
145
0.0
146
1.0
147
0.09
 71
     0
 72
     0
 73
     1
 74
     1
 75
     0
 76
     0
 77
     0
 78
     0
170
     0
171
     2
172
     0
173
     0
174
     0
175
     0
176
     0
177
     0
178
     0
  0
ENDTAB
  0
ENDSEC
  0
SECTION
  2
BLOCKS
  0
BLOCK
  8
0
  2
$MODEL_SPACE
 70
     0
 10
0.0
 20
0.0
 30
0.0
  3
$MODEL_SPACE
  1

  0
ENDBLK
  5
21
  8
0
  0
BLOCK
 67
     1
  8
0
  2
$PAPER_SPACE
 70
     0
 10
0.0
 20
0.0
 30
0.0
  3
$PAPER_SPACE
  1

  0
ENDBLK
  5
1D
 67
     1
  8
0
  0
BLOCK
  8
0
  2
DC_GROUP_1
 70
     0
 10
0.0
 20
0.0
 30
0.0
  3
DC_GROUP_1
  1

  0
LINE
  5
C0
  8
0
  6
CONTINUOUS
 62
     3
 10
-71.89051616634026
 20
257.0371526902988
 30
0.0
 11
-96.64451616634028
 21
257.0371526902988
 31
0.0
  0
LINE
  5
C1
  8
0
  6
CONTINUOUS
 62
     3
 10
-71.89051616634026
 20
257.0371526902988
 30
0.0
 11
-70.92178098473971
 21
256.0376415542275
 31
0.0
  0
LINE
  5
C2
  8
0
  6
CONTINUOUS
 62
     3
 10
-96.64451616634028
 20
257.0371526902988
 30
0.0
 11
-97.61325134794083
 21
256.0376415542275
 31
0.0
  0
LINE
  5
C3
  8
0
  6
CONTINUOUS
 62
     3
 10
-71.04691671692524
 20
252.0371526902988
 30
0.0
 11
-70.92178098473971
 21
256.0376415542275
 31
0.0
  0
LINE
  5
C4
  8
0
  6
CONTINUOUS
 62
     3
 10
-97.61325134794083
 20
256.0376415542275
 30
0.0
 11
-97.4881156157553
 21
252.0371526902988
 31
0.0
  0
LINE
  5
C5
  8
0
  6
CONTINUOUS
 62
     4
 10
-72.0525161663403
 20
257.0371526902988
 30
0.0
 11
-72.20891671692527
 21
252.0371526902988
 31
0.0
  0
LINE
  5
C6
  8
0
  6
CONTINUOUS
 62
     4
 10
-96.48251616634025
 20
257.0371526902988
 30
0.0
 11
-96.32611561575527
 21
252.0371526902988
 31
0.0
  0
ENDBLK
  5
B6
  8
0
  0
BLOCK
  8
0
  2
DC_GROUP_2
 70
     0
 10
0.0
 20
0.0
 30
0.0
  3
DC_GROUP_2
  1

  0
LINE
  5
C7
  8
0
  6
CONTINUOUS
 62
     3
 10
-71.89051616634015
 20
143.0371526902993
 30
0.0
 11
-96.64451616634017
 21
143.0371526902993
 31
0.0
  0
LINE
  5
C8
  8
0
  6
CONTINUOUS
 62
     3
 10
-71.89051616634015
 20
143.0371526902993
 30
0.0
 11
-70.9217809847396
 21
144.0366638263706
 31
0.0
  0
LINE
  5
C9
  8
0
  6
CONTINUOUS
 62
     3
 10
-96.64451616634017
 20
143.0371526902993
 30
0.0
 11
-97.61325134794072
 21
144.0366638263706
 31
0.0
  0
LINE
  5
CA
  8
0
  6
CONTINUOUS
 62
     3
 10
-70.98435649669113
 20
146.0371526902986
 30
0.0
 11
-70.9217809847396
 21
144.0366638263706
 31
0.0
  0
LINE
  5
CB
  8
0
  6
CONTINUOUS
 62
     3
 10
-97.61325134794072
 20
144.0366638263706
 30
0.0
 11
-97.55067583598918
 21
146.0371526902986
 31
0.0
  0
LINE
  5
CC
  8
0
  6
CONTINUOUS
 62
     4
 10
-72.05251616634018
 20
143.0371526902993
 30
0.0
 11
-72.14635649669117
 21
146.0371526902986
 31
0.0
  0
LINE
  5
CD
  8
0
  6
CONTINUOUS
 62
     4
 10
-96.48251616634025
 20
143.0371526902993
 30
0.0
 11
-96.38867583598926
 21
146.0371526902986
 31
0.0
  0
ENDBLK
  5
B9
  8
0
  0
BLOCK
  8
0
  2
DC_FILL_GROUP_3
 70
     0
 10
0.0
 20
0.0
 30
0.0
  3
DC_FILL_GROUP_3
  1

  0
LINE
  5
CE
  8
0
  6
CONTINUOUS
 62
     7
 10
-63.26751616634033
 20
252.0371526902986
 30
0.0
 11
-63.26751616634033
 21
146.0371526902988
 31
0.0
  0
ENDBLK
  5
BC
  8
0
  0
BLOCK
  8
0
  2
DC_GROUP_4
 70
     0
 10
0.0
 20
0.0
 30
0.0
  3
DC_GROUP_4
  1

  0
CIRCLE
  5
CF
  8
LAYER0016
  6
CONTINUOUS
 62
     3
 10
-197.2675161663404
 20
-105.9733341470142
 30
0.0
 40
4.5
  0
CIRCLE
  5
D0
  8
LAYER0016
  6
CONTINUOUS
 62
     3
 10
-197.2675161663404
 20
-105.9733341470142
 30
0.0
 40
3.5
  0
LINE
  5
D1
  8
LAYER0016
  6
CONTINUOUS
 62
     3
 10
-195.7825919258486
 20
-104.4884099065224
 30
0.0
 11
-198.7524404068321
 21
-107.4582583875059
 31
0.0
  0
LINE
  5
D2
  8
LAYER0016
  6
CONTINUOUS
 62
     3
 10
-198.7524404068321
 20
-104.4884099065224
 30
0.0
 11
-195.7825919258486
 21
-107.4582583875059
 31
0.0
  0
ENDBLK
  5
BF
  8
0
  0
BLOCK
  8
0
  2
*U5
 70
     1
 10
0.0
 20
0.0
 30
0.0
  3
*U5
  1

  0
SOLID
  5
3D2
  8
0
  6
CONTINUOUS
 62
     7
 10
-64.26751616634034
 20
146.0371526902989
 30
0.0
 11
-64.26751616634034
 21
200.0371526902992
 31
0.0
 12
-63.26751616634036
 22
146.0371526902989
 32
0.0
 13
-63.26751616634036
 23
146.0371526902989
 33
0.0
  0
SOLID
  5
3D3
  8
0
  6
CONTINUOUS
 62
     7
 10
-63.26751616634036
 20
146.0371526902989
 30
0.0
 11
-64.26751616634034
 21
200.0371526902992
 31
0.0
 12
-63.26751616634036
 22
200.0371526902992
 32
0.0
 13
-63.26751616634036
 23
200.0371526902992
 33
0.0
  0
SOLID
  5
3D4
  8
0
  6
CONTINUOUS
 62
     7
 10
-64.26751616634034
 20
200.0371526902992
 30
0.0
 11
-64.26751616634034
 21
252.0371526902988
 31
0.0
 12
-63.26751616634036
 22
200.0371526902992
 32
0.0
 13
-63.26751616634036
 23
200.0371526902992
 33
0.0
  0
SOLID
  5
3D5
  8
0
  6
CONTINUOUS
 62
     7
 10
-63.26751616634036
 20
200.0371526902992
 30
0.0
 11
-64.26751616634034
 21
252.0371526902988
 31
0.0
 12
-63.26751616634036
 22
252.0371526902988
 32
0.0
 13
-63.26751616634036
 23
252.0371526902988
 33
0.0
  0
ENDBLK
  5
3D7
  8
0
  0
ENDSEC
  0
SECTION
  2
ENTITIES
  0
LINE
  5
D3
  8
0
  6
CONTINUOUS
 62
     3
 10
-298.2675161663404
 20
-58.97333414701345
 30
0.0
 11
-116.2675161663404
 21
-58.97333414701379
 31
0.0
  0
LINE
  5
D4
  8
0
  6
CONTINUOUS
 62
     3
 10
-293.2272076291859
 20
57.18372754283195
 30
0.0
 11
-295.8767839802811
 21
-43.99951109532172
 31
0.0
  0
LINE
  5
D5
  8
0
  6
CONTINUOUS
 62
     3
 10
-128.3057686533481
 20
63.02666585298658
 30
0.0
 11
-286.2292636793325
 21
63.02666585298658
 31
0.0
  0
LINE
  5
D6
  8
0
  6
CONTINUOUS
 62
     3
 10
-118.6582483523994
 20
-43.99951109532138
 30
0.0
 11
-121.3078247034948
 21
57.18372754283422
 31
0.0
  0
ARC
  5
D7
  8
0
  6
CONTINUOUS
 62
     3
 10
-287.2292636793325
 20
57.02666585298658
 30
0.0
 40
6.000000000000001
 50
90.0
 51
178.5000000000179
  0
ARC
  5
D8
  8
0
  6
CONTINUOUS
 62
     3
 10
-127.3057686533481
 20
57.02666585298715
 30
0.0
 40
6.000000000000001
 50
1.49999999999838
 51
90.0
  0
LINE
  5
D9
  8
0
  6
CONTINUOUS
 62
     3
 10
-289.2675161663404
 20
269.0371526902987
 30
0.0
 11
-125.2675161663404
 21
269.0371526902987
 31
0.0
  0
LINE
  5
DA
  8
0
  6
CONTINUOUS
 62
     3
 10
-289.2675161663404
 20
129.0371526902987
 30
0.0
 11
-125.2675161663404
 21
129.0371526902987
 31
0.0
  0
ARC
  5
DB
  8
0
  6
CONTINUOUS
 62
     3
 10
-289.2675161663404
 20
261.0371526902986
 30
0.0
 40
8.0
 50
90.0
 51
180.0
  0
ARC
  5
DC
  8
0
  6
CONTINUOUS
 62
     3
 10
-289.2675161663404
 20
261.0371526902987
 30
0.0
 40
8.365231732005183
 50
271.4568850918527
 51
358.5431149081469
  0
ARC
  5
DD
  8
0
  6
CONTINUOUS
 62
     3
 10
-288.9022844343352
 20
246.6765646627788
 30
0.0
 40
6.0
 50
91.45688509185254
 51
179.9999999999995
  0
ARC
  5
DE
  8
0
  6
CONTINUOUS
 62
     3
 10
-274.9069281388205
 20
260.6719209582934
 30
0.0
 40
6.0
 50
90.0
 51
178.5431149081469
  0
ARC
  5
DF
  8
0
  6
CONTINUOUS
 62
     3
 10
-125.2675161663403
 20
261.0371526902986
 30
0.0
 40
8.0
 50
0.0
 51
90.0
  0
ARC
  5
E0
  8
0
  6
CONTINUOUS
 62
     3
 10
-125.2675161663404
 20
261.0371526902987
 30
0.0
 40
8.365231732005183
 50
181.4568850918533
 51
268.5431149081473
  0
ARC
  5
E1
  8
0
  6
CONTINUOUS
 62
     3
 10
-125.6327478983456
 20
246.6765646627788
 30
0.0
 40
6.0
 50
0.0
 51
88.5431149081475
  0
ARC
  5
E2
  8
0
  6
CONTINUOUS
 62
     3
 10
-139.6281041938601
 20
260.6719209582934
 30
0.0
 40
6.0
 50
1.45688509185284
 51
90.0
  0
ARC
  5
E3
  8
0
  6
CONTINUOUS
 62
     3
 10
-125.2675161663403
 20
137.0371526902988
 30
0.0
 40
8.0
 50
270.0
 51
0.0
  0
ARC
  5
E4
  8
0
  6
CONTINUOUS
 62
     3
 10
-125.2675161663404
 20
137.0371526902987
 30
0.0
 40
8.365231732005183
 50
91.45688509185266
 51
178.5431149081466
  0
ARC
  5
E5
  8
0
  6
CONTINUOUS
 62
     3
 10
-125.6327478983456
 20
151.3977407178185
 30
0.0
 40
6.0
 50
271.4568850918525
 51
0.0
  0
ARC
  5
E6
  8
0
  6
CONTINUOUS
 62
     3
 10
-139.6281041938601
 20
137.402384422304
 30
0.0
 40
6.0
 50
270.0
 51
358.5431149081472
  0
ARC
  5
E7
  8
0
  6
CONTINUOUS
 62
     3
 10
-289.2675161663404
 20
137.0371526902988
 30
0.0
 40
8.0
 50
180.0
 51
270.0
  0
ARC
  5
E8
  8
0
  6
CONTINUOUS
 62
     3
 10
-289.2675161663404
 20
137.0371526902987
 30
0.0
 40
8.365231732005183
 50
1.456885091853366
 51
88.54311490814737
  0
ARC
  5
E9
  8
0
  6
CONTINUOUS
 62
     3
 10
-288.9022844343352
 20
151.3977407178185
 30
0.0
 40
6.0
 50
180.0
 51
268.5431149081475
  0
ARC
  5
EA
  8
0
  6
CONTINUOUS
 62
     3
 10
-274.9069281388205
 20
137.402384422304
 30
0.0
 40
6.0
 50
181.4568850918528
 51
270.0
  0
LINE
  5
EB
  8
0
  6
CONTINUOUS
 62
     3
 10
-294.9022844343352
 20
246.676564662779
 30
0.0
 11
-294.9022844343352
 21
151.3977407178185
 31
0.0
  0
LINE
  5
EC
  8
0
  6
CONTINUOUS
 62
     3
 10
-119.6327478983456
 20
246.6765646627788
 30
0.0
 11
-119.6327478983456
 21
151.3977407178185
 31
0.0
  0
LINE
  5
ED
  8
0
  6
CONTINUOUS
 62
     3
 10
-274.9069281388205
 20
266.6719209582934
 30
0.0
 11
-139.6281041938601
 21
266.6719209582934
 31
0.0
  0
LINE
  5
EE
  8
0
  6
CONTINUOUS
 62
     3
 10
-274.9069281388205
 20
131.402384422304
 30
0.0
 11
-139.6281041938599
 21
131.402384422304
 31
0.0
  0
LINE
  5
EF
  8
0
  6
CONTINUOUS
 62
     3
 10
-296.8764413052568
 20
-44.97333414701419
 30
0.0
 11
-117.6585910274239
 21
-44.97333414701356
 31
0.0
  0
LINE
  5
F0
  8
0
  6
CONTINUOUS
 62
     3
 10
-298.2675161663404
 20
-58.97333414701379
 30
0.0
 11
-297.9264137184255
 21
-45.94715719870644
 31
0.0
  0
ARC
  5
F1
  8
0
  6
CONTINUOUS
 62
     3
 10
-296.9267563934499
 20
-45.97333414701384
 30
0.0
 40
1.0
 50
90.0
 51
178.5000000000274
  0
ARC
  5
F2
  8
0
  6
CONTINUOUS
 62
     3
 10
-296.8764413052568
 20
-43.97333414701384
 30
0.0
 40
1.0
 50
270.0
 51
358.5000000000001
  0
LINE
  5
F3
  8
0
  6
CONTINUOUS
 62
     3
 10
-116.2675161663404
 20
-58.97333414701413
 30
0.0
 11
-116.6086186142552
 21
-45.94715719870587
 31
0.0
  0
ARC
  5
F4
  8
0
  6
CONTINUOUS
 62
     3
 10
-117.6082759392307
 20
-45.9733341470135
 30
0.0
 40
1.0
 50
1.499999999984837
 51
90.0
  0
ARC
  5
F5
  8
0
  6
CONTINUOUS
 62
     3
 10
-117.6585910274239
 20
-43.9733341470135
 30
0.0
 40
1.0
 50
181.5000000000003
 51
270.0
  0
LINE
  5
F6
  8
0
  6
CONTINUOUS
 62
     3
 10
114.4141751764244
 20
-58.97333414701362
 30
0.0
 11
114.7552776243391
 21
-45.94715719870536
 31
0.0
  0
LINE
  5
F7
  8
0
  6
CONTINUOUS
 62
     3
 10
125.4524276634309
 20
63.02666585298658
 30
0.0
 11
243.3759226894177
 21
63.02666585298658
 31
0.0
  0
LINE
  5
F8
  8
0
  6
CONTINUOUS
 62
     3
 10
249.3738666392711
 20
57.18372754283257
 30
0.0
 11
251.9677670875548
 21
-41.87333414701354
 31
0.0
  0
LINE
  5
F9
  8
0
  6
CONTINUOUS
 62
     3
 10
119.4544837135776
 20
57.18372754283382
 30
0.0
 11
116.8605832652938
 21
-41.87333414701422
 31
0.0
  0
ARC
  5
FA
  8
0
  6
CONTINUOUS
 62
     3
 10
115.7549349493146
 20
-45.9733341470135
 30
0.0
 40
1.0
 50
90.0
 51
178.4999999999818
  0
ARC
  5
FB
  8
0
  6
CONTINUOUS
 62
     3
 10
115.8052500375076
 20
-43.9733341470135
 30
0.0
 40
1.0
 50
270.0
 51
291.0341997948833
  0
ARC
  5
FC
  8
0
  6
CONTINUOUS
 62
     3
 10
125.4524276634309
 20
57.02666585298658
 30
0.0
 40
6.0
 50
90.0
 51
178.5000000000001
  0
ARC
  5
FD
  8
0
  6
CONTINUOUS
 62
     3
 10
243.3759226894177
 20
57.02666585298641
 30
0.0
 40
6.0
 50
1.499999999989697
 51
90.0
  0
ARC
  5
FE
  8
0
  6
CONTINUOUS
 62
     3
 10
-127.267270379365
 20
139.0369069033234
 30
0.0
 40
8.365231732005183
 50
94.76600101173479
 51
175.23399898827
  0
ARC
  5
FF
  8
0
  6
CONTINUOUS
 62
     3
 10
-141.5828319920403
 20
140.2304639517752
 30
0.0
 40
6.0
 50
270.0
 51
355.2339989882695
  0
ARC
  5
100
  8
0
  6
CONTINUOUS
 62
     3
 10
-128.460827427818
 20
153.3524685159985
 30
0.0
 40
6.0
 50
274.7660010117348
 51
0.0
  0
ARC
  5
101
  8
0
  6
CONTINUOUS
 62
     3
 10
-128.460827427818
 20
244.7218368645989
 30
0.0
 40
6.0
 50
0.0
 51
85.2339989882652
  0
ARC
  5
102
  8
0
  6
CONTINUOUS
 62
     3
 10
-127.267270379365
 20
259.0373984772739
 30
0.0
 40
8.365231732005183
 50
184.7660010117299
 51
265.2339989882652
  0
ARC
  5
103
  8
0
  6
CONTINUOUS
 62
     3
 10
-141.5828319920403
 20
257.8438414288221
 30
0.0
 40
6.0
 50
4.766001011730523
 51
90.0
  0
ARC
  5
104
  8
0
  6
CONTINUOUS
 62
     3
 10
-286.0742049048627
 20
244.7218368645989
 30
0.0
 40
6.0
 50
94.76600101173466
 51
180.0
  0
ARC
  5
105
  8
0
  6
CONTINUOUS
 62
     3
 10
-287.2677619533156
 20
259.0373984772739
 30
0.0
 40
8.365231732005183
 50
274.7660010117348
 51
355.2339989882699
  0
ARC
  5
106
  8
0
  6
CONTINUOUS
 62
     3
 10
-272.9522003406404
 20
257.8438414288221
 30
0.0
 40
6.0
 50
90.0
 51
175.2339989882695
  0
ARC
  5
107
  8
0
  6
CONTINUOUS
 62
     3
 10
-286.0742049048627
 20
153.3524685159985
 30
0.0
 40
6.0
 50
180.0
 51
265.2339989882653
  0
ARC
  5
108
  8
0
  6
CONTINUOUS
 62
     3
 10
-287.2677619533156
 20
139.0369069033234
 30
0.0
 40
8.365231732005183
 50
4.766001011729969
 51
85.2339989882652
  0
ARC
  5
109
  8
0
  6
CONTINUOUS
 62
     3
 10
-272.9522003406404
 20
140.2304639517752
 30
0.0
 40
6.0
 50
184.7660010117304
 51
270.0
  0
LINE
  5
10A
  8
0
  6
CONTINUOUS
 62
     3
 10
-272.9522003406408
 20
263.8438414288221
 30
0.0
 11
-141.58283199204
 21
263.8438414288221
 31
0.0
  0
LINE
  5
10B
  8
0
  6
CONTINUOUS
 62
     3
 10
-272.9522003406408
 20
134.2304639517752
 30
0.0
 11
-141.58283199204
 21
134.2304639517752
 31
0.0
  0
LINE
  5
10C
  8
0
  6
CONTINUOUS
 62
     3
 10
-122.460827427818
 20
244.7218368645989
 30
0.0
 11
-122.460827427818
 21
153.3524685159985
 31
0.0
  0
LINE
  5
10D
  8
0
  6
CONTINUOUS
 62
     3
 10
-292.0742049048626
 20
244.7218368645989
 30
0.0
 11
-292.0742049048626
 21
153.3524685159985
 31
0.0
  0
LINE
  5
10E
  8
0
  6
CONTINUOUS
 62
     3
 10
-116.2675161663404
 20
-58.97333414701379
 30
0.0
 11
-116.2675161663404
 21
-59.97333414701379
 31
0.0
  0
LINE
  5
10F
  8
0
  6
CONTINUOUS
 62
     3
 10
-298.2675161663404
 20
-58.97333414701345
 30
0.0
 11
-298.2675161663404
 21
-59.97333414701345
 31
0.0
  0
LINE
  5
110
  8
0
  6
CONTINUOUS
 62
     3
 10
114.4141751764244
 20
-58.97333414701362
 30
0.0
 11
114.4141751764244
 21
-59.97333414701362
 31
0.0
  0
LINE
  5
111
  8
0
  6
CONTINUOUS
 62
     3
 10
-298.2675161663404
 20
-59.97333414701379
 30
0.0
 11
-116.2675161663404
 21
-59.97333414701379
 31
0.0
  0
LINE
  5
112
  8
0
  6
CONTINUOUS
 62
     3
 10
-242.2675161663404
 20
-158.4733341470138
 30
0.0
 11
-152.2675161663404
 21
-158.4733341470138
 31
0.0
  0
LINE
  5
113
  8
0
  6
CONTINUOUS
 62
     3
 10
-298.2675161663403
 20
-59.97333414701407
 30
0.0
 11
-298.0566578587563
 21
-68.02568804362951
 31
0.0
  0
ARC
  5
114
  8
0
  6
CONTINUOUS
 62
     3
 10
-296.0573432088052
 20
-67.97333414701407
 30
0.0
 40
2.0
 50
181.4999999999915
 51
270.0
  0
LINE
  5
115
  8
0
  6
CONTINUOUS
 62
     3
 10
-119.2108949278129
 20
-96.97333414701404
 30
0.0
 11
-123.8404917484858
 21
-96.97333414701404
 31
0.0
  0
LINE
  5
116
  8
0
  6
CONTINUOUS
 62
     3
 10
-116.2675161663404
 20
-59.97333414701379
 30
0.0
 11
-117.1854122997404
 21
-95.02637327625467
 31
0.0
  0
ARC
  5
117
  8
0
  6
CONTINUOUS
 62
     3
 10
-119.2108949278129
 20
-94.97333414701404
 30
0.0
 40
2.0
 50
270.0
 51
358.4999999999387
  0
ARC
  5
118
  8
0
  6
CONTINUOUS
 62
     3
 10
-118.4776891238755
 20
-67.97333414701293
 30
0.0
 40
2.0
 50
270.0
 51
358.5000000001145
  0
LINE
  5
119
  8
0
  6
CONTINUOUS
 62
     3
 10
-152.2675161663404
 20
-158.4733341470138
 30
0.0
 11
-152.2675161663404
 21
-150.4733341470139
 31
0.0
  0
LINE
  5
11A
  8
0
  6
CONTINUOUS
 62
     3
 10
-242.2675161663404
 20
-158.4733341470138
 30
0.0
 11
-242.2675161663404
 21
-150.4733341470136
 31
0.0
  0
LINE
  5
11B
  8
0
  6
CONTINUOUS
 62
     3
 10
-240.2675161663404
 20
-148.4733341470136
 30
0.0
 11
-154.2675161663404
 21
-148.4733341470136
 31
0.0
  0
ARC
  5
11C
  8
0
  6
CONTINUOUS
 62
     3
 10
-240.2675161663404
 20
-150.4733341470136
 30
0.0
 40
2.0
 50
90.0
 51
180.0
  0
ARC
  5
11D
  8
0
  6
CONTINUOUS
 62
     3
 10
-154.2675161663404
 20
-150.4733341470139
 30
0.0
 40
2.0
 50
0.0
 51
90.0
  0
LINE
  5
11E
  8
0
  6
CONTINUOUS
 62
     3
 10
-129.1319943706144
 20
-98.97333414701404
 30
0.0
 11
-277.4178725791893
 21
-98.97333414701404
 31
0.0
  0
LINE
  5
11F
  8
0
  6
CONTINUOUS
 62
     3
 10
-261.0734457690201
 20
-109.973334147014
 30
0.0
 11
-235.0734457690195
 21
-109.973334147014
 31
0.0
  0
LINE
  5
120
  8
0
  6
CONTINUOUS
 62
     3
 10
-122.5786623276856
 20
-71.92098025039806
 30
0.0
 11
-123.134050420761
 21
-93.13039583685978
 31
0.0
  0
ARC
  5
121
  8
0
  6
CONTINUOUS
 62
     3
 10
-120.5793476777345
 20
-71.97333414701413
 30
0.0
 40
2.0
 50
90.0
 51
178.4999999999907
  0
LINE
  5
122
  8
0
  6
CONTINUOUS
 62
     3
 10
-224.4158044629772
 20
-115.4832065176972
 30
0.0
 11
-223.686284513741
 21
-143.342449405472
 31
0.0
  0
LINE
  5
123
  8
0
  6
CONTINUOUS
 62
     3
 10
-170.1192278697037
 20
-115.4832065176972
 30
0.0
 11
-170.8487478189399
 21
-143.342449405472
 31
0.0
  0
LINE
  5
124
  8
0
  6
CONTINUOUS
 62
     3
 10
-166.6647138429608
 20
-100.4556960568094
 30
0.0
 11
-169.4445978959739
 21
-110.830364581805
 31
0.0
  0
ARC
  5
125
  8
0
  6
CONTINUOUS
 62
     3
 10
-229.8021701422983
 20
-100.973334147014
 30
0.0
 40
2.0
 50
14.99999999999516
 51
90.0
  0
ARC
  5
126
  8
0
  6
CONTINUOUS
 62
     3
 10
-164.7328621903826
 20
-100.9733341470146
 30
0.0
 40
2.0
 50
90.0
 51
164.9999999999975
  0
LINE
  5
127
  8
0
  6
CONTINUOUS
 62
     3
 10
-288.5659528067986
 20
-69.97333414701407
 30
0.0
 11
-284.3267190972626
 21
-94.01522321301547
 31
0.0
  0
ARC
  5
128
  8
0
  6
CONTINUOUS
 62
     3
 10
-228.6845711386188
 20
-143.4733341470136
 30
0.0
 40
5.0
 50
270.0
 51
1.500000000027183
  0
ARC
  5
129
  8
0
  6
CONTINUOUS
 62
     3
 10
-165.850461194062
 20
-143.4733341470138
 30
0.0
 40
5.0
 50
178.4999999999715
 51
270.0
  0
ARC
  5
12A
  8
0
  6
CONTINUOUS
 62
     3
 10
-278.4178725791893
 20
-92.97333414701407
 30
0.0
 40
6.000000000000001
 50
189.9999999999984
 51
270.0
  0
ARC
  5
12B
  8
0
  6
CONTINUOUS
 62
     3
 10
-129.1319943706144
 20
-92.97333414701362
 30
0.0
 40
6.000000000000001
 50
270.0
 51
358.5000000000103
  0
LINE
  5
12C
  8
0
  6
CONTINUOUS
 62
     3
 10
-289.2675161663405
 20
-65.97333414701379
 30
0.0
 11
-125.2675161663405
 21
-65.97333414701379
 31
0.0
  0
LINE
  5
12D
  8
0
  6
CONTINUOUS
 62
     3
 10
-296.0573432088052
 20
-69.97333414701407
 30
0.0
 11
-270.3203219753163
 21
-69.97333414701407
 31
0.0
  0
LINE
  5
12E
  8
0
  6
CONTINUOUS
 62
     3
 10
-144.2147103573649
 20
-69.97333414701407
 30
0.0
 11
-118.4776891238755
 21
-69.97333414701407
 31
0.0
  0
LINE
  5
12F
  8
0
  6
CONTINUOUS
 62
     3
 10
-270.3203219753163
 20
-69.97333414701407
 30
0.0
 11
-270.3203219753163
 21
-65.97333414701379
 31
0.0
  0
LINE
  5
130
  8
0
  6
CONTINUOUS
 62
     3
 10
-144.2147103573649
 20
-69.97333414701407
 30
0.0
 11
-144.2147103573649
 21
-65.97333414701379
 31
0.0
  0
LINE
  5
131
  8
0
  6
CONTINUOUS
 62
     3
 10
-220.2675161663404
 20
-168.9733341470138
 30
0.0
 11
-174.2675161663404
 21
-168.9733341470138
 31
0.0
  0
LINE
  5
132
  8
0
  6
CONTINUOUS
 62
     3
 10
-174.2675161663404
 20
-168.9733341470138
 30
0.0
 11
-167.2675161663406
 21
-161.973334147014
 31
0.0
  0
LINE
  5
133
  8
0
  6
CONTINUOUS
 62
     3
 10
-220.2675161663404
 20
-168.9733341470138
 30
0.0
 11
-227.2675161663404
 21
-161.9733341470137
 31
0.0
  0
LINE
  5
134
  8
0
  6
CONTINUOUS
 62
     3
 10
-167.2675161663406
 20
-158.4733341470138
 30
0.0
 11
-167.2675161663406
 21
-161.973334147014
 31
0.0
  0
LINE
  5
135
  8
0
  6
CONTINUOUS
 62
     3
 10
-227.2675161663404
 20
-158.4733341470138
 30
0.0
 11
-227.2675161663404
 21
-161.9733341470137
 31
0.0
  0
LINE
  5
136
  8
0
  6
CONTINUOUS
 62
     3
 10
-193.2675161663404
 20
-166.9733341470138
 30
0.0
 11
-193.2675161663404
 21
-158.4733341470138
 31
0.0
  0
LINE
  5
137
  8
0
  6
CONTINUOUS
 62
     3
 10
-201.2675161663404
 20
-166.9733341470138
 30
0.0
 11
-201.2675161663404
 21
-158.4733341470138
 31
0.0
  0
LINE
  5
138
  8
0
  6
CONTINUOUS
 62
     3
 10
-201.2675161663404
 20
-161.973334147014
 30
0.0
 11
-193.2675161663404
 21
-161.973334147014
 31
0.0
  0
LINE
  5
139
  8
0
  6
CONTINUOUS
 62
     3
 10
-215.4628850832231
 20
-158.4733341470138
 30
0.0
 11
-215.4628850832231
 21
-161.9733341470137
 31
0.0
  0
LINE
  5
13A
  8
0
  6
CONTINUOUS
 62
     3
 10
-221.1197393327156
 20
-158.4733341470138
 30
0.0
 11
-221.1197393327156
 21
-161.9733341470137
 31
0.0
  0
LINE
  5
13B
  8
0
  6
CONTINUOUS
 62
     3
 10
-210.4547064196417
 20
-166.9733341470138
 30
0.0
 11
-215.4628850832231
 21
-161.9733341470137
 31
0.0
  0
LINE
  5
13C
  8
0
  6
CONTINUOUS
 62
     3
 10
-216.1115606691343
 20
-166.9733341470138
 30
0.0
 11
-221.1197393327156
 21
-161.9733341470137
 31
0.0
  0
LINE
  5
13D
  8
0
  6
CONTINUOUS
 62
     3
 10
-201.2675161663404
 20
-166.9733341470138
 30
0.0
 11
-210.4547064196417
 21
-166.9733341470138
 31
0.0
  0
LINE
  5
13E
  8
0
  6
CONTINUOUS
 62
     3
 10
-216.1115606691342
 20
-166.9733341470138
 30
0.0
 11
-222.2675161663404
 21
-166.9733341470138
 31
0.0
  0
LINE
  5
13F
  8
0
  6
CONTINUOUS
 62
     3
 10
-215.4628850832231
 20
-161.9733341470137
 30
0.0
 11
-221.1197393327156
 21
-161.9733341470137
 31
0.0
  0
LINE
  5
140
  8
0
  6
CONTINUOUS
 62
     3
 10
-179.0721472494576
 20
-158.4733341470138
 30
0.0
 11
-179.0721472494576
 21
-161.9733341470137
 31
0.0
  0
LINE
  5
141
  8
0
  6
CONTINUOUS
 62
     3
 10
-173.415292999965
 20
-158.4733341470138
 30
0.0
 11
-173.415292999965
 21
-161.9733341470137
 31
0.0
  0
LINE
  5
142
  8
0
  6
CONTINUOUS
 62
     3
 10
-184.0803259130389
 20
-166.9733341470138
 30
0.0
 11
-179.0721472494576
 21
-161.9733341470137
 31
0.0
  0
LINE
  5
143
  8
0
  6
CONTINUOUS
 62
     3
 10
-178.4234716635464
 20
-166.9733341470138
 30
0.0
 11
-173.415292999965
 21
-161.9733341470137
 31
0.0
  0
LINE
  5
144
  8
0
  6
CONTINUOUS
 62
     3
 10
-179.0721472494576
 20
-161.9733341470137
 30
0.0
 11
-173.415292999965
 21
-161.9733341470137
 31
0.0
  0
LINE
  5
145
  8
0
  6
CONTINUOUS
 62
     3
 10
-172.2675161663404
 20
-166.9733341470138
 30
0.0
 11
-178.4234716635464
 21
-166.9733341470138
 31
0.0
  0
LINE
  5
146
  8
0
  6
CONTINUOUS
 62
     3
 10
-184.0803259130389
 20
-166.9733341470138
 30
0.0
 11
-193.2675161663404
 21
-166.9733341470138
 31
0.0
  0
ARC
  5
147
  8
0
  6
CONTINUOUS
 62
     3
 10
-261.0734457690201
 20
-107.973334147014
 30
0.0
 40
2.0
 50
180.0
 51
270.0
  0
ARC
  5
148
  8
0
  6
CONTINUOUS
 62
     3
 10
-235.0734457690195
 20
-107.973334147014
 30
0.0
 40
2.0
 50
270.0
 51
0.0
  0
ARC
  5
149
  8
0
  6
CONTINUOUS
 62
     3
 10
-265.0734457690201
 20
-100.973334147014
 30
0.0
 40
2.0
 50
0.0
 51
90.0
  0
ARC
  5
14A
  8
0
  6
CONTINUOUS
 62
     3
 10
-231.0734457690195
 20
-100.973334147014
 30
0.0
 40
2.0
 50
90.0
 51
180.0
  0
LINE
  5
14B
  8
0
  6
CONTINUOUS
 62
     3
 10
-233.0734457690195
 20
-100.973334147014
 30
0.0
 11
-233.0734457690195
 21
-107.973334147014
 31
0.0
  0
LINE
  5
14C
  8
0
  6
CONTINUOUS
 62
     3
 10
-263.0734457690201
 20
-107.973334147014
 30
0.0
 11
-263.0734457690201
 21
-100.973334147014
 31
0.0
  0
ARC
  5
14D
  8
0
  6
CONTINUOUS
 62
     3
 10
-244.4089509624883
 20
-116.0067454838545
 30
0.0
 40
20.0
 50
1.49999999999946
 51
12.98821098016134
  0
ARC
  5
14E
  8
0
  6
CONTINUOUS
 62
     3
 10
-150.1260813701925
 20
-116.0067454838554
 30
0.0
 40
20.0
 50
165.0000000000001
 51
178.499999999998
  0
LINE
  5
14F
  8
0
  6
CONTINUOUS
 62
     3
 10
-192.2675161663405
 20
-102.6567093566586
 30
0.0
 11
-192.2675161663405
 21
-100.973334147014
 31
0.0
  0
LINE
  5
150
  8
0
  6
CONTINUOUS
 62
     3
 10
-202.2675161663402
 20
-102.6567093566584
 30
0.0
 11
-202.2675161663402
 21
-100.973334147014
 31
0.0
  0
ARC
  5
151
  8
0
  6
CONTINUOUS
 62
     3
 10
-204.2675161663402
 20
-100.973334147014
 30
0.0
 40
2.0
 50
0.0
 51
90.0
  0
ARC
  5
152
  8
0
  6
CONTINUOUS
 62
     3
 10
-190.2675161663405
 20
-100.973334147014
 30
0.0
 40
2.0
 50
90.0
 51
180.0
  0
LINE
  5
153
  8
0
  6
CONTINUOUS
 62
     3
 10
139.4141751764242
 20
-158.4733341470136
 30
0.0
 11
229.4141751764242
 21
-158.4733341470136
 31
0.0
  0
LINE
  5
154
  8
0
  6
CONTINUOUS
 62
     3
 10
114.4141751764244
 20
-59.97333414701367
 30
0.0
 11
114.6250334840084
 21
-68.02568804362934
 31
0.0
  0
ARC
  5
155
  8
0
  6
CONTINUOUS
 62
     3
 10
116.6243481339596
 20
-67.97333414701362
 30
0.0
 40
2.0
 50
181.4999999999998
 51
270.0
  0
ARC
  5
156
  8
0
  6
CONTINUOUS
 62
     3
 10
227.4141751764242
 20
-150.4733341470138
 30
0.0
 40
2.0
 50
0.0
 51
90.00000000000043
  0
LINE
  5
157
  8
0
  6
CONTINUOUS
 62
     3
 10
229.4141751764242
 20
-158.4733341470136
 30
0.0
 11
229.4141751764242
 21
-150.4733341470138
 31
0.0
  0
LINE
  5
158
  8
0
  6
CONTINUOUS
 62
     3
 10
139.4141751764242
 20
-158.4733341470136
 30
0.0
 11
139.4141751764242
 21
-150.4733341470135
 31
0.0
  0
ARC
  5
159
  8
0
  6
CONTINUOUS
 62
     3
 10
141.4141751764243
 20
-150.4733341470135
 30
0.0
 40
2.0
 50
90.0
 51
180.0
  0
LINE
  5
15A
  8
0
  6
CONTINUOUS
 62
     3
 10
227.4141751764242
 20
-148.4733341470128
 30
0.0
 11
141.4141751764243
 21
-148.4733341470136
 31
0.0
  0
LINE
  5
15B
  8
0
  6
CONTINUOUS
 62
     3
 10
116.6243481339596
 20
-69.9733341470135
 30
0.0
 11
131.4141751764243
 21
-69.97333414701389
 31
0.0
  0
LINE
  5
15C
  8
0
  6
CONTINUOUS
 62
     3
 10
157.331093166586
 20
-117.9733341470136
 30
0.0
 11
157.9954068290237
 21
-143.342449405474
 31
0.0
  0
LINE
  5
15D
  8
0
  6
CONTINUOUS
 62
     3
 10
211.4972571862624
 20
-117.9733341470136
 30
0.0
 11
210.8329435238247
 21
-143.3424494054744
 31
0.0
  0
LINE
  5
15E
  8
0
  6
CONTINUOUS
 62
     3
 10
128.354972245502
 20
-94.01522321301599
 30
0.0
 11
124.4071547796357
 21
-71.62603779167969
 31
0.0
  0
ARC
  5
15F
  8
0
  6
CONTINUOUS
 62
     3
 10
152.9971202041459
 20
-143.4733341470136
 30
0.0
 40
5.0
 50
270.0
 51
1.500000000002706
  0
ARC
  5
160
  8
0
  6
CONTINUOUS
 62
     3
 10
215.8312301487025
 20
-143.4733341470136
 30
0.0
 40
5.0
 50
178.5000000000001
 51
270.0
  0
ARC
  5
161
  8
0
  6
CONTINUOUS
 62
     3
 10
134.2638187635752
 20
-92.97333414701458
 30
0.0
 40
6.000000000000001
 50
189.9999999999984
 51
241.6445175683635
  0
ARC
  5
162
  8
0
  6
CONTINUOUS
 62
     3
 10
122.4375392736114
 20
-71.97333414701356
 30
0.0
 40
2.0
 50
10.00000000000035
 51
90.0
  0
LINE
  5
163
  8
0
  6
CONTINUOUS
 62
     3
 10
161.4141751764243
 20
-168.9733341470136
 30
0.0
 11
207.4141751764243
 21
-168.9733341470136
 31
0.0
  0
LINE
  5
164
  8
0
  6
CONTINUOUS
 62
     3
 10
207.4141751764243
 20
-168.9733341470136
 30
0.0
 11
214.414175176424
 21
-161.9733341470138
 31
0.0
  0
LINE
  5
165
  8
0
  6
CONTINUOUS
 62
     3
 10
161.4141751764243
 20
-168.9733341470136
 30
0.0
 11
154.4141751764242
 21
-161.9733341470135
 31
0.0
  0
LINE
  5
166
  8
0
  6
CONTINUOUS
 62
     3
 10
214.414175176424
 20
-158.4733341470136
 30
0.0
 11
214.414175176424
 21
-161.9733341470138
 31
0.0
  0
LINE
  5
167
  8
0
  6
CONTINUOUS
 62
     3
 10
154.4141751764242
 20
-158.4733341470136
 30
0.0
 11
154.4141751764242
 21
-161.9733341470135
 31
0.0
  0
LINE
  5
168
  8
0
  6
CONTINUOUS
 62
     3
 10
188.4141751764242
 20
-166.9733341470136
 30
0.0
 11
188.4141751764242
 21
-158.4733341470136
 31
0.0
  0
LINE
  5
169
  8
0
  6
CONTINUOUS
 62
     3
 10
180.4141751764242
 20
-166.9733341470136
 30
0.0
 11
180.4141751764242
 21
-158.4733341470136
 31
0.0
  0
LINE
  5
16A
  8
0
  6
CONTINUOUS
 62
     3
 10
180.4141751764242
 20
-161.9733341470138
 30
0.0
 11
188.4141751764242
 21
-161.9733341470138
 31
0.0
  0
LINE
  5
16B
  8
0
  6
CONTINUOUS
 62
     3
 10
166.2188062595415
 20
-158.4733341470136
 30
0.0
 11
166.2188062595415
 21
-161.9733341470135
 31
0.0
  0
LINE
  5
16C
  8
0
  6
CONTINUOUS
 62
     3
 10
160.561952010049
 20
-158.4733341470136
 30
0.0
 11
160.561952010049
 21
-161.9733341470135
 31
0.0
  0
LINE
  5
16D
  8
0
  6
CONTINUOUS
 62
     3
 10
171.2269849231229
 20
-166.9733341470136
 30
0.0
 11
166.2188062595415
 21
-161.9733341470135
 31
0.0
  0
LINE
  5
16E
  8
0
  6
CONTINUOUS
 62
     3
 10
165.5701306736303
 20
-166.9733341470136
 30
0.0
 11
160.561952010049
 21
-161.9733341470135
 31
0.0
  0
LINE
  5
16F
  8
0
  6
CONTINUOUS
 62
     3
 10
180.4141751764242
 20
-166.9733341470136
 30
0.0
 11
171.2269849231229
 21
-166.9733341470136
 31
0.0
  0
LINE
  5
170
  8
0
  6
CONTINUOUS
 62
     3
 10
165.5701306736303
 20
-166.9733341470136
 30
0.0
 11
159.4141751764243
 21
-166.9733341470136
 31
0.0
  0
LINE
  5
171
  8
0
  6
CONTINUOUS
 62
     3
 10
166.2188062595415
 20
-161.9733341470135
 30
0.0
 11
160.561952010049
 21
-161.9733341470135
 31
0.0
  0
LINE
  5
172
  8
0
  6
CONTINUOUS
 62
     3
 10
202.6095440933071
 20
-158.4733341470136
 30
0.0
 11
202.6095440933071
 21
-161.9733341470135
 31
0.0
  0
LINE
  5
173
  8
0
  6
CONTINUOUS
 62
     3
 10
208.2663983427995
 20
-158.4733341470136
 30
0.0
 11
208.2663983427995
 21
-161.9733341470135
 31
0.0
  0
LINE
  5
174
  8
0
  6
CONTINUOUS
 62
     3
 10
197.6013654297256
 20
-166.9733341470136
 30
0.0
 11
202.6095440933071
 21
-161.9733341470135
 31
0.0
  0
LINE
  5
175
  8
0
  6
CONTINUOUS
 62
     3
 10
203.2582196792183
 20
-166.9733341470136
 30
0.0
 11
208.2663983427995
 21
-161.9733341470135
 31
0.0
  0
LINE
  5
176
  8
0
  6
CONTINUOUS
 62
     3
 10
202.6095440933071
 20
-161.9733341470135
 30
0.0
 11
208.2663983427995
 21
-161.9733341470135
 31
0.0
  0
LINE
  5
177
  8
0
  6
CONTINUOUS
 62
     3
 10
209.4141751764243
 20
-166.9733341470136
 30
0.0
 11
203.2582196792183
 21
-166.9733341470136
 31
0.0
  0
LINE
  5
178
  8
0
  6
CONTINUOUS
 62
     3
 10
197.6013654297256
 20
-166.9733341470136
 30
0.0
 11
188.4141751764242
 21
-166.9733341470136
 31
0.0
  0
LINE
  5
179
  8
0
  6
CONTINUOUS
 62
     3
 10
-218.2675161663403
 20
-212.4733341470138
 30
0.0
 11
-176.2675161663405
 21
-212.4733341470138
 31
0.0
  0
LINE
  5
17A
  8
0
  6
CONTINUOUS
 62
     3
 10
-218.2675161663403
 20
-228.4733341470138
 30
0.0
 11
-176.2675161663405
 21
-228.4733341470138
 31
0.0
  0
LINE
  5
17B
  8
0
  6
CONTINUOUS
 62
     3
 10
-175.2675161663405
 20
-213.4733341470138
 30
0.0
 11
-175.2675161663405
 21
-227.4733341470138
 31
0.0
  0
LINE
  5
17C
  8
0
  6
CONTINUOUS
 62
     3
 10
-219.2675161663403
 20
-213.4733341470138
 30
0.0
 11
-219.2675161663403
 21
-227.4733341470138
 31
0.0
  0
LINE
  5
17D
  8
0
  6
CONTINUOUS
 62
     3
 10
-214.7675161663404
 20
-212.4733341470138
 30
0.0
 11
-214.7675161663404
 21
-168.9733341470138
 31
0.0
  0
LINE
  5
17E
  8
0
  6
CONTINUOUS
 62
     3
 10
-179.7675161663405
 20
-168.9733341470138
 30
0.0
 11
-179.7675161663405
 21
-212.4733341470138
 31
0.0
  0
LINE
  5
17F
  8
0
  6
CONTINUOUS
 62
     3
 10
163.4141751764243
 20
-212.4733341470136
 30
0.0
 11
205.4141751764242
 21
-212.4733341470136
 31
0.0
  0
LINE
  5
180
  8
0
  6
CONTINUOUS
 62
     3
 10
163.4141751764243
 20
-228.4733341470135
 30
0.0
 11
205.4141751764242
 21
-228.4733341470135
 31
0.0
  0
LINE
  5
181
  8
0
  6
CONTINUOUS
 62
     3
 10
206.4141751764242
 20
-213.4733341470136
 30
0.0
 11
206.4141751764242
 21
-227.4733341470135
 31
0.0
  0
LINE
  5
182
  8
0
  6
CONTINUOUS
 62
     3
 10
162.4141751764243
 20
-213.4733341470136
 30
0.0
 11
162.4141751764243
 21
-227.4733341470135
 31
0.0
  0
LINE
  5
183
  8
0
  6
CONTINUOUS
 62
     3
 10
192.4141751764243
 20
-228.4733341470135
 30
0.0
 11
192.4141751764243
 21
-233.9733341470136
 31
0.0
  0
LINE
  5
184
  8
0
  6
CONTINUOUS
 62
     3
 10
176.4141751764242
 20
-228.4733341470135
 30
0.0
 11
176.4141751764242
 21
-233.9733341470136
 31
0.0
  0
LINE
  5
185
  8
0
  6
CONTINUOUS
 62
     3
 10
176.4141751764242
 20
-229.4733341470136
 30
0.0
 11
192.4141751764243
 21
-229.4733341470136
 31
0.0
  0
LINE
  5
186
  8
0
  6
CONTINUOUS
 62
     3
 10
176.4141751764242
 20
-230.4733341470135
 30
0.0
 11
192.4141751764243
 21
-230.4733341470135
 31
0.0
  0
LINE
  5
187
  8
0
  6
CONTINUOUS
 62
     3
 10
201.9141751764242
 20
-168.9733341470136
 30
0.0
 11
201.9141751764242
 21
-212.4733341470137
 31
0.0
  0
LINE
  5
188
  8
0
  6
CONTINUOUS
 62
     3
 10
166.9141751764242
 20
-212.4733341470136
 30
0.0
 11
166.9141751764242
 21
-168.9733341470136
 31
0.0
  0
LINE
  5
189
  8
0
  6
CONTINUOUS
 62
     3
 10
-252.0734457690197
 20
-117.9733341470141
 30
0.0
 11
-244.0734457690198
 21
-117.9733341470141
 31
0.0
  0
LINE
  5
18A
  8
0
  6
CONTINUOUS
 62
     3
 10
-243.0734457690198
 20
-116.9733341470141
 30
0.0
 11
-243.0734457690198
 21
-110.473334147014
 31
0.0
  0
LINE
  5
18B
  8
0
  6
CONTINUOUS
 62
     3
 10
-253.0734457690198
 20
-116.9733341470141
 30
0.0
 11
-253.0734457690198
 21
-110.4733341470142
 31
0.0
  0
LINE
  5
18C
  8
0
  6
CONTINUOUS
 62
     3
 10
-248.7805525502062
 20
-116.973334147014
 30
0.0
 11
-248.7805525502062
 21
-110.4733341470142
 31
0.0
  0
LINE
  5
18D
  8
0
  6
CONTINUOUS
 62
     3
 10
-247.3663389878333
 20
-116.9733341470141
 30
0.0
 11
-247.3663389878333
 21
-110.4733341470142
 31
0.0
  0
LINE
  5
18E
  8
0
  6
CONTINUOUS
 62
     3
 10
-253.0734457690198
 20
-116.9733341470141
 30
0.0
 11
-252.0734457690197
 21
-117.9733341470141
 31
0.0
  0
LINE
  5
18F
  8
0
  6
CONTINUOUS
 62
     3
 10
-244.0734457690198
 20
-117.9733341470141
 30
0.0
 11
-243.0734457690198
 21
-116.9733341470141
 31
0.0
  0
LINE
  5
190
  8
0
  6
CONTINUOUS
 62
     3
 10
-248.7805525502062
 20
-116.9733341470141
 30
0.0
 11
-247.3663389878333
 21
-116.9733341470141
 31
0.0
  0
LINE
  5
191
  8
0
  6
CONTINUOUS
 62
     3
 10
-253.0734457690198
 20
-110.4733341470142
 30
0.0
 11
-243.0734457690199
 21
-110.4733341470142
 31
0.0
  0
ARC
  5
192
  8
0
  6
CONTINUOUS
 62
     3
 10
-250.926999159613
 20
-115.1697176234973
 30
0.0
 40
2.803616523516803
 50
220.0396696777677
 51
319.9603303222329
  0
ARC
  5
193
  8
0
  6
CONTINUOUS
 62
     3
 10
-245.2198923784263
 20
-115.1697176234973
 30
0.0
 40
2.803616523516803
 50
220.039669677767
 51
319.9603303222323
  0
LINE
  5
194
  8
0
  6
CONTINUOUS
 62
     3
 10
-253.5734457690199
 20
-109.973334147014
 30
0.0
 11
-253.0734457690198
 21
-110.4733341470142
 31
0.0
  0
LINE
  5
195
  8
0
  6
CONTINUOUS
 62
     3
 10
-242.5734457690198
 20
-109.973334147014
 30
0.0
 11
-243.0734457690198
 21
-110.473334147014
 31
0.0
  0
LINE
  5
196
  8
0
  6
CONTINUOUS
 62
     3
 10
-218.2675161663403
 20
-212.4733341470138
 30
0.0
 11
-219.2675161663403
 21
-213.4733341470138
 31
0.0
  0
LINE
  5
197
  8
0
  6
CONTINUOUS
 62
     3
 10
-218.2675161663403
 20
-228.4733341470138
 30
0.0
 11
-219.2675161663403
 21
-227.4733341470138
 31
0.0
  0
LINE
  5
198
  8
0
  6
CONTINUOUS
 62
     3
 10
-176.2675161663405
 20
-212.4733341470138
 30
0.0
 11
-175.2675161663405
 21
-213.4733341470138
 31
0.0
  0
LINE
  5
199
  8
0
  6
CONTINUOUS
 62
     3
 10
-176.2675161663405
 20
-228.4733341470138
 30
0.0
 11
-175.2675161663405
 21
-227.4733341470138
 31
0.0
  0
LINE
  5
19A
  8
0
  6
CONTINUOUS
 62
     3
 10
205.4141751764242
 20
-212.4733341470136
 30
0.0
 11
206.4141751764242
 21
-213.4733341470136
 31
0.0
  0
LINE
  5
19B
  8
0
  6
CONTINUOUS
 62
     3
 10
205.4141751764242
 20
-228.4733341470135
 30
0.0
 11
206.4141751764242
 21
-227.4733341470135
 31
0.0
  0
LINE
  5
19C
  8
0
  6
CONTINUOUS
 62
     3
 10
163.4141751764243
 20
-212.4733341470136
 30
0.0
 11
162.4141751764243
 21
-213.4733341470136
 31
0.0
  0
LINE
  5
19D
  8
0
  6
CONTINUOUS
 62
     3
 10
163.4141751764243
 20
-228.4733341470135
 30
0.0
 11
162.4141751764243
 21
-227.4733341470135
 31
0.0
  0
LINE
  5
19E
  8
0
  6
CONTINUOUS
 62
     3
 10
-290.0175161663405
 20
-41.87333414701416
 30
0.0
 11
-288.5175161663405
 21
-43.37333414701416
 31
0.0
  0
LINE
  5
19F
  8
0
  6
CONTINUOUS
 62
     3
 10
-283.1675161663405
 20
-41.87333414701416
 30
0.0
 11
-295.3675161663405
 21
-41.87333414701416
 31
0.0
  0
LINE
  5
1A0
  8
0
  6
CONTINUOUS
 62
     3
 10
-283.1675161663405
 20
-41.87333414701416
 30
0.0
 11
-283.1675161663405
 21
-43.37333414701416
 31
0.0
  0
LINE
  5
1A1
  8
0
  6
CONTINUOUS
 62
     3
 10
-295.3675161663405
 20
-41.87333414701416
 30
0.0
 11
-295.3675161663405
 21
-43.37333414701416
 31
0.0
  0
LINE
  5
1A2
  8
0
  6
CONTINUOUS
 62
     3
 10
-283.0175161663405
 20
-43.37333414701416
 30
0.0
 11
-295.5175161663405
 21
-43.37333414701416
 31
0.0
  0
LINE
  5
1A3
  8
0
  6
CONTINUOUS
 62
     3
 10
-283.0175161663405
 20
-43.37333414701416
 30
0.0
 11
-283.0175161663405
 21
-44.97333414701419
 31
0.0
  0
LINE
  5
1A4
  8
0
  6
CONTINUOUS
 62
     3
 10
-295.5175161663405
 20
-43.37333414701416
 30
0.0
 11
-295.5175161663405
 21
-44.97333414701419
 31
0.0
  0
LINE
  5
1A5
  8
0
  6
CONTINUOUS
 62
     3
 10
-284.0175161663405
 20
-41.87333414701416
 30
0.0
 11
-284.1195712810142
 21
-39.92600655424278
 31
0.0
  0
LINE
  5
1A6
  8
0
  6
CONTINUOUS
 62
     3
 10
-294.5175161663405
 20
-41.87333414701416
 30
0.0
 11
-294.4154610516667
 21
-39.92600655424278
 31
0.0
  0
ARC
  5
1A7
  8
0
  6
CONTINUOUS
 62
     3
 10
-285.6006698952736
 20
-40.00362764351527
 30
0.0
 40
1.483131194015235
 50
3.0
 51
69.89841803380465
  0
ARC
  5
1A8
  8
0
  6
CONTINUOUS
 62
     3
 10
-292.9343624374073
 20
-40.00362764351527
 30
0.0
 40
1.483131194015235
 50
110.1015819661953
 51
177.0
  0
ARC
  5
1A9
  8
0
  6
CONTINUOUS
 62
     3
 10
-289.2675161663405
 20
-51.97333414701419
 30
0.0
 40
14.0
 50
72.64285714285714
 51
107.3571428571429
  0
LINE
  5
1AA
  8
0
  6
CONTINUOUS
 62
     3
 10
-126.0175161663402
 20
-41.87333414701359
 30
0.0
 11
-124.5175161663402
 21
-43.37333414701359
 31
0.0
  0
LINE
  5
1AB
  8
0
  6
CONTINUOUS
 62
     3
 10
-119.1675161663402
 20
-41.87333414701359
 30
0.0
 11
-131.3675161663402
 21
-41.87333414701359
 31
0.0
  0
LINE
  5
1AC
  8
0
  6
CONTINUOUS
 62
     3
 10
-119.1675161663402
 20
-41.87333414701359
 30
0.0
 11
-119.1675161663402
 21
-43.37333414701359
 31
0.0
  0
LINE
  5
1AD
  8
0
  6
CONTINUOUS
 62
     3
 10
-131.3675161663402
 20
-41.87333414701359
 30
0.0
 11
-131.3675161663402
 21
-43.37333414701359
 31
0.0
  0
LINE
  5
1AE
  8
0
  6
CONTINUOUS
 62
     3
 10
-119.0175161663402
 20
-43.37333414701359
 30
0.0
 11
-131.5175161663402
 21
-43.37333414701359
 31
0.0
  0
LINE
  5
1AF
  8
0
  6
CONTINUOUS
 62
     3
 10
-119.0175161663402
 20
-43.37333414701359
 30
0.0
 11
-119.0175161663402
 21
-44.97333414701362
 31
0.0
  0
LINE
  5
1B0
  8
0
  6
CONTINUOUS
 62
     3
 10
-131.5175161663402
 20
-43.37333414701359
 30
0.0
 11
-131.5175161663402
 21
-44.97333414701362
 31
0.0
  0
LINE
  5
1B1
  8
0
  6
CONTINUOUS
 62
     3
 10
-120.0175161663402
 20
-41.87333414701359
 30
0.0
 11
-120.119571281014
 21
-39.92600655424218
 31
0.0
  0
LINE
  5
1B2
  8
0
  6
CONTINUOUS
 62
     3
 10
-130.5175161663402
 20
-41.87333414701359
 30
0.0
 11
-130.4154610516665
 21
-39.92600655424218
 31
0.0
  0
ARC
  5
1B3
  8
0
  6
CONTINUOUS
 62
     3
 10
-121.6006698952734
 20
-40.0036276435147
 30
0.0
 40
1.483131194015235
 50
3.0
 51
69.89841803380465
  0
ARC
  5
1B4
  8
0
  6
CONTINUOUS
 62
     3
 10
-128.9343624374071
 20
-40.0036276435147
 30
0.0
 40
1.483131194015235
 50
110.1015819661953
 51
177.0
  0
ARC
  5
1B5
  8
0
  6
CONTINUOUS
 62
     3
 10
-125.2675161663402
 20
-51.97333414701362
 30
0.0
 40
14.0
 50
72.64285714285714
 51
107.3571428571429
  0
CIRCLE
  5
1B6
  8
0
  6
CONTINUOUS
 62
     3
 10
-289.2675161663405
 20
261.0371526902986
 30
0.0
 40
6.25
  0
CIRCLE
  5
1B7
  8
0
  6
CONTINUOUS
 62
     3
 10
-289.2675161663405
 20
261.0371526902986
 30
0.0
 40
5.25
  0
LINE
  5
1B8
  8
0
  6
CONTINUOUS
 62
     3
 10
-287.0401298056028
 20
263.2645390510363
 30
0.0
 11
-291.4949025270781
 21
258.809766329561
 31
0.0
  0
LINE
  5
1B9
  8
0
  6
CONTINUOUS
 62
     3
 10
-291.4949025270781
 20
263.2645390510363
 30
0.0
 11
-287.0401298056028
 21
258.809766329561
 31
0.0
  0
CIRCLE
  5
1BA
  8
0
  6
CONTINUOUS
 62
     3
 10
-289.2675161663405
 20
137.0371526902988
 30
0.0
 40
6.25
  0
CIRCLE
  5
1BB
  8
0
  6
CONTINUOUS
 62
     3
 10
-289.2675161663405
 20
137.0371526902988
 30
0.0
 40
5.25
  0
LINE
  5
1BC
  8
0
  6
CONTINUOUS
 62
     3
 10
-287.0401298056028
 20
139.2645390510364
 30
0.0
 11
-291.4949025270781
 21
134.8097663295611
 31
0.0
  0
LINE
  5
1BD
  8
0
  6
CONTINUOUS
 62
     3
 10
-291.4949025270781
 20
139.2645390510364
 30
0.0
 11
-287.0401298056028
 21
134.8097663295611
 31
0.0
  0
CIRCLE
  5
1BE
  8
0
  6
CONTINUOUS
 62
     3
 10
-125.2675161663404
 20
137.0371526902987
 30
0.0
 40
6.25
  0
CIRCLE
  5
1BF
  8
0
  6
CONTINUOUS
 62
     3
 10
-125.2675161663404
 20
137.0371526902987
 30
0.0
 40
5.25
  0
LINE
  5
1C0
  8
0
  6
CONTINUOUS
 62
     3
 10
-123.0401298056027
 20
139.2645390510363
 30
0.0
 11
-127.494902527078
 21
134.8097663295611
 31
0.0
  0
LINE
  5
1C1
  8
0
  6
CONTINUOUS
 62
     3
 10
-127.494902527078
 20
139.2645390510363
 30
0.0
 11
-123.0401298056027
 21
134.8097663295611
 31
0.0
  0
CIRCLE
  5
1C2
  8
0
  6
CONTINUOUS
 62
     3
 10
-125.2675161663402
 20
261.0371526902986
 30
0.0
 40
6.25
  0
CIRCLE
  5
1C3
  8
0
  6
CONTINUOUS
 62
     3
 10
-125.2675161663402
 20
261.0371526902986
 30
0.0
 40
5.25
  0
LINE
  5
1C4
  8
0
  6
CONTINUOUS
 62
     3
 10
-123.0401298056026
 20
263.2645390510363
 30
0.0
 11
-127.4949025270779
 21
258.809766329561
 31
0.0
  0
LINE
  5
1C5
  8
0
  6
CONTINUOUS
 62
     3
 10
-127.4949025270779
 20
263.2645390510363
 30
0.0
 11
-123.0401298056026
 21
258.809766329561
 31
0.0
  0
LINE
  5
1C6
  8
0
  6
CONTINUOUS
 62
     3
 10
121.6641751764243
 20
-41.87333414701439
 30
0.0
 11
123.1641751764243
 21
-43.37333414701439
 31
0.0
  0
LINE
  5
1C7
  8
0
  6
CONTINUOUS
 62
     3
 10
128.5141751764243
 20
-41.87333414701439
 30
0.0
 11
116.3141751764243
 21
-41.87333414701439
 31
0.0
  0
LINE
  5
1C8
  8
0
  6
CONTINUOUS
 62
     3
 10
128.5141751764243
 20
-41.87333414701439
 30
0.0
 11
128.5141751764243
 21
-43.37333414701439
 31
0.0
  0
LINE
  5
1C9
  8
0
  6
CONTINUOUS
 62
     3
 10
116.3141751764243
 20
-41.87333414701439
 30
0.0
 11
116.3141751764243
 21
-43.37333414701439
 31
0.0
  0
LINE
  5
1CA
  8
0
  6
CONTINUOUS
 62
     3
 10
128.6641751764243
 20
-43.37333414701439
 30
0.0
 11
116.1641751764243
 21
-43.37333414701439
 31
0.0
  0
LINE
  5
1CB
  8
0
  6
CONTINUOUS
 62
     3
 10
128.6641751764243
 20
-43.37333414701439
 30
0.0
 11
128.6641751764243
 21
-44.97333414701436
 31
0.0
  0
LINE
  5
1CC
  8
0
  6
CONTINUOUS
 62
     3
 10
116.1641751764243
 20
-43.37333414701439
 30
0.0
 11
116.1641751764243
 21
-44.97333414701436
 31
0.0
  0
LINE
  5
1CD
  8
0
  6
CONTINUOUS
 62
     3
 10
127.6641751764243
 20
-41.87333414701439
 30
0.0
 11
127.5621200617505
 21
-39.92600655424295
 31
0.0
  0
LINE
  5
1CE
  8
0
  6
CONTINUOUS
 62
     3
 10
117.1641751764243
 20
-41.87333414701439
 30
0.0
 11
117.266230291098
 21
-39.92600655424295
 31
0.0
  0
ARC
  5
1CF
  8
0
  6
CONTINUOUS
 62
     3
 10
126.0810214474911
 20
-40.0036276435155
 30
0.0
 40
1.483131194015235
 50
3.0
 51
69.89841803380465
  0
ARC
  5
1D0
  8
0
  6
CONTINUOUS
 62
     3
 10
118.7473289053574
 20
-40.0036276435155
 30
0.0
 40
1.483131194015235
 50
110.1015819661953
 51
177.0
  0
ARC
  5
1D1
  8
0
  6
CONTINUOUS
 62
     3
 10
122.4141751764243
 20
-51.97333414701436
 30
0.0
 40
14.0
 50
72.64285714285714
 51
107.3571428571429
  0
ARC
  5
1D2
  8
0
  6
CONTINUOUS
 62
     3
 10
176.847961807067
 20
219.2208637417632
 30
0.0
 40
10.0
 50
0.0
 51
90.0
  0
ARC
  5
1D3
  8
0
  6
CONTINUOUS
 62
     3
 10
176.8479618070671
 20
149.2208637417632
 30
0.0
 40
10.0
 50
270.0
 51
0.0
  0
ARC
  5
1D4
  8
0
  6
CONTINUOUS
 62
     3
 10
106.847961807067
 20
149.2208637417632
 30
0.0
 40
10.0
 50
180.0
 51
270.0
  0
ARC
  5
1D5
  8
0
  6
CONTINUOUS
 62
     3
 10
106.8479618070671
 20
219.2208637417632
 30
0.0
 40
10.0
 50
90.00000000000016
 51
180.0
  0
LINE
  5
1D6
  8
0
  6
CONTINUOUS
 62
     3
 10
106.8479618070671
 20
229.2208637417631
 30
0.0
 11
176.847961807067
 21
229.2208637417631
 31
0.0
  0
LINE
  5
1D7
  8
0
  6
CONTINUOUS
 62
     3
 10
186.847961807067
 20
149.2208637417632
 30
0.0
 11
186.847961807067
 21
219.2208637417632
 31
0.0
  0
LINE
  5
1D8
  8
0
  6
CONTINUOUS
 62
     3
 10
106.847961807067
 20
139.2208637417632
 30
0.0
 11
176.8479618070671
 21
139.2208637417632
 31
0.0
  0
LINE
  5
1D9
  8
0
  6
CONTINUOUS
 62
     3
 10
96.84796180706707
 20
219.2208637417631
 30
0.0
 11
96.84796180706707
 21
149.2208637417632
 31
0.0
  0
LINE
  5
1DA
  8
0
  6
CONTINUOUS
 62
     3
 10
117.0248581601627
 20
214.7008216381597
 30
0.0
 11
127.5153866300821
 21
204.2102931682394
 31
0.0
  0
LINE
  5
1DB
  8
0
  6
CONTINUOUS
 62
     3
 10
111.3680039106692
 20
209.0439673886682
 30
0.0
 11
121.8585323805897
 21
198.5534389187462
 31
0.0
  0
ARC
  5
1DC
  8
0
  6
CONTINUOUS
 62
     3
 10
106.8479618070671
 20
219.2208637417632
 30
0.0
 40
10.0
 50
344.9999999999959
 51
14.4775121859306
  0
ARC
  5
1DD
  8
0
  6
CONTINUOUS
 62
     3
 10
106.8479618070671
 20
219.2208637417632
 30
0.0
 40
10.0
 50
255.522487814067
 51
284.9999999999967
  0
ARC
  5
1DE
  8
0
  6
CONTINUOUS
 62
     3
 10
103.8479618070671
 20
207.6019137031409
 30
0.0
 40
2.0
 50
75.52248781408537
 51
180.0
  0
ARC
  5
1DF
  8
0
  6
CONTINUOUS
 62
     3
 10
118.4669118456893
 20
222.2208637417631
 30
0.0
 40
2.0
 50
90.0
 51
194.4775121859226
  0
ARC
  5
1E0
  8
0
  6
CONTINUOUS
 62
     3
 10
118.4390717225358
 20
216.1150352005328
 30
0.0
 40
2.0
 50
165.0000000000179
 51
225.0
  0
ARC
  5
1E1
  8
0
  6
CONTINUOUS
 62
     3
 10
109.9537903482961
 20
207.6297538262951
 30
0.0
 40
2.0
 50
45.0
 51
104.9999999999894
  0
LINE
  5
1E2
  8
0
  6
CONTINUOUS
 62
     3
 10
117.0248581601619
 20
153.7409058453653
 30
0.0
 11
127.5153866300831
 21
164.2314343152865
 31
0.0
  0
ARC
  5
1E3
  8
0
  6
CONTINUOUS
 62
     3
 10
106.847961807067
 20
149.2208637417632
 30
0.0
 40
10.0
 50
345.522487814067
 51
14.99999999999678
  0
ARC
  5
1E4
  8
0
  6
CONTINUOUS
 62
     3
 10
118.4669118456892
 20
146.2208637417632
 30
0.0
 40
2.0
 50
165.5224878140854
 51
270.0
  0
ARC
  5
1E5
  8
0
  6
CONTINUOUS
 62
     3
 10
118.439071722535
 20
152.3266922829922
 30
0.0
 40
2.0
 50
135.0
 51
194.9999999999893
  0
LINE
  5
1E6
  8
0
  6
CONTINUOUS
 62
     3
 10
111.3680039106704
 20
159.3977600948588
 30
0.0
 11
121.8585323805906
 21
169.8882885647778
 31
0.0
  0
ARC
  5
1E7
  8
0
  6
CONTINUOUS
 62
     3
 10
106.847961807067
 20
149.2208637417632
 30
0.0
 40
10.0
 50
74.9999999999959
 51
104.4775121859306
  0
ARC
  5
1E8
  8
0
  6
CONTINUOUS
 62
     3
 10
103.8479618070671
 20
160.8398137803854
 30
0.0
 40
2.0
 50
180.0
 51
284.4775121859218
  0
ARC
  5
1E9
  8
0
  6
CONTINUOUS
 62
     3
 10
109.9537903482973
 20
160.8119736572319
 30
0.0
 40
2.0
 50
255.0000000000179
 51
315.0
  0
LINE
  5
1EA
  8
0
  6
CONTINUOUS
 62
     3
 10
172.3279197034648
 20
159.397760094858
 30
0.0
 11
161.8373912335443
 21
169.8882885647801
 31
0.0
  0
ARC
  5
1EB
  8
0
  6
CONTINUOUS
 62
     3
 10
176.847961807067
 20
149.2208637417631
 30
0.0
 40
10.0
 50
75.52248781406702
 51
104.9999999999967
  0
ARC
  5
1EC
  8
0
  6
CONTINUOUS
 62
     3
 10
179.847961807067
 20
160.8398137803853
 30
0.0
 40
2.0
 50
255.5224878140853
 51
0.0
  0
ARC
  5
1ED
  8
0
  6
CONTINUOUS
 62
     3
 10
173.7421332658379
 20
160.8119736572311
 30
0.0
 40
2.0
 50
225.0
 51
284.9999999999894
  0
LINE
  5
1EE
  8
0
  6
CONTINUOUS
 62
     3
 10
166.6710654539713
 20
153.7409058453665
 30
0.0
 11
156.1805369840527
 21
164.2314343152867
 31
0.0
  0
ARC
  5
1EF
  8
0
  6
CONTINUOUS
 62
     3
 10
176.847961807067
 20
149.2208637417631
 30
0.0
 40
10.0
 50
164.9999999999959
 51
194.4775121859306
  0
ARC
  5
1F0
  8
0
  6
CONTINUOUS
 62
     3
 10
165.2290117684447
 20
146.2208637417632
 30
0.0
 40
2.0
 50
270.0
 51
14.47751218592179
  0
ARC
  5
1F1
  8
0
  6
CONTINUOUS
 62
     3
 10
165.2568518915982
 20
152.3266922829933
 30
0.0
 40
2.0
 50
345.0000000000179
 51
45.0
  0
LINE
  5
1F2
  8
0
  6
CONTINUOUS
 62
     3
 10
166.6710654539721
 20
214.7008216381608
 30
0.0
 11
156.1805369840504
 21
204.2102931682402
 31
0.0
  0
ARC
  5
1F3
  8
0
  6
CONTINUOUS
 62
     3
 10
176.8479618070671
 20
219.2208637417631
 30
0.0
 40
10.0
 50
165.522487814067
 51
194.9999999999968
  0
ARC
  5
1F4
  8
0
  6
CONTINUOUS
 62
     3
 10
165.2290117684448
 20
222.2208637417631
 30
0.0
 40
2.0
 50
345.5224878140853
 51
90.0
  0
ARC
  5
1F5
  8
0
  6
CONTINUOUS
 62
     3
 10
165.256851891599
 20
216.115035200534
 30
0.0
 40
2.0
 50
315.0
 51
14.99999999998935
  0
LINE
  5
1F6
  8
0
  6
CONTINUOUS
 62
     3
 10
172.3279197034636
 20
209.0439673886674
 30
0.0
 11
161.8373912335435
 21
198.5534389187484
 31
0.0
  0
ARC
  5
1F7
  8
0
  6
CONTINUOUS
 62
     3
 10
176.8479618070671
 20
219.2208637417631
 30
0.0
 40
10.0
 50
254.9999999999959
 51
284.4775121859306
  0
ARC
  5
1F8
  8
0
  6
CONTINUOUS
 62
     3
 10
179.847961807067
 20
207.6019137031408
 30
0.0
 40
2.0
 50
0.0
 51
104.4775121859225
  0
ARC
  5
1F9
  8
0
  6
CONTINUOUS
 62
     3
 10
173.7421332658367
 20
207.6297538262943
 30
0.0
 40
2.0
 50
75.0000000000179
 51
135.0
  0
ARC
  5
1FA
  8
0
  6
CONTINUOUS
 62
     3
 10
141.847961807067
 20
184.2208637417631
 30
0.0
 40
30.0
 50
307.3377443392351
 51
322.6622556607674
  0
ARC
  5
1FB
  8
0
  6
CONTINUOUS
 62
     3
 10
141.847961807067
 20
184.2208637417631
 30
0.0
 40
30.0
 50
217.337744339235
 51
232.6622556607674
  0
ARC
  5
1FC
  8
0
  6
CONTINUOUS
 62
     3
 10
141.847961807067
 20
184.2208637417631
 30
0.0
 40
30.0
 50
127.337744339235
 51
142.6622556607674
  0
LINE
  5
1FD
  8
0
  6
CONTINUOUS
 62
     3
 10
166.1172840060902
 20
188.2208637417631
 30
0.0
 11
179.847961807067
 21
188.2208637417631
 31
0.0
  0
LINE
  5
1FE
  8
0
  6
CONTINUOUS
 62
     3
 10
166.1172840060902
 20
180.2208637417631
 30
0.0
 11
179.847961807067
 21
180.2208637417631
 31
0.0
  0
ARC
  5
1FF
  8
0
  6
CONTINUOUS
 62
     3
 10
141.847961807067
 20
184.2208637417631
 30
0.0
 40
30.0
 50
352.337744339234
 51
7.662255660766054
  0
ARC
  5
200
  8
0
  6
CONTINUOUS
 62
     3
 10
141.847961807067
 20
184.2208637417631
 30
0.0
 40
30.0
 50
37.33774433923503
 51
52.66225566076744
  0
ARC
  5
201
  8
0
  6
CONTINUOUS
 62
     3
 10
141.847961807067
 20
184.2208637417631
 30
0.0
 40
23.0
 50
328.8865403626317
 51
346.11345963737
  0
ARC
  5
202
  8
0
  6
CONTINUOUS
 62
     3
 10
141.847961807067
 20
184.2208637417631
 30
0.0
 40
23.0
 50
13.88654036262881
 51
31.11345963737243
  0
LINE
  5
203
  8
0
  6
CONTINUOUS
 62
     3
 10
137.847961807067
 20
208.4901859407863
 30
0.0
 11
137.847961807067
 21
222.2208637417631
 31
0.0
  0
LINE
  5
204
  8
0
  6
CONTINUOUS
 62
     3
 10
145.847961807067
 20
208.4901859407863
 30
0.0
 11
145.847961807067
 21
222.2208637417631
 31
0.0
  0
ARC
  5
205
  8
0
  6
CONTINUOUS
 62
     3
 10
141.847961807067
 20
184.2208637417631
 30
0.0
 40
30.0
 50
82.33774433923394
 51
97.66225566076608
  0
LINE
  5
206
  8
0
  6
CONTINUOUS
 62
     3
 10
117.5786396080438
 20
180.2208637417631
 30
0.0
 11
103.8479618070671
 21
180.2208637417631
 31
0.0
  0
LINE
  5
207
  8
0
  6
CONTINUOUS
 62
     3
 10
117.5786396080438
 20
188.2208637417631
 30
0.0
 11
103.8479618070671
 21
188.2208637417631
 31
0.0
  0
ARC
  5
208
  8
0
  6
CONTINUOUS
 62
     3
 10
141.847961807067
 20
184.2208637417631
 30
0.0
 40
30.0
 50
172.337744339234
 51
187.6622556607661
  0
LINE
  5
209
  8
0
  6
CONTINUOUS
 62
     3
 10
145.847961807067
 20
159.95154154274
 30
0.0
 11
145.847961807067
 21
146.2208637417632
 31
0.0
  0
LINE
  5
20A
  8
0
  6
CONTINUOUS
 62
     3
 10
137.847961807067
 20
159.95154154274
 30
0.0
 11
137.847961807067
 21
146.2208637417632
 31
0.0
  0
ARC
  5
20B
  8
0
  6
CONTINUOUS
 62
     3
 10
141.847961807067
 20
184.2208637417631
 30
0.0
 40
30.0
 50
262.3377443392339
 51
277.662255660766
  0
LINE
  5
20C
  8
0
  6
CONTINUOUS
 62
     3
 10
165.2290117684448
 20
224.2208637417631
 30
0.0
 11
147.847961807067
 21
224.2208637417631
 31
0.0
  0
LINE
  5
20D
  8
0
  6
CONTINUOUS
 62
     3
 10
135.847961807067
 20
224.2208637417631
 30
0.0
 11
118.4669118456893
 21
224.2208637417631
 31
0.0
  0
LINE
  5
20E
  8
0
  6
CONTINUOUS
 62
     3
 10
101.8479618070671
 20
207.6019137031409
 30
0.0
 11
101.8479618070671
 21
190.2208637417631
 31
0.0
  0
LINE
  5
20F
  8
0
  6
CONTINUOUS
 62
     3
 10
101.8479618070671
 20
178.2208637417631
 30
0.0
 11
101.8479618070671
 21
160.8398137803854
 31
0.0
  0
LINE
  5
210
  8
0
  6
CONTINUOUS
 62
     3
 10
118.4669118456892
 20
144.2208637417632
 30
0.0
 11
135.847961807067
 21
144.2208637417632
 31
0.0
  0
LINE
  5
211
  8
0
  6
CONTINUOUS
 62
     3
 10
147.847961807067
 20
144.2208637417632
 30
0.0
 11
165.2290117684447
 21
144.2208637417632
 31
0.0
  0
LINE
  5
212
  8
0
  6
CONTINUOUS
 62
     3
 10
181.847961807067
 20
208.3551201534527
 30
0.0
 11
181.847961807067
 21
190.2208637417631
 31
0.0
  0
LINE
  5
213
  8
0
  6
CONTINUOUS
 62
     3
 10
181.847961807067
 20
178.2208637417631
 30
0.0
 11
181.847961807067
 21
160.8398137803853
 31
0.0
  0
ARC
  5
214
  8
0
  6
CONTINUOUS
 62
     3
 10
141.847961807067
 20
184.2208637417631
 30
0.0
 40
23.0
 50
238.8865403626296
 51
256.1134596373707
  0
ARC
  5
215
  8
0
  6
CONTINUOUS
 62
     3
 10
141.847961807067
 20
184.2208637417631
 30
0.0
 40
23.0
 50
283.8865403626289
 51
301.1134596373745
  0
ARC
  5
216
  8
0
  6
CONTINUOUS
 62
     3
 10
141.847961807067
 20
184.2208637417631
 30
0.0
 40
23.0
 50
148.8865403626321
 51
166.1134596373699
  0
ARC
  5
217
  8
0
  6
CONTINUOUS
 62
     3
 10
141.847961807067
 20
184.2208637417631
 30
0.0
 40
23.0
 50
193.8865403626294
 51
211.1134596373737
  0
ARC
  5
218
  8
0
  6
CONTINUOUS
 62
     3
 10
141.847961807067
 20
184.2208637417631
 30
0.0
 40
23.0
 50
58.88654036263186
 51
76.1134596373705
  0
ARC
  5
219
  8
0
  6
CONTINUOUS
 62
     3
 10
141.847961807067
 20
184.2208637417631
 30
0.0
 40
23.0
 50
103.8865403626285
 51
121.1134596373733
  0
ARC
  5
21A
  8
0
  6
CONTINUOUS
 62
     3
 10
128.9296001924553
 20
205.6245067306124
 30
0.0
 40
2.0
 50
224.9999999999965
 51
301.1134596373645
  0
ARC
  5
21B
  8
0
  6
CONTINUOUS
 62
     3
 10
135.847961807067
 20
208.4901859407863
 30
0.0
 40
2.0
 50
283.8865403626352
 51
0.0
  0
ARC
  5
21C
  8
0
  6
CONTINUOUS
 62
     3
 10
135.847961807067
 20
222.2208637417631
 30
0.0
 40
2.0
 50
0.0
 51
90.0
  0
ARC
  5
21D
  8
0
  6
CONTINUOUS
 62
     3
 10
147.847961807067
 20
222.2208637417631
 30
0.0
 40
2.0
 50
90.0
 51
180.0
  0
ARC
  5
21E
  8
0
  6
CONTINUOUS
 62
     3
 10
147.847961807067
 20
208.4901859407863
 30
0.0
 40
2.0
 50
180.0
 51
256.1134596373768
  0
ARC
  5
21F
  8
0
  6
CONTINUOUS
 62
     3
 10
154.7663234216774
 20
205.6245067306135
 30
0.0
 40
2.0
 50
238.8865403626228
 51
314.9999999999965
  0
ARC
  5
220
  8
0
  6
CONTINUOUS
 62
     3
 10
163.2516047959165
 20
197.1392253563752
 30
0.0
 40
2.0
 50
134.999999999996
 51
211.1134596373797
  0
ARC
  5
221
  8
0
  6
CONTINUOUS
 62
     3
 10
166.1172840060902
 20
190.2208637417631
 30
0.0
 40
2.0
 50
193.8865403626305
 51
270.0
  0
ARC
  5
222
  8
0
  6
CONTINUOUS
 62
     3
 10
179.847961807067
 20
190.2208637417631
 30
0.0
 40
2.0
 50
270.0
 51
0.0
  0
ARC
  5
223
  8
0
  6
CONTINUOUS
 62
     3
 10
179.847961807067
 20
178.2208637417631
 30
0.0
 40
2.0
 50
0.0
 51
90.0
  0
ARC
  5
224
  8
0
  6
CONTINUOUS
 62
     3
 10
163.2516047959175
 20
171.302502127153
 30
0.0
 40
2.0
 50
148.8865403626378
 51
224.9999999999977
  0
ARC
  5
225
  8
0
  6
CONTINUOUS
 62
     3
 10
166.1172840060902
 20
178.2208637417626
 30
0.0
 40
2.0
 50
90.0
 51
166.1134596373681
  0
ARC
  5
226
  8
0
  6
CONTINUOUS
 62
     3
 10
154.7663234216795
 20
162.8172207529137
 30
0.0
 40
2.0
 50
44.99999999999655
 51
121.1134596373673
  0
ARC
  5
227
  8
0
  6
CONTINUOUS
 62
     3
 10
147.847961807067
 20
159.95154154274
 30
0.0
 40
2.0
 50
103.8865403626303
 51
180.0
  0
ARC
  5
228
  8
0
  6
CONTINUOUS
 62
     3
 10
147.847961807067
 20
146.2208637417632
 30
0.0
 40
2.0
 50
180.0
 51
270.0
  0
ARC
  5
229
  8
0
  6
CONTINUOUS
 62
     3
 10
135.847961807067
 20
159.95154154274
 30
0.0
 40
2.0
 50
0.0
 51
76.1134596373743
  0
ARC
  5
22A
  8
0
  6
CONTINUOUS
 62
     3
 10
128.9296001924561
 20
162.8172207529133
 30
0.0
 40
2.0
 50
58.88654036263167
 51
134.9999999999954
  0
ARC
  5
22B
  8
0
  6
CONTINUOUS
 62
     3
 10
135.847961807067
 20
146.2208637417632
 30
0.0
 40
2.0
 50
270.0
 51
0.0
  0
ARC
  5
22C
  8
0
  6
CONTINUOUS
 62
     3
 10
120.4443188182176
 20
171.3025021271509
 30
0.0
 40
2.0
 50
314.9999999999983
 51
31.11345963737004
  0
ARC
  5
22D
  8
0
  6
CONTINUOUS
 62
     3
 10
117.5786396080438
 20
178.220863741763
 30
0.0
 40
2.0
 50
13.88654036262756
 51
90.0
  0
ARC
  5
22E
  8
0
  6
CONTINUOUS
 62
     3
 10
103.8479618070671
 20
178.2208637417631
 30
0.0
 40
2.0
 50
90.0
 51
180.0
  0
ARC
  5
22F
  8
0
  6
CONTINUOUS
 62
     3
 10
103.8479618070671
 20
190.2208637417631
 30
0.0
 40
2.0
 50
180.0
 51
270.0
  0
ARC
  5
230
  8
0
  6
CONTINUOUS
 62
     3
 10
120.4443188182166
 20
197.1392253563732
 30
0.0
 40
2.0
 50
328.8865403626309
 51
44.99999999999771
  0
ARC
  5
231
  8
0
  6
CONTINUOUS
 62
     3
 10
117.5786396080438
 20
190.2208637417632
 30
0.0
 40
2.0
 50
270.0
 51
346.1134596373797
  0
CIRCLE
  5
232
  8
0
  6
CONTINUOUS
 62
     3
 10
176.8479618070671
 20
149.2208637417632
 30
0.0
 40
4.5
  0
CIRCLE
  5
233
  8
0
  6
CONTINUOUS
 62
     3
 10
176.847961807067
 20
219.2208637417632
 30
0.0
 40
4.5
  0
CIRCLE
  5
234
  8
0
  6
CONTINUOUS
 62
     3
 10
106.8479618070671
 20
219.2208637417632
 30
0.0
 40
4.5
  0
CIRCLE
  5
235
  8
0
  6
CONTINUOUS
 62
     3
 10
106.847961807067
 20
149.2208637417632
 30
0.0
 40
4.5
  0
CIRCLE
  5
236
  8
0
  6
CONTINUOUS
 62
     3
 10
141.8479618070671
 20
184.2208637417632
 30
0.0
 40
21.99999999999989
  0
CIRCLE
  5
237
  8
0
  6
CONTINUOUS
 62
     3
 10
141.8479618070671
 20
184.2208637417632
 30
0.0
 40
4.499999999997442
  0
CIRCLE
  5
238
  8
0
  6
CONTINUOUS
 62
     3
 10
141.8479618070671
 20
184.2208637417632
 30
0.0
 40
6.999999999999773
  0
CIRCLE
  5
239
  8
0
  6
CONTINUOUS
 62
     3
 10
141.8479618070671
 20
184.2208637417632
 30
0.0
 40
8.000000000000057
  0
LINE
  5
23A
  8
0
  6
CONTINUOUS
 62
     3
 10
191.4141751764243
 20
-234.4733341470136
 30
0.0
 11
191.4141751764243
 21
-262.4733341470136
 31
0.0
  0
LINE
  5
23B
  8
0
  6
CONTINUOUS
 62
     3
 10
191.4141751764243
 20
-262.4733341470136
 30
0.0
 11
177.4141751764243
 21
-262.4733341470136
 31
0.0
  0
LINE
  5
23C
  8
0
  6
CONTINUOUS
 62
     3
 10
191.4141751764243
 20
-239.4733341470136
 30
0.0
 11
177.4141751764243
 21
-239.4733341470136
 31
0.0
  0
LINE
  5
23D
  8
0
  6
CONTINUOUS
 62
     3
 10
177.4141751764243
 20
-234.4733341470136
 30
0.0
 11
177.4141751764243
 21
-262.4733341470136
 31
0.0
  0
LINE
  5
23E
  8
0
  6
CONTINUOUS
 62
     3
 10
189.4141751764243
 20
-264.4733341470136
 30
0.0
 11
179.4141751764243
 21
-264.4733341470136
 31
0.0
  0
LINE
  5
23F
  8
0
  6
CONTINUOUS
 62
     3
 10
191.4141751764243
 20
-262.4733341470136
 30
0.0
 11
189.4141751764243
 21
-264.4733341470136
 31
0.0
  0
LINE
  5
240
  8
0
  6
CONTINUOUS
 62
     3
 10
177.4141751764243
 20
-262.4733341470136
 30
0.0
 11
179.4141751764243
 21
-264.4733341470136
 31
0.0
  0
LINE
  5
241
  8
0
  6
CONTINUOUS
 62
     3
 10
176.4141751764242
 20
-233.9733341470136
 30
0.0
 11
176.9141751764242
 21
-234.4733341470136
 31
0.0
  0
LINE
  5
242
  8
0
  6
CONTINUOUS
 62
     3
 10
192.4141751764243
 20
-233.9733341470136
 30
0.0
 11
191.9141751764243
 21
-234.4733341470136
 31
0.0
  0
LINE
  5
243
  8
0
  6
CONTINUOUS
 62
     3
 10
192.4141751764243
 20
-228.4733341470138
 30
0.0
 11
192.4141751764243
 21
-233.9733341470138
 31
0.0
  0
LINE
  5
244
  8
0
  6
CONTINUOUS
 62
     3
 10
176.4141751764242
 20
-228.4733341470138
 30
0.0
 11
176.4141751764242
 21
-233.9733341470138
 31
0.0
  0
LINE
  5
245
  8
0
  6
CONTINUOUS
 62
     3
 10
176.4141751764242
 20
-229.4733341470139
 30
0.0
 11
192.4141751764243
 21
-229.4733341470139
 31
0.0
  0
LINE
  5
246
  8
0
  6
CONTINUOUS
 62
     3
 10
176.4141751764242
 20
-230.4733341470138
 30
0.0
 11
192.4141751764243
 21
-230.4733341470138
 31
0.0
  0
LINE
  5
247
  8
0
  6
CONTINUOUS
 62
     3
 10
191.4141751764243
 20
-234.4733341470138
 30
0.0
 11
191.4141751764243
 21
-262.4733341470138
 31
0.0
  0
LINE
  5
248
  8
0
  6
CONTINUOUS
 62
     3
 10
191.4141751764243
 20
-262.4733341470138
 30
0.0
 11
177.4141751764243
 21
-262.4733341470138
 31
0.0
  0
LINE
  5
249
  8
0
  6
CONTINUOUS
 62
     3
 10
177.4141751764243
 20
-234.4733341470138
 30
0.0
 11
177.4141751764243
 21
-262.4733341470138
 31
0.0
  0
LINE
  5
24A
  8
0
  6
CONTINUOUS
 62
     3
 10
189.4141751764243
 20
-264.4733341470138
 30
0.0
 11
179.4141751764243
 21
-264.4733341470138
 31
0.0
  0
LINE
  5
24B
  8
0
  6
CONTINUOUS
 62
     3
 10
191.4141751764243
 20
-262.4733341470138
 30
0.0
 11
189.4141751764243
 21
-264.4733341470138
 31
0.0
  0
LINE
  5
24C
  8
0
  6
CONTINUOUS
 62
     3
 10
177.4141751764243
 20
-262.4733341470138
 30
0.0
 11
179.4141751764243
 21
-264.4733341470138
 31
0.0
  0
LINE
  5
24D
  8
0
  6
CONTINUOUS
 62
     3
 10
176.9141751764242
 20
-234.4733341470138
 30
0.0
 11
191.9141751764243
 21
-234.4733341470138
 31
0.0
  0
LINE
  5
24E
  8
0
  6
CONTINUOUS
 62
     3
 10
176.4141751764242
 20
-233.9733341470138
 30
0.0
 11
176.9141751764242
 21
-234.4733341470138
 31
0.0
  0
LINE
  5
24F
  8
0
  6
CONTINUOUS
 62
     3
 10
192.4141751764243
 20
-233.9733341470138
 30
0.0
 11
191.9141751764243
 21
-234.4733341470138
 31
0.0
  0
LINE
  5
250
  8
0
  6
CONTINUOUS
 62
     3
 10
-189.2675161663403
 20
-228.4733341470138
 30
0.0
 11
-189.2675161663403
 21
-233.9733341470138
 31
0.0
  0
LINE
  5
251
  8
0
  6
CONTINUOUS
 62
     3
 10
-205.2675161663404
 20
-228.4733341470138
 30
0.0
 11
-205.2675161663404
 21
-233.9733341470138
 31
0.0
  0
LINE
  5
252
  8
0
  6
CONTINUOUS
 62
     3
 10
-205.2675161663404
 20
-229.4733341470139
 30
0.0
 11
-189.2675161663403
 21
-229.4733341470139
 31
0.0
  0
LINE
  5
253
  8
0
  6
CONTINUOUS
 62
     3
 10
-205.2675161663404
 20
-230.4733341470138
 30
0.0
 11
-189.2675161663403
 21
-230.4733341470138
 31
0.0
  0
LINE
  5
254
  8
0
  6
CONTINUOUS
 62
     3
 10
-190.2675161663402
 20
-234.4733341470138
 30
0.0
 11
-190.2675161663402
 21
-262.4733341470138
 31
0.0
  0
LINE
  5
255
  8
0
  6
CONTINUOUS
 62
     3
 10
-190.2675161663402
 20
-262.4733341470138
 30
0.0
 11
-204.2675161663402
 21
-262.4733341470138
 31
0.0
  0
LINE
  5
256
  8
0
  6
CONTINUOUS
 62
     3
 10
-190.2675161663402
 20
-239.4733341470138
 30
0.0
 11
-204.2675161663402
 21
-239.4733341470138
 31
0.0
  0
LINE
  5
257
  8
0
  6
CONTINUOUS
 62
     3
 10
-204.2675161663402
 20
-234.4733341470138
 30
0.0
 11
-204.2675161663402
 21
-262.4733341470138
 31
0.0
  0
LINE
  5
258
  8
0
  6
CONTINUOUS
 62
     3
 10
-192.2675161663402
 20
-264.4733341470138
 30
0.0
 11
-202.2675161663402
 21
-264.4733341470138
 31
0.0
  0
LINE
  5
259
  8
0
  6
CONTINUOUS
 62
     3
 10
-190.2675161663402
 20
-262.4733341470138
 30
0.0
 11
-192.2675161663402
 21
-264.4733341470138
 31
0.0
  0
LINE
  5
25A
  8
0
  6
CONTINUOUS
 62
     3
 10
-204.2675161663402
 20
-262.4733341470138
 30
0.0
 11
-202.2675161663402
 21
-264.4733341470138
 31
0.0
  0
LINE
  5
25B
  8
0
  6
CONTINUOUS
 62
     3
 10
-204.7675161663404
 20
-234.4733341470138
 30
0.0
 11
-189.7675161663403
 21
-234.4733341470138
 31
0.0
  0
LINE
  5
25C
  8
0
  6
CONTINUOUS
 62
     3
 10
-205.2675161663404
 20
-233.9733341470138
 30
0.0
 11
-204.7675161663404
 21
-234.4733341470138
 31
0.0
  0
LINE
  5
25D
  8
0
  6
CONTINUOUS
 62
     3
 10
-189.2675161663403
 20
-233.9733341470138
 30
0.0
 11
-189.7675161663403
 21
-234.4733341470138
 31
0.0
  0
LINE
  5
25E
  8
0
  6
CONTINUOUS
 62
     3
 10
-189.2675161663403
 20
-228.473334147014
 30
0.0
 11
-189.2675161663403
 21
-233.973334147014
 31
0.0
  0
LINE
  5
25F
  8
0
  6
CONTINUOUS
 62
     3
 10
-205.2675161663404
 20
-228.473334147014
 30
0.0
 11
-205.2675161663404
 21
-233.973334147014
 31
0.0
  0
LINE
  5
260
  8
0
  6
CONTINUOUS
 62
     3
 10
-205.2675161663404
 20
-229.4733341470141
 30
0.0
 11
-189.2675161663403
 21
-229.4733341470141
 31
0.0
  0
LINE
  5
261
  8
0
  6
CONTINUOUS
 62
     3
 10
-205.2675161663404
 20
-230.473334147014
 30
0.0
 11
-189.2675161663403
 21
-230.473334147014
 31
0.0
  0
LINE
  5
262
  8
0
  6
CONTINUOUS
 62
     3
 10
-190.2675161663402
 20
-234.473334147014
 30
0.0
 11
-190.2675161663402
 21
-262.473334147014
 31
0.0
  0
LINE
  5
263
  8
0
  6
CONTINUOUS
 62
     3
 10
-190.2675161663402
 20
-262.473334147014
 30
0.0
 11
-204.2675161663402
 21
-262.473334147014
 31
0.0
  0
LINE
  5
264
  8
0
  6
CONTINUOUS
 62
     3
 10
-190.2675161663402
 20
-239.473334147014
 30
0.0
 11
-204.2675161663402
 21
-239.473334147014
 31
0.0
  0
LINE
  5
265
  8
0
  6
CONTINUOUS
 62
     3
 10
-204.2675161663402
 20
-234.473334147014
 30
0.0
 11
-204.2675161663402
 21
-262.473334147014
 31
0.0
  0
LINE
  5
266
  8
0
  6
CONTINUOUS
 62
     3
 10
-192.2675161663402
 20
-264.473334147014
 30
0.0
 11
-202.2675161663402
 21
-264.473334147014
 31
0.0
  0
LINE
  5
267
  8
0
  6
CONTINUOUS
 62
     3
 10
-190.2675161663402
 20
-262.473334147014
 30
0.0
 11
-192.2675161663402
 21
-264.473334147014
 31
0.0
  0
LINE
  5
268
  8
0
  6
CONTINUOUS
 62
     3
 10
-204.2675161663402
 20
-262.473334147014
 30
0.0
 11
-202.2675161663402
 21
-264.473334147014
 31
0.0
  0
LINE
  5
269
  8
0
  6
CONTINUOUS
 62
     3
 10
-204.7675161663404
 20
-234.473334147014
 30
0.0
 11
-189.7675161663403
 21
-234.473334147014
 31
0.0
  0
LINE
  5
26A
  8
0
  6
CONTINUOUS
 62
     3
 10
-205.2675161663404
 20
-233.973334147014
 30
0.0
 11
-204.7675161663404
 21
-234.473334147014
 31
0.0
  0
LINE
  5
26B
  8
0
  6
CONTINUOUS
 62
     3
 10
-189.2675161663403
 20
-233.973334147014
 30
0.0
 11
-189.7675161663403
 21
-234.473334147014
 31
0.0
  0
LINE
  5
26C
  8
0
  6
CONTINUOUS
 62
     3
 10
-116.2675161663404
 20
199.0371526902987
 30
0.0
 11
-117.2685543870574
 21
261.1660342389042
 31
0.0
  0
LINE
  5
26D
  8
0
  6
CONTINUOUS
 62
     3
 10
-116.2675161663404
 20
199.0371526902987
 30
0.0
 11
-117.2685543870574
 21
136.9082711416932
 31
0.0
  0
LINE
  5
26E
  8
0
  6
CONTINUOUS
 62
     3
 10
-298.2675161663404
 20
199.0371526902987
 30
0.0
 11
-297.2664779456233
 21
261.1660342389042
 31
0.0
  0
LINE
  5
26F
  8
0
  6
CONTINUOUS
 62
     3
 10
-298.2675161663404
 20
199.0371526902987
 30
0.0
 11
-297.2664779456233
 21
136.9082711416932
 31
0.0
  0
ARC
  5
270
  8
0
  6
CONTINUOUS
 62
     3
 10
91.04203220438762
 20
188.6658066218936
 30
0.0
 40
15.0
 50
67.22819010676422
 51
292.7718098932358
  0
ARC
  5
271
  8
0
  6
CONTINUOUS
 62
     3
 10
91.04203220438762
 20
188.6658066218936
 30
0.0
 40
11.0
 50
58.14227536110133
 51
301.8577246388986
  0
LINE
  5
272
  8
0
  6
CONTINUOUS
 62
     3
 10
221.0698163520425
 20
227.7208637417631
 30
0.0
 11
208.1838651181725
 21
227.7208637417631
 31
0.0
  0
CIRCLE
  5
273
  8
0
  6
CONTINUOUS
 62
     3
 10
49.84796180706701
 20
246.2208637417632
 30
0.0
 40
2.349999999999994
  0
CIRCLE
  5
274
  8
0
  6
CONTINUOUS
 62
     3
 10
213.847961807067
 20
246.2208637417632
 30
0.0
 40
2.349999999999994
  0
LINE
  5
275
  8
0
  6
CONTINUOUS
 62
     3
 10
49.70953991199247
 20
254.2208637417632
 30
0.0
 11
213.847961807067
 21
254.2208637417632
 31
0.0
  0
LINE
  5
276
  8
0
  6
CONTINUOUS
 62
     3
 10
70.38119955257247
 20
244.5193003822213
 30
0.0
 11
193.2930724614561
 21
244.5193003822213
 31
0.0
  0
LINE
  5
277
  8
0
  6
CONTINUOUS
 62
     3
 10
53.30688447948955
 20
229.930266683377
 30
0.0
 11
66.1385588654532
 21
242.7619410693405
 31
0.0
  0
LINE
  5
278
  8
0
  6
CONTINUOUS
 62
     3
 10
58.42036692003529
 20
227.8121929055467
 30
0.0
 11
68.2566326432842
 21
237.6484586287957
 31
0.0
  0
LINE
  5
279
  8
0
  6
CONTINUOUS
 62
     3
 10
72.49927333040341
 20
239.4058179416763
 30
0.0
 11
191.1966502837304
 21
239.4058179416763
 31
0.0
  0
ARC
  5
27A
  8
0
  6
CONTINUOUS
 62
     3
 10
72.49927333040341
 20
233.4058179416763
 30
0.0
 40
6.000000000000001
 50
90.0
 51
134.9999999999996
  0
ARC
  5
27B
  8
0
  6
CONTINUOUS
 62
     3
 10
62.66300760715455
 20
223.5695522184275
 30
0.0
 40
6.000000000000001
 50
135.0000000000004
 51
180.0
  0
ARC
  5
27C
  8
0
  6
CONTINUOUS
 62
     3
 10
70.38119955257247
 20
238.5193003822213
 30
0.0
 40
6.000000000000001
 50
90.0
 51
135.0
  0
LINE
  5
27D
  8
0
  6
CONTINUOUS
 62
     3
 10
197.5573647486809
 20
242.7619410693408
 30
0.0
 11
212.0126556386317
 21
228.30665017939
 31
0.0
  0
ARC
  5
27E
  8
0
  6
CONTINUOUS
 62
     3
 10
208.1838651181725
 20
229.7208637417631
 30
0.0
 40
2.0
 50
225.0
 51
270.0
  0
ARC
  5
27F
  8
0
  6
CONTINUOUS
 62
     3
 10
191.1966502837304
 20
233.4058179416763
 30
0.0
 40
6.000000000000001
 50
44.99999999999923
 51
90.0
  0
ARC
  5
280
  8
0
  6
CONTINUOUS
 62
     3
 10
193.3147240615617
 20
238.5193003822213
 30
0.0
 40
6.000000000000001
 50
45.00000000000115
 51
90.0
  0
LINE
  5
281
  8
0
  6
CONTINUOUS
 62
     3
 10
221.0698163520425
 20
195.7208637417631
 30
0.0
 11
218.2997714165685
 21
195.7208637417631
 31
0.0
  0
LINE
  5
282
  8
0
  6
CONTINUOUS
 62
     3
 10
221.0698163520425
 20
140.720863741763
 30
0.0
 11
208.1838651181725
 21
140.720863741763
 31
0.0
  0
LINE
  5
283
  8
0
  6
CONTINUOUS
 62
     3
 10
221.0698163520425
 20
172.720863741763
 30
0.0
 11
218.2997714165685
 21
172.720863741763
 31
0.0
  0
CIRCLE
  5
284
  8
0
  6
CONTINUOUS
 62
     3
 10
213.847961807067
 20
122.2208637417632
 30
0.0
 40
2.349999999999994
  0
LINE
  5
285
  8
0
  6
CONTINUOUS
 62
     3
 10
214.0710655154423
 20
219.016684084203
 30
0.0
 11
195.4392909708497
 21
237.6484586287955
 31
0.0
  0
LINE
  5
286
  8
0
  6
CONTINUOUS
 62
     3
 10
214.0710655154423
 20
149.425043399323
 30
0.0
 11
195.4392909708497
 21
130.7932688547305
 31
0.0
  0
LINE
  5
287
  8
0
  6
CONTINUOUS
 62
     3
 10
197.5573647486812
 20
125.6797864141856
 30
0.0
 11
212.0126556386317
 21
140.1350773041361
 31
0.0
  0
LINE
  5
288
  8
0
  6
CONTINUOUS
 62
     3
 10
216.6925602401063
 20
193.7208637417631
 30
0.0
 11
216.6925602401063
 21
174.720863741763
 31
0.0
  0
LINE
  5
289
  8
0
  6
CONTINUOUS
 62
     3
 10
215.828424828323
 20
153.6676840864424
 30
0.0
 11
215.828424828323
 21
214.7740433970837
 31
0.0
  0
ARC
  5
28A
  8
0
  6
CONTINUOUS
 62
     3
 10
218.2997714165685
 20
193.7208637417631
 30
0.0
 40
2.0
 50
90.0
 51
180.0
  0
ARC
  5
28B
  8
0
  6
CONTINUOUS
 62
     3
 10
218.2997714165685
 20
174.720863741763
 30
0.0
 40
2.0
 50
180.0
 51
270.0
  0
ARC
  5
28C
  8
0
  6
CONTINUOUS
 62
     3
 10
218.6925602401063
 20
193.7208637417631
 30
0.0
 40
2.0
 50
90.0
 51
180.0
  0
ARC
  5
28D
  8
0
  6
CONTINUOUS
 62
     3
 10
218.6925602401063
 20
174.720863741763
 30
0.0
 40
2.0
 50
180.0
 51
270.0
  0
ARC
  5
28E
  8
0
  6
CONTINUOUS
 62
     3
 10
208.1838651181725
 20
138.720863741763
 30
0.0
 40
2.0
 50
90.0
 51
135.0
  0
ARC
  5
28F
  8
0
  6
CONTINUOUS
 62
     3
 10
191.1966502837304
 20
135.0359095418498
 30
0.0
 40
6.000000000000001
 50
270.0
 51
315.0000000000002
  0
ARC
  5
290
  8
0
  6
CONTINUOUS
 62
     3
 10
193.3147240615618
 20
129.9224271013048
 30
0.0
 40
6.000000000000001
 50
270.0
 51
315.0000000000007
  0
LINE
  5
291
  8
0
  6
CONTINUOUS
 62
     3
 10
49.70953991199252
 20
114.2208637417631
 30
0.0
 11
213.847961807067
 21
114.2208637417631
 31
0.0
  0
CIRCLE
  5
292
  8
0
  6
CONTINUOUS
 62
     3
 10
49.84796180706701
 20
122.2208637417632
 30
0.0
 40
2.349999999999994
  0
LINE
  5
293
  8
0
  6
CONTINUOUS
 62
     3
 10
193.3147240615618
 20
123.9224271013047
 30
0.0
 11
70.38119955257247
 21
123.9224271013047
 31
0.0
  0
LINE
  5
294
  8
0
  6
CONTINUOUS
 62
     3
 10
53.30688447948955
 20
138.5114608001492
 30
0.0
 11
66.13855886545315
 21
125.6797864141855
 31
0.0
  0
LINE
  5
295
  8
0
  6
CONTINUOUS
 62
     3
 10
58.42036692003529
 20
140.6295345779795
 30
0.0
 11
68.25663264328404
 21
130.7932688547305
 31
0.0
  0
LINE
  5
296
  8
0
  6
CONTINUOUS
 62
     3
 10
72.49927333040341
 20
129.0359095418498
 30
0.0
 11
191.1966502837304
 21
129.0359095418498
 31
0.0
  0
ARC
  5
297
  8
0
  6
CONTINUOUS
 62
     3
 10
62.66300760715455
 20
144.8721752650987
 30
0.0
 40
6.000000000000001
 50
180.0
 51
225.0
  0
ARC
  5
298
  8
0
  6
CONTINUOUS
 62
     3
 10
72.49927333040341
 20
135.0359095418498
 30
0.0
 40
6.000000000000001
 50
224.9999999999988
 51
270.0
  0
ARC
  5
299
  8
0
  6
CONTINUOUS
 62
     3
 10
70.38119955257247
 20
129.9224271013047
 30
0.0
 40
6.000000000000001
 50
224.9999999999998
 51
270.0
  0
ARC
  5
29A
  8
0
  6
CONTINUOUS
 62
     3
 10
57.54952516660887
 20
142.7541014872684
 30
0.0
 40
6.000000000000001
 50
180.0
 51
224.9999999999992
  0
LINE
  5
29B
  8
0
  6
CONTINUOUS
 62
     3
 10
51.54952516660887
 20
142.7541014872684
 30
0.0
 11
51.54952516660887
 21
225.6876259962577
 31
0.0
  0
LINE
  5
29C
  8
0
  6
CONTINUOUS
 62
     3
 10
56.66300760715455
 20
223.5695522184275
 30
0.0
 11
56.66300760715455
 21
144.8721752650987
 31
0.0
  0
ARC
  5
29D
  8
0
  6
CONTINUOUS
 62
     3
 10
209.828424828323
 20
214.7740433970837
 30
0.0
 40
6.000000000000001
 50
0.0
 51
44.99999999999962
  0
ARC
  5
29E
  8
0
  6
CONTINUOUS
 62
     3
 10
209.828424828323
 20
153.6676840864424
 30
0.0
 40
6.000000000000001
 50
314.9999999999997
 51
0.0
  0
ARC
  5
29F
  8
0
  6
CONTINUOUS
 62
     3
 10
213.4268692010048
 20
229.7208637417631
 30
0.0
 40
2.0
 50
225.0
 51
270.0
  0
ARC
  5
2A0
  8
0
  6
CONTINUOUS
 62
     3
 10
213.4268692010047
 20
138.720863741763
 30
0.0
 40
2.0
 50
90.0
 51
134.9999999999989
  0
ARC
  5
2A1
  8
0
  6
CONTINUOUS
 62
     3
 10
213.9863837021418
 20
246.2208637417643
 30
0.0
 40
8.0
 50
0.9999999999887504
 51
120.0
  0
ARC
  5
2A2
  8
0
  6
CONTINUOUS
 62
     3
 10
213.9863837021418
 20
122.220863741763
 30
0.0
 40
8.0
 50
240.0000000000003
 51
359.000000000008
  0
LINE
  5
2A3
  8
0
  6
CONTINUOUS
 62
     3
 10
223.0698163520425
 20
225.7208637417631
 30
0.0
 11
223.0698163520425
 21
197.7208637417631
 31
0.0
  0
LINE
  5
2A4
  8
0
  6
CONTINUOUS
 62
     3
 10
223.0698163520425
 20
170.720863741763
 30
0.0
 11
223.0698163520425
 21
142.7208637417629
 31
0.0
  0
ARC
  5
2A5
  8
0
  6
CONTINUOUS
 62
     3
 10
221.0698163520425
 20
225.7208637417631
 30
0.0
 40
2.0
 50
0.0
 51
90.0
  0
ARC
  5
2A6
  8
0
  6
CONTINUOUS
 62
     3
 10
221.0698163520425
 20
197.7208637417631
 30
0.0
 40
2.0
 50
270.0
 51
0.0
  0
ARC
  5
2A7
  8
0
  6
CONTINUOUS
 62
     3
 10
221.0698163520425
 20
170.720863741763
 30
0.0
 40
2.0
 50
0.0
 51
90.0
  0
ARC
  5
2A8
  8
0
  6
CONTINUOUS
 62
     3
 10
221.0698163520425
 20
142.7208637417629
 30
0.0
 40
2.0
 50
270.0
 51
0.0
  0
LINE
  5
2A9
  8
0
  6
CONTINUOUS
 62
     3
 10
221.9851652633929
 20
122.0812444902658
 30
0.0
 11
222.3181562713761
 21
141.1582865610136
 31
0.0
  0
LINE
  5
2AA
  8
0
  6
CONTINUOUS
 62
     3
 10
222.8500815769312
 20
171.6322669066971
 30
0.0
 11
223.0698163520425
 21
184.220863741764
 31
0.0
  0
LINE
  5
2AB
  8
0
  6
CONTINUOUS
 62
     3
 10
223.0698163520425
 20
184.220863741764
 30
0.0
 11
222.8500815769313
 21
196.809460576829
 31
0.0
  0
LINE
  5
2AC
  8
0
  6
CONTINUOUS
 62
     3
 10
222.3181562713761
 20
227.2834409225123
 30
0.0
 11
221.9851652633929
 21
246.360482993261
 31
0.0
  0
LINE
  5
2AD
  8
0
  6
CONTINUOUS
 62
     3
 10
41.7107583507414
 20
122.0812444902648
 30
0.0
 11
40.62610726209175
 21
184.2208637417596
 31
0.0
  0
LINE
  5
2AE
  8
0
  6
CONTINUOUS
 62
     3
 10
40.62610726209175
 20
184.2208637417596
 30
0.0
 11
41.7107583507414
 21
246.3604829932615
 31
0.0
  0
ARC
  5
2AF
  8
0
  6
CONTINUOUS
 62
     3
 10
49.70953991199247
 20
246.2208637417632
 30
0.0
 40
8.0
 50
59.99999999999996
 51
178.9999999999999
  0
ARC
  5
2B0
  8
0
  6
CONTINUOUS
 62
     3
 10
49.70953991199252
 20
122.2208637417631
 30
0.0
 40
8.0
 50
181.0000000000002
 51
300.0000000000008
  0
LINE
  5
2B1
  8
0
  6
CONTINUOUS
 62
     3
 10
53.70953991199247
 20
253.1490669720387
 30
0.0
 11
68.192632487879
 21
244.7872495746524
 31
0.0
  0
LINE
  5
2B2
  8
0
  6
CONTINUOUS
 62
     3
 10
53.70953991199264
 20
115.2926605114876
 30
0.0
 11
68.19263248787837
 21
123.6544779088737
 31
0.0
  0
ARC
  5
2B3
  8
0
  6
CONTINUOUS
 62
     3
 10
69.192632487879
 20
246.5193003822213
 30
0.0
 40
2.0
 50
240.0000000000002
 51
270.0
  0
ARC
  5
2B4
  8
0
  6
CONTINUOUS
 62
     3
 10
69.19263248787837
 20
121.9224271013047
 30
0.0
 40
2.0
 50
90.0
 51
119.9999999999997
  0
ARC
  5
2B5
  8
0
  6
CONTINUOUS
 62
     3
 10
57.54952516660887
 20
225.6876259962577
 30
0.0
 40
6.0
 50
135.0
 51
180.0
  0
LINE
  5
2B6
  8
0
  6
CONTINUOUS
 62
     3
 10
209.9863837021418
 20
253.1490669720398
 30
0.0
 11
195.5032911262534
 21
244.7872495746524
 31
0.0
  0
ARC
  5
2B7
  8
0
  6
CONTINUOUS
 62
     3
 10
194.5032911262534
 20
246.5193003822213
 30
0.0
 40
2.0
 50
270.0
 51
300.0000000000001
  0
LINE
  5
2B8
  8
0
  6
CONTINUOUS
 62
     3
 10
209.9863837021413
 20
115.2926605114865
 30
0.0
 11
195.5032911262534
 21
123.6544779088736
 31
0.0
  0
ARC
  5
2B9
  8
0
  6
CONTINUOUS
 62
     3
 10
194.5032911262534
 20
121.9224271013047
 30
0.0
 40
2.0
 50
59.99999999999983
 51
89.99999999999997
  0
LINE
  5
2BA
  8
0
  6
CONTINUOUS
 62
     3
 10
114.4141751764244
 20
-58.97333414701362
 30
0.0
 11
131.4141751764243
 21
-58.97333414701362
 31
0.0
  0
LINE
  5
2BB
  8
0
  6
CONTINUOUS
 62
     3
 10
115.7549349493146
 20
-44.9733341470135
 30
0.0
 11
131.4141751764243
 21
-44.97333414701346
 31
0.0
  0
LINE
  5
2BC
  8
0
  6
CONTINUOUS
 62
     3
 10
114.4141751764243
 20
-59.97333414701362
 30
0.0
 11
131.4141751764243
 21
-59.97333414701362
 31
0.0
  0
LINE
  5
2BD
  8
0
  6
CONTINUOUS
 62
     3
 10
254.4141751764242
 20
-58.97333414701363
 30
0.0
 11
254.0730727285095
 21
-45.94715719870537
 31
0.0
  0
ARC
  5
2BE
  8
0
  6
CONTINUOUS
 62
     3
 10
253.0734154035339
 20
-45.97333414701352
 30
0.0
 40
1.0
 50
1.500000000018163
 51
89.99999999999999
  0
ARC
  5
2BF
  8
0
  6
CONTINUOUS
 62
     3
 10
253.023100315341
 20
-43.97333414701352
 30
0.0
 40
1.0
 50
248.9658002051167
 51
270.0
  0
LINE
  5
2C0
  8
0
  6
CONTINUOUS
 62
     3
 10
254.4141751764242
 20
-58.97333414701363
 30
0.0
 11
254.4141751764242
 21
-59.97333414701363
 31
0.0
  0
LINE
  5
2C1
  8
0
  6
CONTINUOUS
 62
     3
 10
254.4141751764242
 20
-59.97333414701369
 30
0.0
 11
254.2033168688401
 21
-68.02568804362936
 31
0.0
  0
ARC
  5
2C2
  8
0
  6
CONTINUOUS
 62
     3
 10
252.204002218889
 20
-67.97333414701362
 30
0.0
 40
2.0
 50
270.0
 51
358.5000000000002
  0
LINE
  5
2C3
  8
0
  6
CONTINUOUS
 62
     3
 10
252.204002218889
 20
-69.9733341470135
 30
0.0
 11
237.4141751764243
 21
-69.9733341470139
 31
0.0
  0
ARC
  5
2C4
  8
0
  6
CONTINUOUS
 62
     3
 10
246.3908110792372
 20
-71.97333414701356
 30
0.0
 40
2.0
 50
89.99999999999999
 51
169.9999999999996
  0
LINE
  5
2C5
  8
0
  6
CONTINUOUS
 62
     3
 10
247.1641751764243
 20
-41.87333414701439
 30
0.0
 11
245.6641751764243
 21
-43.37333414701439
 31
0.0
  0
LINE
  5
2C6
  8
0
  6
CONTINUOUS
 62
     3
 10
240.3141751764243
 20
-41.87333414701439
 30
0.0
 11
252.5141751764243
 21
-41.8733341470144
 31
0.0
  0
LINE
  5
2C7
  8
0
  6
CONTINUOUS
 62
     3
 10
240.3141751764243
 20
-41.87333414701439
 30
0.0
 11
240.3141751764243
 21
-43.37333414701439
 31
0.0
  0
LINE
  5
2C8
  8
0
  6
CONTINUOUS
 62
     3
 10
252.5141751764243
 20
-41.8733341470144
 30
0.0
 11
252.5141751764243
 21
-43.3733341470144
 31
0.0
  0
LINE
  5
2C9
  8
0
  6
CONTINUOUS
 62
     3
 10
240.1641751764243
 20
-43.37333414701439
 30
0.0
 11
252.6641751764243
 21
-43.3733341470144
 31
0.0
  0
LINE
  5
2CA
  8
0
  6
CONTINUOUS
 62
     3
 10
240.1641751764243
 20
-43.37333414701439
 30
0.0
 11
240.1641751764243
 21
-44.97333414701436
 31
0.0
  0
LINE
  5
2CB
  8
0
  6
CONTINUOUS
 62
     3
 10
252.6641751764243
 20
-43.3733341470144
 30
0.0
 11
252.6641751764243
 21
-44.97333414701437
 31
0.0
  0
LINE
  5
2CC
  8
0
  6
CONTINUOUS
 62
     3
 10
241.1641751764243
 20
-41.87333414701439
 30
0.0
 11
241.2662302910981
 21
-39.92600655424295
 31
0.0
  0
LINE
  5
2CD
  8
0
  6
CONTINUOUS
 62
     3
 10
251.6641751764243
 20
-41.8733341470144
 30
0.0
 11
251.5621200617506
 21
-39.92600655424296
 31
0.0
  0
ARC
  5
2CE
  8
0
  6
CONTINUOUS
 62
     3
 10
242.7473289053575
 20
-40.0036276435155
 30
0.0
 40
1.483131194015235
 50
110.1015819661953
 51
177.0
  0
ARC
  5
2CF
  8
0
  6
CONTINUOUS
 62
     3
 10
250.0810214474912
 20
-40.0036276435155
 30
0.0
 40
1.483131194015235
 50
2.999999999999979
 51
69.89841803380465
  0
ARC
  5
2D0
  8
0
  6
CONTINUOUS
 62
     3
 10
246.4141751764243
 20
-51.97333414701436
 30
0.0
 40
14.0
 50
72.64285714285714
 51
107.3571428571429
  0
LINE
  5
2D1
  8
0
  6
CONTINUOUS
 62
     3
 10
254.4141751764242
 20
-58.97333414701363
 30
0.0
 11
237.4141751764243
 21
-58.97333414701362
 31
0.0
  0
LINE
  5
2D2
  8
0
  6
CONTINUOUS
 62
     3
 10
253.0734154035339
 20
-44.97333414701352
 30
0.0
 11
237.4141751764243
 21
-44.97333414701347
 31
0.0
  0
LINE
  5
2D3
  8
0
  6
CONTINUOUS
 62
     3
 10
254.4141751764243
 20
-59.97333414701363
 30
0.0
 11
237.4141751764243
 21
-59.97333414701363
 31
0.0
  0
LINE
  5
2D4
  8
0
  6
CONTINUOUS
 62
     3
 10
240.4733781073466
 20
-94.01522321301599
 30
0.0
 11
244.4211955732128
 21
-71.62603779167969
 31
0.0
  0
ARC
  5
2D5
  8
0
  6
CONTINUOUS
 62
     3
 10
234.5645315892733
 20
-92.97333414701458
 30
0.0
 40
6.000000000000001
 50
298.3554824316365
 51
350.0000000000015
  0
ARC
  5
2D6
  8
0
  6
CONTINUOUS
 62
     3
 10
-123.8404917484858
 20
-98.97333414701404
 30
0.0
 40
2.0
 50
90.0
 51
131.4096221092661
  0
LINE
  5
2D7
  8
0
  6
CONTINUOUS
 62
     3
 10
-64.26751616634033
 20
42.02666585299346
 30
0.0
 11
-65.76751616634033
 21
42.02666585299346
 31
0.0
  0
LINE
  5
2D8
  8
0
  6
CONTINUOUS
 62
     3
 10
-64.26751616634033
 20
-117.9733341470066
 30
0.0
 11
-65.76751616634033
 21
-117.9733341470066
 31
0.0
  0
LINE
  5
2D9
  8
0
  6
CONTINUOUS
 62
     3
 10
-115.2675161663403
 20
38.30850631128993
 30
0.0
 11
-115.2675161663403
 21
-114.2551746053031
 31
0.0
  0
LINE
  5
2DA
  8
0
  6
CONTINUOUS
 62
     3
 10
-64.26751616634033
 20
42.02666585299346
 30
0.0
 11
-64.26751616634033
 21
-117.9733341470066
 31
0.0
  0
LINE
  5
2DB
  8
0
  6
CONTINUOUS
 62
     3
 10
-116.2675161663403
 20
-64.97333414700654
 30
0.0
 11
-116.2675161663403
 21
-107.9733341470065
 31
0.0
  0
LINE
  5
2DC
  8
0
  6
CONTINUOUS
 62
     3
 10
-67.26751616634033
 20
40.52666585299346
 30
0.0
 11
-67.26751616634033
 21
19.02666585299346
 31
0.0
  0
LINE
  5
2DD
  8
0
  6
CONTINUOUS
 62
     3
 10
-67.26751616634033
 20
-116.4733341470066
 30
0.0
 11
-67.26751616634033
 21
-94.97333414700657
 31
0.0
  0
CIRCLE
  5
2DE
  8
0
  6
CONTINUOUS
 62
     3
 10
-84.26751616634033
 20
-74.97333414700657
 30
0.0
 40
9.3155
  0
CIRCLE
  5
2DF
  8
0
  6
CONTINUOUS
 62
     3
 10
-84.26751616634033
 20
-0.9733341470065398
 30
0.0
 40
12.0585
  0
LINE
  5
2E0
  8
0
  6
CONTINUOUS
 62
     3
 10
-69.26751616634033
 20
17.02666585299346
 30
0.0
 11
-84.26751616634033
 21
17.02666585299346
 31
0.0
  0
LINE
  5
2E1
  8
0
  6
CONTINUOUS
 62
     3
 10
-84.26751616634033
 20
-18.97333414700654
 30
0.0
 11
-69.26751616634033
 21
-18.97333414700654
 31
0.0
  0
LINE
  5
2E2
  8
0
  6
CONTINUOUS
 62
     3
 10
-84.26751616634033
 20
-56.97333414700657
 30
0.0
 11
-69.26751616634033
 21
-56.97333414700657
 31
0.0
  0
LINE
  5
2E3
  8
0
  6
CONTINUOUS
 62
     3
 10
-69.26751616634033
 20
-92.97333414700657
 30
0.0
 11
-84.26751616634033
 21
-92.97333414700657
 31
0.0
  0
ARC
  5
2E4
  8
0
  6
CONTINUOUS
 62
     3
 10
-84.26751616634033
 20
-0.9733341470065398
 30
0.0
 40
18.0
 50
90.0
 51
270.0
  0
ARC
  5
2E5
  8
0
  6
CONTINUOUS
 62
     3
 10
-84.26751616634033
 20
-74.97333414700657
 30
0.0
 40
18.0
 50
90.0
 51
270.0
  0
LINE
  5
2E6
  8
0
  6
CONTINUOUS
 62
     3
 10
-67.26751616634033
 20
-54.97333414700657
 30
0.0
 11
-67.26751616634033
 21
-20.97333414700654
 31
0.0
  0
ARC
  5
2E7
  8
0
  6
CONTINUOUS
 62
     3
 10
-69.26751616634033
 20
19.02666585299346
 30
0.0
 40
2.0
 50
270.0
 51
0.0
  0
ARC
  5
2E8
  8
0
  6
CONTINUOUS
 62
     3
 10
-69.26751616634033
 20
-20.97333414700654
 30
0.0
 40
2.0
 50
0.0
 51
90.0
  0
ARC
  5
2E9
  8
0
  6
CONTINUOUS
 62
     3
 10
-69.26751616634033
 20
-54.97333414700657
 30
0.0
 40
2.0
 50
270.0
 51
0.0
  0
ARC
  5
2EA
  8
0
  6
CONTINUOUS
 62
     3
 10
-69.26751616634033
 20
-94.97333414700657
 30
0.0
 40
2.0
 50
0.0
 51
90.0
  0
LINE
  5
2EB
  8
0
  6
CONTINUOUS
 62
     3
 10
-113.8067815888021
 20
39.80799229875328
 30
0.0
 11
-67.37353988026439
 21
41.02388952433617
 31
0.0
  0
LINE
  5
2EC
  8
0
  6
CONTINUOUS
 62
     3
 10
-113.8067815888021
 20
-115.7546605927664
 30
0.0
 11
-67.37353988026439
 21
-116.9705578183492
 31
0.0
  0
ARC
  5
2ED
  8
0
  6
CONTINUOUS
 62
     3
 10
-116.2675161663403
 20
-108.9733341470065
 30
0.0
 40
1.0
 50
0.0
 51
90.0
  0
ARC
  5
2EE
  8
0
  6
CONTINUOUS
 62
     3
 10
-116.2675161663403
 20
-63.97333414700654
 30
0.0
 40
1.0
 50
270.0
 51
0.0
  0
ARC
  5
2EF
  8
0
  6
CONTINUOUS
 62
     3
 10
-113.7675161663403
 20
38.30850631128993
 30
0.0
 40
1.5
 50
91.50000000000055
 51
180.0
  0
ARC
  5
2F0
  8
0
  6
CONTINUOUS
 62
     3
 10
-113.7675161663403
 20
-114.2551746053031
 30
0.0
 40
1.5
 50
180.0
 51
268.4999999999994
  0
ARC
  5
2F1
  8
0
  6
CONTINUOUS
 62
     3
 10
-65.76751616634033
 20
-116.4733341470066
 30
0.0
 40
1.5
 50
180.0
 51
270.0
  0
ARC
  5
2F2
  8
0
  6
CONTINUOUS
 62
     3
 10
-65.76751616634033
 20
40.52666585299346
 30
0.0
 40
1.5
 50
90.0
 51
180.0
  0
ARC
  5
2F3
  8
0
  6
CONTINUOUS
 62
     3
 10
-67.38139296475686
 20
41.32378672182881
 30
0.0
 40
0.3
 50
271.5000000000038
 51
333.7144599471188
  0
ARC
  5
2F4
  8
0
  6
CONTINUOUS
 62
     3
 10
-67.38139296475686
 20
-117.2704550158419
 30
0.0
 40
0.3
 50
26.28554005288118
 51
88.4999999999962
  0
LINE
  5
2F5
  8
0
  6
CONTINUOUS
 62
     3
 10
-70.26751616634033
 20
40.94810808828589
 30
0.0
 11
-115.2675161663403
 21
18.16817494095829
 31
0.0
  0
LINE
  5
2F6
  8
0
  6
CONTINUOUS
 62
     3
 10
-70.26751616634033
 20
-116.894776382299
 30
0.0
 11
-115.2675161663403
 21
-94.11484323497149
 31
0.0
  0
LINE
  5
2F7
  8
0
  6
CONTINUOUS
 62
     3
 10
-227.8703184897201
 20
-100.4556960568091
 30
0.0
 11
-226.973743017552
 21
-103.8017612717603
 31
0.0
  0
LINE
  5
2F8
  8
0
  6
CENTERX2
 62
   222
 10
-305.104408339334
 20
199.0371526902987
 30
0.0
 11
-38.61692716792987
 21
199.0371526902987
 31
0.0
  0
LINE
  5
2F9
  8
0
  6
CENTERX2
 62
   222
 10
184.4141751764242
 20
-274.0250962615507
 30
0.0
 11
184.4141751764242
 21
88.53938593443183
 31
0.0
  0
LINE
  5
2FA
  8
0
  6
CENTERX2
 62
   222
 10
-197.2675161663404
 20
-274.0250962615507
 30
0.0
 11
-197.2675161663403
 21
88.53938593443183
 31
0.0
  0
LINE
  5
2FB
  8
0
  6
CENTERX2
 62
   222
 10
-197.2675161663403
 20
120.8101318096758
 30
0.0
 11
-197.2675161663403
 21
282.7941884970098
 31
0.0
  0
LINE
  5
2FC
  8
0
  6
CENTER
 62
   222
 10
109.5569309341805
 20
188.6658066218936
 30
0.0
 11
72.52713347459479
 21
188.6658066218936
 31
0.0
  0
LINE
  5
2FD
  8
0
  6
CENTER
 62
   222
 10
91.04203220438762
 20
207.1807053516864
 30
0.0
 11
91.04203220438762
 21
170.1509078921007
 31
0.0
  0
LINE
  5
2FE
  8
0
  6
CENTER
 62
   222
 10
-66.6576096385993
 20
-110.9733341470065
 30
0.0
 11
-54.08681079236521
 21
-110.9733341470064
 31
0.0
  0
LINE
  5
2FF
  8
0
  6
CENTER
 62
   222
 10
-66.6576096385993
 20
35.02666585299349
 30
0.0
 11
-54.08681079236521
 21
35.0266658529936
 31
0.0
  0
LINE
  5
300
  8
0
  6
CENTER
 62
   222
 10
143.2141751764249
 20
35.02666585299346
 30
0.0
 11
133.614175176425
 21
35.02666585299346
 31
0.0
  0
LINE
  5
301
  8
0
  6
CENTER
 62
   222
 10
138.414175176425
 20
39.82666585299341
 30
0.0
 11
138.414175176425
 21
30.22666585299339
 31
0.0
  0
LINE
  5
302
  8
0
  6
CENTER
 62
   222
 10
235.2141751764252
 20
35.02666585299346
 30
0.0
 11
225.6141751764252
 21
35.02666585299346
 31
0.0
  0
LINE
  5
303
  8
0
  6
CENTER
 62
   222
 10
230.4141751764252
 20
39.82666585299341
 30
0.0
 11
230.4141751764252
 21
30.22666585299339
 31
0.0
  0
LINE
  5
304
  8
0
  6
CENTER
 62
   222
 10
235.2141751764252
 20
-110.973334147004
 30
0.0
 11
225.6141751764252
 21
-110.973334147004
 31
0.0
  0
LINE
  5
305
  8
0
  6
CENTER
 62
   222
 10
230.4141751764252
 20
-106.1733341470041
 30
0.0
 11
230.4141751764252
 21
-115.773334147004
 31
0.0
  0
LINE
  5
306
  8
0
  6
CENTER
 62
   222
 10
133.6141751764234
 20
-110.973334147004
 30
0.0
 11
143.2141751764233
 21
-110.973334147004
 31
0.0
  0
LINE
  5
307
  8
0
  6
CENTER
 62
   222
 10
138.4141751764234
 20
-106.1733341470041
 30
0.0
 11
138.4141751764233
 21
-115.773334147004
 31
0.0
  0
LINE
  5
308
  8
0
  6
CENTER
 62
   222
 10
-61.18012292378853
 20
153.0371526902995
 30
0.0
 11
-53.58681079236533
 21
153.0371526902995
 31
0.0
  0
LINE
  5
309
  8
0
  6
CENTER
 62
   222
 10
-61.18012292378694
 20
245.0371526902995
 30
0.0
 11
-53.58681079236521
 21
245.0371526902995
 31
0.0
  0
LINE
  5
30A
  8
0
  6
CONTINUOUS
 62
     4
 10
-248.7805525502062
 20
-110.4733341470142
 30
0.0
 11
-253.0734457690198
 21
-116.973334147014
 31
0.0
  0
LINE
  5
30B
  8
0
  6
CONTINUOUS
 62
     4
 10
-248.7805525502062
 20
-116.973334147014
 30
0.0
 11
-253.0734457690198
 21
-110.4733341470142
 31
0.0
  0
LINE
  5
30C
  8
0
  6
CONTINUOUS
 62
     4
 10
-243.0734457690199
 20
-110.4733341470142
 30
0.0
 11
-247.3663389878333
 21
-116.9733341470138
 31
0.0
  0
LINE
  5
30D
  8
0
  6
CONTINUOUS
 62
     4
 10
-243.0734457690193
 20
-116.9733341470136
 30
0.0
 11
-247.3663389878333
 21
-110.4733341470142
 31
0.0
  0
LINE
  5
30E
  8
0
  6
CONTINUOUS
 62
     4
 10
191.4141751764243
 20
-234.9733341470136
 30
0.0
 11
190.6641751764243
 21
-239.4733341470136
 31
0.0
  0
LINE
  5
30F
  8
0
  6
CONTINUOUS
 62
     4
 10
190.6641751764243
 20
-239.4733341470136
 30
0.0
 11
190.6641751764243
 21
-263.2233341470136
 31
0.0
  0
LINE
  5
310
  8
0
  6
CONTINUOUS
 62
     4
 10
177.4141751764243
 20
-234.9733341470136
 30
0.0
 11
178.1641751764243
 21
-239.4733341470136
 31
0.0
  0
LINE
  5
311
  8
0
  6
CONTINUOUS
 62
     4
 10
178.1641751764243
 20
-239.4733341470136
 30
0.0
 11
178.1641751764243
 21
-263.2233341470136
 31
0.0
  0
LINE
  5
312
  8
0
  6
CONTINUOUS
 62
     4
 10
191.4141751764243
 20
-234.9733341470138
 30
0.0
 11
190.6641751764243
 21
-239.4733341470138
 31
0.0
  0
LINE
  5
313
  8
0
  6
CONTINUOUS
 62
     4
 10
190.6641751764243
 20
-239.4733341470138
 30
0.0
 11
190.6641751764243
 21
-263.2233341470138
 31
0.0
  0
LINE
  5
314
  8
0
  6
CONTINUOUS
 62
     4
 10
177.4141751764243
 20
-234.9733341470138
 30
0.0
 11
178.1641751764243
 21
-239.4733341470138
 31
0.0
  0
LINE
  5
315
  8
0
  6
CONTINUOUS
 62
     4
 10
178.1641751764243
 20
-239.4733341470138
 30
0.0
 11
178.1641751764243
 21
-263.2233341470138
 31
0.0
  0
LINE
  5
316
  8
0
  6
CONTINUOUS
 62
     4
 10
-190.2675161663402
 20
-234.9733341470138
 30
0.0
 11
-191.0175161663402
 21
-239.4733341470138
 31
0.0
  0
LINE
  5
317
  8
0
  6
CONTINUOUS
 62
     4
 10
-191.0175161663402
 20
-239.4733341470138
 30
0.0
 11
-191.0175161663402
 21
-263.2233341470138
 31
0.0
  0
LINE
  5
318
  8
0
  6
CONTINUOUS
 62
     4
 10
-204.2675161663402
 20
-234.9733341470138
 30
0.0
 11
-203.5175161663402
 21
-239.4733341470138
 31
0.0
  0
LINE
  5
319
  8
0
  6
CONTINUOUS
 62
     4
 10
-203.5175161663402
 20
-239.4733341470138
 30
0.0
 11
-203.5175161663402
 21
-263.2233341470138
 31
0.0
  0
LINE
  5
31A
  8
0
  6
CONTINUOUS
 62
     4
 10
-190.2675161663402
 20
-234.973334147014
 30
0.0
 11
-191.0175161663402
 21
-239.473334147014
 31
0.0
  0
LINE
  5
31B
  8
0
  6
CONTINUOUS
 62
     4
 10
-191.0175161663402
 20
-239.473334147014
 30
0.0
 11
-191.0175161663402
 21
-263.223334147014
 31
0.0
  0
LINE
  5
31C
  8
0
  6
CONTINUOUS
 62
     4
 10
-204.2675161663402
 20
-234.973334147014
 30
0.0
 11
-203.5175161663402
 21
-239.473334147014
 31
0.0
  0
LINE
  5
31D
  8
0
  6
CONTINUOUS
 62
     4
 10
-203.5175161663402
 20
-239.473334147014
 30
0.0
 11
-203.5175161663402
 21
-263.223334147014
 31
0.0
  0
CIRCLE
  5
31E
  8
0
  6
CONTINUOUS
 62
     4
 10
49.84796180706701
 20
246.2208637417632
 30
0.0
 40
2.999999999999972
  0
CIRCLE
  5
31F
  8
0
  6
CONTINUOUS
 62
     4
 10
213.847961807067
 20
246.2208637417632
 30
0.0
 40
3.000000000000007
  0
CIRCLE
  5
320
  8
0
  6
CONTINUOUS
 62
     4
 10
213.847961807067
 20
122.2208637417632
 30
0.0
 40
3.000000000000007
  0
CIRCLE
  5
321
  8
0
  6
CONTINUOUS
 62
     4
 10
49.84796180706701
 20
122.2208637417632
 30
0.0
 40
2.999999999999972
  0
CIRCLE
  5
322
  8
0
  6
CONTINUOUS
 62
     4
 10
-84.26751616634033
 20
-74.97333414700657
 30
0.0
 40
10.4775
  0
CIRCLE
  5
323
  8
0
  6
CONTINUOUS
 62
     4
 10
-84.26751616634033
 20
-0.9733341470065398
 30
0.0
 40
13.2205
  0
LINE
  5
324
  8
0
  6
CENTER
 62
     4
 10
176.8479618070671
 20
141.8193625220221
 30
0.0
 11
176.847961807067
 21
156.300968827145
 31
0.0
  0
LINE
  5
325
  8
0
  6
CENTER
 62
     4
 10
168.7512907618428
 20
149.2208637417632
 30
0.0
 11
183.7322628016253
 21
149.2208637417632
 31
0.0
  0
LINE
  5
326
  8
0
  6
CENTER
 62
     4
 10
99.44646058732582
 20
149.2208637417632
 30
0.0
 11
113.9280668924487
 21
149.2208637417632
 31
0.0
  0
LINE
  5
327
  8
0
  6
CENTER
 62
     4
 10
106.847961807067
 20
157.3175347869874
 30
0.0
 11
106.8479618070671
 21
142.336562747205
 31
0.0
  0
LINE
  5
328
  8
0
  6
CENTER
 62
     4
 10
106.8479618070671
 20
226.6223649615042
 30
0.0
 11
106.8479618070671
 21
212.1407586563814
 31
0.0
  0
LINE
  5
329
  8
0
  6
CENTER
 62
     4
 10
114.9446328522914
 20
219.2208637417632
 30
0.0
 11
99.96366081250898
 21
219.2208637417632
 31
0.0
  0
LINE
  5
32A
  8
0
  6
CENTER
 62
     4
 10
184.2494630268081
 20
219.2208637417633
 30
0.0
 11
169.7678567216852
 21
219.2208637417632
 31
0.0
  0
LINE
  5
32B
  8
0
  6
CENTER
 62
     4
 10
176.8479618070671
 20
211.1241926965389
 30
0.0
 11
176.847961807067
 21
226.1051647363213
 31
0.0
  0
LINE
  5
32C
  8
0
  6
CENTER
 62
     4
 10
141.8479618070671
 20
236.7832988500403
 30
0.0
 11
141.8479618070671
 21
132.6770371875738
 31
0.0
  0
LINE
  5
32D
  8
0
  6
CENTER
 62
     4
 10
92.10204808822215
 20
184.2208637417631
 30
0.0
 11
192.0615194538609
 21
184.2208637417631
 31
0.0
  0
LINE
  5
32E
  8
0
  6
CENTER
 62
     4
 10
-84.26751616634033
 20
21.52666585299346
 30
0.0
 11
-84.26751616634033
 21
-97.47333414700657
 31
0.0
  0
LINE
  5
32F
  8
0
  6
CENTER
 62
     4
 10
-106.7675161663403
 20
-0.9733341470065398
 30
0.0
 11
-61.76751616634033
 21
-0.9733341470065398
 31
0.0
  0
LINE
  5
330
  8
0
  6
CENTER
 62
     4
 10
-106.7675161663403
 20
-74.97333414700657
 30
0.0
 11
-61.76751616634033
 21
-74.97333414700657
 31
0.0
  0
ARC
  5
331
  8
0
  6
CONTINUOUS
 62
     7
 10
91.04203220438762
 20
188.6658066218936
 30
0.0
 40
5.000000000000824
 50
81.86989764585682
 51
98.13010235414319
  0
ARC
  5
332
  8
0
  6
CONTINUOUS
 62
     7
 10
91.04203220438762
 20
188.6658066218936
 30
0.0
 40
5.000000000000824
 50
171.8698976458568
 51
188.1301023541432
  0
ARC
  5
333
  8
0
  6
CONTINUOUS
 62
     7
 10
91.04203220438762
 20
188.6658066218936
 30
0.0
 40
5.000000000000824
 50
261.8698976458568
 51
278.1301023541432
  0
ARC
  5
334
  8
0
  6
CONTINUOUS
 62
     7
 10
91.04203220438762
 20
188.6658066218936
 30
0.0
 40
5.000000000000824
 50
351.8698976458568
 51
8.130102354143212
  0
LINE
  5
335
  8
0
  6
CONTINUOUS
 62
     7
 10
91.74913898557318
 20
183.7160591535867
 30
0.0
 11
95.99177967269443
 21
187.958699840708
 31
0.0
  0
LINE
  5
336
  8
0
  6
CONTINUOUS
 62
     7
 10
95.99177967269443
 20
189.3729134030791
 30
0.0
 11
91.74913898557318
 21
193.6155540902004
 31
0.0
  0
LINE
  5
337
  8
0
  6
CONTINUOUS
 62
     7
 10
90.33492542320207
 20
193.6155540902004
 30
0.0
 11
86.09228473608081
 21
189.3729134030791
 31
0.0
  0
LINE
  5
338
  8
0
  6
CONTINUOUS
 62
     7
 10
86.09228473608081
 20
187.958699840708
 30
0.0
 11
90.33492542320207
 21
183.7160591535867
 31
0.0
  0
LINE
  5
339
  8
0
  6
CONTINUOUS
 62
     7
 10
-63.76751616634033
 20
42.02666585299337
 30
0.0
 11
-63.76751616634033
 21
-117.9733341470066
 31
0.0
  0
LINE
  5
33A
  8
0
  6
CONTINUOUS
 62
     7
 10
-55.76751616634033
 20
-117.6733341470067
 30
0.0
 11
-55.76751616634033
 21
41.72666585299342
 31
0.0
  0
LINE
  5
33B
  8
0
  6
CONTINUOUS
 62
     7
 10
-56.06751616634028
 20
42.02666585299337
 30
0.0
 11
-64.26751616634033
 21
42.02666585299346
 31
0.0
  0
LINE
  5
33C
  8
0
  6
CONTINUOUS
 62
     7
 10
-64.26751616634033
 20
-117.9733341470066
 30
0.0
 11
-56.06751616634028
 21
-117.9733341470066
 31
0.0
  0
LINE
  5
33D
  8
0
  6
CONTINUOUS
 62
     7
 10
-56.06751616634028
 20
30.02666585299337
 30
0.0
 11
-59.06751616634028
 21
30.02666585299337
 31
0.0
  0
LINE
  5
33E
  8
0
  6
CONTINUOUS
 62
     7
 10
-56.06751616634028
 20
-105.9733341470066
 30
0.0
 11
-59.06751616634028
 21
-105.9733341470066
 31
0.0
  0
LINE
  5
33F
  8
0
  6
CONTINUOUS
 62
     7
 10
-59.06751616634028
 20
-105.9733341470066
 30
0.0
 11
-59.06751616634028
 21
-117.6733341470067
 31
0.0
  0
LINE
  5
340
  8
0
  6
CONTINUOUS
 62
     7
 10
-59.06751616634028
 20
30.02666585299337
 30
0.0
 11
-59.06751616634028
 21
41.72666585299342
 31
0.0
  0
LINE
  5
341
  8
0
  6
CONTINUOUS
 62
     7
 10
-55.76751616634033
 20
-117.6733341470067
 30
0.0
 11
-56.06751616634028
 21
-117.9733341470066
 31
0.0
  0
LINE
  5
342
  8
0
  6
CONTINUOUS
 62
     7
 10
-59.06751616634028
 20
-117.6733341470067
 30
0.0
 11
-59.36751616634024
 21
-117.9733341470066
 31
0.0
  0
LINE
  5
343
  8
0
  6
CONTINUOUS
 62
     7
 10
-55.76751616634033
 20
-105.6733341470067
 30
0.0
 11
-56.06751616634028
 21
-105.9733341470066
 31
0.0
  0
LINE
  5
344
  8
0
  6
CONTINUOUS
 62
     7
 10
-55.76751616634033
 20
41.72666585299342
 30
0.0
 11
-56.06751616634028
 21
42.02666585299337
 31
0.0
  0
LINE
  5
345
  8
0
  6
CONTINUOUS
 62
     7
 10
-59.06751616634028
 20
41.72666585299342
 30
0.0
 11
-59.36751616634024
 21
42.02666585299337
 31
0.0
  0
LINE
  5
346
  8
0
  6
CONTINUOUS
 62
     7
 10
-55.76751616634033
 20
29.72666585299342
 30
0.0
 11
-56.06751616634028
 21
30.02666585299337
 31
0.0
  0
ARC
  5
347
  8
0
  6
CONTINUOUS
 62
     7
 10
-66.6576096385993
 20
-110.9733341470065
 30
0.0
 40
9.99009347225918
 50
337.387125604519
 51
22.61287439548094
  0
LINE
  5
348
  8
0
  6
CONTINUOUS
 62
     7
 10
-59.06751616634006
 20
-106.9893341470066
 30
0.0
 11
-57.43551616633999
 21
-107.1321156458808
 31
0.0
  0
LINE
  5
349
  8
0
  6
CONTINUOUS
 62
     7
 10
-59.06751616634006
 20
-114.9573341470064
 30
0.0
 11
-57.43551616633999
 21
-114.8145526481322
 31
0.0
  0
ARC
  5
34A
  8
0
  6
CONTINUOUS
 62
     7
 10
-66.6576096385993
 20
35.02666585299349
 30
0.0
 40
9.99009347225918
 50
337.387125604519
 51
22.61287439548094
  0
LINE
  5
34B
  8
0
  6
CONTINUOUS
 62
     7
 10
-59.06751616634006
 20
39.01066585299341
 30
0.0
 11
-57.43551616633999
 21
38.86788435411918
 31
0.0
  0
LINE
  5
34C
  8
0
  6
CONTINUOUS
 62
     7
 10
-59.06751616634006
 20
31.04266585299357
 30
0.0
 11
-57.43551616633999
 21
31.18544735186779
 31
0.0
  0
LINE
  5
34D
  8
0
  6
CONTINUOUS
 62
     7
 10
234.9141751764252
 20
42.02666585299471
 30
0.0
 11
133.9141751764252
 21
42.02666585299471
 31
0.0
  0
ARC
  5
34E
  8
0
  6
CONTINUOUS
 62
     7
 10
133.9141751764252
 20
39.52666585299471
 30
0.0
 40
2.5
 50
90.00000000000001
 51
180.0
  0
ARC
  5
34F
  8
0
  6
CONTINUOUS
 62
     7
 10
234.9141751764252
 20
39.52666585299471
 30
0.0
 40
2.5
 50
0.0000000000000035
 51
90.00000000000001
  0
CIRCLE
  5
350
  8
0
  6
CONTINUOUS
 62
     7
 10
138.414175176425
 20
35.02666585299346
 30
0.0
 40
4.0
  0
LINE
  5
351
  8
0
  6
CONTINUOUS
 62
     7
 10
136.8585402578146
 20
33.47103093438307
 30
0.0
 11
139.9698100950354
 21
36.58230077160385
 31
0.0
  0
LINE
  5
352
  8
0
  6
CONTINUOUS
 62
     7
 10
139.9698100950354
 20
33.47103093438307
 30
0.0
 11
136.8585402578146
 21
36.58230077160385
 31
0.0
  0
CIRCLE
  5
353
  8
0
  6
CONTINUOUS
 62
     7
 10
230.4141751764252
 20
35.02666585299346
 30
0.0
 40
4.0
  0
LINE
  5
354
  8
0
  6
CONTINUOUS
 62
     7
 10
228.8585402578148
 20
33.47103093438307
 30
0.0
 11
231.9698100950356
 21
36.58230077160385
 31
0.0
  0
LINE
  5
355
  8
0
  6
CONTINUOUS
 62
     7
 10
231.9698100950356
 20
33.47103093438307
 30
0.0
 11
228.8585402578148
 21
36.58230077160385
 31
0.0
  0
LINE
  5
356
  8
0
  6
CONTINUOUS
 62
     7
 10
236.414175176425
 20
30.02666585299346
 30
0.0
 11
229.414175176425
 21
30.02666585299346
 31
0.0
  0
ARC
  5
357
  8
0
  6
CONTINUOUS
 62
     7
 10
236.414175176425
 20
29.02666585299346
 30
0.0
 40
1.0
 50
0.0
 51
90.0
  0
LINE
  5
358
  8
0
  6
CONTINUOUS
 62
     7
 10
225.414175176425
 20
41.02666585299346
 30
0.0
 11
225.414175176425
 21
34.02666585299346
 31
0.0
  0
ARC
  5
359
  8
0
  6
CONTINUOUS
 62
     7
 10
224.414175176425
 20
41.02666585299346
 30
0.0
 40
1.0
 50
0.0
 51
90.0
  0
ARC
  5
35A
  8
0
  6
CONTINUOUS
 62
     7
 10
229.414175176425
 20
34.02666585299346
 30
0.0
 40
4.0
 50
180.0
 51
270.0
  0
LINE
  5
35B
  8
0
  6
CONTINUOUS
 62
     7
 10
143.414175176425
 20
41.02666585299346
 30
0.0
 11
143.414175176425
 21
34.02666585299346
 31
0.0
  0
ARC
  5
35C
  8
0
  6
CONTINUOUS
 62
     7
 10
144.414175176425
 20
41.02666585299346
 30
0.0
 40
1.0
 50
90.0
 51
180.0
  0
LINE
  5
35D
  8
0
  6
CONTINUOUS
 62
     7
 10
139.414175176425
 20
30.02666585299346
 30
0.0
 11
132.414175176425
 21
30.02666585299346
 31
0.0
  0
ARC
  5
35E
  8
0
  6
CONTINUOUS
 62
     7
 10
132.414175176425
 20
29.02666585299346
 30
0.0
 40
1.0
 50
90.0
 51
180.0
  0
ARC
  5
35F
  8
0
  6
CONTINUOUS
 62
     7
 10
139.414175176425
 20
34.02666585299346
 30
0.0
 40
4.0
 50
270.0
 51
0.0
  0
CIRCLE
  5
360
  8
0
  6
CONTINUOUS
 62
     7
 10
230.4141751764252
 20
-110.973334147004
 30
0.0
 40
4.0
  0
LINE
  5
361
  8
0
  6
CONTINUOUS
 62
     7
 10
228.8585402578148
 20
-112.5289690656144
 30
0.0
 11
231.9698100950356
 21
-109.4176992283936
 31
0.0
  0
LINE
  5
362
  8
0
  6
CONTINUOUS
 62
     7
 10
231.9698100950356
 20
-112.5289690656144
 30
0.0
 11
228.8585402578148
 21
-109.4176992283936
 31
0.0
  0
LINE
  5
363
  8
0
  6
CONTINUOUS
 62
     7
 10
236.414175176425
 20
-105.9733341470065
 30
0.0
 11
229.414175176425
 21
-105.9733341470065
 31
0.0
  0
ARC
  5
364
  8
0
  6
CONTINUOUS
 62
     7
 10
229.414175176425
 20
-109.9733341470065
 30
0.0
 40
4.0
 50
90.0
 51
180.0
  0
ARC
  5
365
  8
0
  6
CONTINUOUS
 62
     7
 10
234.9141751764252
 20
-115.4733341470053
 30
0.0
 40
2.5
 50
270.0
 51
0.0
  0
ARC
  5
366
  8
0
  6
CONTINUOUS
 62
     7
 10
236.414175176425
 20
-104.9733341470065
 30
0.0
 40
1.0
 50
270.0
 51
0.0
  0
LINE
  5
367
  8
0
  6
CONTINUOUS
 62
     7
 10
225.414175176425
 20
-109.9733341470065
 30
0.0
 11
225.414175176425
 21
-116.9733341470065
 31
0.0
  0
ARC
  5
368
  8
0
  6
CONTINUOUS
 62
     7
 10
224.414175176425
 20
-116.9733341470065
 30
0.0
 40
1.0
 50
270.0
 51
0.0
  0
LINE
  5
369
  8
0
  6
CONTINUOUS
 62
     7
 10
237.4141751764252
 20
-115.4733341470053
 30
0.0
 11
237.4141751764252
 21
39.52666585299471
 31
0.0
  0
LINE
  5
36A
  8
0
  6
CONTINUOUS
 62
     7
 10
234.9141751764252
 20
-117.9733341470053
 30
0.0
 11
133.9141751764233
 21
-117.9733341470053
 31
0.0
  0
LINE
  5
36B
  8
0
  6
CONTINUOUS
 62
     7
 10
131.4141751764252
 20
39.52666585299471
 30
0.0
 11
131.4141751764233
 21
-115.4733341470053
 31
0.0
  0
CIRCLE
  5
36C
  8
0
  6
CONTINUOUS
 62
     7
 10
138.4141751764233
 20
-110.973334147004
 30
0.0
 40
4.0
  0
LINE
  5
36D
  8
0
  6
CONTINUOUS
 62
     7
 10
139.9698100950337
 20
-112.5289690656144
 30
0.0
 11
136.8585402578129
 21
-109.4176992283936
 31
0.0
  0
LINE
  5
36E
  8
0
  6
CONTINUOUS
 62
     7
 10
136.8585402578129
 20
-112.5289690656144
 30
0.0
 11
139.9698100950337
 21
-109.4176992283936
 31
0.0
  0
LINE
  5
36F
  8
0
  6
CONTINUOUS
 62
     7
 10
132.4141751764236
 20
-105.9733341470065
 30
0.0
 11
139.4141751764236
 21
-105.9733341470065
 31
0.0
  0
ARC
  5
370
  8
0
  6
CONTINUOUS
 62
     7
 10
139.4141751764236
 20
-109.9733341470065
 30
0.0
 40
4.0
 50
359.9999999999999
 51
90.0
  0
ARC
  5
371
  8
0
  6
CONTINUOUS
 62
     7
 10
133.9141751764233
 20
-115.4733341470053
 30
0.0
 40
2.5
 50
180.0
 51
270.0
  0
ARC
  5
372
  8
0
  6
CONTINUOUS
 62
     7
 10
132.4141751764236
 20
-104.9733341470065
 30
0.0
 40
1.0
 50
180.0
 51
270.0
  0
LINE
  5
373
  8
0
  6
CONTINUOUS
 62
     7
 10
143.4141751764236
 20
-109.9733341470065
 30
0.0
 11
143.4141751764236
 21
-116.9733341470065
 31
0.0
  0
ARC
  5
374
  8
0
  6
CONTINUOUS
 62
     7
 10
144.4141751764236
 20
-116.9733341470065
 30
0.0
 40
1.0
 50
180.0
 51
270.0
  0
LINE
  5
375
  8
0
  6
CONTINUOUS
 62
     7
 10
-116.2675161663402
 20
240.0371526902983
 30
0.0
 11
-116.2675161663402
 21
200.0371526902983
 31
0.0
  0
LINE
  5
376
  8
0
  6
CONTINUOUS
 62
     7
 10
-55.26751616634033
 20
251.7371526902988
 30
0.0
 11
-55.26751616634044
 21
146.3371526902988
 31
0.0
  0
LINE
  5
377
  8
0
  6
CONTINUOUS
 62
     7
 10
-55.5675161663404
 20
146.0371526902988
 30
0.0
 11
-64.26751616634033
 21
146.0371526902988
 31
0.0
  0
LINE
  5
378
  8
0
  6
CONTINUOUS
 62
     7
 10
-64.26751616634033
 20
252.0371526902988
 30
0.0
 11
-55.56751616634028
 21
252.0371526902988
 31
0.0
  0
LINE
  5
379
  8
0
  6
CONTINUOUS
 62
     7
 10
-55.5675161663404
 20
158.0371526902986
 30
0.0
 11
-58.5675161663404
 21
158.0371526902986
 31
0.0
  0
LINE
  5
37A
  8
0
  6
CONTINUOUS
 62
     7
 10
-55.56751616634028
 20
240.0371526902988
 30
0.0
 11
-58.56751616634028
 21
240.0371526902988
 31
0.0
  0
LINE
  5
37B
  8
0
  6
CONTINUOUS
 62
     7
 10
-58.56751616634028
 20
240.0371526902988
 30
0.0
 11
-58.56751616634028
 21
251.7371526902988
 31
0.0
  0
LINE
  5
37C
  8
0
  6
CONTINUOUS
 62
     7
 10
-58.5675161663404
 20
158.0371526902986
 30
0.0
 11
-58.5675161663404
 21
146.3371526902988
 31
0.0
  0
LINE
  5
37D
  8
0
  6
CONTINUOUS
 62
     7
 10
-55.26751616634033
 20
251.7371526902988
 30
0.0
 11
-55.56751616634028
 21
252.0371526902988
 31
0.0
  0
LINE
  5
37E
  8
0
  6
CONTINUOUS
 62
     7
 10
-58.56751616634028
 20
251.7371526902988
 30
0.0
 11
-58.86751616634024
 21
252.0371526902988
 31
0.0
  0
LINE
  5
37F
  8
0
  6
CONTINUOUS
 62
     7
 10
-55.26751616634033
 20
239.7371526902988
 30
0.0
 11
-55.56751616634028
 21
240.0371526902988
 31
0.0
  0
LINE
  5
380
  8
0
  6
CONTINUOUS
 62
     7
 10
-55.26751616634044
 20
146.3371526902988
 30
0.0
 11
-55.5675161663404
 21
146.0371526902988
 31
0.0
  0
LINE
  5
381
  8
0
  6
CONTINUOUS
 62
     7
 10
-58.5675161663404
 20
146.3371526902988
 30
0.0
 11
-58.86751616634035
 21
146.0371526902988
 31
0.0
  0
LINE
  5
382
  8
0
  6
CONTINUOUS
 62
     7
 10
-55.26751616634044
 20
158.3371526902988
 30
0.0
 11
-55.5675161663404
 21
158.0371526902986
 31
0.0
  0
ARC
  5
383
  8
0
  6
CONTINUOUS
 62
     7
 10
-66.15760963859941
 20
153.0371526902997
 30
0.0
 40
9.99009347225918
 50
337.387125604519
 51
22.61287439548094
  0
LINE
  5
384
  8
0
  6
CONTINUOUS
 62
     7
 10
-58.56751616634017
 20
149.0531526902998
 30
0.0
 11
-56.93551616634011
 21
149.195934189174
 31
0.0
  0
LINE
  5
385
  8
0
  6
CONTINUOUS
 62
     7
 10
-58.56751616634017
 20
157.0211526902994
 30
0.0
 11
-56.93551616634011
 21
156.8783711914252
 31
0.0
  0
ARC
  5
386
  8
0
  6
CONTINUOUS
 62
     7
 10
-66.1576096385993
 20
245.0371526902997
 30
0.0
 40
9.99009347225918
 50
337.387125604519
 51
22.61287439548094
  0
LINE
  5
387
  8
0
  6
CONTINUOUS
 62
     7
 10
-58.56751616634006
 20
241.0531526902998
 30
0.0
 11
-56.93551616633999
 21
241.195934189174
 31
0.0
  0
LINE
  5
388
  8
0
  6
CONTINUOUS
 62
     7
 10
-58.56751616634006
 20
249.0211526902996
 30
0.0
 11
-56.93551616633999
 21
248.8783711914254
 31
0.0
  0
LINE
  5
389
  8
0
  6
CONTINUOUS
 62
     7
 10
-115.2675161663403
 20
149.7553524789796
 30
0.0
 11
-115.2675161663403
 21
248.3189529016178
 31
0.0
  0
LINE
  5
38A
  8
0
  6
CONTINUOUS
 62
     7
 10
-67.26597919627761
 20
147.0371526902986
 30
0.0
 11
-113.8067815888021
 21
148.2558664915163
 31
0.0
  0
LINE
  5
38B
  8
0
  6
CONTINUOUS
 62
     7
 10
-102.2675161663403
 20
146.0371526902986
 30
0.0
 11
-64.26751616634033
 21
146.0371526902986
 31
0.0
  0
LINE
  5
38C
  8
0
  6
CONTINUOUS
 62
     7
 10
-64.26751616634033
 20
252.0371526902988
 30
0.0
 11
-102.2675161663403
 21
252.0371526902988
 31
0.0
  0
LINE
  5
38D
  8
0
  6
CONTINUOUS
 62
     7
 10
-102.2675161663403
 20
252.0371526902988
 30
0.0
 11
-102.2675161663403
 21
250.1206051883998
 31
0.0
  0
ARC
  5
38E
  8
0
  6
CONTINUOUS
 62
     7
 10
-113.7675161663403
 20
149.7553524789796
 30
0.0
 40
1.5
 50
180.0
 51
268.5000000000005
  0
ARC
  5
38F
  8
0
  6
CONTINUOUS
 62
     7
 10
-113.7675161663403
 20
248.3189529016178
 30
0.0
 40
1.5
 50
91.49999999999946
 51
180.0000000000001
  0
LINE
  5
390
  8
0
  6
CONTINUOUS
 62
     7
 10
-102.2675161663403
 20
146.0371526902986
 30
0.0
 11
-102.2675161663403
 21
147.9537001921976
 31
0.0
  0
LINE
  5
391
  8
0
  6
CONTINUOUS
 62
     7
 10
-71.12232572723678
 20
250.9361707024954
 30
0.0
 11
-113.6556130122217
 21
234.7724291894014
 31
0.0
  0
ARC
  5
392
  8
0
  6
CONTINUOUS
 62
     7
 10
-112.7675161663408
 20
232.4354901674464
 30
0.0
 40
2.5
 50
110.8080768081347
 51
180.0
  0
LINE
  5
393
  8
0
  6
CONTINUOUS
 62
     7
 10
-67.26597919627761
 20
251.0371526902988
 30
0.0
 11
-113.8067815888021
 21
249.8184388890811
 31
0.0
  0
LINE
  5
394
  8
0
  6
CONTINUOUS
 62
     7
 10
-64.26751616634033
 20
252.0371526902988
 30
0.0
 11
-64.26751616634033
 21
146.0371526902986
 31
0.0
  0
LINE
  5
395
  8
0
  6
CONTINUOUS
 62
     7
 10
-67.26751616634033
 20
252.0371526902988
 30
0.0
 11
-67.26751616634033
 21
146.0371526902986
 31
0.0
  0
ARC
  5
396
  8
0
  6
CONTINUOUS
 62
     7
 10
-65.76751616634033
 20
250.5371526902988
 30
0.0
 40
1.5
 50
89.99999999999999
 51
180.0
  0
ARC
  5
397
  8
0
  6
CONTINUOUS
 62
     7
 10
-65.76751616634033
 20
147.5371526902986
 30
0.0
 40
1.5
 50
180.0
 51
270.0
  0
LINE
  5
398
  8
0
  6
CONTINUOUS
 62
     7
 10
-71.12232572723656
 20
147.138134678102
 30
0.0
 11
-113.6556130122217
 21
163.301876191196
 31
0.0
  0
ARC
  5
399
  8
0
  6
CONTINUOUS
 62
     7
 10
-112.7675161663408
 20
165.638815213151
 30
0.0
 40
2.5
 50
180.0
 51
249.1919231918653
  0
ARC
  5
39A
  8
0
  6
CONTINUOUS
 62
     7
 10
-116.2675161663403
 20
154.4274125014455
 30
0.0
 40
1.0
 50
0.0
 51
90.0
  0
ARC
  5
39B
  8
0
  6
CONTINUOUS
 62
     7
 10
-116.2675161663403
 20
243.6468928791518
 30
0.0
 40
1.0
 50
270.0
 51
0.0
  0
LINE
  5
39C
  8
0
  6
CONTINUOUS
 62
     7
 10
-116.2675161663403
 20
242.6468928791518
 30
0.0
 11
-116.2675161663403
 21
155.4274125014455
 31
0.0
  0
LINE
  5
39D
  8
0
  6
DASHED2
 62
   150
 10
-59.06751616634006
 20
-110.9733341470065
 30
0.0
 11
-56.75698119242247
 21
-112.3073221361699
 31
0.0
  0
LINE
  5
39E
  8
0
  6
DASHED2
 62
   150
 10
-59.06751616634006
 20
-110.9733341470065
 30
0.0
 11
-56.75698119242247
 21
-109.6393461578432
 31
0.0
  0
LINE
  5
39F
  8
0
  6
DASHED2
 62
   150
 10
-59.06751616634006
 20
35.02666585299349
 30
0.0
 11
-56.75698119242247
 21
33.69267786383014
 31
0.0
  0
LINE
  5
3A0
  8
0
  6
DASHED2
 62
   150
 10
-59.06751616634006
 20
35.02666585299349
 30
0.0
 11
-56.75698119242247
 21
36.36065384215684
 31
0.0
  0
LINE
  5
3A1
  8
0
  6
DASHED2
 62
   150
 10
-58.56751616634017
 20
153.0371526902997
 30
0.0
 11
-56.25698119242259
 21
154.3711406794629
 31
0.0
  0
LINE
  5
3A2
  8
0
  6
DASHED2
 62
   150
 10
-58.56751616634017
 20
153.0371526902997
 30
0.0
 11
-56.25698119242259
 21
151.7031647011363
 31
0.0
  0
LINE
  5
3A3
  8
0
  6
DASHED2
 62
   150
 10
-58.56751616634006
 20
245.0371526902997
 30
0.0
 11
-56.25698119242247
 21
246.3711406794629
 31
0.0
  0
LINE
  5
3A4
  8
0
  6
DASHED2
 62
   150
 10
-58.56751616634006
 20
245.0371526902997
 30
0.0
 11
-56.25698119242247
 21
243.7031647011362
 31
0.0
  0
LINE
  5
3A5
  8
0
  6
CENTER
 62
   150
 10
-84.26751616634033
 20
243.3015215528828
 30
0.0
 11
-84.26751616634033
 21
259.9568304798622
 31
0.0
  0
LINE
  5
3A6
  8
0
  6
CENTER
 62
   150
 10
-84.26751616634033
 20
154.7727838277146
 30
0.0
 11
-84.26751616634033
 21
140.5247096094276
 31
0.0
  0
INSERT
  5
3A7
  8
0
  6
CONTINUOUS
  2
DC_GROUP_1
 10
0.0
 20
0.0
 30
0.0
  0
INSERT
  5
3A8
  8
0
  6
CONTINUOUS
  2
DC_GROUP_2
 10
0.0
 20
0.0
 30
0.0
  0
INSERT
  5
3A9
  8
0
  6
CONTINUOUS
  2
DC_FILL_GROUP_3
 10
0.0
 20
0.0
 30
0.0
  0
INSERT
  5
3AA
  8
0
 62
     7
  2
*U5
 10
0.0
 20
0.0
 30
0.0
1001
ACAD
1002
{
1000
R14_HATCH_DATA
1000
3AA
1011
1.0
1021
0.0
1031
0.0
1021
0.0
1031
0.0
1011
0.0
1021
1.0
1031
0.0
1021
1.0
1031
0.0
1011
0.0
1021
0.0
1031
1.0
1021
0.0
1031
1.0
1040
0.0
1010
0.0
1020
0.0
1030
1.0
1000
SOLID
1070
     1
1070
     1
1071
        2
1071
        0
1071
        4
1070
     1
1040
-63.26751616634036
1040
252.0371526902988
1040
-63.26751616634036
1040
200.0371526902992
1070
     1
1040
-63.26751616634036
1040
200.0371526902992
1040
-64.26751616634031
1040
200.0371526902992
1070
     1
1040
-64.26751616634031
1040
200.0371526902992
1040
-64.26751616634029
1040
252.0371526902988
1070
     1
1040
-64.26751616634029
1040
252.0371526902988
1040
-63.26751616634036
1040
252.0371526902988
1071
        0
1071
        0
1071
        4
1070
     1
1040
-64.26751616634031
1040
200.0371526902992
1040
-64.26751616634034
1040
146.0371526902989
1070
     1
1040
-64.26751616634034
1040
146.0371526902989
1040
-63.26751616634036
1040
146.0371526902989
1070
     1
1040
-63.26751616634036
1040
146.0371526902989
1040
-63.26751616634036
1040
200.0371526902992
1070
     1
1040
-63.26751616634036
1040
200.0371526902992
1040
-64.26751616634031
1040
200.0371526902992
1071
        0
1070
     0
1070
     1
1071
        0
1002
}
  0
LINE
  5
3AB
  8
LAYER0240
  6
CENTER
 62
   150
 10
-248.0734457690197
 20
-94.35978182419342
 30
0.0
 11
-248.0734457690197
 21
-129.5938722912005
 31
0.0
  0
ARC
  5
3AC
  8
LAYER0016
  6
DIVIDE
 62
   222
 10
-233.873445769019
 20
-108.9733341470139
 30
0.0
 40
4.0
 50
270.0
 51
0.0
  0
LINE
  5
3AD
  8
LAYER0016
  6
DIVIDE
 62
   222
 10
-229.8734457690193
 20
-106.6905569215373
 30
0.0
 11
-229.8734457690193
 21
-108.9733341470136
 31
0.0
  0
LINE
  5
3AE
  8
LAYER0016
  6
DIVIDE
 62
   222
 10
-229.8734457690193
 20
-100.9733341470139
 30
0.0
 11
-266.27344576902
 21
-100.9733341470139
 31
0.0
  0
LINE
  5
3AF
  8
LAYER0016
  6
DIVIDE
 62
   222
 10
-229.8734457690193
 20
-100.9733341470139
 30
0.0
 11
-229.8734457690193
 21
-101.7496526811463
 31
0.0
  0
ARC
  5
3B0
  8
LAYER0016
  6
DIVIDE
 62
   222
 10
-262.27344576902
 20
-108.9733341470139
 30
0.0
 40
4.0
 50
180.0
 51
270.0
  0
LINE
  5
3B1
  8
LAYER0016
  6
DIVIDE
 62
   222
 10
-266.27344576902
 20
-100.9733341470139
 30
0.0
 11
-266.27344576902
 21
-108.9733341470139
 31
0.0
  0
LINE
  5
3B2
  8
LAYER0016
  6
DIVIDE
 62
   222
 10
-259.0734457690197
 20
-113.9733341470139
 30
0.0
 11
-259.0734457690197
 21
-119.9733341470139
 31
0.0
  0
ARC
  5
3B3
  8
LAYER0016
  6
DIVIDE
 62
   222
 10
-260.0734457690197
 20
-113.9733341470139
 30
0.0
 40
1.0
 50
0.0000000000000035
 51
90.00000000000001
  0
ARC
  5
3B4
  8
LAYER0016
  6
DIVIDE
 62
   222
 10
-255.0734457690197
 20
-119.9733341470139
 30
0.0
 40
4.0
 50
180.0
 51
270.0
  0
LINE
  5
3B5
  8
LAYER0016
  6
DIVIDE
 62
   222
 10
-255.0734457690197
 20
-123.9733341470139
 30
0.0
 11
-241.0734457690197
 21
-123.9733341470139
 31
0.0
  0
ARC
  5
3B6
  8
LAYER0016
  6
DIVIDE
 62
   222
 10
-241.0734457690197
 20
-119.9733341470139
 30
0.0
 40
4.0
 50
270.0
 51
0.0
  0
LINE
  5
3B7
  8
LAYER0016
  6
DIVIDE
 62
   222
 10
-237.0734457690197
 20
-113.9733341470139
 30
0.0
 11
-237.0734457690197
 21
-119.9733341470139
 31
0.0
  0
ARC
  5
3B8
  8
LAYER0016
  6
DIVIDE
 62
   222
 10
-236.0734457690198
 20
-113.9733341470139
 30
0.0
 40
1.0
 50
90.0
 51
180.0
  0
LINE
  5
3B9
  8
LAYER0016
  6
DIVIDE
 62
   222
 10
-233.873445769019
 20
-112.9733341470139
 30
0.0
 11
-236.0734457690198
 21
-112.9733341470139
 31
0.0
  0
LINE
  5
3BA
  8
LAYER0016
  6
DIVIDE
 62
   222
 10
-260.0734457690197
 20
-112.9733341470139
 30
0.0
 11
-262.27344576902
 21
-112.9733341470139
 31
0.0
  0
ARC
  5
3BB
  8
LAYER0016
  6
CONTINUOUS
 62
     7
 10
-231.339646710531
 20
-109.1865821094108
 30
0.0
 40
2.894803437090184
 50
44.99999999999995
 51
117.4802467556722
  0
LINE
  5
3BC
  8
LAYER0016
  6
CONTINUOUS
 62
     7
 10
-229.2927115699624
 20
-107.1396469688422
 30
0.0
 11
-223.7100864008722
 21
-112.7222721379325
 31
0.0
  0
ARC
  5
3BD
  8
LAYER0016
  6
CONTINUOUS
 62
     7
 10
-213.8105914642605
 20
-102.8227772013208
 30
0.0
 40
14.0
 50
225.0000000000001
 51
299.9999999999997
  0
ARC
  5
3BE
  8
LAYER0016
  6
CONTINUOUS
 62
     7
 10
-218.8609949680704
 20
-103.4292279470033
 30
0.0
 40
10.0
 50
225.0
 51
300.0
  0
LINE
  5
3BF
  8
LAYER0016
  6
CONTINUOUS
 62
     7
 10
-202.3058645816514
 20
-112.3463275760029
 30
0.0
 11
-206.8105914642605
 21
-114.947132854303
 31
0.0
  0
LINE
  5
3C0
  8
LAYER0016
  6
CONTINUOUS
 62
     7
 10
-205.3058645816514
 20
-107.1501751532962
 30
0.0
 11
-213.8609949680704
 21
-112.0894819848476
 31
0.0
  0
ARC
  5
3C1
  8
LAYER0016
  6
CONTINUOUS
 62
     7
 10
-215.2746930793983
 20
-101.3586755861831
 30
0.0
 40
10.0
 50
224.9999999999998
 51
299.9999999999999
  0
LINE
  5
3C2
  8
LAYER0016
  6
CONTINUOUS
 62
     7
 10
-227.1661311729771
 20
-103.6093731163351
 30
0.0
 11
-222.3457608912638
 21
-108.4297433980485
 31
0.0
  0
ARC
  5
3C3
  8
LAYER0016
  6
CONTINUOUS
 62
     7
 10
-233.5300922036561
 20
-109.9733341470141
 30
0.0
 40
9.0
 50
45.0
 51
90.0
  0
ARC
  5
3C4
  8
LAYER0016
  6
CONTINUOUS
 62
     7
 10
-197.2675161663404
 20
-105.9733341470142
 30
0.0
 40
6.0
 50
256.6582417727775
 51
163.3417582272223
  0
ARC
  5
3C5
  8
LAYER0016
  6
CONTINUOUS
 62
     7
 10
-207.8058645816514
 20
-102.820048134374
 30
0.0
 40
5.0
 50
300.0
 51
343.3417582272226
  0
ARC
  5
3C6
  8
LAYER0016
  6
CONTINUOUS
 62
     7
 10
-199.8058645816514
 20
-116.6764545949251
 30
0.0
 40
5.0
 50
76.65824177277771
 51
120.0
  0
INSERT
  5
3C7
  8
LAYER0016
  6
CONTINUOUS
  2
DC_GROUP_4
 10
0.0
 20
0.0
 30
0.0
  0
TEXT
  5
3C9
  8
LAYER0240
 62
     7
 10
372.2496527777781
 20
-282.2118055555555
 30
0.0
 40
20.0
  1
000
 41
0.7689423076923078
  7
DCSTYLE0
 72
     5
 11
402.2496527777781
 21
-282.2118055555555
 31
0.0
  0
VIEWPORT
  5
B3
 67
     1
  8
0
 10
34.7276222192221
 20
0.2911914707271421
 30
0.0
 40
2038.992183351337
 41
1695.017982157696
 68
     1
 69
     1
1001
ACAD
1000
MVIEW
1002
{
1070
    16
1010
0.0
1020
0.0
1030
0.0
1010
0.0
1020
0.0
1030
1.0
1040
0.0
1040
1695.017982157696
1040
34.7276222192221
1040
0.2911914707271421
1040
50.0
1040
0.0
1040
0.0
1070
     0
1070
   100
1070
     0
1070
     3
1070
     0
1070
     0
1070
     0
1070
     0
1040
0.0
1040
0.0
1040
0.0
1040
0.5
1040
0.5
1040
0.0
1040
0.0
1070
     0
1002
{
1002
}
1002
}
  0
ENDSEC
  0
EOF
