  0
SECTION
  2
HEADER
  9
$ACADVER
  1
AC1009
  9
$INSBASE
 10
0.0
 20
0.0
 30
0.0
  9
$EXTMIN
 10
43.5874716401092428
 20
76.7315925031982715
 30
-0.0015258207003583
  9
$EXTMAX
 10
427.4481003219411832
 20
325.007113406360304
 30
0.0000000349246037
  9
$LIMMIN
 10
0.0
 20
0.0
  9
$LIMMAX
 10
420.0
 20
297.0
  9
$ORTHOMODE
 70
     1
  9
$REGENMODE
 70
     1
  9
$FILLMODE
 70
     1
  9
$QTEXTMODE
 70
     0
  9
$MIRRTEXT
 70
     0
  9
$DRAGMODE
 70
     2
  9
$LTSCALE
 40
0.3
  9
$OSMODE
 70
    37
  9
$ATTMODE
 70
     1
  9
$TEXTSIZE
 40
2.5
  9
$TRACEWID
 40
1.0
  9
$TEXTSTYLE
  7
USER1
  9
$CLAYER
  8
0
  9
$CELTYPE
  6
BYLAYER
  9
$CECOLOR
 62
   256
  9
$DIMSCALE
 40
1.0
  9
$DIMASZ
 40
2.5
  9
$DIMEXO
 40
1.0
  9
$DIMDLI
 40
10.0
  9
$DIMRND
 40
0.0
  9
$DIMDLE
 40
0.0
  9
$DIMEXE
 40
1.0
  9
$DIMTP
 40
0.1
  9
$DIMTM
 40
0.1
  9
$DIMTXT
 40
3.5
  9
$DIMCEN
 40
0.0
  9
$DIMTSZ
 40
0.0
  9
$DIMTOL
 70
     0
  9
$DIMLIM
 70
     0
  9
$DIMTIH
 70
     0
  9
$DIMTOH
 70
     0
  9
$DIMSE1
 70
     0
  9
$DIMSE2
 70
     0
  9
$DIMTAD
 70
     3
  9
$DIMZIN
 70
     8
  9
$DIMBLK
  1
OPEN30
  9
$DIMASO
 70
     1
  9
$DIMSHO
 70
     1
  9
$DIMPOST
  1

  9
$DIMAPOST
  1
"
  9
$DIMALT
 70
     0
  9
$DIMALTD
 70
     2
  9
$DIMALTF
 40
0.0393701
  9
$DIMLFAC
 40
1.0
  9
$DIMTOFL
 70
     1
  9
$DIMTVP
 40
0.0
  9
$DIMTIX
 70
     0
  9
$DIMSOXD
 70
     0
  9
$DIMSAH
 70
     0
  9
$DIMBLK1
  1
OPEN30
  9
$DIMBLK2
  1
OPEN30
  9
$DIMSTYLE
  2
AM_JIS
  9
$DIMCLRD
 70
   256
  9
$DIMCLRE
 70
   256
  9
$DIMCLRT
 70
     2
  9
$DIMTFAC
 40
0.71
  9
$DIMGAP
 40
1.5
  9
$LUNITS
 70
     2
  9
$LUPREC
 70
     2
  9
$SKETCHINC
 40
1.0
  9
$FILLETRAD
 40
1.0
  9
$AUNITS
 70
     0
  9
$AUPREC
 70
     0
  9
$MENU
  1
.
  9
$ELEVATION
 40
0.0
  9
$PELEVATION
 40
0.0
  9
$THICKNESS
 40
0.0
  9
$LIMCHECK
 70
     0
  9
$BLIPMODE
 70
     0
  9
$CHAMFERA
 40
2.5
  9
$CHAMFERB
 40
2.5
  9
$SKPOLY
 70
     0
  9
$TDCREATE
 40
2458047.132974537089467
  9
$TDUPDATE
 40
2458155.7222337969578803
  9
$TDINDWG
 40
0.6316435185
  9
$TDUSRTIMER
 40
0.6316435185
  9
$USRTIMER
 70
     1
  9
$ANGBASE
 50
0.0
  9
$ANGDIR
 70
     0
  9
$PDMODE
 70
     0
  9
$PDSIZE
 40
0.0
  9
$PLINEWID
 40
0.0
  9
$COORDS
 70
     1
  9
$SPLFRAME
 70
     0
  9
$SPLINETYPE
 70
     6
  9
$SPLINESEGS
 70
     8
  9
$ATTDIA
 70
     1
  9
$ATTREQ
 70
     1
  9
$HANDLING
 70
     1
  9
$HANDSEED
  5
2156
  9
$SURFTAB1
 70
     6
  9
$SURFTAB2
 70
     6
  9
$SURFTYPE
 70
     6
  9
$SURFU
 70
     6
  9
$SURFV
 70
     6
  9
$UCSNAME
  2

  9
$UCSORG
 10
0.0
 20
0.0
 30
0.0
  9
$UCSXDIR
 10
1.0
 20
0.0
 30
0.0
  9
$UCSYDIR
 10
0.0
 20
1.0
 30
0.0
  9
$PUCSNAME
  2

  9
$PUCSORG
 10
0.0
 20
0.0
 30
0.0
  9
$PUCSXDIR
 10
1.0
 20
0.0
 30
0.0
  9
$PUCSYDIR
 10
0.0
 20
1.0
 30
0.0
  9
$USERI1
 70
     0
  9
$USERI2
 70
     0
  9
$USERI3
 70
     0
  9
$USERI4
 70
     0
  9
$USERI5
 70
     0
  9
$USERR1
 40
0.0
  9
$USERR2
 40
0.0
  9
$USERR3
 40
0.0
  9
$USERR4
 40
0.0
  9
$USERR5
 40
0.0
  9
$WORLDVIEW
 70
     1
  9
$SHADEDGE
 70
     3
  9
$SHADEDIF
 70
    70
  9
$TILEMODE
 70
     1
  9
$MAXACTVP
 70
    48
  9
$PLIMCHECK
 70
     0
  9
$PEXTMIN
 10
0.0
 20
0.0
 30
0.0
  9
$PEXTMAX
 10
0.0
 20
0.0
 30
0.0
  9
$PLIMMIN
 10
0.0
 20
0.0
  9
$PLIMMAX
 10
12.0
 20
9.0
  9
$UNITMODE
 70
     0
  9
$VISRETAIN
 70
     1
  9
$PLINEGEN
 70
     0
  9
$PSLTSCALE
 70
     1
  0
ENDSEC
  0
SECTION
  2
TABLES
  0
TABLE
  2
VPORT
 70
     1
  0
VPORT
  2
*ACTIVE
 70
     0
 10
0.0
 20
0.0
 11
1.0
 21
1.0
 12
229.1730504437022944
 22
204.2079654949681071
 13
0.0
 23
0.0
 14
2.5
 24
2.5
 15
10.0
 25
10.0
 16
0.0
 26
0.0
 36
1.0
 17
0.0
 27
0.0
 37
0.0
 40
288.5372033955571851
 41
2.1185086551264982
 42
50.0
 43
0.0
 44
0.0
 50
0.0
 51
0.0
 71
     0
 72
  1000
 73
     1
 74
     3
 75
     0
 76
     0
 77
     0
 78
     0
  0
ENDTAB
  0
TABLE
  2
LTYPE
 70
    14
  0
LTYPE
  2
CONTINUOUS
 70
     0
  3
Solid line
 72
    65
 73
     0
 40
0.0
  0
LTYPE
  2
HIDDEN
 70
     0
  3
Hidden __ __ __ __ __ __ __ __ __ __ __ __ __ _
 72
    65
 73
     2
 40
9.5250000000000004
 49
6.3499999999999988
 49
-3.1749999999999989
  0
LTYPE
  2
PHANTOM2
 70
     0
  3
Phantom (.5x) ___ _ _ ___ _ _ ___ _ _ ___ _ _
 72
    65
 73
     6
 40
31.75
 49
15.875
 49
-3.1749999999999989
 49
3.1749999999999989
 49
-3.1749999999999989
 49
3.1749999999999989
 49
-3.1749999999999989
  0
LTYPE
  2
CENTER
 70
     0
  3
Center ____ _ ____ _ ____ _ ____ _ ____ _ ____
 72
    65
 73
     4
 40
50.7999999999999972
 49
31.75
 49
-6.3499999999999988
 49
6.3499999999999988
 49
-6.3499999999999988
  0
LTYPE
  2
AM_ISO02W050
 70
     0
  3
__ __ __ __ __ __ __ __ __ __ __ __ __ __ __
 72
    65
 73
     2
 40
7.5
 49
6.0
 49
-1.5
  0
LTYPE
  2
AM_ISO08W050
 70
     0
  3
____ . ____ . ____ . ____ . ____ . ____ . ____
 72
    65
 73
     4
 40
18.0
 49
12.0
 49
-1.5
 49
3.0
 49
-1.5
  0
LTYPE
  2
AM_ISO09W050
 70
     0
  3
_____ . . _____ . . _____ . . ____ .. ____
 72
    65
 73
     6
 40
22.5
 49
12.0
 49
-1.5
 49
3.0
 49
-1.5
 49
3.0
 49
-1.5
  0
LTYPE
  2
AMCONSTR
 70
     0
  3
_______________________
 72
    65
 73
     2
 40
9999.0
 49
9999.0
 49
0.0
  0
LTYPE
  2
AM_ISO08W050X2
 70
     0
  3
__ . __ . __ . __ . __ . __
 72
    65
 73
     4
 40
9.0
 49
6.0
 49
-0.75
 49
1.5
 49
-0.75
  0
LTYPE
  2
AM_ISO02W050X2
 70
     0
  3
 _ _ _ _ _ _ _ _ _ _ _ _
 72
    65
 73
     2
 40
3.75
 49
3.0
 49
-0.75
  0
LTYPE
  2
AMZIGZAG
 70
     0
  3
/\/-/\/-/\/-/\/-/\/-/\/
 72
    65
 73
     2
 40
11.0000999999999998
 49
0.0001
 49
-11.0
  0
LTYPE
  2
ACISOWELD
 70
     0
  3
_ _ _ _ _
 72
    65
 73
     2
 40
2.0
 49
2.0
 49
-1.0
  0
LTYPE
  2
ACISOTGL
 70
     0
  3
_ _ _ _ _
 72
    65
 73
     2
 40
3.0
 49
2.0
 49
-1.0
  0
LTYPE
  2
ACISOTGB
 70
     0
  3
__ . . __ . .
 72
    65
 73
     6
 40
9.0
 49
4.0
 49
-1.0
 49
1.0
 49
-1.0
 49
1.0
 49
-1.0
  0
ENDTAB
  0
TABLE
  2
LAYER
 70
     2
  0
LAYER
  2
0
 70
     0
 62
     7
  6
CONTINUOUS
  0
LAYER
  2
DEFPOINTS
 70
     0
 62
     7
  6
CONTINUOUS
  0
ENDTAB
  0
TABLE
  2
STYLE
 70
     5
  0
STYLE
  2
STANDARD
 70
     0
 40
0.0
 41
1.0
 50
0.0
 71
     0
 42
2.5
  3
ISOCP.SHX
  4
extfont2.shx
  0
STYLE
  2

 70
     1
 40
0.0
 41
1.0
 50
0.0
 71
     0
 42
2.5
  3
genltshp.shx
  4
extfont2.shx
  0
STYLE
  2
ACISOGDT
 70
     0
 40
0.0
 41
1.0
 50
0.0
 71
     0
 42
2.5
  3
amgdt.shx
  4

  0
STYLE
  2
USER1
 70
     0
 40
0.0
 41
1.0
 50
0.0
 71
     0
 42
2.5
  3
TXT.SHX
  4

  0
ENDTAB
  0
TABLE
  2
VIEW
 70
     5
  0
ENDTAB
  0
TABLE
  2
UCS
 70
     0
  0
ENDTAB
  0
TABLE
  2
APPID
 70
    47
  0
APPID
  2
ACAD
 70
     0
  0
APPID
  2
ACAD_PSEXT
 70
     0
  0
APPID
  2
ACADANNOPO
 70
     0
  0
APPID
  2
ACADANNOTATIVE
 70
     0
  0
APPID
  2
ACAD_DSTYLE_DIMJAG
 70
     0
  0
APPID
  2
ACAD_DSTYLE_DIMTALN
 70
     0
  0
APPID
  2
ACAD_MLEADERVER
 70
     0
  0
APPID
  2
ACAD_NAV_VCDISPLAY
 70
     0
  0
APPID
  2
MCAD_NO_VIS
 70
     0
  0
APPID
  2
ACAD_TEMP_GRAPHIC
 70
     0
  0
APPID
  2
ACATTRIBSERVICES
 70
     0
  0
APPID
  2
DESIGNERASSEMBLIES
 70
     0
  0
APPID
  2
ACAD_DSTYLE_DIMBREAK
 70
     0
  0
APPID
  2
ACAECLAYERSTANDARD
 70
     0
  0
APPID
  2
AD_DRAW
 70
     0
  0
APPID
  2
ACADM_DIM_EDIT
 70
     0
  0
APPID
  2
AMDT_DM_ADJ
 70
     0
  0
APPID
  2
ACAD_DSTYLE_DIMARC_LENGTH_
 70
     0
  0
APPID
  2
ACAD_DSTYLE_DIMJOGGED_JOGA
 70
     0
  0
APPID
  2
ACAD_EXEMPT_FROM_CAD_STAND
 70
     0
  0
APPID
  2
GENIUS_GENREC_14
 70
     0
  0
APPID
  2
GENIUS_GENODEF_13
 70
     0
  0
APPID
  2
GENIUS_GENOBJ-N-REC_13
 70
     0
  0
APPID
  2
GEVID1362489746
 70
     0
  0
APPID
  2
GENIUS_GENBH_13
 70
     0
  0
APPID
  2
GENIUS_GENOENT_13
 70
     0
  0
APPID
  2
GENIUS_GENOLIS_13
 70
     0
  0
APPID
  2
GENIUS_GENOBJ-NBEHI-BHF_13
 70
     0
  0
APPID
  2
GENIUS_GENOREF_13
 70
     0
  0
APPID
  2
GENIUS_GENOBJ-NBEHI-BHB_13
 70
     0
  0
APPID
  2
GEVID1362489747
 70
     0
  0
APPID
  2
ACM_PP_DIM_CONSTRAINT
 70
     0
  0
APPID
  2
ACM_PP_ASSOCVAR
 70
     0
  0
APPID
  2
ACM_PP_DIM_ACTION_MACRO
 70
     0
  0
APPID
  2
ACM_PP_DIM_CONSTRAINT_DRAG
 70
     0
  0
APPID
  2
GEVID1362489748
 70
     0
  0
APPID
  2
ACAD_DSTYLE_DIM_LINETYPE
 70
     0
  0
APPID
  2
ACAD_DSTYLE_DIM_EXT1_LINET
 70
     0
  0
APPID
  2
ACAD_DSTYLE_DIM_EXT2_LINET
 70
     0
  0
APPID
  2
GEVID1508907840
 70
     0
  0
APPID
  2
GEVID1508988586
 70
     0
  0
APPID
  2
GEVID1508988587
 70
     0
  0
APPID
  2
GEVID1508988588
 70
     0
  0
APPID
  2
GEVID1508988589
 70
     0
  0
APPID
  2
GENIUS_GENDTOL_13
 70
     0
  0
APPID
  2
ACAD_DSTYLE_DIMINSPECT
 70
     0
  0
APPID
  2
ACAD_DSTYLE_DIMRADIAL_EXTE
 70
     0
  0
ENDTAB
  0
TABLE
  2
DIMSTYLE
 70
    10
  0
DIMSTYLE
  2
STANDARD
 70
     0
  3

  4

  5

  6

  7

 40
1.0
 41
0.18
 42
0.0625
 43
0.38
 44
0.18
 45
0.0
 46
0.0
 47
0.0
 48
0.0
140
0.18
141
0.09
142
0.0
143
25.3999999999999986
144
1.0
145
0.0
146
1.0
147
0.09
 71
     0
 72
     0
 73
     1
 74
     1
 75
     0
 76
     0
 77
     0
 78
     0
170
     0
171
     2
172
     0
173
     0
174
     0
175
     0
176
     0
177
     0
178
     0
  0
DIMSTYLE
  2
AM_JIS
 70
     0
  3

  4
"
  5
OPEN30
  6
OPEN30
  7
OPEN30
 40
1.0
 41
2.5
 42
1.0
 43
10.0
 44
1.0
 45
0.0
 46
0.0
 47
0.1
 48
0.1
140
3.5
141
0.0
142
0.0
143
0.0393701
144
1.0
145
0.0
146
0.71
147
1.5
 71
     0
 72
     0
 73
     0
 74
     0
 75
     0
 76
     0
 77
     3
 78
     8
170
     0
171
     2
172
     1
173
     0
174
     0
175
     0
176
   256
177
   256
178
     2
  0
DIMSTYLE
  2
AM_ISO
 70
     0
  3

  4
"
  5

  6

  7

 40
1.0
 41
3.5
 42
1.0
 43
10.0
 44
1.0
 45
0.0
 46
0.0
 47
0.1
 48
0.1
140
3.5
141
0.0
142
0.0
143
0.0393701
144
1.0
145
0.0
146
0.71
147
1.5
 71
     0
 72
     0
 73
     0
 74
     0
 75
     0
 76
     0
 77
     1
 78
     8
170
     0
171
     2
172
     1
173
     0
174
     0
175
     0
176
   256
177
   256
178
     2
  0
DIMSTYLE
  2
AM_ISO$3
 70
     0
  3

  4
"
  5

  6

  7

 40
1.0
 41
3.5
 42
1.0
 43
10.0
 44
1.0
 45
0.0
 46
0.0
 47
0.1
 48
0.1
140
3.5
141
0.0
142
0.0
143
0.0393701
144
1.0
145
0.0
146
0.71
147
1.5
 71
     0
 72
     0
 73
     0
 74
     1
 75
     0
 76
     0
 77
     1
 78
     8
170
     0
171
     2
172
     0
173
     0
174
     0
175
     0
176
   256
177
   256
178
     2
  0
DIMSTYLE
  2
AM_ISO$4
 70
     0
  3

  4
"
  5

  6

  7

 40
1.0
 41
3.5
 42
1.0
 43
10.0
 44
1.0
 45
0.0
 46
0.0
 47
0.1
 48
0.1
140
3.5
141
0.0
142
0.0
143
0.0393701
144
1.0
145
0.0
146
0.71
147
1.5
 71
     0
 72
     0
 73
     0
 74
     1
 75
     0
 76
     0
 77
     1
 78
     8
170
     0
171
     2
172
     0
173
     0
174
     0
175
     0
176
   256
177
   256
178
     2
  0
DIMSTYLE
  2
AM_ISO$6
 70
     0
  3

  4
"
  5

  6

  7

 40
1.0
 41
3.5
 42
1.0
 43
10.0
 44
1.0
 45
0.0
 46
0.0
 47
0.1
 48
0.1
140
3.5
141
0.0
142
0.0
143
0.0393701
144
1.0
145
0.0
146
0.71
147
1.5
 71
     0
 72
     0
 73
     0
 74
     0
 75
     0
 76
     0
 77
     0
 78
     8
170
     0
171
     2
172
     1
173
     0
174
     0
175
     0
176
   256
177
   256
178
     2
  0
DIMSTYLE
  2
AM_ISO$7
 70
     0
  3

  4
"
  5

  6

  7

 40
1.0
 41
3.5
 42
1.0
 43
10.0
 44
1.0
 45
0.0
 46
0.0
 47
0.1
 48
0.1
140
3.5
141
0.0
142
0.0
143
0.0393701
144
1.0
145
0.0
146
0.71
147
1.5
 71
     0
 72
     0
 73
     0
 74
     0
 75
     0
 76
     0
 77
     1
 78
     8
170
     0
171
     2
172
     1
173
     0
174
     0
175
     0
176
   256
177
   256
178
     2
  0
DIMSTYLE
  2
AM_ISO$SF
 70
     0
  3

  4
"
  5

  6

  7

 40
1.0
 41
3.5
 42
1.0
 43
10.0
 44
1.0
 45
0.0
 46
0.0
 47
0.1
 48
0.1
140
3.5
141
0.0
142
0.0
143
0.0393701
144
1.0
145
0.0
146
0.71
147
1.5
 71
     0
 72
     0
 73
     0
 74
     0
 75
     1
 76
     1
 77
     1
 78
     8
170
     0
171
     2
172
     1
173
     0
174
     0
175
     0
176
   256
177
   256
178
     2
  0
DIMSTYLE
  2
AM_ISO$SH
 70
     0
  3

  4
"
  5

  6
GENAXEH
  7

 40
1.0
 41
3.5
 42
1.0
 43
10.0
 44
1.0
 45
0.0
 46
0.0
 47
0.1
 48
0.1
140
3.5
141
0.0
142
0.0
143
0.0393701
144
2.0
145
0.0
146
0.71
147
1.5
 71
     0
 72
     0
 73
     0
 74
     0
 75
     1
 76
     1
 77
     1
 78
     8
170
     0
171
     2
172
     1
173
     1
174
     0
175
     0
176
   256
177
   256
178
     2
  0
ENDTAB
  0
ENDSEC
  0
SECTION
  2
BLOCKS
  0
BLOCK
  8
0
  2
$MODEL_SPACE
 70
     0
 10
0.0
 20
0.0
 30
0.0
  3
$MODEL_SPACE
  1

  0
ENDBLK
  5
21
  8
0
  0
BLOCK
 67
     1
  8
0
  2
$PAPER_SPACE
 70
     0
 10
0.0
 20
0.0
 30
0.0
  3
$PAPER_SPACE
  1

  0
ENDBLK
  5
D5
 67
     1
  8
0
  0
BLOCK
  8
0
  2
GENAXEH
 70
     0
 10
0.0
 20
0.0
 30
0.0
  3
GENAXEH
  1

  0
LINE
  5
295
  8
0
 10
-1.0
 20
0.0
 30
0.0
 11
1.0
 21
0.0
 31
0.0
  0
ENDBLK
  5
297
  8
0
  0
BLOCK
  8
0
  2
_OPEN30
 70
     0
 10
0.0
 20
0.0
 30
0.0
  3
_OPEN30
  1

  0
LINE
  5
2C4
  8
0
  6
BYBLOCK
 62
     0
 10
-1.0
 20
0.26794919
 30
0.0
 11
0.0
 21
0.0
 31
0.0
  0
LINE
  5
2C5
  8
0
  6
BYBLOCK
 62
     0
 10
0.0
 20
0.0
 30
0.0
 11
-1.0
 21
-0.26794919
 31
0.0
  0
LINE
  5
2C6
  8
0
  6
BYBLOCK
 62
     0
 10
0.0
 20
0.0
 30
0.0
 11
-1.0
 21
0.0
 31
0.0
  0
ENDBLK
  5
2C8
  8
0
  0
BLOCK
  8
0
  2
*U3
 70
     1
 10
0.0
 20
0.0
 30
0.0
  3
*U3
  1

  0
TEXT
  5
214B
  8
0
 10
417.6850550440403822
 20
76.7397665318242161
 30
0.0
 40
4.5
  1
000
  7
USER1
  0
ENDBLK
  5
214D
  8
0
  0
ENDSEC
  0
SECTION
  2
ENTITIES
  0
LINE
  5
11B3
  8
0
 10
49.5976332529282828
 20
130.9527607177886921
 30
0.0
 11
101.5976332529283042
 21
130.9527607177886921
 31
0.0
  0
LINE
  5
11B4
  8
0
 10
48.5976332529282828
 20
230.9527607177886921
 30
0.0
 11
48.5976332529282828
 21
131.9527607177886921
 31
0.0
  0
LINE
  5
11B5
  8
0
 10
102.5976332529283042
 20
131.9527607177886921
 30
0.0
 11
102.5976332529283042
 21
230.9527607177886921
 31
0.0
  0
LINE
  5
11B6
  8
0
 10
49.5976332529282828
 20
231.9527607177886921
 30
0.0
 11
101.5976332529283042
 21
231.9527607177886921
 31
0.0
  0
LINE
  5
11B7
  8
0
  6
CENTER
 10
75.5976332529282899
 20
236.9527607177886921
 30
0.0
 11
75.5976332529282899
 21
125.9527607177887063
 31
0.0
  0
LINE
  5
11BF
  8
0
  6
CENTER
 10
43.5976332529282828
 20
181.4527607177886068
 30
0.0
 11
107.5976332529283042
 21
181.4527607177886068
 31
0.0
  0
LINE
  5
11C0
  8
0
 10
52.5976332529282828
 20
221.4527607177886921
 30
0.0
 11
98.5976332529282757
 21
221.4527607177886921
 31
0.0
  0
LINE
  5
11C1
  8
0
 10
50.5976332529282828
 20
219.4527607177886921
 30
0.0
 11
50.5976332529282828
 21
143.4527607177886921
 31
0.0
  0
LINE
  5
11C2
  8
0
 10
52.5976332529282828
 20
141.4527607177886921
 30
0.0
 11
98.5976332529282757
 21
141.4527607177886921
 31
0.0
  0
LINE
  5
11C3
  8
0
 10
100.5976332529283042
 20
219.4527607177886921
 30
0.0
 11
100.5976332529283042
 21
143.4527607177886921
 31
0.0
  0
LINE
  5
11D8
  8
0
  6
CENTER
 10
67.3476332529282899
 20
136.4527607177886921
 30
0.0
 11
83.8476332529282757
 21
136.4527607177886921
 31
0.0
  0
ARC
  5
1200
  8
0
 10
49.5976332529282828
 20
230.9527607177886921
 30
0.0
 40
1.0
 50
90.0
 51
180.0
  0
ARC
  5
1201
  8
0
 10
101.5976332529283042
 20
230.9527607177886921
 30
0.0
 40
1.0
 50
0.0
 51
90.0
  0
ARC
  5
1202
  8
0
 10
49.5976332529282828
 20
131.9527607177886921
 30
0.0
 40
1.0
 50
180.0
 51
270.0
  0
ARC
  5
1203
  8
0
 10
101.5976332529283042
 20
131.9527607177886921
 30
0.0
 40
1.0
 50
270.0
 51
0.0
  0
ARC
  5
1205
  8
0
 10
52.5976332529282828
 20
219.4527607177886921
 30
0.0
 40
2.0
 50
90.0
 51
180.0
  0
ARC
  5
1206
  8
0
 10
98.5976332529282757
 20
219.4527607177886921
 30
0.0
 40
2.0
 50
0.0
 51
90.0
  0
ARC
  5
1207
  8
0
 10
52.5976332529282828
 20
143.4527607177886921
 30
0.0
 40
2.0
 50
180.0
 51
270.0
  0
ARC
  5
1208
  8
0
 10
98.5976332529282757
 20
143.4527607177886921
 30
0.0
 40
2.0
 50
270.0
 51
0.0
  0
LINE
  5
1209
  8
0
 10
267.1272699306421146
 20
130.9527607177886921
 30
0.0
 11
302.6272699306421146
 21
130.9527607177886921
 31
0.0
  0
LINE
  5
120C
  8
0
 10
267.1272699306421146
 20
231.9527607177886921
 30
0.0
 11
272.1272699306421146
 21
231.9527607177886921
 31
0.0
  0
LINE
  5
120F
  8
0
 10
272.1272699306421146
 20
142.4527607177886921
 30
0.0
 11
272.1272699306421146
 21
231.9527607177886921
 31
0.0
  0
LINE
  5
1215
  8
0
  6
CENTER
 10
154.600953179558303
 20
181.4527607177886068
 30
0.0
 11
308.6272699306421146
 21
181.4527607177886068
 31
0.0
  0
LINE
  5
1216
  8
0
  6
CENTER
 10
260.8186330937999173
 20
226.4527607177886921
 30
0.0
 11
291.6272699306421146
 21
226.4527607177886921
 31
0.0
  0
LINE
  5
1218
  8
0
 10
166.1272699306420861
 20
221.4527607177886921
 30
0.0
 11
267.1272699306421146
 21
221.4527607177886921
 31
0.0
  0
LINE
  5
121A
  8
0
 10
166.1272699306420861
 20
141.4527607177886921
 30
0.0
 11
267.1272699306421146
 21
141.4527607177886921
 31
0.0
  0
LINE
  5
1230
  8
0
 10
350.5717299196770114
 20
130.9527607177886921
 30
0.0
 11
402.5717299196768977
 21
130.9527607177886921
 31
0.0
  0
ARC
  5
1231
  8
0
 10
402.5717299196768977
 20
131.9527607177886921
 30
0.0
 40
1.0
 50
270.0
 51
0.0
  0
ARC
  5
1232
  8
0
 10
350.5717299196770114
 20
131.9527607177886921
 30
0.0
 40
1.0
 50
180.0
 51
270.0
  0
LINE
  5
1233
  8
0
 10
350.5717299196770114
 20
231.9527607177886921
 30
0.0
 11
402.5717299196768977
 21
231.9527607177886921
 31
0.0
  0
LINE
  5
1234
  8
0
 10
349.5717299196768977
 20
230.9527607177886921
 30
0.0
 11
349.5717299196768977
 21
131.9527607177886921
 31
0.0
  0
ARC
  5
1235
  8
0
 10
350.5717299196770114
 20
230.9527607177886921
 30
0.0
 40
1.0
 50
90.0
 51
180.0
  0
LINE
  5
1236
  8
0
 10
403.5717299196768977
 20
131.9527607177886921
 30
0.0
 11
403.5717299196768977
 21
230.9527607177886921
 31
0.0
  0
ARC
  5
1237
  8
0
 10
402.5717299196768977
 20
230.9527607177886921
 30
0.0
 40
1.0
 50
0.0
 51
90.0
  0
LINE
  5
123C
  8
0
  6
CENTER
 10
344.5717299196770114
 20
181.4527607177886068
 30
0.0
 11
408.5717299196768977
 21
181.4527607177886068
 31
0.0
  0
LINE
  5
123D
  8
0
  6
CENTER
 10
369.0717299196770114
 20
226.4527607177886921
 30
0.0
 11
384.0717299196770114
 21
226.4527607177886921
 31
0.0
  0
LINE
  5
1257
  8
0
 10
267.1272699306421146
 20
130.9527607177886921
 30
0.0
 11
267.1272699306421146
 21
231.9527607177886921
 31
0.0
  0
LINE
  5
1258
  8
0
 10
165.1272699306420861
 20
142.4527607177886921
 30
0.0
 11
165.1272699306420861
 21
220.4527607177886921
 31
0.0
  0
LINE
  5
127D
  8
0
  6
CENTER
 10
376.5717299196770114
 20
236.9527607177886921
 30
0.0
 11
376.5717299196770114
 21
125.9527607177887063
 31
0.0
  0
LINE
  5
1288
  8
0
  6
CENTER
 10
361.5717299196770114
 20
229.7225099614944099
 30
0.0
 11
361.5717299196770114
 21
221.1830114740830027
 31
0.0
  0
LINE
  5
1289
  8
0
  6
CENTER
 10
357.3019806759712083
 20
225.4527607177886921
 30
0.0
 11
365.8414791633827008
 21
225.4527607177886921
 31
0.0
  0
CIRCLE
  5
1297
  8
0
 10
361.5717299196770114
 20
225.4527607177886921
 30
0.0
 40
2.5
  0
LINE
  5
129B
  8
0
  6
CENTER
 10
389.8019806759712083
 20
143.9527607177886921
 30
0.0
 11
398.3414791633827008
 21
143.9527607177886921
 31
0.0
  0
LINE
  5
129C
  8
0
  6
CENTER
 10
394.0717299196770114
 20
148.2225099614944099
 30
0.0
 11
394.0717299196770114
 21
139.6830114740830027
 31
0.0
  0
CIRCLE
  5
129D
  8
0
 10
394.0717299196770114
 20
143.9527607177886921
 30
0.0
 40
2.5
  0
LINE
  5
12A0
  8
0
 10
287.6272699306421146
 20
130.9527607177886921
 30
0.0
 11
287.6272699306421146
 21
142.4527607177886921
 31
0.0
  0
LINE
  5
12A1
  8
0
 10
272.1272699306421146
 20
142.4527607177886921
 30
0.0
 11
287.6272699306421146
 21
142.4527607177886921
 31
0.0
  0
LINE
  5
12A2
  8
0
 10
287.6272699306421146
 20
201.4527607177886921
 30
0.0
 11
287.6272699306421146
 21
231.9527607177886921
 31
0.0
  0
LINE
  5
12A3
  8
0
 10
272.1272699306421146
 20
230.4527607177886921
 30
0.0
 11
287.6272699306421146
 21
230.4527607177886921
 31
0.0
  0
LINE
  5
12A4
  8
0
 10
272.1272699306421146
 20
222.4527607177886921
 30
0.0
 11
287.6272699306421146
 21
222.4527607177886921
 31
0.0
  0
LINE
  5
12A5
  8
0
 10
262.1272699306421146
 20
171.4527607177886921
 30
0.0
 11
262.1272699306421146
 21
191.4527607177886921
 31
0.0
  0
LINE
  5
12A6
  8
0
 10
260.1272699306421146
 20
171.4527607177886921
 30
0.0
 11
260.1272699306421146
 21
191.4527607177886921
 31
0.0
  0
LINE
  5
12A7
  8
0
 10
260.1272699306421146
 20
191.4527607177886921
 30
0.0
 11
262.1272699306421146
 21
191.4527607177886921
 31
0.0
  0
LINE
  5
12A8
  8
0
 10
260.1272699306421146
 20
171.4527607177886921
 30
0.0
 11
262.1272699306421146
 21
171.4527607177886921
 31
0.0
  0
LINE
  5
13A8
  8
0
 10
302.6272699306421146
 20
130.9527607177886921
 30
0.0
 11
302.6272699306421146
 21
231.9527607177886921
 31
0.0
  0
LINE
  5
13AA
  8
0
 10
287.6272699306421146
 20
231.9527607177886921
 30
0.0
 11
302.6272699306421146
 21
231.9527607177886921
 31
0.0
  0
LINE
  5
13B1
  8
0
 10
272.1272699306421146
 20
201.4527607177886921
 30
0.0
 11
287.6272699306421146
 21
201.4527607177886921
 31
0.0
  0
LINE
  5
13B2
  8
0
 10
281.6272699306421146
 20
203.9527607177886921
 30
0.0
 11
287.6272699306421146
 21
203.9527607177886921
 31
0.0
  0
LINE
  5
13B3
  8
0
 10
281.6272699306421146
 20
203.9527607177886921
 30
0.0
 11
281.6272699306421146
 21
211.9527607177886921
 31
0.0
  0
LINE
  5
13B4
  8
0
 10
281.6272699306421146
 20
211.9527607177886921
 30
0.0
 11
287.6272699306421146
 21
211.9527607177886921
 31
0.0
  0
LINE
  5
13B5
  8
0
 10
272.1272699306421146
 20
214.4527607177886921
 30
0.0
 11
287.6272699306421146
 21
214.4527607177886921
 31
0.0
  0
LINE
  5
13C3
  8
0
 10
284.6272699306421146
 20
217.4527607177886921
 30
0.0
 11
287.6272699306421146
 21
217.4527607177886921
 31
0.0
  0
LINE
  5
13C4
  8
0
 10
284.6272699306421146
 20
214.4527607177886921
 30
0.0
 11
284.6272699306421146
 21
217.4527607177886921
 31
0.0
  0
LINE
  5
13C5
  8
0
  6
CENTER
 10
288.1272699306421146
 20
98.9527607177886921
 30
0.0
 11
288.1272699306421146
 21
145.658436351991611
 31
0.0
  0
LINE
  5
13C9
  8
0
  6
HIDDEN
 10
281.5487699306422087
 20
130.9527607177886921
 30
0.0
 11
281.5487699306422087
 21
142.9527607177886921
 31
0.0
  0
LINE
  5
13CA
  8
0
  6
HIDDEN
 10
282.4047699306422032
 20
130.9527607177886921
 30
0.0
 11
282.4047699306422032
 21
142.9527607177886921
 31
0.0
  0
LINE
  5
13CB
  8
0
  6
HIDDEN
 10
294.7057699306420773
 20
130.9527607177886921
 30
0.0
 11
294.7057699306420773
 21
142.9527607177886921
 31
0.0
  0
LINE
  5
13CC
  8
0
  6
HIDDEN
 10
293.8497699306420259
 20
130.9527607177886921
 30
0.0
 11
293.8497699306420259
 21
142.9527607177886921
 31
0.0
  0
ARC
  5
13E6
  8
0
 10
166.1272699306420861
 20
220.4527607177886921
 30
0.0
 40
1.0
 50
90.0
 51
180.0
  0
ARC
  5
13E7
  8
0
 10
166.1272699306420861
 20
142.4527607177886921
 30
0.0
 40
1.0
 50
180.0
 51
270.0
  0
CIRCLE
  5
13EC
  8
0
 10
376.5717299196770114
 20
136.4527607177886921
 30
0.0
 40
2.5
  0
CIRCLE
  5
13ED
  8
0
 10
376.5717299196770114
 20
136.4527607177886921
 30
0.0
 40
1.5
  0
CIRCLE
  5
13EE
  8
0
 10
376.5717299196770114
 20
226.4527607177886921
 30
0.0
 40
2.5
  0
CIRCLE
  5
13EF
  8
0
 10
376.5717299196770114
 20
226.4527607177886921
 30
0.0
 40
1.5
  0
CIRCLE
  5
1457
  8
0
 10
75.5976332529282899
 20
136.4527607177886921
 30
0.0
 40
3.5
1001
GENIUS_GENOREF_13
1005
0
  0
LINE
  5
1458
  8
0
 10
77.6238286408413103
 20
136.1412607177886969
 30
0.0
 11
77.6238286408413103
 21
136.7642607177886873
 31
0.0
1001
GENIUS_GENOREF_13
1005
0
  0
LINE
  5
1459
  8
0
 10
73.5714378650152696
 20
136.1412607177886969
 30
0.0
 11
73.5714378650152696
 21
136.7642607177886873
 31
0.0
1001
GENIUS_GENOREF_13
1005
0
  0
LINE
  5
145A
  8
0
 10
77.6238286408413103
 20
136.1412607177886969
 30
0.0
 11
75.9091332529282994
 21
136.1412607177886969
 31
0.0
1001
GENIUS_GENOREF_13
1005
0
  0
LINE
  5
145B
  8
0
 10
75.2861332529282947
 20
136.1412607177886969
 30
0.0
 11
73.5714378650152696
 21
136.1412607177886969
 31
0.0
1001
GENIUS_GENOREF_13
1005
0
  0
LINE
  5
145C
  8
0
 10
75.2861332529282947
 20
136.1412607177886969
 30
0.0
 11
75.2861332529282947
 21
134.4265653298757002
 31
0.0
1001
GENIUS_GENOREF_13
1005
0
  0
LINE
  5
145D
  8
0
 10
75.9091332529282994
 20
136.1412607177886969
 30
0.0
 11
75.9091332529282994
 21
134.4265653298757002
 31
0.0
1001
GENIUS_GENOREF_13
1005
0
  0
LINE
  5
145E
  8
0
 10
75.2861332529282947
 20
134.4265653298757002
 30
0.0
 11
75.9091332529282994
 21
134.4265653298757002
 31
0.0
1001
GENIUS_GENOREF_13
1005
0
  0
LINE
  5
145F
  8
0
 10
77.6238286408413103
 20
136.7642607177886873
 30
0.0
 11
75.9091332529282994
 21
136.7642607177886873
 31
0.0
1001
GENIUS_GENOREF_13
1005
0
  0
LINE
  5
1460
  8
0
 10
75.2861332529282947
 20
136.7642607177886873
 30
0.0
 11
73.5714378650152696
 21
136.7642607177886873
 31
0.0
1001
GENIUS_GENOREF_13
1005
0
  0
LINE
  5
1461
  8
0
 10
75.9091332529282994
 20
138.4789561057017124
 30
0.0
 11
75.9091332529282994
 21
136.7642607177886873
 31
0.0
1001
GENIUS_GENOREF_13
1005
0
  0
LINE
  5
1462
  8
0
 10
75.2861332529282947
 20
138.4789561057017124
 30
0.0
 11
75.2861332529282947
 21
136.7642607177886873
 31
0.0
1001
GENIUS_GENOREF_13
1005
0
  0
LINE
  5
1463
  8
0
 10
75.2861332529282947
 20
138.4789561057017124
 30
0.0
 11
75.9091332529282994
 21
138.4789561057017124
 31
0.0
1001
GENIUS_GENOREF_13
1005
0
  0
LINE
  5
1470
  8
0
  6
CENTER
 10
67.3476332529282899
 20
226.4527607177886921
 30
0.0
 11
83.8476332529282757
 21
226.4527607177886921
 31
0.0
  0
CIRCLE
  5
1471
  8
0
 10
75.5976332529282899
 20
226.4527607177886921
 30
0.0
 40
3.5
  0
LINE
  5
1472
  8
0
 10
77.6238286408413103
 20
226.7642607177886873
 30
0.0
 11
77.6238286408413103
 21
226.1412607177886969
 31
0.0
  0
LINE
  5
1473
  8
0
 10
73.5714378650152696
 20
226.7642607177886873
 30
0.0
 11
73.5714378650152696
 21
226.1412607177886969
 31
0.0
  0
LINE
  5
1474
  8
0
 10
77.6238286408413103
 20
226.7642607177886873
 30
0.0
 11
75.9091332529282994
 21
226.7642607177886873
 31
0.0
  0
LINE
  5
1475
  8
0
 10
75.2861332529282947
 20
226.7642607177886873
 30
0.0
 11
73.5714378650152696
 21
226.7642607177886873
 31
0.0
  0
LINE
  5
1476
  8
0
 10
75.2861332529282947
 20
226.7642607177886873
 30
0.0
 11
75.2861332529282947
 21
228.4789561057017124
 31
0.0
  0
LINE
  5
1477
  8
0
 10
75.9091332529282994
 20
226.7642607177886873
 30
0.0
 11
75.9091332529282994
 21
228.4789561057017124
 31
0.0
  0
LINE
  5
1478
  8
0
 10
75.2861332529282947
 20
228.4789561057017124
 30
0.0
 11
75.9091332529282994
 21
228.4789561057017124
 31
0.0
  0
LINE
  5
1479
  8
0
 10
77.6238286408413103
 20
226.1412607177886969
 30
0.0
 11
75.9091332529282994
 21
226.1412607177886969
 31
0.0
  0
LINE
  5
147A
  8
0
 10
75.2861332529282947
 20
226.1412607177886969
 30
0.0
 11
73.5714378650152696
 21
226.1412607177886969
 31
0.0
  0
LINE
  5
147B
  8
0
 10
75.9091332529282994
 20
224.4265653298757002
 30
0.0
 11
75.9091332529282994
 21
226.1412607177886969
 31
0.0
  0
LINE
  5
147C
  8
0
 10
75.2861332529282947
 20
224.4265653298757002
 30
0.0
 11
75.2861332529282947
 21
226.1412607177886969
 31
0.0
  0
LINE
  5
147D
  8
0
 10
75.2861332529282947
 20
224.4265653298757002
 30
0.0
 11
75.9091332529282994
 21
224.4265653298757002
 31
0.0
  0
LINE
  5
148B
  8
0
 10
266.2779081559580732
 20
133.0270702443058042
 30
0.0
 11
267.1272699306421146
 21
132.9527607177886921
 31
0.0
1001
GENIUS_GENOREF_13
1005
0
  0
LINE
  5
148C
  8
0
 10
266.2779081559580732
 20
139.8784511912716084
 30
0.0
 11
267.1272699306421146
 21
139.9527607177886921
 31
0.0
1001
GENIUS_GENOREF_13
1005
0
  0
ARC
  5
148D
  8
0
 10
270.5272699306420918
 20
136.4527607177886921
 30
0.0
 40
6.0
 50
153.7987371154644052
 51
206.2012628845396023
1001
GENIUS_GENOREF_13
1005
0
  0
ARC
  5
148E
  8
0
 10
266.3999261958048237
 20
138.4837786139430875
 30
0.0
 40
1.399999999999999
 50
94.9999999999997584
 51
153.7987371154628988
1001
GENIUS_GENOREF_13
1005
0
  0
ARC
  5
1494
  8
0
 10
266.3999261958048237
 20
134.4217428216342114
 30
0.0
 40
1.399999999999999
 50
206.2012628845371012
 51
265.0000000000002274
1001
GENIUS_GENOREF_13
1005
0
  0
LINE
  5
1495
  8
0
 10
267.1272699306421146
 20
139.9527607177886921
 30
0.0
 11
267.1272699306421146
 21
132.9527607177886921
 31
0.0
1001
GENIUS_GENOREF_13
1005
0
  0
LINE
  5
14A7
  8
0
  6
CENTER
 10
260.8186330937999173
 20
136.4527607177886921
 30
0.0
 11
292.1272699306421146
 21
136.4527607177886921
 31
0.0
  0
LINE
  5
14A8
  8
0
 10
266.2779081559580732
 20
229.8784511912716084
 30
0.0
 11
267.1272699306421146
 21
229.9527607177886921
 31
0.0
  0
LINE
  5
14A9
  8
0
 10
266.2779081559580732
 20
223.0270702443058042
 30
0.0
 11
267.1272699306421146
 21
222.9527607177886921
 31
0.0
  0
ARC
  5
14AA
  8
0
 10
270.5272699306420918
 20
226.4527607177886921
 30
0.0
 40
6.0
 50
153.7987371154590051
 51
206.2012628845344011
  0
ARC
  5
14AB
  8
0
 10
266.3999261958048237
 20
224.4217428216342114
 30
0.0
 40
1.399999999999999
 50
206.2012628845376128
 51
265.0000000000002842
  0
ARC
  5
14AC
  8
0
 10
266.3999261958048237
 20
228.4837786139430875
 30
0.0
 40
1.399999999999999
 50
94.9999999999997584
 51
153.7987371154623872
  0
LINE
  5
14AD
  8
0
 10
267.1272699306421146
 20
222.9527607177886921
 30
0.0
 11
267.1272699306421146
 21
229.9527607177886921
 31
0.0
  0
LINE
  5
14AE
  8
0
  6
HIDDEN
 10
281.5487699306422087
 20
142.9527607177886921
 30
0.0
 11
294.7057699306420773
 21
142.9527607177886921
 31
0.0
  0
LINE
  5
14B0
  8
0
  6
PHANTOM2
 10
299.6272699306421146
 20
103.9527607177887063
 30
0.0
 11
276.6272699306421146
 21
103.9527607177887063
 31
0.0
  0
ARC
  5
14B1
  8
0
  6
PHANTOM2
 10
276.6272699306421146
 20
104.9527607177887063
 30
0.0
 40
1.0
 50
180.0
 51
270.0
  0
LINE
  5
14B2
  8
0
  6
PHANTOM2
 10
280.8272699306421032
 20
118.9527607177887063
 30
0.0
 11
276.6272699306421146
 21
118.9527607177887063
 31
0.0
  0
ARC
  5
14B3
  8
0
  6
PHANTOM2
 10
276.6272699306421146
 20
117.9527607177887063
 30
0.0
 40
1.0
 50
90.0
 51
180.0
  0
LINE
  5
14B5
  8
0
  6
PHANTOM2
 10
280.8272699306421032
 20
118.9527607177887063
 30
0.0
 11
280.8272699306421032
 21
130.9527607177886921
 31
0.0
  0
LINE
  5
14B6
  8
0
  6
PHANTOM2
 10
275.6272699306421146
 20
104.9527607177887063
 30
0.0
 11
275.6272699306421146
 21
117.9527607177887063
 31
0.0
  0
LINE
  5
14BD
  8
0
  6
PHANTOM2
 10
300.6272699306421146
 20
104.9527607177887063
 30
0.0
 11
300.6272699306421146
 21
117.9527607177887063
 31
0.0
  0
ARC
  5
14BE
  8
0
  6
PHANTOM2
 10
299.6272699306421146
 20
104.9527607177887063
 30
0.0
 40
1.0
 50
270.0
 51
0.0
  0
LINE
  5
14BF
  8
0
  6
PHANTOM2
 10
295.4272699306421259
 20
118.9527607177887063
 30
0.0
 11
299.6272699306421146
 21
118.9527607177887063
 31
0.0
  0
ARC
  5
14C0
  8
0
  6
PHANTOM2
 10
299.6272699306421146
 20
117.9527607177887063
 30
0.0
 40
1.0
 50
0.0
 51
90.0
  0
LINE
  5
14C1
  8
0
  6
PHANTOM2
 10
295.4272699306421259
 20
118.9527607177887063
 30
0.0
 11
295.4272699306421259
 21
130.9527607177886921
 31
0.0
  0
LINE
  5
14C3
  8
0
  6
CENTER
 10
369.0717299196770114
 20
136.4527607177886921
 30
0.0
 11
384.0717299196770114
 21
136.4527607177886921
 31
0.0
  0
LINE
  5
14C4
  8
0
  6
CENTER
 10
364.5717299196768977
 20
98.9527607177886921
 30
0.0
 11
364.5717299196768977
 21
145.658436351991611
 31
0.0
  0
LINE
  5
14C5
  8
0
  6
HIDDEN
 10
357.9932299196769918
 20
130.9527607177886921
 30
0.0
 11
357.9932299196769918
 21
142.9527607177886921
 31
0.0
  0
LINE
  5
14C6
  8
0
  6
HIDDEN
 10
358.8492299196769864
 20
130.9527607177886921
 30
0.0
 11
358.8492299196769864
 21
142.9527607177886921
 31
0.0
  0
LINE
  5
14C7
  8
0
  6
HIDDEN
 10
371.1502299196769172
 20
130.9527607177886921
 30
0.0
 11
371.1502299196769172
 21
142.9527607177886921
 31
0.0
  0
LINE
  5
14C8
  8
0
  6
HIDDEN
 10
370.2942299196769227
 20
130.9527607177886921
 30
0.0
 11
370.2942299196769227
 21
142.9527607177886921
 31
0.0
  0
LINE
  5
14C9
  8
0
  6
HIDDEN
 10
357.9932299196769918
 20
142.9527607177886921
 30
0.0
 11
371.1502299196769172
 21
142.9527607177886921
 31
0.0
  0
LINE
  5
14CA
  8
0
  6
PHANTOM2
 10
376.0717299196770114
 20
103.9527607177887063
 30
0.0
 11
353.0717299196770114
 21
103.9527607177887063
 31
0.0
  0
ARC
  5
14CB
  8
0
  6
PHANTOM2
 10
353.0717299196770114
 20
104.9527607177887063
 30
0.0
 40
1.0
 50
180.0
 51
270.0
  0
LINE
  5
14CC
  8
0
  6
PHANTOM2
 10
357.2717299196768863
 20
118.9527607177887063
 30
0.0
 11
353.0717299196770114
 21
118.9527607177887063
 31
0.0
  0
ARC
  5
14CD
  8
0
  6
PHANTOM2
 10
353.0717299196770114
 20
117.9527607177887063
 30
0.0
 40
1.0
 50
90.0
 51
180.0
  0
LINE
  5
14CE
  8
0
  6
PHANTOM2
 10
357.2717299196768863
 20
118.9527607177887063
 30
0.0
 11
357.2717299196768863
 21
130.9527607177886921
 31
0.0
  0
LINE
  5
14CF
  8
0
  6
PHANTOM2
 10
352.0717299196768977
 20
104.9527607177887063
 30
0.0
 11
352.0717299196768977
 21
117.9527607177887063
 31
0.0
  0
LINE
  5
14D0
  8
0
  6
PHANTOM2
 10
377.0717299196768977
 20
104.9527607177887063
 30
0.0
 11
377.0717299196768977
 21
117.9527607177887063
 31
0.0
  0
ARC
  5
14D1
  8
0
  6
PHANTOM2
 10
376.0717299196770114
 20
104.9527607177887063
 30
0.0
 40
1.0
 50
270.0
 51
0.0
  0
LINE
  5
14D2
  8
0
  6
PHANTOM2
 10
371.8717299196770227
 20
118.9527607177887063
 30
0.0
 11
376.0717299196770114
 21
118.9527607177887063
 31
0.0
  0
ARC
  5
14D3
  8
0
  6
PHANTOM2
 10
376.0717299196770114
 20
117.9527607177887063
 30
0.0
 40
1.0
 50
0.0
 51
90.0
  0
LINE
  5
14D4
  8
0
  6
PHANTOM2
 10
371.8717299196770227
 20
118.9527607177887063
 30
0.0
 11
371.8717299196770227
 21
130.9527607177886921
 31
0.0
  0
LINE
  5
14E3
  8
0
 10
349.5717299196768977
 20
201.4527607177886921
 30
0.0
 11
403.5717299196768977
 21
201.4527607177886921
 31
0.0
  0
LINE
  5
14E6
  8
0
 10
349.5717299196768977
 20
214.4527607177886921
 30
0.0
 11
403.5717299196768977
 21
214.4527607177886921
 31
0.0
  0
LINE
  5
14E7
  8
0
 10
349.5717299196768977
 20
217.4527607177886921
 30
0.0
 11
403.5717299196768977
 21
217.4527607177886921
 31
0.0
  0
CIRCLE
  5
14F4
  8
0
 10
354.5717299196770114
 20
207.9527607177886921
 30
0.0
 40
3.5
  0
LINE
  5
14F5
  8
0
 10
356.5979253075900033
 20
208.2642607177886873
 30
0.0
 11
356.5979253075900033
 21
207.6412607177886969
 31
0.0
  0
LINE
  5
14F6
  8
0
 10
352.5455345317637921
 20
208.2642607177886873
 30
0.0
 11
352.5455345317637921
 21
207.6412607177886969
 31
0.0
  0
LINE
  5
14F7
  8
0
 10
356.5979253075900033
 20
208.2642607177886873
 30
0.0
 11
354.8832299196769782
 21
208.2642607177886873
 31
0.0
  0
LINE
  5
14F8
  8
0
 10
354.260229919676874
 20
208.2642607177886873
 30
0.0
 11
352.5455345317637921
 21
208.2642607177886873
 31
0.0
  0
LINE
  5
14F9
  8
0
 10
354.260229919676874
 20
208.2642607177886873
 30
0.0
 11
354.260229919676874
 21
209.9789561057017124
 31
0.0
  0
LINE
  5
14FA
  8
0
 10
354.8832299196769782
 20
208.2642607177886873
 30
0.0
 11
354.8832299196769782
 21
209.9789561057017124
 31
0.0
  0
LINE
  5
14FB
  8
0
 10
354.260229919676874
 20
209.9789561057017124
 30
0.0
 11
354.8832299196769782
 21
209.9789561057017124
 31
0.0
  0
LINE
  5
14FC
  8
0
 10
356.5979253075900033
 20
207.6412607177886969
 30
0.0
 11
354.8832299196769782
 21
207.6412607177886969
 31
0.0
  0
LINE
  5
14FD
  8
0
 10
354.260229919676874
 20
207.6412607177886969
 30
0.0
 11
352.5455345317637921
 21
207.6412607177886969
 31
0.0
  0
LINE
  5
14FE
  8
0
 10
354.8832299196769782
 20
205.9265653298757002
 30
0.0
 11
354.8832299196769782
 21
207.6412607177886969
 31
0.0
  0
LINE
  5
14FF
  8
0
 10
354.260229919676874
 20
205.9265653298757002
 30
0.0
 11
354.260229919676874
 21
207.6412607177886969
 31
0.0
  0
LINE
  5
1500
  8
0
 10
354.260229919676874
 20
205.9265653298757002
 30
0.0
 11
354.8832299196769782
 21
205.9265653298757002
 31
0.0
  0
CIRCLE
  5
1501
  8
0
 10
365.5717299196770114
 20
207.9527607177886921
 30
0.0
 40
3.5
  0
LINE
  5
1502
  8
0
 10
367.5979253075900033
 20
208.2642607177886873
 30
0.0
 11
367.5979253075900033
 21
207.6412607177886969
 31
0.0
  0
LINE
  5
1503
  8
0
 10
363.5455345317637921
 20
208.2642607177886873
 30
0.0
 11
363.5455345317637921
 21
207.6412607177886969
 31
0.0
  0
LINE
  5
1504
  8
0
 10
367.5979253075900033
 20
208.2642607177886873
 30
0.0
 11
365.8832299196769782
 21
208.2642607177886873
 31
0.0
  0
LINE
  5
1505
  8
0
 10
365.260229919676874
 20
208.2642607177886873
 30
0.0
 11
363.5455345317637921
 21
208.2642607177886873
 31
0.0
  0
LINE
  5
1506
  8
0
 10
365.260229919676874
 20
208.2642607177886873
 30
0.0
 11
365.260229919676874
 21
209.9789561057017124
 31
0.0
  0
LINE
  5
1507
  8
0
 10
365.8832299196769782
 20
208.2642607177886873
 30
0.0
 11
365.8832299196769782
 21
209.9789561057017124
 31
0.0
  0
LINE
  5
1508
  8
0
 10
365.260229919676874
 20
209.9789561057017124
 30
0.0
 11
365.8832299196769782
 21
209.9789561057017124
 31
0.0
  0
LINE
  5
1509
  8
0
 10
367.5979253075900033
 20
207.6412607177886969
 30
0.0
 11
365.8832299196769782
 21
207.6412607177886969
 31
0.0
  0
LINE
  5
150A
  8
0
 10
365.260229919676874
 20
207.6412607177886969
 30
0.0
 11
363.5455345317637921
 21
207.6412607177886969
 31
0.0
  0
LINE
  5
150B
  8
0
 10
365.8832299196769782
 20
205.9265653298757002
 30
0.0
 11
365.8832299196769782
 21
207.6412607177886969
 31
0.0
  0
LINE
  5
150C
  8
0
 10
365.260229919676874
 20
205.9265653298757002
 30
0.0
 11
365.260229919676874
 21
207.6412607177886969
 31
0.0
  0
LINE
  5
150D
  8
0
 10
365.260229919676874
 20
205.9265653298757002
 30
0.0
 11
365.8832299196769782
 21
205.9265653298757002
 31
0.0
  0
CIRCLE
  5
150E
  8
0
 10
376.5717299196770114
 20
207.9527607177886921
 30
0.0
 40
3.5
  0
LINE
  5
150F
  8
0
 10
378.5979253075900033
 20
208.2642607177886873
 30
0.0
 11
378.5979253075900033
 21
207.6412607177886969
 31
0.0
  0
LINE
  5
1510
  8
0
 10
374.5455345317639058
 20
208.2642607177886873
 30
0.0
 11
374.5455345317639058
 21
207.6412607177886969
 31
0.0
  0
LINE
  5
1511
  8
0
 10
378.5979253075900033
 20
208.2642607177886873
 30
0.0
 11
376.8832299196769782
 21
208.2642607177886873
 31
0.0
  0
LINE
  5
1512
  8
0
 10
376.260229919676874
 20
208.2642607177886873
 30
0.0
 11
374.5455345317639058
 21
208.2642607177886873
 31
0.0
  0
LINE
  5
1513
  8
0
 10
376.260229919676874
 20
208.2642607177886873
 30
0.0
 11
376.260229919676874
 21
209.9789561057017124
 31
0.0
  0
LINE
  5
1514
  8
0
 10
376.8832299196769782
 20
208.2642607177886873
 30
0.0
 11
376.8832299196769782
 21
209.9789561057017124
 31
0.0
  0
LINE
  5
1515
  8
0
 10
376.260229919676874
 20
209.9789561057017124
 30
0.0
 11
376.8832299196769782
 21
209.9789561057017124
 31
0.0
  0
LINE
  5
1516
  8
0
 10
378.5979253075900033
 20
207.6412607177886969
 30
0.0
 11
376.8832299196769782
 21
207.6412607177886969
 31
0.0
  0
LINE
  5
1517
  8
0
 10
376.260229919676874
 20
207.6412607177886969
 30
0.0
 11
374.5455345317639058
 21
207.6412607177886969
 31
0.0
  0
LINE
  5
1518
  8
0
 10
376.8832299196769782
 20
205.9265653298757002
 30
0.0
 11
376.8832299196769782
 21
207.6412607177886969
 31
0.0
  0
LINE
  5
1519
  8
0
 10
376.260229919676874
 20
205.9265653298757002
 30
0.0
 11
376.260229919676874
 21
207.6412607177886969
 31
0.0
  0
LINE
  5
151A
  8
0
 10
376.260229919676874
 20
205.9265653298757002
 30
0.0
 11
376.8832299196769782
 21
205.9265653298757002
 31
0.0
  0
LINE
  5
151D
  8
0
 10
361.0717299196770114
 20
214.4527607177886921
 30
0.0
 11
361.0717299196770114
 21
201.4527607177886921
 31
0.0
  0
LINE
  5
151E
  8
0
 10
359.0717299196770114
 20
214.4527607177886921
 30
0.0
 11
359.0717299196770114
 21
201.4527607177886921
 31
0.0
  0
LINE
  5
151F
  8
0
 10
372.0717299196770114
 20
214.4527607177886921
 30
0.0
 11
372.0717299196770114
 21
201.4527607177886921
 31
0.0
  0
LINE
  5
1520
  8
0
 10
370.0717299196770114
 20
214.4527607177886921
 30
0.0
 11
370.0717299196770114
 21
201.4527607177886921
 31
0.0
  0
CIRCLE
  5
1521
  8
0
 10
398.5717299196770114
 20
207.9527607177886921
 30
0.0
 40
3.5
  0
LINE
  5
1522
  8
0
 10
396.5455345317637921
 20
208.2642607177886873
 30
0.0
 11
396.5455345317637921
 21
207.6412607177886969
 31
0.0
  0
LINE
  5
1523
  8
0
 10
400.5979253075898896
 20
208.2642607177886873
 30
0.0
 11
400.5979253075898896
 21
207.6412607177886969
 31
0.0
  0
LINE
  5
1524
  8
0
 10
396.5455345317637921
 20
208.2642607177886873
 30
0.0
 11
398.260229919676874
 21
208.2642607177886873
 31
0.0
  0
LINE
  5
1525
  8
0
 10
398.8832299196769782
 20
208.2642607177886873
 30
0.0
 11
400.5979253075898896
 21
208.2642607177886873
 31
0.0
  0
LINE
  5
1526
  8
0
 10
398.8832299196769782
 20
208.2642607177886873
 30
0.0
 11
398.8832299196769782
 21
209.9789561057017124
 31
0.0
  0
LINE
  5
1527
  8
0
 10
398.260229919676874
 20
208.2642607177886873
 30
0.0
 11
398.260229919676874
 21
209.9789561057017124
 31
0.0
  0
LINE
  5
1528
  8
0
 10
398.8832299196769782
 20
209.9789561057017124
 30
0.0
 11
398.260229919676874
 21
209.9789561057017124
 31
0.0
  0
LINE
  5
1529
  8
0
 10
396.5455345317637921
 20
207.6412607177886969
 30
0.0
 11
398.260229919676874
 21
207.6412607177886969
 31
0.0
  0
LINE
  5
152A
  8
0
 10
398.8832299196769782
 20
207.6412607177886969
 30
0.0
 11
400.5979253075898896
 21
207.6412607177886969
 31
0.0
  0
LINE
  5
152B
  8
0
 10
398.260229919676874
 20
205.9265653298757002
 30
0.0
 11
398.260229919676874
 21
207.6412607177886969
 31
0.0
  0
LINE
  5
152C
  8
0
 10
398.8832299196769782
 20
205.9265653298757002
 30
0.0
 11
398.8832299196769782
 21
207.6412607177886969
 31
0.0
  0
LINE
  5
152D
  8
0
 10
398.8832299196769782
 20
205.9265653298757002
 30
0.0
 11
398.260229919676874
 21
205.9265653298757002
 31
0.0
  0
CIRCLE
  5
152E
  8
0
 10
387.5717299196768977
 20
207.9527607177886921
 30
0.0
 40
3.5
  0
LINE
  5
152F
  8
0
 10
385.5455345317637921
 20
208.2642607177886873
 30
0.0
 11
385.5455345317637921
 21
207.6412607177886969
 31
0.0
  0
LINE
  5
1530
  8
0
 10
389.5979253075900033
 20
208.2642607177886873
 30
0.0
 11
389.5979253075900033
 21
207.6412607177886969
 31
0.0
  0
LINE
  5
1531
  8
0
 10
385.5455345317637921
 20
208.2642607177886873
 30
0.0
 11
387.260229919676874
 21
208.2642607177886873
 31
0.0
  0
LINE
  5
1532
  8
0
 10
387.8832299196769782
 20
208.2642607177886873
 30
0.0
 11
389.5979253075900033
 21
208.2642607177886873
 31
0.0
  0
LINE
  5
1533
  8
0
 10
387.8832299196769782
 20
208.2642607177886873
 30
0.0
 11
387.8832299196769782
 21
209.9789561057017124
 31
0.0
  0
LINE
  5
1534
  8
0
 10
387.260229919676874
 20
208.2642607177886873
 30
0.0
 11
387.260229919676874
 21
209.9789561057017124
 31
0.0
  0
LINE
  5
1535
  8
0
 10
387.8832299196769782
 20
209.9789561057017124
 30
0.0
 11
387.260229919676874
 21
209.9789561057017124
 31
0.0
  0
LINE
  5
1536
  8
0
 10
385.5455345317637921
 20
207.6412607177886969
 30
0.0
 11
387.260229919676874
 21
207.6412607177886969
 31
0.0
  0
LINE
  5
1537
  8
0
 10
387.8832299196769782
 20
207.6412607177886969
 30
0.0
 11
389.5979253075900033
 21
207.6412607177886969
 31
0.0
  0
LINE
  5
1538
  8
0
 10
387.260229919676874
 20
205.9265653298757002
 30
0.0
 11
387.260229919676874
 21
207.6412607177886969
 31
0.0
  0
LINE
  5
1539
  8
0
 10
387.8832299196769782
 20
205.9265653298757002
 30
0.0
 11
387.8832299196769782
 21
207.6412607177886969
 31
0.0
  0
LINE
  5
153A
  8
0
 10
387.8832299196769782
 20
205.9265653298757002
 30
0.0
 11
387.260229919676874
 21
205.9265653298757002
 31
0.0
  0
LINE
  5
153C
  8
0
 10
394.0717299196770114
 20
214.4527607177886921
 30
0.0
 11
394.0717299196770114
 21
201.4527607177886921
 31
0.0
  0
LINE
  5
153D
  8
0
 10
392.0717299196770114
 20
214.4527607177886921
 30
0.0
 11
392.0717299196770114
 21
201.4527607177886921
 31
0.0
  0
LINE
  5
153E
  8
0
 10
381.0717299196768977
 20
214.4527607177886921
 30
0.0
 11
381.0717299196768977
 21
201.4527607177886921
 31
0.0
  0
LINE
  5
153F
  8
0
 10
383.0717299196770114
 20
214.4527607177886921
 30
0.0
 11
383.0717299196770114
 21
201.4527607177886921
 31
0.0
  0
CIRCLE
  5
154F
  8
0
 10
382.7717299196768863
 20
158.1527607177887091
 30
0.0
 40
6.0
  0
CIRCLE
  5
1550
  8
0
 10
382.7717299196768863
 20
158.1527607177887091
 30
0.0
 40
5.0
  0
ARC
  5
1551
  8
0
 10
376.5717299196770114
 20
181.4527607177886068
 30
0.0
 40
4.0
 50
194.3615115629160073
 51
165.6384884370839927
  0
ARC
  5
1553
  8
0
 10
372.5717299196768977
 20
181.4527607177886068
 30
0.0
 40
1.0
 50
82.8192442185482633
 51
277.180755781451694
  0
LINE
  5
1554
  8
0
 10
372.5717299196768977
 20
182.4527607177886921
 30
0.0
 11
372.6987465734695206
 21
182.4527607177886921
 31
0.0
  0
LINE
  5
1555
  8
0
 10
372.5717299196768977
 20
180.4527607177886921
 30
0.0
 11
372.6987465734695206
 21
180.4527607177886921
 31
0.0
  0
CIRCLE
  5
1557
  8
0
 10
373.3189207445736884
 20
189.3057367441346059
 30
0.0
 40
1.5
  0
CIRCLE
  5
1558
  8
0
 10
368.7187538933309838
 20
184.7055698928919014
 30
0.0
 40
1.5
  0
CIRCLE
  5
1559
  8
0
 10
368.7187538933309838
 20
178.1999515426853975
 30
0.0
 40
1.5
  0
CIRCLE
  5
155A
  8
0
 10
373.318920744573802
 20
173.599784691442693
 30
0.0
 40
1.5
  0
CIRCLE
  5
155B
  8
0
 10
379.8245390947803912
 20
173.599784691442693
 30
0.0
 40
1.5
  0
CIRCLE
  5
155C
  8
0
 10
384.4247059460229252
 20
178.1999515426855112
 30
0.0
 40
1.5
  0
CIRCLE
  5
155D
  8
0
 10
384.4247059460229821
 20
184.7055698928919014
 30
0.0
 40
1.5
  0
CIRCLE
  5
155E
  8
0
 10
379.8245390947803912
 20
189.3057367441346059
 30
0.0
 40
1.5
  0
ARC
  5
156C
  8
0
 10
376.5717299196770114
 20
181.4527607177886068
 30
0.0
 40
17.5
 50
52.4281306803023526
 51
127.5718693196976972
  0
LINE
  5
156D
  8
0
 10
353.0229494318721208
 20
185.4157062810257912
 30
0.0
 11
365.9009982123599229
 21
195.3230701891183969
 31
0.0
  0
ARC
  5
156E
  8
0
 10
356.0717299196768977
 20
181.4527607177886068
 30
0.0
 40
5.0
 50
127.5718693196975977
 51
232.4281306803023881
  0
LINE
  5
156F
  8
0
 10
353.0229494318721208
 20
177.489815154551593
 30
0.0
 11
365.9009982123599229
 21
167.5824512464589873
 31
0.0
  0
ARC
  5
1570
  8
0
 10
376.5717299196770114
 20
181.4527607177886068
 30
0.0
 40
17.5
 50
232.4281306803027007
 51
307.5718693196973277
  0
CIRCLE
  5
1571
  8
0
 10
376.5717299196770114
 20
181.4527607177886068
 30
0.0
 40
14.0999999999999996
  0
ARC
  5
1572
  8
0
 10
376.5717299196770114
 20
181.4527607177886068
 30
0.0
 40
15.5
 50
52.4281306803023526
 51
127.5718693196976972
  0
LINE
  5
1573
  8
0
 10
354.2424616269939861
 20
183.8305280557310084
 30
0.0
 11
367.1205104074819019
 21
193.7378919638236141
 31
0.0
  0
ARC
  5
1574
  8
0
 10
356.0717299196768977
 20
181.4527607177886068
 30
0.0
 40
3.0
 50
127.5718693196975977
 51
232.4281306803023881
  0
LINE
  5
1575
  8
0
 10
354.2424616269939861
 20
179.0749933798464042
 30
0.0
 11
367.1205104074819019
 21
169.1676294717537985
 31
0.0
  0
ARC
  5
1576
  8
0
 10
376.5717299196770114
 20
181.4527607177886068
 30
0.0
 40
15.5
 50
232.4281306803027007
 51
307.5718693196973277
  0
CIRCLE
  5
1577
  8
0
 10
356.0717299196768977
 20
181.4527607177886068
 30
0.0
 40
1.5
  0
ARC
  5
1579
  8
0
 10
397.0717299196770114
 20
181.4527607177886068
 30
0.0
 40
5.0
 50
307.5718693196981803
 51
52.4281306803017415
  0
ARC
  5
157A
  8
0
 10
397.0717299196770114
 20
181.4527607177886068
 30
0.0
 40
3.0
 50
307.5718693196981803
 51
52.4281306803017415
  0
LINE
  5
157B
  8
0
 10
400.1205104074817882
 20
185.4157062810257912
 30
0.0
 11
387.2424616269939861
 21
195.3230701891183969
 31
0.0
  0
LINE
  5
157C
  8
0
 10
398.9009982123599229
 20
183.8305280557310084
 30
0.0
 11
386.0229494318721208
 21
193.7378919638236141
 31
0.0
  0
LINE
  5
157D
  8
0
 10
400.1205104074817882
 20
177.489815154551593
 30
0.0
 11
387.2424616269939861
 21
167.5824512464589873
 31
0.0
  0
LINE
  5
157E
  8
0
 10
398.9009982123599229
 20
179.0749933798464042
 30
0.0
 11
386.0229494318721208
 21
169.1676294717537985
 31
0.0
  0
CIRCLE
  5
157F
  8
0
 10
397.0717299196770114
 20
181.4527607177886068
 30
0.0
 40
1.5
  0
LINE
  5
15C8
  8
0
  6
PHANTOM2
 10
383.5717299196768977
 20
214.4527607177886921
 30
0.0
 11
402.5717299196768977
 21
214.4527607177886921
 31
0.0
  0
INSERT
  5
18B0
  8
0
  2
*U3
 10
0.0
 20
0.0
 30
0.0
  0
LINE
  5
1D7C
  8
0
 10
54.0976332529282828
 20
217.9527607177886921
 30
0.0
 11
54.0976332529282828
 21
144.9527607177886921
 31
0.0
  0
LINE
  5
1D7D
  8
0
 10
54.0976332529282828
 20
217.9527607177886921
 30
0.0
 11
97.0976332529282757
 21
217.9527607177886921
 31
0.0
  0
LINE
  5
1D7E
  8
0
 10
97.0976332529282757
 20
217.9527607177886921
 30
0.0
 11
97.0976332529282757
 21
144.9527607177886921
 31
0.0
  0
LINE
  5
1D7F
  8
0
 10
54.0976332529282828
 20
144.9527607177886921
 30
0.0
 11
97.0976332529282757
 21
144.9527607177886921
 31
0.0
  0
LINE
  5
1D8D
  8
0
 10
402.5717299196768977
 20
217.4527607177886921
 30
0.0
 11
403.5717299196768977
 21
217.4527607177886921
 31
0.0
  0
LINE
  5
1D8E
  8
0
 10
390.3596439231632758
 20
217.4527607177886921
 30
0.0
 11
395.7838159161905196
 21
217.4527607177886921
 31
0.0
  0
ENDSEC
  0
EOF
