  0
SECTION
  2
HEADER
  9
$ACADVER
  1
AC1014
  9
$ACADMAINTVER
 70
     9
  9
$DWGCODEPAGE
  3
ANSI_932
  9
$INSBASE
 10
0.0
 20
0.0
 30
0.0
  9
$EXTMIN
 10
-422.657244484779
 20
-256.23358608
 30
0.0
  9
$EXTMAX
 10
414.582744484821
 20
256.23358608
 30
0.0
  9
$LIMMIN
 10
-198.1666666666667
 20
-140.1666666666667
  9
$LIMMAX
 10
198.1666666666667
 20
140.1666666666667
  9
$ORTHOMODE
 70
     0
  9
$REGENMODE
 70
     1
  9
$FILLMODE
 70
     1
  9
$QTEXTMODE
 70
     0
  9
$MIRRTEXT
 70
     1
  9
$DRAGMODE
 70
     2
  9
$LTSCALE
 40
0.0833333333333333
  9
$OSMODE
 70
    37
  9
$ATTMODE
 70
     1
  9
$TEXTSIZE
 40
0.2
  9
$TRACEWID
 40
0.05
  9
$TEXTSTYLE
  7
STANDARD
  9
$CLAYER
  8
0
  9
$CELTYPE
  6
BYLAYER
  9
$CECOLOR
 62
   256
  9
$CELTSCALE
 40
1.0
  9
$DELOBJ
 70
     1
  9
$DISPSILH
 70
     0
  9
$DIMSCALE
 40
1.0
  9
$DIMASZ
 40
1.000000635782878
  9
$DIMEXO
 40
1.0
  9
$DIMDLI
 40
10.0
  9
$DIMRND
 40
0.0
  9
$DIMDLE
 40
0.0
  9
$DIMEXE
 40
1.0
  9
$DIMTP
 40
0.0
  9
$DIMTM
 40
0.0
  9
$DIMTXT
 40
1.166666666666667
  9
$DIMCEN
 40
0.0
  9
$DIMTSZ
 40
0.0
  9
$DIMTOL
 70
     0
  9
$DIMLIM
 70
     0
  9
$DIMTIH
 70
     0
  9
$DIMTOH
 70
     0
  9
$DIMSE1
 70
     0
  9
$DIMSE2
 70
     0
  9
$DIMTAD
 70
     1
  9
$DIMZIN
 70
     8
  9
$DIMBLK
  1

  9
$DIMASO
 70
     1
  9
$DIMSHO
 70
     1
  9
$DIMPOST
  1

  9
$DIMAPOST
  1

  9
$DIMALT
 70
     0
  9
$DIMALTD
 70
     2
  9
$DIMALTF
 40
25.4
  9
$DIMLFAC
 40
1.0
  9
$DIMTOFL
 70
     0
  9
$DIMTVP
 40
0.0
  9
$DIMTIX
 70
     0
  9
$DIMSOXD
 70
     0
  9
$DIMSAH
 70
     0
  9
$DIMBLK1
  1

  9
$DIMBLK2
  1

  9
$DIMSTYLE
  2
STANDARD
  9
$DIMCLRD
 70
     0
  9
$DIMCLRE
 70
     0
  9
$DIMCLRT
 70
     0
  9
$DIMTFAC
 40
0.65
  9
$DIMGAP
 40
0.09
  9
$DIMJUST
 70
     0
  9
$DIMSD1
 70
     0
  9
$DIMSD2
 70
     0
  9
$DIMTOLJ
 70
     0
  9
$DIMTZIN
 70
     0
  9
$DIMALTZ
 70
     0
  9
$DIMALTTZ
 70
     0
  9
$DIMFIT
 70
     3
  9
$DIMUPT
 70
     0
  9
$DIMUNIT
 70
     2
  9
$DIMDEC
 70
     2
  9
$DIMTDEC
 70
     2
  9
$DIMALTU
 70
     2
  9
$DIMALTTD
 70
     2
  9
$DIMTXSTY
  7
STANDARD
  9
$DIMAUNIT
 70
     0
  9
$LUNITS
 70
     2
  9
$LUPREC
 70
     4
  9
$SKETCHINC
 40
0.1
  9
$FILLETRAD
 40
0.5
  9
$AUNITS
 70
     0
  9
$AUPREC
 70
     0
  9
$MENU
  1
.
  9
$ELEVATION
 40
0.0
  9
$PELEVATION
 40
0.0
  9
$THICKNESS
 40
0.0
  9
$LIMCHECK
 70
     0
  9
$CHAMFERA
 40
0.0
  9
$CHAMFERB
 40
0.0
  9
$CHAMFERC
 40
0.0
  9
$CHAMFERD
 40
0.0
  9
$SKPOLY
 70
     0
  9
$TDCREATE
 40
2457284.644993009
  9
$TDUPDATE
 40
2457284.644993009
  9
$TDINDWG
 40
0.0000000116
  9
$TDUSRTIMER
 40
0.0000000116
  9
$USRTIMER
 70
     1
  9
$ANGBASE
 50
0.0
  9
$ANGDIR
 70
     0
  9
$PDMODE
 70
     0
  9
$PDSIZE
 40
1.0
  9
$PLINEWID
 40
0.0
  9
$COORDS
 70
     1
  9
$SPLFRAME
 70
     0
  9
$SPLINETYPE
 70
     6
  9
$SPLINESEGS
 70
     8
  9
$ATTDIA
 70
     0
  9
$ATTREQ
 70
     1
  9
$HANDLING
 70
     1
  9
$HANDSEED
  5
370
  9
$SURFTAB1
 70
     6
  9
$SURFTAB2
 70
     6
  9
$SURFTYPE
 70
     6
  9
$SURFU
 70
     6
  9
$SURFV
 70
     6
  9
$UCSNAME
  2

  9
$UCSORG
 10
0.0
 20
0.0
 30
0.0
  9
$UCSXDIR
 10
1.0
 20
0.0
 30
0.0
  9
$UCSYDIR
 10
0.0
 20
1.0
 30
0.0
  9
$PUCSNAME
  2

  9
$PUCSORG
 10
0.0
 20
0.0
 30
0.0
  9
$PUCSXDIR
 10
1.0
 20
0.0
 30
0.0
  9
$PUCSYDIR
 10
0.0
 20
1.0
 30
0.0
  9
$USERI1
 70
     0
  9
$USERI2
 70
     0
  9
$USERI3
 70
     0
  9
$USERI4
 70
     0
  9
$USERI5
 70
     0
  9
$USERR1
 40
0.0
  9
$USERR2
 40
0.0
  9
$USERR3
 40
0.0
  9
$USERR4
 40
0.0
  9
$USERR5
 40
0.0
  9
$WORLDVIEW
 70
     1
  9
$SHADEDGE
 70
     3
  9
$SHADEDIF
 70
    70
  9
$TILEMODE
 70
     1
  9
$MAXACTVP
 70
    64
  9
$PINSBASE
 10
0.0
 20
0.0
 30
0.0
  9
$PLIMCHECK
 70
     0
  9
$PEXTMIN
 10
1.000000000000000E+20
 20
1.000000000000000E+20
 30
1.000000000000000E+20
  9
$PEXTMAX
 10
-1.000000000000000E+20
 20
-1.000000000000000E+20
 30
-1.000000000000000E+20
  9
$PLIMMIN
 10
0.0
 20
0.0
  9
$PLIMMAX
 10
12.0
 20
9.0
  9
$UNITMODE
 70
     0
  9
$VISRETAIN
 70
     0
  9
$PLINEGEN
 70
     1
  9
$PSLTSCALE
 70
     0
  9
$TREEDEPTH
 70
  3020
  9
$PICKSTYLE
 70
     1
  9
$CMLSTYLE
  2
STANDARD
  9
$CMLJUST
 70
     0
  9
$CMLSCALE
 40
1.0
  9
$PROXYGRAPHICS
 70
     0
  9
$MEASUREMENT
 70
     1
  0
ENDSEC
  0
SECTION
  2
CLASSES
  0
CLASS
  1
ACDBDICTIONARYWDFLT
  2
AcDbDictionaryWithDefault
  3
ObjectDBX Classes
 90
        0
280
     0
281
     0
  0
CLASS
  1
VISUALSTYLE
  2
AcDbVisualStyle
  3
ObjectDBX Classes
 90
     4095
280
     0
281
     0
  0
CLASS
  1
MATERIAL
  2
AcDbMaterial
  3
ObjectDBX Classes
 90
     1153
280
     0
281
     0
  0
CLASS
  1
SCALE
  2
AcDbScale
  3
ObjectDBX Classes
 90
     1153
280
     0
281
     0
  0
CLASS
  1
SUN
  2
AcDbSun
  3
SCENEOE
 90
     1153
280
     0
281
     0
  0
CLASS
  1
DICTIONARYVAR
  2
AcDbDictionaryVar
  3
ObjectDBX Classes
 90
        0
280
     0
281
     0
  0
CLASS
  1
XRECORD
  2
AcDbXrecord
  3
ObjectDBX Classes
 90
        0
280
     0
281
     0
  0
CLASS
  1
LWPOLYLINE
  2
AcDbPolyline
  3
ObjectDBX Classes
 90
        0
280
     0
281
     1
  0
CLASS
  1
HATCH
  2
AcDbHatch
  3
ObjectDBX Classes
 90
        0
280
     0
281
     1
  0
CLASS
  1
ACDBPLACEHOLDER
  2
AcDbPlaceHolder
  3
ObjectDBX Classes
 90
        0
280
     0
281
     0
  0
CLASS
  1
LAYOUT
  2
AcDbLayout
  3
ObjectDBX Classes
 90
        0
280
     0
281
     0
  0
ENDSEC
  0
SECTION
  2
TABLES
  0
TABLE
  2
VPORT
  5
8
102
{ACAD_XDICTIONARY
360
366
102
}
330
0
100
AcDbSymbolTable
 70
     1
  0
VPORT
  5
29
330
8
100
AcDbSymbolTableRecord
100
AcDbViewportTableRecord
  2
*ACTIVE
 70
     0
 10
0.0
 20
0.0
 11
1.0
 21
1.0
 12
0.0
 22
0.0
 13
0.0
 23
0.0
 14
0.5
 24
0.5
 15
0.5
 25
0.5
 16
0.0
 26
0.0
 36
1.0
 17
-0.0000000000000036
 27
0.0
 37
0.0
 40
174.2388385344
 41
1.681012044807647
 42
50.0
 43
0.0
 44
0.0
 50
0.0
 51
0.0
 71
     0
 72
  1000
 73
     1
 74
     1
 75
     0
 76
     0
 77
     0
 78
     0
  0
ENDTAB
  0
TABLE
  2
LTYPE
  5
5
330
0
100
AcDbSymbolTable
 70
    67
  0
LTYPE
  5
14
330
5
100
AcDbSymbolTableRecord
100
AcDbLinetypeTableRecord
  2
BYBLOCK
 70
     0
  3

 72
    65
 73
     0
 40
0.0
  0
LTYPE
  5
15
330
5
100
AcDbSymbolTableRecord
100
AcDbLinetypeTableRecord
  2
BYLAYER
 70
     0
  3

 72
    65
 73
     0
 40
0.0
  0
LTYPE
  5
16
330
5
100
AcDbSymbolTableRecord
100
AcDbLinetypeTableRecord
  2
CONTINUOUS
 70
     0
  3
Solid line
 72
    65
 73
     0
 40
0.0
  0
LTYPE
  5
6B
330
5
100
AcDbSymbolTableRecord
100
AcDbLinetypeTableRecord
  2
HIDDENX2
 70
     0
  3
Hidden (2x) ____ ____ ____ ____ ____ ____ ____ 
 72
    65
 73
     2
 40
19.05
 49
12.7
 74
     0
 49
-6.35
 74
     0
  0
LTYPE
  5
6C
330
5
100
AcDbSymbolTableRecord
100
AcDbLinetypeTableRecord
  2
HIDDEN
 70
     0
  3
Hidden __ __ __ __ __ __ __ __ __ __ __ __ __ __
 72
    65
 73
     2
 40
9.524999999999999
 49
6.35
 74
     0
 49
-3.175
 74
     0
  0
LTYPE
  5
6D
330
5
100
AcDbSymbolTableRecord
100
AcDbLinetypeTableRecord
  2
HIDDEN2
 70
     0
  3
Hidden (.5x) _ _ _ _ _ _ _ _ _ _ _ _ _ _ _ _ _ 
 72
    65
 73
     2
 40
4.762499999999999
 49
3.175
 74
     0
 49
-1.5875
 74
     0
  0
LTYPE
  5
6E
330
5
100
AcDbSymbolTableRecord
100
AcDbLinetypeTableRecord
  2
DASHED
 70
     0
  3
Dashed __ __ __ __ __ __ __ __ __ __ __ __ __ _
 72
    65
 73
     2
 40
19.05
 49
12.7
 74
     0
 49
-6.35
 74
     0
  0
LTYPE
  5
6F
330
5
100
AcDbSymbolTableRecord
100
AcDbLinetypeTableRecord
  2
DASHED2
 70
     0
  3
Dashed (.5x) _ _ _ _ _ _ _ _ _ _ _ _ _ _ _ _ _ 
 72
    65
 73
     2
 40
9.524999999999999
 49
6.35
 74
     0
 49
-3.175
 74
     0
  0
LTYPE
  5
70
330
5
100
AcDbSymbolTableRecord
100
AcDbLinetypeTableRecord
  2
DASHEDX2
 70
     0
  3
Dashed (2x) ____  ____  ____  ____  ____  ___
 72
    65
 73
     2
 40
38.09999999999999
 49
25.4
 74
     0
 49
-12.7
 74
     0
  0
LTYPE
  5
71
330
5
100
AcDbSymbolTableRecord
100
AcDbLinetypeTableRecord
  2
DOTX2
 70
     0
  3
Dot (2x) .  .  .  .  .  .  .  .  .  .  .  .  .  .
 72
    65
 73
     2
 40
12.7
 49
0.0
 74
     0
 49
-12.7
 74
     0
  0
LTYPE
  5
72
330
5
100
AcDbSymbolTableRecord
100
AcDbLinetypeTableRecord
  2
DOT
 70
     0
  3
Dot . . . . . . . . . . . . . . . . . . . . . . . .
 72
    65
 73
     2
 40
6.35
 49
0.0
 74
     0
 49
-6.35
 74
     0
  0
LTYPE
  5
73
330
5
100
AcDbSymbolTableRecord
100
AcDbLinetypeTableRecord
  2
DOT2
 70
     0
  3
Dot (.5x) ........................................
 72
    65
 73
     2
 40
3.175
 49
0.0
 74
     0
 49
-3.175
 74
     0
  0
LTYPE
  5
74
330
5
100
AcDbSymbolTableRecord
100
AcDbLinetypeTableRecord
  2
CENTERX2
 70
     0
  3
Center (2x) ________  __  ________  __  _____
 72
    65
 73
     4
 40
101.6
 49
63.5
 74
     0
 49
-12.7
 74
     0
 49
12.7
 74
     0
 49
-12.7
 74
     0
  0
LTYPE
  5
75
330
5
100
AcDbSymbolTableRecord
100
AcDbLinetypeTableRecord
  2
CENTER
 70
     0
  3
Center ____ _ ____ _ ____ _ ____ _ ____ _ ____
 72
    65
 73
     4
 40
50.8
 49
31.75
 74
     0
 49
-6.35
 74
     0
 49
6.35
 74
     0
 49
-6.35
 74
     0
  0
LTYPE
  5
76
330
5
100
AcDbSymbolTableRecord
100
AcDbLinetypeTableRecord
  2
CENTER2
 70
     0
  3
Center (.5x) ___ _ ___ _ ___ _ ___ _ ___ _ ___
 72
    65
 73
     4
 40
28.575
 49
19.05
 74
     0
 49
-3.175
 74
     0
 49
3.175
 74
     0
 49
-3.175
 74
     0
  0
LTYPE
  5
77
330
5
100
AcDbSymbolTableRecord
100
AcDbLinetypeTableRecord
  2
DASHDOTX2
 70
     0
  3
Dash dot (2x) ____  .  ____  .  ____  .  ___
 72
    65
 73
     4
 40
50.8
 49
25.4
 74
     0
 49
-12.7
 74
     0
 49
0.0
 74
     0
 49
-12.7
 74
     0
  0
LTYPE
  5
78
330
5
100
AcDbSymbolTableRecord
100
AcDbLinetypeTableRecord
  2
DASHDOT
 70
     0
  3
Dash dot __ . __ . __ . __ . __ . __ . __ . __
 72
    65
 73
     4
 40
25.4
 49
12.7
 74
     0
 49
-6.35
 74
     0
 49
0.0
 74
     0
 49
-6.35
 74
     0
  0
LTYPE
  5
79
330
5
100
AcDbSymbolTableRecord
100
AcDbLinetypeTableRecord
  2
DASHDOT2
 70
     0
  3
Dash dot (.5x) _._._._._._._._._._._._._._._.
 72
    65
 73
     4
 40
12.7
 49
6.35
 74
     0
 49
-3.175
 74
     0
 49
0.0
 74
     0
 49
-3.175
 74
     0
  0
LTYPE
  5
7A
330
5
100
AcDbSymbolTableRecord
100
AcDbLinetypeTableRecord
  2
DIVIDEX2
 70
     0
  3
Divide (2x) ________  .  .  ________  .  .  _
 72
    65
 73
     6
 40
63.5
 49
25.4
 74
     0
 49
-12.7
 74
     0
 49
0.0
 74
     0
 49
-12.7
 74
     0
 49
0.0
 74
     0
 49
-12.7
 74
     0
  0
LTYPE
  5
7B
330
5
100
AcDbSymbolTableRecord
100
AcDbLinetypeTableRecord
  2
DIVIDE
 70
     0
  3
Divide ____ . . ____ . . ____ . . ____ . . ____
 72
    65
 73
     6
 40
31.75
 49
12.7
 74
     0
 49
-6.35
 74
     0
 49
0.0
 74
     0
 49
-6.35
 74
     0
 49
0.0
 74
     0
 49
-6.35
 74
     0
  0
LTYPE
  5
7C
330
5
100
AcDbSymbolTableRecord
100
AcDbLinetypeTableRecord
  2
DIVIDE2
 70
     0
  3
Divide (.5x) __..__..__..__..__..__..__..__.._
 72
    65
 73
     6
 40
15.875
 49
6.35
 74
     0
 49
-3.175
 74
     0
 49
0.0
 74
     0
 49
-3.175
 74
     0
 49
0.0
 74
     0
 49
-3.175
 74
     0
  0
LTYPE
  5
7D
330
5
100
AcDbSymbolTableRecord
100
AcDbLinetypeTableRecord
  2
BORDERX2
 70
     0
  3
Border (2x) ____  ____  .  ____  ____  .  ___
 72
    65
 73
     6
 40
88.89999999999999
 49
25.4
 74
     0
 49
-12.7
 74
     0
 49
25.4
 74
     0
 49
-12.7
 74
     0
 49
0.0
 74
     0
 49
-12.7
 74
     0
  0
LTYPE
  5
7E
330
5
100
AcDbSymbolTableRecord
100
AcDbLinetypeTableRecord
  2
BORDER
 70
     0
  3
Border __ __ . __ __ . __ __ . __ __ . __ __ .
 72
    65
 73
     6
 40
44.45
 49
12.7
 74
     0
 49
-6.35
 74
     0
 49
12.7
 74
     0
 49
-6.35
 74
     0
 49
0.0
 74
     0
 49
-6.35
 74
     0
  0
LTYPE
  5
7F
330
5
100
AcDbSymbolTableRecord
100
AcDbLinetypeTableRecord
  2
BORDER2
 70
     0
  3
Border (.5x) __.__.__.__.__.__.__.__.__.__.__.
 72
    65
 73
     6
 40
22.225
 49
6.35
 74
     0
 49
-3.175
 74
     0
 49
6.35
 74
     0
 49
-3.175
 74
     0
 49
0.0
 74
     0
 49
-3.175
 74
     0
  0
LTYPE
  5
80
330
5
100
AcDbSymbolTableRecord
100
AcDbLinetypeTableRecord
  2
PHANTOMX2
 70
     0
  3
Phantom (2x) ____________    ____    ____   _
 72
    65
 73
     6
 40
127.0
 49
63.5
 74
     0
 49
-12.7
 74
     0
 49
12.7
 74
     0
 49
-12.7
 74
     0
 49
12.7
 74
     0
 49
-12.7
 74
     0
  0
LTYPE
  5
81
330
5
100
AcDbSymbolTableRecord
100
AcDbLinetypeTableRecord
  2
PHANTOM
 70
     0
  3
Phantom ______  __  __  ______  __  __  ______ 
 72
    65
 73
     6
 40
63.5
 49
31.75
 74
     0
 49
-6.35
 74
     0
 49
6.35
 74
     0
 49
-6.35
 74
     0
 49
6.35
 74
     0
 49
-6.35
 74
     0
  0
LTYPE
  5
82
330
5
100
AcDbSymbolTableRecord
100
AcDbLinetypeTableRecord
  2
PHANTOM2
 70
     0
  3
Phantom (.5x) ___ _ _ ___ _ _ ___ _ _ ___ _ _
 72
    65
 73
     6
 40
31.75
 49
15.875
 74
     0
 49
-3.175
 74
     0
 49
3.175
 74
     0
 49
-3.175
 74
     0
 49
3.175
 74
     0
 49
-3.175
 74
     0
  0
LTYPE
  5
83
330
5
100
AcDbSymbolTableRecord
100
AcDbLinetypeTableRecord
  2
ACAD_ISO06W100
 70
     0
  3
ISO long-dash triple-dot ____ ... ____ ... ____
 72
    65
 73
     8
 40
36.0
 49
24.0
 74
     0
 49
-3.0
 74
     0
 49
0.0
 74
     0
 49
-3.0
 74
     0
 49
0.0
 74
     0
 49
-3.0
 74
     0
 49
0.0
 74
     0
 49
-3.0
 74
     0
  0
LTYPE
  5
84
330
5
100
AcDbSymbolTableRecord
100
AcDbLinetypeTableRecord
  2
ACAD_ISO13W100
 70
     0
  3
ISO double-dash double-dot __ __ . . __ __ . . _
 72
    65
 73
     8
 40
36.0
 49
12.0
 74
     0
 49
-3.0
 74
     0
 49
12.0
 74
     0
 49
-3.0
 74
     0
 49
0.0
 74
     0
 49
-3.0
 74
     0
 49
0.0
 74
     0
 49
-3.0
 74
     0
  0
LTYPE
  5
85
330
5
100
AcDbSymbolTableRecord
100
AcDbLinetypeTableRecord
  2
ACAD_ISO14W100
 70
     0
  3
ISO dash triple-dot __ . . . __ . . . __ . . . _
 72
    65
 73
     8
 40
24.0
 49
12.0
 74
     0
 49
-3.0
 74
     0
 49
0.0
 74
     0
 49
-3.0
 74
     0
 49
0.0
 74
     0
 49
-3.0
 74
     0
 49
0.0
 74
     0
 49
-3.0
 74
     0
  0
LTYPE
  5
86
330
5
100
AcDbSymbolTableRecord
100
AcDbLinetypeTableRecord
  2
ACAD_ISO02W100
 70
     0
  3
ISO dash __ __ __ __ __ __ __ __ __ __ __ __ __
 72
    65
 73
     2
 40
15.0
 49
12.0
 74
     0
 49
-3.0
 74
     0
  0
LTYPE
  5
87
330
5
100
AcDbSymbolTableRecord
100
AcDbLinetypeTableRecord
  2
ACAD_ISO03W100
 70
     0
  3
ISO dash space __    __    __    __    __    __
 72
    65
 73
     2
 40
30.0
 49
12.0
 74
     0
 49
-18.0
 74
     0
  0
LTYPE
  5
88
330
5
100
AcDbSymbolTableRecord
100
AcDbLinetypeTableRecord
  2
ACAD_ISO04W100
 70
     0
  3
ISO long-dash dot ____ . ____ . ____ . ____ . _
 72
    65
 73
     4
 40
30.0
 49
24.0
 74
     0
 49
-3.0
 74
     0
 49
0.0
 74
     0
 49
-3.0
 74
     0
  0
LTYPE
  5
89
330
5
100
AcDbSymbolTableRecord
100
AcDbLinetypeTableRecord
  2
ACAD_ISO05W100
 70
     0
  3
ISO long-dash double-dot ____ .. ____ .. ____ . 
 72
    65
 73
     6
 40
33.0
 49
24.0
 74
     0
 49
-3.0
 74
     0
 49
0.0
 74
     0
 49
-3.0
 74
     0
 49
0.0
 74
     0
 49
-3.0
 74
     0
  0
LTYPE
  5
8A
330
5
100
AcDbSymbolTableRecord
100
AcDbLinetypeTableRecord
  2
ACAD_ISO07W100
 70
     0
  3
ISO dot . . . . . . . . . . . . . . . . . . . . 
 72
    65
 73
     2
 40
3.0
 49
0.0
 74
     0
 49
-3.0
 74
     0
  0
LTYPE
  5
8B
330
5
100
AcDbSymbolTableRecord
100
AcDbLinetypeTableRecord
  2
ACAD_ISO08W100
 70
     0
  3
ISO long-dash short-dash ____ __ ____ __ ____ _
 72
    65
 73
     4
 40
36.0
 49
24.0
 74
     0
 49
-3.0
 74
     0
 49
6.0
 74
     0
 49
-3.0
 74
     0
  0
LTYPE
  5
8C
330
5
100
AcDbSymbolTableRecord
100
AcDbLinetypeTableRecord
  2
ACAD_ISO09W100
 70
     0
  3
ISO long-dash double-short-dash ____ __ __ ____
 72
    65
 73
     6
 40
45.0
 49
24.0
 74
     0
 49
-3.0
 74
     0
 49
6.0
 74
     0
 49
-3.0
 74
     0
 49
6.0
 74
     0
 49
-3.0
 74
     0
  0
LTYPE
  5
8D
330
5
100
AcDbSymbolTableRecord
100
AcDbLinetypeTableRecord
  2
ACAD_ISO10W100
 70
     0
  3
ISO dash dot __ . __ . __ . __ . __ . __ . __ . 
 72
    65
 73
     4
 40
18.0
 49
12.0
 74
     0
 49
-3.0
 74
     0
 49
0.0
 74
     0
 49
-3.0
 74
     0
  0
LTYPE
  5
8E
330
5
100
AcDbSymbolTableRecord
100
AcDbLinetypeTableRecord
  2
ACAD_ISO11W100
 70
     0
  3
ISO double-dash dot __ __ . __ __ . __ __ . __ _
 72
    65
 73
     6
 40
33.0
 49
12.0
 74
     0
 49
-3.0
 74
     0
 49
12.0
 74
     0
 49
-3.0
 74
     0
 49
0.0
 74
     0
 49
-3.0
 74
     0
  0
LTYPE
  5
8F
330
5
100
AcDbSymbolTableRecord
100
AcDbLinetypeTableRecord
  2
ACAD_ISO12W100
 70
     0
  3
ISO dash double-dot __ . . __ . . __ . . __ . . 
 72
    65
 73
     6
 40
21.0
 49
12.0
 74
     0
 49
-3.0
 74
     0
 49
0.0
 74
     0
 49
-3.0
 74
     0
 49
0.0
 74
     0
 49
-3.0
 74
     0
  0
LTYPE
  5
90
330
5
100
AcDbSymbolTableRecord
100
AcDbLinetypeTableRecord
  2
ACAD_ISO15W100
 70
     0
  3
ISO double-dash triple-dot __ __ . . . __ __ . .
 72
    65
 73
    10
 40
39.0
 49
12.0
 74
     0
 49
-3.0
 74
     0
 49
12.0
 74
     0
 49
-3.0
 74
     0
 49
0.0
 74
     0
 49
-3.0
 74
     0
 49
0.0
 74
     0
 49
-3.0
 74
     0
 49
0.0
 74
     0
 49
-3.0
 74
     0
  0
LTYPE
  5
91
330
5
100
AcDbSymbolTableRecord
100
AcDbLinetypeTableRecord
  2
JIS_02_0_7
 70
     0
  3
HIDDEN0.75 _ _ _ _ _ _ _ _ _ _ _ _ _ _ _ _ _ 
 72
    65
 73
     2
 40
1.35
 49
0.75
 74
     0
 49
-0.6
 74
     0
  0
LTYPE
  5
92
330
5
100
AcDbSymbolTableRecord
100
AcDbLinetypeTableRecord
  2
JIS_02_1_0
 70
     0
  3
HIDDEN01 _ _ _ _ _ _ _ _ _ _ _ _ _ _ _ _ _ 
 72
    65
 73
     2
 40
2.0
 49
1.0
 74
     0
 49
-1.0
 74
     0
  0
LTYPE
  5
93
330
5
100
AcDbSymbolTableRecord
100
AcDbLinetypeTableRecord
  2
JIS_02_1_2
 70
     0
  3
HIDDEN01.25  _ _ _ _ _ _ _ _ _ _ _ _ _ _ _ _ _ 
 72
    65
 73
     2
 40
2.5
 49
1.25
 74
     0
 49
-1.25
 74
     0
  0
LTYPE
  5
94
330
5
100
AcDbSymbolTableRecord
100
AcDbLinetypeTableRecord
  2
JIS_02_2_0
 70
     0
  3
HIDDEN02 __ __ __ __ __ __ __ __ __ __ __ 
 72
    65
 73
     2
 40
3.0
 49
2.0
 74
     0
 49
-1.0
 74
     0
  0
LTYPE
  5
95
330
5
100
AcDbSymbolTableRecord
100
AcDbLinetypeTableRecord
  2
JIS_02_4_0
 70
     0
  3
HIDDEN04 ____ ____ ____ ____ ____ ____ ____ 
 72
    65
 73
     2
 40
5.5
 49
4.0
 74
     0
 49
-1.5
 74
     0
  0
LTYPE
  5
96
330
5
100
AcDbSymbolTableRecord
100
AcDbLinetypeTableRecord
  2
JIS_08_11
 70
     0
  3
1SASEN11 ___ _ ___ _ ___ _ ___ _ ___ _ ___
 72
    65
 73
     4
 40
12.8
 49
11.0
 74
     0
 49
-0.6
 74
     0
 49
0.6
 74
     0
 49
-0.6
 74
     0
  0
LTYPE
  5
97
330
5
100
AcDbSymbolTableRecord
100
AcDbLinetypeTableRecord
  2
JIS_08_15
 70
     0
  3
1SASEN15 ____ _ ____ _ ____ _ ____ _ ____ 
 72
    65
 73
     4
 40
17.25
 49
15.0
 74
     0
 49
-0.75
 74
     0
 49
0.75
 74
     0
 49
-0.75
 74
     0
  0
LTYPE
  5
98
330
5
100
AcDbSymbolTableRecord
100
AcDbLinetypeTableRecord
  2
JIS_08_25
 70
     0
  3
1SASEN25 ________  __  ________  __  _____
 72
    65
 73
     4
 40
28.0
 49
25.0
 74
     0
 49
-1.125
 74
     0
 49
0.75
 74
     0
 49
-1.125
 74
     0
  0
LTYPE
  5
99
330
5
100
AcDbSymbolTableRecord
100
AcDbLinetypeTableRecord
  2
JIS_08_37
 70
     0
  3
1SASEN37 ________  __  ________  __  _____
 72
    65
 73
     4
 40
40.5
 49
37.5
 74
     0
 49
-1.125
 74
     0
 49
0.75
 74
     0
 49
-1.125
 74
     0
  0
LTYPE
  5
9A
330
5
100
AcDbSymbolTableRecord
100
AcDbLinetypeTableRecord
  2
JIS_08_50
 70
     0
  3
1SASEN50 _______________  __  ____________
 72
    65
 73
     4
 40
53.0
 49
50.0
 74
     0
 49
-1.125
 74
     0
 49
0.75
 74
     0
 49
-1.125
 74
     0
  0
LTYPE
  5
9B
330
5
100
AcDbSymbolTableRecord
100
AcDbLinetypeTableRecord
  2
JIS_09_08
 70
     0
  3
2SASEN8 __ _ _ __ _ _ __ _ _ __ _ _ __ _ _ 
 72
    65
 73
     6
 40
10.75
 49
8.0
 74
     0
 49
-0.55
 74
     0
 49
0.55
 74
     0
 49
-0.55
 74
     0
 49
0.55
 74
     0
 49
-0.55
 74
     0
  0
LTYPE
  5
9C
330
5
100
AcDbSymbolTableRecord
100
AcDbLinetypeTableRecord
  2
JIS_09_15
 70
     0
  3
2SASEN15 ___ _ _ ___ _ _ ___ _ _ ___ _ _ ___ 
 72
    65
 73
     6
 40
18.9
 49
15.0
 74
     0
 49
-0.9
 74
     0
 49
0.6
 74
     0
 49
-0.9
 74
     0
 49
0.6
 74
     0
 49
-0.9
 74
     0
  0
LTYPE
  5
9D
330
5
100
AcDbSymbolTableRecord
100
AcDbLinetypeTableRecord
  2
JIS_09_29
 70
     0
  3
2SASEN29 ______　__  __  ______　__  __  ___
 72
    65
 73
     6
 40
34.0
 49
29.0
 74
     0
 49
-1.2
 74
     0
 49
0.7
 74
     0
 49
-1.2
 74
     0
 49
0.7
 74
     0
 49
-1.2
 74
     0
  0
LTYPE
  5
9E
330
5
100
AcDbSymbolTableRecord
100
AcDbLinetypeTableRecord
  2
JIS_09_50
 70
     0
  3
2SASEN50 ____________　__  __  _____________
 72
    65
 73
     6
 40
55.0
 49
50.0
 74
     0
 49
-1.2
 74
     0
 49
0.7
 74
     0
 49
-1.2
 74
     0
 49
0.7
 74
     0
 49
-1.2
 74
     0
  0
LTYPE
  5
9F
330
5
100
AcDbSymbolTableRecord
100
AcDbLinetypeTableRecord
  2
SXF_破線
 70
     0
  3
02 dashed -- -- -- -- -- --
 72
    65
 73
     2
 40
7.5
 49
6.0
 74
     0
 49
-1.5
 74
     0
  0
LTYPE
  5
A0
330
5
100
AcDbSymbolTableRecord
100
AcDbLinetypeTableRecord
  2
SXF_跳び破線
 70
     0
  3
03 dashed_spaced --  --  --  --
 72
    65
 73
     2
 40
12.0
 49
6.0
 74
     0
 49
-6.0
 74
     0
  0
LTYPE
  5
A1
330
5
100
AcDbSymbolTableRecord
100
AcDbLinetypeTableRecord
  2
SXF_一点長鎖線
 70
     0
  3
04 long_dashed_dotted ---- . ---- . ----
 72
    65
 73
     4
 40
15.25
 49
12.0
 74
     0
 49
-1.5
 74
     0
 49
0.25
 74
     0
 49
-1.5
 74
     0
  0
LTYPE
  5
A2
330
5
100
AcDbSymbolTableRecord
100
AcDbLinetypeTableRecord
  2
SXF_二点長鎖線
 70
     0
  3
05 long_dashed_double-dotted ---- . . ---- 
 72
    65
 73
     6
 40
17.0
 49
12.0
 74
     0
 49
-1.5
 74
     0
 49
0.25
 74
     0
 49
-1.5
 74
     0
 49
0.25
 74
     0
 49
-1.5
 74
     0
  0
LTYPE
  5
A3
330
5
100
AcDbSymbolTableRecord
100
AcDbLinetypeTableRecord
  2
SXF_三点長鎖線
 70
     0
  3
06 long_dashed_triplicate-dotted ---- ... ---- 
 72
    65
 73
     8
 40
18.75
 49
12.0
 74
     0
 49
-1.5
 74
     0
 49
0.25
 74
     0
 49
-1.5
 74
     0
 49
0.25
 74
     0
 49
-1.5
 74
     0
 49
0.25
 74
     0
 49
-1.5
 74
     0
  0
LTYPE
  5
A4
330
5
100
AcDbSymbolTableRecord
100
AcDbLinetypeTableRecord
  2
SXF_点線
 70
     0
  3
07 dotted . . . . . . . . . . . . 
 72
    65
 73
     2
 40
1.75
 49
0.25
 74
     0
 49
-1.5
 74
     0
  0
LTYPE
  5
A5
330
5
100
AcDbSymbolTableRecord
100
AcDbLinetypeTableRecord
  2
SXF_一点鎖線
 70
     0
  3
08 chain ---- - --- - --- - ---
 72
    65
 73
     4
 40
18.5
 49
12.0
 74
     0
 49
-1.5
 74
     0
 49
3.5
 74
     0
 49
-1.5
 74
     0
  0
LTYPE
  5
A6
330
5
100
AcDbSymbolTableRecord
100
AcDbLinetypeTableRecord
  2
SXF_二点鎖線
 70
     0
  3
09 chain_double_dash ---- - - ---- - - ----
 72
    65
 73
     6
 40
23.5
 49
12.0
 74
     0
 49
-1.5
 74
     0
 49
3.5
 74
     0
 49
-1.5
 74
     0
 49
3.5
 74
     0
 49
-1.5
 74
     0
  0
LTYPE
  5
A7
330
5
100
AcDbSymbolTableRecord
100
AcDbLinetypeTableRecord
  2
SXF_一点短鎖線
 70
     0
  3
10 dashed_dotted -- . -- . -- . --
 72
    65
 73
     4
 40
9.25
 49
6.0
 74
     0
 49
-1.5
 74
     0
 49
0.25
 74
     0
 49
-1.5
 74
     0
  0
LTYPE
  5
A8
330
5
100
AcDbSymbolTableRecord
100
AcDbLinetypeTableRecord
  2
SXF_一点二短鎖線
 70
     0
  3
11 double-dashed_dotted -- -- . -- --
 72
    65
 73
     6
 40
16.75
 49
6.0
 74
     0
 49
-1.5
 74
     0
 49
6.0
 74
     0
 49
-1.5
 74
     0
 49
0.25
 74
     0
 49
-1.5
 74
     0
  0
LTYPE
  5
A9
330
5
100
AcDbSymbolTableRecord
100
AcDbLinetypeTableRecord
  2
SXF_二点短鎖線
 70
     0
  3
12 dashed_double_dotted -- . . -- . . --
 72
    65
 73
     6
 40
11.0
 49
6.0
 74
     0
 49
-1.5
 74
     0
 49
0.25
 74
     0
 49
-1.5
 74
     0
 49
0.25
 74
     0
 49
-1.5
 74
     0
  0
LTYPE
  5
AA
330
5
100
AcDbSymbolTableRecord
100
AcDbLinetypeTableRecord
  2
SXF_二点二短鎖線
 70
     0
  3
13 double-dashed_double-dotted -- -- . . -- --
 72
    65
 73
     8
 40
18.5
 49
6.0
 74
     0
 49
-1.5
 74
     0
 49
6.0
 74
     0
 49
-1.5
 74
     0
 49
0.25
 74
     0
 49
-1.5
 74
     0
 49
0.25
 74
     0
 49
-1.5
 74
     0
  0
LTYPE
  5
AB
330
5
100
AcDbSymbolTableRecord
100
AcDbLinetypeTableRecord
  2
SXF_三点短鎖線
 70
     0
  3
14 dashed triplicate-dotted -- . . . -- . . . --
 72
    65
 73
     8
 40
12.75
 49
6.0
 74
     0
 49
-1.5
 74
     0
 49
0.25
 74
     0
 49
-1.5
 74
     0
 49
0.25
 74
     0
 49
-1.5
 74
     0
 49
0.25
 74
     0
 49
-1.5
 74
     0
  0
LTYPE
  5
AC
330
5
100
AcDbSymbolTableRecord
100
AcDbLinetypeTableRecord
  2
SXF_三点二短鎖線
 70
     0
  3
15 double-dashed triplicate-dotted -- -- . . . -- -- 
 72
    65
 73
    10
 40
20.25
 49
6.0
 74
     0
 49
-1.5
 74
     0
 49
6.0
 74
     0
 49
-1.5
 74
     0
 49
0.25
 74
     0
 49
-1.5
 74
     0
 49
0.25
 74
     0
 49
-1.5
 74
     0
 49
0.25
 74
     0
 49
-1.5
 74
     0
  0
ENDTAB
  0
TABLE
  2
LAYER
  5
2
330
0
100
AcDbSymbolTable
 70
     1
  0
LAYER
  5
10
330
2
100
AcDbSymbolTableRecord
100
AcDbLayerTableRecord
  2
0
 70
     0
 62
     7
  6
CONTINUOUS
  0
ENDTAB
  0
TABLE
  2
STYLE
  5
3
330
0
100
AcDbSymbolTable
 70
     2
  0
STYLE
  5
11
330
3
100
AcDbSymbolTableRecord
100
AcDbTextStyleTableRecord
  2
STANDARD
 70
     0
 40
0.0
 41
1.0
 50
0.0
 71
     0
 42
0.2
  3
txt.shx
  4
bigfont.shx
  0
STYLE
  5
33C
330
3
100
AcDbSymbolTableRecord
100
AcDbTextStyleTableRecord
  2
DCSTYLE0
 70
     0
 40
0.0
 41
0.4200000000000006
 50
0.0
 71
     0
 42
0.2
  3
txt.shx
  4
bigfont
  0
ENDTAB
  0
TABLE
  2
VIEW
  5
6
330
0
100
AcDbSymbolTable
 70
     0
  0
ENDTAB
  0
TABLE
  2
UCS
  5
7
330
0
100
AcDbSymbolTable
 70
     0
  0
ENDTAB
  0
TABLE
  2
APPID
  5
9
330
0
100
AcDbSymbolTable
 70
     2
  0
APPID
  5
12
330
9
100
AcDbSymbolTableRecord
100
AcDbRegAppTableRecord
  2
ACAD
 70
     0
  0
APPID
  5
6A
330
9
100
AcDbSymbolTableRecord
100
AcDbRegAppTableRecord
  2
DAFUSIONOUT
 70
     0
  0
ENDTAB
  0
TABLE
  2
DIMSTYLE
  5
A
330
0
100
AcDbSymbolTable
 70
     1
  0
DIMSTYLE
105
27
330
A
100
AcDbSymbolTableRecord
100
AcDbDimStyleTableRecord
  2
STANDARD
 70
     0
  3

  4

  5

  6

  7

 40
1.0
 41
0.18
 42
0.0625
 43
0.38
 44
0.18
 45
0.0
 46
0.0
 47
0.0
 48
0.0
140
0.18
141
0.09
142
0.0
143
25.4
144
1.0
145
0.0
146
1.0
147
0.09
 71
     0
 72
     0
 73
     1
 74
     1
 75
     0
 76
     0
 77
     0
 78
     0
170
     0
171
     2
172
     0
173
     0
174
     0
175
     0
176
     0
177
     0
178
     0
270
     2
271
     4
272
     4
273
     2
274
     2
340
11
275
     0
280
     0
281
     0
282
     0
283
     1
284
     0
285
     0
286
     0
287
     3
288
     0
  0
ENDTAB
  0
TABLE
  2
BLOCK_RECORD
  5
1
330
0
100
AcDbSymbolTable
 70
     1
  0
BLOCK_RECORD
  5
1F
330
1
100
AcDbSymbolTableRecord
100
AcDbBlockTableRecord
  2
*MODEL_SPACE
  0
BLOCK_RECORD
  5
1B
330
1
100
AcDbSymbolTableRecord
100
AcDbBlockTableRecord
  2
*PAPER_SPACE
  0
ENDTAB
  0
ENDSEC
  0
SECTION
  2
BLOCKS
  0
BLOCK
  5
20
330
1F
100
AcDbEntity
  8
0
100
AcDbBlockBegin
  2
*MODEL_SPACE
 70
     0
 10
0.0
 20
0.0
 30
0.0
  3
*MODEL_SPACE
  1

  0
ENDBLK
  5
21
330
1F
100
AcDbEntity
  8
0
100
AcDbBlockEnd
  0
BLOCK
  5
1C
330
1B
100
AcDbEntity
 67
     1
  8
0
100
AcDbBlockBegin
  2
*PAPER_SPACE
 70
     0
 10
0.0
 20
0.0
 30
0.0
  3
*PAPER_SPACE
  1

  0
ENDBLK
  5
1D
330
1B
100
AcDbEntity
 67
     1
  8
0
100
AcDbBlockEnd
  0
ENDSEC
  0
SECTION
  2
ENTITIES
  0
LINE
  5
AE
330
1F
100
AcDbEntity
  8
0
  6
CONTINUOUS
 62
     7
100
AcDbLine
 10
112.861381629121
 20
-56.58880464000001
 30
0.0
 11
117.861381629121
 21
-56.58880464000001
 31
0.0
  0
LINE
  5
AF
330
1F
100
AcDbEntity
  8
0
  6
CONTINUOUS
 62
     7
100
AcDbLine
 10
112.861381629121
 20
-54.35084353640001
 30
0.0
 11
114.861381629121
 21
-54.35084353640001
 31
0.0
  0
LINE
  5
B0
330
1F
100
AcDbEntity
  8
0
  6
CONTINUOUS
 62
     7
100
AcDbLine
 10
117.861381629121
 20
-41.11576228039999
 30
0.0
 11
117.861381629121
 21
-56.58880464000001
 31
0.0
  0
LINE
  5
B1
330
1F
100
AcDbEntity
  8
0
  6
CONTINUOUS
 62
     7
100
AcDbLine
 10
114.861381629121
 20
-42.22195018499999
 30
0.0
 11
114.861381629121
 21
-54.35084353640001
 31
0.0
  0
LINE
  5
B2
330
1F
100
AcDbEntity
  8
0
  6
CONTINUOUS
 62
     7
100
AcDbLine
 10
112.861381629121
 20
-54.35084353640001
 30
0.0
 11
112.861381629121
 21
-56.58880464000001
 31
0.0
  0
ARC
  5
B3
330
1F
100
AcDbEntity
  8
0
  6
CONTINUOUS
 62
     7
100
AcDbCircle
 10
-56.07724816157903
 20
-46.58880464000001
 30
0.0
 40
5.000000000000018
100
AcDbArc
 50
121.5254734789002
 51
58.47452652109985
  0
ARC
  5
B4
330
1F
100
AcDbEntity
  8
0
  6
CONTINUOUS
 62
     7
100
AcDbCircle
 10
-56.07638072457902
 20
-39.4997818861
 30
0.0
 40
101.0039398645173
100
AcDbArc
 50
101.5949093902
 51
102.8719085792
  0
ARC
  5
B5
330
1F
100
AcDbEntity
  8
0
  6
CONTINUOUS
 62
     7
100
AcDbCircle
 10
-56.07690666977902
 20
-39.60033056369999
 30
0.0
 40
93.8996770754308
100
AcDbArc
 50
102.4854603081
 51
103.8641769447
  0
ARC
  5
B6
330
1F
100
AcDbEntity
  8
0
  6
CONTINUOUS
 62
     7
100
AcDbCircle
 10
-56.07638072457902
 20
-39.4997818861
 30
0.0
 40
101.0039398645173
100
AcDbArc
 50
95.45445003739997
 51
96.7095175747
  0
ARC
  5
B7
330
1F
100
AcDbEntity
  8
0
  6
CONTINUOUS
 62
     7
100
AcDbCircle
 10
-56.07690666977902
 20
-39.60033056369999
 30
0.0
 40
93.8996770754308
100
AcDbArc
 50
76.1362526313
 51
77.51496905519998
  0
ARC
  5
B8
330
1F
100
AcDbEntity
  8
0
  6
CONTINUOUS
 62
     7
100
AcDbCircle
 10
-56.07690666977902
 20
-39.60033056369999
 30
0.0
 40
93.8996770754308
100
AcDbArc
 50
82.7809900237
 51
84.13222102379999
  0
ARC
  5
B9
330
1F
100
AcDbEntity
  8
0
  6
CONTINUOUS
 62
     7
100
AcDbCircle
 10
-56.07690666977902
 20
-39.60033056369999
 30
0.0
 40
93.8996770754308
100
AcDbArc
 50
89.3289941599
 51
90.6713116459
  0
ARC
  5
BA
330
1F
100
AcDbEntity
  8
0
  6
CONTINUOUS
 62
     7
100
AcDbCircle
 10
-56.07638072457902
 20
-39.4997818861
 30
0.0
 40
101.0039398645173
100
AcDbArc
 50
89.376490659
 51
90.62439036859999
  0
ARC
  5
BB
330
1F
100
AcDbEntity
  8
0
  6
CONTINUOUS
 62
     7
100
AcDbCircle
 10
-56.07638072457902
 20
-39.4997818861
 30
0.0
 40
101.0039398645173
100
AcDbArc
 50
83.29147334029997
 51
84.54653856759998
  0
ARC
  5
BC
330
1F
100
AcDbEntity
  8
0
  6
CONTINUOUS
 62
     7
100
AcDbCircle
 10
-56.07638072457902
 20
-39.4997818861
 30
0.0
 40
101.0039398645173
100
AcDbArc
 50
77.1291012195
 51
78.4060975793
  0
ARC
  5
BD
330
1F
100
AcDbEntity
  8
0
  6
CONTINUOUS
 62
     7
100
AcDbCircle
 10
-56.07690666977902
 20
-39.60033056369999
 30
0.0
 40
93.89967707543082
100
AcDbArc
 50
95.86819791480002
 51
97.21943004980004
  0
LINE
  5
BE
330
1F
100
AcDbEntity
  8
0
  6
CONTINUOUS
 62
     7
100
AcDbLine
 10
-141.577248161579
 20
-42.58880464000001
 30
0.0
 11
-68.71010209497902
 21
-42.58880464000001
 31
0.0
  0
LINE
  5
BF
330
1F
100
AcDbEntity
  8
0
  6
CONTINUOUS
 62
     7
100
AcDbLine
 10
-43.44439422817902
 20
-42.58880464000001
 30
0.0
 11
29.42275183842099
 21
-42.58880464000001
 31
0.0
  0
ARC
  5
C0
330
1F
100
AcDbEntity
  8
0
  6
CONTINUOUS
 62
     7
100
AcDbCircle
 10
-43.44439422817902
 20
-42.08880464000001
 30
0.0
 40
0.5000000000077591
100
AcDbArc
 50
215.8325968921998
 51
270.0
  0
ARC
  5
C1
330
1F
100
AcDbEntity
  8
0
  6
CONTINUOUS
 62
     7
100
AcDbCircle
 10
-68.71010209497902
 20
-42.08880464000001
 30
0.0
 40
0.5000000000077609
100
AcDbArc
 50
270.0
 51
324.1674031078007
  0
ELLIPSE
  5
C2
330
1F
100
AcDbEntity
  8
0
  6
CONTINUOUS
 62
     7
100
AcDbEllipse
 10
-56.07724816157903
 20
-44.58880464000001
 30
0.0
 11
13.0
 21
0.0
 31
0.0
210
0.0
220
0.0
230
1.0
 40
0.5
 41
0.3464736791965963
 42
2.795118974393196
  0
LINE
  5
C3
330
1F
100
AcDbEntity
  8
0
  6
CONTINUOUS
 62
     7
100
AcDbLine
 10
86.66138162912097
 20
-41.21403346089999
 30
0.0
 11
86.66138162912097
 21
-5.078323084099992
 31
0.0
  0
LINE
  5
C4
330
1F
100
AcDbEntity
  8
0
  6
CONTINUOUS
 62
     7
100
AcDbLine
 10
86.34568084232097
 20
-41.51362232129999
 30
0.0
 11
79.75670971662095
 21
-41.1683089769
 31
0.0
  0
LINE
  5
C5
330
1F
100
AcDbEntity
  8
0
  6
CONTINUOUS
 62
     7
100
AcDbLine
 10
77.86138162912096
 20
-39.1710499074
 30
0.0
 11
77.86138162912096
 21
-6.790233503099994
 31
0.0
  0
LINE
  5
C6
330
1F
100
AcDbEntity
  8
0
  6
CONTINUOUS
 62
     7
100
AcDbLine
 10
64.36138162922094
 20
45.903992354
 30
0.0
 11
64.36138162922094
 21
66.4445315184
 31
0.0
  0
LINE
  5
C7
330
1F
100
AcDbEntity
  8
0
  6
CONTINUOUS
 62
     7
100
AcDbLine
 10
64.36138162922094
 20
45.903992354
 30
0.0
 11
63.04491465092099
 21
38.01119535999999
 31
0.0
  0
LINE
  5
C8
330
1F
100
AcDbEntity
  8
0
  6
CONTINUOUS
 62
     7
100
AcDbLine
 10
65.30904540682099
 20
67.44316081170001
 30
0.0
 11
69.86138162922094
 21
67.6817386436
 31
0.0
  0
LINE
  5
C9
330
1F
100
AcDbEntity
  8
0
  6
CONTINUOUS
 62
     7
100
AcDbLine
 10
64.36138162912096
 20
63.3540682071
 30
0.0
 11
64.36138162912096
 21
-2.960665216199999
 31
0.0
  0
LINE
  5
CA
330
1F
100
AcDbEntity
  8
0
  6
CONTINUOUS
 62
     7
100
AcDbLine
 10
106.8613816292209
 20
75.41119536010001
 30
0.0
 11
106.8613816292209
 21
-42.58880463989999
 31
0.0
  0
LINE
  5
CB
330
1F
100
AcDbEntity
  8
0
  6
CONTINUOUS
 62
     7
100
AcDbLine
 10
63.03709962692096
 20
37.91119535990001
 30
0.0
 11
64.36138162922094
 21
45.85532921210001
 31
0.0
  0
LINE
  5
CC
330
1F
100
AcDbEntity
  8
0
  6
CONTINUOUS
 62
     7
100
AcDbLine
 10
86.86138162912096
 20
-5.088804639999992
 30
0.0
 11
62.31377927462097
 21
-3.8023193139
 31
0.0
  0
LINE
  5
CD
330
1F
100
AcDbEntity
  8
0
  6
CONTINUOUS
 62
     7
100
AcDbLine
 10
86.86138162912096
 20
-5.088804639999992
 30
0.0
 11
86.86138162912096
 21
-40.5916844981
 31
0.0
  0
LINE
  5
CE
330
1F
100
AcDbEntity
  8
0
  6
CONTINUOUS
 62
     7
100
AcDbLine
 10
102.8613816292209
 20
62.98975379140001
 30
0.0
 11
69.86138162922094
 21
61.52865555930001
 31
0.0
  0
LINE
  5
CF
330
1F
100
AcDbEntity
  8
0
  6
CONTINUOUS
 62
     7
100
AcDbLine
 10
106.8613816292209
 20
75.41119536010001
 30
0.0
 11
72.86138162922094
 21
75.41119536010001
 31
0.0
  0
LINE
  5
D0
330
1F
100
AcDbEntity
  8
0
  6
CONTINUOUS
 62
     7
100
AcDbLine
 10
102.8613816292209
 20
60.82228493529998
 30
0.0
 11
65.31934802712095
 21
59.242862135
 31
0.0
  0
LINE
  5
D1
330
1F
100
AcDbEntity
  8
0
  6
CONTINUOUS
 62
     7
100
AcDbLine
 10
106.8613816292209
 20
-42.58880463989999
 30
0.0
 11
87.80904588012095
 21
-41.59031403319999
 31
0.0
  0
LINE
  5
D2
330
1F
100
AcDbEntity
  8
0
  6
CONTINUOUS
 62
     7
100
AcDbLine
 10
77.86138162912096
 20
-4.617134626500004
 30
0.0
 11
77.86138162912096
 21
-13.14265234309999
 31
0.0
  0
LINE
  5
D3
330
1F
100
AcDbEntity
  8
0
  6
CONTINUOUS
 62
     7
100
AcDbLine
 10
102.8613816292209
 20
74.25259967619999
 30
0.0
 11
102.8613816292209
 21
60.82228493529998
 31
0.0
  0
LINE
  5
D4
330
1F
100
AcDbEntity
  8
0
  6
CONTINUOUS
 62
     7
100
AcDbLine
 10
106.8613816292209
 20
75.41119536010001
 30
0.0
 11
103.8090456729209
 21
75.2512292109
 31
0.0
  0
LINE
  5
D5
330
1F
100
AcDbEntity
  8
0
  6
CONTINUOUS
 62
     7
100
AcDbLine
 10
69.86138162922094
 20
72.41119536010001
 30
0.0
 11
69.86138162922094
 21
61.52865555930001
 31
0.0
  0
LINE
  5
D6
330
1F
100
AcDbEntity
  8
0
  6
CONTINUOUS
 62
     7
100
AcDbLine
 10
107.861381629121
 20
75.41119536
 30
0.0
 11
107.861381629121
 21
-42.58880464000001
 31
0.0
  0
LINE
  5
D7
330
1F
100
AcDbEntity
  8
0
  6
CONTINUOUS
 62
     7
100
AcDbLine
 10
117.861381629121
 20
73.9381530004
 30
0.0
 11
117.861381629121
 21
34.70665469280002
 31
0.0
  0
LINE
  5
D8
330
1F
100
AcDbEntity
  8
0
  6
CONTINUOUS
 62
     7
100
AcDbLine
 10
114.761381629121
 20
34.16119535999999
 30
0.0
 11
114.761381629121
 21
-1.338804639999992
 31
0.0
  0
LINE
  5
D9
330
1F
100
AcDbEntity
  8
0
  6
CONTINUOUS
 62
     7
100
AcDbLine
 10
114.761381629121
 20
-1.338804639999992
 30
0.0
 11
117.370107832321
 21
-1.3843401253
 31
0.0
  0
LINE
  5
DA
330
1F
100
AcDbEntity
  8
0
  6
CONTINUOUS
 62
     7
100
AcDbLine
 10
107.861381629121
 20
-42.58880464000001
 30
0.0
 11
116.913717585321
 21
-42.1143918152
 31
0.0
  0
LINE
  5
DB
330
1F
100
AcDbEntity
  8
0
  6
CONTINUOUS
 62
     7
100
AcDbLine
 10
117.861381629121
 20
-1.884263972900001
 30
0.0
 11
117.861381629121
 21
-41.11576228039999
 31
0.0
  0
LINE
  5
DC
330
1F
100
AcDbEntity
  8
0
  6
CONTINUOUS
 62
     7
100
AcDbLine
 10
107.861381629121
 20
-42.08880464000001
 30
0.0
 11
106.861381629121
 21
-42.08880464000001
 31
0.0
  0
LINE
  5
DD
330
1F
100
AcDbEntity
  8
0
  6
CONTINUOUS
 62
     7
100
AcDbLine
 10
114.761381629121
 20
34.16119535999999
 30
0.0
 11
117.370107832421
 21
34.20673084520001
 31
0.0
  0
LINE
  5
DE
330
1F
100
AcDbEntity
  8
0
  6
CONTINUOUS
 62
     7
100
AcDbLine
 10
107.861381629121
 20
75.41119536
 30
0.0
 11
116.913717585421
 21
74.9367825352
 31
0.0
  0
LINE
  5
DF
330
1F
100
AcDbEntity
  8
0
  6
CONTINUOUS
 62
     7
100
AcDbLine
 10
107.861381629121
 20
74.91119536
 30
0.0
 11
106.861381629121
 21
74.91119536
 31
0.0
  0
ARC
  5
E0
330
1F
100
AcDbEntity
  8
0
  6
CONTINUOUS
 62
     7
100
AcDbCircle
 10
86.36138162912096
 20
-41.21403346089999
 30
0.0
 40
0.2999999999999906
100
AcDbArc
 50
267.0000000000052
 51
359.9999999988995
  0
ARC
  5
E1
330
1F
100
AcDbEntity
  8
0
  6
CONTINUOUS
 62
     7
100
AcDbCircle
 10
79.86138162912096
 20
-39.1710499074
 30
0.0
 40
2.000000000000006
100
AcDbArc
 50
180.0
 51
266.9999999999993
  0
ARC
  5
E2
330
1F
100
AcDbEntity
  8
0
  6
CONTINUOUS
 62
     7
100
AcDbCircle
 10
613.903048295321
 20
-5.088804639999992
 30
0.0
 40
552.5416666661312
100
AcDbArc
 50
174.026726019
 51
175.5262030876
  0
ARC
  5
E3
330
1F
100
AcDbEntity
  8
0
  6
CONTINUOUS
 62
     7
100
AcDbCircle
 10
65.36138162922094
 20
66.44453129089999
 30
0.0
 40
1.000000000000026
100
AcDbArc
 50
93.00001526990027
 51
179.9999869641006
  0
ARC
  5
E4
330
1F
100
AcDbEntity
  8
0
  6
CONTINUOUS
 62
     7
100
AcDbCircle
 10
87.86138162922094
 20
-40.59168448759999
 30
0.0
 40
1.000000000044736
100
AcDbArc
 50
180.0000006016001
 51
267.0000118850015
  0
ARC
  5
E5
330
1F
100
AcDbEntity
  8
0
  6
CONTINUOUS
 62
     7
100
AcDbCircle
 10
613.903048295321
 20
-5.088804639999992
 30
0.0
 40
552.5416666661708
100
AcDbArc
 50
175.5366041999
 51
179.7626147317
  0
ARC
  5
E6
330
1F
100
AcDbEntity
  8
0
  6
CONTINUOUS
 62
     7
100
AcDbCircle
 10
62.36611542582096
 20
-2.803689789399996
 30
0.0
 40
1.000000000000002
100
AcDbArc
 50
179.7625594217999
 51
266.9999888123996
  0
ARC
  5
E7
330
1F
100
AcDbEntity
  8
0
  6
CONTINUOUS
 62
     7
100
AcDbCircle
 10
65.36138162912096
 20
-2.960665039399998
 30
0.0
 40
1.000000000000016
100
AcDbArc
 50
180.0000101298002
 51
267.000000000001
  0
ARC
  5
E8
330
1F
100
AcDbEntity
  8
0
  6
CONTINUOUS
 62
     7
100
AcDbCircle
 10
103.8613816292209
 20
74.25259967619999
 30
0.0
 40
1.000000000000002
100
AcDbArc
 50
92.99999999999909
 51
180.0
  0
ARC
  5
E9
330
1F
100
AcDbEntity
  8
0
  6
CONTINUOUS
 62
     7
100
AcDbCircle
 10
65.36138162922094
 20
58.24374593740001
 30
0.0
 40
1.0
100
AcDbArc
 50
92.40905775049946
 51
180.0
  0
ARC
  5
EA
330
1F
100
AcDbEntity
  8
0
  6
CONTINUOUS
 62
     7
100
AcDbCircle
 10
72.86138162922094
 20
72.41119536010001
 30
0.0
 40
3.0
100
AcDbArc
 50
90.0
 51
180.0
  0
ARC
  5
EB
330
1F
100
AcDbEntity
  8
0
  6
CONTINUOUS
 62
     7
100
AcDbCircle
 10
116.861381629121
 20
-41.11576228039999
 30
0.0
 40
0.9999999999716571
100
AcDbArc
 50
272.9999999977002
 51
0.0
  0
ARC
  5
EC
330
1F
100
AcDbEntity
  8
0
  6
CONTINUOUS
 62
     7
100
AcDbCircle
 10
117.361381629121
 20
-1.884263972900001
 30
0.0
 40
0.5000000000107434
100
AcDbArc
 50
0.0
 51
89.00000000220216
  0
ARC
  5
ED
330
1F
100
AcDbEntity
  8
0
  6
CONTINUOUS
 62
     7
100
AcDbCircle
 10
117.361381629121
 20
34.70665469280002
 30
0.0
 40
0.5000000000000058
100
AcDbArc
 50
271.0000000000018
 51
0.0
  0
ARC
  5
EE
330
1F
100
AcDbEntity
  8
0
  6
CONTINUOUS
 62
     7
100
AcDbCircle
 10
116.861381629121
 20
73.9381530004
 30
0.0
 40
1.000000000000057
100
AcDbArc
 50
0.0
 51
87.0000000000011
  0
LINE
  5
EF
330
1F
100
AcDbEntity
  8
0
  6
CONTINUOUS
 62
     7
100
AcDbLine
 10
17.94329512212096
 20
61.52865555919998
 30
0.0
 11
17.94329512212096
 21
73.41119536
 31
0.0
  0
LINE
  5
F0
330
1F
100
AcDbEntity
  8
0
  6
CONTINUOUS
 62
     7
100
AcDbLine
 10
19.67275183832095
 20
73.4111953597
 30
0.0
 11
19.67275183842099
 21
62.98975379129999
 31
0.0
  0
LINE
  5
F1
330
1F
100
AcDbEntity
  8
0
  6
CONTINUOUS
 62
     7
100
AcDbLine
 10
5.172751838420993
 20
-13.7062278513
 30
0.0
 11
7.472751838420949
 21
-13.7062278513
 31
0.0
  0
LINE
  5
F2
330
1F
100
AcDbEntity
  8
0
  6
CONTINUOUS
 62
     7
100
AcDbLine
 10
0.372751838420982
 20
-13.7062278513
 30
0.0
 11
2.672751838420993
 21
-13.7062278513
 31
0.0
  0
LINE
  5
F3
330
1F
100
AcDbEntity
  8
0
  6
CONTINUOUS
 62
     7
100
AcDbLine
 10
2.672751838420993
 20
-4.617134626500004
 30
0.0
 11
2.672751838420993
 21
-13.7062278513
 31
0.0
  0
LINE
  5
F4
330
1F
100
AcDbEntity
  8
0
  6
CONTINUOUS
 62
     7
100
AcDbLine
 10
14.77275183842096
 20
-4.617134626500004
 30
0.0
 11
12.27275183842096
 21
-4.617134626500004
 31
0.0
  0
LINE
  5
F5
330
1F
100
AcDbEntity
  8
0
  6
CONTINUOUS
 62
     7
100
AcDbLine
 10
9.97275183842095
 20
-13.7062278513
 30
0.0
 11
12.27275183842096
 21
-13.7062278513
 31
0.0
  0
LINE
  5
F6
330
1F
100
AcDbEntity
  8
0
  6
CONTINUOUS
 62
     7
100
AcDbLine
 10
9.97275183842095
 20
-4.617134626500004
 30
0.0
 11
9.97275183842095
 21
-13.7062278513
 31
0.0
  0
LINE
  5
F7
330
1F
100
AcDbEntity
  8
0
  6
CONTINUOUS
 62
     7
100
AcDbLine
 10
12.27275183842096
 20
-4.617134626500004
 30
0.0
 11
12.27275183842096
 21
-13.7062278513
 31
0.0
  0
LINE
  5
F8
330
1F
100
AcDbEntity
  8
0
  6
CONTINUOUS
 62
     7
100
AcDbLine
 10
14.77275183842096
 20
-4.617134626500004
 30
0.0
 11
14.77275183842096
 21
-13.7062278513
 31
0.0
  0
LINE
  5
F9
330
1F
100
AcDbEntity
  8
0
  6
CONTINUOUS
 62
     7
100
AcDbLine
 10
12.27275183842096
 20
-4.7062278513
 30
0.0
 11
9.97275183842095
 21
-4.7062278513
 31
0.0
  0
LINE
  5
FA
330
1F
100
AcDbEntity
  8
0
  6
CONTINUOUS
 62
     7
100
AcDbLine
 10
15.07275183842097
 20
-5.588804639999992
 30
0.0
 11
14.77275183842096
 21
-5.588804639999992
 31
0.0
  0
LINE
  5
FB
330
1F
100
AcDbEntity
  8
0
  6
CONTINUOUS
 62
     7
100
AcDbLine
 10
10.27275183842096
 20
-5.588804639999992
 30
0.0
 11
10.27275183842096
 21
-11.7716132723
 31
0.0
  0
LINE
  5
FC
330
1F
100
AcDbEntity
  8
0
  6
CONTINUOUS
 62
     7
100
AcDbLine
 10
11.97275183842095
 20
-11.7716132723
 30
0.0
 11
12.27275183842096
 21
-11.7716132723
 31
0.0
  0
LINE
  5
FD
330
1F
100
AcDbEntity
  8
0
  6
CONTINUOUS
 62
     7
100
AcDbLine
 10
11.97275183842095
 20
-5.588804639999992
 30
0.0
 11
11.97275183842095
 21
-11.7716132723
 31
0.0
  0
LINE
  5
FE
330
1F
100
AcDbEntity
  8
0
  6
CONTINUOUS
 62
     7
100
AcDbLine
 10
17.07275183842097
 20
-4.617134626500004
 30
0.0
 11
17.07275183842097
 21
-13.7062278513
 31
0.0
  0
LINE
  5
FF
330
1F
100
AcDbEntity
  8
0
  6
CONTINUOUS
 62
     7
100
AcDbLine
 10
23.02275183842096
 20
-4.617134626500004
 30
0.0
 11
17.07275183842097
 21
-4.617134626500004
 31
0.0
  0
LINE
  5
100
330
1F
100
AcDbEntity
  8
0
  6
CONTINUOUS
 62
     7
100
AcDbLine
 10
17.07275183842097
 20
-4.7062278513
 30
0.0
 11
14.77275183842096
 21
-4.7062278513
 31
0.0
  0
LINE
  5
101
330
1F
100
AcDbEntity
  8
0
  6
CONTINUOUS
 62
     7
100
AcDbLine
 10
19.42275183842099
 20
-14.58880463999999
 30
0.0
 11
19.42275183842099
 21
-14.08880463999999
 31
0.0
  0
LINE
  5
102
330
1F
100
AcDbEntity
  8
0
  6
CONTINUOUS
 62
     7
100
AcDbLine
 10
14.77275183842096
 20
-13.7062278513
 30
0.0
 11
17.07275183842097
 21
-13.7062278513
 31
0.0
  0
LINE
  5
103
330
1F
100
AcDbEntity
  8
0
  6
CONTINUOUS
 62
     7
100
AcDbLine
 10
7.472751838420949
 20
-4.617134626500004
 30
0.0
 11
7.472751838420949
 21
-13.7062278513
 31
0.0
  0
LINE
  5
104
330
1F
100
AcDbEntity
  8
0
  6
CONTINUOUS
 62
     7
100
AcDbLine
 10
5.172751838420993
 20
-4.617134626500004
 30
0.0
 11
5.172751838420993
 21
-13.7062278513
 31
0.0
  0
LINE
  5
105
330
1F
100
AcDbEntity
  8
0
  6
CONTINUOUS
 62
     7
100
AcDbLine
 10
2.672751838420993
 20
-4.7062278513
 30
0.0
 11
0.372751838420982
 21
-4.7062278513
 31
0.0
  0
LINE
  5
106
330
1F
100
AcDbEntity
  8
0
  6
CONTINUOUS
 62
     7
100
AcDbLine
 10
5.172751838420993
 20
-4.617134626500004
 30
0.0
 11
2.672751838420993
 21
-4.617134626500004
 31
0.0
  0
LINE
  5
107
330
1F
100
AcDbEntity
  8
0
  6
CONTINUOUS
 62
     7
100
AcDbLine
 10
9.97275183842095
 20
-4.617134626500004
 30
0.0
 11
7.472751838420949
 21
-4.617134626500004
 31
0.0
  0
LINE
  5
108
330
1F
100
AcDbEntity
  8
0
  6
CONTINUOUS
 62
     7
100
AcDbLine
 10
7.472751838420949
 20
-4.7062278513
 30
0.0
 11
5.172751838420993
 21
-4.7062278513
 31
0.0
  0
LINE
  5
109
330
1F
100
AcDbEntity
  8
0
  6
CONTINUOUS
 62
     7
100
AcDbLine
 10
7.172751838420989
 20
-5.588804639999992
 30
0.0
 11
7.472751838420949
 21
-5.588804639999992
 31
0.0
  0
LINE
  5
10A
330
1F
100
AcDbEntity
  8
0
  6
CONTINUOUS
 62
     7
100
AcDbLine
 10
9.97275183842095
 20
-13.6171346265
 30
0.0
 11
7.472751838420949
 21
-13.6171346265
 31
0.0
  0
LINE
  5
10B
330
1F
100
AcDbEntity
  8
0
  6
CONTINUOUS
 62
     7
100
AcDbLine
 10
5.172751838420993
 20
-13.6171346265
 30
0.0
 11
2.672751838420993
 21
-13.6171346265
 31
0.0
  0
LINE
  5
10C
330
1F
100
AcDbEntity
  8
0
  6
CONTINUOUS
 62
     7
100
AcDbLine
 10
2.372751838420982
 20
-11.7716132723
 30
0.0
 11
2.672751838420993
 21
-11.7716132723
 31
0.0
  0
LINE
  5
10D
330
1F
100
AcDbEntity
  8
0
  6
CONTINUOUS
 62
     7
100
AcDbLine
 10
5.472751838420947
 20
-5.588804639999992
 30
0.0
 11
5.172751838420993
 21
-5.588804639999992
 31
0.0
  0
LINE
  5
10E
330
1F
100
AcDbEntity
  8
0
  6
CONTINUOUS
 62
     7
100
AcDbLine
 10
15.07275183842097
 20
-5.588804639999992
 30
0.0
 11
15.07275183842097
 21
-11.7716132723
 31
0.0
  0
LINE
  5
10F
330
1F
100
AcDbEntity
  8
0
  6
CONTINUOUS
 62
     7
100
AcDbLine
 10
15.07275183842097
 20
-11.7716132723
 30
0.0
 11
14.77275183842096
 21
-11.7716132723
 31
0.0
  0
LINE
  5
110
330
1F
100
AcDbEntity
  8
0
  6
CONTINUOUS
 62
     7
100
AcDbLine
 10
10.27275183842096
 20
-5.588804639999992
 30
0.0
 11
9.97275183842095
 21
-5.588804639999992
 31
0.0
  0
LINE
  5
111
330
1F
100
AcDbEntity
  8
0
  6
CONTINUOUS
 62
     7
100
AcDbLine
 10
11.97275183842095
 20
-5.588804639999992
 30
0.0
 11
12.27275183842096
 21
-5.588804639999992
 31
0.0
  0
LINE
  5
112
330
1F
100
AcDbEntity
  8
0
  6
CONTINUOUS
 62
     7
100
AcDbLine
 10
12.27275183842096
 20
-13.6171346265
 30
0.0
 11
14.77275183842096
 21
-13.6171346265
 31
0.0
  0
LINE
  5
113
330
1F
100
AcDbEntity
  8
0
  6
CONTINUOUS
 62
     7
100
AcDbLine
 10
10.27275183842096
 20
-11.7716132723
 30
0.0
 11
9.97275183842095
 21
-11.7716132723
 31
0.0
  0
LINE
  5
114
330
1F
100
AcDbEntity
  8
0
  6
CONTINUOUS
 62
     7
100
AcDbLine
 10
17.07275183842097
 20
-13.6171346265
 30
0.0
 11
21.481251005221
 21
-13.6171346265
 31
0.0
  0
LINE
  5
115
330
1F
100
AcDbEntity
  8
0
  6
CONTINUOUS
 62
     7
100
AcDbLine
 10
21.98125083432098
 20
-13.1171346265
 30
0.0
 11
21.98125083432098
 21
-4.617134626500004
 31
0.0
  0
LINE
  5
116
330
1F
100
AcDbEntity
  8
0
  6
CONTINUOUS
 62
     7
100
AcDbLine
 10
16.90740003522097
 20
-3.909629606099998
 30
0.0
 11
28.19542121892096
 21
-3.909629606099998
 31
0.0
  0
LINE
  5
117
330
1F
100
AcDbEntity
  8
0
  6
CONTINUOUS
 62
     7
100
AcDbLine
 10
5.472751838420947
 20
-11.7716132723
 30
0.0
 11
5.172751838420993
 21
-11.7716132723
 31
0.0
  0
LINE
  5
118
330
1F
100
AcDbEntity
  8
0
  6
CONTINUOUS
 62
     7
100
AcDbLine
 10
5.472751838420947
 20
-5.588804639999992
 30
0.0
 11
5.472751838420947
 21
-11.7716132723
 31
0.0
  0
LINE
  5
119
330
1F
100
AcDbEntity
  8
0
  6
CONTINUOUS
 62
     7
100
AcDbLine
 10
7.172751838420989
 20
-5.588804639999992
 30
0.0
 11
7.172751838420989
 21
-11.7716132723
 31
0.0
  0
LINE
  5
11A
330
1F
100
AcDbEntity
  8
0
  6
CONTINUOUS
 62
     7
100
AcDbLine
 10
7.172751838420989
 20
-11.7716132723
 30
0.0
 11
7.472751838420949
 21
-11.7716132723
 31
0.0
  0
LINE
  5
11B
330
1F
100
AcDbEntity
  8
0
  6
CONTINUOUS
 62
     7
100
AcDbLine
 10
2.372751838420982
 20
-5.588804639999992
 30
0.0
 11
2.672751838420993
 21
-5.588804639999992
 31
0.0
  0
LINE
  5
11C
330
1F
100
AcDbEntity
  8
0
  6
CONTINUOUS
 62
     7
100
AcDbLine
 10
2.372751838420982
 20
-5.588804639999992
 30
0.0
 11
2.372751838420982
 21
-11.7716132723
 31
0.0
  0
LINE
  5
11D
330
1F
100
AcDbEntity
  8
0
  6
CONTINUOUS
 62
     7
100
AcDbLine
 10
-131.827248161579
 20
73.41119536
 30
0.0
 11
-131.827248161579
 21
62.98975379129999
 31
0.0
  0
LINE
  5
11E
330
1F
100
AcDbEntity
  8
0
  6
CONTINUOUS
 62
     7
100
AcDbLine
 10
-130.097791444879
 20
61.52865555930001
 30
0.0
 11
-130.097791445279
 21
73.41119536
 31
0.0
  0
LINE
  5
11F
330
1F
100
AcDbEntity
  8
0
  6
CONTINUOUS
 62
     7
100
AcDbLine
 10
-4.127248161579018
 20
-11.7716132723
 30
0.0
 11
-4.42724816157903
 21
-11.7716132723
 31
0.0
  0
LINE
  5
120
330
1F
100
AcDbEntity
  8
0
  6
CONTINUOUS
 62
     7
100
AcDbLine
 10
-4.42724816157903
 20
-4.617134626500004
 30
0.0
 11
-4.42724816157903
 21
-13.7062278513
 31
0.0
  0
LINE
  5
121
330
1F
100
AcDbEntity
  8
0
  6
CONTINUOUS
 62
     7
100
AcDbLine
 10
-2.42724816157903
 20
-5.588804639999992
 30
0.0
 11
-2.127248161579018
 21
-5.588804639999992
 31
0.0
  0
LINE
  5
122
330
1F
100
AcDbEntity
  8
0
  6
CONTINUOUS
 62
     7
100
AcDbLine
 10
-2.42724816157903
 20
-5.588804639999992
 30
0.0
 11
-2.42724816157903
 21
-11.7716132723
 31
0.0
  0
LINE
  5
123
330
1F
100
AcDbEntity
  8
0
  6
CONTINUOUS
 62
     7
100
AcDbLine
 10
-2.42724816157903
 20
-11.7716132723
 30
0.0
 11
-2.127248161579018
 21
-11.7716132723
 31
0.0
  0
LINE
  5
124
330
1F
100
AcDbEntity
  8
0
  6
CONTINUOUS
 62
     7
100
AcDbLine
 10
-4.42724816157903
 20
-13.7062278513
 30
0.0
 11
-2.127248161579018
 21
-13.7062278513
 31
0.0
  0
LINE
  5
125
330
1F
100
AcDbEntity
  8
0
  6
CONTINUOUS
 62
     7
100
AcDbLine
 10
-2.127248161579018
 20
-4.617134626500004
 30
0.0
 11
-2.127248161579018
 21
-13.7062278513
 31
0.0
  0
LINE
  5
126
330
1F
100
AcDbEntity
  8
0
  6
CONTINUOUS
 62
     7
100
AcDbLine
 10
-2.127248161579018
 20
-4.7062278513
 30
0.0
 11
-4.42724816157903
 21
-4.7062278513
 31
0.0
  0
LINE
  5
127
330
1F
100
AcDbEntity
  8
0
  6
CONTINUOUS
 62
     7
100
AcDbLine
 10
0.372751838420982
 20
-13.6171346265
 30
0.0
 11
-2.127248161579018
 21
-13.6171346265
 31
0.0
  0
LINE
  5
128
330
1F
100
AcDbEntity
  8
0
  6
CONTINUOUS
 62
     7
100
AcDbLine
 10
0.672751838420993
 20
-5.588804639999992
 30
0.0
 11
0.372751838420982
 21
-5.588804639999992
 31
0.0
  0
LINE
  5
129
330
1F
100
AcDbEntity
  8
0
  6
CONTINUOUS
 62
     7
100
AcDbLine
 10
0.672751838420993
 20
-5.588804639999992
 30
0.0
 11
0.672751838420993
 21
-11.7716132723
 31
0.0
  0
LINE
  5
12A
330
1F
100
AcDbEntity
  8
0
  6
CONTINUOUS
 62
     7
100
AcDbLine
 10
0.672751838420993
 20
-11.7716132723
 30
0.0
 11
0.372751838420982
 21
-11.7716132723
 31
0.0
  0
LINE
  5
12B
330
1F
100
AcDbEntity
  8
0
  6
CONTINUOUS
 62
     7
100
AcDbLine
 10
0.372751838420982
 20
-4.617134626500004
 30
0.0
 11
-2.127248161579018
 21
-4.617134626500004
 31
0.0
  0
LINE
  5
12C
330
1F
100
AcDbEntity
  8
0
  6
CONTINUOUS
 62
     7
100
AcDbLine
 10
0.372751838420982
 20
-4.617134626500004
 30
0.0
 11
0.372751838420982
 21
-13.7062278513
 31
0.0
  0
LINE
  5
12D
330
1F
100
AcDbEntity
  8
0
  6
CONTINUOUS
 62
     7
100
AcDbLine
 10
-30.92724816157903
 20
-4.617134626500004
 30
0.0
 11
-30.92724816157903
 21
-13.7062278513
 31
0.0
  0
LINE
  5
12E
330
1F
100
AcDbEntity
  8
0
  6
CONTINUOUS
 62
     7
100
AcDbLine
 10
-26.12724816157902
 20
-4.617134626500004
 30
0.0
 11
-26.12724816157902
 21
-13.7062278513
 31
0.0
  0
LINE
  5
12F
330
1F
100
AcDbEntity
  8
0
  6
CONTINUOUS
 62
     7
100
AcDbLine
 10
-28.42724816157903
 20
-4.617134626500004
 30
0.0
 11
-28.42724816157903
 21
-13.7062278513
 31
0.0
  0
LINE
  5
130
330
1F
100
AcDbEntity
  8
0
  6
CONTINUOUS
 62
     7
100
AcDbLine
 10
-47.62724816157902
 20
-4.617134626500004
 30
0.0
 11
-47.62724816157902
 21
-13.7062278513
 31
0.0
  0
LINE
  5
131
330
1F
100
AcDbEntity
  8
0
  6
CONTINUOUS
 62
     7
100
AcDbLine
 10
-38.02724816157902
 20
-4.617134626500004
 30
0.0
 11
-38.02724816157902
 21
-13.7062278513
 31
0.0
  0
LINE
  5
132
330
1F
100
AcDbEntity
  8
0
  6
CONTINUOUS
 62
     7
100
AcDbLine
 10
-35.72724816157904
 20
-4.617134626500004
 30
0.0
 11
-35.72724816157904
 21
-13.7062278513
 31
0.0
  0
LINE
  5
133
330
1F
100
AcDbEntity
  8
0
  6
CONTINUOUS
 62
     7
100
AcDbLine
 10
-50.12724816157902
 20
-4.617134626500004
 30
0.0
 11
-50.12724816157902
 21
-13.7062278513
 31
0.0
  0
LINE
  5
134
330
1F
100
AcDbEntity
  8
0
  6
CONTINUOUS
 62
     7
100
AcDbLine
 10
-14.02724816157905
 20
-4.617134626500004
 30
0.0
 11
-16.52724816157905
 21
-4.617134626500004
 31
0.0
  0
LINE
  5
135
330
1F
100
AcDbEntity
  8
0
  6
CONTINUOUS
 62
     7
100
AcDbLine
 10
-11.72724816157904
 20
-4.7062278513
 30
0.0
 11
-14.02724816157905
 21
-4.7062278513
 31
0.0
  0
LINE
  5
136
330
1F
100
AcDbEntity
  8
0
  6
CONTINUOUS
 62
     7
100
AcDbLine
 10
-28.42724816157903
 20
-4.617134626500004
 30
0.0
 11
-30.92724816157903
 21
-4.617134626500004
 31
0.0
  0
LINE
  5
137
330
1F
100
AcDbEntity
  8
0
  6
CONTINUOUS
 62
     7
100
AcDbLine
 10
-18.82724816157901
 20
-4.617134626500004
 30
0.0
 11
-21.32724816157901
 21
-4.617134626500004
 31
0.0
  0
LINE
  5
138
330
1F
100
AcDbEntity
  8
0
  6
CONTINUOUS
 62
     7
100
AcDbLine
 10
-16.52724816157905
 20
-4.7062278513
 30
0.0
 11
-18.82724816157901
 21
-4.7062278513
 31
0.0
  0
LINE
  5
139
330
1F
100
AcDbEntity
  8
0
  6
CONTINUOUS
 62
     7
100
AcDbLine
 10
-26.12724816157902
 20
-4.7062278513
 30
0.0
 11
-28.42724816157903
 21
-4.7062278513
 31
0.0
  0
LINE
  5
13A
330
1F
100
AcDbEntity
  8
0
  6
CONTINUOUS
 62
     7
100
AcDbLine
 10
-21.32724816157901
 20
-4.7062278513
 30
0.0
 11
-23.62724816157902
 21
-4.7062278513
 31
0.0
  0
LINE
  5
13B
330
1F
100
AcDbEntity
  8
0
  6
CONTINUOUS
 62
     7
100
AcDbLine
 10
-23.62724816157902
 20
-4.617134626500004
 30
0.0
 11
-26.12724816157902
 21
-4.617134626500004
 31
0.0
  0
LINE
  5
13C
330
1F
100
AcDbEntity
  8
0
  6
CONTINUOUS
 62
     7
100
AcDbLine
 10
-30.92724816157903
 20
-4.7062278513
 30
0.0
 11
-33.22724816157904
 21
-4.7062278513
 31
0.0
  0
LINE
  5
13D
330
1F
100
AcDbEntity
  8
0
  6
CONTINUOUS
 62
     7
100
AcDbLine
 10
-40.52724816157902
 20
-4.7062278513
 30
0.0
 11
-42.82724816157903
 21
-4.7062278513
 31
0.0
  0
LINE
  5
13E
330
1F
100
AcDbEntity
  8
0
  6
CONTINUOUS
 62
     7
100
AcDbLine
 10
-33.22724816157904
 20
-4.617134626500004
 30
0.0
 11
-35.72724816157904
 21
-4.617134626500004
 31
0.0
  0
LINE
  5
13F
330
1F
100
AcDbEntity
  8
0
  6
CONTINUOUS
 62
     7
100
AcDbLine
 10
-35.72724816157904
 20
-4.7062278513
 30
0.0
 11
-38.02724816157902
 21
-4.7062278513
 31
0.0
  0
LINE
  5
140
330
1F
100
AcDbEntity
  8
0
  6
CONTINUOUS
 62
     7
100
AcDbLine
 10
-54.92724816157903
 20
-4.7062278513
 30
0.0
 11
-57.22724816157904
 21
-4.7062278513
 31
0.0
  0
LINE
  5
141
330
1F
100
AcDbEntity
  8
0
  6
CONTINUOUS
 62
     7
100
AcDbLine
 10
-18.82724816157901
 20
-13.7062278513
 30
0.0
 11
-16.52724816157905
 21
-13.7062278513
 31
0.0
  0
LINE
  5
142
330
1F
100
AcDbEntity
  8
0
  6
CONTINUOUS
 62
     7
100
AcDbLine
 10
-14.02724816157905
 20
-13.7062278513
 30
0.0
 11
-11.72724816157904
 21
-13.7062278513
 31
0.0
  0
LINE
  5
143
330
1F
100
AcDbEntity
  8
0
  6
CONTINUOUS
 62
     7
100
AcDbLine
 10
-4.127248161579018
 20
-5.588804639999992
 30
0.0
 11
-4.127248161579018
 21
-11.7716132723
 31
0.0
  0
LINE
  5
144
330
1F
100
AcDbEntity
  8
0
  6
CONTINUOUS
 62
     7
100
AcDbLine
 10
-4.127248161579018
 20
-5.588804639999992
 30
0.0
 11
-4.42724816157903
 21
-5.588804639999992
 31
0.0
  0
LINE
  5
145
330
1F
100
AcDbEntity
  8
0
  6
CONTINUOUS
 62
     7
100
AcDbLine
 10
-54.92724816157903
 20
-4.617134626500004
 30
0.0
 11
-54.92724816157903
 21
-13.7062278513
 31
0.0
  0
LINE
  5
146
330
1F
100
AcDbEntity
  8
0
  6
CONTINUOUS
 62
     7
100
AcDbLine
 10
-57.22724816157904
 20
-4.617134626500004
 30
0.0
 11
-57.22724816157904
 21
-13.7062278513
 31
0.0
  0
LINE
  5
147
330
1F
100
AcDbEntity
  8
0
  6
CONTINUOUS
 62
     7
100
AcDbLine
 10
-9.227248161579041
 20
-4.617134626500004
 30
0.0
 11
-11.72724816157904
 21
-4.617134626500004
 31
0.0
  0
LINE
  5
148
330
1F
100
AcDbEntity
  8
0
  6
CONTINUOUS
 62
     7
100
AcDbLine
 10
-6.92724816157903
 20
-4.7062278513
 30
0.0
 11
-9.227248161579041
 21
-4.7062278513
 31
0.0
  0
LINE
  5
149
330
1F
100
AcDbEntity
  8
0
  6
CONTINUOUS
 62
     7
100
AcDbLine
 10
-9.227248161579041
 20
-13.7062278513
 30
0.0
 11
-6.92724816157903
 21
-13.7062278513
 31
0.0
  0
LINE
  5
14A
330
1F
100
AcDbEntity
  8
0
  6
CONTINUOUS
 62
     7
100
AcDbLine
 10
-9.227248161579041
 20
-4.617134626500004
 30
0.0
 11
-9.227248161579041
 21
-13.7062278513
 31
0.0
  0
LINE
  5
14B
330
1F
100
AcDbEntity
  8
0
  6
CONTINUOUS
 62
     7
100
AcDbLine
 10
-6.92724816157903
 20
-4.617134626500004
 30
0.0
 11
-6.92724816157903
 21
-13.7062278513
 31
0.0
  0
LINE
  5
14C
330
1F
100
AcDbEntity
  8
0
  6
CONTINUOUS
 62
     7
100
AcDbLine
 10
-47.62724816157902
 20
-4.617134626500004
 30
0.0
 11
-50.12724816157902
 21
-4.617134626500004
 31
0.0
  0
LINE
  5
14D
330
1F
100
AcDbEntity
  8
0
  6
CONTINUOUS
 62
     7
100
AcDbLine
 10
-45.32724816157903
 20
-4.7062278513
 30
0.0
 11
-47.62724816157902
 21
-4.7062278513
 31
0.0
  0
LINE
  5
14E
330
1F
100
AcDbEntity
  8
0
  6
CONTINUOUS
 62
     7
100
AcDbLine
 10
-42.82724816157903
 20
-4.617134626500004
 30
0.0
 11
-45.32724816157903
 21
-4.617134626500004
 31
0.0
  0
LINE
  5
14F
330
1F
100
AcDbEntity
  8
0
  6
CONTINUOUS
 62
     7
100
AcDbLine
 10
-38.02724816157902
 20
-4.617134626500004
 30
0.0
 11
-40.52724816157902
 21
-4.617134626500004
 31
0.0
  0
LINE
  5
150
330
1F
100
AcDbEntity
  8
0
  6
CONTINUOUS
 62
     7
100
AcDbLine
 10
-50.12724816157902
 20
-4.7062278513
 30
0.0
 11
-52.42724816157903
 21
-4.7062278513
 31
0.0
  0
LINE
  5
151
330
1F
100
AcDbEntity
  8
0
  6
CONTINUOUS
 62
     7
100
AcDbLine
 10
-52.42724816157903
 20
-4.617134626500004
 30
0.0
 11
-54.92724816157903
 21
-4.617134626500004
 31
0.0
  0
LINE
  5
152
330
1F
100
AcDbEntity
  8
0
  6
CONTINUOUS
 62
     7
100
AcDbLine
 10
-23.62724816157902
 20
-13.7062278513
 30
0.0
 11
-21.32724816157901
 21
-13.7062278513
 31
0.0
  0
LINE
  5
153
330
1F
100
AcDbEntity
  8
0
  6
CONTINUOUS
 62
     7
100
AcDbLine
 10
-33.22724816157904
 20
-13.7062278513
 30
0.0
 11
-30.92724816157903
 21
-13.7062278513
 31
0.0
  0
LINE
  5
154
330
1F
100
AcDbEntity
  8
0
  6
CONTINUOUS
 62
     7
100
AcDbLine
 10
-28.42724816157903
 20
-13.7062278513
 30
0.0
 11
-26.12724816157902
 21
-13.7062278513
 31
0.0
  0
LINE
  5
155
330
1F
100
AcDbEntity
  8
0
  6
CONTINUOUS
 62
     7
100
AcDbLine
 10
-47.62724816157902
 20
-13.7062278513
 30
0.0
 11
-45.32724816157903
 21
-13.7062278513
 31
0.0
  0
LINE
  5
156
330
1F
100
AcDbEntity
  8
0
  6
CONTINUOUS
 62
     7
100
AcDbLine
 10
-42.82724816157903
 20
-13.7062278513
 30
0.0
 11
-40.52724816157902
 21
-13.7062278513
 31
0.0
  0
LINE
  5
157
330
1F
100
AcDbEntity
  8
0
  6
CONTINUOUS
 62
     7
100
AcDbLine
 10
-38.02724816157902
 20
-13.7062278513
 30
0.0
 11
-35.72724816157904
 21
-13.7062278513
 31
0.0
  0
LINE
  5
158
330
1F
100
AcDbEntity
  8
0
  6
CONTINUOUS
 62
     7
100
AcDbLine
 10
-52.42724816157903
 20
-13.7062278513
 30
0.0
 11
-50.12724816157902
 21
-13.7062278513
 31
0.0
  0
LINE
  5
159
330
1F
100
AcDbEntity
  8
0
  6
CONTINUOUS
 62
     7
100
AcDbLine
 10
-57.22724816157904
 20
-13.7062278513
 30
0.0
 11
-54.92724816157903
 21
-13.7062278513
 31
0.0
  0
LINE
  5
15A
330
1F
100
AcDbEntity
  8
0
  6
CONTINUOUS
 62
     7
100
AcDbLine
 10
-11.72724816157904
 20
-4.617134626500004
 30
0.0
 11
-11.72724816157904
 21
-13.7062278513
 31
0.0
  0
LINE
  5
15B
330
1F
100
AcDbEntity
  8
0
  6
CONTINUOUS
 62
     7
100
AcDbLine
 10
-23.62724816157902
 20
-4.617134626500004
 30
0.0
 11
-23.62724816157902
 21
-13.7062278513
 31
0.0
  0
LINE
  5
15C
330
1F
100
AcDbEntity
  8
0
  6
CONTINUOUS
 62
     7
100
AcDbLine
 10
-21.32724816157901
 20
-4.617134626500004
 30
0.0
 11
-21.32724816157901
 21
-13.7062278513
 31
0.0
  0
LINE
  5
15D
330
1F
100
AcDbEntity
  8
0
  6
CONTINUOUS
 62
     7
100
AcDbLine
 10
-33.22724816157904
 20
-4.617134626500004
 30
0.0
 11
-33.22724816157904
 21
-13.7062278513
 31
0.0
  0
LINE
  5
15E
330
1F
100
AcDbEntity
  8
0
  6
CONTINUOUS
 62
     7
100
AcDbLine
 10
-28.12724816157902
 20
-5.588804639999992
 30
0.0
 11
-28.42724816157903
 21
-5.588804639999992
 31
0.0
  0
LINE
  5
15F
330
1F
100
AcDbEntity
  8
0
  6
CONTINUOUS
 62
     7
100
AcDbLine
 10
-31.22724816157904
 20
-5.588804639999992
 30
0.0
 11
-30.92724816157903
 21
-5.588804639999992
 31
0.0
  0
LINE
  5
160
330
1F
100
AcDbEntity
  8
0
  6
CONTINUOUS
 62
     7
100
AcDbLine
 10
-12.02724816157905
 20
-5.588804639999992
 30
0.0
 11
-11.72724816157904
 21
-5.588804639999992
 31
0.0
  0
LINE
  5
161
330
1F
100
AcDbEntity
  8
0
  6
CONTINUOUS
 62
     7
100
AcDbLine
 10
-62.02724816157902
 20
-4.617134626500004
 30
0.0
 11
-64.52724816157902
 21
-4.617134626500004
 31
0.0
  0
LINE
  5
162
330
1F
100
AcDbEntity
  8
0
  6
CONTINUOUS
 62
     7
100
AcDbLine
 10
-57.22724816157904
 20
-4.617134626500004
 30
0.0
 11
-59.72724816157904
 21
-4.617134626500004
 31
0.0
  0
LINE
  5
163
330
1F
100
AcDbEntity
  8
0
  6
CONTINUOUS
 62
     7
100
AcDbLine
 10
-59.72724816157904
 20
-4.7062278513
 30
0.0
 11
-62.02724816157902
 21
-4.7062278513
 31
0.0
  0
LINE
  5
164
330
1F
100
AcDbEntity
  8
0
  6
CONTINUOUS
 62
     7
100
AcDbLine
 10
-62.02724816157902
 20
-13.7062278513
 30
0.0
 11
-59.72724816157904
 21
-13.7062278513
 31
0.0
  0
LINE
  5
165
330
1F
100
AcDbEntity
  8
0
  6
CONTINUOUS
 62
     7
100
AcDbLine
 10
-62.02724816157902
 20
-4.617134626500004
 30
0.0
 11
-62.02724816157902
 21
-13.7062278513
 31
0.0
  0
LINE
  5
166
330
1F
100
AcDbEntity
  8
0
  6
CONTINUOUS
 62
     7
100
AcDbLine
 10
-59.72724816157904
 20
-4.617134626500004
 30
0.0
 11
-59.72724816157904
 21
-13.7062278513
 31
0.0
  0
LINE
  5
167
330
1F
100
AcDbEntity
  8
0
  6
CONTINUOUS
 62
     7
100
AcDbLine
 10
-18.82724816157901
 20
-4.617134626500004
 30
0.0
 11
-18.82724816157901
 21
-13.7062278513
 31
0.0
  0
LINE
  5
168
330
1F
100
AcDbEntity
  8
0
  6
CONTINUOUS
 62
     7
100
AcDbLine
 10
-16.52724816157905
 20
-4.617134626500004
 30
0.0
 11
-16.52724816157905
 21
-13.7062278513
 31
0.0
  0
LINE
  5
169
330
1F
100
AcDbEntity
  8
0
  6
CONTINUOUS
 62
     7
100
AcDbLine
 10
-14.02724816157905
 20
-4.617134626500004
 30
0.0
 11
-14.02724816157905
 21
-13.7062278513
 31
0.0
  0
LINE
  5
16A
330
1F
100
AcDbEntity
  8
0
  6
CONTINUOUS
 62
     7
100
AcDbLine
 10
-45.32724816157903
 20
-4.617134626500004
 30
0.0
 11
-45.32724816157903
 21
-13.7062278513
 31
0.0
  0
LINE
  5
16B
330
1F
100
AcDbEntity
  8
0
  6
CONTINUOUS
 62
     7
100
AcDbLine
 10
-42.82724816157903
 20
-4.617134626500004
 30
0.0
 11
-42.82724816157903
 21
-13.7062278513
 31
0.0
  0
LINE
  5
16C
330
1F
100
AcDbEntity
  8
0
  6
CONTINUOUS
 62
     7
100
AcDbLine
 10
-40.52724816157902
 20
-4.617134626500004
 30
0.0
 11
-40.52724816157902
 21
-13.7062278513
 31
0.0
  0
LINE
  5
16D
330
1F
100
AcDbEntity
  8
0
  6
CONTINUOUS
 62
     7
100
AcDbLine
 10
-52.42724816157903
 20
-4.617134626500004
 30
0.0
 11
-52.42724816157903
 21
-13.7062278513
 31
0.0
  0
LINE
  5
16E
330
1F
100
AcDbEntity
  8
0
  6
CONTINUOUS
 62
     7
100
AcDbLine
 10
-37.72724816157904
 20
-5.588804639999992
 30
0.0
 11
-38.02724816157902
 21
-5.588804639999992
 31
0.0
  0
LINE
  5
16F
330
1F
100
AcDbEntity
  8
0
  6
CONTINUOUS
 62
     7
100
AcDbLine
 10
-52.12724816157902
 20
-5.588804639999992
 30
0.0
 11
-52.42724816157903
 21
-5.588804639999992
 31
0.0
  0
LINE
  5
170
330
1F
100
AcDbEntity
  8
0
  6
CONTINUOUS
 62
     7
100
AcDbLine
 10
-50.42724816157903
 20
-5.588804639999992
 30
0.0
 11
-50.12724816157902
 21
-5.588804639999992
 31
0.0
  0
LINE
  5
171
330
1F
100
AcDbEntity
  8
0
  6
CONTINUOUS
 62
     7
100
AcDbLine
 10
-56.92724816157903
 20
-5.588804639999992
 30
0.0
 11
-57.22724816157904
 21
-5.588804639999992
 31
0.0
  0
LINE
  5
172
330
1F
100
AcDbEntity
  8
0
  6
CONTINUOUS
 62
     7
100
AcDbLine
 10
-55.22724816157904
 20
-5.588804639999992
 30
0.0
 11
-54.92724816157903
 21
-5.588804639999992
 31
0.0
  0
LINE
  5
173
330
1F
100
AcDbEntity
  8
0
  6
CONTINUOUS
 62
     7
100
AcDbLine
 10
-13.72724816157904
 20
-11.7716132723
 30
0.0
 11
-14.02724816157905
 21
-11.7716132723
 31
0.0
  0
LINE
  5
174
330
1F
100
AcDbEntity
  8
0
  6
CONTINUOUS
 62
     7
100
AcDbLine
 10
-16.82724816157901
 20
-5.588804639999992
 30
0.0
 11
-16.82724816157901
 21
-11.7716132723
 31
0.0
  0
LINE
  5
175
330
1F
100
AcDbEntity
  8
0
  6
CONTINUOUS
 62
     7
100
AcDbLine
 10
-16.82724816157901
 20
-11.7716132723
 30
0.0
 11
-16.52724816157905
 21
-11.7716132723
 31
0.0
  0
LINE
  5
176
330
1F
100
AcDbEntity
  8
0
  6
CONTINUOUS
 62
     7
100
AcDbLine
 10
-18.52724816157905
 20
-5.588804639999992
 30
0.0
 11
-18.52724816157905
 21
-11.7716132723
 31
0.0
  0
LINE
  5
177
330
1F
100
AcDbEntity
  8
0
  6
CONTINUOUS
 62
     7
100
AcDbLine
 10
-13.72724816157904
 20
-5.588804639999992
 30
0.0
 11
-14.02724816157905
 21
-5.588804639999992
 31
0.0
  0
LINE
  5
178
330
1F
100
AcDbEntity
  8
0
  6
CONTINUOUS
 62
     7
100
AcDbLine
 10
-16.82724816157901
 20
-5.588804639999992
 30
0.0
 11
-16.52724816157905
 21
-5.588804639999992
 31
0.0
  0
LINE
  5
179
330
1F
100
AcDbEntity
  8
0
  6
CONTINUOUS
 62
     7
100
AcDbLine
 10
-18.52724816157905
 20
-5.588804639999992
 30
0.0
 11
-18.82724816157901
 21
-5.588804639999992
 31
0.0
  0
LINE
  5
17A
330
1F
100
AcDbEntity
  8
0
  6
CONTINUOUS
 62
     7
100
AcDbLine
 10
-23.32724816157901
 20
-5.588804639999992
 30
0.0
 11
-23.62724816157902
 21
-5.588804639999992
 31
0.0
  0
LINE
  5
17B
330
1F
100
AcDbEntity
  8
0
  6
CONTINUOUS
 62
     7
100
AcDbLine
 10
-14.02724816157905
 20
-13.6171346265
 30
0.0
 11
-16.52724816157905
 21
-13.6171346265
 31
0.0
  0
LINE
  5
17C
330
1F
100
AcDbEntity
  8
0
  6
CONTINUOUS
 62
     7
100
AcDbLine
 10
-36.02724816157902
 20
-11.7716132723
 30
0.0
 11
-35.72724816157904
 21
-11.7716132723
 31
0.0
  0
LINE
  5
17D
330
1F
100
AcDbEntity
  8
0
  6
CONTINUOUS
 62
     7
100
AcDbLine
 10
-37.72724816157904
 20
-5.588804639999992
 30
0.0
 11
-37.72724816157904
 21
-11.7716132723
 31
0.0
  0
LINE
  5
17E
330
1F
100
AcDbEntity
  8
0
  6
CONTINUOUS
 62
     7
100
AcDbLine
 10
-36.02724816157902
 20
-5.588804639999992
 30
0.0
 11
-36.02724816157902
 21
-11.7716132723
 31
0.0
  0
LINE
  5
17F
330
1F
100
AcDbEntity
  8
0
  6
CONTINUOUS
 62
     7
100
AcDbLine
 10
-52.12724816157902
 20
-5.588804639999992
 30
0.0
 11
-52.12724816157902
 21
-11.7716132723
 31
0.0
  0
LINE
  5
180
330
1F
100
AcDbEntity
  8
0
  6
CONTINUOUS
 62
     7
100
AcDbLine
 10
-18.82724816157901
 20
-13.6171346265
 30
0.0
 11
-21.32724816157901
 21
-13.6171346265
 31
0.0
  0
LINE
  5
181
330
1F
100
AcDbEntity
  8
0
  6
CONTINUOUS
 62
     7
100
AcDbLine
 10
-28.42724816157903
 20
-13.6171346265
 30
0.0
 11
-30.92724816157903
 21
-13.6171346265
 31
0.0
  0
LINE
  5
182
330
1F
100
AcDbEntity
  8
0
  6
CONTINUOUS
 62
     7
100
AcDbLine
 10
-23.62724816157902
 20
-13.6171346265
 30
0.0
 11
-26.12724816157902
 21
-13.6171346265
 31
0.0
  0
LINE
  5
183
330
1F
100
AcDbEntity
  8
0
  6
CONTINUOUS
 62
     7
100
AcDbLine
 10
-26.42724816157903
 20
-5.588804639999992
 30
0.0
 11
-26.12724816157902
 21
-5.588804639999992
 31
0.0
  0
LINE
  5
184
330
1F
100
AcDbEntity
  8
0
  6
CONTINUOUS
 62
     7
100
AcDbLine
 10
-32.92724816157903
 20
-5.588804639999992
 30
0.0
 11
-33.22724816157904
 21
-5.588804639999992
 31
0.0
  0
LINE
  5
185
330
1F
100
AcDbEntity
  8
0
  6
CONTINUOUS
 62
     7
100
AcDbLine
 10
-21.62724816157902
 20
-5.588804639999992
 30
0.0
 11
-21.32724816157901
 21
-5.588804639999992
 31
0.0
  0
LINE
  5
186
330
1F
100
AcDbEntity
  8
0
  6
CONTINUOUS
 62
     7
100
AcDbLine
 10
-42.52724816157902
 20
-5.588804639999992
 30
0.0
 11
-42.82724816157903
 21
-5.588804639999992
 31
0.0
  0
LINE
  5
187
330
1F
100
AcDbEntity
  8
0
  6
CONTINUOUS
 62
     7
100
AcDbLine
 10
-47.32724816157903
 20
-5.588804639999992
 30
0.0
 11
-47.62724816157902
 21
-5.588804639999992
 31
0.0
  0
LINE
  5
188
330
1F
100
AcDbEntity
  8
0
  6
CONTINUOUS
 62
     7
100
AcDbLine
 10
-45.62724816157902
 20
-5.588804639999992
 30
0.0
 11
-45.32724816157903
 21
-5.588804639999992
 31
0.0
  0
LINE
  5
189
330
1F
100
AcDbEntity
  8
0
  6
CONTINUOUS
 62
     7
100
AcDbLine
 10
-40.82724816157903
 20
-5.588804639999992
 30
0.0
 11
-40.52724816157902
 21
-5.588804639999992
 31
0.0
  0
LINE
  5
18A
330
1F
100
AcDbEntity
  8
0
  6
CONTINUOUS
 62
     7
100
AcDbLine
 10
-36.02724816157902
 20
-5.588804639999992
 30
0.0
 11
-35.72724816157904
 21
-5.588804639999992
 31
0.0
  0
LINE
  5
18B
330
1F
100
AcDbEntity
  8
0
  6
CONTINUOUS
 62
     7
100
AcDbLine
 10
-33.22724816157904
 20
-13.6171346265
 30
0.0
 11
-35.72724816157904
 21
-13.6171346265
 31
0.0
  0
LINE
  5
18C
330
1F
100
AcDbEntity
  8
0
  6
CONTINUOUS
 62
     7
100
AcDbLine
 10
-38.02724816157902
 20
-13.6171346265
 30
0.0
 11
-40.52724816157902
 21
-13.6171346265
 31
0.0
  0
LINE
  5
18D
330
1F
100
AcDbEntity
  8
0
  6
CONTINUOUS
 62
     7
100
AcDbLine
 10
-52.42724816157903
 20
-13.6171346265
 30
0.0
 11
-54.92724816157903
 21
-13.6171346265
 31
0.0
  0
LINE
  5
18E
330
1F
100
AcDbEntity
  8
0
  6
CONTINUOUS
 62
     7
100
AcDbLine
 10
-13.72724816157904
 20
-5.588804639999992
 30
0.0
 11
-13.72724816157904
 21
-11.7716132723
 31
0.0
  0
LINE
  5
18F
330
1F
100
AcDbEntity
  8
0
  6
CONTINUOUS
 62
     7
100
AcDbLine
 10
-12.02724816157905
 20
-5.588804639999992
 30
0.0
 11
-12.02724816157905
 21
-11.7716132723
 31
0.0
  0
LINE
  5
190
330
1F
100
AcDbEntity
  8
0
  6
CONTINUOUS
 62
     7
100
AcDbLine
 10
-12.02724816157905
 20
-11.7716132723
 30
0.0
 11
-11.72724816157904
 21
-11.7716132723
 31
0.0
  0
LINE
  5
191
330
1F
100
AcDbEntity
  8
0
  6
CONTINUOUS
 62
     7
100
AcDbLine
 10
-18.52724816157905
 20
-11.7716132723
 30
0.0
 11
-18.82724816157901
 21
-11.7716132723
 31
0.0
  0
LINE
  5
192
330
1F
100
AcDbEntity
  8
0
  6
CONTINUOUS
 62
     7
100
AcDbLine
 10
-23.32724816157901
 20
-5.588804639999992
 30
0.0
 11
-23.32724816157901
 21
-11.7716132723
 31
0.0
  0
LINE
  5
193
330
1F
100
AcDbEntity
  8
0
  6
CONTINUOUS
 62
     7
100
AcDbLine
 10
-32.92724816157903
 20
-5.588804639999992
 30
0.0
 11
-32.92724816157903
 21
-11.7716132723
 31
0.0
  0
LINE
  5
194
330
1F
100
AcDbEntity
  8
0
  6
CONTINUOUS
 62
     7
100
AcDbLine
 10
-31.22724816157904
 20
-5.588804639999992
 30
0.0
 11
-31.22724816157904
 21
-11.7716132723
 31
0.0
  0
LINE
  5
195
330
1F
100
AcDbEntity
  8
0
  6
CONTINUOUS
 62
     7
100
AcDbLine
 10
-23.32724816157901
 20
-11.7716132723
 30
0.0
 11
-23.62724816157902
 21
-11.7716132723
 31
0.0
  0
LINE
  5
196
330
1F
100
AcDbEntity
  8
0
  6
CONTINUOUS
 62
     7
100
AcDbLine
 10
-28.12724816157902
 20
-11.7716132723
 30
0.0
 11
-28.42724816157903
 21
-11.7716132723
 31
0.0
  0
LINE
  5
197
330
1F
100
AcDbEntity
  8
0
  6
CONTINUOUS
 62
     7
100
AcDbLine
 10
-31.22724816157904
 20
-11.7716132723
 30
0.0
 11
-30.92724816157903
 21
-11.7716132723
 31
0.0
  0
LINE
  5
198
330
1F
100
AcDbEntity
  8
0
  6
CONTINUOUS
 62
     7
100
AcDbLine
 10
-21.62724816157902
 20
-11.7716132723
 30
0.0
 11
-21.32724816157901
 21
-11.7716132723
 31
0.0
  0
LINE
  5
199
330
1F
100
AcDbEntity
  8
0
  6
CONTINUOUS
 62
     7
100
AcDbLine
 10
-32.92724816157903
 20
-11.7716132723
 30
0.0
 11
-33.22724816157904
 21
-11.7716132723
 31
0.0
  0
LINE
  5
19A
330
1F
100
AcDbEntity
  8
0
  6
CONTINUOUS
 62
     7
100
AcDbLine
 10
-26.42724816157903
 20
-11.7716132723
 30
0.0
 11
-26.12724816157902
 21
-11.7716132723
 31
0.0
  0
LINE
  5
19B
330
1F
100
AcDbEntity
  8
0
  6
CONTINUOUS
 62
     7
100
AcDbLine
 10
-21.62724816157902
 20
-5.588804639999992
 30
0.0
 11
-21.62724816157902
 21
-11.7716132723
 31
0.0
  0
LINE
  5
19C
330
1F
100
AcDbEntity
  8
0
  6
CONTINUOUS
 62
     7
100
AcDbLine
 10
-26.42724816157903
 20
-5.588804639999992
 30
0.0
 11
-26.42724816157903
 21
-11.7716132723
 31
0.0
  0
LINE
  5
19D
330
1F
100
AcDbEntity
  8
0
  6
CONTINUOUS
 62
     7
100
AcDbLine
 10
-28.12724816157902
 20
-5.588804639999992
 30
0.0
 11
-28.12724816157902
 21
-11.7716132723
 31
0.0
  0
LINE
  5
19E
330
1F
100
AcDbEntity
  8
0
  6
CONTINUOUS
 62
     7
100
AcDbLine
 10
-45.62724816157902
 20
-11.7716132723
 30
0.0
 11
-45.32724816157903
 21
-11.7716132723
 31
0.0
  0
LINE
  5
19F
330
1F
100
AcDbEntity
  8
0
  6
CONTINUOUS
 62
     7
100
AcDbLine
 10
-42.52724816157902
 20
-11.7716132723
 30
0.0
 11
-42.82724816157903
 21
-11.7716132723
 31
0.0
  0
LINE
  5
1A0
330
1F
100
AcDbEntity
  8
0
  6
CONTINUOUS
 62
     7
100
AcDbLine
 10
-47.32724816157903
 20
-11.7716132723
 30
0.0
 11
-47.62724816157902
 21
-11.7716132723
 31
0.0
  0
LINE
  5
1A1
330
1F
100
AcDbEntity
  8
0
  6
CONTINUOUS
 62
     7
100
AcDbLine
 10
-47.32724816157903
 20
-5.588804639999992
 30
0.0
 11
-47.32724816157903
 21
-11.7716132723
 31
0.0
  0
LINE
  5
1A2
330
1F
100
AcDbEntity
  8
0
  6
CONTINUOUS
 62
     7
100
AcDbLine
 10
-42.52724816157902
 20
-5.588804639999992
 30
0.0
 11
-42.52724816157902
 21
-11.7716132723
 31
0.0
  0
LINE
  5
1A3
330
1F
100
AcDbEntity
  8
0
  6
CONTINUOUS
 62
     7
100
AcDbLine
 10
-45.62724816157902
 20
-5.588804639999992
 30
0.0
 11
-45.62724816157902
 21
-11.7716132723
 31
0.0
  0
LINE
  5
1A4
330
1F
100
AcDbEntity
  8
0
  6
CONTINUOUS
 62
     7
100
AcDbLine
 10
-40.82724816157903
 20
-11.7716132723
 30
0.0
 11
-40.52724816157902
 21
-11.7716132723
 31
0.0
  0
LINE
  5
1A5
330
1F
100
AcDbEntity
  8
0
  6
CONTINUOUS
 62
     7
100
AcDbLine
 10
-40.82724816157903
 20
-5.588804639999992
 30
0.0
 11
-40.82724816157903
 21
-11.7716132723
 31
0.0
  0
LINE
  5
1A6
330
1F
100
AcDbEntity
  8
0
  6
CONTINUOUS
 62
     7
100
AcDbLine
 10
-37.72724816157904
 20
-11.7716132723
 30
0.0
 11
-38.02724816157902
 21
-11.7716132723
 31
0.0
  0
LINE
  5
1A7
330
1F
100
AcDbEntity
  8
0
  6
CONTINUOUS
 62
     7
100
AcDbLine
 10
-50.42724816157903
 20
-5.588804639999992
 30
0.0
 11
-50.42724816157903
 21
-11.7716132723
 31
0.0
  0
LINE
  5
1A8
330
1F
100
AcDbEntity
  8
0
  6
CONTINUOUS
 62
     7
100
AcDbLine
 10
-52.12724816157902
 20
-11.7716132723
 30
0.0
 11
-52.42724816157903
 21
-11.7716132723
 31
0.0
  0
LINE
  5
1A9
330
1F
100
AcDbEntity
  8
0
  6
CONTINUOUS
 62
     7
100
AcDbLine
 10
-50.42724816157903
 20
-11.7716132723
 30
0.0
 11
-50.12724816157902
 21
-11.7716132723
 31
0.0
  0
LINE
  5
1AA
330
1F
100
AcDbEntity
  8
0
  6
CONTINUOUS
 62
     7
100
AcDbLine
 10
-56.92724816157903
 20
-11.7716132723
 30
0.0
 11
-57.22724816157904
 21
-11.7716132723
 31
0.0
  0
LINE
  5
1AB
330
1F
100
AcDbEntity
  8
0
  6
CONTINUOUS
 62
     7
100
AcDbLine
 10
-55.22724816157904
 20
-11.7716132723
 30
0.0
 11
-54.92724816157903
 21
-11.7716132723
 31
0.0
  0
LINE
  5
1AC
330
1F
100
AcDbEntity
  8
0
  6
CONTINUOUS
 62
     7
100
AcDbLine
 10
-47.62724816157902
 20
-13.6171346265
 30
0.0
 11
-50.12724816157902
 21
-13.6171346265
 31
0.0
  0
LINE
  5
1AD
330
1F
100
AcDbEntity
  8
0
  6
CONTINUOUS
 62
     7
100
AcDbLine
 10
-42.82724816157903
 20
-13.6171346265
 30
0.0
 11
-45.32724816157903
 21
-13.6171346265
 31
0.0
  0
LINE
  5
1AE
330
1F
100
AcDbEntity
  8
0
  6
CONTINUOUS
 62
     7
100
AcDbLine
 10
-57.22724816157904
 20
-13.6171346265
 30
0.0
 11
-59.72724816157904
 21
-13.6171346265
 31
0.0
  0
LINE
  5
1AF
330
1F
100
AcDbEntity
  8
0
  6
CONTINUOUS
 62
     7
100
AcDbLine
 10
-62.02724816157902
 20
-13.6171346265
 30
0.0
 11
-64.52724816157902
 21
-13.6171346265
 31
0.0
  0
LINE
  5
1B0
330
1F
100
AcDbEntity
  8
0
  6
CONTINUOUS
 62
     7
100
AcDbLine
 10
-60.02724816157902
 20
-11.7716132723
 30
0.0
 11
-59.72724816157904
 21
-11.7716132723
 31
0.0
  0
LINE
  5
1B1
330
1F
100
AcDbEntity
  8
0
  6
CONTINUOUS
 62
     7
100
AcDbLine
 10
-60.02724816157902
 20
-5.588804639999992
 30
0.0
 11
-60.02724816157902
 21
-11.7716132723
 31
0.0
  0
LINE
  5
1B2
330
1F
100
AcDbEntity
  8
0
  6
CONTINUOUS
 62
     7
100
AcDbLine
 10
-61.72724816157904
 20
-5.588804639999992
 30
0.0
 11
-61.72724816157904
 21
-11.7716132723
 31
0.0
  0
LINE
  5
1B3
330
1F
100
AcDbEntity
  8
0
  6
CONTINUOUS
 62
     7
100
AcDbLine
 10
-61.72724816157904
 20
-11.7716132723
 30
0.0
 11
-62.02724816157902
 21
-11.7716132723
 31
0.0
  0
LINE
  5
1B4
330
1F
100
AcDbEntity
  8
0
  6
CONTINUOUS
 62
     7
100
AcDbLine
 10
-56.92724816157903
 20
-5.588804639999992
 30
0.0
 11
-56.92724816157903
 21
-11.7716132723
 31
0.0
  0
LINE
  5
1B5
330
1F
100
AcDbEntity
  8
0
  6
CONTINUOUS
 62
     7
100
AcDbLine
 10
-55.22724816157904
 20
-5.588804639999992
 30
0.0
 11
-55.22724816157904
 21
-11.7716132723
 31
0.0
  0
LINE
  5
1B6
330
1F
100
AcDbEntity
  8
0
  6
CONTINUOUS
 62
     7
100
AcDbLine
 10
-7.227248161579041
 20
-5.588804639999992
 30
0.0
 11
-6.92724816157903
 21
-5.588804639999992
 31
0.0
  0
LINE
  5
1B7
330
1F
100
AcDbEntity
  8
0
  6
CONTINUOUS
 62
     7
100
AcDbLine
 10
-8.92724816157903
 20
-5.588804639999992
 30
0.0
 11
-9.227248161579041
 21
-5.588804639999992
 31
0.0
  0
LINE
  5
1B8
330
1F
100
AcDbEntity
  8
0
  6
CONTINUOUS
 62
     7
100
AcDbLine
 10
-9.227248161579041
 20
-13.6171346265
 30
0.0
 11
-11.72724816157904
 21
-13.6171346265
 31
0.0
  0
LINE
  5
1B9
330
1F
100
AcDbEntity
  8
0
  6
CONTINUOUS
 62
     7
100
AcDbLine
 10
-8.92724816157903
 20
-5.588804639999992
 30
0.0
 11
-8.92724816157903
 21
-11.7716132723
 31
0.0
  0
LINE
  5
1BA
330
1F
100
AcDbEntity
  8
0
  6
CONTINUOUS
 62
     7
100
AcDbLine
 10
-7.227248161579041
 20
-5.588804639999992
 30
0.0
 11
-7.227248161579041
 21
-11.7716132723
 31
0.0
  0
LINE
  5
1BB
330
1F
100
AcDbEntity
  8
0
  6
CONTINUOUS
 62
     7
100
AcDbLine
 10
-7.227248161579041
 20
-11.7716132723
 30
0.0
 11
-6.92724816157903
 21
-11.7716132723
 31
0.0
  0
LINE
  5
1BC
330
1F
100
AcDbEntity
  8
0
  6
CONTINUOUS
 62
     7
100
AcDbLine
 10
-8.92724816157903
 20
-11.7716132723
 30
0.0
 11
-9.227248161579041
 21
-11.7716132723
 31
0.0
  0
LINE
  5
1BD
330
1F
100
AcDbEntity
  8
0
  6
CONTINUOUS
 62
     7
100
AcDbLine
 10
-64.52724816157902
 20
-4.617134626500004
 30
0.0
 11
-64.52724816157902
 21
-13.7062278513
 31
0.0
  0
LINE
  5
1BE
330
1F
100
AcDbEntity
  8
0
  6
CONTINUOUS
 62
     7
100
AcDbLine
 10
-64.52724816157902
 20
-4.7062278513
 30
0.0
 11
-66.82724816157904
 21
-4.7062278513
 31
0.0
  0
LINE
  5
1BF
330
1F
100
AcDbEntity
  8
0
  6
CONTINUOUS
 62
     7
100
AcDbLine
 10
-66.82724816157904
 20
-13.7062278513
 30
0.0
 11
-64.52724816157902
 21
-13.7062278513
 31
0.0
  0
LINE
  5
1C0
330
1F
100
AcDbEntity
  8
0
  6
CONTINUOUS
 62
     7
100
AcDbLine
 10
-4.42724816157903
 20
-13.6171346265
 30
0.0
 11
-6.92724816157903
 21
-13.6171346265
 31
0.0
  0
LINE
  5
1C1
330
1F
100
AcDbEntity
  8
0
  6
CONTINUOUS
 62
     7
100
AcDbLine
 10
-4.42724816157903
 20
-4.617134626500004
 30
0.0
 11
-6.92724816157903
 21
-4.617134626500004
 31
0.0
  0
LINE
  5
1C2
330
1F
100
AcDbEntity
  8
0
  6
CONTINUOUS
 62
     7
100
AcDbLine
 10
-38.50417145857904
 20
39.8768426
 30
0.0
 11
-38.52977961547904
 21
39.9730581506
 31
0.0
  0
LINE
  5
1C3
330
1F
100
AcDbEntity
  8
0
  6
CONTINUOUS
 62
     7
100
AcDbLine
 10
-33.67258629337903
 20
41.16361586299999
 30
0.0
 11
-33.69812301857905
 21
41.25956302879999
 31
0.0
  0
LINE
  5
1C4
330
1F
100
AcDbEntity
  8
0
  6
CONTINUOUS
 62
     7
100
AcDbLine
 10
-60.02724816157902
 20
-5.588804639999992
 30
0.0
 11
-59.72724816157904
 21
-5.588804639999992
 31
0.0
  0
LINE
  5
1C5
330
1F
100
AcDbEntity
  8
0
  6
CONTINUOUS
 62
     7
100
AcDbLine
 10
-61.72724816157904
 20
-5.588804639999992
 30
0.0
 11
-62.02724816157902
 21
-5.588804639999992
 31
0.0
  0
LINE
  5
1C6
330
1F
100
AcDbEntity
  8
0
  6
CONTINUOUS
 62
     7
100
AcDbLine
 10
-112.527248161579
 20
-4.7062278513
 30
0.0
 11
-114.827248161579
 21
-4.7062278513
 31
0.0
  0
LINE
  5
1C7
330
1F
100
AcDbEntity
  8
0
  6
CONTINUOUS
 62
     7
100
AcDbLine
 10
-83.72724816157904
 20
-4.7062278513
 30
0.0
 11
-86.02724816157902
 21
-4.7062278513
 31
0.0
  0
LINE
  5
1C8
330
1F
100
AcDbEntity
  8
0
  6
CONTINUOUS
 62
     7
100
AcDbLine
 10
-86.02724816157902
 20
-4.617134626500004
 30
0.0
 11
-88.52724816157902
 21
-4.617134626500004
 31
0.0
  0
LINE
  5
1C9
330
1F
100
AcDbEntity
  8
0
  6
CONTINUOUS
 62
     7
100
AcDbLine
 10
-66.82724816157904
 20
-13.6171346265
 30
0.0
 11
-69.32724816157904
 21
-13.6171346265
 31
0.0
  0
LINE
  5
1CA
330
1F
100
AcDbEntity
  8
0
  6
CONTINUOUS
 62
     7
100
AcDbLine
 10
-66.82724816157904
 20
-4.617134626500004
 30
0.0
 11
-66.82724816157904
 21
-13.7062278513
 31
0.0
  0
LINE
  5
1CB
330
1F
100
AcDbEntity
  8
0
  6
CONTINUOUS
 62
     7
100
AcDbLine
 10
-66.82724816157904
 20
-4.617134626500004
 30
0.0
 11
-69.32724816157904
 21
-4.617134626500004
 31
0.0
  0
LINE
  5
1CC
330
1F
100
AcDbEntity
  8
0
  6
CONTINUOUS
 62
     7
100
AcDbLine
 10
-66.52724816157902
 20
-5.588804639999992
 30
0.0
 11
-66.82724816157904
 21
-5.588804639999992
 31
0.0
  0
LINE
  5
1CD
330
1F
100
AcDbEntity
  8
0
  6
CONTINUOUS
 62
     7
100
AcDbLine
 10
-66.52724816157902
 20
-5.588804639999992
 30
0.0
 11
-66.52724816157902
 21
-11.7716132723
 31
0.0
  0
LINE
  5
1CE
330
1F
100
AcDbEntity
  8
0
  6
CONTINUOUS
 62
     7
100
AcDbLine
 10
-66.52724816157902
 20
-11.7716132723
 30
0.0
 11
-66.82724816157904
 21
-11.7716132723
 31
0.0
  0
LINE
  5
1CF
330
1F
100
AcDbEntity
  8
0
  6
CONTINUOUS
 62
     7
100
AcDbLine
 10
-64.82724816157904
 20
-11.7716132723
 30
0.0
 11
-64.52724816157902
 21
-11.7716132723
 31
0.0
  0
LINE
  5
1D0
330
1F
100
AcDbEntity
  8
0
  6
CONTINUOUS
 62
     7
100
AcDbLine
 10
-64.82724816157904
 20
-5.588804639999992
 30
0.0
 11
-64.52724816157902
 21
-5.588804639999992
 31
0.0
  0
LINE
  5
1D1
330
1F
100
AcDbEntity
  8
0
  6
CONTINUOUS
 62
     7
100
AcDbLine
 10
-64.82724816157904
 20
-5.588804639999992
 30
0.0
 11
-64.82724816157904
 21
-11.7716132723
 31
0.0
  0
LINE
  5
1D2
330
1F
100
AcDbEntity
  8
0
  6
CONTINUOUS
 62
     7
100
AcDbLine
 10
-129.227248161579
 20
-13.7062278513
 30
0.0
 11
-126.927248161579
 21
-13.7062278513
 31
0.0
  0
LINE
  5
1D3
330
1F
100
AcDbEntity
  8
0
  6
CONTINUOUS
 62
     7
100
AcDbLine
 10
-119.627248161579
 20
-13.7062278513
 30
0.0
 11
-117.327248161579
 21
-13.7062278513
 31
0.0
  0
LINE
  5
1D4
330
1F
100
AcDbEntity
  8
0
  6
CONTINUOUS
 62
     7
100
AcDbLine
 10
-100.427248161579
 20
-13.7062278513
 30
0.0
 11
-98.12724816157902
 21
-13.7062278513
 31
0.0
  0
LINE
  5
1D5
330
1F
100
AcDbEntity
  8
0
  6
CONTINUOUS
 62
     7
100
AcDbLine
 10
-124.427248161579
 20
-13.7062278513
 30
0.0
 11
-122.127248161579
 21
-13.7062278513
 31
0.0
  0
LINE
  5
1D6
330
1F
100
AcDbEntity
  8
0
  6
CONTINUOUS
 62
     7
100
AcDbLine
 10
-114.827248161579
 20
-13.7062278513
 30
0.0
 11
-112.527248161579
 21
-13.7062278513
 31
0.0
  0
LINE
  5
1D7
330
1F
100
AcDbEntity
  8
0
  6
CONTINUOUS
 62
     7
100
AcDbLine
 10
-105.227248161579
 20
-13.7062278513
 30
0.0
 11
-102.927248161579
 21
-13.7062278513
 31
0.0
  0
LINE
  5
1D8
330
1F
100
AcDbEntity
  8
0
  6
CONTINUOUS
 62
     7
100
AcDbLine
 10
-86.02724816157902
 20
-13.7062278513
 30
0.0
 11
-83.72724816157904
 21
-13.7062278513
 31
0.0
  0
LINE
  5
1D9
330
1F
100
AcDbEntity
  8
0
  6
CONTINUOUS
 62
     7
100
AcDbLine
 10
-78.92724816157903
 20
-4.617134626500004
 30
0.0
 11
-78.92724816157903
 21
-13.7062278513
 31
0.0
  0
LINE
  5
1DA
330
1F
100
AcDbEntity
  8
0
  6
CONTINUOUS
 62
     7
100
AcDbLine
 10
-81.22724816157904
 20
-4.617134626500004
 30
0.0
 11
-81.22724816157904
 21
-13.7062278513
 31
0.0
  0
LINE
  5
1DB
330
1F
100
AcDbEntity
  8
0
  6
CONTINUOUS
 62
     7
100
AcDbLine
 10
-124.427248161579
 20
-4.617134626500004
 30
0.0
 11
-124.427248161579
 21
-13.7062278513
 31
0.0
  0
LINE
  5
1DC
330
1F
100
AcDbEntity
  8
0
  6
CONTINUOUS
 62
     7
100
AcDbLine
 10
-102.927248161579
 20
-4.617134626500004
 30
0.0
 11
-102.927248161579
 21
-13.7062278513
 31
0.0
  0
LINE
  5
1DD
330
1F
100
AcDbEntity
  8
0
  6
CONTINUOUS
 62
     7
100
AcDbLine
 10
-122.127248161579
 20
-4.617134626500004
 30
0.0
 11
-122.127248161579
 21
-13.7062278513
 31
0.0
  0
LINE
  5
1DE
330
1F
100
AcDbEntity
  8
0
  6
CONTINUOUS
 62
     7
100
AcDbLine
 10
-110.027248161579
 20
-4.617134626500004
 30
0.0
 11
-110.027248161579
 21
-13.7062278513
 31
0.0
  0
LINE
  5
1DF
330
1F
100
AcDbEntity
  8
0
  6
CONTINUOUS
 62
     7
100
AcDbLine
 10
-74.12724816157902
 20
-4.7062278513
 30
0.0
 11
-76.42724816157903
 21
-4.7062278513
 31
0.0
  0
LINE
  5
1E0
330
1F
100
AcDbEntity
  8
0
  6
CONTINUOUS
 62
     7
100
AcDbLine
 10
-76.42724816157903
 20
-4.617134626500004
 30
0.0
 11
-78.92724816157903
 21
-4.617134626500004
 31
0.0
  0
LINE
  5
1E1
330
1F
100
AcDbEntity
  8
0
  6
CONTINUOUS
 62
     7
100
AcDbLine
 10
-78.92724816157903
 20
-4.7062278513
 30
0.0
 11
-81.22724816157904
 21
-4.7062278513
 31
0.0
  0
LINE
  5
1E2
330
1F
100
AcDbEntity
  8
0
  6
CONTINUOUS
 62
     7
100
AcDbLine
 10
-81.22724816157904
 20
-4.617134626500004
 30
0.0
 11
-83.72724816157904
 21
-4.617134626500004
 31
0.0
  0
LINE
  5
1E3
330
1F
100
AcDbEntity
  8
0
  6
CONTINUOUS
 62
     7
100
AcDbLine
 10
-107.727248161579
 20
-4.7062278513
 30
0.0
 11
-110.027248161579
 21
-4.7062278513
 31
0.0
  0
LINE
  5
1E4
330
1F
100
AcDbEntity
  8
0
  6
CONTINUOUS
 62
     7
100
AcDbLine
 10
-117.327248161579
 20
-4.7062278513
 30
0.0
 11
-119.627248161579
 21
-4.7062278513
 31
0.0
  0
LINE
  5
1E5
330
1F
100
AcDbEntity
  8
0
  6
CONTINUOUS
 62
     7
100
AcDbLine
 10
-124.427248161579
 20
-4.617134626500004
 30
0.0
 11
-126.927248161579
 21
-4.617134626500004
 31
0.0
  0
LINE
  5
1E6
330
1F
100
AcDbEntity
  8
0
  6
CONTINUOUS
 62
     7
100
AcDbLine
 10
-93.32724816157904
 20
-4.7062278513
 30
0.0
 11
-95.62724816157902
 21
-4.7062278513
 31
0.0
  0
LINE
  5
1E7
330
1F
100
AcDbEntity
  8
0
  6
CONTINUOUS
 62
     7
100
AcDbLine
 10
-102.927248161579
 20
-4.7062278513
 30
0.0
 11
-105.227248161579
 21
-4.7062278513
 31
0.0
  0
LINE
  5
1E8
330
1F
100
AcDbEntity
  8
0
  6
CONTINUOUS
 62
     7
100
AcDbLine
 10
-114.827248161579
 20
-4.617134626500004
 30
0.0
 11
-117.327248161579
 21
-4.617134626500004
 31
0.0
  0
LINE
  5
1E9
330
1F
100
AcDbEntity
  8
0
  6
CONTINUOUS
 62
     7
100
AcDbLine
 10
-110.027248161579
 20
-4.617134626500004
 30
0.0
 11
-112.527248161579
 21
-4.617134626500004
 31
0.0
  0
LINE
  5
1EA
330
1F
100
AcDbEntity
  8
0
  6
CONTINUOUS
 62
     7
100
AcDbLine
 10
-105.227248161579
 20
-4.617134626500004
 30
0.0
 11
-107.727248161579
 21
-4.617134626500004
 31
0.0
  0
LINE
  5
1EB
330
1F
100
AcDbEntity
  8
0
  6
CONTINUOUS
 62
     7
100
AcDbLine
 10
-105.227248161579
 20
-4.617134626500004
 30
0.0
 11
-105.227248161579
 21
-13.7062278513
 31
0.0
  0
LINE
  5
1EC
330
1F
100
AcDbEntity
  8
0
  6
CONTINUOUS
 62
     7
100
AcDbLine
 10
-107.727248161579
 20
-4.617134626500004
 30
0.0
 11
-107.727248161579
 21
-13.7062278513
 31
0.0
  0
LINE
  5
1ED
330
1F
100
AcDbEntity
  8
0
  6
CONTINUOUS
 62
     7
100
AcDbLine
 10
-112.527248161579
 20
-4.617134626500004
 30
0.0
 11
-112.527248161579
 21
-13.7062278513
 31
0.0
  0
LINE
  5
1EE
330
1F
100
AcDbEntity
  8
0
  6
CONTINUOUS
 62
     7
100
AcDbLine
 10
-126.927248161579
 20
-4.617134626500004
 30
0.0
 11
-126.927248161579
 21
-13.7062278513
 31
0.0
  0
LINE
  5
1EF
330
1F
100
AcDbEntity
  8
0
  6
CONTINUOUS
 62
     7
100
AcDbLine
 10
-119.627248161579
 20
-4.617134626500004
 30
0.0
 11
-119.627248161579
 21
-13.7062278513
 31
0.0
  0
LINE
  5
1F0
330
1F
100
AcDbEntity
  8
0
  6
CONTINUOUS
 62
     7
100
AcDbLine
 10
-100.427248161579
 20
-4.617134626500004
 30
0.0
 11
-100.427248161579
 21
-13.7062278513
 31
0.0
  0
LINE
  5
1F1
330
1F
100
AcDbEntity
  8
0
  6
CONTINUOUS
 62
     7
100
AcDbLine
 10
-98.12724816157902
 20
-4.617134626500004
 30
0.0
 11
-98.12724816157902
 21
-13.7062278513
 31
0.0
  0
LINE
  5
1F2
330
1F
100
AcDbEntity
  8
0
  6
CONTINUOUS
 62
     7
100
AcDbLine
 10
-117.327248161579
 20
-4.617134626500004
 30
0.0
 11
-117.327248161579
 21
-13.7062278513
 31
0.0
  0
LINE
  5
1F3
330
1F
100
AcDbEntity
  8
0
  6
CONTINUOUS
 62
     7
100
AcDbLine
 10
-114.827248161579
 20
-4.617134626500004
 30
0.0
 11
-114.827248161579
 21
-13.7062278513
 31
0.0
  0
LINE
  5
1F4
330
1F
100
AcDbEntity
  8
0
  6
CONTINUOUS
 62
     7
100
AcDbLine
 10
-83.72724816157904
 20
-4.617134626500004
 30
0.0
 11
-83.72724816157904
 21
-13.7062278513
 31
0.0
  0
LINE
  5
1F5
330
1F
100
AcDbEntity
  8
0
  6
CONTINUOUS
 62
     7
100
AcDbLine
 10
-88.52724816157902
 20
-4.617134626500004
 30
0.0
 11
-88.52724816157902
 21
-13.7062278513
 31
0.0
  0
LINE
  5
1F6
330
1F
100
AcDbEntity
  8
0
  6
CONTINUOUS
 62
     7
100
AcDbLine
 10
-86.02724816157902
 20
-4.617134626500004
 30
0.0
 11
-86.02724816157902
 21
-13.7062278513
 31
0.0
  0
LINE
  5
1F7
330
1F
100
AcDbEntity
  8
0
  6
CONTINUOUS
 62
     7
100
AcDbLine
 10
-90.82724816157904
 20
-4.617134626500004
 30
0.0
 11
-90.82724816157904
 21
-13.7062278513
 31
0.0
  0
LINE
  5
1F8
330
1F
100
AcDbEntity
  8
0
  6
CONTINUOUS
 62
     7
100
AcDbLine
 10
-95.62724816157902
 20
-4.617134626500004
 30
0.0
 11
-98.12724816157902
 21
-4.617134626500004
 31
0.0
  0
LINE
  5
1F9
330
1F
100
AcDbEntity
  8
0
  6
CONTINUOUS
 62
     7
100
AcDbLine
 10
-98.12724816157902
 20
-4.7062278513
 30
0.0
 11
-100.427248161579
 21
-4.7062278513
 31
0.0
  0
LINE
  5
1FA
330
1F
100
AcDbEntity
  8
0
  6
CONTINUOUS
 62
     7
100
AcDbLine
 10
-122.127248161579
 20
-4.7062278513
 30
0.0
 11
-124.427248161579
 21
-4.7062278513
 31
0.0
  0
LINE
  5
1FB
330
1F
100
AcDbEntity
  8
0
  6
CONTINUOUS
 62
     7
100
AcDbLine
 10
-100.427248161579
 20
-4.617134626500004
 30
0.0
 11
-102.927248161579
 21
-4.617134626500004
 31
0.0
  0
LINE
  5
1FC
330
1F
100
AcDbEntity
  8
0
  6
CONTINUOUS
 62
     7
100
AcDbLine
 10
-126.927248161579
 20
-4.7062278513
 30
0.0
 11
-129.227248161579
 21
-4.7062278513
 31
0.0
  0
LINE
  5
1FD
330
1F
100
AcDbEntity
  8
0
  6
CONTINUOUS
 62
     7
100
AcDbLine
 10
-119.627248161579
 20
-4.617134626500004
 30
0.0
 11
-122.127248161579
 21
-4.617134626500004
 31
0.0
  0
LINE
  5
1FE
330
1F
100
AcDbEntity
  8
0
  6
CONTINUOUS
 62
     7
100
AcDbLine
 10
-88.52724816157902
 20
-4.7062278513
 30
0.0
 11
-90.82724816157904
 21
-4.7062278513
 31
0.0
  0
LINE
  5
1FF
330
1F
100
AcDbEntity
  8
0
  6
CONTINUOUS
 62
     7
100
AcDbLine
 10
-90.82724816157904
 20
-4.617134626500004
 30
0.0
 11
-93.32724816157904
 21
-4.617134626500004
 31
0.0
  0
LINE
  5
200
330
1F
100
AcDbEntity
  8
0
  6
CONTINUOUS
 62
     7
100
AcDbLine
 10
-76.42724816157903
 20
-13.7062278513
 30
0.0
 11
-74.12724816157902
 21
-13.7062278513
 31
0.0
  0
LINE
  5
201
330
1F
100
AcDbEntity
  8
0
  6
CONTINUOUS
 62
     7
100
AcDbLine
 10
-81.22724816157904
 20
-13.7062278513
 30
0.0
 11
-78.92724816157903
 21
-13.7062278513
 31
0.0
  0
LINE
  5
202
330
1F
100
AcDbEntity
  8
0
  6
CONTINUOUS
 62
     7
100
AcDbLine
 10
-110.027248161579
 20
-13.7062278513
 30
0.0
 11
-107.727248161579
 21
-13.7062278513
 31
0.0
  0
LINE
  5
203
330
1F
100
AcDbEntity
  8
0
  6
CONTINUOUS
 62
     7
100
AcDbLine
 10
-95.62724816157902
 20
-13.7062278513
 30
0.0
 11
-93.32724816157904
 21
-13.7062278513
 31
0.0
  0
LINE
  5
204
330
1F
100
AcDbEntity
  8
0
  6
CONTINUOUS
 62
     7
100
AcDbLine
 10
-108.027248161579
 20
-5.588804639999992
 30
0.0
 11
-107.727248161579
 21
-5.588804639999992
 31
0.0
  0
LINE
  5
205
330
1F
100
AcDbEntity
  8
0
  6
CONTINUOUS
 62
     7
100
AcDbLine
 10
-122.427248161579
 20
-5.588804639999992
 30
0.0
 11
-122.127248161579
 21
-5.588804639999992
 31
0.0
  0
LINE
  5
206
330
1F
100
AcDbEntity
  8
0
  6
CONTINUOUS
 62
     7
100
AcDbLine
 10
-114.527248161579
 20
-5.588804639999992
 30
0.0
 11
-114.827248161579
 21
-5.588804639999992
 31
0.0
  0
LINE
  5
207
330
1F
100
AcDbEntity
  8
0
  6
CONTINUOUS
 62
     7
100
AcDbLine
 10
-127.227248161579
 20
-5.588804639999992
 30
0.0
 11
-126.927248161579
 21
-5.588804639999992
 31
0.0
  0
LINE
  5
208
330
1F
100
AcDbEntity
  8
0
  6
CONTINUOUS
 62
     7
100
AcDbLine
 10
-76.42724816157903
 20
-13.6171346265
 30
0.0
 11
-78.92724816157903
 21
-13.6171346265
 31
0.0
  0
LINE
  5
209
330
1F
100
AcDbEntity
  8
0
  6
CONTINUOUS
 62
     7
100
AcDbLine
 10
-74.42724816157903
 20
-5.588804639999992
 30
0.0
 11
-74.12724816157902
 21
-5.588804639999992
 31
0.0
  0
LINE
  5
20A
330
1F
100
AcDbEntity
  8
0
  6
CONTINUOUS
 62
     7
100
AcDbLine
 10
-79.22724816157904
 20
-5.588804639999992
 30
0.0
 11
-78.92724816157903
 21
-5.588804639999992
 31
0.0
  0
LINE
  5
20B
330
1F
100
AcDbEntity
  8
0
  6
CONTINUOUS
 62
     7
100
AcDbLine
 10
-76.12724816157902
 20
-5.588804639999992
 30
0.0
 11
-76.42724816157903
 21
-5.588804639999992
 31
0.0
  0
LINE
  5
20C
330
1F
100
AcDbEntity
  8
0
  6
CONTINUOUS
 62
     7
100
AcDbLine
 10
-93.62724816157902
 20
-5.588804639999992
 30
0.0
 11
-93.32724816157904
 21
-5.588804639999992
 31
0.0
  0
LINE
  5
20D
330
1F
100
AcDbEntity
  8
0
  6
CONTINUOUS
 62
     7
100
AcDbLine
 10
-112.827248161579
 20
-5.588804639999992
 30
0.0
 11
-112.527248161579
 21
-5.588804639999992
 31
0.0
  0
LINE
  5
20E
330
1F
100
AcDbEntity
  8
0
  6
CONTINUOUS
 62
     7
100
AcDbLine
 10
-71.62724816157902
 20
-4.617134626500004
 30
0.0
 11
-74.12724816157902
 21
-4.617134626500004
 31
0.0
  0
LINE
  5
20F
330
1F
100
AcDbEntity
  8
0
  6
CONTINUOUS
 62
     7
100
AcDbLine
 10
-71.62724816157902
 20
-4.617134626500004
 30
0.0
 11
-71.62724816157902
 21
-13.7062278513
 31
0.0
  0
LINE
  5
210
330
1F
100
AcDbEntity
  8
0
  6
CONTINUOUS
 62
     7
100
AcDbLine
 10
-90.82724816157904
 20
-13.7062278513
 30
0.0
 11
-88.52724816157902
 21
-13.7062278513
 31
0.0
  0
LINE
  5
211
330
1F
100
AcDbEntity
  8
0
  6
CONTINUOUS
 62
     7
100
AcDbLine
 10
-74.12724816157902
 20
-4.617134626500004
 30
0.0
 11
-74.12724816157902
 21
-13.7062278513
 31
0.0
  0
LINE
  5
212
330
1F
100
AcDbEntity
  8
0
  6
CONTINUOUS
 62
     7
100
AcDbLine
 10
-76.42724816157903
 20
-4.617134626500004
 30
0.0
 11
-76.42724816157903
 21
-13.7062278513
 31
0.0
  0
LINE
  5
213
330
1F
100
AcDbEntity
  8
0
  6
CONTINUOUS
 62
     7
100
AcDbLine
 10
-69.32724816157904
 20
-4.7062278513
 30
0.0
 11
-71.62724816157902
 21
-4.7062278513
 31
0.0
  0
LINE
  5
214
330
1F
100
AcDbEntity
  8
0
  6
CONTINUOUS
 62
     7
100
AcDbLine
 10
-71.62724816157902
 20
-13.7062278513
 30
0.0
 11
-69.32724816157904
 21
-13.7062278513
 31
0.0
  0
LINE
  5
215
330
1F
100
AcDbEntity
  8
0
  6
CONTINUOUS
 62
     7
100
AcDbLine
 10
-69.32724816157904
 20
-4.617134626500004
 30
0.0
 11
-69.32724816157904
 21
-13.7062278513
 31
0.0
  0
LINE
  5
216
330
1F
100
AcDbEntity
  8
0
  6
CONTINUOUS
 62
     7
100
AcDbLine
 10
-95.62724816157902
 20
-4.617134626500004
 30
0.0
 11
-95.62724816157902
 21
-13.7062278513
 31
0.0
  0
LINE
  5
217
330
1F
100
AcDbEntity
  8
0
  6
CONTINUOUS
 62
     7
100
AcDbLine
 10
-93.32724816157904
 20
-4.617134626500004
 30
0.0
 11
-93.32724816157904
 21
-13.7062278513
 31
0.0
  0
LINE
  5
218
330
1F
100
AcDbEntity
  8
0
  6
CONTINUOUS
 62
     7
100
AcDbLine
 10
-103.227248161579
 20
-5.588804639999992
 30
0.0
 11
-102.927248161579
 21
-5.588804639999992
 31
0.0
  0
LINE
  5
219
330
1F
100
AcDbEntity
  8
0
  6
CONTINUOUS
 62
     7
100
AcDbLine
 10
-104.927248161579
 20
-5.588804639999992
 30
0.0
 11
-105.227248161579
 21
-5.588804639999992
 31
0.0
  0
LINE
  5
21A
330
1F
100
AcDbEntity
  8
0
  6
CONTINUOUS
 62
     7
100
AcDbLine
 10
-80.92724816157903
 20
-5.588804639999992
 30
0.0
 11
-81.22724816157904
 21
-5.588804639999992
 31
0.0
  0
LINE
  5
21B
330
1F
100
AcDbEntity
  8
0
  6
CONTINUOUS
 62
     7
100
AcDbLine
 10
-84.02724816157902
 20
-5.588804639999992
 30
0.0
 11
-83.72724816157904
 21
-5.588804639999992
 31
0.0
  0
LINE
  5
21C
330
1F
100
AcDbEntity
  8
0
  6
CONTINUOUS
 62
     7
100
AcDbLine
 10
-85.72724816157904
 20
-5.588804639999992
 30
0.0
 11
-86.02724816157902
 21
-5.588804639999992
 31
0.0
  0
LINE
  5
21D
330
1F
100
AcDbEntity
  8
0
  6
CONTINUOUS
 62
     7
100
AcDbLine
 10
-90.52724816157902
 20
-5.588804639999992
 30
0.0
 11
-90.82724816157904
 21
-5.588804639999992
 31
0.0
  0
LINE
  5
21E
330
1F
100
AcDbEntity
  8
0
  6
CONTINUOUS
 62
     7
100
AcDbLine
 10
-88.82724816157904
 20
-5.588804639999992
 30
0.0
 11
-88.52724816157902
 21
-5.588804639999992
 31
0.0
  0
LINE
  5
21F
330
1F
100
AcDbEntity
  8
0
  6
CONTINUOUS
 62
     7
100
AcDbLine
 10
-81.22724816157904
 20
-13.6171346265
 30
0.0
 11
-83.72724816157904
 21
-13.6171346265
 31
0.0
  0
LINE
  5
220
330
1F
100
AcDbEntity
  8
0
  6
CONTINUOUS
 62
     7
100
AcDbLine
 10
-90.82724816157904
 20
-13.6171346265
 30
0.0
 11
-93.32724816157904
 21
-13.6171346265
 31
0.0
  0
LINE
  5
221
330
1F
100
AcDbEntity
  8
0
  6
CONTINUOUS
 62
     7
100
AcDbLine
 10
-86.02724816157902
 20
-13.6171346265
 30
0.0
 11
-88.52724816157902
 21
-13.6171346265
 31
0.0
  0
LINE
  5
222
330
1F
100
AcDbEntity
  8
0
  6
CONTINUOUS
 62
     7
100
AcDbLine
 10
-76.12724816157902
 20
-11.7716132723
 30
0.0
 11
-76.42724816157903
 21
-11.7716132723
 31
0.0
  0
LINE
  5
223
330
1F
100
AcDbEntity
  8
0
  6
CONTINUOUS
 62
     7
100
AcDbLine
 10
-95.32724816157904
 20
-5.588804639999992
 30
0.0
 11
-95.62724816157902
 21
-5.588804639999992
 31
0.0
  0
LINE
  5
224
330
1F
100
AcDbEntity
  8
0
  6
CONTINUOUS
 62
     7
100
AcDbLine
 10
-109.727248161579
 20
-5.588804639999992
 30
0.0
 11
-109.727248161579
 21
-11.7716132723
 31
0.0
  0
LINE
  5
225
330
1F
100
AcDbEntity
  8
0
  6
CONTINUOUS
 62
     7
100
AcDbLine
 10
-108.027248161579
 20
-5.588804639999992
 30
0.0
 11
-108.027248161579
 21
-11.7716132723
 31
0.0
  0
LINE
  5
226
330
1F
100
AcDbEntity
  8
0
  6
CONTINUOUS
 62
     7
100
AcDbLine
 10
-119.327248161579
 20
-11.7716132723
 30
0.0
 11
-119.627248161579
 21
-11.7716132723
 31
0.0
  0
LINE
  5
227
330
1F
100
AcDbEntity
  8
0
  6
CONTINUOUS
 62
     7
100
AcDbLine
 10
-114.527248161579
 20
-11.7716132723
 30
0.0
 11
-114.827248161579
 21
-11.7716132723
 31
0.0
  0
LINE
  5
228
330
1F
100
AcDbEntity
  8
0
  6
CONTINUOUS
 62
     7
100
AcDbLine
 10
-119.327248161579
 20
-5.588804639999992
 30
0.0
 11
-119.327248161579
 21
-11.7716132723
 31
0.0
  0
LINE
  5
229
330
1F
100
AcDbEntity
  8
0
  6
CONTINUOUS
 62
     7
100
AcDbLine
 10
-124.127248161579
 20
-5.588804639999992
 30
0.0
 11
-124.427248161579
 21
-5.588804639999992
 31
0.0
  0
LINE
  5
22A
330
1F
100
AcDbEntity
  8
0
  6
CONTINUOUS
 62
     7
100
AcDbLine
 10
-109.727248161579
 20
-5.588804639999992
 30
0.0
 11
-110.027248161579
 21
-5.588804639999992
 31
0.0
  0
LINE
  5
22B
330
1F
100
AcDbEntity
  8
0
  6
CONTINUOUS
 62
     7
100
AcDbLine
 10
-119.327248161579
 20
-5.588804639999992
 30
0.0
 11
-119.627248161579
 21
-5.588804639999992
 31
0.0
  0
LINE
  5
22C
330
1F
100
AcDbEntity
  8
0
  6
CONTINUOUS
 62
     7
100
AcDbLine
 10
-117.627248161579
 20
-5.588804639999992
 30
0.0
 11
-117.327248161579
 21
-5.588804639999992
 31
0.0
  0
LINE
  5
22D
330
1F
100
AcDbEntity
  8
0
  6
CONTINUOUS
 62
     7
100
AcDbLine
 10
-98.42724816157903
 20
-5.588804639999992
 30
0.0
 11
-98.12724816157902
 21
-5.588804639999992
 31
0.0
  0
LINE
  5
22E
330
1F
100
AcDbEntity
  8
0
  6
CONTINUOUS
 62
     7
100
AcDbLine
 10
-100.127248161579
 20
-5.588804639999992
 30
0.0
 11
-100.427248161579
 21
-5.588804639999992
 31
0.0
  0
LINE
  5
22F
330
1F
100
AcDbEntity
  8
0
  6
CONTINUOUS
 62
     7
100
AcDbLine
 10
-110.027248161579
 20
-13.6171346265
 30
0.0
 11
-112.527248161579
 21
-13.6171346265
 31
0.0
  0
LINE
  5
230
330
1F
100
AcDbEntity
  8
0
  6
CONTINUOUS
 62
     7
100
AcDbLine
 10
-124.427248161579
 20
-13.6171346265
 30
0.0
 11
-126.927248161579
 21
-13.6171346265
 31
0.0
  0
LINE
  5
231
330
1F
100
AcDbEntity
  8
0
  6
CONTINUOUS
 62
     7
100
AcDbLine
 10
-114.827248161579
 20
-13.6171346265
 30
0.0
 11
-117.327248161579
 21
-13.6171346265
 31
0.0
  0
LINE
  5
232
330
1F
100
AcDbEntity
  8
0
  6
CONTINUOUS
 62
     7
100
AcDbLine
 10
-119.627248161579
 20
-13.6171346265
 30
0.0
 11
-122.127248161579
 21
-13.6171346265
 31
0.0
  0
LINE
  5
233
330
1F
100
AcDbEntity
  8
0
  6
CONTINUOUS
 62
     7
100
AcDbLine
 10
-95.62724816157902
 20
-13.6171346265
 30
0.0
 11
-98.12724816157902
 21
-13.6171346265
 31
0.0
  0
LINE
  5
234
330
1F
100
AcDbEntity
  8
0
  6
CONTINUOUS
 62
     7
100
AcDbLine
 10
-100.427248161579
 20
-13.6171346265
 30
0.0
 11
-102.927248161579
 21
-13.6171346265
 31
0.0
  0
LINE
  5
235
330
1F
100
AcDbEntity
  8
0
  6
CONTINUOUS
 62
     7
100
AcDbLine
 10
-105.227248161579
 20
-13.6171346265
 30
0.0
 11
-107.727248161579
 21
-13.6171346265
 31
0.0
  0
LINE
  5
236
330
1F
100
AcDbEntity
  8
0
  6
CONTINUOUS
 62
     7
100
AcDbLine
 10
-85.72724816157904
 20
-11.7716132723
 30
0.0
 11
-86.02724816157902
 21
-11.7716132723
 31
0.0
  0
LINE
  5
237
330
1F
100
AcDbEntity
  8
0
  6
CONTINUOUS
 62
     7
100
AcDbLine
 10
-74.42724816157903
 20
-5.588804639999992
 30
0.0
 11
-74.42724816157903
 21
-11.7716132723
 31
0.0
  0
LINE
  5
238
330
1F
100
AcDbEntity
  8
0
  6
CONTINUOUS
 62
     7
100
AcDbLine
 10
-76.12724816157902
 20
-5.588804639999992
 30
0.0
 11
-76.12724816157902
 21
-11.7716132723
 31
0.0
  0
LINE
  5
239
330
1F
100
AcDbEntity
  8
0
  6
CONTINUOUS
 62
     7
100
AcDbLine
 10
-79.22724816157904
 20
-5.588804639999992
 30
0.0
 11
-79.22724816157904
 21
-11.7716132723
 31
0.0
  0
LINE
  5
23A
330
1F
100
AcDbEntity
  8
0
  6
CONTINUOUS
 62
     7
100
AcDbLine
 10
-74.42724816157903
 20
-11.7716132723
 30
0.0
 11
-74.12724816157902
 21
-11.7716132723
 31
0.0
  0
LINE
  5
23B
330
1F
100
AcDbEntity
  8
0
  6
CONTINUOUS
 62
     7
100
AcDbLine
 10
-88.82724816157904
 20
-5.588804639999992
 30
0.0
 11
-88.82724816157904
 21
-11.7716132723
 31
0.0
  0
LINE
  5
23C
330
1F
100
AcDbEntity
  8
0
  6
CONTINUOUS
 62
     7
100
AcDbLine
 10
-90.52724816157902
 20
-5.588804639999992
 30
0.0
 11
-90.52724816157902
 21
-11.7716132723
 31
0.0
  0
LINE
  5
23D
330
1F
100
AcDbEntity
  8
0
  6
CONTINUOUS
 62
     7
100
AcDbLine
 10
-90.52724816157902
 20
-11.7716132723
 30
0.0
 11
-90.82724816157904
 21
-11.7716132723
 31
0.0
  0
LINE
  5
23E
330
1F
100
AcDbEntity
  8
0
  6
CONTINUOUS
 62
     7
100
AcDbLine
 10
-79.22724816157904
 20
-11.7716132723
 30
0.0
 11
-78.92724816157903
 21
-11.7716132723
 31
0.0
  0
LINE
  5
23F
330
1F
100
AcDbEntity
  8
0
  6
CONTINUOUS
 62
     7
100
AcDbLine
 10
-93.62724816157902
 20
-5.588804639999992
 30
0.0
 11
-93.62724816157902
 21
-11.7716132723
 31
0.0
  0
LINE
  5
240
330
1F
100
AcDbEntity
  8
0
  6
CONTINUOUS
 62
     7
100
AcDbLine
 10
-93.62724816157902
 20
-11.7716132723
 30
0.0
 11
-93.32724816157904
 21
-11.7716132723
 31
0.0
  0
LINE
  5
241
330
1F
100
AcDbEntity
  8
0
  6
CONTINUOUS
 62
     7
100
AcDbLine
 10
-95.32724816157904
 20
-5.588804639999992
 30
0.0
 11
-95.32724816157904
 21
-11.7716132723
 31
0.0
  0
LINE
  5
242
330
1F
100
AcDbEntity
  8
0
  6
CONTINUOUS
 62
     7
100
AcDbLine
 10
-95.32724816157904
 20
-11.7716132723
 30
0.0
 11
-95.62724816157902
 21
-11.7716132723
 31
0.0
  0
LINE
  5
243
330
1F
100
AcDbEntity
  8
0
  6
CONTINUOUS
 62
     7
100
AcDbLine
 10
-114.527248161579
 20
-5.588804639999992
 30
0.0
 11
-114.527248161579
 21
-11.7716132723
 31
0.0
  0
LINE
  5
244
330
1F
100
AcDbEntity
  8
0
  6
CONTINUOUS
 62
     7
100
AcDbLine
 10
-112.827248161579
 20
-5.588804639999992
 30
0.0
 11
-112.827248161579
 21
-11.7716132723
 31
0.0
  0
LINE
  5
245
330
1F
100
AcDbEntity
  8
0
  6
CONTINUOUS
 62
     7
100
AcDbLine
 10
-122.427248161579
 20
-11.7716132723
 30
0.0
 11
-122.127248161579
 21
-11.7716132723
 31
0.0
  0
LINE
  5
246
330
1F
100
AcDbEntity
  8
0
  6
CONTINUOUS
 62
     7
100
AcDbLine
 10
-124.127248161579
 20
-11.7716132723
 30
0.0
 11
-124.427248161579
 21
-11.7716132723
 31
0.0
  0
LINE
  5
247
330
1F
100
AcDbEntity
  8
0
  6
CONTINUOUS
 62
     7
100
AcDbLine
 10
-117.627248161579
 20
-11.7716132723
 30
0.0
 11
-117.327248161579
 21
-11.7716132723
 31
0.0
  0
LINE
  5
248
330
1F
100
AcDbEntity
  8
0
  6
CONTINUOUS
 62
     7
100
AcDbLine
 10
-108.027248161579
 20
-11.7716132723
 30
0.0
 11
-107.727248161579
 21
-11.7716132723
 31
0.0
  0
LINE
  5
249
330
1F
100
AcDbEntity
  8
0
  6
CONTINUOUS
 62
     7
100
AcDbLine
 10
-109.727248161579
 20
-11.7716132723
 30
0.0
 11
-110.027248161579
 21
-11.7716132723
 31
0.0
  0
LINE
  5
24A
330
1F
100
AcDbEntity
  8
0
  6
CONTINUOUS
 62
     7
100
AcDbLine
 10
-112.827248161579
 20
-11.7716132723
 30
0.0
 11
-112.527248161579
 21
-11.7716132723
 31
0.0
  0
LINE
  5
24B
330
1F
100
AcDbEntity
  8
0
  6
CONTINUOUS
 62
     7
100
AcDbLine
 10
-122.427248161579
 20
-5.588804639999992
 30
0.0
 11
-122.427248161579
 21
-11.7716132723
 31
0.0
  0
LINE
  5
24C
330
1F
100
AcDbEntity
  8
0
  6
CONTINUOUS
 62
     7
100
AcDbLine
 10
-69.62724816157902
 20
-11.7716132723
 30
0.0
 11
-69.32724816157904
 21
-11.7716132723
 31
0.0
  0
LINE
  5
24D
330
1F
100
AcDbEntity
  8
0
  6
CONTINUOUS
 62
     7
100
AcDbLine
 10
-69.62724816157902
 20
-5.588804639999992
 30
0.0
 11
-69.62724816157902
 21
-11.7716132723
 31
0.0
  0
LINE
  5
24E
330
1F
100
AcDbEntity
  8
0
  6
CONTINUOUS
 62
     7
100
AcDbLine
 10
-127.227248161579
 20
-11.7716132723
 30
0.0
 11
-126.927248161579
 21
-11.7716132723
 31
0.0
  0
LINE
  5
24F
330
1F
100
AcDbEntity
  8
0
  6
CONTINUOUS
 62
     7
100
AcDbLine
 10
-124.127248161579
 20
-5.588804639999992
 30
0.0
 11
-124.127248161579
 21
-11.7716132723
 31
0.0
  0
LINE
  5
250
330
1F
100
AcDbEntity
  8
0
  6
CONTINUOUS
 62
     7
100
AcDbLine
 10
-117.627248161579
 20
-5.588804639999992
 30
0.0
 11
-117.627248161579
 21
-11.7716132723
 31
0.0
  0
LINE
  5
251
330
1F
100
AcDbEntity
  8
0
  6
CONTINUOUS
 62
     7
100
AcDbLine
 10
-100.127248161579
 20
-5.588804639999992
 30
0.0
 11
-100.127248161579
 21
-11.7716132723
 31
0.0
  0
LINE
  5
252
330
1F
100
AcDbEntity
  8
0
  6
CONTINUOUS
 62
     7
100
AcDbLine
 10
-98.42724816157903
 20
-5.588804639999992
 30
0.0
 11
-98.42724816157903
 21
-11.7716132723
 31
0.0
  0
LINE
  5
253
330
1F
100
AcDbEntity
  8
0
  6
CONTINUOUS
 62
     7
100
AcDbLine
 10
-71.32724816157904
 20
-5.588804639999992
 30
0.0
 11
-71.62724816157902
 21
-5.588804639999992
 31
0.0
  0
LINE
  5
254
330
1F
100
AcDbEntity
  8
0
  6
CONTINUOUS
 62
     7
100
AcDbLine
 10
-71.62724816157902
 20
-13.6171346265
 30
0.0
 11
-74.12724816157902
 21
-13.6171346265
 31
0.0
  0
LINE
  5
255
330
1F
100
AcDbEntity
  8
0
  6
CONTINUOUS
 62
     7
100
AcDbLine
 10
-71.32724816157904
 20
-5.588804639999992
 30
0.0
 11
-71.32724816157904
 21
-11.7716132723
 31
0.0
  0
LINE
  5
256
330
1F
100
AcDbEntity
  8
0
  6
CONTINUOUS
 62
     7
100
AcDbLine
 10
-71.32724816157904
 20
-11.7716132723
 30
0.0
 11
-71.62724816157902
 21
-11.7716132723
 31
0.0
  0
LINE
  5
257
330
1F
100
AcDbEntity
  8
0
  6
CONTINUOUS
 62
     7
100
AcDbLine
 10
-69.62724816157902
 20
-5.588804639999992
 30
0.0
 11
-69.32724816157904
 21
-5.588804639999992
 31
0.0
  0
LINE
  5
258
330
1F
100
AcDbEntity
  8
0
  6
CONTINUOUS
 62
     7
100
AcDbLine
 10
-100.127248161579
 20
-11.7716132723
 30
0.0
 11
-100.427248161579
 21
-11.7716132723
 31
0.0
  0
LINE
  5
259
330
1F
100
AcDbEntity
  8
0
  6
CONTINUOUS
 62
     7
100
AcDbLine
 10
-98.42724816157903
 20
-11.7716132723
 30
0.0
 11
-98.12724816157902
 21
-11.7716132723
 31
0.0
  0
LINE
  5
25A
330
1F
100
AcDbEntity
  8
0
  6
CONTINUOUS
 62
     7
100
AcDbLine
 10
-103.227248161579
 20
-11.7716132723
 30
0.0
 11
-102.927248161579
 21
-11.7716132723
 31
0.0
  0
LINE
  5
25B
330
1F
100
AcDbEntity
  8
0
  6
CONTINUOUS
 62
     7
100
AcDbLine
 10
-104.927248161579
 20
-11.7716132723
 30
0.0
 11
-105.227248161579
 21
-11.7716132723
 31
0.0
  0
LINE
  5
25C
330
1F
100
AcDbEntity
  8
0
  6
CONTINUOUS
 62
     7
100
AcDbLine
 10
-104.927248161579
 20
-5.588804639999992
 30
0.0
 11
-104.927248161579
 21
-11.7716132723
 31
0.0
  0
LINE
  5
25D
330
1F
100
AcDbEntity
  8
0
  6
CONTINUOUS
 62
     7
100
AcDbLine
 10
-103.227248161579
 20
-5.588804639999992
 30
0.0
 11
-103.227248161579
 21
-11.7716132723
 31
0.0
  0
LINE
  5
25E
330
1F
100
AcDbEntity
  8
0
  6
CONTINUOUS
 62
     7
100
AcDbLine
 10
-80.92724816157903
 20
-11.7716132723
 30
0.0
 11
-81.22724816157904
 21
-11.7716132723
 31
0.0
  0
LINE
  5
25F
330
1F
100
AcDbEntity
  8
0
  6
CONTINUOUS
 62
     7
100
AcDbLine
 10
-84.02724816157902
 20
-11.7716132723
 30
0.0
 11
-83.72724816157904
 21
-11.7716132723
 31
0.0
  0
LINE
  5
260
330
1F
100
AcDbEntity
  8
0
  6
CONTINUOUS
 62
     7
100
AcDbLine
 10
-80.92724816157903
 20
-5.588804639999992
 30
0.0
 11
-80.92724816157903
 21
-11.7716132723
 31
0.0
  0
LINE
  5
261
330
1F
100
AcDbEntity
  8
0
  6
CONTINUOUS
 62
     7
100
AcDbLine
 10
-84.02724816157902
 20
-5.588804639999992
 30
0.0
 11
-84.02724816157902
 21
-11.7716132723
 31
0.0
  0
LINE
  5
262
330
1F
100
AcDbEntity
  8
0
  6
CONTINUOUS
 62
     7
100
AcDbLine
 10
-88.82724816157904
 20
-11.7716132723
 30
0.0
 11
-88.52724816157902
 21
-11.7716132723
 31
0.0
  0
LINE
  5
263
330
1F
100
AcDbEntity
  8
0
  6
CONTINUOUS
 62
     7
100
AcDbLine
 10
-85.72724816157904
 20
-5.588804639999992
 30
0.0
 11
-85.72724816157904
 21
-11.7716132723
 31
0.0
  0
LINE
  5
264
330
1F
100
AcDbEntity
  8
0
  6
CONTINUOUS
 62
     7
100
AcDbLine
 10
-73.65032486457903
 20
39.8768426
 30
0.0
 11
-73.62471670767903
 21
39.9730581506
 31
0.0
  0
LINE
  5
265
330
1F
100
AcDbEntity
  8
0
  6
CONTINUOUS
 62
     7
100
AcDbLine
 10
-78.48191002977904
 20
41.16361586299999
 30
0.0
 11
-78.45637330457902
 21
41.25956302879999
 31
0.0
  0
LINE
  5
266
330
1F
100
AcDbEntity
  8
0
  6
CONTINUOUS
 62
     7
100
AcDbLine
 10
-129.227248161579
 20
-13.6171346265
 30
0.0
 11
-133.635747022779
 21
-13.6171346265
 31
0.0
  0
LINE
  5
267
330
1F
100
AcDbEntity
  8
0
  6
CONTINUOUS
 62
     7
100
AcDbLine
 10
-129.227248161579
 20
-4.617134626500004
 30
0.0
 11
-129.227248161579
 21
-13.7062278513
 31
0.0
  0
LINE
  5
268
330
1F
100
AcDbEntity
  8
0
  6
CONTINUOUS
 62
     7
100
AcDbLine
 10
-127.227248161579
 20
-5.588804639999992
 30
0.0
 11
-127.227248161579
 21
-11.7716132723
 31
0.0
  0
LINE
  5
269
330
1F
100
AcDbEntity
  8
0
  6
CONTINUOUS
 62
     7
100
AcDbLine
 10
-134.135747157479
 20
-13.1171346265
 30
0.0
 11
-134.135747157479
 21
-4.617134626500004
 31
0.0
  0
LINE
  5
26A
330
1F
100
AcDbEntity
  8
0
  6
CONTINUOUS
 62
     7
100
AcDbLine
 10
-141.577248161579
 20
-42.58880464000001
 30
0.0
 11
-135.229092545079
 21
-42.58880464000001
 31
0.0
  0
LINE
  5
26B
330
1F
100
AcDbEntity
  8
0
  6
CONTINUOUS
 62
     7
100
AcDbLine
 10
-140.349917542079
 20
-3.909629606099998
 30
0.0
 11
-129.061896358379
 21
-3.909629606099998
 31
0.0
  0
LINE
  5
26C
330
1F
100
AcDbEntity
  8
0
  6
CONTINUOUS
 62
     7
100
AcDbLine
 10
-129.227248161579
 20
-4.617134626500004
 30
0.0
 11
-135.177248161579
 21
-4.617134626500004
 31
0.0
  0
LINE
  5
26D
330
1F
100
AcDbEntity
  8
0
  6
CONTINUOUS
 62
     7
100
AcDbLine
 10
29.19542121892096
 20
-2.909629606099998
 30
0.0
 11
29.19542121892096
 21
58.37705453300001
 31
0.0
  0
LINE
  5
26E
330
1F
100
AcDbEntity
  8
0
  6
CONTINUOUS
 62
     7
100
AcDbLine
 10
31.42275183842099
 20
-40.58880464000001
 30
0.0
 11
31.42275183842099
 21
70.41119536
 31
0.0
  0
LINE
  5
26F
330
1F
100
AcDbEntity
  8
0
  6
CONTINUOUS
 62
     7
100
AcDbLine
 10
-143.577248161579
 20
-40.58880464000001
 30
0.0
 11
-143.577248161579
 21
70.41119536
 31
0.0
  0
LINE
  5
270
330
1F
100
AcDbEntity
  8
0
  6
CONTINUOUS
 62
     7
100
AcDbLine
 10
-141.349917542079
 20
-2.909629606099998
 30
0.0
 11
-141.349917542079
 21
58.37705465159998
 31
0.0
  0
LINE
  5
271
330
1F
100
AcDbEntity
  8
0
  6
CONTINUOUS
 62
     7
100
AcDbLine
 10
-135.177248161579
 20
-14.08880463999999
 30
0.0
 11
22.42275195302096
 21
-14.08880463999999
 31
0.0
  0
LINE
  5
272
330
1F
100
AcDbEntity
  8
0
  6
CONTINUOUS
 62
     7
100
AcDbLine
 10
-138.577248161579
 20
75.41119536
 30
0.0
 11
26.42275183842099
 21
75.41119536
 31
0.0
  0
ARC
  5
273
330
1F
100
AcDbEntity
  8
0
  6
CONTINUOUS
 62
     7
100
AcDbCircle
 10
26.42275183842099
 20
70.41119536
 30
0.0
 40
5.0
100
AcDbArc
 50
0.0
 51
90.0
  0
ARC
  5
274
330
1F
100
AcDbEntity
  8
0
  6
CONTINUOUS
 62
     7
100
AcDbCircle
 10
17.67275183832095
 20
73.4111953597
 30
0.0
 40
2.0
100
AcDbArc
 50
0.0
 51
89.99999979309968
  0
ARC
  5
275
330
1F
100
AcDbEntity
  8
0
  6
CONTINUOUS
 62
     7
100
AcDbCircle
 10
-56.07724816157903
 20
-380.58880464
 30
0.0
 40
450.0
100
AcDbArc
 50
78.892504771
 51
80.309070344
  0
ARC
  5
276
330
1F
100
AcDbEntity
  8
0
  6
CONTINUOUS
 62
     7
100
AcDbCircle
 10
28.19542121892096
 20
58.37705453300001
 30
0.0
 40
1.0
100
AcDbArc
 50
0.0
 51
79.1325793679997
  0
ARC
  5
277
330
1F
100
AcDbEntity
  8
0
  6
CONTINUOUS
 62
     7
100
AcDbCircle
 10
-56.07724816157903
 20
-380.58880464
 30
0.0
 40
447.9820000000058
100
AcDbArc
 50
79.132579368
 51
83.24723317520001
  0
ARC
  5
278
330
1F
100
AcDbEntity
  8
0
  6
CONTINUOUS
 62
     7
100
AcDbCircle
 10
15.94329512212096
 20
73.41119536
 30
0.0
 40
2.0
100
AcDbArc
 50
0.0
 51
90.00000000179944
  0
ARC
  5
279
330
1F
100
AcDbEntity
  8
0
  6
CONTINUOUS
 62
     7
100
AcDbCircle
 10
30.42275183842099
 20
60.00028964169999
 30
0.0
 40
1.000000000034725
100
AcDbArc
 50
359.9999999750995
 51
78.89250477280152
  0
CIRCLE
  5
27A
330
1F
100
AcDbEntity
  8
0
  6
CONTINUOUS
 62
     7
100
AcDbCircle
 10
26.42275183842099
 20
70.41119536
 30
0.0
 40
2.49999999999369
  0
ARC
  5
27B
330
1F
100
AcDbEntity
  8
0
  6
CONTINUOUS
 62
     7
100
AcDbCircle
 10
21.48125083432098
 20
-13.1171346265
 30
0.0
 40
0.5000000000000292
100
AcDbArc
 50
270.0000195837001
 51
0.0
  0
ARC
  5
27C
330
1F
100
AcDbEntity
  8
0
  6
CONTINUOUS
 62
     7
100
AcDbCircle
 10
28.19542121892096
 20
-2.909629606099998
 30
0.0
 40
1.0
100
AcDbArc
 50
270.0
 51
0.0
  0
ARC
  5
27D
330
1F
100
AcDbEntity
  8
0
  6
CONTINUOUS
 62
     7
100
AcDbCircle
 10
29.42275183842099
 20
-40.58880464000001
 30
0.0
 40
2.0
100
AcDbArc
 50
269.9999999995994
 51
0.0
  0
ARC
  5
27E
330
1F
100
AcDbEntity
  8
0
  6
CONTINUOUS
 62
     7
100
AcDbCircle
 10
22.42275183842099
 20
-13.58880463999999
 30
0.0
 40
0.5
100
AcDbArc
 50
270.0000131283982
 51
0.0
  0
ARC
  5
27F
330
1F
100
AcDbEntity
  8
0
  6
CONTINUOUS
 62
     7
100
AcDbCircle
 10
-129.827248161579
 20
73.41119536
 30
0.0
 40
2.0
100
AcDbArc
 50
90.0
 51
180.0
  0
ARC
  5
280
330
1F
100
AcDbEntity
  8
0
  6
CONTINUOUS
 62
     7
100
AcDbCircle
 10
-128.097791445279
 20
73.41119536
 30
0.0
 40
2.0
100
AcDbArc
 50
89.99999963449982
 51
180.0
  0
ARC
  5
281
330
1F
100
AcDbEntity
  8
0
  6
CONTINUOUS
 62
     7
100
AcDbCircle
 10
-140.349917542079
 20
58.37705453300001
 30
0.0
 40
1.000000000000007
100
AcDbArc
 50
100.8674282552005
 51
179.999993204
  0
ARC
  5
282
330
1F
100
AcDbEntity
  8
0
  6
CONTINUOUS
 62
     7
100
AcDbCircle
 10
-138.577248161579
 20
70.41119536
 30
0.0
 40
5.0
100
AcDbArc
 50
90.0
 51
180.0
  0
CIRCLE
  5
283
330
1F
100
AcDbEntity
  8
0
  6
CONTINUOUS
 62
     7
100
AcDbCircle
 10
-138.577248161579
 20
70.41119536
 30
0.0
 40
2.499999999993719
  0
ARC
  5
284
330
1F
100
AcDbEntity
  8
0
  6
CONTINUOUS
 62
     7
100
AcDbCircle
 10
-142.577248161579
 20
60.00028964169999
 30
0.0
 40
1.0
100
AcDbArc
 50
101.1075041911007
 51
180.0
  0
ARC
  5
285
330
1F
100
AcDbEntity
  8
0
  6
CONTINUOUS
 62
     7
100
AcDbCircle
 10
-56.07724816157903
 20
-380.58880464
 30
0.0
 40
449.9999999999893
100
AcDbArc
 50
99.69092965600001
 51
101.1074952489
  0
ARC
  5
286
330
1F
100
AcDbEntity
  8
0
  6
CONTINUOUS
 62
     7
100
AcDbCircle
 10
-140.349917542079
 20
-2.909629606099998
 30
0.0
 40
1.0
100
AcDbArc
 50
180.0
 51
270.0
  0
ARC
  5
287
330
1F
100
AcDbEntity
  8
0
  6
CONTINUOUS
 62
     7
100
AcDbCircle
 10
-141.577248161579
 20
-40.58880464000001
 30
0.0
 40
2.0
100
AcDbArc
 50
180.0
 51
270.0
  0
ARC
  5
288
330
1F
100
AcDbEntity
  8
0
  6
CONTINUOUS
 62
     7
100
AcDbCircle
 10
-133.635747157479
 20
-13.1171346265
 30
0.0
 40
0.5000000000000181
100
AcDbArc
 50
180.0
 51
270.0000154354996
  0
ARC
  5
289
330
1F
100
AcDbEntity
  8
0
  6
CONTINUOUS
 62
     7
100
AcDbCircle
 10
-56.07724816157903
 20
-380.58880464
 30
0.0
 40
447.9820000000058
100
AcDbArc
 50
96.7527668248
 51
100.867420649
  0
ARC
  5
28A
330
1F
100
AcDbEntity
  8
0
  6
CONTINUOUS
 62
     7
100
AcDbCircle
 10
-56.07724816157903
 20
-16953.0630066885
 30
0.0
 40
16949.31051573296
100
AcDbArc
 50
89.7532805107
 51
90.2467194893
  0
ELLIPSE
  5
28B
330
1F
100
AcDbEntity
  8
0
  6
CONTINUOUS
 62
     7
100
AcDbEllipse
 10
-56.07724816157903
 20
75.41119536
 30
0.0
 11
-55.00000000000001
 21
0.0
 31
0.0
210
0.0
220
0.0
230
1.0
 40
0.6818181818000001
 41
0.3044315202088539
 42
2.837161133380936
  0
ELLIPSE
  5
28C
330
1F
100
AcDbEntity
  8
0
  6
CONTINUOUS
 62
     7
100
AcDbEllipse
 10
-56.07724816157903
 20
-5.088804639999992
 30
0.0
 11
-73.0
 21
8.881784197001252E-15
 31
0.0
210
0.0
220
0.0
230
1.0
 40
0.7876712329000001
 41
5.194571569786135
 42
6.26267647760625
  0
ELLIPSE
  5
28D
330
1F
100
AcDbEntity
  8
0
  6
CONTINUOUS
 62
     7
100
AcDbEllipse
 10
-56.07724816157903
 20
-5.088804639999992
 30
0.0
 11
-77.0
 21
8.881784197001251E-15
 31
0.0
210
0.0
220
0.0
230
1.0
 40
0.7987012987
 41
3.160767406355232
 42
4.194930169308289
  0
ELLIPSE
  5
28E
330
1F
100
AcDbEntity
  8
0
  6
CONTINUOUS
 62
     7
100
AcDbEllipse
 10
-56.07724816157903
 20
-5.088804639999992
 30
0.0
 11
-77.0
 21
8.881784197001251E-15
 31
0.0
210
0.0
220
0.0
230
1.0
 40
0.7987012987
 41
5.229847791461115
 42
6.264010554414179
  0
ELLIPSE
  5
28F
330
1F
100
AcDbEntity
  8
0
  6
CONTINUOUS
 62
     7
100
AcDbEllipse
 10
-56.07724816157903
 20
-5.088804639999992
 30
0.0
 11
-73.0
 21
8.881784197001252E-15
 31
0.0
210
0.0
220
0.0
230
1.0
 40
0.7876712329000001
 41
3.162101483163163
 42
4.230206390983268
  0
LINE
  5
290
330
1F
100
AcDbEntity
  8
0
  6
CONTINUOUS
 62
     7
100
AcDbLine
 10
-44.27724816157902
 20
53.55500966950001
 30
0.0
 11
-44.27724816157902
 21
60.81261185930001
 31
0.0
  0
LINE
  5
291
330
1F
100
AcDbEntity
  8
0
  6
CONTINUOUS
 62
     7
100
AcDbLine
 10
-57.17706631627902
 20
54.29290137359999
 30
0.0
 11
-57.17706631627902
 21
61.49816046620001
 31
0.0
  0
LINE
  5
292
330
1F
100
AcDbEntity
  8
0
  6
CONTINUOUS
 62
     7
100
AcDbLine
 10
-54.97724816157904
 20
54.29290724419999
 30
0.0
 11
-54.97724816157904
 21
61.49817737929999
 31
0.0
  0
LINE
  5
293
330
1F
100
AcDbEntity
  8
0
  6
CONTINUOUS
 62
     7
100
AcDbLine
 10
-35.77724816157902
 20
52.07885583829999
 30
0.0
 11
-35.77724816157902
 21
59.44333856880002
 31
0.0
  0
LINE
  5
294
330
1F
100
AcDbEntity
  8
0
  6
CONTINUOUS
 62
     7
100
AcDbLine
 10
-46.47724816157904
 20
53.8073560119
 30
0.0
 11
-46.47724816157904
 21
61.04698594960001
 31
0.0
  0
LINE
  5
295
330
1F
100
AcDbEntity
  8
0
  6
CONTINUOUS
 62
     7
100
AcDbLine
 10
-65.67724816157903
 20
53.80728581810001
 30
0.0
 11
-65.67724816157903
 21
61.04682030719999
 31
0.0
  0
LINE
  5
296
330
1F
100
AcDbEntity
  8
0
  6
CONTINUOUS
 62
     7
100
AcDbLine
 10
-33.57724868247902
 20
51.5638879945
 30
0.0
 11
-33.57724868247902
 21
58.966379436
 31
0.0
  0
LINE
  5
297
330
1F
100
AcDbEntity
  8
0
  6
CONTINUOUS
 62
     7
100
AcDbLine
 10
-67.87724816157902
 20
53.55492315590001
 30
0.0
 11
-67.87724816157902
 21
60.8124077814
 31
0.0
  0
LINE
  5
298
330
1F
100
AcDbEntity
  8
0
  6
CONTINUOUS
 62
     7
100
AcDbLine
 10
-76.37725220327903
 20
52.078703714
 30
0.0
 11
-76.37725220327903
 21
59.4429817976
 31
0.0
  0
LINE
  5
299
330
1F
100
AcDbEntity
  8
0
  6
CONTINUOUS
 62
     7
100
AcDbLine
 10
-78.57724816157904
 20
51.5637193005
 30
0.0
 11
-78.57724816157904
 21
58.965982889
 31
0.0
  0
LINE
  5
29A
330
1F
100
AcDbEntity
  8
0
  6
CONTINUOUS
 62
     7
100
AcDbLine
 10
-38.01689307797903
 20
40.09284219209999
 30
0.0
 11
-37.99126752867903
 21
39.99668143510002
 31
0.0
  0
LINE
  5
29B
330
1F
100
AcDbEntity
  8
0
  6
CONTINUOUS
 62
     7
100
AcDbLine
 10
-34.15188600447902
 20
41.12324041150001
 30
0.0
 11
-34.12631793267906
 21
41.02729534100002
 31
0.0
  0
LINE
  5
29C
330
1F
100
AcDbEntity
  8
0
  6
CONTINUOUS
 62
     7
100
AcDbLine
 10
-78.00261031867902
 20
41.12324041150001
 30
0.0
 11
-78.02817839047904
 21
41.02729534100002
 31
0.0
  0
LINE
  5
29D
330
1F
100
AcDbEntity
  8
0
  6
CONTINUOUS
 62
     7
100
AcDbLine
 10
-74.13760324517904
 20
40.09284219209999
 30
0.0
 11
-74.16322879447904
 21
39.99668143510002
 31
0.0
  0
ARC
  5
29E
330
1F
100
AcDbEntity
  8
0
  6
CONTINUOUS
 62
     7
100
AcDbCircle
 10
-56.07724816157903
 20
-380.58880464
 30
0.0
 40
447.9819999999493
100
AcDbArc
 50
83.3454404346
 51
96.6545595654
  0
ELLIPSE
  5
29F
330
1F
100
AcDbEntity
  8
0
  6
CONTINUOUS
 62
     7
100
AcDbEllipse
 10
-56.07724816157903
 20
-5.088804639999992
 30
0.0
 11
-77.0
 21
8.881784197001251E-15
 31
0.0
210
0.0
220
0.0
230
1.0
 40
0.7987012987
 41
4.726675180623694
 42
4.837389576324538
  0
ELLIPSE
  5
2A0
330
1F
100
AcDbEntity
  8
0
  6
CONTINUOUS
 62
     7
100
AcDbEllipse
 10
-56.07724816157903
 20
-5.088804639999992
 30
0.0
 11
-77.0
 21
8.881784197001251E-15
 31
0.0
210
0.0
220
0.0
230
1.0
 40
0.7987012987
 41
4.866241984923148
 42
4.979178980824678
  0
ELLIPSE
  5
2A1
330
1F
100
AcDbEntity
  8
0
  6
CONTINUOUS
 62
     7
100
AcDbEllipse
 10
-56.07724816157903
 20
-5.088804639999992
 30
0.0
 11
-77.0
 21
8.881784197001251E-15
 31
0.0
210
0.0
220
0.0
230
1.0
 40
0.7987012987
 41
4.587388384444861
 42
4.698102780145708
  0
ELLIPSE
  5
2A2
330
1F
100
AcDbEntity
  8
0
  6
CONTINUOUS
 62
     7
100
AcDbEllipse
 10
-56.07724816157903
 20
-5.088804639999992
 30
0.0
 11
-77.0
 21
8.881784197001251E-15
 31
0.0
210
0.0
220
0.0
230
1.0
 40
0.7987012987
 41
5.008923555747975
 42
5.220192797229095
  0
ELLIPSE
  5
2A3
330
1F
100
AcDbEntity
  8
0
  6
CONTINUOUS
 62
     7
100
AcDbEllipse
 10
-56.07724816157903
 20
-5.088804639999992
 30
0.0
 11
-73.0
 21
8.881784197001252E-15
 31
0.0
210
0.0
220
0.0
230
1.0
 40
0.7876712329000001
 41
4.241372239915416
 42
5.183405460779968
  0
ELLIPSE
  5
2A4
330
1F
100
AcDbEntity
  8
0
  6
CONTINUOUS
 62
     7
100
AcDbEllipse
 10
-56.07724816157903
 20
-5.088804639999992
 30
0.0
 11
-77.0
 21
8.881784197001251E-15
 31
0.0
210
0.0
220
0.0
230
1.0
 40
0.7987012987
 41
4.204585704391388
 42
4.415854405021427
  0
ELLIPSE
  5
2A5
330
1F
100
AcDbEntity
  8
0
  6
CONTINUOUS
 62
     7
100
AcDbEllipse
 10
-56.07724816157903
 20
-5.088804639999992
 30
0.0
 11
-77.0
 21
8.881784197001251E-15
 31
0.0
210
0.0
220
0.0
230
1.0
 40
0.7987012987
 41
4.445598979944723
 42
4.558535975846254
  0
LINE
  5
2A6
330
1F
100
AcDbEntity
  8
0
  6
CONTINUOUS
 62
     7
100
AcDbLine
 10
23.02275183842096
 20
-14.08880463999999
 30
0.0
 11
23.02275183842096
 21
-4.617134626500004
 31
0.0
  0
LINE
  5
2A7
330
1F
100
AcDbEntity
  8
0
  6
CONTINUOUS
 62
     7
100
AcDbLine
 10
-135.177248161579
 20
-14.08880463999999
 30
0.0
 11
-135.177248161579
 21
-4.617134626500004
 31
0.0
  0
LINE
  5
2A8
330
1F
100
AcDbEntity
  8
0
  6
CONTINUOUS
 62
     7
100
AcDbLine
 10
-134.677248161579
 20
-14.58880463999999
 30
0.0
 11
22.52275183842096
 21
-14.58880463999999
 31
0.0
  0
ARC
  5
2A9
330
1F
100
AcDbEntity
  8
0
  6
CONTINUOUS
 62
     7
100
AcDbCircle
 10
22.52275183842096
 20
-14.08880463999999
 30
0.0
 40
0.5
100
AcDbArc
 50
270.0
 51
0.0
  0
ARC
  5
2AA
330
1F
100
AcDbEntity
  8
0
  6
CONTINUOUS
 62
     7
100
AcDbCircle
 10
-134.677248161579
 20
-14.08880463999999
 30
0.0
 40
0.5
100
AcDbArc
 50
180.0
 51
270.0
  0
LINE
  5
2AB
330
1F
100
AcDbEntity
  8
0
  6
CONTINUOUS
 62
     7
100
AcDbLine
 10
-46.69641664187904
 20
-40.08880464000001
 30
0.0
 11
-65.45807968117904
 21
-40.08880464000001
 31
0.0
  0
LINE
  5
2AC
330
1F
100
AcDbEntity
  8
0
  6
CONTINUOUS
 62
     7
100
AcDbLine
 10
-43.88984810557903
 20
-42.32676574360001
 30
0.0
 11
-68.26464821757904
 21
-42.32676574360001
 31
0.0
  0
LINE
  5
2AD
330
1F
100
AcDbEntity
  8
0
  6
CONTINUOUS
 62
     7
100
AcDbLine
 10
-43.27724816157902
 20
-42.58880464000001
 30
0.0
 11
-43.27724816157902
 21
-54.35084353640001
 31
0.0
  0
LINE
  5
2AE
330
1F
100
AcDbEntity
  8
0
  6
CONTINUOUS
 62
     7
100
AcDbLine
 10
-38.12724816157902
 20
-42.58880464000001
 30
0.0
 11
-38.12724816157902
 21
-56.58880464000001
 31
0.0
  0
LINE
  5
2AF
330
1F
100
AcDbEntity
  8
0
  6
CONTINUOUS
 62
     7
100
AcDbLine
 10
-38.12724816157902
 20
-54.35084353640001
 30
0.0
 11
-74.02724816157902
 21
-54.35084353640001
 31
0.0
  0
LINE
  5
2B0
330
1F
100
AcDbEntity
  8
0
  6
CONTINUOUS
 62
     7
100
AcDbLine
 10
-38.12724816157902
 20
-56.58880464000001
 30
0.0
 11
-74.02724816157902
 21
-56.58880464000001
 31
0.0
  0
LINE
  5
2B1
330
1F
100
AcDbEntity
  8
0
  6
CONTINUOUS
 62
     7
100
AcDbLine
 10
-68.87724816157902
 20
-42.58880464000001
 30
0.0
 11
-68.87724816157902
 21
-54.35084353640001
 31
0.0
  0
LINE
  5
2B2
330
1F
100
AcDbEntity
  8
0
  6
CONTINUOUS
 62
     7
100
AcDbLine
 10
-74.02724816157902
 20
-42.58880464000001
 30
0.0
 11
-74.02724816157902
 21
-56.58880464000001
 31
0.0
  0
LINE
  5
2B3
330
1F
100
AcDbEntity
  8
0
  6
CONTINUOUS
 62
     7
100
AcDbLine
 10
-39.92724816157903
 20
-42.58880464000001
 30
0.0
 11
-39.92724816157903
 21
-51.88880464
 31
0.0
  0
LINE
  5
2B4
330
1F
100
AcDbEntity
  8
0
  6
CONTINUOUS
 62
     7
100
AcDbLine
 10
-38.12724816157902
 20
-51.88880464
 30
0.0
 11
-39.92724816157903
 21
-51.88880464
 31
0.0
  0
LINE
  5
2B5
330
1F
100
AcDbEntity
  8
0
  6
CONTINUOUS
 62
     7
100
AcDbLine
 10
-72.22724816157904
 20
-51.88880464
 30
0.0
 11
-74.02724816157902
 21
-51.88880464
 31
0.0
  0
LINE
  5
2B6
330
1F
100
AcDbEntity
  8
0
  6
CONTINUOUS
 62
     7
100
AcDbLine
 10
-72.22724816157904
 20
-42.58880464000001
 30
0.0
 11
-72.22724816157904
 21
-51.88880464
 31
0.0
  0
CIRCLE
  5
2B7
330
1F
100
AcDbEntity
  8
0
  6
CONTINUOUS
 62
     7
100
AcDbCircle
 10
-56.07724816157903
 20
-46.58880464000001
 30
0.0
 40
2.5
  0
LINE
  5
2B8
330
1F
100
AcDbEntity
  8
0
  6
CONTINUOUS
 62
     7
100
AcDbLine
 10
-135.072248161579
 20
-14.58880463999999
 30
0.0
 11
18.86775183842099
 21
-14.58880463999999
 31
0.0
  0
LINE
  5
2B9
330
1F
100
AcDbEntity
  8
0
  6
DIVIDE
 62
     7
100
AcDbLine
 10
-67.07724816157904
 20
75.41119536
 30
0.0
 11
-67.07724816157904
 21
85.41119536
 31
0.0
  0
LINE
  5
2BA
330
1F
100
AcDbEntity
  8
0
  6
DIVIDE
 62
     7
100
AcDbLine
 10
-67.07724816157904
 20
85.41119536
 30
0.0
 11
-45.07724816157903
 21
85.41119536
 31
0.0
  0
LINE
  5
2BB
330
1F
100
AcDbEntity
  8
0
  6
DIVIDE
 62
     7
100
AcDbLine
 10
-45.07724816157903
 20
85.41119536
 30
0.0
 11
-45.07724816157903
 21
75.41119536
 31
0.0
  0
CIRCLE
  5
2BC
330
1F
100
AcDbEntity
  8
0
  6
DIVIDE
 62
     7
100
AcDbCircle
 10
-27.50224816157902
 20
-16.98880463999999
 30
0.0
 40
0.8500000000000227
  0
CIRCLE
  5
2BD
330
1F
100
AcDbEntity
  8
0
  6
DIVIDE
 62
     7
100
AcDbCircle
 10
-80.84224816157902
 20
-16.98880463999999
 30
0.0
 40
0.8499999999999943
  0
LINE
  5
2BE
330
1F
100
AcDbEntity
  8
0
  6
DIVIDE
 62
     7
100
AcDbLine
 10
22.917751838421
 20
-23.38880464
 30
0.0
 11
22.917751838421
 21
-34.28880464
 31
0.0
  0
LINE
  5
2BF
330
1F
100
AcDbEntity
  8
0
  6
DIVIDE
 62
     7
100
AcDbLine
 10
7.437751838420979
 20
-24.88880464
 30
0.0
 11
7.437751838420979
 21
-34.28880464
 31
0.0
  0
LINE
  5
2C0
330
1F
100
AcDbEntity
  8
0
  6
DIVIDE
 62
     7
100
AcDbLine
 10
6.137751838420968
 20
-24.88880464
 30
0.0
 11
6.137751838420968
 21
-34.28880464
 31
0.0
  0
LINE
  5
2C1
330
1F
100
AcDbEntity
  8
0
  6
DIVIDE
 62
     7
100
AcDbLine
 10
6.137751838420968
 20
-24.88880464
 30
0.0
 11
7.437751838420979
 21
-24.88880464
 31
0.0
  0
LINE
  5
2C2
330
1F
100
AcDbEntity
  8
0
  6
DIVIDE
 62
     7
100
AcDbLine
 10
2.327751838420966
 20
-14.58880463999999
 30
0.0
 11
2.327751838420966
 21
-24.88880464
 31
0.0
  0
LINE
  5
2C3
330
1F
100
AcDbEntity
  8
0
  6
DIVIDE
 62
     7
100
AcDbLine
 10
15.05775183842098
 20
-24.88880464
 30
0.0
 11
15.05775183842098
 21
-34.28880464
 31
0.0
  0
LINE
  5
2C4
330
1F
100
AcDbEntity
  8
0
  6
DIVIDE
 62
     7
100
AcDbLine
 10
9.947751838420968
 20
-24.88880464
 30
0.0
 11
11.24775183842098
 21
-24.88880464
 31
0.0
  0
LINE
  5
2C5
330
1F
100
AcDbEntity
  8
0
  6
DIVIDE
 62
     7
100
AcDbLine
 10
11.24775183842098
 20
-14.58880463999999
 30
0.0
 11
11.24775183842098
 21
-24.88880464
 31
0.0
  0
LINE
  5
2C6
330
1F
100
AcDbEntity
  8
0
  6
DIVIDE
 62
     7
100
AcDbLine
 10
9.947751838420968
 20
-14.58880463999999
 30
0.0
 11
9.947751838420968
 21
-24.88880464
 31
0.0
  0
LINE
  5
2C7
330
1F
100
AcDbEntity
  8
0
  6
DIVIDE
 62
     7
100
AcDbLine
 10
13.75775183842097
 20
-24.88880464
 30
0.0
 11
13.75775183842097
 21
-34.28880464
 31
0.0
  0
LINE
  5
2C8
330
1F
100
AcDbEntity
  8
0
  6
DIVIDE
 62
     7
100
AcDbLine
 10
13.75775183842097
 20
-24.88880464
 30
0.0
 11
15.05775183842098
 21
-24.88880464
 31
0.0
  0
LINE
  5
2C9
330
1F
100
AcDbEntity
  8
0
  6
DIVIDE
 62
     7
100
AcDbLine
 10
18.86775183842099
 20
-14.58880463999999
 30
0.0
 11
18.86775183842099
 21
-24.88880464
 31
0.0
  0
LINE
  5
2CA
330
1F
100
AcDbEntity
  8
0
  6
DIVIDE
 62
     7
100
AcDbLine
 10
17.56775183842098
 20
-14.58880463999999
 30
0.0
 11
17.56775183842098
 21
-24.88880464
 31
0.0
  0
LINE
  5
2CB
330
1F
100
AcDbEntity
  8
0
  6
DIVIDE
 62
     7
100
AcDbLine
 10
21.37775183842098
 20
-23.38880464
 30
0.0
 11
21.37775183842098
 21
-34.28880464
 31
0.0
  0
LINE
  5
2CC
330
1F
100
AcDbEntity
  8
0
  6
DIVIDE
 62
     7
100
AcDbLine
 10
17.56775183842098
 20
-24.88880464
 30
0.0
 11
18.86775183842099
 21
-24.88880464
 31
0.0
  0
LINE
  5
2CD
330
1F
100
AcDbEntity
  8
0
  6
DIVIDE
 62
     7
100
AcDbLine
 10
22.917751838421
 20
-23.38880464
 30
0.0
 11
18.86775183842099
 21
-23.38880464
 31
0.0
  0
LINE
  5
2CE
330
1F
100
AcDbEntity
  8
0
  6
DIVIDE
 62
     7
100
AcDbLine
 10
2.327751838420966
 20
-24.88880464
 30
0.0
 11
3.627751838420977
 21
-24.88880464
 31
0.0
  0
LINE
  5
2CF
330
1F
100
AcDbEntity
  8
0
  6
DIVIDE
 62
     7
100
AcDbLine
 10
3.627751838420977
 20
-14.58880463999999
 30
0.0
 11
3.627751838420977
 21
-24.88880464
 31
0.0
  0
LINE
  5
2D0
330
1F
100
AcDbEntity
  8
0
  6
DIVIDE
 62
     7
100
AcDbLine
 10
-5.292248161579039
 20
-24.88880464
 30
0.0
 11
-3.992248161579028
 21
-24.88880464
 31
0.0
  0
LINE
  5
2D1
330
1F
100
AcDbEntity
  8
0
  6
DIVIDE
 62
     7
100
AcDbLine
 10
-1.482248161579036
 20
-24.88880464
 30
0.0
 11
-0.1822481615790252
 21
-24.88880464
 31
0.0
  0
LINE
  5
2D2
330
1F
100
AcDbEntity
  8
0
  6
DIVIDE
 62
     7
100
AcDbLine
 10
-1.482248161579036
 20
-24.88880464
 30
0.0
 11
-1.482248161579036
 21
-34.28880464
 31
0.0
  0
LINE
  5
2D3
330
1F
100
AcDbEntity
  8
0
  6
DIVIDE
 62
     7
100
AcDbLine
 10
-0.1822481615790252
 20
-24.88880464
 30
0.0
 11
-0.1822481615790252
 21
-34.28880464
 31
0.0
  0
LINE
  5
2D4
330
1F
100
AcDbEntity
  8
0
  6
DIVIDE
 62
     7
100
AcDbLine
 10
-3.992248161579028
 20
-14.58880463999999
 30
0.0
 11
-3.992248161579028
 21
-24.88880464
 31
0.0
  0
LINE
  5
2D5
330
1F
100
AcDbEntity
  8
0
  6
DIVIDE
 62
     7
100
AcDbLine
 10
-16.72224816157904
 20
-24.88880464
 30
0.0
 11
-16.72224816157904
 21
-34.28880464
 31
0.0
  0
LINE
  5
2D6
330
1F
100
AcDbEntity
  8
0
  6
DIVIDE
 62
     7
100
AcDbLine
 10
-16.72224816157904
 20
-24.88880464
 30
0.0
 11
-15.42224816157903
 21
-24.88880464
 31
0.0
  0
LINE
  5
2D7
330
1F
100
AcDbEntity
  8
0
  6
DIVIDE
 62
     7
100
AcDbLine
 10
-23.04224816157904
 20
-24.88880464
 30
0.0
 11
-23.04224816157904
 21
-34.28880464
 31
0.0
  0
LINE
  5
2D8
330
1F
100
AcDbEntity
  8
0
  6
DIVIDE
 62
     7
100
AcDbLine
 10
-24.34224816157905
 20
-24.88880464
 30
0.0
 11
-23.04224816157904
 21
-24.88880464
 31
0.0
  0
LINE
  5
2D9
330
1F
100
AcDbEntity
  8
0
  6
DIVIDE
 62
     7
100
AcDbLine
 10
-12.91224816157904
 20
-24.88880464
 30
0.0
 11
-11.61224816157903
 21
-24.88880464
 31
0.0
  0
LINE
  5
2DA
330
1F
100
AcDbEntity
  8
0
  6
DIVIDE
 62
     7
100
AcDbLine
 10
-15.42224816157903
 20
-24.88880464
 30
0.0
 11
-15.42224816157903
 21
-34.28880464
 31
0.0
  0
LINE
  5
2DB
330
1F
100
AcDbEntity
  8
0
  6
DIVIDE
 62
     7
100
AcDbLine
 10
-31.96224816157905
 20
-24.88880464
 30
0.0
 11
-30.66224816157904
 21
-24.88880464
 31
0.0
  0
LINE
  5
2DC
330
1F
100
AcDbEntity
  8
0
  6
DIVIDE
 62
     7
100
AcDbLine
 10
-20.53224816157905
 20
-24.88880464
 30
0.0
 11
-19.23224816157904
 21
-24.88880464
 31
0.0
  0
LINE
  5
2DD
330
1F
100
AcDbEntity
  8
0
  6
DIVIDE
 62
     7
100
AcDbLine
 10
-30.66224816157904
 20
-24.88880464
 30
0.0
 11
-30.66224816157904
 21
-34.28880464
 31
0.0
  0
LINE
  5
2DE
330
1F
100
AcDbEntity
  8
0
  6
DIVIDE
 62
     7
100
AcDbLine
 10
-31.96224816157905
 20
-24.88880464
 30
0.0
 11
-31.96224816157905
 21
-34.28880464
 31
0.0
  0
LINE
  5
2DF
330
1F
100
AcDbEntity
  8
0
  6
DIVIDE
 62
     7
100
AcDbLine
 10
-28.15224816157905
 20
-24.88880464
 30
0.0
 11
-26.85224816157904
 21
-24.88880464
 31
0.0
  0
LINE
  5
2E0
330
1F
100
AcDbEntity
  8
0
  6
DIVIDE
 62
     7
100
AcDbLine
 10
-24.34224816157905
 20
-24.88880464
 30
0.0
 11
-24.34224816157905
 21
-34.28880464
 31
0.0
  0
LINE
  5
2E1
330
1F
100
AcDbEntity
  8
0
  6
DIVIDE
 62
     7
100
AcDbLine
 10
-20.53224816157905
 20
-14.58880463999999
 30
0.0
 11
-20.53224816157905
 21
-24.88880464
 31
0.0
  0
LINE
  5
2E2
330
1F
100
AcDbEntity
  8
0
  6
DIVIDE
 62
     7
100
AcDbLine
 10
-19.23224816157904
 20
-14.58880463999999
 30
0.0
 11
-19.23224816157904
 21
-24.88880464
 31
0.0
  0
LINE
  5
2E3
330
1F
100
AcDbEntity
  8
0
  6
DIVIDE
 62
     7
100
AcDbLine
 10
-34.47224816157905
 20
-14.58880463999999
 30
0.0
 11
-34.47224816157905
 21
-24.88880464
 31
0.0
  0
LINE
  5
2E4
330
1F
100
AcDbEntity
  8
0
  6
DIVIDE
 62
     7
100
AcDbLine
 10
-26.85224816157904
 20
-14.58880463999999
 30
0.0
 11
-26.85224816157904
 21
-24.88880464
 31
0.0
  0
LINE
  5
2E5
330
1F
100
AcDbEntity
  8
0
  6
DIVIDE
 62
     7
100
AcDbLine
 10
-35.77224816157903
 20
-24.88880464
 30
0.0
 11
-34.47224816157905
 21
-24.88880464
 31
0.0
  0
LINE
  5
2E6
330
1F
100
AcDbEntity
  8
0
  6
DIVIDE
 62
     7
100
AcDbLine
 10
-51.01224816157904
 20
-24.88880464
 30
0.0
 11
-49.71224816157903
 21
-24.88880464
 31
0.0
  0
LINE
  5
2E7
330
1F
100
AcDbEntity
  8
0
  6
DIVIDE
 62
     7
100
AcDbLine
 10
-54.82224816157904
 20
-24.88880464
 30
0.0
 11
-53.52224816157903
 21
-24.88880464
 31
0.0
  0
LINE
  5
2E8
330
1F
100
AcDbEntity
  8
0
  6
DIVIDE
 62
     7
100
AcDbLine
 10
-54.82224816157904
 20
-24.88880464
 30
0.0
 11
-54.82224816157904
 21
-34.28880464
 31
0.0
  0
LINE
  5
2E9
330
1F
100
AcDbEntity
  8
0
  6
DIVIDE
 62
     7
100
AcDbLine
 10
-53.52224816157903
 20
-24.88880464
 30
0.0
 11
-53.52224816157903
 21
-34.28880464
 31
0.0
  0
LINE
  5
2EA
330
1F
100
AcDbEntity
  8
0
  6
DIVIDE
 62
     7
100
AcDbLine
 10
-12.91224816157904
 20
-14.58880463999999
 30
0.0
 11
-12.91224816157904
 21
-24.88880464
 31
0.0
  0
LINE
  5
2EB
330
1F
100
AcDbEntity
  8
0
  6
DIVIDE
 62
     7
100
AcDbLine
 10
-11.61224816157903
 20
-14.58880463999999
 30
0.0
 11
-11.61224816157903
 21
-24.88880464
 31
0.0
  0
LINE
  5
2EC
330
1F
100
AcDbEntity
  8
0
  6
DIVIDE
 62
     7
100
AcDbLine
 10
-28.15224816157905
 20
-14.58880463999999
 30
0.0
 11
-28.15224816157905
 21
-24.88880464
 31
0.0
  0
LINE
  5
2ED
330
1F
100
AcDbEntity
  8
0
  6
DIVIDE
 62
     7
100
AcDbLine
 10
-35.77224816157903
 20
-14.58880463999999
 30
0.0
 11
-35.77224816157903
 21
-24.88880464
 31
0.0
  0
LINE
  5
2EE
330
1F
100
AcDbEntity
  8
0
  6
DIVIDE
 62
     7
100
AcDbLine
 10
-49.71224816157903
 20
-14.58880463999999
 30
0.0
 11
-49.71224816157903
 21
-24.88880464
 31
0.0
  0
LINE
  5
2EF
330
1F
100
AcDbEntity
  8
0
  6
DIVIDE
 62
     7
100
AcDbLine
 10
-51.01224816157904
 20
-14.58880463999999
 30
0.0
 11
-51.01224816157904
 21
-24.88880464
 31
0.0
  0
LINE
  5
2F0
330
1F
100
AcDbEntity
  8
0
  6
DIVIDE
 62
     7
100
AcDbLine
 10
-57.33224816157903
 20
-14.58880463999999
 30
0.0
 11
-57.33224816157903
 21
-24.88880464
 31
0.0
  0
LINE
  5
2F1
330
1F
100
AcDbEntity
  8
0
  6
DIVIDE
 62
     7
100
AcDbLine
 10
-5.292248161579039
 20
-14.58880463999999
 30
0.0
 11
-5.292248161579039
 21
-24.88880464
 31
0.0
  0
LINE
  5
2F2
330
1F
100
AcDbEntity
  8
0
  6
DIVIDE
 62
     7
100
AcDbLine
 10
-43.39224816157903
 20
-24.88880464
 30
0.0
 11
-42.09224816157902
 21
-24.88880464
 31
0.0
  0
LINE
  5
2F3
330
1F
100
AcDbEntity
  8
0
  6
DIVIDE
 62
     7
100
AcDbLine
 10
-47.20224816157903
 20
-24.88880464
 30
0.0
 11
-47.20224816157903
 21
-34.28880464
 31
0.0
  0
LINE
  5
2F4
330
1F
100
AcDbEntity
  8
0
  6
DIVIDE
 62
     7
100
AcDbLine
 10
-45.90224816157902
 20
-24.88880464
 30
0.0
 11
-45.90224816157902
 21
-34.28880464
 31
0.0
  0
LINE
  5
2F5
330
1F
100
AcDbEntity
  8
0
  6
DIVIDE
 62
     7
100
AcDbLine
 10
-47.20224816157903
 20
-24.88880464
 30
0.0
 11
-45.90224816157902
 21
-24.88880464
 31
0.0
  0
LINE
  5
2F6
330
1F
100
AcDbEntity
  8
0
  6
DIVIDE
 62
     7
100
AcDbLine
 10
-39.58224816157903
 20
-24.88880464
 30
0.0
 11
-39.58224816157903
 21
-34.28880464
 31
0.0
  0
LINE
  5
2F7
330
1F
100
AcDbEntity
  8
0
  6
DIVIDE
 62
     7
100
AcDbLine
 10
-38.28224816157902
 20
-24.88880464
 30
0.0
 11
-38.28224816157902
 21
-34.28880464
 31
0.0
  0
LINE
  5
2F8
330
1F
100
AcDbEntity
  8
0
  6
DIVIDE
 62
     7
100
AcDbLine
 10
-39.58224816157903
 20
-24.88880464
 30
0.0
 11
-38.28224816157902
 21
-24.88880464
 31
0.0
  0
LINE
  5
2F9
330
1F
100
AcDbEntity
  8
0
  6
DIVIDE
 62
     7
100
AcDbLine
 10
-42.09224816157902
 20
-14.58880463999999
 30
0.0
 11
-42.09224816157902
 21
-24.88880464
 31
0.0
  0
LINE
  5
2FA
330
1F
100
AcDbEntity
  8
0
  6
DIVIDE
 62
     7
100
AcDbLine
 10
-43.39224816157903
 20
-14.58880463999999
 30
0.0
 11
-43.39224816157903
 21
-24.88880464
 31
0.0
  0
LINE
  5
2FB
330
1F
100
AcDbEntity
  8
0
  6
DIVIDE
 62
     7
100
AcDbLine
 10
-62.44224816157904
 20
-24.88880464
 30
0.0
 11
-61.14224816157903
 21
-24.88880464
 31
0.0
  0
LINE
  5
2FC
330
1F
100
AcDbEntity
  8
0
  6
DIVIDE
 62
     7
100
AcDbLine
 10
-61.14224816157903
 20
-24.88880464
 30
0.0
 11
-61.14224816157903
 21
-34.28880464
 31
0.0
  0
LINE
  5
2FD
330
1F
100
AcDbEntity
  8
0
  6
DIVIDE
 62
     7
100
AcDbLine
 10
-62.44224816157904
 20
-24.88880464
 30
0.0
 11
-62.44224816157904
 21
-34.28880464
 31
0.0
  0
LINE
  5
2FE
330
1F
100
AcDbEntity
  8
0
  6
DIVIDE
 62
     7
100
AcDbLine
 10
-58.63224816157904
 20
-24.88880464
 30
0.0
 11
-57.33224816157903
 21
-24.88880464
 31
0.0
  0
LINE
  5
2FF
330
1F
100
AcDbEntity
  8
0
  6
DIVIDE
 62
     7
100
AcDbLine
 10
-58.63224816157904
 20
-14.58880463999999
 30
0.0
 11
-58.63224816157904
 21
-24.88880464
 31
0.0
  0
LINE
  5
300
330
1F
100
AcDbEntity
  8
0
  6
DIVIDE
 62
     7
100
AcDbLine
 10
-9.102248161579041
 20
-24.88880464
 30
0.0
 11
-7.80224816157903
 21
-24.88880464
 31
0.0
  0
LINE
  5
301
330
1F
100
AcDbEntity
  8
0
  6
DIVIDE
 62
     7
100
AcDbLine
 10
-7.80224816157903
 20
-24.88880464
 30
0.0
 11
-7.80224816157903
 21
-34.28880464
 31
0.0
  0
LINE
  5
302
330
1F
100
AcDbEntity
  8
0
  6
DIVIDE
 62
     7
100
AcDbLine
 10
-9.102248161579041
 20
-24.88880464
 30
0.0
 11
-9.102248161579041
 21
-34.28880464
 31
0.0
  0
LINE
  5
303
330
1F
100
AcDbEntity
  8
0
  6
DIVIDE
 62
     7
100
AcDbLine
 10
-68.76224816157904
 20
-24.88880464
 30
0.0
 11
-68.76224816157904
 21
-34.28880464
 31
0.0
  0
LINE
  5
304
330
1F
100
AcDbEntity
  8
0
  6
DIVIDE
 62
     7
100
AcDbLine
 10
-66.25224816157902
 20
-14.58880463999999
 30
0.0
 11
-66.25224816157902
 21
-24.88880464
 31
0.0
  0
LINE
  5
305
330
1F
100
AcDbEntity
  8
0
  6
DIVIDE
 62
     7
100
AcDbLine
 10
-64.95224816157904
 20
-14.58880463999999
 30
0.0
 11
-64.95224816157904
 21
-24.88880464
 31
0.0
  0
LINE
  5
306
330
1F
100
AcDbEntity
  8
0
  6
DIVIDE
 62
     7
100
AcDbLine
 10
-66.25224816157902
 20
-24.88880464
 30
0.0
 11
-64.95224816157904
 21
-24.88880464
 31
0.0
  0
LINE
  5
307
330
1F
100
AcDbEntity
  8
0
  6
DIVIDE
 62
     7
100
AcDbLine
 10
-77.68224816157903
 20
-24.88880464
 30
0.0
 11
-76.38224816157904
 21
-24.88880464
 31
0.0
  0
LINE
  5
308
330
1F
100
AcDbEntity
  8
0
  6
DIVIDE
 62
     7
100
AcDbLine
 10
-73.87224816157902
 20
-14.58880463999999
 30
0.0
 11
-73.87224816157902
 21
-24.88880464
 31
0.0
  0
LINE
  5
309
330
1F
100
AcDbEntity
  8
0
  6
DIVIDE
 62
     7
100
AcDbLine
 10
-84.00224816157902
 20
-24.88880464
 30
0.0
 11
-84.00224816157902
 21
-34.28880464
 31
0.0
  0
LINE
  5
30A
330
1F
100
AcDbEntity
  8
0
  6
DIVIDE
 62
     7
100
AcDbLine
 10
-76.38224816157904
 20
-24.88880464
 30
0.0
 11
-76.38224816157904
 21
-34.28880464
 31
0.0
  0
LINE
  5
30B
330
1F
100
AcDbEntity
  8
0
  6
DIVIDE
 62
     7
100
AcDbLine
 10
-77.68224816157903
 20
-24.88880464
 30
0.0
 11
-77.68224816157903
 21
-34.28880464
 31
0.0
  0
LINE
  5
30C
330
1F
100
AcDbEntity
  8
0
  6
DIVIDE
 62
     7
100
AcDbLine
 10
-89.11224816157903
 20
-14.58880463999999
 30
0.0
 11
-89.11224816157903
 21
-24.88880464
 31
0.0
  0
LINE
  5
30D
330
1F
100
AcDbEntity
  8
0
  6
DIVIDE
 62
     7
100
AcDbLine
 10
-81.49224816157903
 20
-24.88880464
 30
0.0
 11
-80.19224816157904
 21
-24.88880464
 31
0.0
  0
LINE
  5
30E
330
1F
100
AcDbEntity
  8
0
  6
DIVIDE
 62
     7
100
AcDbLine
 10
-85.30224816157903
 20
-24.88880464
 30
0.0
 11
-84.00224816157902
 21
-24.88880464
 31
0.0
  0
LINE
  5
30F
330
1F
100
AcDbEntity
  8
0
  6
DIVIDE
 62
     7
100
AcDbLine
 10
-92.92224816157903
 20
-24.88880464
 30
0.0
 11
-92.92224816157903
 21
-34.28880464
 31
0.0
  0
LINE
  5
310
330
1F
100
AcDbEntity
  8
0
  6
DIVIDE
 62
     7
100
AcDbLine
 10
-91.62224816157902
 20
-24.88880464
 30
0.0
 11
-91.62224816157902
 21
-34.28880464
 31
0.0
  0
LINE
  5
311
330
1F
100
AcDbEntity
  8
0
  6
DIVIDE
 62
     7
100
AcDbLine
 10
-92.92224816157903
 20
-24.88880464
 30
0.0
 11
-91.62224816157902
 21
-24.88880464
 31
0.0
  0
LINE
  5
312
330
1F
100
AcDbEntity
  8
0
  6
DIVIDE
 62
     7
100
AcDbLine
 10
-100.542248161579
 20
-24.88880464
 30
0.0
 11
-99.24224816157903
 21
-24.88880464
 31
0.0
  0
LINE
  5
313
330
1F
100
AcDbEntity
  8
0
  6
DIVIDE
 62
     7
100
AcDbLine
 10
-99.24224816157903
 20
-24.88880464
 30
0.0
 11
-99.24224816157903
 21
-34.28880464
 31
0.0
  0
LINE
  5
314
330
1F
100
AcDbEntity
  8
0
  6
DIVIDE
 62
     7
100
AcDbLine
 10
-89.11224816157903
 20
-24.88880464
 30
0.0
 11
-87.81224816157902
 21
-24.88880464
 31
0.0
  0
LINE
  5
315
330
1F
100
AcDbEntity
  8
0
  6
DIVIDE
 62
     7
100
AcDbLine
 10
-85.30224816157903
 20
-24.88880464
 30
0.0
 11
-85.30224816157903
 21
-34.28880464
 31
0.0
  0
LINE
  5
316
330
1F
100
AcDbEntity
  8
0
  6
DIVIDE
 62
     7
100
AcDbLine
 10
-96.73224816157904
 20
-14.58880463999999
 30
0.0
 11
-96.73224816157904
 21
-24.88880464
 31
0.0
  0
LINE
  5
317
330
1F
100
AcDbEntity
  8
0
  6
DIVIDE
 62
     7
100
AcDbLine
 10
-115.782248161579
 20
-24.88880464
 30
0.0
 11
-114.482248161579
 21
-24.88880464
 31
0.0
  0
LINE
  5
318
330
1F
100
AcDbEntity
  8
0
  6
DIVIDE
 62
     7
100
AcDbLine
 10
-108.162248161579
 20
-24.88880464
 30
0.0
 11
-108.162248161579
 21
-34.28880464
 31
0.0
  0
LINE
  5
319
330
1F
100
AcDbEntity
  8
0
  6
DIVIDE
 62
     7
100
AcDbLine
 10
-106.862248161579
 20
-24.88880464
 30
0.0
 11
-106.862248161579
 21
-34.28880464
 31
0.0
  0
LINE
  5
31A
330
1F
100
AcDbEntity
  8
0
  6
DIVIDE
 62
     7
100
AcDbLine
 10
-114.482248161579
 20
-24.88880464
 30
0.0
 11
-114.482248161579
 21
-34.28880464
 31
0.0
  0
LINE
  5
31B
330
1F
100
AcDbEntity
  8
0
  6
DIVIDE
 62
     7
100
AcDbLine
 10
-119.592248161579
 20
-24.88880464
 30
0.0
 11
-118.292248161579
 21
-24.88880464
 31
0.0
  0
LINE
  5
31C
330
1F
100
AcDbEntity
  8
0
  6
DIVIDE
 62
     7
100
AcDbLine
 10
-108.162248161579
 20
-24.88880464
 30
0.0
 11
-106.862248161579
 21
-24.88880464
 31
0.0
  0
LINE
  5
31D
330
1F
100
AcDbEntity
  8
0
  6
DIVIDE
 62
     7
100
AcDbLine
 10
-115.782248161579
 20
-24.88880464
 30
0.0
 11
-115.782248161579
 21
-34.28880464
 31
0.0
  0
LINE
  5
31E
330
1F
100
AcDbEntity
  8
0
  6
DIVIDE
 62
     7
100
AcDbLine
 10
-104.352248161579
 20
-24.88880464
 30
0.0
 11
-103.052248161579
 21
-24.88880464
 31
0.0
  0
LINE
  5
31F
330
1F
100
AcDbEntity
  8
0
  6
DIVIDE
 62
     7
100
AcDbLine
 10
-100.542248161579
 20
-24.88880464
 30
0.0
 11
-100.542248161579
 21
-34.28880464
 31
0.0
  0
LINE
  5
320
330
1F
100
AcDbEntity
  8
0
  6
DIVIDE
 62
     7
100
AcDbLine
 10
-95.43224816157903
 20
-14.58880463999999
 30
0.0
 11
-95.43224816157903
 21
-24.88880464
 31
0.0
  0
LINE
  5
321
330
1F
100
AcDbEntity
  8
0
  6
DIVIDE
 62
     7
100
AcDbLine
 10
-125.912248161579
 20
-14.58880463999999
 30
0.0
 11
-125.912248161579
 21
-24.88880464
 31
0.0
  0
LINE
  5
322
330
1F
100
AcDbEntity
  8
0
  6
DIVIDE
 62
     7
100
AcDbLine
 10
-110.672248161579
 20
-14.58880463999999
 30
0.0
 11
-110.672248161579
 21
-24.88880464
 31
0.0
  0
LINE
  5
323
330
1F
100
AcDbEntity
  8
0
  6
DIVIDE
 62
     7
100
AcDbLine
 10
-118.292248161579
 20
-14.58880463999999
 30
0.0
 11
-118.292248161579
 21
-24.88880464
 31
0.0
  0
LINE
  5
324
330
1F
100
AcDbEntity
  8
0
  6
DIVIDE
 62
     7
100
AcDbLine
 10
-119.592248161579
 20
-14.58880463999999
 30
0.0
 11
-119.592248161579
 21
-24.88880464
 31
0.0
  0
LINE
  5
325
330
1F
100
AcDbEntity
  8
0
  6
DIVIDE
 62
     7
100
AcDbLine
 10
-111.972248161579
 20
-14.58880463999999
 30
0.0
 11
-111.972248161579
 21
-24.88880464
 31
0.0
  0
LINE
  5
326
330
1F
100
AcDbEntity
  8
0
  6
DIVIDE
 62
     7
100
AcDbLine
 10
-103.052248161579
 20
-14.58880463999999
 30
0.0
 11
-103.052248161579
 21
-24.88880464
 31
0.0
  0
LINE
  5
327
330
1F
100
AcDbEntity
  8
0
  6
DIVIDE
 62
     7
100
AcDbLine
 10
-104.352248161579
 20
-14.58880463999999
 30
0.0
 11
-104.352248161579
 21
-24.88880464
 31
0.0
  0
LINE
  5
328
330
1F
100
AcDbEntity
  8
0
  6
DIVIDE
 62
     7
100
AcDbLine
 10
-81.49224816157903
 20
-14.58880463999999
 30
0.0
 11
-81.49224816157903
 21
-24.88880464
 31
0.0
  0
LINE
  5
329
330
1F
100
AcDbEntity
  8
0
  6
DIVIDE
 62
     7
100
AcDbLine
 10
-80.19224816157904
 20
-14.58880463999999
 30
0.0
 11
-80.19224816157904
 21
-24.88880464
 31
0.0
  0
LINE
  5
32A
330
1F
100
AcDbEntity
  8
0
  6
DIVIDE
 62
     7
100
AcDbLine
 10
-87.81224816157902
 20
-14.58880463999999
 30
0.0
 11
-87.81224816157902
 21
-24.88880464
 31
0.0
  0
LINE
  5
32B
330
1F
100
AcDbEntity
  8
0
  6
DIVIDE
 62
     7
100
AcDbLine
 10
-96.73224816157904
 20
-24.88880464
 30
0.0
 11
-95.43224816157903
 21
-24.88880464
 31
0.0
  0
LINE
  5
32C
330
1F
100
AcDbEntity
  8
0
  6
DIVIDE
 62
     7
100
AcDbLine
 10
-111.972248161579
 20
-24.88880464
 30
0.0
 11
-110.672248161579
 21
-24.88880464
 31
0.0
  0
LINE
  5
32D
330
1F
100
AcDbEntity
  8
0
  6
DIVIDE
 62
     7
100
AcDbLine
 10
-123.402248161579
 20
-24.88880464
 30
0.0
 11
-122.102248161579
 21
-24.88880464
 31
0.0
  0
LINE
  5
32E
330
1F
100
AcDbEntity
  8
0
  6
DIVIDE
 62
     7
100
AcDbLine
 10
-127.212248161579
 20
-24.88880464
 30
0.0
 11
-125.912248161579
 21
-24.88880464
 31
0.0
  0
LINE
  5
32F
330
1F
100
AcDbEntity
  8
0
  6
DIVIDE
 62
     7
100
AcDbLine
 10
-123.402248161579
 20
-24.88880464
 30
0.0
 11
-123.402248161579
 21
-34.28880464
 31
0.0
  0
LINE
  5
330
330
1F
100
AcDbEntity
  8
0
  6
DIVIDE
 62
     7
100
AcDbLine
 10
-122.102248161579
 20
-24.88880464
 30
0.0
 11
-122.102248161579
 21
-34.28880464
 31
0.0
  0
LINE
  5
331
330
1F
100
AcDbEntity
  8
0
  6
DIVIDE
 62
     7
100
AcDbLine
 10
-73.87224816157902
 20
-24.88880464
 30
0.0
 11
-72.57224816157904
 21
-24.88880464
 31
0.0
  0
LINE
  5
332
330
1F
100
AcDbEntity
  8
0
  6
DIVIDE
 62
     7
100
AcDbLine
 10
-72.57224816157904
 20
-14.58880463999999
 30
0.0
 11
-72.57224816157904
 21
-24.88880464
 31
0.0
  0
LINE
  5
333
330
1F
100
AcDbEntity
  8
0
  6
DIVIDE
 62
     7
100
AcDbLine
 10
-70.06224816157902
 20
-24.88880464
 30
0.0
 11
-70.06224816157902
 21
-34.28880464
 31
0.0
  0
LINE
  5
334
330
1F
100
AcDbEntity
  8
0
  6
DIVIDE
 62
     7
100
AcDbLine
 10
-70.06224816157902
 20
-24.88880464
 30
0.0
 11
-68.76224816157904
 21
-24.88880464
 31
0.0
  0
LINE
  5
335
330
1F
100
AcDbEntity
  8
0
  6
DIVIDE
 62
     7
100
AcDbLine
 10
-131.022248161579
 20
-24.88880464
 30
0.0
 11
-131.022248161579
 21
-34.28880464
 31
0.0
  0
LINE
  5
336
330
1F
100
AcDbEntity
  8
0
  6
DIVIDE
 62
     7
100
AcDbLine
 10
-129.722248161579
 20
-24.88880464
 30
0.0
 11
-129.722248161579
 21
-34.28880464
 31
0.0
  0
LINE
  5
337
330
1F
100
AcDbEntity
  8
0
  6
DIVIDE
 62
     7
100
AcDbLine
 10
-131.022248161579
 20
-24.88880464
 30
0.0
 11
-129.722248161579
 21
-24.88880464
 31
0.0
  0
LINE
  5
338
330
1F
100
AcDbEntity
  8
0
  6
DIVIDE
 62
     7
100
AcDbLine
 10
-127.212248161579
 20
-14.58880463999999
 30
0.0
 11
-127.212248161579
 21
-24.88880464
 31
0.0
  0
LINE
  5
339
330
1F
100
AcDbEntity
  8
0
  6
DIVIDE
 62
     7
100
AcDbLine
 10
-135.072248161579
 20
-14.58880463999999
 30
0.0
 11
-135.072248161579
 21
-24.88880464
 31
0.0
  0
LINE
  5
33A
330
1F
100
AcDbEntity
  8
0
  6
DIVIDE
 62
     7
100
AcDbLine
 10
-135.072248161579
 20
-24.88880464
 30
0.0
 11
-131.022248161579
 21
-24.88880464
 31
0.0
  0
LINE
  5
33B
330
1F
100
AcDbEntity
  8
0
  6
DIVIDE
 62
     7
100
AcDbLine
 10
-131.022248161579
 20
-34.28880464
 30
0.0
 11
22.917751838421
 21
-34.28880464
 31
0.0
  0
TEXT
  5
33D
330
1F
100
AcDbEntity
  8
0
 62
     7
100
AcDbText
 10
134.242748161621
 20
-85.41119536
 30
0.0
 40
7.4083333333
  1
000
 41
0.4642105263157901
  7
DCSTYLE0
 72
     5
 11
143.577248161579
 21
-85.41119536
 31
0.0
100
AcDbText
  0
VIEWPORT
  5
AD
330
1B
100
AcDbEntity
 67
     1
  8
0
100
AcDbViewport
 10
-4.037249999979025
 20
0.0
 30
0.0
 40
837.2399889696001
 41
512.46717216
 68
     1
 69
     1
1001
ACAD
1000
MVIEW
1002
{
1070
    16
1010
0.0
1020
0.0
1030
0.0
1010
0.0
1020
0.0
1030
1.0
1040
0.0
1040
512.46717216
1040
-4.037249999979025
1040
0.0
1040
50.0
1040
0.0
1040
0.0
1070
     0
1070
   100
1070
     0
1070
     3
1070
     0
1070
     0
1070
     0
1070
     0
1040
0.0
1040
0.0
1040
0.0
1040
0.5
1040
0.5
1040
0.0
1040
0.0
1070
     0
1002
{
1002
}
1002
}
  0
ENDSEC
  0
SECTION
  2
OBJECTS
  0
DICTIONARY
  5
C
330
0
100
AcDbDictionary
  3
ACAD_GROUP
350
D
  3
ACAD_LAYOUT
350
1A
  3
ACAD_MATERIAL
350
43
  3
ACAD_MLEADERSTYLE
350
361
  3
ACAD_MLINESTYLE
350
17
  3
ACAD_PLOTSETTINGS
350
19
  3
ACAD_SCALELIST
350
47
  3
ACAD_VISUALSTYLE
350
2A
  3
ACDBHEADERROUNDTRIPXREC
350
33E
  3
ACDBVARIABLEDICTIONARY
350
35F
  0
DICTIONARY
  5
366
330
8
100
AcDbDictionary
280
     1
  3
ACAD_XREC_ROUNDTRIP
360
367
  0
DICTIONARY
  5
D
102
{ACAD_REACTORS
330
C
102
}
330
C
100
AcDbDictionary
  0
DICTIONARY
  5
1A
102
{ACAD_REACTORS
330
C
102
}
330
C
100
AcDbDictionary
  0
DICTIONARY
  5
43
102
{ACAD_REACTORS
330
C
102
}
330
C
100
AcDbDictionary
  3
BYBLOCK
350
45
  3
BYLAYER
350
44
  3
GLOBAL
350
46
  0
DICTIONARY
  5
361
102
{ACAD_REACTORS
330
C
102
}
330
C
100
AcDbDictionary
  0
DICTIONARY
  5
17
102
{ACAD_REACTORS
330
C
102
}
330
C
100
AcDbDictionary
  3
STANDARD
350
18
  0
DICTIONARY
  5
19
102
{ACAD_REACTORS
330
C
102
}
330
C
100
AcDbDictionary
  0
DICTIONARY
  5
47
102
{ACAD_REACTORS
330
C
102
}
330
C
100
AcDbDictionary
  3
A0
350
48
  3
A1
350
49
  3
A2
350
4A
  3
A3
350
4B
  3
A4
350
4C
  3
A5
350
4D
  3
A6
350
4E
  3
A7
350
4F
  3
A8
350
50
  3
A9
350
51
  3
B0
350
52
  3
B1
350
53
  3
B2
350
54
  3
B3
350
55
  3
B4
350
56
  3
B5
350
57
  3
B6
350
58
  3
B7
350
59
  3
B8
350
5A
  3
B9
350
5B
  3
C0
350
5C
  3
C1
350
5D
  3
C2
350
5E
  3
C3
350
5F
  3
C4
350
60
  3
C5
350
61
  3
C6
350
62
  3
C7
350
63
  3
C8
350
64
  3
C9
350
65
  3
D0
350
66
  3
D1
350
67
  3
D2
350
68
  0
DICTIONARY
  5
2A
102
{ACAD_REACTORS
330
C
102
}
330
C
100
AcDbDictionary
  3
2DWIREFRAME
350
2F
  3
BASIC
350
32
  3
BRIGHTEN
350
36
  3
COLORCHANGE
350
3A
  3
CONCEPTUAL
350
34
  3
DIM
350
35
  3
EDGECOLOROFF
350
3D
  3
FACEPATTERN
350
39
  3
FLAT
350
2B
  3
FLATWITHEDGES
350
2C
  3
GOURAUD
350
2D
  3
GOURAUDWITHEDGES
350
2E
  3
HIDDEN
350
31
  3
JITTEROFF
350
3B
  3
LINEPATTERN
350
38
  3
OVERHANGOFF
350
3C
  3
REALISTIC
350
33
  3
SHADED
350
42
  3
SHADED_WITH_EDGES
350
41
  3
SHADES_OF_GRAY
350
3E
  3
SKETCHY
350
3F
  3
THICKEN
350
37
  3
WIREFRAME
350
30
  3
X-RAY
350
40
  0
DICTIONARY
  5
33E
102
{ACAD_REACTORS
330
C
102
}
330
C
100
AcDbDictionary
  3
CEPSNID
350
348
  3
CEPSNTYPE
350
347
  3
DIMSTYLEDATA
350
35E
  3
FINGERPRINTGUID
350
349
  3
HYPERLINKBASE
350
341
  3
INSUNITS
350
346
  3
LAYOUTDICT
350
343
  3
LWETCUNION
350
345
  3
PLOTSETDICT
350
344
  3
PSVPSCALE
350
34B
  3
PUCSBASE
350
34E
  3
PUCSORGBACK
350
354
  3
PUCSORGBOTTOM
350
350
  3
PUCSORGFRONT
350
353
  3
PUCSORGLEFT
350
351
  3
PUCSORGRIGHT
350
352
  3
PUCSORGTOP
350
34F
  3
PUCSORTHOREF
350
34C
  3
PUCSORTHOVIEW
350
34D
  3
STYLESHEET
350
342
  3
TSTACKALIGN
350
33F
  3
TSTACKSIZE
350
340
  3
UCSBASE
350
357
  3
UCSORGBACK
350
35D
  3
UCSORGBOTTOM
350
359
  3
UCSORGFRONT
350
35C
  3
UCSORGLEFT
350
35A
  3
UCSORGRIGHT
350
35B
  3
UCSORGTOP
350
358
  3
UCSORTHOREF
350
355
  3
UCSORTHOVIEW
350
356
  3
VERSIONGUID
350
34A
  0
DICTIONARY
  5
35F
102
{ACAD_REACTORS
330
C
102
}
330
C
100
AcDbDictionary
  3
CANNOSCALE
350
368
  3
DIMASSOC
350
364
  3
HIDETEXT
350
365
  3
MSLTSCALE
350
369
  0
XRECORD
  5
367
102
{ACAD_REACTORS
330
366
102
}
330
366
100
AcDbXrecord
102
VTR_0.000_0.000_1.000_1.000_GRIDDISPLAY
 70
     3
102
VTR_0.000_0.000_1.000_1.000_GRIDMAJOR
 70
     5
102
VTR_0.000_0.000_1.000_1.000_DEFAULTLIGHTING
280
     1
102
VTR_0.000_0.000_1.000_1.000_DEFAULTLIGHTINGTYPE
 70
     1
102
VTR_0.000_0.000_1.000_1.000_BRIGHTNESS
141
0.0
102
VTR_0.000_0.000_1.000_1.000_CONTRAST
142
0.0
  0
MATERIAL
  5
45
102
{ACAD_REACTORS
330
43
102
}
102
{ACAD_XDICTIONARY
360
36C
102
}
330
43
100
AcDbMaterial
  1
BYBLOCK
  0
MATERIAL
  5
44
102
{ACAD_REACTORS
330
43
102
}
102
{ACAD_XDICTIONARY
360
36A
102
}
330
43
100
AcDbMaterial
  1
BYLAYER
  0
MATERIAL
  5
46
102
{ACAD_REACTORS
330
43
102
}
102
{ACAD_XDICTIONARY
360
36E
102
}
330
43
100
AcDbMaterial
  1
GLOBAL
  0
MLINESTYLE
  5
18
102
{ACAD_REACTORS
330
17
102
}
330
17
100
AcDbMlineStyle
  2
Standard
 70
     0
  3

 62
   256
 51
90.0
 52
90.0
 71
     2
 49
0.5
 62
   256
  6
BYLAYER
 49
-0.5
 62
   256
  6
BYLAYER
  0
ACAD_PROXY_OBJECT
  5
48
102
{ACAD_REACTORS
330
47
102
}
330
47
100
AcDbProxyObject
 90
      499
 91
      503
 93
       41
310
903313A31580
  0
ACAD_PROXY_OBJECT
  5
49
102
{ACAD_REACTORS
330
47
102
}
330
47
100
AcDbProxyObject
 90
      499
 91
      503
 93
      105
310
903313A324000000000000004000
  0
ACAD_PROXY_OBJECT
  5
4A
102
{ACAD_REACTORS
330
47
102
}
330
47
100
AcDbProxyObject
 90
      499
 91
      503
 93
      105
310
903313A344000000000000104000
  0
ACAD_PROXY_OBJECT
  5
4B
102
{ACAD_REACTORS
330
47
102
}
330
47
100
AcDbProxyObject
 90
      499
 91
      503
 93
      105
310
903313A354000000000000144000
  0
ACAD_PROXY_OBJECT
  5
4C
102
{ACAD_REACTORS
330
47
102
}
330
47
100
AcDbProxyObject
 90
      499
 91
      503
 93
      105
310
903313A384000000000000204000
  0
ACAD_PROXY_OBJECT
  5
4D
102
{ACAD_REACTORS
330
47
102
}
330
47
100
AcDbProxyObject
 90
      499
 91
      503
 93
      113
310
904313A31304000000000000244000
  0
ACAD_PROXY_OBJECT
  5
4E
102
{ACAD_REACTORS
330
47
102
}
330
47
100
AcDbProxyObject
 90
      499
 91
      503
 93
      113
310
904313A31364000000000000304000
  0
ACAD_PROXY_OBJECT
  5
4F
102
{ACAD_REACTORS
330
47
102
}
330
47
100
AcDbProxyObject
 90
      499
 91
      503
 93
      113
310
904313A32304000000000000344000
  0
ACAD_PROXY_OBJECT
  5
50
102
{ACAD_REACTORS
330
47
102
}
330
47
100
AcDbProxyObject
 90
      499
 91
      503
 93
      113
310
904313A333040000000000003E4000
  0
ACAD_PROXY_OBJECT
  5
51
102
{ACAD_REACTORS
330
47
102
}
330
47
100
AcDbProxyObject
 90
      499
 91
      503
 93
      113
310
904313A34304000000000000444000
  0
ACAD_PROXY_OBJECT
  5
52
102
{ACAD_REACTORS
330
47
102
}
330
47
100
AcDbProxyObject
 90
      499
 91
      503
 93
      113
310
904313A35304000000000000494000
  0
ACAD_PROXY_OBJECT
  5
53
102
{ACAD_REACTORS
330
47
102
}
330
47
100
AcDbProxyObject
 90
      499
 91
      503
 93
      121
310
905313A3130304000000000000594000
  0
ACAD_PROXY_OBJECT
  5
54
102
{ACAD_REACTORS
330
47
102
}
330
47
100
AcDbProxyObject
 90
      499
 91
      503
 93
      105
310
903323A310000000000000010100
  0
ACAD_PROXY_OBJECT
  5
55
102
{ACAD_REACTORS
330
47
102
}
330
47
100
AcDbProxyObject
 90
      499
 91
      503
 93
      105
310
903343A310000000000000410100
  0
ACAD_PROXY_OBJECT
  5
56
102
{ACAD_REACTORS
330
47
102
}
330
47
100
AcDbProxyObject
 90
      499
 91
      503
 93
      105
310
903383A310000000000000810100
  0
ACAD_PROXY_OBJECT
  5
57
102
{ACAD_REACTORS
330
47
102
}
330
47
100
AcDbProxyObject
 90
      499
 91
      503
 93
      113
310
90431303A310000000000000910100
  0
ACAD_PROXY_OBJECT
  5
58
102
{ACAD_REACTORS
330
47
102
}
330
47
100
AcDbProxyObject
 90
      499
 91
      503
 93
      121
310
9053130303A310000000000001650100
  0
ACAD_PROXY_OBJECT
  5
59
102
{ACAD_REACTORS
330
47
102
}
330
47
100
AcDbProxyObject
 90
      499
 91
      503
 93
      257
310
90E312F31323822203D2031272D3022000000000000200FC000000000000284000
  0
ACAD_PROXY_OBJECT
  5
5A
102
{ACAD_REACTORS
330
47
102
}
330
47
100
AcDbProxyObject
 90
      499
 91
      503
 93
      249
310
90D312F363422203D2031272D3022000000000000240FC000000000000284000
  0
ACAD_PROXY_OBJECT
  5
5B
102
{ACAD_REACTORS
330
47
102
}
330
47
100
AcDbProxyObject
 90
      499
 91
      503
 93
      249
310
90D312F333222203D2031272D3022000000000000280FC000000000000284000
  0
ACAD_PROXY_OBJECT
  5
5C
102
{ACAD_REACTORS
330
47
102
}
330
47
100
AcDbProxyObject
 90
      499
 91
      503
 93
      249
310
90D312F313622203D2031272D30220000000000002C0FC000000000000284000
  0
ACAD_PROXY_OBJECT
  5
5D
102
{ACAD_REACTORS
330
47
102
}
330
47
100
AcDbProxyObject
 90
      499
 91
      503
 93
      249
310
90D332F333222203D2031272D30220000000000002E0FC000000000000284000
  0
ACAD_PROXY_OBJECT
  5
5E
102
{ACAD_REACTORS
330
47
102
}
330
47
100
AcDbProxyObject
 90
      499
 91
      503
 93
      241
310
90C312F3822203D2031272D3022000000000000300FC000000000000284000
  0
ACAD_PROXY_OBJECT
  5
5F
102
{ACAD_REACTORS
330
47
102
}
330
47
100
AcDbProxyObject
 90
      499
 91
      503
 93
      249
310
90D332F313622203D2031272D3022000000000000320FC000000000000284000
  0
ACAD_PROXY_OBJECT
  5
60
102
{ACAD_REACTORS
330
47
102
}
330
47
100
AcDbProxyObject
 90
      499
 91
      503
 93
      241
310
90C312F3422203D2031272D3022000000000000340FC000000000000284000
  0
ACAD_PROXY_OBJECT
  5
61
102
{ACAD_REACTORS
330
47
102
}
330
47
100
AcDbProxyObject
 90
      499
 91
      503
 93
      241
310
90C332F3822203D2031272D3022000000000000360FC000000000000284000
  0
ACAD_PROXY_OBJECT
  5
62
102
{ACAD_REACTORS
330
47
102
}
330
47
100
AcDbProxyObject
 90
      499
 91
      503
 93
      241
310
90C312F3222203D2031272D3022000000000000380FC000000000000284000
  0
ACAD_PROXY_OBJECT
  5
63
102
{ACAD_REACTORS
330
47
102
}
330
47
100
AcDbProxyObject
 90
      499
 91
      503
 93
      241
310
90C332F3422203D2031272D30220000000000003A0FC000000000000284000
  0
ACAD_PROXY_OBJECT
  5
64
102
{ACAD_REACTORS
330
47
102
}
330
47
100
AcDbProxyObject
 90
      499
 91
      503
 93
      161
310
90A3122203D2031272D30224000000000000284000
  0
ACAD_PROXY_OBJECT
  5
65
102
{ACAD_REACTORS
330
47
102
}
330
47
100
AcDbProxyObject
 90
      499
 91
      503
 93
      257
310
90E312D312F3222203D2031272D30220000000000003E0FC000000000000284000
  0
ACAD_PROXY_OBJECT
  5
66
102
{ACAD_REACTORS
330
47
102
}
330
47
100
AcDbProxyObject
 90
      499
 91
      503
 93
      225
310
90A3322203D2031272D302200000000000002100000000000000284000
  0
ACAD_PROXY_OBJECT
  5
67
102
{ACAD_REACTORS
330
47
102
}
330
47
100
AcDbProxyObject
 90
      499
 91
      503
 93
      225
310
90A3622203D2031272D302200000000000006100000000000000284000
  0
ACAD_PROXY_OBJECT
  5
68
102
{ACAD_REACTORS
330
47
102
}
330
47
100
AcDbProxyObject
 90
      499
 91
      503
 93
      249
310
90D31272D3022203D2031272D30220000000000000A100000000000000284000
  0
ACAD_PROXY_OBJECT
  5
2F
102
{ACAD_REACTORS
330
2A
102
}
330
2A
100
AcDbProxyObject
 90
      499
 91
      501
 93
      436
310
42CC9915DA5C99599C985B595049028333333333333E33F0000000000000F90107901411070040501600405405064090741402480A0340
1001
ACAD
1000
AcDbSavedByObjectVersion
1070
     0
  0
ACAD_PROXY_OBJECT
  5
32
102
{ACAD_REACTORS
330
2A
102
}
330
2A
100
AcDbProxyObject
 90
      499
 91
      501
 93
      388
310
4150985CDA58D07406404333333333333E33F0000000000000F90107A41107004050150841D405064090741402480A0350
1001
ACAD
1000
AcDbSavedByObjectVersion
1070
     0
  0
ACAD_PROXY_OBJECT
  5
36
102
{ACAD_REACTORS
330
2A
102
}
330
2A
100
AcDbProxyObject
 90
      499
 91
      501
 93
      428
310
42109C9A59DA1D195B90C409028333333333333E33F0000000000000F9010790141107004050150841D405064090741402480A029950
1001
ACAD
1000
AcDbSavedByObjectVersion
1070
     0
  0
ACAD_PROXY_OBJECT
  5
3A
102
{ACAD_REACTORS
330
2A
102
}
330
2A
100
AcDbProxyObject
 90
      499
 91
      501
 93
      452
310
42D0DBDB1BDC90DA185B99D95104090240C333333333333E33F0000000000000F90108901411070040501508421405064090741402480A0350
1001
ACAD
1000
AcDbSavedByObjectVersion
1070
     0
  0
ACAD_PROXY_OBJECT
  5
34
102
{ACAD_REACTORS
330
2A
102
}
330
2A
100
AcDbProxyObject
 90
      499
 91
      501
 93
      500
310
4290DBDB98D95C1D1D585B10940D028333333333333E33F0000000000000F90107902409070040501000000000018199010841D405064090740C02480A0340
1001
ACAD
1000
AcDbSavedByObjectVersion
1070
     0
  0
ACAD_PROXY_OBJECT
  5
35
102
{ACAD_REACTORS
330
2A
102
}
330
2A
100
AcDbProxyObject
 90
      499
 91
      501
 93
      412
310
40D11A5B50B409028333333333333E33F0000000000000F9010790141107004050150841D405064090741402480A02677FFFFFD0
1001
ACAD
1000
AcDbSavedByObjectVersion
1070
     0
  0
ACAD_PROXY_OBJECT
  5
3D
102
{ACAD_REACTORS
330
2A
102
}
330
2A
100
AcDbProxyObject
 90
      499
 91
      501
 93
      452
310
43115919D950DBDB1BDC93D999916409028333333333333E33F0000000000000F9010790141107004050150841D405064090741402480A0350
1001
ACAD
1000
AcDbSavedByObjectVersion
1070
     0
  0
ACAD_PROXY_OBJECT
  5
39
102
{ACAD_REACTORS
330
2A
102
}
330
2A
100
AcDbProxyObject
 90
      499
 91
      501
 93
      444
310
42D19858D95C185D1D195C9B90F409028333333333333E33F0000000000000F9010790141107004050150841D405064090741402480A0350
1001
ACAD
1000
AcDbSavedByObjectVersion
1070
     0
  0
ACAD_PROXY_OBJECT
  5
2B
102
{ACAD_REACTORS
330
2A
102
}
330
2A
100
AcDbProxyObject
 90
      499
 91
      501
 93
      380
310
41119B185D240901404333333333333E33F0000000000000F9010740A907004050150841D405064090741402480A1B50
1001
ACAD
1000
AcDbSavedByObjectVersion
1070
     0
  0
ACAD_PROXY_OBJECT
  5
2C
102
{ACAD_REACTORS
330
2A
102
}
330
2A
100
AcDbProxyObject
 90
      499
 91
      501
 93
      468
310
43519B185D15DA5D1A115919D95CD0140901404333333333333E33F0000000000000F90107409019070040501600405405064090741402480A1B50
1001
ACAD
1000
AcDbSavedByObjectVersion
1070
     0
  0
ACAD_PROXY_OBJECT
  5
2D
102
{ACAD_REACTORS
330
2A
102
}
330
2A
100
AcDbProxyObject
 90
      499
 91
      501
 93
      404
310
41D1DBDD5C985D5910240902404333333333333E33F0000000000000F9010740A9070040501641D405064090741402480A1B50
1001
ACAD
1000
AcDbSavedByObjectVersion
1070
     0
  0
ACAD_PROXY_OBJECT
  5
2E
102
{ACAD_REACTORS
330
2A
102
}
330
2A
100
AcDbProxyObject
 90
      499
 91
      501
 93
      492
310
4411DBDD5C985D5915DA5D1A115919D95CD0340902404333333333333E33F0000000000000F90107409019070040501600405405064090741402480A1B50
1001
ACAD
1000
AcDbSavedByObjectVersion
1070
     0
  0
ACAD_PROXY_OBJECT
  5
31
102
{ACAD_REACTORS
330
2A
102
}
330
2A
100
AcDbProxyObject
 90
      499
 91
      501
 93
      476
310
41921A5919195B90640502408333333333333E33F0000000000000F901079024090700405020000000000001110200405405064090740C02480A0340
1001
ACAD
1000
AcDbSavedByObjectVersion
1070
     0
  0
ACAD_PROXY_OBJECT
  5
3B
102
{ACAD_REACTORS
330
2A
102
}
330
2A
100
AcDbProxyObject
 90
      499
 91
      501
 93
      428
310
42529A5D1D195C93D999914409028333333333333E33F0000000000000F9010790141107004050150A41D405064090741402480A0350
1001
ACAD
1000
AcDbSavedByObjectVersion
1070
     0
  0
ACAD_PROXY_OBJECT
  5
38
102
{ACAD_REACTORS
330
2A
102
}
330
2A
100
AcDbProxyObject
 90
      499
 91
      501
 93
      444
310
42D31A5B995C185D1D195C9B90E409028333333333333E33F0000000000000F9010790141107004050750841D405064090741402483A0350
1001
ACAD
1000
AcDbSavedByObjectVersion
1070
     0
  0
ACAD_PROXY_OBJECT
  5
3C
102
{ACAD_REACTORS
330
2A
102
}
330
2A
100
AcDbProxyObject
 90
      499
 91
      501
 93
      444
310
42D3DD995C9A185B99D3D999915409028333333333333E33F0000000000000F9010790141107004050150941D405064090741402480A0350
1001
ACAD
1000
AcDbSavedByObjectVersion
1070
     0
  0
ACAD_PROXY_OBJECT
  5
33
102
{ACAD_REACTORS
330
2A
102
}
330
2A
100
AcDbProxyObject
 90
      499
 91
      501
 93
      428
310
425499585B1A5CDD1A58D08409038333333333333E33F0000000000000F9010740A907004050150800405405064090740C02480A1B40
1001
ACAD
1000
AcDbSavedByObjectVersion
1070
     0
  0
ACAD_PROXY_OBJECT
  5
42
102
{ACAD_REACTORS
330
2A
102
}
330
2A
100
AcDbProxyObject
 90
      499
 91
      501
 93
      420
310
4194DA1859195911B40902404333333333333E33F0000000000000F9010740A41107004050150800405405064090840C02480A0B40
1001
ACAD
1000
AcDbSavedByObjectVersion
1070
     0
  0
ACAD_PROXY_OBJECT
  5
41
102
{ACAD_REACTORS
330
2A
102
}
330
2A
100
AcDbProxyObject
 90
      499
 91
      501
 93
      516
310
4454DA18591959081DDA5D1A08195919D95CD1A40902404333333333333E33F0000000000000F901074090142907004050250800405405064090740C02480A0B40
1001
ACAD
1000
AcDbSavedByObjectVersion
1070
     0
  0
ACAD_PROXY_OBJECT
  5
3E
102
{ACAD_REACTORS
330
2A
102
}
330
2A
100
AcDbProxyObject
 90
      499
 91
      501
 93
      532
310
4394DA1859195CC81BD98811DC985E5174090240C333333333333E33F0000000000000F901079024090741D01000000000000111010841D405064090740C02480A0340
1001
ACAD
1000
AcDbSavedByObjectVersion
1070
     0
  0
ACAD_PROXY_OBJECT
  5
3F
102
{ACAD_REACTORS
330
2A
102
}
330
2A
100
AcDbProxyObject
 90
      499
 91
      501
 93
      476
310
41D4DAD95D18DA1E51840502408333333333333E33F0000000000000F901079024090741D01000000000000111010B41D405064090741802480A0340
1001
ACAD
1000
AcDbSavedByObjectVersion
1070
     0
  0
ACAD_PROXY_OBJECT
  5
37
102
{ACAD_REACTORS
330
2A
102
}
330
2A
100
AcDbProxyObject
 90
      499
 91
      501
 93
      412
310
41D51A1A58DAD95B90D409028333333333333E33F0000000000000F9010790141107004050150C41D405064090741402480A0350
1001
ACAD
1000
AcDbSavedByObjectVersion
1070
     0
  0
ACAD_PROXY_OBJECT
  5
30
102
{ACAD_REACTORS
330
2A
102
}
330
2A
100
AcDbProxyObject
 90
      499
 91
      501
 93
      420
310
4255DA5C99599C985B595059028333333333333E33F0000000000000F90107901411070040501600405405064090740C02480A0340
1001
ACAD
1000
AcDbSavedByObjectVersion
1070
     0
  0
ACAD_PROXY_OBJECT
  5
40
102
{ACAD_REACTORS
330
2A
102
}
330
2A
100
AcDbProxyObject
 90
      499
 91
      501
 93
      404
310
41560B54985E51940902404000000000000E03F0000000000000F9010740501907004050150841D405064090740C02480A1B40
1001
ACAD
1000
AcDbSavedByObjectVersion
1070
     0
  0
XRECORD
  5
348
102
{ACAD_REACTORS
330
33E
102
}
330
33E
100
AcDbXrecord
340
0
  0
XRECORD
  5
347
102
{ACAD_REACTORS
330
33E
102
}
330
33E
100
AcDbXrecord
 90
        0
  0
XRECORD
  5
35E
102
{ACAD_REACTORS
330
33E
102
}
330
33E
100
AcDbXrecord
1000
DSTYLE
1002
{
1070
   179
 70
     2
1070
   171
 70
     2
1070
   143
 40
25.4
1070
   274
 70
     2
1070
    41
 40
1.000000635782878
1070
    79
 70
     2
1070
   141
 40
0.0
1070
    43
 40
10.0
1070
   278
 70
    46
1070
    44
 40
1.0
1070
    42
 40
1.0
1070
   147
 40
0.09
1070
   146
 40
0.65
1070
   172
 70
     0
1070
   340
340
11
1070
   140
 40
1.166666666666667
1070
   284
 70
     0
1070
    90
 70
     1
1002
}
  0
XRECORD
  5
349
102
{ACAD_REACTORS
330
33E
102
}
330
33E
100
AcDbXrecord
  1
{E7839DF5-7C56-4864-B2F0-92D145FD3B47}
  0
XRECORD
  5
341
102
{ACAD_REACTORS
330
33E
102
}
330
33E
100
AcDbXrecord
  1

  0
XRECORD
  5
346
102
{ACAD_REACTORS
330
33E
102
}
330
33E
100
AcDbXrecord
 90
        4
  0
XRECORD
  5
343
102
{ACAD_REACTORS
330
33E
102
}
330
33E
100
AcDbXrecord
340
1A
  0
XRECORD
  5
345
102
{ACAD_REACTORS
330
33E
102
}
330
33E
100
AcDbXrecord
 90
    10781
  0
XRECORD
  5
344
102
{ACAD_REACTORS
330
33E
102
}
330
33E
100
AcDbXrecord
340
19
  0
XRECORD
  5
34B
102
{ACAD_REACTORS
330
33E
102
}
330
33E
100
AcDbXrecord
 40
0.0
  0
XRECORD
  5
34E
102
{ACAD_REACTORS
330
33E
102
}
330
33E
100
AcDbXrecord
340
0
  0
XRECORD
  5
354
102
{ACAD_REACTORS
330
33E
102
}
330
33E
100
AcDbXrecord
 10
0.0
 20
0.0
 30
0.0
  0
XRECORD
  5
350
102
{ACAD_REACTORS
330
33E
102
}
330
33E
100
AcDbXrecord
 10
0.0
 20
0.0
 30
0.0
  0
XRECORD
  5
353
102
{ACAD_REACTORS
330
33E
102
}
330
33E
100
AcDbXrecord
 10
0.0
 20
0.0
 30
0.0
  0
XRECORD
  5
351
102
{ACAD_REACTORS
330
33E
102
}
330
33E
100
AcDbXrecord
 10
0.0
 20
0.0
 30
0.0
  0
XRECORD
  5
352
102
{ACAD_REACTORS
330
33E
102
}
330
33E
100
AcDbXrecord
 10
0.0
 20
0.0
 30
0.0
  0
XRECORD
  5
34F
102
{ACAD_REACTORS
330
33E
102
}
330
33E
100
AcDbXrecord
 10
0.0
 20
0.0
 30
0.0
  0
XRECORD
  5
34C
102
{ACAD_REACTORS
330
33E
102
}
330
33E
100
AcDbXrecord
340
0
  0
XRECORD
  5
34D
102
{ACAD_REACTORS
330
33E
102
}
330
33E
100
AcDbXrecord
 70
     0
  0
XRECORD
  5
342
102
{ACAD_REACTORS
330
33E
102
}
330
33E
100
AcDbXrecord
  1

  0
XRECORD
  5
33F
102
{ACAD_REACTORS
330
33E
102
}
330
33E
100
AcDbXrecord
 90
        1
  0
XRECORD
  5
340
102
{ACAD_REACTORS
330
33E
102
}
330
33E
100
AcDbXrecord
 90
       70
  0
XRECORD
  5
357
102
{ACAD_REACTORS
330
33E
102
}
330
33E
100
AcDbXrecord
340
0
  0
XRECORD
  5
35D
102
{ACAD_REACTORS
330
33E
102
}
330
33E
100
AcDbXrecord
 10
0.0
 20
0.0
 30
0.0
  0
XRECORD
  5
359
102
{ACAD_REACTORS
330
33E
102
}
330
33E
100
AcDbXrecord
 10
0.0
 20
0.0
 30
0.0
  0
XRECORD
  5
35C
102
{ACAD_REACTORS
330
33E
102
}
330
33E
100
AcDbXrecord
 10
0.0
 20
0.0
 30
0.0
  0
XRECORD
  5
35A
102
{ACAD_REACTORS
330
33E
102
}
330
33E
100
AcDbXrecord
 10
0.0
 20
0.0
 30
0.0
  0
XRECORD
  5
35B
102
{ACAD_REACTORS
330
33E
102
}
330
33E
100
AcDbXrecord
 10
0.0
 20
0.0
 30
0.0
  0
XRECORD
  5
358
102
{ACAD_REACTORS
330
33E
102
}
330
33E
100
AcDbXrecord
 10
0.0
 20
0.0
 30
0.0
  0
XRECORD
  5
355
102
{ACAD_REACTORS
330
33E
102
}
330
33E
100
AcDbXrecord
340
0
  0
XRECORD
  5
356
102
{ACAD_REACTORS
330
33E
102
}
330
33E
100
AcDbXrecord
 70
     0
  0
XRECORD
  5
34A
102
{ACAD_REACTORS
330
33E
102
}
330
33E
100
AcDbXrecord
  1
{FAEB1C32-E019-11D5-929B-00C0DF256EC4}
  0
DICTIONARYVAR
  5
368
102
{ACAD_REACTORS
330
35F
102
}
330
35F
100
DictionaryVariables
280
     0
  1
1:1
  0
DICTIONARYVAR
  5
364
102
{ACAD_REACTORS
330
35F
102
}
330
35F
100
DictionaryVariables
280
     0
  1
2
  0
DICTIONARYVAR
  5
365
102
{ACAD_REACTORS
330
35F
102
}
330
35F
100
DictionaryVariables
280
     0
  1
1
  0
DICTIONARYVAR
  5
369
102
{ACAD_REACTORS
330
35F
102
}
330
35F
100
DictionaryVariables
280
     0
  1
1
  0
DICTIONARY
  5
36C
330
45
100
AcDbDictionary
280
     1
  3
ACAD_XREC_ROUNDTRIP
360
36D
  0
DICTIONARY
  5
36A
330
44
100
AcDbDictionary
280
     1
  3
ACAD_XREC_ROUNDTRIP
360
36B
  0
DICTIONARY
  5
36E
330
46
100
AcDbDictionary
280
     1
  3
ACAD_XREC_ROUNDTRIP
360
36F
  0
XRECORD
  5
36D
102
{ACAD_REACTORS
330
36C
102
}
330
36C
100
AcDbXrecord
102
MATERIAL
148
0.0
149
0.0
149
0.0
 93
        0
 94
      127
282
     0
 72
     1
 77
     1
171
     1
175
     1
179
     1
273
     0
  0
XRECORD
  5
36B
102
{ACAD_REACTORS
330
36A
102
}
330
36A
100
AcDbXrecord
102
MATERIAL
148
0.0
149
0.0
149
0.0
 93
        0
 94
      127
282
     0
 72
     1
 77
     1
171
     1
175
     1
179
     1
273
     0
  0
XRECORD
  5
36F
102
{ACAD_REACTORS
330
36E
102
}
330
36E
100
AcDbXrecord
102
MATERIAL
148
0.0
149
0.0
149
0.0
 93
        0
 94
      127
282
     0
 72
     1
 77
     1
171
     1
175
     1
179
     1
273
     0
  0
ENDSEC
  0
EOF
