  0
SECTION
  2
HEADER
  9
$ACADVER
  1
AC1014
  9
$ACADMAINTVER
 70
       0
  9
$DWGCODEPAGE
  3
ANSI_932
  9
$INSBASE
 10
0.0
 20
0.0
 30
0.0
  9
$EXTMIN
 10
-130.02986724
 20
-96.58379982
 30
0.0
  9
$EXTMAX
 10
130.02986724
 20
73.46067308
 30
0.0
  9
$LIMMIN
 10
-138.15673395
 20
-101.8976896
  9
$LIMMAX
 10
138.15673395
 20
78.77456285
  9
$ORTHOMODE
 70
       0
  9
$REGENMODE
 70
       1
  9
$FILLMODE
 70
       1
  9
$QTEXTMODE
 70
       0
  9
$MIRRTEXT
 70
       1
  9
$DRAGMODE
 70
       2
  9
$LTSCALE
 40
1.0
  9
$OSMODE
 70
       0
  9
$ATTMODE
 70
       1
  9
$TEXTSIZE
 40
0.2
  9
$TRACEWID
 40
0.05
  9
$TEXTSTYLE
  7
STANDARD
  9
$CLAYER
  8
0
  9
$CELTYPE
  6
CONTINUOUS
  9
$CECOLOR
 62
     256
  9
$CELTSCALE
 40
1.0
  9
$DELOBJ
 70
       1
  9
$DISPSILH
 70
       0
  9
$DIMSCALE
 40
1.0
  9
$DIMASZ
 40
0.18
  9
$DIMEXO
 40
0.0625
  9
$DIMDLI
 40
0.38
  9
$DIMRND
 40
0.0
  9
$DIMDLE
 40
0.0
  9
$DIMEXE
 40
0.18
  9
$DIMTP
 40
0.0
  9
$DIMTM
 40
0.0
  9
$DIMTXT
 40
0.18
  9
$DIMCEN
 40
0.09
  9
$DIMTSZ
 40
0.0
  9
$DIMTOL
 70
       0
  9
$DIMLIM
 70
       0
  9
$DIMTIH
 70
       1
  9
$DIMTOH
 70
       1
  9
$DIMSE1
 70
       0
  9
$DIMSE2
 70
       0
  9
$DIMTAD
 70
       0
  9
$DIMZIN
 70
       0
  9
$DIMBLK
  1

  9
$DIMASO
 70
       1
  9
$DIMSHO
 70
       1
  9
$DIMPOST
  1

  9
$DIMAPOST
  1

  9
$DIMALT
 70
       0
  9
$DIMALTD
 70
       2
  9
$DIMALTF
 40
25.4
  9
$DIMLFAC
 40
1.0
  9
$DIMTOFL
 70
       0
  9
$DIMTVP
 40
0.0
  9
$DIMTIX
 70
       0
  9
$DIMSOXD
 70
       0
  9
$DIMSAH
 70
       0
  9
$DIMBLK1
  1

  9
$DIMBLK2
  1

  9
$DIMSTYLE
  2
STANDARD
  9
$DIMCLRD
 70
       0
  9
$DIMCLRE
 70
       0
  9
$DIMCLRT
 70
       0
  9
$DIMTFAC
 40
1.0
  9
$DIMGAP
 40
0.09
  9
$DIMJUST
 70
       0
  9
$DIMSD1
 70
       0
  9
$DIMSD2
 70
       0
  9
$DIMTOLJ
 70
       1
  9
$DIMTZIN
 70
       0
  9
$DIMALTZ
 70
       0
  9
$DIMALTTZ
 70
       0
  9
$DIMFIT
 70
       3
  9
$DIMUPT
 70
       0
  9
$DIMUNIT
 70
       2
  9
$DIMDEC
 70
       4
  9
$DIMTDEC
 70
       4
  9
$DIMALTU
 70
       2
  9
$DIMALTTD
 70
       2
  9
$DIMTXSTY
  7
STANDARD
  9
$DIMAUNIT
 70
       0
  9
$LUNITS
 70
       2
  9
$LUPREC
 70
       4
  9
$SKETCHINC
 40
0.1
  9
$FILLETRAD
 40
0.0
  9
$AUNITS
 70
       0
  9
$AUPREC
 70
       0
  9
$MENU
  1
acad
  9
$ELEVATION
 40
0.0
  9
$PELEVATION
 40
0.0
  9
$THICKNESS
 40
0.0
  9
$LIMCHECK
 70
       0
  9
$BLIPMODE
 70
       1
  9
$CHAMFERA
 40
0.0
  9
$CHAMFERB
 40
0.0
  9
$CHAMFERC
 40
0.0
  9
$CHAMFERD
 40
0.0
  9
$SKPOLY
 70
       0
  9
$TDCREATE
 40
0.000000000
  9
$TDUPDATE
 40
0.000000000
  9
$TDINDWG
 40
0.0000000000
  9
$TDUSRTIMER
 40
0.0000000000
  9
$USRTIMER
 70
       1
  9
$ANGBASE
 50
0.0
  9
$ANGDIR
 70
       0
  9
$PDMODE
 70
       0
  9
$PDSIZE
 40
1.0
  9
$PLINEWID
 40
0.0
  9
$COORDS
 70
       1
  9
$SPLFRAME
 70
       0
  9
$SPLINETYPE
 70
       6
  9
$SPLINESEGS
 70
       8
  9
$ATTDIA
 70
       0
  9
$ATTREQ
 70
       1
  9
$HANDLING
 70
       1
  9
$HANDSEED
  5
C2
  9
$SURFTAB1
 70
       6
  9
$SURFTAB2
 70
       6
  9
$SURFTYPE
 70
       6
  9
$SURFU
 70
       6
  9
$SURFV
 70
       6
  9
$UCSNAME
  2

  9
$UCSORG
 10
0.0
 20
0.0
 30
0.0
  9
$UCSXDIR
 10
1.0
 20
0.0
 30
0.0
  9
$UCSYDIR
 10
0.0
 20
1.0
 30
0.0
  9
$PUCSNAME
  2

  9
$PUCSORG
 10
0.0
 20
0.0
 30
0.0
  9
$PUCSXDIR
 10
1.0
 20
0.0
 30
0.0
  9
$PUCSYDIR
 10
0.0
 20
1.0
 30
0.0
  9
$USERI1
 70
       0
  9
$USERI2
 70
       0
  9
$USERI3
 70
       0
  9
$USERI4
 70
       0
  9
$USERI5
 70
       0
  9
$USERR1
 40
0.0
  9
$USERR2
 40
0.0
  9
$USERR3
 40
0.0
  9
$USERR4
 40
0.0
  9
$USERR5
 40
0.0
  9
$WORLDVIEW
 70
       1
  9
$SHADEDGE
 70
       3
  9
$SHADEDIF
 70
      70
  9
$TILEMODE
 70
       1
  9
$MAXACTVP
 70
      16
  9
$PINSBASE
 10
0.0
 20
0.0
 30
0.0
  9
$PLIMCHECK
 70
       0
  9
$PEXTMIN
 10
1.00000000E+20
 20
1.00000000E+20
 30
1.00000000E+20
  9
$PEXTMAX
 10
-1.00000000E+20
 20
-1.00000000E+20
 30
-1.00000000E+20
  9
$PLIMMIN
 10
0.0
 20
0.0
  9
$PLIMMAX
 10
12.0
 20
9.0
  9
$UNITMODE
 70
       0
  9
$VISRETAIN
 70
       0
  9
$PLINEGEN
 70
       1
  9
$PSLTSCALE
 70
       0
  9
$TREEDEPTH
 70
    3020
  9
$PICKSTYLE
 70
       1
  9
$CMLSTYLE
  2
STANDARD
  9
$CMLJUST
 70
       0
  9
$CMLSCALE
 40
1.0
  9
$PROXYGRAPHICS
 70
       0
  9
$MEASUREMENT
 70
       0
  0
ENDSEC
  0
SECTION
  2
CLASSES
  0
CLASS
  1
LWPOLYLINE
  2
AcDbPolyline
  3
"AutoCAD"
 90
        0
280
       0
281
       1
  0
CLASS
  1
IMAGE
  2
AcDbRasterImage
  3
ISM
 90
      127
280
       0
281
       1
  0
CLASS
  1
OLE2FRAME
  2
AcDbOle2Frame
  3
""
 90
        0
280
       0
281
       1
  0
CLASS
  1
HATCH
  2
AcDbHatch
  3
"ACAD_SEDONA"
 90
        0
280
       0
281
       1
  0
CLASS
  1
DICTIONARYVAR
  2
AcDbDictionaryVar
  3
"AutoCAD"
 90
        0
280
       0
281
       0
  0
CLASS
  1
RASTERVARIABLES
  2
AcDbRasterVariables
  3
ISM
 90
        0
280
       0
281
       0
  0
CLASS
  1
IMAGEDEF
  2
AcDbRasterImageDef
  3
ISM
 90
        0
280
       0
281
       0
  0
CLASS
  1
IMAGEDEF_REACTOR
  2
AcDbRasterImageDefReactor
  3
ISM
 90
        1
280
       0
281
       0
  0
CLASS
  1
IDBUFFER
  2
AcDbIdBuffer
  3
"Acad"
 90
        0
280
       0
281
       0
  0
CLASS
  1
SPATIAL_FILTER
  2
AcDbSpatialFilter
  3
"Acad"
 90
        0
280
       0
281
       0
  0
CLASS
  1
XRECORD
  2
AcDbXrecord
  3
"<Built In>"
 90
        0
280
       0
281
       0
  0
CLASS
  1
SORTENTSTABLE
  2
AcDbSortentsTable
  3
"AutoCAD"
 90
        0
280
       0
281
       0
  0
CLASS
  1
LAYER_INDEX
  2
AcDbLayerIndex
  3
"Acad"
 90
        0
280
       0
281
       0
  0
CLASS
  1
SPATIAL_INDEX
  2
AcDbSpatialIndex
  3
"Acad"
 90
        0
280
       0
281
       0
  0
CLASS
  1
OBJECT_PTR
  2
CAseDLPNTableRecord
  3
"ASE-LPNTableRecord"
 90
        1
280
       0
281
       0
  0
CLASS
  1
LAYOUT
  2
AcDbLayout
  3
"AutoCAD 2000"
 90
        1
280
       0
281
       0
  0
CLASS
  1
PLOTSETTINGS
  2
AcDbPlotSettings
  3
"AutoCAD 2000"
 90
        1
280
       0
281
       0
  0
CLASS
  1
ACDBDICTIONARYWDFLT
  2
AcDbDictionaryWithDefault
  3
"AutoCAD 2000"
 90
        1
280
       0
281
       0
  0
CLASS
  1
ACDBPLACEHOLDER
  2
AcDbPlaceHolder
  3
"AutoCAD 2000"
 90
        1
280
       0
281
       0
  0
CLASS
  1
VBA_PROJECT
  2
AcDbVbaProject
  3
"acadvba"
 90
        1
280
       0
281
       0
  0
CLASS
  1
WIPEOUT
  2
AcDbWipeout
  3
WipeOut|AutoCAD Express Tool|expresstools@autodesk.com
 90
      127
280
       0
281
       1
  0
CLASS
  1
WIPEOUTVARIABLES
  2
AcDbWipeoutVariables
  3
WipeOut|AutoCAD Express Tool|expresstools@autodesk.com
 90
        0
280
       0
281
       0
  0
CLASS
  1
RTEXT
  2
RText
  3
RText|AutoCAD Express Tool|expresstools@autodesk.com
 90
        0
280
       0
281
       1
  0
CLASS
  1
ARCALIGNEDTEXT
  2
AcDbArcAlignedText
  3
ATEXT|AutoCAD Express Tool|expresstools@autodesk.com
 90
        0
280
       0
281
       1
  0
ENDSEC
  0
SECTION
  2
TABLES
  0
TABLE
  2
VPORT
  5
7
100
AcDbSymbolTable
 70
       1
  0
VPORT
  5
15
100
AcDbSymbolTableRecord
100
AcDbViewportTableRecord
  2
*ACTIVE
 70
       0
 10
0.0
 20
0.0
 11
1.0
 21
1.0
 12
0.0
 22
-11.56156337
 13
0.0
 23
0.0
 14
1.0
 24
1.0
 15
0.0
 25
0.0
 16
0.0
 26
0.0
 36
1.0
 17
0.0
 27
0.0
 37
0.0
 40
180.67225245
 41
1.52936305
 42
50.0
 43
0.0
 44
0.0
 50
0.0
 51
0.0
 71
       0
 72
     100
 73
       1
 74
       1
 75
       0
 76
       0
 77
       0
 78
       0
  0
ENDTAB
  0
TABLE
  2
LTYPE
  5
4
100
AcDbSymbolTable
 70
      30
  0
LTYPE
  5
11
100
AcDbSymbolTableRecord
100
AcDbLinetypeTableRecord
  2
BYBLOCK
 70
      64
  3

 72
      65
 73
       0
 40
0.0
  0
LTYPE
  5
12
100
AcDbSymbolTableRecord
100
AcDbLinetypeTableRecord
  2
BYLAYER
 70
      64
  3

 72
      65
 73
       0
 40
0.0
  0
LTYPE
  5
13
100
AcDbSymbolTableRecord
100
AcDbLinetypeTableRecord
  2
CONTINUOUS
 70
      64
  3
Solid line
 72
      65
 73
       0
 40
0.0
  0
LTYPE
  5
1D
100
AcDbSymbolTableRecord
100
AcDbLinetypeTableRecord
  2
HIDDENX2
 70
      64
  3
CADPAC LINETYPE
 72
      65
 73
       2
 40
10.40238938
 49
7.80179203
 74
       0
 49
-2.60059734
 74
       0
  0
LTYPE
  5
1E
100
AcDbSymbolTableRecord
100
AcDbLinetypeTableRecord
  2
HIDDEN
 70
      64
  3
CADPAC LINETYPE
 72
      65
 73
       2
 40
7.80179203
 49
5.20119469
 74
       0
 49
-2.60059734
 74
       0
  0
LTYPE
  5
1F
100
AcDbSymbolTableRecord
100
AcDbLinetypeTableRecord
  2
HIDDEN2
 70
      64
  3
CADPAC LINETYPE
 72
      65
 73
       2
 40
6.50149336
 49
3.90089602
 74
       0
 49
-2.60059734
 74
       0
  0
LTYPE
  5
20
100
AcDbSymbolTableRecord
100
AcDbLinetypeTableRecord
  2
DASHED
 70
      64
  3
CADPAC LINETYPE
 72
      65
 73
       2
 40
7.80179203
 49
5.20119469
 74
       0
 49
-2.60059734
 74
       0
  0
LTYPE
  5
21
100
AcDbSymbolTableRecord
100
AcDbLinetypeTableRecord
  2
DASHED2
 70
      64
  3
CADPAC LINETYPE
 72
      65
 73
       2
 40
5.85134403
 49
3.90089602
 74
       0
 49
-1.95044801
 74
       0
  0
LTYPE
  5
22
100
AcDbSymbolTableRecord
100
AcDbLinetypeTableRecord
  2
DASHEDX2
 70
      64
  3
CADPAC LINETYPE
 72
      65
 73
       2
 40
11.70268805
 49
7.80179203
 74
       0
 49
-3.90089602
 74
       0
  0
LTYPE
  5
23
100
AcDbSymbolTableRecord
100
AcDbLinetypeTableRecord
  2
DOTX2
 70
      64
  3
CADPAC LINETYPE
 72
      65
 73
       2
 40
3.25074668
 49
0.0
 74
       0
 49
-3.25074668
 74
       0
  0
LTYPE
  5
24
100
AcDbSymbolTableRecord
100
AcDbLinetypeTableRecord
  2
DOT
 70
      64
  3
CADPAC LINETYPE
 72
      65
 73
       2
 40
2.60059734
 49
0.0
 74
       0
 49
-2.60059734
 74
       0
  0
LTYPE
  5
25
100
AcDbSymbolTableRecord
100
AcDbLinetypeTableRecord
  2
DOT2
 70
      64
  3
CADPAC LINETYPE
 72
      65
 73
       2
 40
1.95044801
 49
0.0
 74
       0
 49
-1.95044801
 74
       0
  0
LTYPE
  5
26
100
AcDbSymbolTableRecord
100
AcDbLinetypeTableRecord
  2
CENTERX2
 70
      64
  3
CADPAC LINETYPE
 72
      65
 73
       4
 40
15.60358407
 49
6.50149336
 74
       0
 49
-3.25074668
 74
       0
 49
2.60059734
 74
       0
 49
-3.25074668
 74
       0
  0
LTYPE
  5
27
100
AcDbSymbolTableRecord
100
AcDbLinetypeTableRecord
  2
CENTER
 70
      64
  3
CADPAC LINETYPE
 72
      65
 73
       4
 40
11.96274779
 49
5.20119469
 74
       0
 49
-2.60059734
 74
       0
 49
1.56035841
 74
       0
 49
-2.60059734
 74
       0
  0
LTYPE
  5
28
100
AcDbSymbolTableRecord
100
AcDbLinetypeTableRecord
  2
CENTER2
 70
      64
  3
CADPAC LINETYPE
 72
      65
 73
       4
 40
8.3219115
 49
3.90089602
 74
       0
 49
-1.95044801
 74
       0
 49
0.52011947
 74
       0
 49
-1.95044801
 74
       0
  0
LTYPE
  5
29
100
AcDbSymbolTableRecord
100
AcDbLinetypeTableRecord
  2
DASHDOTX2
 70
      64
  3
CADPAC LINETYPE
 72
      65
 73
       4
 40
13.00298672
 49
6.50149336
 74
       0
 49
-3.25074668
 74
       0
 49
0.0
 74
       0
 49
-3.25074668
 74
       0
  0
LTYPE
  5
2A
100
AcDbSymbolTableRecord
100
AcDbLinetypeTableRecord
  2
DASHDOT
 70
      64
  3
CADPAC LINETYPE
 72
      65
 73
       4
 40
10.40238938
 49
5.20119469
 74
       0
 49
-2.60059734
 74
       0
 49
0.0
 74
       0
 49
-2.60059734
 74
       0
  0
LTYPE
  5
2B
100
AcDbSymbolTableRecord
100
AcDbLinetypeTableRecord
  2
DASHDOT2
 70
      64
  3
CADPAC LINETYPE
 72
      65
 73
       4
 40
7.80179203
 49
3.90089602
 74
       0
 49
-1.95044801
 74
       0
 49
0.0
 74
       0
 49
-1.95044801
 74
       0
  0
LTYPE
  5
2C
100
AcDbSymbolTableRecord
100
AcDbLinetypeTableRecord
  2
DIVIDEX2
 70
      64
  3
CADPAC LINETYPE
 72
      65
 73
       6
 40
16.25373341
 49
6.50149336
 74
       0
 49
-3.25074668
 74
       0
 49
0.0
 74
       0
 49
-3.25074668
 74
       0
 49
0.0
 74
       0
 49
-3.25074668
 74
       0
  0
LTYPE
  5
2D
100
AcDbSymbolTableRecord
100
AcDbLinetypeTableRecord
  2
DIVIDE
 70
      64
  3
CADPAC LINETYPE
 72
      65
 73
       6
 40
13.00298672
 49
5.20119469
 74
       0
 49
-2.60059734
 74
       0
 49
0.0
 74
       0
 49
-2.60059734
 74
       0
 49
0.0
 74
       0
 49
-2.60059734
 74
       0
  0
LTYPE
  5
2E
100
AcDbSymbolTableRecord
100
AcDbLinetypeTableRecord
  2
DIVIDE2
 70
      64
  3
CADPAC LINETYPE
 72
      65
 73
       6
 40
9.75224004
 49
3.90089602
 74
       0
 49
-1.95044801
 74
       0
 49
0.0
 74
       0
 49
-1.95044801
 74
       0
 49
0.0
 74
       0
 49
-1.95044801
 74
       0
  0
LTYPE
  5
2F
100
AcDbSymbolTableRecord
100
AcDbLinetypeTableRecord
  2
BORDERX2
 70
      64
  3
CADPAC LINETYPE
 72
      65
 73
       6
 40
22.75522677
 49
6.50149336
 74
       0
 49
-3.25074668
 74
       0
 49
6.50149336
 74
       0
 49
-3.25074668
 74
       0
 49
0.0
 74
       0
 49
-3.25074668
 74
       0
  0
LTYPE
  5
30
100
AcDbSymbolTableRecord
100
AcDbLinetypeTableRecord
  2
BORDER
 70
      64
  3
CADPAC LINETYPE
 72
      65
 73
       6
 40
18.20418141
 49
5.20119469
 74
       0
 49
-2.60059734
 74
       0
 49
5.20119469
 74
       0
 49
-2.60059734
 74
       0
 49
0.0
 74
       0
 49
-2.60059734
 74
       0
  0
LTYPE
  5
31
100
AcDbSymbolTableRecord
100
AcDbLinetypeTableRecord
  2
BORDER2
 70
      64
  3
CADPAC LINETYPE
 72
      65
 73
       6
 40
13.65313606
 49
3.90089602
 74
       0
 49
-1.95044801
 74
       0
 49
3.90089602
 74
       0
 49
-1.95044801
 74
       0
 49
0.0
 74
       0
 49
-1.95044801
 74
       0
  0
LTYPE
  5
32
100
AcDbSymbolTableRecord
100
AcDbLinetypeTableRecord
  2
PHANTOMX2
 70
      64
  3
CADPAC LINETYPE
 72
      65
 73
       6
 40
19.50448009
 49
6.50149336
 74
       0
 49
-2.60059734
 74
       0
 49
2.60059734
 74
       0
 49
-2.60059734
 74
       0
 49
2.60059734
 74
       0
 49
-2.60059734
 74
       0
  0
LTYPE
  5
33
100
AcDbSymbolTableRecord
100
AcDbLinetypeTableRecord
  2
PHANTOM
 70
      64
  3
CADPAC LINETYPE
 72
      65
 73
       6
 40
16.12370354
 49
5.20119469
 74
       0
 49
-2.60059734
 74
       0
 49
1.56035841
 74
       0
 49
-2.60059734
 74
       0
 49
1.56035841
 74
       0
 49
-2.60059734
 74
       0
  0
LTYPE
  5
34
100
AcDbSymbolTableRecord
100
AcDbLinetypeTableRecord
  2
PHANTOM2
 70
      64
  3
CADPAC LINETYPE
 72
      65
 73
       6
 40
13.78316593
 49
3.90089602
 74
       0
 49
-2.60059734
 74
       0
 49
1.04023894
 74
       0
 49
-2.60059734
 74
       0
 49
1.04023894
 74
       0
 49
-2.60059734
 74
       0
  0
LTYPE
  5
35
100
AcDbSymbolTableRecord
100
AcDbLinetypeTableRecord
  2
ACAD_ISO06W100
 70
      64
  3
CADPAC LINETYPE
 72
      65
 73
       8
 40
17.55403208
 49
6.50149336
 74
       0
 49
-3.25074668
 74
       0
 49
0.0
 74
       0
 49
-2.60059734
 74
       0
 49
0.0
 74
       0
 49
-2.60059734
 74
       0
 49
0.0
 74
       0
 49
-2.60059734
 74
       0
  0
LTYPE
  5
36
100
AcDbSymbolTableRecord
100
AcDbLinetypeTableRecord
  2
ACAD_ISO13W100
 70
      64
  3
CADPAC LINETYPE
 72
      65
 73
       8
 40
20.80477876
 49
5.20119469
 74
       0
 49
-2.60059734
 74
       0
 49
5.20119469
 74
       0
 49
-2.60059734
 74
       0
 49
0.0
 74
       0
 49
-2.60059734
 74
       0
 49
0.0
 74
       0
 49
-2.60059734
 74
       0
  0
LTYPE
  5
37
100
AcDbSymbolTableRecord
100
AcDbLinetypeTableRecord
  2
ACAD_ISO14W100
 70
      64
  3
CADPAC LINETYPE
 72
      65
 73
       8
 40
15.60358407
 49
5.20119469
 74
       0
 49
-2.60059734
 74
       0
 49
0.0
 74
       0
 49
-2.60059734
 74
       0
 49
0.0
 74
       0
 49
-2.60059734
 74
       0
 49
0.0
 74
       0
 49
-2.60059734
 74
       0
  0
ENDTAB
  0
TABLE
  2
LAYER
  5
2
100
AcDbSymbolTable
 70
       2
  0
LAYER
  5
14
100
AcDbSymbolTableRecord
100
AcDbLayerTableRecord
  2
0
 70
       0
 62
       7
  6
CONTINUOUS
  0
LAYER
  5
38
100
AcDbSymbolTableRecord
100
AcDbLayerTableRecord
  2
LAYER0016
 70
       0
 62
       7
  6
CONTINUOUS
  0
ENDTAB
  0
TABLE
  2
STYLE
  5
3
100
AcDbSymbolTable
 70
       1
  0
STYLE
  5
17
100
AcDbSymbolTableRecord
100
AcDbTextStyleTableRecord
  2
STANDARD
 70
       0
 40
0.0
 41
0.8
 50
0.0
 71
       0
 42
8.0
  3
txt.shx
  4
bigfont.shx
  0
ENDTAB
  0
TABLE
  2
VIEW
  5
5
100
AcDbSymbolTable
 70
       1
  0
VIEW
  5
39
100
AcDbSymbolTableRecord
100
AcDbViewTableRecord
  2
QQQQ
 70
       0
 40
180.67225245
 10
0.0
 20
-11.56156337
 41
276.31346789
 11
0.0
 21
0.0
 31
1.0
 12
100.0
 22
100.0
 32
0.0
 42
50.0
 43
0.0
 44
0.0
 50
0.0
 71
       0
  0
ENDTAB
  0
TABLE
  2
UCS
  5
6
100
AcDbSymbolTable
 70
       0
  0
ENDTAB
  0
TABLE
  2
APPID
  5
8
100
AcDbSymbolTable
 70
       1
  0
APPID
  5
16
100
AcDbSymbolTableRecord
100
AcDbRegAppTableRecord
  2
ACAD
 70
       0
  0
ENDTAB
  0
TABLE
  2
DIMSTYLE
  5
9
100
AcDbSymbolTable
 70
       1
  0
DIMSTYLE
105
18
100
AcDbSymbolTableRecord
100
AcDbDimStyleTableRecord
  2
STANDARD
 70
       0
  3

  4

  5

  6

  7

 40
1.0
 41
0.18
 42
0.0625
 43
0.38
 44
0.18
 45
0.0
 46
0.0
 47
0.0
 48
0.0
 71
       0
 72
       0
 73
       1
 74
       1
 75
       0
 76
       0
 77
       0
 78
       0
140
0.18
141
0.09
142
0.0
143
25.4
144
1.0
145
0.0
146
1.0
147
0.09
170
       0
171
       2
172
       0
173
       0
174
       0
175
       0
176
       0
177
       0
178
       0
270
       2
271
       4
272
       4
273
       2
274
       2
275
       0
280
       0
281
       0
282
       0
283
       1
284
       0
285
       0
286
       0
287
       0
288
       0
340
17
  0
ENDTAB
  0
TABLE
  2
BLOCK_RECORD
  5
1
100
AcDbSymbolTable
 70
       0
  0
BLOCK_RECORD
  5
A
100
AcDbSymbolTableRecord
100
AcDbBlockTableRecord
  2
*MODEL_SPACE
  0
BLOCK_RECORD
  5
B
100
AcDbSymbolTableRecord
100
AcDbBlockTableRecord
  2
*PAPER_SPACE
  0
ENDTAB
  0
ENDSEC
  0
SECTION
  2
BLOCKS
  0
BLOCK
  5
D
100
AcDbEntity
  8
0
100
AcDbBlockBegin
  2
*MODEL_SPACE
 70
       0
 10
0.0
 20
0.0
 30
0.0
  3
*MODEL_SPACE
  1

  0
ENDBLK
  5
E
100
AcDbEntity
  8
0
100
AcDbBlockEnd
  0
BLOCK
  5
F
100
AcDbEntity
 67
       1
  8
0
100
AcDbBlockBegin
  2
*PAPER_SPACE
 70
       0
 10
0.0
 20
0.0
 30
0.0
  3
*PAPER_SPACE
  1

  0
ENDBLK
  5
10
100
AcDbEntity
 67
       1
  8
0
100
AcDbBlockEnd
  0
ENDSEC
  0
SECTION
  2
ENTITIES
  0
LINE
  5
3A
100
AcDbEntity
  8
LAYER0016
  6
CONTINUOUS
 62
       3
100
AcDbLine
 10
115.0287185
 20
-21.0152155
 30
0.0
 11
124.08105446
 21
-20.54080268
 31
0.0
  0
LINE
  5
3B
100
AcDbEntity
  8
LAYER0016
  6
CONTINUOUS
 62
       3
100
AcDbLine
 10
122.0287185
 20
-8.35693344
 30
0.0
 11
122.0287185
 21
27.14306656
 31
0.0
  0
LINE
  5
3C
100
AcDbEntity
  8
LAYER0016
  6
CONTINUOUS
 62
       3
100
AcDbLine
 10
115.0287185
 20
-49.040072
 30
0.0
 11
114.0287185
 21
-48.98766422
 31
0.0
  0
LINE
  5
3D
100
AcDbEntity
  8
LAYER0016
  6
CONTINUOUS
 62
       3
100
AcDbLine
 10
115.0287185
 20
-49.60693344
 30
0.0
 11
124.08105446
 21
-49.13252062
 31
0.0
  0
LINE
  5
3E
100
AcDbEntity
  8
LAYER0016
  6
CONTINUOUS
 62
       3
100
AcDbLine
 10
115.0287185
 20
54.9847845
 30
0.0
 11
114.0287185
 21
54.89729584
 31
0.0
  0
LINE
  5
3F
100
AcDbEntity
  8
LAYER0016
  6
CONTINUOUS
 62
       3
100
AcDbLine
 10
125.0287185
 20
-8.85693344
 30
0.0
 11
125.0287185
 21
-48.13389108
 31
0.0
  0
LINE
  5
40
100
AcDbEntity
  8
LAYER0016
  6
CONTINUOUS
 62
       3
100
AcDbLine
 10
122.0287185
 20
-8.35693344
 30
0.0
 11
124.5287185
 21
-8.35693344
 31
0.0
  0
LINE
  5
41
100
AcDbEntity
  8
LAYER0016
  6
CONTINUOUS
 62
       3
100
AcDbLine
 10
122.0287185
 20
27.14306656
 30
0.0
 11
125.02871849
 21
27.14306656
 31
0.0
  0
LINE
  5
42
100
AcDbEntity
  8
LAYER0016
  6
CONTINUOUS
 62
       3
100
AcDbLine
 10
115.0287185
 20
55.39306656
 30
0.0
 11
124.08105446
 21
54.91865372
 31
0.0
  0
LINE
  5
43
100
AcDbEntity
  8
LAYER0016
  6
CONTINUOUS
 62
       3
100
AcDbLine
 10
115.0287185
 20
55.39306656
 30
0.0
 11
115.0287185
 21
-49.60693344
 31
0.0
  0
LINE
  5
44
100
AcDbEntity
  8
LAYER0016
  6
CONTINUOUS
 62
       3
100
AcDbLine
 10
125.02871849
 20
53.9200242
 30
0.0
 11
125.02871849
 21
27.14306656
 31
0.0
  0
LINE
  5
45
100
AcDbEntity
  8
LAYER0016
  6
CONTINUOUS
 62
       3
100
AcDbLine
 10
123.15995149
 20
25.64306656
 30
0.0
 11
123.02871849
 21
27.14306656
 31
0.0
  0
LINE
  5
46
100
AcDbEntity
  8
LAYER0016
  6
CONTINUOUS
 62
       3
100
AcDbLine
 10
123.15995149
 20
25.64306656
 30
0.0
 11
123.52871849
 21
25.64306656
 31
0.0
  0
LINE
  5
47
100
AcDbEntity
  8
LAYER0016
  6
CONTINUOUS
 62
       3
100
AcDbLine
 10
123.52871849
 20
25.64306656
 30
0.0
 11
125.02871849
 21
27.14306656
 31
0.0
  0
LINE
  5
48
100
AcDbEntity
  8
LAYER0016
  6
CONTINUOUS
 62
       3
100
AcDbLine
 10
103.2287185
 20
-35.0152155
 30
0.0
 11
103.2287185
 21
-24.0152155
 31
0.0
  0
LINE
  5
49
100
AcDbEntity
  8
LAYER0016
  6
CONTINUOUS
 62
       3
100
AcDbLine
 10
90.0287185
 20
23.33711358
 30
0.0
 11
88.16216382
 21
23.33711358
 31
0.0
  0
LINE
  5
4A
100
AcDbEntity
  8
LAYER0016
  6
CONTINUOUS
 62
       3
100
AcDbLine
 10
110.0287185
 20
-44.5459028
 30
0.0
 11
102.17638254
 21
-44.1343793
 31
0.0
  0
LINE
  5
4B
100
AcDbEntity
  8
LAYER0016
  6
CONTINUOUS
 62
       3
100
AcDbLine
 10
110.0287185
 20
-44.5459028
 30
0.0
 11
110.0287185
 21
-48.30861768
 31
0.0
  0
LINE
  5
4C
100
AcDbEntity
  8
LAYER0016
  6
CONTINUOUS
 62
       3
100
AcDbLine
 10
109.55488648
 20
41.58509018
 30
0.0
 11
95.0287185
 21
40.82380598
 31
0.0
  0
LINE
  5
4D
100
AcDbEntity
  8
LAYER0016
  6
CONTINUOUS
 62
       3
100
AcDbLine
 10
110.0287185
 20
54.32618882
 30
0.0
 11
110.0287185
 21
39.74538346
 31
0.0
  0
LINE
  5
4E
100
AcDbEntity
  8
LAYER0016
  6
CONTINUOUS
 62
       3
100
AcDbLine
 10
101.2287185
 20
-43.13574977
 30
0.0
 11
101.2287185
 21
-20.28150661
 31
0.0
  0
LINE
  5
4F
100
AcDbEntity
  8
LAYER0016
  6
CONTINUOUS
 62
       3
100
AcDbLine
 10
90.0287185
 20
45.6724635
 30
0.0
 11
90.0287185
 21
-18.80846424
 31
0.0
  0
LINE
  5
50
100
AcDbEntity
  8
LAYER0016
  6
CONTINUOUS
 62
       3
100
AcDbLine
 10
95.0287185
 20
50.69317842
 30
0.0
 11
95.0287185
 21
40.82380598
 31
0.0
  0
LINE
  5
51
100
AcDbEntity
  8
LAYER0016
  6
CONTINUOUS
 62
       3
100
AcDbLine
 10
101.2287185
 20
-24.01521549
 30
0.0
 11
106.3064657
 21
-24.01521549
 31
0.0
  0
LINE
  5
52
100
AcDbEntity
  8
LAYER0016
  6
CONTINUOUS
 62
       3
100
AcDbLine
 10
101.2287185
 20
-35.0152155
 30
0.0
 11
106.3064657
 21
-35.0152155
 31
0.0
  0
LINE
  5
53
100
AcDbEntity
  8
LAYER0016
  6
CONTINUOUS
 62
       3
100
AcDbLine
 10
114.0287185
 20
55.4847845
 30
0.0
 11
98.81937468
 21
54.68769656
 31
0.0
  0
LINE
  5
54
100
AcDbEntity
  8
LAYER0016
  6
CONTINUOUS
 62
       3
100
AcDbLine
 10
95.0287185
 20
46.88346696
 30
0.0
 11
90.97638254
 21
46.67109304
 31
0.0
  0
LINE
  5
55
100
AcDbEntity
  8
LAYER0016
  6
CONTINUOUS
 62
       3
100
AcDbLine
 10
109.55488648
 20
39.2460687
 30
0.0
 11
90.97638254
 21
38.27241056
 31
0.0
  0
LINE
  5
56
100
AcDbEntity
  8
LAYER0016
  6
CONTINUOUS
 62
       3
100
AcDbLine
 10
114.0287185
 20
55.4847845
 30
0.0
 11
114.0287185
 21
-49.46721338
 31
0.0
  0
LINE
  5
57
100
AcDbEntity
  8
LAYER0016
  6
CONTINUOUS
 62
       3
100
AcDbLine
 10
114.0287185
 20
-49.46721338
 30
0.0
 11
110.97638254
 21
-49.30724722
 31
0.0
  0
LINE
  5
58
100
AcDbEntity
  8
LAYER0016
  6
CONTINUOUS
 62
       3
100
AcDbLine
 10
114.0287185
 20
-21.10693344
 30
0.0
 11
85.12044516
 21
-19.59191504
 31
0.0
  0
LINE
  5
59
100
AcDbEntity
  8
LAYER0016
  6
CONTINUOUS
 62
       3
100
AcDbLine
 10
-125.0287185
 20
37.65918724
 30
0.0
 11
-125.0287185
 21
50.4847845
 31
0.0
  0
LINE
  5
5A
100
AcDbEntity
  8
LAYER0016
  6
CONTINUOUS
 62
       3
100
AcDbLine
 10
-109.5287185
 20
-21.0152155
 30
0.0
 11
30.4712815
 21
-21.0152155
 31
0.0
  0
LINE
  5
5B
100
AcDbEntity
  8
LAYER0016
  6
CONTINUOUS
 62
       3
100
AcDbLine
 10
-117.85789892
 20
-20.2815066
 30
0.0
 11
-109.52871851
 21
-20.2815066
 31
0.0
  0
LINE
  5
5C
100
AcDbEntity
  8
LAYER0016
  6
CONTINUOUS
 62
       3
100
AcDbLine
 10
-109.5287185
 20
-19.7574288
 30
0.0
 11
-123.0287185
 21
-19.7574288
 31
0.0
  0
LINE
  5
5D
100
AcDbEntity
  8
LAYER0016
  6
CONTINUOUS
 62
       3
100
AcDbLine
 10
-118.5287185
 20
-21.0152155
 30
0.0
 11
-123.0287185
 21
-21.0152155
 31
0.0
  0
LINE
  5
5E
100
AcDbEntity
  8
LAYER0016
  6
CONTINUOUS
 62
       3
100
AcDbLine
 10
-118.5287185
 20
-21.0152155
 30
0.0
 11
-117.85789892
 21
-20.2815066
 31
0.0
  0
LINE
  5
5F
100
AcDbEntity
  8
LAYER0016
  6
CONTINUOUS
 62
       3
100
AcDbLine
 10
-118.5287185
 20
-21.0152155
 30
0.0
 11
-118.5287185
 21
-42.97561704
 31
0.0
  0
LINE
  5
60
100
AcDbEntity
  8
LAYER0016
  6
CONTINUOUS
 62
       3
100
AcDbLine
 10
-120.0287185
 20
55.4847845
 30
0.0
 11
44.9712815
 21
55.4847845
 31
0.0
  0
LINE
  5
61
100
AcDbEntity
  8
LAYER0016
  6
CONTINUOUS
 62
       3
100
AcDbLine
 10
49.9712815
 20
50.4847845
 30
0.0
 11
49.9712815
 21
-19.0152155
 31
0.0
  0
LINE
  5
62
100
AcDbEntity
  8
LAYER0016
  6
CONTINUOUS
 62
       3
100
AcDbLine
 10
-125.0287185
 20
-19.0152155
 30
0.0
 11
-125.0287185
 21
37.65918724
 31
0.0
  0
LINE
  5
63
100
AcDbEntity
  8
LAYER0016
  6
CONTINUOUS
 62
       3
100
AcDbLine
 10
43.47128149
 20
-21.0152155
 30
0.0
 11
47.9712815
 21
-21.0152155
 31
0.0
  0
LINE
  5
64
100
AcDbEntity
  8
LAYER0016
  6
CONTINUOUS
 62
       3
100
AcDbLine
 10
-109.52871851
 20
-44.69369041
 30
0.0
 11
-109.52871851
 21
-20.2815066
 31
0.0
  0
LINE
  5
65
100
AcDbEntity
  8
LAYER0016
  6
CONTINUOUS
 62
       3
100
AcDbLine
 10
30.47128149
 20
-20.2815066
 30
0.0
 11
30.47128149
 21
-29.5152155
 31
0.0
  0
LINE
  5
66
100
AcDbEntity
  8
LAYER0016
  6
CONTINUOUS
 62
       3
100
AcDbLine
 10
30.47128149
 20
-29.5152155
 30
0.0
 11
34.47128151
 21
-29.5152155
 31
0.0
  0
LINE
  5
67
100
AcDbEntity
  8
LAYER0016
  6
CONTINUOUS
 62
       3
100
AcDbLine
 10
-109.5287185
 20
-31.5152155
 30
0.0
 11
-105.5287185
 21
-31.5152155
 31
0.0
  0
LINE
  5
68
100
AcDbEntity
  8
LAYER0016
  6
CONTINUOUS
 62
       3
100
AcDbLine
 10
-105.5287185
 20
-31.5152155
 30
0.0
 11
-105.5287185
 21
-39.75132582
 31
0.0
  0
LINE
  5
69
100
AcDbEntity
  8
LAYER0016
  6
CONTINUOUS
 62
       3
100
AcDbLine
 10
34.47128151
 20
-44.6936904
 30
0.0
 11
34.47128151
 21
-20.2815066
 31
0.0
  0
LINE
  5
6A
100
AcDbEntity
  8
LAYER0016
  6
CONTINUOUS
 62
       3
100
AcDbLine
 10
-105.5287185
 20
-39.5152155
 30
0.0
 11
-109.5287185
 21
-39.5152155
 31
0.0
  0
LINE
  5
6B
100
AcDbEntity
  8
LAYER0016
  6
CONTINUOUS
 62
       3
100
AcDbLine
 10
-110.7387185
 20
54.48903668
 30
0.0
 11
35.6812815
 21
54.48903668
 31
0.0
  0
LINE
  5
6C
100
AcDbEntity
  8
LAYER0016
  6
CONTINUOUS
 62
       3
100
AcDbLine
 10
37.6812815
 20
40.82380598
 30
0.0
 11
37.6812815
 21
52.48903668
 31
0.0
  0
LINE
  5
6D
100
AcDbEntity
  8
LAYER0016
  6
CONTINUOUS
 62
       3
100
AcDbLine
 10
-112.7387185
 20
52.48903668
 30
0.0
 11
-112.7387185
 21
40.82380598
 31
0.0
  0
LINE
  5
6E
100
AcDbEntity
  8
LAYER0016
  6
CONTINUOUS
 62
       3
100
AcDbLine
 10
34.47059876
 20
-19.7574288
 30
0.0
 11
47.9712815
 21
-19.7574288
 31
0.0
  0
LINE
  5
6F
100
AcDbEntity
  8
LAYER0016
  6
CONTINUOUS
 62
       3
100
AcDbLine
 10
30.47128149
 20
-20.2815066
 30
0.0
 11
42.80046193
 21
-20.2815066
 31
0.0
  0
LINE
  5
70
100
AcDbEntity
  8
LAYER0016
  6
CONTINUOUS
 62
       3
100
AcDbLine
 10
42.80046193
 20
-20.2815066
 30
0.0
 11
43.47128149
 21
-21.0152155
 31
0.0
  0
LINE
  5
71
100
AcDbEntity
  8
LAYER0016
  6
CONTINUOUS
 62
       3
100
AcDbLine
 10
43.47128149
 20
-42.97561704
 30
0.0
 11
43.47128149
 21
-21.0152155
 31
0.0
  0
LINE
  5
72
100
AcDbEntity
  8
LAYER0016
  6
CONTINUOUS
 62
       3
100
AcDbLine
 10
34.4712815
 20
-39.75132582
 30
0.0
 11
-105.5287185
 21
-39.75132582
 31
0.0
  0
LINE
  5
73
100
AcDbEntity
  8
LAYER0016
  6
CONTINUOUS
 62
       3
100
AcDbLine
 10
-46.92675914
 20
-49.33164422
 30
0.0
 11
-28.12321326
 21
-49.33164422
 31
0.0
  0
LINE
  5
74
100
AcDbEntity
  8
LAYER0016
  6
CONTINUOUS
 62
       3
100
AcDbLine
 10
-118.5287185
 20
-42.97561704
 30
0.0
 11
-118.5287185
 21
-43.4056537
 31
0.0
  0
ARC
  5
75
100
AcDbEntity
  8
LAYER0016
  6
CONTINUOUS
 62
       3
100
AcDbCircle
 10
124.0287185
 20
-19.54217314
 30
0.0
 40
1.0
100
AcDbArc
 50
273.0000002
 51
360.0
  0
ARC
  5
76
100
AcDbEntity
  8
LAYER0016
  6
CONTINUOUS
 62
       3
100
AcDbCircle
 10
124.0287185
 20
-48.13389108
 30
0.0
 40
1.0
100
AcDbArc
 50
273.0000002
 51
360.0
  0
ARC
  5
77
100
AcDbEntity
  8
LAYER0016
  6
CONTINUOUS
 62
       3
100
AcDbCircle
 10
124.0287185
 20
53.9200242
 30
0.0
 40
0.99999999
100
AcDbArc
 50
0.0
 51
86.99999974
  0
ARC
  5
78
100
AcDbEntity
  8
LAYER0016
  6
CONTINUOUS
 62
       3
100
AcDbCircle
 10
124.5287185
 20
-8.85693344
 30
0.0
 40
0.5
100
AcDbArc
 50
0.0
 51
90.0
  0
ARC
  5
79
100
AcDbEntity
  8
LAYER0016
  6
CONTINUOUS
 62
       3
100
AcDbCircle
 10
98.2287185
 20
-29.51521549
 30
0.0
 40
10.0
100
AcDbArc
 50
328.24313614
 51
391.75686386
  0
ARC
  5
7A
100
AcDbEntity
  8
LAYER0016
  6
CONTINUOUS
 62
       3
100
AcDbCircle
 10
484.71707122
 20
-29.04805056
 30
0.0
 40
400.0
100
AcDbArc
 50
172.47476125
 51
178.60140769
  0
ARC
  5
7B
100
AcDbEntity
  8
LAYER0016
  6
CONTINUOUS
 62
       3
100
AcDbCircle
 10
-37.5287185
 20
490.4847845
 30
0.0
 40
540.00000001
100
AcDbArc
 50
261.41872289
 51
268.99196669
  0
ARC
  5
7C
100
AcDbEntity
  8
LAYER0016
  6
CONTINUOUS
 62
       3
100
AcDbCircle
 10
-37.52905988
 20
-9564.46953608
 30
0.0
 40
9544.98366482
100
AcDbArc
 50
89.56780275
 51
90.43219725
  0
ARC
  5
7D
100
AcDbEntity
  8
LAYER0016
  6
CONTINUOUS
 62
       3
100
AcDbCircle
 10
-37.5287185
 20
-413.11653304
 30
0.0
 40
460.0
100
AcDbArc
 50
79.13747392
 51
100.86252608
  0
ARC
  5
7E
100
AcDbEntity
  8
LAYER0016
  6
CONTINUOUS
 62
       3
100
AcDbCircle
 10
-37.5287185
 20
490.4847845
 30
0.0
 40
540.0
100
AcDbArc
 50
271.00881163
 51
278.58127711
  0
ARC
  5
7F
100
AcDbEntity
  8
LAYER0016
  6
CONTINUOUS
 62
       3
100
AcDbCircle
 10
-37.5249862
 20
-59.0196092
 30
0.0
 40
13.50000002
100
AcDbArc
 50
45.25356597
 51
134.74721239
  0
CIRCLE
  5
80
100
AcDbEntity
  8
LAYER0016
  6
CONTINUOUS
 62
       3
100
AcDbCircle
 10
-120.0287185
 20
50.4847845
 30
0.0
 40
2.5
  0
CIRCLE
  5
81
100
AcDbEntity
  8
LAYER0016
  6
CONTINUOUS
 62
       3
100
AcDbCircle
 10
44.9712815
 20
50.4847845
 30
0.0
 40
2.5
  0
ARC
  5
82
100
AcDbEntity
  8
LAYER0016
  6
CONTINUOUS
 62
       3
100
AcDbCircle
 10
106.3064657
 20
-34.5152155
 30
0.0
 40
0.5
100
AcDbArc
 50
270.0
 51
328.24313678
  0
ARC
  5
83
100
AcDbEntity
  8
LAYER0016
  6
CONTINUOUS
 62
       3
100
AcDbCircle
 10
106.3064657
 20
-24.51521549
 30
0.0
 40
0.5
100
AcDbArc
 50
31.75686322
 51
90.0
  0
ARC
  5
84
100
AcDbEntity
  8
LAYER0016
  6
CONTINUOUS
 62
       3
100
AcDbCircle
 10
85.13614594
 20
-19.29232618
 30
0.0
 40
0.3
100
AcDbArc
 50
178.60140832
 51
267.00000131
  0
ARC
  5
85
100
AcDbEntity
  8
LAYER0016
  6
CONTINUOUS
 62
       3
100
AcDbCircle
 10
91.0287185
 20
-18.80846424
 30
0.0
 40
1.0
100
AcDbArc
 50
180.0
 51
267.0
  0
ARC
  5
86
100
AcDbEntity
  8
LAYER0016
  6
CONTINUOUS
 62
       3
100
AcDbCircle
 10
91.0287185
 20
37.27378103
 30
0.0
 40
0.99999999
100
AcDbArc
 50
93.00000026
 51
180.0
  0
ARC
  5
87
100
AcDbEntity
  8
LAYER0016
  6
CONTINUOUS
 62
       3
100
AcDbCircle
 10
109.5287185
 20
42.08440494
 30
0.0
 40
0.5
100
AcDbArc
 50
273.00000026
 51
360.0
  0
ARC
  5
88
100
AcDbEntity
  8
LAYER0016
  6
CONTINUOUS
 62
       3
100
AcDbCircle
 10
109.5287185
 20
39.74538346
 30
0.0
 40
0.5
100
AcDbArc
 50
273.00000026
 51
360.0
  0
ARC
  5
89
100
AcDbEntity
  8
LAYER0016
  6
CONTINUOUS
 62
       3
100
AcDbCircle
 10
102.2287185
 20
-43.13574977
 30
0.0
 40
1.0
100
AcDbArc
 50
180.0
 51
266.9999998
  0
ARC
  5
8A
100
AcDbEntity
  8
LAYER0016
  6
CONTINUOUS
 62
       3
100
AcDbCircle
 10
111.0287185
 20
-48.30861768
 30
0.0
 40
1.0
100
AcDbArc
 50
180.0
 51
266.9999998
  0
ARC
  5
8B
100
AcDbEntity
  8
LAYER0016
  6
CONTINUOUS
 62
       3
100
AcDbCircle
 10
99.0287185
 20
50.69317842
 30
0.0
 40
4.0
100
AcDbArc
 50
92.99999993
 51
180.0
  0
ARC
  5
8C
100
AcDbEntity
  8
LAYER0016
  6
CONTINUOUS
 62
       3
100
AcDbCircle
 10
111.0287185
 20
54.32618882
 30
0.0
 40
1.0
100
AcDbArc
 50
93.0
 51
180.0
  0
ARC
  5
8D
100
AcDbEntity
  8
LAYER0016
  6
CONTINUOUS
 62
       3
100
AcDbCircle
 10
91.0287185
 20
45.6724635
 30
0.0
 40
1.0
100
AcDbArc
 50
93.00000021
 51
180.0
  0
ARC
  5
8E
100
AcDbEntity
  8
LAYER0016
  6
CONTINUOUS
 62
       3
100
AcDbCircle
 10
-110.7387185
 20
52.48903668
 30
0.0
 40
2.0
100
AcDbArc
 50
90.0
 51
180.0
  0
ARC
  5
8F
100
AcDbEntity
  8
LAYER0016
  6
CONTINUOUS
 62
       3
100
AcDbCircle
 10
-124.0287185
 20
37.65918724
 30
0.0
 40
1.0
100
AcDbArc
 50
100.8625272
 51
180.0
  0
ARC
  5
90
100
AcDbEntity
  8
LAYER0016
  6
CONTINUOUS
 62
       3
100
AcDbCircle
 10
48.9712815
 20
37.65918724
 30
0.0
 40
1.0
100
AcDbArc
 50
0.0
 51
79.1374728
  0
ARC
  5
91
100
AcDbEntity
  8
LAYER0016
  6
CONTINUOUS
 62
       3
100
AcDbCircle
 10
35.6812815
 20
52.48903668
 30
0.0
 40
2.0
100
AcDbArc
 50
0.0
 51
90.0
  0
ARC
  5
92
100
AcDbEntity
  8
LAYER0016
  6
CONTINUOUS
 62
       3
100
AcDbCircle
 10
-123.0287185
 20
-17.7574288
 30
0.0
 40
2.0
100
AcDbArc
 50
180.0
 51
270.0
  0
ARC
  5
93
100
AcDbEntity
  8
LAYER0016
  6
CONTINUOUS
 62
       3
100
AcDbCircle
 10
-118.0287185
 20
-42.97561704
 30
0.0
 40
0.49999999
100
AcDbArc
 50
180.0
 51
261.41872366
  0
ARC
  5
94
100
AcDbEntity
  8
LAYER0016
  6
CONTINUOUS
 62
       3
100
AcDbCircle
 10
-120.0287185
 20
50.4847845
 30
0.0
 40
5.0
100
AcDbArc
 50
90.0
 51
180.0
  0
ARC
  5
95
100
AcDbEntity
  8
LAYER0016
  6
CONTINUOUS
 62
       3
100
AcDbCircle
 10
44.9712815
 20
50.4847845
 30
0.0
 40
5.0
100
AcDbArc
 50
0.0
 51
90.0
  0
ARC
  5
96
100
AcDbEntity
  8
LAYER0016
  6
CONTINUOUS
 62
       3
100
AcDbCircle
 10
-123.0287185
 20
-19.0152155
 30
0.0
 40
2.0
100
AcDbArc
 50
180.0
 51
270.0
  0
ARC
  5
97
100
AcDbEntity
  8
LAYER0016
  6
CONTINUOUS
 62
       3
100
AcDbCircle
 10
47.9712815
 20
-19.0152155
 30
0.0
 40
2.0
100
AcDbArc
 50
270.0
 51
360.0
  0
ARC
  5
98
100
AcDbEntity
  8
LAYER0016
  6
CONTINUOUS
 62
       3
100
AcDbCircle
 10
42.9712815
 20
-42.97561704
 30
0.0
 40
0.49999999
100
AcDbArc
 50
278.5812764
 51
360.0
  0
ARC
  5
99
100
AcDbEntity
  8
LAYER0016
  6
CONTINUOUS
 62
       3
100
AcDbCircle
 10
47.9712815
 20
-17.7574288
 30
0.0
 40
2.0
100
AcDbArc
 50
270.0
 51
360.0
  0
ARC
  5
9A
100
AcDbEntity
  8
LAYER0016
  6
CONTINUOUS
 62
       3
100
AcDbCircle
 10
-37.5287185
 20
490.4847845
 30
0.0
 40
540.0
100
AcDbArc
 50
261.37307344
 51
261.487665
  0
ARC
  5
9B
100
AcDbEntity
  8
LAYER0016
  6
CONTINUOUS
 62
       3
100
AcDbCircle
 10
-54.71894765
 20
-24.33605964
 30
0.0
 40
55.0
100
AcDbArc
 50
119.60542686
 51
175.22472402
  0
ARC
  5
9C
100
AcDbEntity
  8
LAYER0016
  6
CONTINUOUS
 62
       3
100
AcDbCircle
 10
-20.33848935
 20
-24.33605964
 30
0.0
 40
55.0
100
AcDbArc
 50
4.77527598
 51
60.39457314
  0
ELLIPSE
  5
9D
100
AcDbEntity
  8
LAYER0016
  6
CONTINUOUS
 62
       3
100
AcDbEllipse
 10
-37.5287185
 20
29.38346696
 30
0.0
 11
50.50000001228787
 21
0.0000000163438756
 31
0.0
210
0.0
220
0.0
230
1.0
 40
0.24752475
 41
0.0
 42
6.2831853071796004
  0
LINE
  5
9E
100
AcDbEntity
  8
LAYER0016
  6
CONTINUOUS
 62
       3
100
AcDbLine
 10
-25.64184717
 20
65.4847845
 30
0.0
 11
-0.90089394
 21
65.4847845
 31
0.0
  0
LINE
  5
9F
100
AcDbEntity
  8
LAYER0016
  6
CONTINUOUS
 62
       3
100
AcDbLine
 10
4.2004312
 20
65.4847845
 30
0.0
 11
19.19951567
 21
65.4847845
 31
0.0
  0
LINE
  5
A0
100
AcDbEntity
  8
LAYER0016
  6
CONTINUOUS
 62
       3
100
AcDbLine
 10
97.52871849
 20
65.4847845
 30
0.0
 11
109.52871849
 21
65.4847845
 31
0.0
  0
LINE
  5
A1
100
AcDbEntity
  8
LAYER0016
  6
CONTINUOUS
 62
       3
100
AcDbLine
 10
109.52871849
 20
65.4847845
 30
0.0
 11
109.52871849
 21
55.24894949
 31
0.0
  0
LINE
  5
A2
100
AcDbEntity
  8
LAYER0016
  6
CONTINUOUS
 62
       3
100
AcDbLine
 10
97.52871849
 20
65.4847845
 30
0.0
 11
97.52871849
 21
54.40127766
 31
0.0
  0
LINE
  5
A3
100
AcDbEntity
  8
LAYER0016
  6
CONTINUOUS
 62
       3
100
AcDbLine
 10
-59.7159947
 20
-63.5152155
 30
0.0
 11
-15.34273422
 21
-63.5152155
 31
0.0
  0
LINE
  5
A4
100
AcDbEntity
  8
LAYER0016
  6
CONTINUOUS
 62
       3
100
AcDbLine
 10
-59.7159947
 20
-61.5152155
 30
0.0
 11
-15.34273422
 21
-61.5152155
 31
0.0
  0
LINE
  5
A5
100
AcDbEntity
  8
LAYER0016
  6
CONTINUOUS
 62
       3
100
AcDbLine
 10
125.0287185
 20
-48.13389108
 30
0.0
 11
125.0287185
 21
-63.5152155
 31
0.0
  0
LINE
  5
A6
100
AcDbEntity
  8
LAYER0016
  6
CONTINUOUS
 62
       3
100
AcDbLine
 10
122.0287185
 20
-49.24007898
 30
0.0
 11
122.0287185
 21
-61.5152155
 31
0.0
  0
LINE
  5
A7
100
AcDbEntity
  8
LAYER0016
  6
CONTINUOUS
 62
       3
100
AcDbLine
 10
120.5287185
 20
-61.5152155
 30
0.0
 11
120.5287185
 21
-63.5152155
 31
0.0
  0
LINE
  5
A8
100
AcDbEntity
  8
LAYER0016
  6
CONTINUOUS
 62
       3
100
AcDbLine
 10
120.5287185
 20
-61.5152155
 30
0.0
 11
122.0287185
 21
-61.5152155
 31
0.0
  0
LINE
  5
A9
100
AcDbEntity
  8
LAYER0016
  6
CONTINUOUS
 62
       3
100
AcDbLine
 10
120.5287185
 20
-63.5152155
 30
0.0
 11
125.0287185
 21
-63.5152155
 31
0.0
  0
CIRCLE
  5
AA
100
AcDbEntity
  8
LAYER0016
  6
CONTINUOUS
 62
       3
100
AcDbCircle
 10
-37.5287185
 20
-53.5152155
 30
0.0
 40
2.5
  0
LINE
  5
AB
100
AcDbEntity
  8
LAYER0016
  6
CENTERX2
 62
       3
100
AcDbLine
 10
-37.5287185
 20
70.19058706
 30
0.0
 11
-37.5287185
 21
-70.19058706
 31
0.0
  0
LINE
  5
AC
100
AcDbEntity
  8
LAYER0016
  6
PHANTOM2
 62
       3
100
AcDbLine
 10
85.0287185
 20
-19.58710785
 30
0.0
 11
85.0287185
 21
-49.60693344
 31
0.0
  0
LINE
  5
AD
100
AcDbEntity
  8
LAYER0016
  6
PHANTOM2
 62
       3
100
AcDbLine
 10
85.0287185
 20
-49.60693344
 30
0.0
 11
87.99058454
 21
-49.60693344
 31
0.0
  0
LINE
  5
AE
100
AcDbEntity
  8
LAYER0016
  6
PHANTOM2
 62
       3
100
AcDbLine
 10
96.1104708
 20
-44.6936904
 30
0.0
 11
110.0287185
 21
-44.6936904
 31
0.0
  0
ARC
  5
AF
100
AcDbEntity
  8
LAYER0016
  6
PHANTOM2
 62
       3
100
AcDbCircle
 10
96.1104708
 20
-53.85998946
 30
0.0
 40
9.16629906
100
AcDbArc
 50
90.0
 51
152.35523022
  0
LINE
  5
B0
100
AcDbEntity
  8
0
  6
CONTINUOUS
 62
       3
100
AcDbLine
 10
19.19951567
 20
55.4847845
 30
0.0
 11
19.19951567
 21
65.4847845
 31
0.0
  0
LINE
  5
B1
100
AcDbEntity
  8
0
  6
CONTINUOUS
 62
       3
100
AcDbLine
 10
-0.90089394
 20
65.4847845
 30
0.0
 11
-0.90089394
 21
55.4847845
 31
0.0
  0
LINE
  5
B2
100
AcDbEntity
  8
0
  6
CONTINUOUS
 62
       3
100
AcDbLine
 10
-25.64184717
 20
55.4847845
 30
0.0
 11
-25.64184717
 21
65.4847845
 31
0.0
  0
LINE
  5
B3
100
AcDbEntity
  8
0
  6
CONTINUOUS
 62
       3
100
AcDbLine
 10
4.2004312
 20
65.4847845
 30
0.0
 11
4.2004312
 21
55.4847845
 31
0.0
  0
LINE
  5
B4
100
AcDbEntity
  8
0
  6
CONTINUOUS
 62
       3
100
AcDbLine
 10
-15.34273422
 20
-63.5152155
 30
0.0
 11
-15.34273422
 21
-49.32018781
 31
0.0
  0
LINE
  5
B5
100
AcDbEntity
  8
0
  6
CONTINUOUS
 62
       3
100
AcDbLine
 10
-21.5929987
 20
-61.5152155
 30
0.0
 11
-21.5929987
 21
-49.41277475
 31
0.0
  0
LINE
  5
B6
100
AcDbEntity
  8
0
  6
CONTINUOUS
 62
       3
100
AcDbLine
 10
-59.7159947
 20
-49.32018781
 30
0.0
 11
-59.7159947
 21
-63.5152155
 31
0.0
  0
LINE
  5
B7
100
AcDbEntity
  8
0
  6
CONTINUOUS
 62
       3
100
AcDbLine
 10
-53.46573022
 20
-49.41277475
 30
0.0
 11
-53.46573022
 21
-61.5152155
 31
0.0
  0
LINE
  5
B8
100
AcDbEntity
  8
0
  6
PHANTOM2
 62
       3
100
AcDbLine
 10
16.82928997
 20
-39.75132582
 30
0.0
 11
16.82928997
 21
-50.95359371
 31
0.0
  0
LINE
  5
B9
100
AcDbEntity
  8
0
  6
PHANTOM2
 62
       3
100
AcDbLine
 10
4.72150189
 20
-50.91483638
 30
0.0
 11
4.72150189
 21
-39.75132582
 31
0.0
  0
LINE
  5
BA
100
AcDbEntity
  8
0
  6
PHANTOM2
 62
       3
100
AcDbLine
 10
8.92193456
 20
-39.75132582
 30
0.0
 11
8.92193456
 21
-50.91483638
 31
0.0
  0
LINE
  5
BB
100
AcDbEntity
  8
0
  6
PHANTOM2
 62
       3
100
AcDbLine
 10
10.01230728
 20
-55.92443585
 30
0.0
 11
10.01230728
 21
-50.95359371
 31
0.0
  0
LINE
  5
BC
100
AcDbEntity
  8
0
  6
PHANTOM2
 62
       3
100
AcDbLine
 10
17.56137276
 20
-55.92443585
 30
0.0
 11
10.01230728
 21
-55.92443585
 31
0.0
  0
LINE
  5
BD
100
AcDbEntity
  8
0
  6
PHANTOM2
 62
       3
100
AcDbLine
 10
8.92193456
 20
-50.91483638
 30
0.0
 11
4.72150189
 21
-50.91483638
 31
0.0
  0
LINE
  5
BE
100
AcDbEntity
  8
0
  6
PHANTOM2
 62
       3
100
AcDbLine
 10
17.56137276
 20
-50.95359371
 30
0.0
 11
17.56137276
 21
-55.92443585
 31
0.0
  0
LINE
  5
BF
100
AcDbEntity
  8
0
  6
PHANTOM2
 62
       3
100
AcDbLine
 10
17.56137276
 20
-50.95359371
 30
0.0
 11
10.01230728
 21
-50.95359371
 31
0.0
  0
LINE
  5
C0
100
AcDbEntity
  8
0
  6
PHANTOM2
 62
       3
100
AcDbLine
 10
11.88988432
 20
-50.95359371
 30
0.0
 11
11.88988432
 21
-39.75132582
 31
0.0
  0
TEXT
  5
C1
100
AcDbEntity
  8
0
 62
       3
100
AcDbText
 10
98.02251531
 20
-93.3137138
 30
0.0
 40
8.0
  1
000
 41
0.8
 72
       5
 11
117.22251531
 21
-93.3137138
 31
0.0
100
AcDbText
  0
ENDSEC
  0
SECTION
  2
OBJECTS
  0
DICTIONARY
  5
19
100
AcDbDictionary
  3
ACAD_GROUP
350
1A
  3
ACAD_MLINESTYLE
350
1B
  0
DICTIONARY
  5
1A
102
{ACAD_REACTORS
330
19
102
}
100
AcDbDictionary
  0
DICTIONARY
  5
1B
102
{ACAD_REACTORS
330
19
102
}
100
AcDbDictionary
  3
STANDARD
350
1C
  0
MLINESTYLE
  5
1C
102
{ACAD_REACTORS
330
1B
102
}
100
AcDbMlineStyle
  2
STANDARD
 70
       0
  3

 62
       0
 51
90.0
 52
90.0
 71
       2
 49
0.5
 62
     256
  6
BYLAYER
 49
-0.5
 62
     256
  6
BYLAYER
  0
ENDSEC
  0
EOF
