  0
SECTION
  2
HEADER
  9
$ACADVER
  1
AC1009
  9
$DWGCODEPAGE
  3
ansi_932
  9
$INSBASE
 10
0.0
 20
0.0
 30
0.0
  9
$EXTMIN
 10
-328.653878952465
 20
-233.1817608157
 30
0.0
  9
$EXTMAX
 10
325.391378952435
 20
230.4734274824
 30
0.0
  9
$LIMMIN
 10
-148.5
 20
-105.0
  9
$LIMMAX
 10
148.5
 20
105.0
  9
$ORTHOMODE
 70
     0
  9
$REGENMODE
 70
     1
  9
$FILLMODE
 70
     1
  9
$QTEXTMODE
 70
     0
  9
$MIRRTEXT
 70
     1
  9
$DRAGMODE
 70
     2
  9
$LTSCALE
 40
0.25
  9
$OSMODE
 70
    37
  9
$ATTMODE
 70
     1
  9
$TEXTSIZE
 40
0.2
  9
$TRACEWID
 40
0.05
  9
$TEXTSTYLE
  7
STANDARD
  9
$CLAYER
  8
0
  9
$CELTYPE
  6
BYLAYER
  9
$CECOLOR
 62
   256
  9
$DIMSCALE
 40
1.0
  9
$DIMASZ
 40
1.800315856933594
  9
$DIMEXO
 40
1.0
  9
$DIMDLI
 40
10.0
  9
$DIMRND
 40
0.0
  9
$DIMDLE
 40
0.0
  9
$DIMEXE
 40
1.0
  9
$DIMTP
 40
0.0
  9
$DIMTM
 40
0.0
  9
$DIMTXT
 40
3.5
  9
$DIMCEN
 40
0.0
  9
$DIMTSZ
 40
0.0
  9
$DIMTOL
 70
     0
  9
$DIMLIM
 70
     0
  9
$DIMTIH
 70
     0
  9
$DIMTOH
 70
     0
  9
$DIMSE1
 70
     0
  9
$DIMSE2
 70
     0
  9
$DIMTAD
 70
     1
  9
$DIMZIN
 70
     8
  9
$DIMBLK
  1

  9
$DIMASO
 70
     1
  9
$DIMSHO
 70
     1
  9
$DIMPOST
  1

  9
$DIMAPOST
  1

  9
$DIMALT
 70
     0
  9
$DIMALTD
 70
     2
  9
$DIMALTF
 40
0.0393700787401575
  9
$DIMLFAC
 40
1.0
  9
$DIMTOFL
 70
     0
  9
$DIMTVP
 40
0.0
  9
$DIMTIX
 70
     0
  9
$DIMSOXD
 70
     0
  9
$DIMSAH
 70
     0
  9
$DIMBLK1
  1

  9
$DIMBLK2
  1

  9
$DIMSTYLE
  2
STANDARD
  9
$DIMCLRD
 70
     0
  9
$DIMCLRE
 70
     0
  9
$DIMCLRT
 70
     0
  9
$DIMTFAC
 40
0.65
  9
$DIMGAP
 40
0.09
  9
$LUNITS
 70
     2
  9
$LUPREC
 70
     4
  9
$SKETCHINC
 40
0.1
  9
$FILLETRAD
 40
0.5
  9
$AUNITS
 70
     0
  9
$AUPREC
 70
     0
  9
$MENU
  1
.
  9
$ELEVATION
 40
0.0
  9
$PELEVATION
 40
0.0
  9
$THICKNESS
 40
0.0
  9
$LIMCHECK
 70
     0
  9
$CHAMFERA
 40
0.0
  9
$CHAMFERB
 40
0.0
  9
$SKPOLY
 70
     0
  9
$TDCREATE
 40
2461019.425736053
  9
$TDUPDATE
 40
2461019.425736238
  9
$TDINDWG
 40
0.0000000116
  9
$TDUSRTIMER
 40
0.0000000116
  9
$USRTIMER
 70
     1
  9
$ANGBASE
 50
0.0
  9
$ANGDIR
 70
     0
  9
$PDMODE
 70
     0
  9
$PDSIZE
 40
1.0
  9
$PLINEWID
 40
0.0
  9
$COORDS
 70
     1
  9
$SPLFRAME
 70
     0
  9
$SPLINETYPE
 70
     6
  9
$SPLINESEGS
 70
     8
  9
$ATTDIA
 70
     0
  9
$ATTREQ
 70
     1
  9
$HANDLING
 70
     1
  9
$HANDSEED
  5
383
  9
$SURFTAB1
 70
     6
  9
$SURFTAB2
 70
     6
  9
$SURFTYPE
 70
     6
  9
$SURFU
 70
     6
  9
$SURFV
 70
     6
  9
$UCSNAME
  2

  9
$UCSORG
 10
0.0
 20
0.0
 30
0.0
  9
$UCSXDIR
 10
1.0
 20
0.0
 30
0.0
  9
$UCSYDIR
 10
0.0
 20
1.0
 30
0.0
  9
$PUCSNAME
  2

  9
$PUCSORG
 10
0.0
 20
0.0
 30
0.0
  9
$PUCSXDIR
 10
1.0
 20
0.0
 30
0.0
  9
$PUCSYDIR
 10
0.0
 20
1.0
 30
0.0
  9
$USERI1
 70
     0
  9
$USERI2
 70
     0
  9
$USERI3
 70
     0
  9
$USERI4
 70
     0
  9
$USERI5
 70
     0
  9
$USERR1
 40
0.0
  9
$USERR2
 40
0.0
  9
$USERR3
 40
0.0
  9
$USERR4
 40
0.0
  9
$USERR5
 40
0.0
  9
$WORLDVIEW
 70
     1
  9
$SHADEDGE
 70
     3
  9
$SHADEDIF
 70
    70
  9
$TILEMODE
 70
     1
  9
$MAXACTVP
 70
    64
  9
$PLIMCHECK
 70
     0
  9
$PEXTMIN
 10
1.000000000000000E+20
 20
1.000000000000000E+20
 30
1.000000000000000E+20
  9
$PEXTMAX
 10
-1.000000000000000E+20
 20
-1.000000000000000E+20
 30
-1.000000000000000E+20
  9
$PLIMMIN
 10
0.0
 20
0.0
  9
$PLIMMAX
 10
12.0
 20
9.0
  9
$UNITMODE
 70
     0
  9
$VISRETAIN
 70
     0
  9
$PLINEGEN
 70
     1
  9
$PSLTSCALE
 70
     0
  0
ENDSEC
  0
SECTION
  2
TABLES
  0
TABLE
  2
VPORT
 70
     1
  0
VPORT
  2
*ACTIVE
 70
     0
 10
0.0
 20
0.0
 11
1.0
 21
1.0
 12
3.618749999984995
 22
-1.354166666650002
 13
0.0
 23
0.0
 14
0.5
 24
0.5
 15
0.5
 25
0.5
 16
0.0
 26
0.0
 36
1.0
 17
0.0
 27
0.0
 37
0.0
 40
157.642764021354
 41
1.478566993763778
 42
50.0
 43
0.0
 44
0.0
 50
0.0
 51
0.0
 71
     0
 72
  1000
 73
     1
 74
     1
 75
     0
 76
     0
 77
     0
 78
     0
  0
ENDTAB
  0
TABLE
  2
LTYPE
 70
    67
  0
LTYPE
  2
CONTINUOUS
 70
     0
  3
Solid line
 72
    65
 73
     0
 40
0.0
  0
LTYPE
  2
HIDDENX2
 70
     0
  3
Hidden (2x) ____ ____ ____ ____ ____ ____ ____ 
 72
    65
 73
     2
 40
19.05
 49
12.7
 49
-6.35
  0
LTYPE
  2
HIDDEN
 70
     0
  3
Hidden __ __ __ __ __ __ __ __ __ __ __ __ __ __
 72
    65
 73
     2
 40
9.524999999999999
 49
6.35
 49
-3.175
  0
LTYPE
  2
HIDDEN2
 70
     0
  3
Hidden (.5x) _ _ _ _ _ _ _ _ _ _ _ _ _ _ _ _ _ 
 72
    65
 73
     2
 40
4.762499999999999
 49
3.175
 49
-1.5875
  0
LTYPE
  2
DASHED
 70
     0
  3
Dashed __ __ __ __ __ __ __ __ __ __ __ __ __ _
 72
    65
 73
     2
 40
19.05
 49
12.7
 49
-6.35
  0
LTYPE
  2
DASHED2
 70
     0
  3
Dashed (.5x) _ _ _ _ _ _ _ _ _ _ _ _ _ _ _ _ _ 
 72
    65
 73
     2
 40
9.524999999999999
 49
6.35
 49
-3.175
  0
LTYPE
  2
DASHEDX2
 70
     0
  3
Dashed (2x) ____  ____  ____  ____  ____  ___
 72
    65
 73
     2
 40
38.09999999999999
 49
25.4
 49
-12.7
  0
LTYPE
  2
DOTX2
 70
     0
  3
Dot (2x) .  .  .  .  .  .  .  .  .  .  .  .  .  .
 72
    65
 73
     2
 40
12.7
 49
0.0
 49
-12.7
  0
LTYPE
  2
DOT
 70
     0
  3
Dot . . . . . . . . . . . . . . . . . . . . . . . .
 72
    65
 73
     2
 40
6.35
 49
0.0
 49
-6.35
  0
LTYPE
  2
DOT2
 70
     0
  3
Dot (.5x) ........................................
 72
    65
 73
     2
 40
3.175
 49
0.0
 49
-3.175
  0
LTYPE
  2
CENTERX2
 70
     0
  3
Center (2x) ________  __  ________  __  _____
 72
    65
 73
     4
 40
101.6
 49
63.5
 49
-12.7
 49
12.7
 49
-12.7
  0
LTYPE
  2
CENTER
 70
     0
  3
Center ____ _ ____ _ ____ _ ____ _ ____ _ ____
 72
    65
 73
     4
 40
50.8
 49
31.75
 49
-6.35
 49
6.35
 49
-6.35
  0
LTYPE
  2
CENTER2
 70
     0
  3
Center (.5x) ___ _ ___ _ ___ _ ___ _ ___ _ ___
 72
    65
 73
     4
 40
28.575
 49
19.05
 49
-3.175
 49
3.175
 49
-3.175
  0
LTYPE
  2
DASHDOTX2
 70
     0
  3
Dash dot (2x) ____  .  ____  .  ____  .  ___
 72
    65
 73
     4
 40
50.8
 49
25.4
 49
-12.7
 49
0.0
 49
-12.7
  0
LTYPE
  2
DASHDOT
 70
     0
  3
Dash dot __ . __ . __ . __ . __ . __ . __ . __
 72
    65
 73
     4
 40
25.4
 49
12.7
 49
-6.35
 49
0.0
 49
-6.35
  0
LTYPE
  2
DASHDOT2
 70
     0
  3
Dash dot (.5x) _._._._._._._._._._._._._._._.
 72
    65
 73
     4
 40
12.7
 49
6.35
 49
-3.175
 49
0.0
 49
-3.175
  0
LTYPE
  2
DIVIDEX2
 70
     0
  3
Divide (2x) ________  .  .  ________  .  .  _
 72
    65
 73
     6
 40
63.5
 49
25.4
 49
-12.7
 49
0.0
 49
-12.7
 49
0.0
 49
-12.7
  0
LTYPE
  2
DIVIDE
 70
     0
  3
Divide ____ . . ____ . . ____ . . ____ . . ____
 72
    65
 73
     6
 40
31.75
 49
12.7
 49
-6.35
 49
0.0
 49
-6.35
 49
0.0
 49
-6.35
  0
LTYPE
  2
DIVIDE2
 70
     0
  3
Divide (.5x) __..__..__..__..__..__..__..__.._
 72
    65
 73
     6
 40
15.875
 49
6.35
 49
-3.175
 49
0.0
 49
-3.175
 49
0.0
 49
-3.175
  0
LTYPE
  2
BORDERX2
 70
     0
  3
Border (2x) ____  ____  .  ____  ____  .  ___
 72
    65
 73
     6
 40
88.89999999999999
 49
25.4
 49
-12.7
 49
25.4
 49
-12.7
 49
0.0
 49
-12.7
  0
LTYPE
  2
BORDER
 70
     0
  3
Border __ __ . __ __ . __ __ . __ __ . __ __ .
 72
    65
 73
     6
 40
44.45
 49
12.7
 49
-6.35
 49
12.7
 49
-6.35
 49
0.0
 49
-6.35
  0
LTYPE
  2
BORDER2
 70
     0
  3
Border (.5x) __.__.__.__.__.__.__.__.__.__.__.
 72
    65
 73
     6
 40
22.225
 49
6.35
 49
-3.175
 49
6.35
 49
-3.175
 49
0.0
 49
-3.175
  0
LTYPE
  2
PHANTOMX2
 70
     0
  3
Phantom (2x) ____________    ____    ____   _
 72
    65
 73
     6
 40
127.0
 49
63.5
 49
-12.7
 49
12.7
 49
-12.7
 49
12.7
 49
-12.7
  0
LTYPE
  2
PHANTOM
 70
     0
  3
Phantom ______  __  __  ______  __  __  ______ 
 72
    65
 73
     6
 40
63.5
 49
31.75
 49
-6.35
 49
6.35
 49
-6.35
 49
6.35
 49
-6.35
  0
LTYPE
  2
PHANTOM2
 70
     0
  3
Phantom (.5x) ___ _ _ ___ _ _ ___ _ _ ___ _ _
 72
    65
 73
     6
 40
31.75
 49
15.875
 49
-3.175
 49
3.175
 49
-3.175
 49
3.175
 49
-3.175
  0
LTYPE
  2
ACAD_ISO06W100
 70
     0
  3
ISO long-dash triple-dot ____ ... ____ ... ____
 72
    65
 73
     8
 40
36.0
 49
24.0
 49
-3.0
 49
0.0
 49
-3.0
 49
0.0
 49
-3.0
 49
0.0
 49
-3.0
  0
LTYPE
  2
ACAD_ISO13W100
 70
     0
  3
ISO double-dash double-dot __ __ . . __ __ . . _
 72
    65
 73
     8
 40
36.0
 49
12.0
 49
-3.0
 49
12.0
 49
-3.0
 49
0.0
 49
-3.0
 49
0.0
 49
-3.0
  0
LTYPE
  2
ACAD_ISO14W100
 70
     0
  3
ISO dash triple-dot __ . . . __ . . . __ . . . _
 72
    65
 73
     8
 40
24.0
 49
12.0
 49
-3.0
 49
0.0
 49
-3.0
 49
0.0
 49
-3.0
 49
0.0
 49
-3.0
  0
LTYPE
  2
ACAD_ISO02W100
 70
     0
  3
ISO dash __ __ __ __ __ __ __ __ __ __ __ __ __
 72
    65
 73
     2
 40
15.0
 49
12.0
 49
-3.0
  0
LTYPE
  2
ACAD_ISO03W100
 70
     0
  3
ISO dash space __    __    __    __    __    __
 72
    65
 73
     2
 40
30.0
 49
12.0
 49
-18.0
  0
LTYPE
  2
ACAD_ISO04W100
 70
     0
  3
ISO long-dash dot ____ . ____ . ____ . ____ . _
 72
    65
 73
     4
 40
30.0
 49
24.0
 49
-3.0
 49
0.0
 49
-3.0
  0
LTYPE
  2
ACAD_ISO05W100
 70
     0
  3
ISO long-dash double-dot ____ .. ____ .. ____ . 
 72
    65
 73
     6
 40
33.0
 49
24.0
 49
-3.0
 49
0.0
 49
-3.0
 49
0.0
 49
-3.0
  0
LTYPE
  2
ACAD_ISO07W100
 70
     0
  3
ISO dot . . . . . . . . . . . . . . . . . . . . 
 72
    65
 73
     2
 40
3.0
 49
0.0
 49
-3.0
  0
LTYPE
  2
ACAD_ISO08W100
 70
     0
  3
ISO long-dash short-dash ____ __ ____ __ ____ _
 72
    65
 73
     4
 40
36.0
 49
24.0
 49
-3.0
 49
6.0
 49
-3.0
  0
LTYPE
  2
ACAD_ISO09W100
 70
     0
  3
ISO long-dash double-short-dash ____ __ __ ____
 72
    65
 73
     6
 40
45.0
 49
24.0
 49
-3.0
 49
6.0
 49
-3.0
 49
6.0
 49
-3.0
  0
LTYPE
  2
ACAD_ISO10W100
 70
     0
  3
ISO dash dot __ . __ . __ . __ . __ . __ . __ . 
 72
    65
 73
     4
 40
18.0
 49
12.0
 49
-3.0
 49
0.0
 49
-3.0
  0
LTYPE
  2
ACAD_ISO11W100
 70
     0
  3
ISO double-dash dot __ __ . __ __ . __ __ . __ _
 72
    65
 73
     6
 40
33.0
 49
12.0
 49
-3.0
 49
12.0
 49
-3.0
 49
0.0
 49
-3.0
  0
LTYPE
  2
ACAD_ISO12W100
 70
     0
  3
ISO dash double-dot __ . . __ . . __ . . __ . . 
 72
    65
 73
     6
 40
21.0
 49
12.0
 49
-3.0
 49
0.0
 49
-3.0
 49
0.0
 49
-3.0
  0
LTYPE
  2
ACAD_ISO15W100
 70
     0
  3
ISO double-dash triple-dot __ __ . . . __ __ . .
 72
    65
 73
    10
 40
39.0
 49
12.0
 49
-3.0
 49
12.0
 49
-3.0
 49
0.0
 49
-3.0
 49
0.0
 49
-3.0
 49
0.0
 49
-3.0
  0
LTYPE
  2
JIS_02_0_7
 70
     0
  3
HIDDEN0.75 _ _ _ _ _ _ _ _ _ _ _ _ _ _ _ _ _ 
 72
    65
 73
     2
 40
1.35
 49
0.75
 49
-0.6
  0
LTYPE
  2
JIS_02_1_0
 70
     0
  3
HIDDEN01 _ _ _ _ _ _ _ _ _ _ _ _ _ _ _ _ _ 
 72
    65
 73
     2
 40
2.0
 49
1.0
 49
-1.0
  0
LTYPE
  2
JIS_02_1_2
 70
     0
  3
HIDDEN01.25  _ _ _ _ _ _ _ _ _ _ _ _ _ _ _ _ _ 
 72
    65
 73
     2
 40
2.5
 49
1.25
 49
-1.25
  0
LTYPE
  2
JIS_02_2_0
 70
     0
  3
HIDDEN02 __ __ __ __ __ __ __ __ __ __ __ 
 72
    65
 73
     2
 40
3.0
 49
2.0
 49
-1.0
  0
LTYPE
  2
JIS_02_4_0
 70
     0
  3
HIDDEN04 ____ ____ ____ ____ ____ ____ ____ 
 72
    65
 73
     2
 40
5.5
 49
4.0
 49
-1.5
  0
LTYPE
  2
JIS_08_11
 70
     0
  3
1SASEN11 ___ _ ___ _ ___ _ ___ _ ___ _ ___
 72
    65
 73
     4
 40
12.8
 49
11.0
 49
-0.6
 49
0.6
 49
-0.6
  0
LTYPE
  2
JIS_08_15
 70
     0
  3
1SASEN15 ____ _ ____ _ ____ _ ____ _ ____ 
 72
    65
 73
     4
 40
17.25
 49
15.0
 49
-0.75
 49
0.75
 49
-0.75
  0
LTYPE
  2
JIS_08_25
 70
     0
  3
1SASEN25 ________  __  ________  __  _____
 72
    65
 73
     4
 40
28.0
 49
25.0
 49
-1.125
 49
0.75
 49
-1.125
  0
LTYPE
  2
JIS_08_37
 70
     0
  3
1SASEN37 ________  __  ________  __  _____
 72
    65
 73
     4
 40
40.5
 49
37.5
 49
-1.125
 49
0.75
 49
-1.125
  0
LTYPE
  2
JIS_08_50
 70
     0
  3
1SASEN50 _______________  __  ____________
 72
    65
 73
     4
 40
53.0
 49
50.0
 49
-1.125
 49
0.75
 49
-1.125
  0
LTYPE
  2
JIS_09_08
 70
     0
  3
2SASEN8 __ _ _ __ _ _ __ _ _ __ _ _ __ _ _ 
 72
    65
 73
     6
 40
10.75
 49
8.0
 49
-0.55
 49
0.55
 49
-0.55
 49
0.55
 49
-0.55
  0
LTYPE
  2
JIS_09_15
 70
     0
  3
2SASEN15 ___ _ _ ___ _ _ ___ _ _ ___ _ _ ___ 
 72
    65
 73
     6
 40
18.9
 49
15.0
 49
-0.9
 49
0.6
 49
-0.9
 49
0.6
 49
-0.9
  0
LTYPE
  2
JIS_09_29
 70
     0
  3
2SASEN29 ______　__  __  ______　__  __  ___
 72
    65
 73
     6
 40
34.0
 49
29.0
 49
-1.2
 49
0.7
 49
-1.2
 49
0.7
 49
-1.2
  0
LTYPE
  2
JIS_09_50
 70
     0
  3
2SASEN50 ____________　__  __  _____________
 72
    65
 73
     6
 40
55.0
 49
50.0
 49
-1.2
 49
0.7
 49
-1.2
 49
0.7
 49
-1.2
  0
LTYPE
  2
SXF_破線
 70
     0
  3
02 dashed -- -- -- -- -- --
 72
    65
 73
     2
 40
7.5
 49
6.0
 49
-1.5
  0
LTYPE
  2
SXF_跳び破線
 70
     0
  3
03 dashed_spaced --  --  --  --
 72
    65
 73
     2
 40
12.0
 49
6.0
 49
-6.0
  0
LTYPE
  2
SXF_一点長鎖線
 70
     0
  3
04 long_dashed_dotted ---- . ---- . ----
 72
    65
 73
     4
 40
15.25
 49
12.0
 49
-1.5
 49
0.25
 49
-1.5
  0
LTYPE
  2
SXF_二点長鎖線
 70
     0
  3
05 long_dashed_double-dotted ---- . . ---- 
 72
    65
 73
     6
 40
17.0
 49
12.0
 49
-1.5
 49
0.25
 49
-1.5
 49
0.25
 49
-1.5
  0
LTYPE
  2
SXF_三点長鎖線
 70
     0
  3
06 long_dashed_triplicate-dotted ---- ... ---- 
 72
    65
 73
     8
 40
18.75
 49
12.0
 49
-1.5
 49
0.25
 49
-1.5
 49
0.25
 49
-1.5
 49
0.25
 49
-1.5
  0
LTYPE
  2
SXF_点線
 70
     0
  3
07 dotted . . . . . . . . . . . . 
 72
    65
 73
     2
 40
1.75
 49
0.25
 49
-1.5
  0
LTYPE
  2
SXF_一点鎖線
 70
     0
  3
08 chain ---- - --- - --- - ---
 72
    65
 73
     4
 40
18.5
 49
12.0
 49
-1.5
 49
3.5
 49
-1.5
  0
LTYPE
  2
SXF_二点鎖線
 70
     0
  3
09 chain_double_dash ---- - - ---- - - ----
 72
    65
 73
     6
 40
23.5
 49
12.0
 49
-1.5
 49
3.5
 49
-1.5
 49
3.5
 49
-1.5
  0
LTYPE
  2
SXF_一点短鎖線
 70
     0
  3
10 dashed_dotted -- . -- . -- . --
 72
    65
 73
     4
 40
9.25
 49
6.0
 49
-1.5
 49
0.25
 49
-1.5
  0
LTYPE
  2
SXF_一点二短鎖線
 70
     0
  3
11 double-dashed_dotted -- -- . -- --
 72
    65
 73
     6
 40
16.75
 49
6.0
 49
-1.5
 49
6.0
 49
-1.5
 49
0.25
 49
-1.5
  0
LTYPE
  2
SXF_二点短鎖線
 70
     0
  3
12 dashed_double_dotted -- . . -- . . --
 72
    65
 73
     6
 40
11.0
 49
6.0
 49
-1.5
 49
0.25
 49
-1.5
 49
0.25
 49
-1.5
  0
LTYPE
  2
SXF_二点二短鎖線
 70
     0
  3
13 double-dashed_double-dotted -- -- . . -- --
 72
    65
 73
     8
 40
18.5
 49
6.0
 49
-1.5
 49
6.0
 49
-1.5
 49
0.25
 49
-1.5
 49
0.25
 49
-1.5
  0
LTYPE
  2
SXF_三点短鎖線
 70
     0
  3
14 dashed triplicate-dotted -- . . . -- . . . --
 72
    65
 73
     8
 40
12.75
 49
6.0
 49
-1.5
 49
0.25
 49
-1.5
 49
0.25
 49
-1.5
 49
0.25
 49
-1.5
  0
LTYPE
  2
SXF_三点二短鎖線
 70
     0
  3
15 double-dashed triplicate-dotted -- -- . . . -- -- 
 72
    65
 73
    10
 40
20.25
 49
6.0
 49
-1.5
 49
6.0
 49
-1.5
 49
0.25
 49
-1.5
 49
0.25
 49
-1.5
 49
0.25
 49
-1.5
  0
ENDTAB
  0
TABLE
  2
LAYER
 70
     2
  0
LAYER
  2
0
 70
     0
 62
     7
  6
CONTINUOUS
  0
LAYER
  2
LAYER0001
 70
     0
 62
     7
  6
CONTINUOUS
  0
ENDTAB
  0
TABLE
  2
STYLE
 70
     2
  0
STYLE
  2
STANDARD
 70
     0
 40
0.0
 41
1.0
 50
0.0
 71
     0
 42
0.2
  3
txt.shx
  4
bigfont.shx
  0
STYLE
  2
DCSTYLE0
 70
     0
 40
0.0
 41
1.0
 50
0.0
 71
     0
 42
0.2
  3
txt.shx
  4
bigfont
  0
ENDTAB
  0
TABLE
  2
VIEW
 70
     0
  0
ENDTAB
  0
TABLE
  2
UCS
 70
     0
  0
ENDTAB
  0
TABLE
  2
APPID
 70
     2
  0
APPID
  2
ACAD
 70
     0
  0
APPID
  2
DAFUSIONOUT
 70
     0
  0
ENDTAB
  0
TABLE
  2
DIMSTYLE
 70
     1
  0
DIMSTYLE
  2
STANDARD
 70
     0
  3

  4

  5

  6

  7

 40
1.0
 41
0.18
 42
0.0625
 43
0.38
 44
0.18
 45
0.0
 46
0.0
 47
0.0
 48
0.0
140
0.18
141
0.09
142
0.0
143
25.4
144
1.0
145
0.0
146
1.0
147
0.09
 71
     0
 72
     0
 73
     1
 74
     1
 75
     0
 76
     0
 77
     0
 78
     0
170
     0
171
     2
172
     0
173
     0
174
     0
175
     0
176
     0
177
     0
178
     0
  0
ENDTAB
  0
ENDSEC
  0
SECTION
  2
BLOCKS
  0
BLOCK
  8
0
  2
$MODEL_SPACE
 70
     0
 10
0.0
 20
0.0
 30
0.0
  3
$MODEL_SPACE
  1

  0
ENDBLK
  5
21
  8
0
  0
BLOCK
 67
     1
  8
0
  2
$PAPER_SPACE
 70
     0
 10
0.0
 20
0.0
 30
0.0
  3
$PAPER_SPACE
  1

  0
ENDBLK
  5
1D
 67
     1
  8
0
  0
BLOCK
  8
0
  2
DC_GROUP_1
 70
     0
 10
0.0
 20
0.0
 30
0.0
  3
DC_GROUP_1
  1

  0
ARC
  5
F5
  8
LAYER0001
  6
CONTINUOUS
 62
     7
 10
-68.37078769626494
 20
81.84573776880002
 30
0.0
 40
50.49460233010998
 50
253.8704711009
 51
254.3859365265
  0
ARC
  5
F6
  8
LAYER0001
  6
CONTINUOUS
 62
     7
 10
-68.37229509036497
 20
81.8403902317
 30
0.0
 40
50.48904641117969
 50
254.3859506471999
 51
254.9014587749
  0
ARC
  5
F7
  8
LAYER0001
  6
CONTINUOUS
 62
     7
 10
-68.37029835666495
 20
81.84780159100002
 30
0.0
 40
50.49672203394429
 50
254.9014618444999
 51
255.4169217938997
  0
LINE
  5
F8
  8
LAYER0001
  6
CONTINUOUS
 62
     7
 10
-81.08454194226495
 20
32.97790343050001
 30
0.0
 11
-80.86456428426494
 21
32.92120067219999
 31
0.0
  0
ENDBLK
  5
B5
  8
0
  0
BLOCK
  8
0
  2
DC_GROUP_2
 70
     0
 10
0.0
 20
0.0
 30
0.0
  3
DC_GROUP_2
  1

  0
ARC
  5
F9
  8
LAYER0001
  6
CONTINUOUS
 62
     7
 10
-60.67462239056495
 20
-44.12659609629998
 30
0.0
 40
95.8698631910374
 50
93.0887360823
 51
93.84076050730003
  0
ARC
  5
FA
  8
LAYER0001
  6
CONTINUOUS
 62
     7
 10
-60.67215718256496
 20
-44.1627085732
 30
0.0
 40
95.90605969060007
 50
93.84078483590001
 51
94.81811051169998
  0
ARC
  5
FB
  8
LAYER0001
  6
CONTINUOUS
 62
     7
 10
-61.35072966926496
 20
-36.36430828939999
 30
0.0
 40
88.078223473891
 50
94.80434244120002
 51
95.8677341257
  0
ARC
  5
FC
  8
LAYER0001
  6
CONTINUOUS
 62
     7
 10
-61.66587082476494
 20
-33.09637895030001
 30
0.0
 40
84.7952011767828
 50
95.88165220259998
 51
96.98542627250002
  0
ARC
  5
FD
  8
LAYER0001
  6
CONTINUOUS
 62
     7
 10
-61.66569636546495
 20
-33.0966785159
 30
0.0
 40
84.79551973605015
 50
96.98551866149998
 51
98.08932617249998
  0
ARC
  5
FE
  8
LAYER0001
  6
CONTINUOUS
 62
     7
 10
-61.65656541266495
 20
-33.16176546589999
 30
0.0
 40
84.86124394220458
 50
98.08924601079998
 51
98.6408688383
  0
ARC
  5
FF
  8
LAYER0001
  6
CONTINUOUS
 62
     7
 10
-63.24846180546496
 20
-22.81874039800001
 30
0.0
 40
74.3964529443973
 50
98.625554253
 51
99.25383652869999
  0
ARC
  5
100
  8
LAYER0001
  6
CONTINUOUS
 62
     7
 10
-64.14420011696497
 20
-17.20498677709999
 30
0.0
 40
68.71171901375786
 50
99.26939576809998
 51
100.6279593507
  0
ARC
  5
101
  8
LAYER0001
  6
CONTINUOUS
 62
     7
 10
-64.14879700886497
 20
-17.17912095390001
 30
0.0
 40
68.68544909784116
 50
100.6281699176
 51
101.9871433072
  0
ARC
  5
102
  8
LAYER0001
  6
CONTINUOUS
 62
     7
 10
-64.13647219756497
 20
-17.23766706130001
 30
0.0
 40
68.74527832944953
 50
101.9870570364
 51
102.6661603196
  0
ARC
  5
103
  8
LAYER0001
  6
CONTINUOUS
 62
     7
 10
-65.56440139496495
 20
-11.00556758680002
 30
0.0
 40
62.35174553395883
 50
102.6416557236
 51
103.389513113
  0
ARC
  5
104
  8
LAYER0001
  6
CONTINUOUS
 62
     7
 10
-68.27852177526496
 20
0.4961473716000029
 30
0.0
 40
50.53416381139892
 50
103.4157090743
 51
105.2242598875
  0
LINE
  5
105
  8
LAYER0001
  6
CONTINUOUS
 62
     7
 10
-81.54867986926497
 20
49.25683457219999
 30
0.0
 11
-82.31638477066495
 21
49.0413731231
 31
0.0
  0
ENDBLK
  5
B8
  8
0
  0
BLOCK
  8
0
  2
DC_GROUP_3
 70
     0
 10
0.0
 20
0.0
 30
0.0
  3
DC_GROUP_3
  1

  0
ARC
  5
106
  8
LAYER0001
  6
CONTINUOUS
 62
     7
 10
-79.74074940086497
 20
29.39236622139999
 30
0.0
 40
20.3217724138331
 50
122.2452356144
 51
124.0583056067
  0
ARC
  5
107
  8
LAYER0001
  6
CONTINUOUS
 62
     7
 10
-83.70459975556496
 20
35.14363117980001
 30
0.0
 40
13.33728177677264
 50
123.7876337629
 51
126.6712871698
  0
ARC
  5
108
  8
LAYER0001
  6
CONTINUOUS
 62
     7
 10
-85.31294445786496
 20
37.35331403429999
 30
0.0
 40
10.60445091740756
 50
126.8315450341
 51
130.5947226768
  0
ARC
  5
109
  8
LAYER0001
  6
CONTINUOUS
 62
     7
 10
-85.31391565336496
 20
37.35547917250001
 30
0.0
 40
10.60217492051304
 50
130.5983510557001
 51
134.3634234283
  0
ARC
  5
10A
  8
LAYER0001
  6
CONTINUOUS
 62
     7
 10
-85.21928749116496
 20
37.2585964037
 30
0.0
 40
10.73760295317528
 50
134.3629451616
 51
138.0976187447999
  0
ARC
  5
10B
  8
LAYER0001
  6
CONTINUOUS
 62
     7
 10
-85.81911465026495
 20
37.8141659063
 30
0.0
 40
9.920125121269873
 50
138.1721180248001
 51
141.5293089855001
  0
ARC
  5
10C
  8
LAYER0001
  6
CONTINUOUS
 62
     7
 10
-89.39580176696494
 20
40.75343432329999
 30
0.0
 40
5.291828879097687
 50
142.3535397982
 51
147.2784695962002
  0
ARC
  5
10D
  8
LAYER0001
  6
CONTINUOUS
 62
     7
 10
-89.46071039006496
 20
40.79667346780001
 30
0.0
 40
5.213847712944473
 50
147.2926527215001
 51
152.2696708809003
  0
ARC
  5
10E
  8
LAYER0001
  6
CONTINUOUS
 62
     7
 10
-89.42482240606496
 20
40.77832415069999
 30
0.0
 40
5.254152022836273
 50
152.2746566947999
 51
157.2292918123999
  0
ARC
  5
10F
  8
LAYER0001
  6
CONTINUOUS
 62
     7
 10
-89.27792238036496
 20
40.7161937229
 30
0.0
 40
5.413650070213132
 50
157.2247277089
 51
162.0844825357001
  0
ARC
  5
110
  8
LAYER0001
  6
CONTINUOUS
 62
     7
 10
-89.08236812916495
 20
40.6652593653
 30
0.0
 40
5.615402423754704
 50
162.2037664519001
 51
166.3721780399
  0
ARC
  5
111
  8
LAYER0001
  6
CONTINUOUS
 62
     7
 10
-90.75684514796494
 20
41.10867220690001
 30
0.0
 40
3.883763724686593
 50
166.9091671851002
 51
172.0318006557
  0
ARC
  5
112
  8
LAYER0001
  6
CONTINUOUS
 62
     7
 10
-90.90750800496495
 20
41.13148754219999
 30
0.0
 40
3.731393144387085
 50
172.0580524589998
 51
177.3227724383999
  0
ARC
  5
113
  8
LAYER0001
  6
CONTINUOUS
 62
     7
 10
-90.96301564676496
 20
41.13514173080002
 30
0.0
 40
3.675775555167138
 50
177.3392556386999
 51
182.6607443599001
  0
ARC
  5
114
  8
LAYER0001
  6
CONTINUOUS
 62
     7
 10
-90.92336772376494
 20
41.1373219812
 30
0.0
 40
3.715481961364715
 50
182.6659467530997
 51
187.9532283518999
  0
ARC
  5
115
  8
LAYER0001
  6
CONTINUOUS
 62
     7
 10
-90.78856444786494
 20
41.15571552679999
 30
0.0
 40
3.851533653183825
 50
187.9467514845998
 51
193.1122806737998
  0
ARC
  5
116
  8
LAYER0001
  6
CONTINUOUS
 62
     7
 10
-90.39140407596496
 20
41.23677415900001
 30
0.0
 40
4.256742589077003
 50
192.9621394319001
 51
198.4619160760002
  0
ARC
  5
117
  8
LAYER0001
  6
CONTINUOUS
 62
     7
 10
-89.24192121266493
 20
41.567439411
 30
0.0
 40
5.452012375303349
 50
197.9326250981997
 51
202.758164657
  0
ARC
  5
118
  8
LAYER0001
  6
CONTINUOUS
 62
     7
 10
-89.40831677446495
 20
41.49974317699998
 30
0.0
 40
5.272383983882067
 50
202.7792800929998
 51
207.7167713999997
  0
ARC
  5
119
  8
LAYER0001
  6
CONTINUOUS
 62
     7
 10
-89.46199781326494
 20
41.4728601289
 30
0.0
 40
5.212359233779773
 50
207.7296180353
 51
212.7080583621001
  0
ARC
  5
11A
  8
LAYER0001
  6
CONTINUOUS
 62
     7
 10
-89.41317963876496
 20
41.5045976667
 30
0.0
 40
5.270586208025116
 50
212.7115994854001
 51
217.6563911201001
  0
ARC
  5
11B
  8
LAYER0001
  6
CONTINUOUS
 62
     7
 10
-88.46495702936495
 20
42.22421869469999
 30
0.0
 40
6.460924699682218
 50
217.5714645303999
 51
222.7271084601998
  0
ARC
  5
11C
  8
LAYER0001
  6
CONTINUOUS
 62
     7
 10
-85.19324479466495
 20
45.0366346976
 30
0.0
 40
10.77364779173119
 50
221.9086309091998
 51
225.6308051838001
  0
ARC
  5
11D
  8
LAYER0001
  6
CONTINUOUS
 62
     7
 10
-85.30514573436496
 20
44.92438138830001
 30
0.0
 40
10.615153770497
 50
225.6388791231001
 51
229.3993463935001
  0
ARC
  5
11E
  8
LAYER0001
  6
CONTINUOUS
 62
     7
 10
-85.31915131326495
 20
44.90922564379999
 30
0.0
 40
10.59453199813161
 50
229.4035150885999
 51
233.1702171999999
  0
ARC
  5
11F
  8
LAYER0001
  6
CONTINUOUS
 62
     7
 10
-83.06071113736495
 20
48.0384269158
 30
0.0
 40
14.45316600533586
 50
233.4400526598999
 51
236.1010264074
  0
ARC
  5
120
  8
LAYER0001
  6
CONTINUOUS
 62
     7
 10
-79.72860177686495
 20
52.89651490410002
 30
0.0
 40
20.3439830978714
 50
235.9426841918
 51
237.7537745873
  0
ENDBLK
  5
BB
  8
0
  0
BLOCK
  8
0
  2
DC_GROUP_4
 70
     0
 10
0.0
 20
0.0
 30
0.0
  3
DC_GROUP_4
  1

  0
ARC
  5
121
  8
LAYER0001
  6
CONTINUOUS
 62
     7
 10
-85.31383804636495
 20
37.3555407201
 30
0.0
 40
9.602181755388946
 50
131.2007852844
 51
134.0378210436
  0
ARC
  5
122
  8
LAYER0001
  6
CONTINUOUS
 62
     7
 10
-85.25473840376496
 20
37.2939264836
 30
0.0
 40
9.687557186765517
 50
134.0357836824
 51
136.4061656498
  0
ARC
  5
123
  8
LAYER0001
  6
CONTINUOUS
 62
     7
 10
-85.15682987736496
 20
37.20020460429999
 30
0.0
 40
9.823092194458857
 50
136.4040326106999
 51
138.755077718
  0
ARC
  5
124
  8
LAYER0001
  6
CONTINUOUS
 62
     7
 10
-85.04637484456494
 20
37.10216497210001
 30
0.0
 40
9.970778667690553
 50
138.7499340105999
 51
139.9145633118001
  0
ARC
  5
125
  8
LAYER0001
  6
CONTINUOUS
 62
     7
 10
-89.17302782456495
 20
40.57344094860002
 30
0.0
 40
4.578282294143241
 50
139.8964074914001
 51
140.6685795982001
  0
ARC
  5
126
  8
LAYER0001
  6
CONTINUOUS
 62
     7
 10
-89.81564643326494
 20
41.09476708799998
 30
0.0
 40
3.750804458066447
 50
140.6066677722997
 51
141.7505994929998
  0
ARC
  5
127
  8
LAYER0001
  6
CONTINUOUS
 62
     7
 10
-90.42878826756494
 20
41.53926497010001
 30
0.0
 40
2.994262998825024
 50
141.1667218624003
 51
144.3272635251
  0
ARC
  5
128
  8
LAYER0001
  6
CONTINUOUS
 62
     7
 10
-89.41329874386496
 20
40.76545710809999
 30
0.0
 40
4.270612234414848
 50
143.8385839736999
 51
147.0347942246999
  0
ARC
  5
129
  8
LAYER0001
  6
CONTINUOUS
 62
     7
 10
-89.45815655196496
 20
40.79504927280001
 30
0.0
 40
4.216874528629231
 50
147.0404926932
 51
150.2606147175999
  0
ARC
  5
12A
  8
LAYER0001
  6
CONTINUOUS
 62
     7
 10
-89.45854929476495
 20
40.7955637943
 30
0.0
 40
4.21627828992594
 50
150.2640382673002
 51
153.4851863956
  0
ARC
  5
12B
  8
LAYER0001
  6
CONTINUOUS
 62
     7
 10
-89.42097359546496
 20
40.77673894510001
 30
0.0
 40
4.258305700962583
 50
153.4842453009999
 51
156.6913567720001
  0
ARC
  5
12C
  8
LAYER0001
  6
CONTINUOUS
 62
     7
 10
-89.33330898546494
 20
40.73838665180001
 30
0.0
 40
4.353991136512101
 50
156.6843198204001
 51
159.8548592612002
  0
ARC
  5
12D
  8
LAYER0001
  6
CONTINUOUS
 62
     7
 10
-88.49178002156494
 20
40.44770237550001
 30
0.0
 40
5.244176862959731
 50
160.0397313801003
 51
162.3764900003002
  0
ARC
  5
12E
  8
LAYER0001
  6
CONTINUOUS
 62
     7
 10
-86.73069742566496
 20
39.94999127870001
 30
0.0
 40
7.073537911271593
 50
162.8530626057001
 51
163.9784443793999
  0
ARC
  5
12F
  8
LAYER0001
  6
CONTINUOUS
 62
     7
 10
-90.43364595516495
 20
41.02834328600002
 30
0.0
 40
3.216828004559526
 50
164.2359350377002
 51
165.7811012858002
  0
ARC
  5
130
  8
LAYER0001
  6
CONTINUOUS
 62
     7
 10
-91.57086712976495
 20
41.29282906380001
 30
0.0
 40
2.049609901057375
 50
165.1395523908997
 51
169.4290349185
  0
ARC
  5
131
  8
LAYER0001
  6
CONTINUOUS
 62
     7
 10
-90.80987260276494
 20
41.11809515929998
 30
0.0
 40
2.829927422147748
 50
168.7778669907997
 51
173.1847511987995
  0
ARC
  5
132
  8
LAYER0001
  6
CONTINUOUS
 62
     7
 10
-90.92306187736496
 20
41.13278360560001
 30
0.0
 40
2.71579514005389
 50
173.2090696889001
 51
177.7130612764001
  0
ARC
  5
133
  8
LAYER0001
  6
CONTINUOUS
 62
     7
 10
-90.95976269836494
 20
41.13514173080002
 30
0.0
 40
2.67902960035409
 50
177.7321326466002
 51
182.2678673516004
  0
ARC
  5
134
  8
LAYER0001
  6
CONTINUOUS
 62
     7
 10
-90.94079847046494
 20
41.136091828
 30
0.0
 40
2.69801657847269
 50
182.2720914910002
 51
186.8057775446
  0
ARC
  5
135
  8
LAYER0001
  6
CONTINUOUS
 62
     7
 10
-90.84500170556494
 20
41.1466126513
 30
0.0
 40
2.794385224954134
 50
186.7872088076002
 51
191.2501730032003
  0
ARC
  5
136
  8
LAYER0001
  6
CONTINUOUS
 62
     7
 10
-88.30357070296496
 20
41.71471264970001
 30
0.0
 40
5.398163173101984
 50
191.9015397163002
 51
193.5298729740001
  0
ARC
  5
137
  8
LAYER0001
  6
CONTINUOUS
 62
     7
 10
-90.55576177736494
 20
41.2092387974
 30
0.0
 40
3.090421399950842
 50
194.1872959376999
 51
195.7956677377999
  0
ARC
  5
138
  8
LAYER0001
  6
CONTINUOUS
 62
     7
 10
-90.13359099116495
 20
41.30686424549999
 30
0.0
 40
3.523287254926648
 50
195.4545034660998
 51
197.7139895488996
  0
ARC
  5
139
  8
LAYER0001
  6
CONTINUOUS
 62
     7
 10
-89.70385432636495
 20
41.4101487896
 30
0.0
 40
3.964206982974534
 50
197.2461813361999
 51
200.3375972815002
  0
ARC
  5
13A
  8
LAYER0001
  6
CONTINUOUS
 62
     7
 10
-89.30644377186495
 20
41.54260429750001
 30
0.0
 40
4.382900548432048
 50
200.1555997484
 51
203.3052211709999
  0
ARC
  5
13B
  8
LAYER0001
  6
CONTINUOUS
 62
     7
 10
-89.40511922976494
 20
41.5009079714
 30
0.0
 40
4.275779769164128
 50
203.3151982700001
 51
206.5091996563001
  0
ARC
  5
13C
  8
LAYER0001
  6
CONTINUOUS
 62
     7
 10
-89.45318172776494
 20
41.4775887384
 30
0.0
 40
4.22236213111689
 50
206.5171348289999
 51
209.7336405071999
  0
ARC
  5
13D
  8
LAYER0001
  6
CONTINUOUS
 62
     7
 10
-89.46270969546494
 20
41.47246044949999
 30
0.0
 40
4.211545149849167
 50
209.7373473397001
 51
212.96154525
  0
ARC
  5
13E
  8
LAYER0001
  6
CONTINUOUS
 62
     7
 10
-89.42708224126496
 20
41.49533077650001
 30
0.0
 40
4.253881064819447
 50
212.9589185417002
 51
216.1677032593001
  0
ARC
  5
13F
  8
LAYER0001
  6
CONTINUOUS
 62
     7
 10
-86.48463017596494
 20
43.73055273469999
 30
0.0
 40
7.948710898296465
 50
216.6577873080998
 51
217.8482273058001
  0
ARC
  5
140
  8
LAYER0001
  6
CONTINUOUS
 62
     7
 10
-88.26338876606495
 20
42.42451692639998
 30
0.0
 40
5.743101600396043
 50
218.4478205345
 51
219.1949121987998
  0
ARC
  5
141
  8
LAYER0001
  6
CONTINUOUS
 62
     7
 10
-89.42415291106495
 20
41.4882247995
 30
0.0
 40
4.251816448691375
 50
219.3017751801002
 51
220.1332377302
  0
ARC
  5
142
  8
LAYER0001
  6
CONTINUOUS
 62
     7
 10
-85.03056688516496
 20
45.18170000720001
 30
0.0
 40
9.991618639642901
 50
220.0866512902001
 51
221.2488513878
  0
ARC
  5
143
  8
LAYER0001
  6
CONTINUOUS
 62
     7
 10
-85.13219519686494
 20
45.0925895369
 30
0.0
 40
9.856455813468425
 50
221.2489019237
 51
223.5919877473001
  0
ARC
  5
144
  8
LAYER0001
  6
CONTINUOUS
 62
     7
 10
-85.23885688776495
 20
44.99211646249999
 30
0.0
 40
9.709926143568165
 50
223.5965650869
 51
225.9614855805
  0
ARC
  5
145
  8
LAYER0001
  6
CONTINUOUS
 62
     7
 10
-85.30545643406494
 20
44.92385151539998
 30
0.0
 40
9.614556221406927
 50
225.9640050398
 51
228.7973886327
  0
ENDBLK
  5
BE
  8
0
  0
BLOCK
  8
0
  2
DC_GROUP_5
 70
     0
 10
0.0
 20
0.0
 30
0.0
  3
DC_GROUP_5
  1

  0
ARC
  5
146
  8
LAYER0001
  6
CONTINUOUS
 62
     7
 10
-35.96374792196494
 20
37.3555407201
 30
0.0
 40
9.602181755450367
 50
45.96217895630003
 51
48.79921471600009
  0
ARC
  5
147
  8
LAYER0001
  6
CONTINUOUS
 62
     7
 10
-36.02284756466494
 20
37.29392648350002
 30
0.0
 40
9.687557186941854
 50
43.59383435009992
 51
45.96421631740002
  0
ARC
  5
148
  8
LAYER0001
  6
CONTINUOUS
 62
     7
 10
-36.12075609116494
 20
37.20020460409999
 30
0.0
 40
9.823092194776569
 50
41.2449222818
 51
43.59596738920006
  0
ARC
  5
149
  8
LAYER0001
  6
CONTINUOUS
 62
     7
 10
-36.23121112516495
 20
37.10216497080001
 30
0.0
 40
9.970778669635731
 50
40.08543668819993
 51
41.25006598939992
  0
ARC
  5
14A
  8
LAYER0001
  6
CONTINUOUS
 62
     7
 10
-32.10455814366495
 20
40.5734409487
 30
0.0
 40
4.578282294078537
 50
39.33142040149993
 51
40.10359250729994
  0
ARC
  5
14B
  8
LAYER0001
  6
CONTINUOUS
 62
     7
 10
-31.46193953416496
 20
41.09476708870002
 30
0.0
 40
3.750804457002702
 50
38.24940050649994
 51
39.39333222799984
  0
ARC
  5
14C
  8
LAYER0001
  6
CONTINUOUS
 62
     7
 10
-30.84879770046496
 20
41.53926497019999
 30
0.0
 40
2.994262998613335
 50
35.67273647439964
 51
38.83327813889962
  0
ARC
  5
14D
  8
LAYER0001
  6
CONTINUOUS
 62
     7
 10
-31.86428722436495
 20
40.76545710809999
 30
0.0
 40
4.270612234340176
 50
32.96520577489999
 51
36.16141602540005
  0
ARC
  5
14E
  8
LAYER0001
  6
CONTINUOUS
 62
     7
 10
-31.81942941636494
 20
40.79504927270001
 30
0.0
 40
4.216874528704297
 50
29.73938528209996
 51
32.95950730679986
  0
ARC
  5
14F
  8
LAYER0001
  6
CONTINUOUS
 62
     7
 10
-31.81903667326495
 20
40.7955637944
 30
0.0
 40
4.216278289683307
 50
26.51481360400019
 51
29.7359617321001
  0
ARC
  5
150
  8
LAYER0001
  6
CONTINUOUS
 62
     7
 10
-31.85661237286497
 20
40.77673894510001
 30
0.0
 40
4.258305701069103
 50
23.30864322759971
 51
26.51575469809999
  0
ARC
  5
151
  8
LAYER0001
  6
CONTINUOUS
 62
     7
 10
-31.94427698266496
 20
40.73838665180001
 30
0.0
 40
4.353991136434956
 50
20.14514073839977
 51
23.3156801802999
  0
ARC
  5
152
  8
LAYER0001
  6
CONTINUOUS
 62
     7
 10
-32.78580594656495
 20
40.4477023756
 30
0.0
 40
5.244176862804371
 50
17.62350999929993
 51
19.96026861849991
  0
ARC
  5
153
  8
LAYER0001
  6
CONTINUOUS
 62
     7
 10
-34.54688854226492
 20
39.94999127880001
 30
0.0
 40
7.073537910947193
 50
16.02155562020013
 51
17.14693739440013
  0
ARC
  5
154
  8
LAYER0001
  6
CONTINUOUS
 62
     7
 10
-30.84394001296495
 20
41.0283432861
 30
0.0
 40
3.216828004477061
 50
14.21889871360012
 51
15.76406496050042
  0
ARC
  5
155
  8
LAYER0001
  6
CONTINUOUS
 62
     7
 10
-29.70671883836495
 20
41.29282906380001
 30
0.0
 40
2.049609900989275
 50
10.57096508079974
 51
14.8604476107998
  0
ARC
  5
156
  8
LAYER0001
  6
CONTINUOUS
 62
     7
 10
-30.46771336546495
 20
41.11809515929998
 30
0.0
 40
2.829927422177451
 50
6.815248800500426
 51
11.22213300840045
  0
ARC
  5
157
  8
LAYER0001
  6
CONTINUOUS
 62
     7
 10
-30.35452409076494
 20
41.13278360560001
 30
0.0
 40
2.715795139959473
 50
2.286938722899909
 51
6.790930310599758
  0
ARC
  5
158
  8
LAYER0001
  6
CONTINUOUS
 62
     7
 10
-30.31782326986495
 20
41.13514173080002
 30
0.0
 40
2.679029600366901
 50
357.732132647699
 51
2.267867352599956
  0
ARC
  5
159
  8
LAYER0001
  6
CONTINUOUS
 62
     7
 10
-30.33678749776494
 20
41.136091828
 30
0.0
 40
2.698016578460507
 50
353.1942224545996
 51
357.7279085082997
  0
ARC
  5
15A
  8
LAYER0001
  6
CONTINUOUS
 62
     7
 10
-30.43258426276495
 20
41.1466126513
 30
0.0
 40
2.794385225026588
 50
348.7498269961
 51
353.2127911919
  0
ARC
  5
15B
  8
LAYER0001
  6
CONTINUOUS
 62
     7
 10
-32.97401526536493
 20
41.71471264980001
 30
0.0
 40
5.398163173196603
 50
346.4701270253
 51
348.0984602822999
  0
ARC
  5
15C
  8
LAYER0001
  6
CONTINUOUS
 62
     7
 10
-30.72182419136495
 20
41.20923879749999
 30
0.0
 40
3.090421400444681
 50
344.2043322616001
 51
345.8127040629004
  0
ARC
  5
15D
  8
LAYER0001
  6
CONTINUOUS
 62
     7
 10
-31.14399497716494
 20
41.30686424549999
 30
0.0
 40
3.523287255023664
 50
342.2860104504999
 51
344.5454965331998
  0
ARC
  5
15E
  8
LAYER0001
  6
CONTINUOUS
 62
     7
 10
-31.57373164206496
 20
41.41014878969998
 30
0.0
 40
3.96420698319639
 50
339.6624027181003
 51
342.7538186623003
  0
ARC
  5
15F
  8
LAYER0001
  6
CONTINUOUS
 62
     7
 10
-31.97114219616495
 20
41.5426042974
 30
0.0
 40
4.382900548235392
 50
336.6947788285003
 51
339.8444002519001
  0
ARC
  5
160
  8
LAYER0001
  6
CONTINUOUS
 62
     7
 10
-31.87246673856493
 20
41.50090797150001
 30
0.0
 40
4.275779769322158
 50
333.4908003431996
 51
336.6848017285997
  0
ARC
  5
161
  8
LAYER0001
  6
CONTINUOUS
 62
     7
 10
-31.82440424066494
 20
41.47758873860001
 30
0.0
 40
4.22236213142337
 50
330.2663594922001
 51
333.4828651697998
  0
ARC
  5
162
  8
LAYER0001
  6
CONTINUOUS
 62
     7
 10
-31.81487627246495
 20
41.47246044930002
 30
0.0
 40
4.211545149522994
 50
327.0384547492997
 51
330.2626526609998
  0
ARC
  5
163
  8
LAYER0001
  6
CONTINUOUS
 62
     7
 10
-31.85050372696496
 20
41.49533077650001
 30
0.0
 40
4.253881064853823
 50
323.8322967401
 51
327.0410814574996
  0
ARC
  5
164
  8
LAYER0001
  6
CONTINUOUS
 62
     7
 10
-34.79295579206496
 20
43.73055273449999
 30
0.0
 40
7.948710898025796
 50
322.1517726935002
 51
323.3422126919
  0
ARC
  5
165
  8
LAYER0001
  6
CONTINUOUS
 62
     7
 10
-33.01419720356495
 20
42.42451692760002
 30
0.0
 40
5.74310160222294
 50
320.8050878006001
 51
321.5521794635
  0
ARC
  5
166
  8
LAYER0001
  6
CONTINUOUS
 62
     7
 10
-31.85343305936495
 20
41.48822480130001
 30
0.0
 40
4.251816451513946
 50
319.8667622694996
 51
320.6982248197997
  0
ARC
  5
167
  8
LAYER0001
  6
CONTINUOUS
 62
     7
 10
-36.24701908226496
 20
45.18170000639999
 30
0.0
 40
9.991618638495947
 50
318.7511486117
 51
319.91334871
  0
ARC
  5
168
  8
LAYER0001
  6
CONTINUOUS
 62
     7
 10
-36.14539077076495
 20
45.0925895363
 30
0.0
 40
9.856455812601753
 50
316.4080122522
 51
318.7510980757
  0
ARC
  5
169
  8
LAYER0001
  6
CONTINUOUS
 62
     7
 10
-36.03872908066496
 20
44.9921164627
 30
0.0
 40
9.709926143840425
 50
314.0385144192001
 51
316.4034349125001
  0
ARC
  5
16A
  8
LAYER0001
  6
CONTINUOUS
 62
     7
 10
-35.97212953426496
 20
44.9238515155
 30
0.0
 40
9.61455622153066
 50
311.2026113675001
 51
314.0359949598999
  0
ENDBLK
  5
C1
  8
0
  0
BLOCK
  8
0
  2
DC_GROUP_6
 70
     0
 10
0.0
 20
0.0
 30
0.0
  3
DC_GROUP_6
  1

  0
ARC
  5
16B
  8
LAYER0001
  6
CONTINUOUS
 62
     7
 10
-52.90663937556494
 20
0.4250335381999979
 30
0.0
 40
50.49408954534229
 50
73.8704905197
 51
75.68011840680002
  0
ARC
  5
16C
  8
LAYER0001
  6
CONTINUOUS
 62
     7
 10
-59.13302669736493
 20
-25.20160937469999
 30
0.0
 40
76.86512365608232
 50
75.90779511780002
 51
76.80533286710003
  0
ARC
  5
16D
  8
LAYER0001
  6
CONTINUOUS
 62
     7
 10
-57.38648983986494
 20
-18.8261058623
 30
0.0
 40
70.2596952250438
 50
77.0052532808
 51
77.66977116580001
  0
ARC
  5
16E
  8
LAYER0001
  6
CONTINUOUS
 62
     7
 10
-53.53512807436495
 20
-0.5067131349000102
 30
0.0
 40
51.54064966739076
 50
77.50356912500001
 51
78.8620059385
  0
ARC
  5
16F
  8
LAYER0001
  6
CONTINUOUS
 62
     7
 10
-57.04571160806495
 20
-17.2849533668
 30
0.0
 40
68.68131786969145
 50
78.69235407079996
 51
80.0513643716
  0
ARC
  5
170
  8
LAYER0001
  6
CONTINUOUS
 62
     7
 10
-62.59703271366494
 20
-50.68308812439999
 30
0.0
 40
102.5367665222099
 50
80.2202237734
 51
80.90322686400002
  0
ARC
  5
171
  8
LAYER0001
  6
CONTINUOUS
 62
     7
 10
-59.35561542306493
 20
-32.04753796510001
 30
0.0
 40
83.62351173269288
 50
81.07747983440001
 51
81.63706792390002
  0
ARC
  5
172
  8
LAYER0001
  6
CONTINUOUS
 62
     7
 10
-56.60116319246492
 20
-12.2411219994
 30
0.0
 40
63.6272789810088
 50
81.49700450270001
 51
82.60040359809999
  0
ARC
  5
173
  8
LAYER0001
  6
CONTINUOUS
 62
     7
 10
-59.52819637526495
 20
-33.195581884
 30
0.0
 40
84.7844454501894
 50
82.4625701654
 51
83.5664500261
  0
ARC
  5
174
  8
LAYER0001
  6
CONTINUOUS
 62
     7
 10
-59.47088442676495
 20
-32.6634588703
 30
0.0
 40
84.24925168480478
 50
83.5646316456
 51
84.6757652839
  0
ARC
  5
175
  8
LAYER0001
  6
CONTINUOUS
 62
     7
 10
-60.40060548846495
 20
-42.7423135413
 30
0.0
 40
94.37089244812344
 50
84.6815480598
 51
85.6746289882
  0
ARC
  5
176
  8
LAYER0001
  6
CONTINUOUS
 62
     7
 10
-61.49892368106496
 20
-58.59742476469999
 30
0.0
 40
110.2637270567685
 50
85.72690686699998
 51
86.47883593550002
  0
LINE
  5
177
  8
LAYER0001
  6
CONTINUOUS
 62
     7
 10
-54.72683110626494
 20
51.45814422939999
 30
0.0
 11
-55.35495772406495
 21
51.4941059494
 31
0.0
  0
ENDBLK
  5
C4
  8
0
  0
BLOCK
  8
0
  2
DC_GROUP_7
 70
     0
 10
0.0
 20
0.0
 30
0.0
  3
DC_GROUP_7
  1

  0
ARC
  5
178
  8
LAYER0001
  6
CONTINUOUS
 62
     7
 10
-73.58750143666494
 20
65.83880860789999
 30
0.0
 40
34.23135579505644
 50
248.0251707612999
 51
251.6249431643
  0
ARC
  5
179
  8
LAYER0001
  6
CONTINUOUS
 62
     7
 10
-68.11656629656495
 20
82.3030033635
 30
0.0
 40
51.58073151581772
 50
251.6228495541
 51
254.238206446
  0
ARC
  5
17A
  8
LAYER0001
  6
CONTINUOUS
 62
     7
 10
-68.13552157076494
 20
82.2407123094
 30
0.0
 40
51.5156336799758
 50
254.2396766562999
 51
256.8576917807
  0
ARC
  5
17B
  8
LAYER0001
  6
CONTINUOUS
 62
     7
 10
-63.98767964056493
 20
99.9999700451
 30
0.0
 40
69.75284363119063
 50
256.8566463757001
 51
258.9985008254999
  0
ARC
  5
17C
  8
LAYER0001
  6
CONTINUOUS
 62
     7
 10
-63.99810419146497
 20
99.9513395984
 30
0.0
 40
69.70311754624926
 50
258.9992838559
 51
261.1424067115
  0
ARC
  5
17D
  8
LAYER0001
  6
CONTINUOUS
 62
     7
 10
-61.51370981806494
 20
115.8869622326
 30
0.0
 40
85.83123843206945
 50
261.1417307525001
 51
263.6311514488
  0
ARC
  5
17E
  8
LAYER0001
  6
CONTINUOUS
 62
     7
 10
-61.14233549546495
 20
119.3921417346
 30
0.0
 40
89.35598350702341
 50
263.6438104003
 51
266.0853217563
  0
ARC
  5
17F
  8
LAYER0001
  6
CONTINUOUS
 62
     7
 10
-60.52600177226496
 20
126.9007293322
 30
0.0
 40
96.88918385896532
 50
266.0248393682
 51
268.3224683764
  0
ARC
  5
180
  8
LAYER0001
  6
CONTINUOUS
 62
     7
 10
-60.40885356456494
 20
130.8730009461
 30
0.0
 40
100.8631824551866
 50
268.3220067418
 51
270.559129674
  0
ARC
  5
181
  8
LAYER0001
  6
CONTINUOUS
 62
     7
 10
-60.39097809506496
 20
129.5886910087
 30
0.0
 40
99.57875937609103
 50
270.5560561692
 51
272.8070402222
  0
ARC
  5
182
  8
LAYER0001
  6
CONTINUOUS
 62
     7
 10
-60.29220534856495
 20
126.9039001895
 30
0.0
 40
96.8923583765259
 50
272.8264517664
 51
275.1240431355
  0
ARC
  5
183
  8
LAYER0001
  6
CONTINUOUS
 62
     7
 10
-59.30230433816496
 20
115.8736658251
 30
0.0
 40
85.81779412309159
 50
275.1235024176
 51
277.6132156104
  0
ARC
  5
184
  8
LAYER0001
  6
CONTINUOUS
 62
     7
 10
-60.80031147936496
 20
125.2411940896
 30
0.0
 40
95.30152290735708
 50
277.7597566036
 51
279.6647409714
  0
ARC
  5
185
  8
LAYER0001
  6
CONTINUOUS
 62
     7
 10
-56.81703423666495
 20
99.9356740136
 30
0.0
 40
69.68718346529639
 50
279.9291715725
 51
282.0725394282
  0
ARC
  5
186
  8
LAYER0001
  6
CONTINUOUS
 62
     7
 10
-55.38859589756493
 20
93.407663758
 30
0.0
 40
63.00479949366912
 50
282.0438812999
 51
284.3002543348999
  0
ARC
  5
187
  8
LAYER0001
  6
CONTINUOUS
 62
     7
 10
-52.67881564036495
 20
82.2270511656
 30
0.0
 40
51.50147668314404
 50
284.4513682272
 51
287.0697431536
  0
ARC
  5
188
  8
LAYER0001
  6
CONTINUOUS
 62
     7
 10
-50.28776549816496
 20
74.6656031754
 30
0.0
 40
43.57131642541439
 50
286.9827353223999
 51
289.9457355882
  0
LINE
  5
189
  8
LAYER0001
  6
CONTINUOUS
 62
     7
 10
-35.42428171206495
 20
33.70786318920001
 30
0.0
 11
-34.42120274406495
 21
34.09441782340001
 31
0.0
  0
ENDBLK
  5
C7
  8
0
  0
BLOCK
  8
0
  2
DC_GROUP_8
 70
     0
 10
0.0
 20
0.0
 30
0.0
  3
DC_GROUP_8
  1

  0
ARC
  5
18A
  8
LAYER0001
  6
CONTINUOUS
 62
     7
 10
-47.46031719086495
 20
16.80614806429999
 30
0.0
 40
34.23135579499403
 50
68.0251707612
 51
71.62494316429999
  0
ARC
  5
18B
  8
LAYER0001
  6
CONTINUOUS
 62
     7
 10
-52.93125233116496
 20
0.3419533080000146
 30
0.0
 40
51.58073151647785
 50
71.62284955419997
 51
74.23820644599998
  0
ARC
  5
18C
  8
LAYER0001
  6
CONTINUOUS
 62
     7
 10
-52.91229705686492
 20
0.4042443626999987
 30
0.0
 40
51.51563368000179
 50
74.23967665620003
 51
76.85769178070004
  0
ARC
  5
18D
  8
LAYER0001
  6
CONTINUOUS
 62
     7
 10
-57.06013898716495
 20
-17.35501337390001
 30
0.0
 40
69.75284363208482
 50
76.85664637579998
 51
78.99850082539999
  0
ARC
  5
18E
  8
LAYER0001
  6
CONTINUOUS
 62
     7
 10
-57.04971443616495
 20
-17.3063829272
 30
0.0
 40
69.70311754712448
 50
78.9992838559
 51
81.14240671150002
  0
ARC
  5
18F
  8
LAYER0001
  6
CONTINUOUS
 62
     7
 10
-59.53410880946495
 20
-33.2420055605
 30
0.0
 40
85.831238432098
 50
81.14173075249998
 51
83.6311514488
  0
ARC
  5
190
  8
LAYER0001
  6
CONTINUOUS
 62
     7
 10
-59.90548313206496
 20
-36.74718506230001
 30
0.0
 40
89.3559835067945
 50
83.64381040030003
 51
86.08532175629999
  0
ARC
  5
191
  8
LAYER0001
  6
CONTINUOUS
 62
     7
 10
-60.52181685526496
 20
-44.2557726587
 30
0.0
 40
96.88918385754829
 50
86.0248393681
 51
88.3224683764
  0
ARC
  5
192
  8
LAYER0001
  6
CONTINUOUS
 62
     7
 10
-60.63896506296493
 20
-48.22804427379999
 30
0.0
 40
100.863182454969
 50
88.3220067418
 51
90.559129674
  0
ARC
  5
193
  8
LAYER0001
  6
CONTINUOUS
 62
     7
 10
-60.65684053246495
 20
-46.9437343372
 30
0.0
 40
99.5787593766734
 50
90.55605616919998
 51
92.8070402222
  0
ARC
  5
194
  8
LAYER0001
  6
CONTINUOUS
 62
     7
 10
-60.75561327896496
 20
-44.25894351769998
 30
0.0
 40
96.89235837680913
 50
92.8264517664
 51
95.12404313549999
  0
ARC
  5
195
  8
LAYER0001
  6
CONTINUOUS
 62
     7
 10
-61.74551428936495
 20
-33.2287091535
 30
0.0
 40
85.81779412357531
 50
95.12350241760001
 51
97.61321561040003
  0
ARC
  5
196
  8
LAYER0001
  6
CONTINUOUS
 62
     7
 10
-60.24750714816494
 20
-42.5962374171
 30
0.0
 40
95.30152290696536
 50
97.75975660369998
 51
99.6647409714
  0
ARC
  5
197
  8
LAYER0001
  6
CONTINUOUS
 62
     7
 10
-64.23078439096496
 20
-17.29071734149998
 30
0.0
 40
69.68718346528146
 50
99.9291715723
 51
102.0725394282
  0
ARC
  5
198
  8
LAYER0001
  6
CONTINUOUS
 62
     7
 10
-65.65922272996495
 20
-10.7627070857
 30
0.0
 40
63.0047994934714
 50
102.0438813
 51
104.3002543349
  0
ARC
  5
199
  8
LAYER0001
  6
CONTINUOUS
 62
     7
 10
-68.36900298726495
 20
0.4179055066999946
 30
0.0
 40
51.50147668286997
 50
104.4513682271
 51
107.0697431536
  0
ARC
  5
19A
  8
LAYER0001
  6
CONTINUOUS
 62
     7
 10
-70.76005312936498
 20
7.9793534967
 30
0.0
 40
43.57131642536392
 50
106.9827353225
 51
109.9457355882
  0
LINE
  5
19B
  8
LAYER0001
  6
CONTINUOUS
 62
     7
 10
-85.62353691536494
 20
48.93709348299999
 30
0.0
 11
-86.62661588356495
 21
48.55053884870001
 31
0.0
  0
ENDBLK
  5
CA
  8
0
  0
BLOCK
  8
0
  2
DC_GROUP_9
 70
     0
 10
0.0
 20
0.0
 30
0.0
  3
DC_GROUP_9
  1

  0
ARC
  5
19C
  8
LAYER0001
  6
CONTINUOUS
 62
     7
 10
-41.53683656726495
 20
29.3923662216
 30
0.0
 40
20.32177241355575
 50
55.9416943933
 51
57.75476438569998
  0
ARC
  5
19D
  8
LAYER0001
  6
CONTINUOUS
 62
     7
 10
-37.57298621276494
 20
35.14363117969999
 30
0.0
 40
13.33728177685918
 50
53.32871283019995
 51
56.21236623710002
  0
ARC
  5
19E
  8
LAYER0001
  6
CONTINUOUS
 62
     7
 10
-35.96464151056495
 20
37.35331403420001
 30
0.0
 40
10.60445091755403
 50
49.40527732319997
 51
53.16845496539999
  0
ARC
  5
19F
  8
LAYER0001
  6
CONTINUOUS
 62
     7
 10
-35.96367031496493
 20
37.3554791723
 30
0.0
 40
10.60217492067038
 50
45.6365765717
 51
49.40164894510006
  0
ARC
  5
1A0
  8
LAYER0001
  6
CONTINUOUS
 62
     7
 10
-36.05829847706494
 20
37.2585964037
 30
0.0
 40
10.73760295314503
 50
41.90238125520003
 51
45.63705483799998
  0
ARC
  5
1A1
  8
LAYER0001
  6
CONTINUOUS
 62
     7
 10
-35.45847131786495
 20
37.81416590639999
 30
0.0
 40
9.920125121134507
 50
38.47069101449997
 51
41.82788197519996
  0
ARC
  5
1A2
  8
LAYER0001
  6
CONTINUOUS
 62
     7
 10
-31.88178420126495
 20
40.75343432329999
 30
0.0
 40
5.291828879114087
 50
32.72153040390008
 51
37.64646020200011
  0
ARC
  5
1A3
  8
LAYER0001
  6
CONTINUOUS
 62
     7
 10
-31.81687557826497
 20
40.79667346780001
 30
0.0
 40
5.213847712980662
 50
27.73032911909989
 51
32.70734727799992
  0
ARC
  5
1A4
  8
LAYER0001
  6
CONTINUOUS
 62
     7
 10
-31.85276356206496
 20
40.77832415069999
 30
0.0
 40
5.254152022669915
 50
22.77070818760025
 51
27.72534330630018
  0
ARC
  5
1A5
  8
LAYER0001
  6
CONTINUOUS
 62
     7
 10
-31.99966358786495
 20
40.7161937229
 30
0.0
 40
5.413650070139017
 50
17.91551746430001
 51
22.77527229070006
  0
ARC
  5
1A6
  8
LAYER0001
  6
CONTINUOUS
 62
     7
 10
-30.63175521016496
 20
41.0845519237
 30
0.0
 40
3.997335255033498
 50
10.56825419949999
 51
15.59180883779957
  0
ARC
  5
1A7
  8
LAYER0001
  6
CONTINUOUS
 62
     7
 10
-30.43351503216494
 20
41.12358046039999
 30
0.0
 40
3.795300237082496
 50
5.334285348199941
 51
10.53794159189998
  0
ARC
  5
1A8
  8
LAYER0001
  6
CONTINUOUS
 62
     7
 10
-30.33042970586494
 20
41.13460433299998
 30
0.0
 40
3.691636760849605
 50
0.0083406449002127
 51
5.312670689000435
  0
ARC
  5
1A9
  8
LAYER0001
  6
CONTINUOUS
 62
     7
 10
-30.32249983746495
 20
41.13531064370002
 30
0.0
 40
3.683706857201578
 50
354.6816159082998
 51
359.9973727575996
  0
ARC
  5
1AA
  8
LAYER0001
  6
CONTINUOUS
 62
     7
 10
-30.40972549806495
 20
41.143386646
 30
0.0
 40
3.771305577588408
 50
349.4454929679
 51
354.6822800926003
  0
ARC
  5
1AB
  8
LAYER0001
  6
CONTINUOUS
 62
     7
 10
-30.59210620596495
 20
41.1765194911
 30
0.0
 40
3.95666966307313
 50
344.3823589804002
 51
349.4575779819002
  0
ARC
  5
1AC
  8
LAYER0001
  6
CONTINUOUS
 62
     7
 10
-32.16432262326497
 20
41.61102764249999
 30
0.0
 40
5.587818178499344
 50
339.6858890487999
 51
344.4315807257
  0
ARC
  5
1AD
  8
LAYER0001
  6
CONTINUOUS
 62
     7
 10
-31.93773922296496
 20
41.52960261260002
 30
0.0
 40
5.347059923688211
 50
334.7713054742997
 51
339.6612273882999
  0
ARC
  5
1AE
  8
LAYER0001
  6
CONTINUOUS
 62
     7
 10
-31.82897780366496
 20
41.4800870385
 30
0.0
 40
5.227567946366493
 50
329.7869334942998
 51
334.7541506922996
  0
ARC
  5
1AF
  8
LAYER0001
  6
CONTINUOUS
 62
     7
 10
-31.82782331706495
 20
41.48028837
 30
0.0
 40
5.22667165311444
 50
324.8077489886999
 51
329.7786576972002
  0
ARC
  5
1B0
  8
LAYER0001
  6
CONTINUOUS
 62
     7
 10
-31.92406020526494
 20
41.5480139012
 30
0.0
 40
5.344350338240234
 50
319.908328411
 51
324.8089986555996
  0
ARC
  5
1B1
  8
LAYER0001
  6
CONTINUOUS
 62
     7
 10
-36.18130739556494
 20
45.12551604260001
 30
0.0
 40
10.90516534626768
 50
316.2424036350998
 51
319.9339535195
  0
ARC
  5
1B2
  8
LAYER0001
  6
CONTINUOUS
 62
     7
 10
-36.01529278246495
 20
44.9691022251
 30
0.0
 40
10.67708057733523
 50
312.4872658128
 51
316.2325093218
  0
ARC
  5
1B3
  8
LAYER0001
  6
CONTINUOUS
 62
     7
 10
-35.95406152806493
 20
44.90393494469999
 30
0.0
 40
10.58766729436737
 50
308.7134569222999
 51
312.4811079348999
  0
ARC
  5
1B4
  8
LAYER0001
  6
CONTINUOUS
 62
     7
 10
-35.98383759476494
 20
44.94171622520001
 30
0.0
 40
10.63577013732971
 50
304.9536928632999
 51
308.7113256945
  0
ARC
  5
1B5
  8
LAYER0001
  6
CONTINUOUS
 62
     7
 10
-41.59173258986493
 20
52.9604612026
 30
0.0
 40
20.42089939652615
 50
303.1535797283
 51
304.9600448952
  0
LINE
  5
1B6
  8
LAYER0001
  6
CONTINUOUS
 62
     7
 10
-26.84851530666496
 20
42.38151004929999
 30
0.0
 11
-26.78151788526495
 21
42.1589641739
 31
0.0
  0
LINE
  5
1B7
  8
LAYER0001
  6
CONTINUOUS
 62
     7
 10
-30.42384680486497
 20
35.8639276576
 30
0.0
 11
-30.69427300136494
 21
35.69032725929999
 31
0.0
  0
ENDBLK
  5
CD
  8
0
  0
BLOCK
  8
0
  2
DC_GROUP_10
 70
     0
 10
0.0
 20
0.0
 30
0.0
  3
DC_GROUP_10
  1

  0
ARC
  5
1B8
  8
LAYER0001
  6
CONTINUOUS
 62
     7
 10
-52.91044569946496
 20
81.8598378496
 30
0.0
 40
50.50916566129195
 50
284.3254158872
 51
284.8407805006
  0
ARC
  5
1B9
  8
LAYER0001
  6
CONTINUOUS
 62
     7
 10
-52.90625061956496
 20
81.84392427960002
 30
0.0
 40
50.49270844497799
 50
284.840804178
 51
285.3562844842
  0
ARC
  5
1BA
  8
LAYER0001
  6
CONTINUOUS
 62
     7
 10
-52.90540741176495
 20
81.8408118347
 30
0.0
 40
50.48948382273072
 50
285.3562971211
 51
285.8718022674999
  0
LINE
  5
1BB
  8
LAYER0001
  6
CONTINUOUS
 62
     7
 10
-39.09724695126494
 20
33.27618807029999
 30
0.0
 11
-38.87890393466495
 21
33.33879965749999
 31
0.0
  0
ENDBLK
  5
D0
  8
0
  0
BLOCK
  8
0
  2
DC_GROUP_11
 70
     0
 10
0.0
 20
0.0
 30
0.0
  3
DC_GROUP_11
  1

  0
ARC
  5
1BC
  8
LAYER0001
  6
CONTINUOUS
 62
     7
 10
-61.73863118116495
 20
115.5434394238
 30
0.0
 40
84.86276275777264
 50
261.4916300656
 51
261.9107418685999
  0
ARC
  5
1BD
  8
LAYER0001
  6
CONTINUOUS
 62
     7
 10
-61.74750739656495
 20
115.4807998167
 30
0.0
 40
84.79949738907777
 50
261.9107239814999
 51
263.3823689884
  0
ARC
  5
1BE
  8
LAYER0001
  6
CONTINUOUS
 62
     7
 10
-60.33735951706497
 20
128.9844261278
 30
0.0
 40
98.37578600036635
 50
263.4729020321
 51
264.5830355726
  0
ARC
  5
1BF
  8
LAYER0001
  6
CONTINUOUS
 62
     7
 10
-60.87698047996495
 20
125.0125970015
 30
0.0
 40
94.37089244657545
 50
264.6815480599
 51
265.6746289883
  0
ARC
  5
1C0
  8
LAYER0001
  6
CONTINUOUS
 62
     7
 10
-61.54183885266494
 20
114.5614876583
 30
0.0
 40
83.89949929272538
 50
265.5890871076999
 51
266.8923235872999
  0
ARC
  5
1C1
  8
LAYER0001
  6
CONTINUOUS
 62
     7
 10
-60.75560823016494
 20
126.5318509541
 30
0.0
 40
95.89497938893763
 50
266.8109880052999
 51
268.1141938605
  0
ARC
  5
1C2
  8
LAYER0001
  6
CONTINUOUS
 62
     7
 10
-60.65322466626495
 20
129.7202718644
 30
0.0
 40
99.08504267633347
 50
268.1156944825
 51
269.3774698767
  0
ARC
  5
1C3
  8
LAYER0001
  6
CONTINUOUS
 62
     7
 10
-60.63879298416496
 20
130.8977687665
 30
0.0
 40
100.2626268892491
 50
269.376534206
 51
270.623465794
  0
ARC
  5
1C4
  8
LAYER0001
  6
CONTINUOUS
 62
     7
 10
-60.62465043896495
 20
129.7334866801
 30
0.0
 40
99.0982598536066
 50
270.622614271
 51
271.8842213698
  0
ARC
  5
1C5
  8
LAYER0001
  6
CONTINUOUS
 62
     7
 10
-60.52268739716494
 20
126.5478648836
 30
0.0
 40
95.91100799862532
 50
271.8859150398
 51
273.1889030944
  0
ARC
  5
1C6
  8
LAYER0001
  6
CONTINUOUS
 62
     7
 10
-61.56873592996494
 20
142.458150208
 30
0.0
 40
111.8549604061358
 50
273.2705373514999
 51
274.2480519535999
  0
ARC
  5
1C7
  8
LAYER0001
  6
CONTINUOUS
 62
     7
 10
-60.40408487086495
 20
125.053842691
 30
0.0
 40
94.41228307826724
 50
274.3255887021
 51
275.3182342498
  0
ARC
  5
1C8
  8
LAYER0001
  6
CONTINUOUS
 62
     7
 10
-58.38382918746493
 20
104.5471862784
 30
0.0
 40
73.80673352683142
 50
275.2321828051
 51
276.7118795901
  0
ARC
  5
1C9
  8
LAYER0001
  6
CONTINUOUS
 62
     7
 10
-59.52890537526496
 20
115.4717088875
 30
0.0
 40
84.79033182718011
 50
276.6175514670999
 51
278.089355563
  0
ARC
  5
1CA
  8
LAYER0001
  6
CONTINUOUS
 62
     7
 10
-59.53781219936494
 20
115.5356061349
 30
0.0
 40
84.85484662973386
 50
278.0892385818
 51
278.508389484
  0
ENDBLK
  5
D3
  8
0
  0
BLOCK
  8
0
  2
DC_GROUP_12
 70
     0
 10
0.0
 20
0.0
 30
0.0
  3
DC_GROUP_12
  1

  0
ARC
  5
1CB
  8
LAYER0001
  6
CONTINUOUS
 62
     7
 10
-60.67462239056495
 20
-44.12659609629998
 30
0.0
 40
95.8698631910374
 50
93.0887360823
 51
93.84076050730003
  0
ARC
  5
1CC
  8
LAYER0001
  6
CONTINUOUS
 62
     7
 10
-60.67215718256496
 20
-44.1627085732
 30
0.0
 40
95.90605969060007
 50
93.84078483590001
 51
94.81811051169998
  0
ARC
  5
1CD
  8
LAYER0001
  6
CONTINUOUS
 62
     7
 10
-61.35072966926496
 20
-36.36430828939999
 30
0.0
 40
88.078223473891
 50
94.80434244120002
 51
95.8677341257
  0
ARC
  5
1CE
  8
LAYER0001
  6
CONTINUOUS
 62
     7
 10
-61.66587082476494
 20
-33.09637895030001
 30
0.0
 40
84.7952011767828
 50
95.88165220259998
 51
96.98542627250002
  0
ARC
  5
1CF
  8
LAYER0001
  6
CONTINUOUS
 62
     7
 10
-61.66569636546495
 20
-33.0966785159
 30
0.0
 40
84.79551973605015
 50
96.98551866149998
 51
98.08932617249998
  0
ARC
  5
1D0
  8
LAYER0001
  6
CONTINUOUS
 62
     7
 10
-61.65656541266495
 20
-33.16176546589999
 30
0.0
 40
84.86124394220458
 50
98.08924601079998
 51
98.6408688383
  0
ARC
  5
1D1
  8
LAYER0001
  6
CONTINUOUS
 62
     7
 10
-63.24846180546496
 20
-22.81874039800001
 30
0.0
 40
74.3964529443973
 50
98.625554253
 51
99.25383652869999
  0
ARC
  5
1D2
  8
LAYER0001
  6
CONTINUOUS
 62
     7
 10
-64.14420011696497
 20
-17.20498677709999
 30
0.0
 40
68.71171901375786
 50
99.26939576809998
 51
100.6279593507
  0
ARC
  5
1D3
  8
LAYER0001
  6
CONTINUOUS
 62
     7
 10
-64.14879700886497
 20
-17.17912095390001
 30
0.0
 40
68.68544909784116
 50
100.6281699176
 51
101.9871433072
  0
ARC
  5
1D4
  8
LAYER0001
  6
CONTINUOUS
 62
     7
 10
-64.13647219756497
 20
-17.23766706130001
 30
0.0
 40
68.74527832944953
 50
101.9870570364
 51
102.6661603196
  0
ARC
  5
1D5
  8
LAYER0001
  6
CONTINUOUS
 62
     7
 10
-65.56440139496495
 20
-11.00556758680002
 30
0.0
 40
62.35174553395883
 50
102.6416557236
 51
103.389513113
  0
ARC
  5
1D6
  8
LAYER0001
  6
CONTINUOUS
 62
     7
 10
-68.27852177526496
 20
0.4961473716000029
 30
0.0
 40
50.53416381139892
 50
103.4157090743
 51
105.2242598875
  0
LINE
  5
1D7
  8
LAYER0001
  6
CONTINUOUS
 62
     7
 10
-81.54867986926497
 20
49.25683457219999
 30
0.0
 11
-82.31638477066495
 21
49.0413731231
 31
0.0
  0
ENDBLK
  5
D6
  8
0
  0
BLOCK
  8
0
  2
DC_GROUP_13
 70
     0
 10
0.0
 20
0.0
 30
0.0
  3
DC_GROUP_13
  1

  0
ARC
  5
1D8
  8
LAYER0001
  6
CONTINUOUS
 62
     7
 10
-79.74074940086497
 20
29.39236622139999
 30
0.0
 40
20.3217724138331
 50
122.2452356144
 51
124.0583056067
  0
ARC
  5
1D9
  8
LAYER0001
  6
CONTINUOUS
 62
     7
 10
-83.70459975556496
 20
35.14363117980001
 30
0.0
 40
13.33728177677264
 50
123.7876337629
 51
126.6712871698
  0
ARC
  5
1DA
  8
LAYER0001
  6
CONTINUOUS
 62
     7
 10
-85.31294445786496
 20
37.35331403429999
 30
0.0
 40
10.60445091740756
 50
126.8315450341
 51
130.5947226768
  0
ARC
  5
1DB
  8
LAYER0001
  6
CONTINUOUS
 62
     7
 10
-85.31391565336496
 20
37.35547917250001
 30
0.0
 40
10.60217492051304
 50
130.5983510557001
 51
134.3634234283
  0
ARC
  5
1DC
  8
LAYER0001
  6
CONTINUOUS
 62
     7
 10
-85.21928749116496
 20
37.2585964037
 30
0.0
 40
10.73760295317528
 50
134.3629451616
 51
138.0976187447999
  0
ARC
  5
1DD
  8
LAYER0001
  6
CONTINUOUS
 62
     7
 10
-85.81911465026495
 20
37.8141659063
 30
0.0
 40
9.920125121269873
 50
138.1721180248001
 51
141.5293089855001
  0
ARC
  5
1DE
  8
LAYER0001
  6
CONTINUOUS
 62
     7
 10
-89.39580176696494
 20
40.75343432329999
 30
0.0
 40
5.291828879097687
 50
142.3535397982
 51
147.2784695962002
  0
ARC
  5
1DF
  8
LAYER0001
  6
CONTINUOUS
 62
     7
 10
-89.46071039006496
 20
40.79667346780001
 30
0.0
 40
5.213847712944473
 50
147.2926527215001
 51
152.2696708809003
  0
ARC
  5
1E0
  8
LAYER0001
  6
CONTINUOUS
 62
     7
 10
-89.42482240606496
 20
40.77832415069999
 30
0.0
 40
5.254152022836273
 50
152.2746566947999
 51
157.2292918123999
  0
ARC
  5
1E1
  8
LAYER0001
  6
CONTINUOUS
 62
     7
 10
-89.27792238036496
 20
40.7161937229
 30
0.0
 40
5.413650070213132
 50
157.2247277089
 51
162.0844825357001
  0
ARC
  5
1E2
  8
LAYER0001
  6
CONTINUOUS
 62
     7
 10
-89.08236812916495
 20
40.6652593653
 30
0.0
 40
5.615402423754704
 50
162.2037664519001
 51
166.3721780399
  0
ARC
  5
1E3
  8
LAYER0001
  6
CONTINUOUS
 62
     7
 10
-90.75684514796494
 20
41.10867220690001
 30
0.0
 40
3.883763724686593
 50
166.9091671851002
 51
172.0318006557
  0
ARC
  5
1E4
  8
LAYER0001
  6
CONTINUOUS
 62
     7
 10
-90.90750800496495
 20
41.13148754219999
 30
0.0
 40
3.731393144387085
 50
172.0580524589998
 51
177.3227724383999
  0
ARC
  5
1E5
  8
LAYER0001
  6
CONTINUOUS
 62
     7
 10
-90.96301564676496
 20
41.13514173080002
 30
0.0
 40
3.675775555167138
 50
177.3392556386999
 51
182.6607443599001
  0
ARC
  5
1E6
  8
LAYER0001
  6
CONTINUOUS
 62
     7
 10
-90.92336772376494
 20
41.1373219812
 30
0.0
 40
3.715481961364715
 50
182.6659467530997
 51
187.9532283518999
  0
ARC
  5
1E7
  8
LAYER0001
  6
CONTINUOUS
 62
     7
 10
-90.78856444786494
 20
41.15571552679999
 30
0.0
 40
3.851533653183825
 50
187.9467514845998
 51
193.1122806737998
  0
ARC
  5
1E8
  8
LAYER0001
  6
CONTINUOUS
 62
     7
 10
-90.39140407596496
 20
41.23677415900001
 30
0.0
 40
4.256742589077003
 50
192.9621394319001
 51
198.4619160760002
  0
ARC
  5
1E9
  8
LAYER0001
  6
CONTINUOUS
 62
     7
 10
-89.24192121266493
 20
41.567439411
 30
0.0
 40
5.452012375303349
 50
197.9326250981997
 51
202.758164657
  0
ARC
  5
1EA
  8
LAYER0001
  6
CONTINUOUS
 62
     7
 10
-89.40831677446495
 20
41.49974317699998
 30
0.0
 40
5.272383983882067
 50
202.7792800929998
 51
207.7167713999997
  0
ARC
  5
1EB
  8
LAYER0001
  6
CONTINUOUS
 62
     7
 10
-89.46199781326494
 20
41.4728601289
 30
0.0
 40
5.212359233779773
 50
207.7296180353
 51
212.7080583621001
  0
ARC
  5
1EC
  8
LAYER0001
  6
CONTINUOUS
 62
     7
 10
-89.41317963876496
 20
41.5045976667
 30
0.0
 40
5.270586208025116
 50
212.7115994854001
 51
217.6563911201001
  0
ARC
  5
1ED
  8
LAYER0001
  6
CONTINUOUS
 62
     7
 10
-88.46495702936495
 20
42.22421869469999
 30
0.0
 40
6.460924699682218
 50
217.5714645303999
 51
222.7271084601998
  0
ARC
  5
1EE
  8
LAYER0001
  6
CONTINUOUS
 62
     7
 10
-85.19324479466495
 20
45.0366346976
 30
0.0
 40
10.77364779173119
 50
221.9086309091998
 51
225.6308051838001
  0
ARC
  5
1EF
  8
LAYER0001
  6
CONTINUOUS
 62
     7
 10
-85.30514573436496
 20
44.92438138830001
 30
0.0
 40
10.615153770497
 50
225.6388791231001
 51
229.3993463935001
  0
ARC
  5
1F0
  8
LAYER0001
  6
CONTINUOUS
 62
     7
 10
-85.31915131326495
 20
44.90922564379999
 30
0.0
 40
10.59453199813161
 50
229.4035150885999
 51
233.1702171999999
  0
ARC
  5
1F1
  8
LAYER0001
  6
CONTINUOUS
 62
     7
 10
-83.06071113736495
 20
48.0384269158
 30
0.0
 40
14.45316600533586
 50
233.4400526598999
 51
236.1010264074
  0
ARC
  5
1F2
  8
LAYER0001
  6
CONTINUOUS
 62
     7
 10
-79.72860177686495
 20
52.89651490410002
 30
0.0
 40
20.3439830978714
 50
235.9426841918
 51
237.7537745873
  0
ENDBLK
  5
D9
  8
0
  0
BLOCK
  8
0
  2
DC_GROUP_14
 70
     0
 10
0.0
 20
0.0
 30
0.0
  3
DC_GROUP_14
  1

  0
ARC
  5
1F3
  8
LAYER0001
  6
CONTINUOUS
 62
     7
 10
-85.31383804636495
 20
37.3555407201
 30
0.0
 40
9.602181755388946
 50
131.2007852844
 51
134.0378210436
  0
ARC
  5
1F4
  8
LAYER0001
  6
CONTINUOUS
 62
     7
 10
-85.25473840376496
 20
37.2939264836
 30
0.0
 40
9.687557186765517
 50
134.0357836824
 51
136.4061656498
  0
ARC
  5
1F5
  8
LAYER0001
  6
CONTINUOUS
 62
     7
 10
-85.15682987736496
 20
37.20020460429999
 30
0.0
 40
9.823092194458857
 50
136.4040326106999
 51
138.755077718
  0
ARC
  5
1F6
  8
LAYER0001
  6
CONTINUOUS
 62
     7
 10
-85.04637484456494
 20
37.10216497210001
 30
0.0
 40
9.970778667690553
 50
138.7499340105999
 51
139.9145633118001
  0
ARC
  5
1F7
  8
LAYER0001
  6
CONTINUOUS
 62
     7
 10
-89.17302782456495
 20
40.57344094860002
 30
0.0
 40
4.578282294143241
 50
139.8964074914001
 51
140.6685795982001
  0
ARC
  5
1F8
  8
LAYER0001
  6
CONTINUOUS
 62
     7
 10
-89.81564643326494
 20
41.09476708799998
 30
0.0
 40
3.750804458066447
 50
140.6066677722997
 51
141.7505994929998
  0
ARC
  5
1F9
  8
LAYER0001
  6
CONTINUOUS
 62
     7
 10
-90.42878826756494
 20
41.53926497010001
 30
0.0
 40
2.994262998825024
 50
141.1667218624003
 51
144.3272635251
  0
ARC
  5
1FA
  8
LAYER0001
  6
CONTINUOUS
 62
     7
 10
-89.41329874386496
 20
40.76545710809999
 30
0.0
 40
4.270612234414848
 50
143.8385839736999
 51
147.0347942246999
  0
ARC
  5
1FB
  8
LAYER0001
  6
CONTINUOUS
 62
     7
 10
-89.45815655196496
 20
40.79504927280001
 30
0.0
 40
4.216874528629231
 50
147.0404926932
 51
150.2606147175999
  0
ARC
  5
1FC
  8
LAYER0001
  6
CONTINUOUS
 62
     7
 10
-89.45854929476495
 20
40.7955637943
 30
0.0
 40
4.21627828992594
 50
150.2640382673002
 51
153.4851863956
  0
ARC
  5
1FD
  8
LAYER0001
  6
CONTINUOUS
 62
     7
 10
-89.42097359546496
 20
40.77673894510001
 30
0.0
 40
4.258305700962583
 50
153.4842453009999
 51
156.6913567720001
  0
ARC
  5
1FE
  8
LAYER0001
  6
CONTINUOUS
 62
     7
 10
-89.33330898546494
 20
40.73838665180001
 30
0.0
 40
4.353991136512101
 50
156.6843198204001
 51
159.8548592612002
  0
ARC
  5
1FF
  8
LAYER0001
  6
CONTINUOUS
 62
     7
 10
-88.49178002156494
 20
40.44770237550001
 30
0.0
 40
5.244176862959731
 50
160.0397313801003
 51
162.3764900003002
  0
ARC
  5
200
  8
LAYER0001
  6
CONTINUOUS
 62
     7
 10
-86.73069742566496
 20
39.94999127870001
 30
0.0
 40
7.073537911271593
 50
162.8530626057001
 51
163.9784443793999
  0
ARC
  5
201
  8
LAYER0001
  6
CONTINUOUS
 62
     7
 10
-90.43364595516495
 20
41.02834328600002
 30
0.0
 40
3.216828004559526
 50
164.2359350377002
 51
165.7811012858002
  0
ARC
  5
202
  8
LAYER0001
  6
CONTINUOUS
 62
     7
 10
-91.57086712976495
 20
41.29282906380001
 30
0.0
 40
2.049609901057375
 50
165.1395523908997
 51
169.4290349185
  0
ARC
  5
203
  8
LAYER0001
  6
CONTINUOUS
 62
     7
 10
-90.80987260276494
 20
41.11809515929998
 30
0.0
 40
2.829927422147748
 50
168.7778669907997
 51
173.1847511987995
  0
ARC
  5
204
  8
LAYER0001
  6
CONTINUOUS
 62
     7
 10
-90.92306187736496
 20
41.13278360560001
 30
0.0
 40
2.71579514005389
 50
173.2090696889001
 51
177.7130612764001
  0
ARC
  5
205
  8
LAYER0001
  6
CONTINUOUS
 62
     7
 10
-90.95976269836494
 20
41.13514173080002
 30
0.0
 40
2.67902960035409
 50
177.7321326466002
 51
182.2678673516004
  0
ARC
  5
206
  8
LAYER0001
  6
CONTINUOUS
 62
     7
 10
-90.94079847046494
 20
41.136091828
 30
0.0
 40
2.69801657847269
 50
182.2720914910002
 51
186.8057775446
  0
ARC
  5
207
  8
LAYER0001
  6
CONTINUOUS
 62
     7
 10
-90.84500170556494
 20
41.1466126513
 30
0.0
 40
2.794385224954134
 50
186.7872088076002
 51
191.2501730032003
  0
ARC
  5
208
  8
LAYER0001
  6
CONTINUOUS
 62
     7
 10
-88.30357070296496
 20
41.71471264970001
 30
0.0
 40
5.398163173101984
 50
191.9015397163002
 51
193.5298729740001
  0
ARC
  5
209
  8
LAYER0001
  6
CONTINUOUS
 62
     7
 10
-90.55576177736494
 20
41.2092387974
 30
0.0
 40
3.090421399950842
 50
194.1872959376999
 51
195.7956677377999
  0
ARC
  5
20A
  8
LAYER0001
  6
CONTINUOUS
 62
     7
 10
-90.13359099116495
 20
41.30686424549999
 30
0.0
 40
3.523287254926648
 50
195.4545034660998
 51
197.7139895488996
  0
ARC
  5
20B
  8
LAYER0001
  6
CONTINUOUS
 62
     7
 10
-89.70385432636495
 20
41.4101487896
 30
0.0
 40
3.964206982974534
 50
197.2461813361999
 51
200.3375972815002
  0
ARC
  5
20C
  8
LAYER0001
  6
CONTINUOUS
 62
     7
 10
-89.30644377186495
 20
41.54260429750001
 30
0.0
 40
4.382900548432048
 50
200.1555997484
 51
203.3052211709999
  0
ARC
  5
20D
  8
LAYER0001
  6
CONTINUOUS
 62
     7
 10
-89.40511922976494
 20
41.5009079714
 30
0.0
 40
4.275779769164128
 50
203.3151982700001
 51
206.5091996563001
  0
ARC
  5
20E
  8
LAYER0001
  6
CONTINUOUS
 62
     7
 10
-89.45318172776494
 20
41.4775887384
 30
0.0
 40
4.22236213111689
 50
206.5171348289999
 51
209.7336405071999
  0
ARC
  5
20F
  8
LAYER0001
  6
CONTINUOUS
 62
     7
 10
-89.46270969546494
 20
41.47246044949999
 30
0.0
 40
4.211545149849167
 50
209.7373473397001
 51
212.96154525
  0
ARC
  5
210
  8
LAYER0001
  6
CONTINUOUS
 62
     7
 10
-89.42708224126496
 20
41.49533077650001
 30
0.0
 40
4.253881064819447
 50
212.9589185417002
 51
216.1677032593001
  0
ARC
  5
211
  8
LAYER0001
  6
CONTINUOUS
 62
     7
 10
-86.48463017596494
 20
43.73055273469999
 30
0.0
 40
7.948710898296465
 50
216.6577873080998
 51
217.8482273058001
  0
ARC
  5
212
  8
LAYER0001
  6
CONTINUOUS
 62
     7
 10
-88.26338876606495
 20
42.42451692639998
 30
0.0
 40
5.743101600396043
 50
218.4478205345
 51
219.1949121987998
  0
ARC
  5
213
  8
LAYER0001
  6
CONTINUOUS
 62
     7
 10
-89.42415291106495
 20
41.4882247995
 30
0.0
 40
4.251816448691375
 50
219.3017751801002
 51
220.1332377302
  0
ARC
  5
214
  8
LAYER0001
  6
CONTINUOUS
 62
     7
 10
-85.03056688516496
 20
45.18170000720001
 30
0.0
 40
9.991618639642901
 50
220.0866512902001
 51
221.2488513878
  0
ARC
  5
215
  8
LAYER0001
  6
CONTINUOUS
 62
     7
 10
-85.13219519686494
 20
45.0925895369
 30
0.0
 40
9.856455813468425
 50
221.2489019237
 51
223.5919877473001
  0
ARC
  5
216
  8
LAYER0001
  6
CONTINUOUS
 62
     7
 10
-85.23885688776495
 20
44.99211646249999
 30
0.0
 40
9.709926143568165
 50
223.5965650869
 51
225.9614855805
  0
ARC
  5
217
  8
LAYER0001
  6
CONTINUOUS
 62
     7
 10
-85.30545643406494
 20
44.92385151539998
 30
0.0
 40
9.614556221406927
 50
225.9640050398
 51
228.7973886327
  0
ENDBLK
  5
DC
  8
0
  0
BLOCK
  8
0
  2
DC_GROUP_15
 70
     0
 10
0.0
 20
0.0
 30
0.0
  3
DC_GROUP_15
  1

  0
ARC
  5
218
  8
LAYER0001
  6
CONTINUOUS
 62
     7
 10
-35.96374792196494
 20
37.3555407201
 30
0.0
 40
9.602181755450367
 50
45.96217895630003
 51
48.79921471600009
  0
ARC
  5
219
  8
LAYER0001
  6
CONTINUOUS
 62
     7
 10
-36.02284756466494
 20
37.29392648350002
 30
0.0
 40
9.687557186941854
 50
43.59383435009992
 51
45.96421631740002
  0
ARC
  5
21A
  8
LAYER0001
  6
CONTINUOUS
 62
     7
 10
-36.12075609116494
 20
37.20020460409999
 30
0.0
 40
9.823092194776569
 50
41.2449222818
 51
43.59596738920006
  0
ARC
  5
21B
  8
LAYER0001
  6
CONTINUOUS
 62
     7
 10
-36.23121112516495
 20
37.10216497080001
 30
0.0
 40
9.970778669635731
 50
40.08543668819993
 51
41.25006598939992
  0
ARC
  5
21C
  8
LAYER0001
  6
CONTINUOUS
 62
     7
 10
-32.10455814366495
 20
40.5734409487
 30
0.0
 40
4.578282294078537
 50
39.33142040149993
 51
40.10359250729994
  0
ARC
  5
21D
  8
LAYER0001
  6
CONTINUOUS
 62
     7
 10
-31.46193953416496
 20
41.09476708870002
 30
0.0
 40
3.750804457002702
 50
38.24940050649994
 51
39.39333222799984
  0
ARC
  5
21E
  8
LAYER0001
  6
CONTINUOUS
 62
     7
 10
-30.84879770046496
 20
41.53926497019999
 30
0.0
 40
2.994262998613335
 50
35.67273647439964
 51
38.83327813889962
  0
ARC
  5
21F
  8
LAYER0001
  6
CONTINUOUS
 62
     7
 10
-31.86428722436495
 20
40.76545710809999
 30
0.0
 40
4.270612234340176
 50
32.96520577489999
 51
36.16141602540005
  0
ARC
  5
220
  8
LAYER0001
  6
CONTINUOUS
 62
     7
 10
-31.81942941636494
 20
40.79504927270001
 30
0.0
 40
4.216874528704297
 50
29.73938528209996
 51
32.95950730679986
  0
ARC
  5
221
  8
LAYER0001
  6
CONTINUOUS
 62
     7
 10
-31.81903667326495
 20
40.7955637944
 30
0.0
 40
4.216278289683307
 50
26.51481360400019
 51
29.7359617321001
  0
ARC
  5
222
  8
LAYER0001
  6
CONTINUOUS
 62
     7
 10
-31.85661237286497
 20
40.77673894510001
 30
0.0
 40
4.258305701069103
 50
23.30864322759971
 51
26.51575469809999
  0
ARC
  5
223
  8
LAYER0001
  6
CONTINUOUS
 62
     7
 10
-31.94427698266496
 20
40.73838665180001
 30
0.0
 40
4.353991136434956
 50
20.14514073839977
 51
23.3156801802999
  0
ARC
  5
224
  8
LAYER0001
  6
CONTINUOUS
 62
     7
 10
-32.78580594656495
 20
40.4477023756
 30
0.0
 40
5.244176862804371
 50
17.62350999929993
 51
19.96026861849991
  0
ARC
  5
225
  8
LAYER0001
  6
CONTINUOUS
 62
     7
 10
-34.54688854226492
 20
39.94999127880001
 30
0.0
 40
7.073537910947193
 50
16.02155562020013
 51
17.14693739440013
  0
ARC
  5
226
  8
LAYER0001
  6
CONTINUOUS
 62
     7
 10
-30.84394001296495
 20
41.0283432861
 30
0.0
 40
3.216828004477061
 50
14.21889871360012
 51
15.76406496050042
  0
ARC
  5
227
  8
LAYER0001
  6
CONTINUOUS
 62
     7
 10
-29.70671883836495
 20
41.29282906380001
 30
0.0
 40
2.049609900989275
 50
10.57096508079974
 51
14.8604476107998
  0
ARC
  5
228
  8
LAYER0001
  6
CONTINUOUS
 62
     7
 10
-30.46771336546495
 20
41.11809515929998
 30
0.0
 40
2.829927422177451
 50
6.815248800500426
 51
11.22213300840045
  0
ARC
  5
229
  8
LAYER0001
  6
CONTINUOUS
 62
     7
 10
-30.35452409076494
 20
41.13278360560001
 30
0.0
 40
2.715795139959473
 50
2.286938722899909
 51
6.790930310599758
  0
ARC
  5
22A
  8
LAYER0001
  6
CONTINUOUS
 62
     7
 10
-30.31782326986495
 20
41.13514173080002
 30
0.0
 40
2.679029600366901
 50
357.732132647699
 51
2.267867352599956
  0
ARC
  5
22B
  8
LAYER0001
  6
CONTINUOUS
 62
     7
 10
-30.33678749776494
 20
41.136091828
 30
0.0
 40
2.698016578460507
 50
353.1942224545996
 51
357.7279085082997
  0
ARC
  5
22C
  8
LAYER0001
  6
CONTINUOUS
 62
     7
 10
-30.43258426276495
 20
41.1466126513
 30
0.0
 40
2.794385225026588
 50
348.7498269961
 51
353.2127911919
  0
ARC
  5
22D
  8
LAYER0001
  6
CONTINUOUS
 62
     7
 10
-32.97401526536493
 20
41.71471264980001
 30
0.0
 40
5.398163173196603
 50
346.4701270253
 51
348.0984602822999
  0
ARC
  5
22E
  8
LAYER0001
  6
CONTINUOUS
 62
     7
 10
-30.72182419136495
 20
41.20923879749999
 30
0.0
 40
3.090421400444681
 50
344.2043322616001
 51
345.8127040629004
  0
ARC
  5
22F
  8
LAYER0001
  6
CONTINUOUS
 62
     7
 10
-31.14399497716494
 20
41.30686424549999
 30
0.0
 40
3.523287255023664
 50
342.2860104504999
 51
344.5454965331998
  0
ARC
  5
230
  8
LAYER0001
  6
CONTINUOUS
 62
     7
 10
-31.57373164206496
 20
41.41014878969998
 30
0.0
 40
3.96420698319639
 50
339.6624027181003
 51
342.7538186623003
  0
ARC
  5
231
  8
LAYER0001
  6
CONTINUOUS
 62
     7
 10
-31.97114219616495
 20
41.5426042974
 30
0.0
 40
4.382900548235392
 50
336.6947788285003
 51
339.8444002519001
  0
ARC
  5
232
  8
LAYER0001
  6
CONTINUOUS
 62
     7
 10
-31.87246673856493
 20
41.50090797150001
 30
0.0
 40
4.275779769322158
 50
333.4908003431996
 51
336.6848017285997
  0
ARC
  5
233
  8
LAYER0001
  6
CONTINUOUS
 62
     7
 10
-31.82440424066494
 20
41.47758873860001
 30
0.0
 40
4.22236213142337
 50
330.2663594922001
 51
333.4828651697998
  0
ARC
  5
234
  8
LAYER0001
  6
CONTINUOUS
 62
     7
 10
-31.81487627246495
 20
41.47246044930002
 30
0.0
 40
4.211545149522994
 50
327.0384547492997
 51
330.2626526609998
  0
ARC
  5
235
  8
LAYER0001
  6
CONTINUOUS
 62
     7
 10
-31.85050372696496
 20
41.49533077650001
 30
0.0
 40
4.253881064853823
 50
323.8322967401
 51
327.0410814574996
  0
ARC
  5
236
  8
LAYER0001
  6
CONTINUOUS
 62
     7
 10
-34.79295579206496
 20
43.73055273449999
 30
0.0
 40
7.948710898025796
 50
322.1517726935002
 51
323.3422126919
  0
ARC
  5
237
  8
LAYER0001
  6
CONTINUOUS
 62
     7
 10
-33.01419720356495
 20
42.42451692760002
 30
0.0
 40
5.74310160222294
 50
320.8050878006001
 51
321.5521794635
  0
ARC
  5
238
  8
LAYER0001
  6
CONTINUOUS
 62
     7
 10
-31.85343305936495
 20
41.48822480130001
 30
0.0
 40
4.251816451513946
 50
319.8667622694996
 51
320.6982248197997
  0
ARC
  5
239
  8
LAYER0001
  6
CONTINUOUS
 62
     7
 10
-36.24701908226496
 20
45.18170000639999
 30
0.0
 40
9.991618638495947
 50
318.7511486117
 51
319.91334871
  0
ARC
  5
23A
  8
LAYER0001
  6
CONTINUOUS
 62
     7
 10
-36.14539077076495
 20
45.0925895363
 30
0.0
 40
9.856455812601753
 50
316.4080122522
 51
318.7510980757
  0
ARC
  5
23B
  8
LAYER0001
  6
CONTINUOUS
 62
     7
 10
-36.03872908066496
 20
44.9921164627
 30
0.0
 40
9.709926143840425
 50
314.0385144192001
 51
316.4034349125001
  0
ARC
  5
23C
  8
LAYER0001
  6
CONTINUOUS
 62
     7
 10
-35.97212953426496
 20
44.9238515155
 30
0.0
 40
9.61455622153066
 50
311.2026113675001
 51
314.0359949598999
  0
ENDBLK
  5
DF
  8
0
  0
BLOCK
  8
0
  2
DC_GROUP_16
 70
     0
 10
0.0
 20
0.0
 30
0.0
  3
DC_GROUP_16
  1

  0
ARC
  5
23D
  8
LAYER0001
  6
CONTINUOUS
 62
     7
 10
-52.90663937556494
 20
0.4250335381999979
 30
0.0
 40
50.49408954534229
 50
73.8704905197
 51
75.68011840680002
  0
ARC
  5
23E
  8
LAYER0001
  6
CONTINUOUS
 62
     7
 10
-59.13302669736493
 20
-25.20160937469999
 30
0.0
 40
76.86512365608232
 50
75.90779511780002
 51
76.80533286710003
  0
ARC
  5
23F
  8
LAYER0001
  6
CONTINUOUS
 62
     7
 10
-57.38648983986494
 20
-18.8261058623
 30
0.0
 40
70.2596952250438
 50
77.0052532808
 51
77.66977116580001
  0
ARC
  5
240
  8
LAYER0001
  6
CONTINUOUS
 62
     7
 10
-53.53512807436495
 20
-0.5067131349000102
 30
0.0
 40
51.54064966739076
 50
77.50356912500001
 51
78.8620059385
  0
ARC
  5
241
  8
LAYER0001
  6
CONTINUOUS
 62
     7
 10
-57.04571160806495
 20
-17.2849533668
 30
0.0
 40
68.68131786969145
 50
78.69235407079996
 51
80.0513643716
  0
ARC
  5
242
  8
LAYER0001
  6
CONTINUOUS
 62
     7
 10
-62.59703271366494
 20
-50.68308812439999
 30
0.0
 40
102.5367665222099
 50
80.2202237734
 51
80.90322686400002
  0
ARC
  5
243
  8
LAYER0001
  6
CONTINUOUS
 62
     7
 10
-59.35561542306493
 20
-32.04753796510001
 30
0.0
 40
83.62351173269288
 50
81.07747983440001
 51
81.63706792390002
  0
ARC
  5
244
  8
LAYER0001
  6
CONTINUOUS
 62
     7
 10
-56.60116319246492
 20
-12.2411219994
 30
0.0
 40
63.6272789810088
 50
81.49700450270001
 51
82.60040359809999
  0
ARC
  5
245
  8
LAYER0001
  6
CONTINUOUS
 62
     7
 10
-59.52819637526495
 20
-33.195581884
 30
0.0
 40
84.7844454501894
 50
82.4625701654
 51
83.5664500261
  0
ARC
  5
246
  8
LAYER0001
  6
CONTINUOUS
 62
     7
 10
-59.47088442676495
 20
-32.6634588703
 30
0.0
 40
84.24925168480478
 50
83.5646316456
 51
84.6757652839
  0
ARC
  5
247
  8
LAYER0001
  6
CONTINUOUS
 62
     7
 10
-60.40060548846495
 20
-42.7423135413
 30
0.0
 40
94.37089244812344
 50
84.6815480598
 51
85.6746289882
  0
ARC
  5
248
  8
LAYER0001
  6
CONTINUOUS
 62
     7
 10
-61.49892368106496
 20
-58.59742476469999
 30
0.0
 40
110.2637270567685
 50
85.72690686699998
 51
86.47883593550002
  0
LINE
  5
249
  8
LAYER0001
  6
CONTINUOUS
 62
     7
 10
-54.72683110626494
 20
51.45814422939999
 30
0.0
 11
-55.35495772406495
 21
51.4941059494
 31
0.0
  0
ENDBLK
  5
E2
  8
0
  0
BLOCK
  8
0
  2
DC_GROUP_17
 70
     0
 10
0.0
 20
0.0
 30
0.0
  3
DC_GROUP_17
  1

  0
ARC
  5
24A
  8
LAYER0001
  6
CONTINUOUS
 62
     7
 10
-68.37078769626494
 20
81.84573776880002
 30
0.0
 40
50.49460233010998
 50
253.8704711009
 51
254.3859365265
  0
ARC
  5
24B
  8
LAYER0001
  6
CONTINUOUS
 62
     7
 10
-68.37229509036497
 20
81.8403902317
 30
0.0
 40
50.48904641117969
 50
254.3859506471999
 51
254.9014587749
  0
ARC
  5
24C
  8
LAYER0001
  6
CONTINUOUS
 62
     7
 10
-68.37029835666495
 20
81.84780159100002
 30
0.0
 40
50.49672203394429
 50
254.9014618444999
 51
255.4169217938997
  0
LINE
  5
24D
  8
LAYER0001
  6
CONTINUOUS
 62
     7
 10
-81.08454194226495
 20
32.97790343050001
 30
0.0
 11
-80.86456428426494
 21
32.92120067219999
 31
0.0
  0
ENDBLK
  5
E5
  8
0
  0
BLOCK
  8
0
  2
DC_GROUP_18
 70
     0
 10
0.0
 20
0.0
 30
0.0
  3
DC_GROUP_18
  1

  0
ARC
  5
24E
  8
LAYER0001
  6
CONTINUOUS
 62
     7
 10
-73.58750143666494
 20
65.83880860789999
 30
0.0
 40
34.23135579505644
 50
248.0251707612999
 51
251.6249431643
  0
ARC
  5
24F
  8
LAYER0001
  6
CONTINUOUS
 62
     7
 10
-68.11656629656495
 20
82.3030033635
 30
0.0
 40
51.58073151581772
 50
251.6228495541
 51
254.238206446
  0
ARC
  5
250
  8
LAYER0001
  6
CONTINUOUS
 62
     7
 10
-68.13552157076494
 20
82.2407123094
 30
0.0
 40
51.5156336799758
 50
254.2396766562999
 51
256.8576917807
  0
ARC
  5
251
  8
LAYER0001
  6
CONTINUOUS
 62
     7
 10
-63.98767964056493
 20
99.9999700451
 30
0.0
 40
69.75284363119063
 50
256.8566463757001
 51
258.9985008254999
  0
ARC
  5
252
  8
LAYER0001
  6
CONTINUOUS
 62
     7
 10
-63.99810419146497
 20
99.9513395984
 30
0.0
 40
69.70311754624926
 50
258.9992838559
 51
261.1424067115
  0
ARC
  5
253
  8
LAYER0001
  6
CONTINUOUS
 62
     7
 10
-61.51370981806494
 20
115.8869622326
 30
0.0
 40
85.83123843206945
 50
261.1417307525001
 51
263.6311514488
  0
ARC
  5
254
  8
LAYER0001
  6
CONTINUOUS
 62
     7
 10
-61.14233549546495
 20
119.3921417346
 30
0.0
 40
89.35598350702341
 50
263.6438104003
 51
266.0853217563
  0
ARC
  5
255
  8
LAYER0001
  6
CONTINUOUS
 62
     7
 10
-60.52600177226496
 20
126.9007293322
 30
0.0
 40
96.88918385896532
 50
266.0248393682
 51
268.3224683764
  0
ARC
  5
256
  8
LAYER0001
  6
CONTINUOUS
 62
     7
 10
-60.40885356456494
 20
130.8730009461
 30
0.0
 40
100.8631824551866
 50
268.3220067418
 51
270.559129674
  0
ARC
  5
257
  8
LAYER0001
  6
CONTINUOUS
 62
     7
 10
-60.39097809506496
 20
129.5886910087
 30
0.0
 40
99.57875937609103
 50
270.5560561692
 51
272.8070402222
  0
ARC
  5
258
  8
LAYER0001
  6
CONTINUOUS
 62
     7
 10
-60.29220534856495
 20
126.9039001895
 30
0.0
 40
96.8923583765259
 50
272.8264517664
 51
275.1240431355
  0
ARC
  5
259
  8
LAYER0001
  6
CONTINUOUS
 62
     7
 10
-59.30230433816496
 20
115.8736658251
 30
0.0
 40
85.81779412309159
 50
275.1235024176
 51
277.6132156104
  0
ARC
  5
25A
  8
LAYER0001
  6
CONTINUOUS
 62
     7
 10
-60.80031147936496
 20
125.2411940896
 30
0.0
 40
95.30152290735708
 50
277.7597566036
 51
279.6647409714
  0
ARC
  5
25B
  8
LAYER0001
  6
CONTINUOUS
 62
     7
 10
-56.81703423666495
 20
99.9356740136
 30
0.0
 40
69.68718346529639
 50
279.9291715725
 51
282.0725394282
  0
ARC
  5
25C
  8
LAYER0001
  6
CONTINUOUS
 62
     7
 10
-55.38859589756493
 20
93.407663758
 30
0.0
 40
63.00479949366912
 50
282.0438812999
 51
284.3002543348999
  0
ARC
  5
25D
  8
LAYER0001
  6
CONTINUOUS
 62
     7
 10
-52.67881564036495
 20
82.2270511656
 30
0.0
 40
51.50147668314404
 50
284.4513682272
 51
287.0697431536
  0
ARC
  5
25E
  8
LAYER0001
  6
CONTINUOUS
 62
     7
 10
-50.28776549816496
 20
74.6656031754
 30
0.0
 40
43.57131642541439
 50
286.9827353223999
 51
289.9457355882
  0
LINE
  5
25F
  8
LAYER0001
  6
CONTINUOUS
 62
     7
 10
-35.42428171206495
 20
33.70786318920001
 30
0.0
 11
-34.42120274406495
 21
34.09441782340001
 31
0.0
  0
ENDBLK
  5
E8
  8
0
  0
BLOCK
  8
0
  2
DC_GROUP_19
 70
     0
 10
0.0
 20
0.0
 30
0.0
  3
DC_GROUP_19
  1

  0
ARC
  5
260
  8
LAYER0001
  6
CONTINUOUS
 62
     7
 10
-47.46031719086495
 20
16.80614806429999
 30
0.0
 40
34.23135579499403
 50
68.0251707612
 51
71.62494316429999
  0
ARC
  5
261
  8
LAYER0001
  6
CONTINUOUS
 62
     7
 10
-52.93125233116496
 20
0.3419533080000146
 30
0.0
 40
51.58073151647785
 50
71.62284955419997
 51
74.23820644599998
  0
ARC
  5
262
  8
LAYER0001
  6
CONTINUOUS
 62
     7
 10
-52.91229705686492
 20
0.4042443626999987
 30
0.0
 40
51.51563368000179
 50
74.23967665620003
 51
76.85769178070004
  0
ARC
  5
263
  8
LAYER0001
  6
CONTINUOUS
 62
     7
 10
-57.06013898716495
 20
-17.35501337390001
 30
0.0
 40
69.75284363208482
 50
76.85664637579998
 51
78.99850082539999
  0
ARC
  5
264
  8
LAYER0001
  6
CONTINUOUS
 62
     7
 10
-57.04971443616495
 20
-17.3063829272
 30
0.0
 40
69.70311754712448
 50
78.9992838559
 51
81.14240671150002
  0
ARC
  5
265
  8
LAYER0001
  6
CONTINUOUS
 62
     7
 10
-59.53410880946495
 20
-33.2420055605
 30
0.0
 40
85.831238432098
 50
81.14173075249998
 51
83.6311514488
  0
ARC
  5
266
  8
LAYER0001
  6
CONTINUOUS
 62
     7
 10
-59.90548313206496
 20
-36.74718506230001
 30
0.0
 40
89.3559835067945
 50
83.64381040030003
 51
86.08532175629999
  0
ARC
  5
267
  8
LAYER0001
  6
CONTINUOUS
 62
     7
 10
-60.52181685526496
 20
-44.2557726587
 30
0.0
 40
96.88918385754829
 50
86.0248393681
 51
88.3224683764
  0
ARC
  5
268
  8
LAYER0001
  6
CONTINUOUS
 62
     7
 10
-60.63896506296493
 20
-48.22804427379999
 30
0.0
 40
100.863182454969
 50
88.3220067418
 51
90.559129674
  0
ARC
  5
269
  8
LAYER0001
  6
CONTINUOUS
 62
     7
 10
-60.65684053246495
 20
-46.9437343372
 30
0.0
 40
99.5787593766734
 50
90.55605616919998
 51
92.8070402222
  0
ARC
  5
26A
  8
LAYER0001
  6
CONTINUOUS
 62
     7
 10
-60.75561327896496
 20
-44.25894351769998
 30
0.0
 40
96.89235837680913
 50
92.8264517664
 51
95.12404313549999
  0
ARC
  5
26B
  8
LAYER0001
  6
CONTINUOUS
 62
     7
 10
-61.74551428936495
 20
-33.2287091535
 30
0.0
 40
85.81779412357531
 50
95.12350241760001
 51
97.61321561040003
  0
ARC
  5
26C
  8
LAYER0001
  6
CONTINUOUS
 62
     7
 10
-60.24750714816494
 20
-42.5962374171
 30
0.0
 40
95.30152290696536
 50
97.75975660369998
 51
99.6647409714
  0
ARC
  5
26D
  8
LAYER0001
  6
CONTINUOUS
 62
     7
 10
-64.23078439096496
 20
-17.29071734149998
 30
0.0
 40
69.68718346528146
 50
99.9291715723
 51
102.0725394282
  0
ARC
  5
26E
  8
LAYER0001
  6
CONTINUOUS
 62
     7
 10
-65.65922272996495
 20
-10.7627070857
 30
0.0
 40
63.0047994934714
 50
102.0438813
 51
104.3002543349
  0
ARC
  5
26F
  8
LAYER0001
  6
CONTINUOUS
 62
     7
 10
-68.36900298726495
 20
0.4179055066999946
 30
0.0
 40
51.50147668286997
 50
104.4513682271
 51
107.0697431536
  0
ARC
  5
270
  8
LAYER0001
  6
CONTINUOUS
 62
     7
 10
-70.76005312936498
 20
7.9793534967
 30
0.0
 40
43.57131642536392
 50
106.9827353225
 51
109.9457355882
  0
LINE
  5
271
  8
LAYER0001
  6
CONTINUOUS
 62
     7
 10
-85.62353691536494
 20
48.93709348299999
 30
0.0
 11
-86.62661588356495
 21
48.55053884870001
 31
0.0
  0
ENDBLK
  5
EB
  8
0
  0
BLOCK
  8
0
  2
DC_GROUP_20
 70
     0
 10
0.0
 20
0.0
 30
0.0
  3
DC_GROUP_20
  1

  0
ARC
  5
272
  8
LAYER0001
  6
CONTINUOUS
 62
     7
 10
-41.53683656726495
 20
29.3923662216
 30
0.0
 40
20.32177241355575
 50
55.9416943933
 51
57.75476438569998
  0
ARC
  5
273
  8
LAYER0001
  6
CONTINUOUS
 62
     7
 10
-37.57298621276494
 20
35.14363117969999
 30
0.0
 40
13.33728177685918
 50
53.32871283019995
 51
56.21236623710002
  0
ARC
  5
274
  8
LAYER0001
  6
CONTINUOUS
 62
     7
 10
-35.96464151056495
 20
37.35331403420001
 30
0.0
 40
10.60445091755403
 50
49.40527732319997
 51
53.16845496539999
  0
ARC
  5
275
  8
LAYER0001
  6
CONTINUOUS
 62
     7
 10
-35.96367031496493
 20
37.3554791723
 30
0.0
 40
10.60217492067038
 50
45.6365765717
 51
49.40164894510006
  0
ARC
  5
276
  8
LAYER0001
  6
CONTINUOUS
 62
     7
 10
-36.05829847706494
 20
37.2585964037
 30
0.0
 40
10.73760295314503
 50
41.90238125520003
 51
45.63705483799998
  0
ARC
  5
277
  8
LAYER0001
  6
CONTINUOUS
 62
     7
 10
-35.45847131786495
 20
37.81416590639999
 30
0.0
 40
9.920125121134507
 50
38.47069101449997
 51
41.82788197519996
  0
ARC
  5
278
  8
LAYER0001
  6
CONTINUOUS
 62
     7
 10
-31.88178420126495
 20
40.75343432329999
 30
0.0
 40
5.291828879114087
 50
32.72153040390008
 51
37.64646020200011
  0
ARC
  5
279
  8
LAYER0001
  6
CONTINUOUS
 62
     7
 10
-31.81687557826497
 20
40.79667346780001
 30
0.0
 40
5.213847712980662
 50
27.73032911909989
 51
32.70734727799992
  0
ARC
  5
27A
  8
LAYER0001
  6
CONTINUOUS
 62
     7
 10
-31.85276356206496
 20
40.77832415069999
 30
0.0
 40
5.254152022669915
 50
22.77070818760025
 51
27.72534330630018
  0
ARC
  5
27B
  8
LAYER0001
  6
CONTINUOUS
 62
     7
 10
-31.99966358786495
 20
40.7161937229
 30
0.0
 40
5.413650070139017
 50
17.91551746430001
 51
22.77527229070006
  0
ARC
  5
27C
  8
LAYER0001
  6
CONTINUOUS
 62
     7
 10
-30.63175521016496
 20
41.0845519237
 30
0.0
 40
3.997335255033498
 50
10.56825419949999
 51
15.59180883779957
  0
ARC
  5
27D
  8
LAYER0001
  6
CONTINUOUS
 62
     7
 10
-30.43351503216494
 20
41.12358046039999
 30
0.0
 40
3.795300237082496
 50
5.334285348199941
 51
10.53794159189998
  0
ARC
  5
27E
  8
LAYER0001
  6
CONTINUOUS
 62
     7
 10
-30.33042970586494
 20
41.13460433299998
 30
0.0
 40
3.691636760849605
 50
0.0083406449002127
 51
5.312670689000435
  0
ARC
  5
27F
  8
LAYER0001
  6
CONTINUOUS
 62
     7
 10
-30.32249983746495
 20
41.13531064370002
 30
0.0
 40
3.683706857201578
 50
354.6816159082998
 51
359.9973727575996
  0
ARC
  5
280
  8
LAYER0001
  6
CONTINUOUS
 62
     7
 10
-30.40972549806495
 20
41.143386646
 30
0.0
 40
3.771305577588408
 50
349.4454929679
 51
354.6822800926003
  0
ARC
  5
281
  8
LAYER0001
  6
CONTINUOUS
 62
     7
 10
-30.59210620596495
 20
41.1765194911
 30
0.0
 40
3.95666966307313
 50
344.3823589804002
 51
349.4575779819002
  0
ARC
  5
282
  8
LAYER0001
  6
CONTINUOUS
 62
     7
 10
-32.16432262326497
 20
41.61102764249999
 30
0.0
 40
5.587818178499344
 50
339.6858890487999
 51
344.4315807257
  0
ARC
  5
283
  8
LAYER0001
  6
CONTINUOUS
 62
     7
 10
-31.93773922296496
 20
41.52960261260002
 30
0.0
 40
5.347059923688211
 50
334.7713054742997
 51
339.6612273882999
  0
ARC
  5
284
  8
LAYER0001
  6
CONTINUOUS
 62
     7
 10
-31.82897780366496
 20
41.4800870385
 30
0.0
 40
5.227567946366493
 50
329.7869334942998
 51
334.7541506922996
  0
ARC
  5
285
  8
LAYER0001
  6
CONTINUOUS
 62
     7
 10
-31.82782331706495
 20
41.48028837
 30
0.0
 40
5.22667165311444
 50
324.8077489886999
 51
329.7786576972002
  0
ARC
  5
286
  8
LAYER0001
  6
CONTINUOUS
 62
     7
 10
-31.92406020526494
 20
41.5480139012
 30
0.0
 40
5.344350338240234
 50
319.908328411
 51
324.8089986555996
  0
ARC
  5
287
  8
LAYER0001
  6
CONTINUOUS
 62
     7
 10
-36.18130739556494
 20
45.12551604260001
 30
0.0
 40
10.90516534626768
 50
316.2424036350998
 51
319.9339535195
  0
ARC
  5
288
  8
LAYER0001
  6
CONTINUOUS
 62
     7
 10
-36.01529278246495
 20
44.9691022251
 30
0.0
 40
10.67708057733523
 50
312.4872658128
 51
316.2325093218
  0
ARC
  5
289
  8
LAYER0001
  6
CONTINUOUS
 62
     7
 10
-35.95406152806493
 20
44.90393494469999
 30
0.0
 40
10.58766729436737
 50
308.7134569222999
 51
312.4811079348999
  0
ARC
  5
28A
  8
LAYER0001
  6
CONTINUOUS
 62
     7
 10
-35.98383759476494
 20
44.94171622520001
 30
0.0
 40
10.63577013732971
 50
304.9536928632999
 51
308.7113256945
  0
ARC
  5
28B
  8
LAYER0001
  6
CONTINUOUS
 62
     7
 10
-41.59173258986493
 20
52.9604612026
 30
0.0
 40
20.42089939652615
 50
303.1535797283
 51
304.9600448952
  0
LINE
  5
28C
  8
LAYER0001
  6
CONTINUOUS
 62
     7
 10
-26.84851530666496
 20
42.38151004929999
 30
0.0
 11
-26.78151788526495
 21
42.1589641739
 31
0.0
  0
LINE
  5
28D
  8
LAYER0001
  6
CONTINUOUS
 62
     7
 10
-30.42384680486497
 20
35.8639276576
 30
0.0
 11
-30.69427300136494
 21
35.69032725929999
 31
0.0
  0
ENDBLK
  5
EE
  8
0
  0
BLOCK
  8
0
  2
DC_GROUP_21
 70
     0
 10
0.0
 20
0.0
 30
0.0
  3
DC_GROUP_21
  1

  0
ARC
  5
28E
  8
LAYER0001
  6
CONTINUOUS
 62
     7
 10
-52.91044569946496
 20
81.8598378496
 30
0.0
 40
50.50916566129195
 50
284.3254158872
 51
284.8407805006
  0
ARC
  5
28F
  8
LAYER0001
  6
CONTINUOUS
 62
     7
 10
-52.90625061956496
 20
81.84392427960002
 30
0.0
 40
50.49270844497799
 50
284.840804178
 51
285.3562844842
  0
ARC
  5
290
  8
LAYER0001
  6
CONTINUOUS
 62
     7
 10
-52.90540741176495
 20
81.8408118347
 30
0.0
 40
50.48948382273072
 50
285.3562971211
 51
285.8718022674999
  0
LINE
  5
291
  8
LAYER0001
  6
CONTINUOUS
 62
     7
 10
-39.09724695126494
 20
33.27618807029999
 30
0.0
 11
-38.87890393466495
 21
33.33879965749999
 31
0.0
  0
ENDBLK
  5
F1
  8
0
  0
BLOCK
  8
0
  2
DC_GROUP_22
 70
     0
 10
0.0
 20
0.0
 30
0.0
  3
DC_GROUP_22
  1

  0
ARC
  5
292
  8
LAYER0001
  6
CONTINUOUS
 62
     7
 10
-61.73863118116495
 20
115.5434394238
 30
0.0
 40
84.86276275777264
 50
261.4916300656
 51
261.9107418685999
  0
ARC
  5
293
  8
LAYER0001
  6
CONTINUOUS
 62
     7
 10
-61.74750739656495
 20
115.4807998167
 30
0.0
 40
84.79949738907777
 50
261.9107239814999
 51
263.3823689884
  0
ARC
  5
294
  8
LAYER0001
  6
CONTINUOUS
 62
     7
 10
-60.33735951706497
 20
128.9844261278
 30
0.0
 40
98.37578600036635
 50
263.4729020321
 51
264.5830355726
  0
ARC
  5
295
  8
LAYER0001
  6
CONTINUOUS
 62
     7
 10
-60.87698047996495
 20
125.0125970015
 30
0.0
 40
94.37089244657545
 50
264.6815480599
 51
265.6746289883
  0
ARC
  5
296
  8
LAYER0001
  6
CONTINUOUS
 62
     7
 10
-61.54183885266494
 20
114.5614876583
 30
0.0
 40
83.89949929272538
 50
265.5890871076999
 51
266.8923235872999
  0
ARC
  5
297
  8
LAYER0001
  6
CONTINUOUS
 62
     7
 10
-60.75560823016494
 20
126.5318509541
 30
0.0
 40
95.89497938893763
 50
266.8109880052999
 51
268.1141938605
  0
ARC
  5
298
  8
LAYER0001
  6
CONTINUOUS
 62
     7
 10
-60.65322466626495
 20
129.7202718644
 30
0.0
 40
99.08504267633347
 50
268.1156944825
 51
269.3774698767
  0
ARC
  5
299
  8
LAYER0001
  6
CONTINUOUS
 62
     7
 10
-60.63879298416496
 20
130.8977687665
 30
0.0
 40
100.2626268892491
 50
269.376534206
 51
270.623465794
  0
ARC
  5
29A
  8
LAYER0001
  6
CONTINUOUS
 62
     7
 10
-60.62465043896495
 20
129.7334866801
 30
0.0
 40
99.0982598536066
 50
270.622614271
 51
271.8842213698
  0
ARC
  5
29B
  8
LAYER0001
  6
CONTINUOUS
 62
     7
 10
-60.52268739716494
 20
126.5478648836
 30
0.0
 40
95.91100799862532
 50
271.8859150398
 51
273.1889030944
  0
ARC
  5
29C
  8
LAYER0001
  6
CONTINUOUS
 62
     7
 10
-61.56873592996494
 20
142.458150208
 30
0.0
 40
111.8549604061358
 50
273.2705373514999
 51
274.2480519535999
  0
ARC
  5
29D
  8
LAYER0001
  6
CONTINUOUS
 62
     7
 10
-60.40408487086495
 20
125.053842691
 30
0.0
 40
94.41228307826724
 50
274.3255887021
 51
275.3182342498
  0
ARC
  5
29E
  8
LAYER0001
  6
CONTINUOUS
 62
     7
 10
-58.38382918746493
 20
104.5471862784
 30
0.0
 40
73.80673352683142
 50
275.2321828051
 51
276.7118795901
  0
ARC
  5
29F
  8
LAYER0001
  6
CONTINUOUS
 62
     7
 10
-59.52890537526496
 20
115.4717088875
 30
0.0
 40
84.79033182718011
 50
276.6175514670999
 51
278.089355563
  0
ARC
  5
2A0
  8
LAYER0001
  6
CONTINUOUS
 62
     7
 10
-59.53781219936494
 20
115.5356061349
 30
0.0
 40
84.85484662973386
 50
278.0892385818
 51
278.508389484
  0
ENDBLK
  5
F4
  8
0
  0
ENDSEC
  0
SECTION
  2
ENTITIES
  0
LINE
  5
2A1
  8
LAYER0001
  6
CONTINUOUS
 62
     7
 10
-100.508792984165
 20
-13.47441091369999
 30
0.0
 11
-23.30879298416495
 21
-13.47441091369999
 31
0.0
  0
LINE
  5
2A2
  8
LAYER0001
  6
CONTINUOUS
 62
     7
 10
72.16120701583502
 20
-13.47441091369999
 30
0.0
 11
74.16120701583502
 21
-13.47441091369999
 31
0.0
  0
LINE
  5
2A3
  8
LAYER0001
  6
CONTINUOUS
 62
     7
 10
-82.39868203356495
 20
33.33879965749999
 30
0.0
 11
-85.63879298416494
 21
33.33879965749999
 31
0.0
  0
LINE
  5
2A4
  8
LAYER0001
  6
CONTINUOUS
 62
     7
 10
-82.39868203356495
 20
48.93148380420001
 30
0.0
 11
-85.63879298416494
 21
48.93148380420001
 31
0.0
  0
LINE
  5
2A5
  8
LAYER0001
  6
CONTINUOUS
 62
     7
 10
-38.87890393466495
 20
33.33879965749999
 30
0.0
 11
-35.63879298416496
 21
33.33879965749999
 31
0.0
  0
LINE
  5
2A6
  8
LAYER0001
  6
CONTINUOUS
 62
     7
 10
-38.87890393466495
 20
48.93148380420001
 30
0.0
 11
-35.63879298416496
 21
48.93148380420001
 31
0.0
  0
LINE
  5
2A7
  8
LAYER0001
  6
CONTINUOUS
 62
     7
 10
-55.63879298416496
 20
52.51028559969999
 30
0.0
 11
-55.63879298416496
 21
51.7936701348
 31
0.0
  0
LINE
  5
2A8
  8
LAYER0001
  6
CONTINUOUS
 62
     7
 10
-65.63879298416497
 20
52.51028559969999
 30
0.0
 11
-65.63879298416497
 21
51.7936701348
 31
0.0
  0
LINE
  5
2A9
  8
LAYER0001
  6
CONTINUOUS
 62
     7
 10
-97.96879298416495
 20
-31.3648582692
 30
0.0
 11
-101.391452000265
 21
-37.2930775821
 31
0.0
  0
LINE
  5
2AA
  8
LAYER0001
  6
CONTINUOUS
 62
     7
 10
88.76120701583504
 20
-37.39385384249999
 30
0.0
 11
88.76120701583504
 21
-40.58499237840001
 31
0.0
  0
LINE
  5
2AB
  8
LAYER0001
  6
CONTINUOUS
 62
     7
 10
74.16120701583502
 20
-13.47441091369999
 30
0.0
 11
79.86120701583506
 21
-11.9725609385
 31
0.0
  0
LINE
  5
2AC
  8
LAYER0001
  6
CONTINUOUS
 62
     7
 10
72.16120701583502
 20
-10.88483279660001
 30
0.0
 11
72.16120701583502
 21
-13.47441091369999
 31
0.0
  0
LINE
  5
2AD
  8
LAYER0001
  6
CONTINUOUS
 62
     7
 10
65.86120701583506
 20
-10.6070715664
 30
0.0
 11
66.80887105963505
 21
-10.6567365344
 31
0.0
  0
LINE
  5
2AE
  8
LAYER0001
  6
CONTINUOUS
 62
     7
 10
60.78503903773503
 20
-10.3410408754
 30
0.0
 11
65.86120701583506
 21
-10.6070715664
 31
0.0
  0
LINE
  5
2AF
  8
LAYER0001
  6
CONTINUOUS
 62
     7
 10
64.06636532053504
 20
31.25412943210002
 30
0.0
 11
65.86120701593505
 21
31.25412943210002
 31
0.0
  0
LINE
  5
2B0
  8
LAYER0001
  6
CONTINUOUS
 62
     7
 10
-14.63879298416497
 20
-11.8648582691
 30
0.0
 11
-14.63879298416497
 21
-35.21829883189999
 31
0.0
  0
LINE
  5
2B1
  8
LAYER0001
  6
CONTINUOUS
 62
     7
 10
-25.13879298416497
 20
-10.8848327965
 30
0.0
 11
-24.73525308366494
 21
-11.34078047620001
 31
0.0
  0
LINE
  5
2B2
  8
LAYER0001
  6
CONTINUOUS
 62
     7
 10
-15.32009411476496
 20
-11.34078047620001
 30
0.0
 11
-14.63879298416497
 21
-11.8648582691
 31
0.0
  0
LINE
  5
2B3
  8
LAYER0001
  6
CONTINUOUS
 62
     7
 10
-24.73525308366494
 20
-11.34078047620001
 30
0.0
 11
-15.32009411476496
 21
-11.34078047620001
 31
0.0
  0
LINE
  5
2B4
  8
LAYER0001
  6
CONTINUOUS
 62
     7
 10
-98.63879298416494
 20
-10.8848327965
 30
0.0
 11
-99.04233288456494
 21
-11.34078047620001
 31
0.0
  0
LINE
  5
2B5
  8
LAYER0001
  6
CONTINUOUS
 62
     7
 10
-98.63879298416494
 20
-10.8848327965
 30
0.0
 11
-25.13879298416497
 21
-10.8848327965
 31
0.0
  0
LINE
  5
2B6
  8
LAYER0001
  6
CONTINUOUS
 62
     7
 10
-105.957491853465
 20
-11.34078047620001
 30
0.0
 11
-99.04233288456494
 21
-11.34078047620001
 31
0.0
  0
LINE
  5
2B7
  8
LAYER0001
  6
CONTINUOUS
 62
     7
 10
-14.63879298416497
 20
-11.8648582691
 30
0.0
 11
-12.63879298416497
 21
-11.8648582691
 31
0.0
  0
LINE
  5
2B8
  8
LAYER0001
  6
CONTINUOUS
 62
     7
 10
-106.638792984165
 20
-11.8648582691
 30
0.0
 11
-105.957491853465
 21
-11.34078047620001
 31
0.0
  0
LINE
  5
2B9
  8
LAYER0001
  6
CONTINUOUS
 62
     7
 10
-60.57696206896495
 20
-36.96703621029999
 30
0.0
 11
-60.67478115586495
 21
-36.96703621029999
 31
0.0
  0
LINE
  5
2BA
  8
LAYER0001
  6
CONTINUOUS
 62
     7
 10
-21.63879298416497
 20
62.58698614520002
 30
0.0
 11
-20.79879298416495
 21
63.42551061370001
 31
0.0
  0
LINE
  5
2BB
  8
LAYER0001
  6
CONTINUOUS
 62
     7
 10
-20.79879298416495
 20
63.42551061370001
 30
0.0
 11
-20.79879298416495
 21
54.7211782605
 31
0.0
  0
LINE
  5
2BC
  8
LAYER0001
  6
CONTINUOUS
 62
     7
 10
-21.63879298416497
 20
62.58698614520002
 30
0.0
 11
-21.63879298416497
 21
54.0980489546
 31
0.0
  0
LINE
  5
2BD
  8
LAYER0001
  6
CONTINUOUS
 62
     7
 10
-100.478792984165
 20
63.42551061370001
 30
0.0
 11
-99.63879298416494
 21
62.58698614520002
 31
0.0
  0
LINE
  5
2BE
  8
LAYER0001
  6
CONTINUOUS
 62
     7
 10
-99.63879298416494
 20
62.58698614520002
 30
0.0
 11
-21.63879298416497
 21
62.58698614520002
 31
0.0
  0
LINE
  5
2BF
  8
LAYER0001
  6
CONTINUOUS
 62
     7
 10
-100.478792984165
 20
54.7211782605
 30
0.0
 11
-100.478792984165
 21
63.42551061370001
 31
0.0
  0
LINE
  5
2C0
  8
LAYER0001
  6
CONTINUOUS
 62
     7
 10
-99.63879298416494
 20
54.0980489546
 30
0.0
 11
-99.63879298416494
 21
62.58698614520002
 31
0.0
  0
LINE
  5
2C1
  8
LAYER0001
  6
CONTINUOUS
 62
     7
 10
-106.638792984165
 20
-11.8648582691
 30
0.0
 11
-106.638792984165
 21
-35.21829883189999
 31
0.0
  0
LINE
  5
2C2
  8
LAYER0001
  6
CONTINUOUS
 62
     7
 10
-110.638792984165
 20
58.4255106138
 30
0.0
 11
-110.638792984165
 21
-9.864858269099996
 31
0.0
  0
LINE
  5
2C3
  8
LAYER0001
  6
CONTINUOUS
 62
     7
 10
-10.63879298416496
 20
58.6351417309
 30
0.0
 11
-10.63879298416496
 21
-9.864858269099996
 31
0.0
  0
LINE
  5
2C4
  8
LAYER0001
  6
CONTINUOUS
 62
     7
 10
-105.638792984165
 20
63.63514173099999
 30
0.0
 11
-94.13879298416494
 21
63.63514173099999
 31
0.0
  0
LINE
  5
2C5
  8
LAYER0001
  6
CONTINUOUS
 62
     7
 10
-108.638792984165
 20
-11.8648582691
 30
0.0
 11
-106.638792984165
 21
-11.8648582691
 31
0.0
  0
LINE
  5
2C6
  8
LAYER0001
  6
CONTINUOUS
 62
     7
 10
-20.76879298416495
 20
-31.3648582692
 30
0.0
 11
-97.96879298416495
 21
-31.3648582692
 31
0.0
  0
LINE
  5
2C7
  8
LAYER0001
  6
CONTINUOUS
 62
     7
 10
-23.30879298416495
 20
-21.3648582692
 30
0.0
 11
-20.76879298416495
 21
-21.3648582692
 31
0.0
  0
LINE
  5
2C8
  8
LAYER0001
  6
CONTINUOUS
 62
     7
 10
-100.508792984165
 20
-22.3648582692
 30
0.0
 11
-97.96879298416495
 21
-22.3648582692
 31
0.0
  0
LINE
  5
2C9
  8
LAYER0001
  6
CONTINUOUS
 62
     7
 10
-100.508792984165
 20
-22.3648582692
 30
0.0
 11
-100.508792984165
 21
-13.47441091369999
 31
0.0
  0
LINE
  5
2CA
  8
LAYER0001
  6
CONTINUOUS
 62
     7
 10
-97.96879298416495
 20
-22.3648582692
 30
0.0
 11
-97.96879298416495
 21
-31.3648582692
 31
0.0
  0
LINE
  5
2CB
  8
LAYER0001
  6
CONTINUOUS
 62
     7
 10
-23.30879298416495
 20
-21.3648582692
 30
0.0
 11
-23.30879298416495
 21
-13.47441091369999
 31
0.0
  0
LINE
  5
2CC
  8
LAYER0001
  6
CONTINUOUS
 62
     7
 10
-20.76879298416495
 20
-31.3648582692
 30
0.0
 11
-20.76879298416495
 21
-21.3648582692
 31
0.0
  0
LINE
  5
2CD
  8
LAYER0001
  6
CONTINUOUS
 62
     7
 10
-108.638792984165
 20
-10.6070715664
 30
0.0
 11
-12.63879298416497
 21
-10.6070715664
 31
0.0
  0
LINE
  5
2CE
  8
LAYER0001
  6
CONTINUOUS
 62
     7
 10
-100.478792984165
 20
54.7211782605
 30
0.0
 11
-99.63879298416494
 21
54.0980489546
 31
0.0
  0
LINE
  5
2CF
  8
LAYER0001
  6
CONTINUOUS
 62
     7
 10
-21.63879298416497
 20
54.0980489546
 30
0.0
 11
-20.79879298416495
 21
54.7211782605
 31
0.0
  0
LINE
  5
2D0
  8
LAYER0001
  6
CONTINUOUS
 62
     7
 10
80.26120701583504
 20
-3.614858269199985
 30
0.0
 11
89.86120701583506
 21
-3.614858269199985
 31
0.0
  0
LINE
  5
2D1
  8
LAYER0001
  6
CONTINUOUS
 62
     7
 10
60.31741313563502
 20
-7.539386515200006
 30
0.0
 11
60.31358611203506
 21
-9.890444031299996
 31
0.0
  0
LINE
  5
2D2
  8
LAYER0001
  6
CONTINUOUS
 62
     7
 10
79.26120701583504
 20
4.385141730800015
 30
0.0
 11
79.26120701583504
 21
-2.614858269199985
 31
0.0
  0
LINE
  5
2D3
  8
LAYER0001
  6
CONTINUOUS
 62
     7
 10
80.26120701583504
 20
5.385141730800015
 30
0.0
 11
89.86120701583506
 21
5.385141730800015
 31
0.0
  0
LINE
  5
2D4
  8
LAYER0001
  6
CONTINUOUS
 62
     7
 10
92.86120701583506
 20
-41.2743465568
 30
0.0
 11
92.86120701583506
 21
-35.21829883200001
 31
0.0
  0
LINE
  5
2D5
  8
LAYER0001
  6
CONTINUOUS
 62
     7
 10
92.86120701583506
 20
-41.2743465568
 30
0.0
 11
89.23503903773506
 21
-41.0843071458
 31
0.0
  0
LINE
  5
2D6
  8
LAYER0001
  6
CONTINUOUS
 62
     7
 10
88.76120701583504
 20
-37.39385384249999
 30
0.0
 11
80.80887105963505
 21
-36.97708957490001
 31
0.0
  0
LINE
  5
2D7
  8
LAYER0001
  6
CONTINUOUS
 62
     7
 10
92.86120701583506
 20
-35.9900231976
 30
0.0
 11
80.80887105963505
 21
-35.358387035
 31
0.0
  0
LINE
  5
2D8
  8
LAYER0001
  6
CONTINUOUS
 62
     7
 10
79.86120701583506
 20
-35.97846004020001
 30
0.0
 11
79.86120701583506
 21
-11.3407804763
 31
0.0
  0
LINE
  5
2D9
  8
LAYER0001
  6
CONTINUOUS
 62
     7
 10
66.80887105963505
 20
-10.6567365344
 30
0.0
 11
89.86120701583506
 21
-11.86485826919999
 31
0.0
  0
LINE
  5
2DA
  8
LAYER0001
  6
CONTINUOUS
 62
     7
 10
85.36120701583506
 20
51.1359572611
 30
0.0
 11
66.80481211473504
 21
50.08780311069999
 31
0.0
  0
LINE
  5
2DB
  8
LAYER0001
  6
CONTINUOUS
 62
     7
 10
89.86120701583506
 20
63.63514173080002
 30
0.0
 11
89.86120701583506
 21
5.385141730800015
 31
0.0
  0
LINE
  5
2DC
  8
LAYER0001
  6
CONTINUOUS
 62
     7
 10
85.36120701583506
 20
51.1359572611
 30
0.0
 11
85.36120701583506
 21
62.45034215739998
 31
0.0
  0
LINE
  5
2DD
  8
LAYER0001
  6
CONTINUOUS
 62
     7
 10
85.36120701583506
 20
54.7017054697
 30
0.0
 11
69.86120701583506
 21
54.0980489546
 31
0.0
  0
LINE
  5
2DE
  8
LAYER0001
  6
CONTINUOUS
 62
     7
 10
69.86120701583506
 20
54.0980489546
 30
0.0
 11
69.86120701583506
 21
58.7911278783
 31
0.0
  0
LINE
  5
2DF
  8
LAYER0001
  6
CONTINUOUS
 62
     7
 10
73.65186319093503
 20
62.78564601730002
 30
0.0
 11
89.86120701583506
 21
63.63514173080002
 31
0.0
  0
LINE
  5
2E0
  8
LAYER0001
  6
CONTINUOUS
 62
     7
 10
-98.63879298416494
 20
-13.47441091360001
 30
0.0
 11
-98.63879298416494
 21
-10.8848327965
 31
0.0
  0
LINE
  5
2E1
  8
LAYER0001
  6
CONTINUOUS
 62
     7
 10
-25.13879298416497
 20
-13.47441091360001
 30
0.0
 11
-25.13879298416497
 21
-10.8848327965
 31
0.0
  0
LINE
  5
2E2
  8
LAYER0001
  6
CONTINUOUS
 62
     7
 10
89.86120701583506
 20
-3.614858269199985
 30
0.0
 11
89.86120701583506
 21
-11.86485826919999
 31
0.0
  0
LINE
  5
2E3
  8
LAYER0001
  6
CONTINUOUS
 62
     7
 10
-94.13879298416494
 20
63.63514173099999
 30
0.0
 11
-93.35267629486493
 21
62.84902504169998
 31
0.0
  0
LINE
  5
2E4
  8
LAYER0001
  6
CONTINUOUS
 62
     7
 10
-93.35267629486493
 20
62.84902504169998
 30
0.0
 11
-27.92490967336494
 21
62.84902504169998
 31
0.0
  0
LINE
  5
2E5
  8
LAYER0001
  6
CONTINUOUS
 62
     7
 10
-27.13879298416497
 20
63.6351417309
 30
0.0
 11
-15.63879298416497
 21
63.6351417309
 31
0.0
  0
LINE
  5
2E6
  8
LAYER0001
  6
CONTINUOUS
 62
     7
 10
-27.92490967336494
 20
62.84902504169998
 30
0.0
 11
-27.13879298416497
 21
63.6351417309
 31
0.0
  0
LINE
  5
2E7
  8
LAYER0001
  6
CONTINUOUS
 62
     7
 10
-20.76879298416495
 20
-31.3648582692
 30
0.0
 11
-17.65431234376494
 21
-36.75929697749999
 31
0.0
  0
LINE
  5
2E8
  8
LAYER0001
  6
CONTINUOUS
 62
     7
 10
66.92745800153504
 20
59.6910215772
 30
0.0
 11
70.00453132913502
 21
59.85228415700001
 31
0.0
  0
LINE
  5
2E9
  8
LAYER0001
  6
CONTINUOUS
 62
     7
 10
65.86120701583506
 20
58.73991317239999
 30
0.0
 11
65.86120701583506
 21
-9.658106999600006
 31
0.0
  0
LINE
  5
2EA
  8
LAYER0001
  6
CONTINUOUS
 62
     7
 10
-40.63879298416496
 20
32.630528864
 30
0.0
 11
-40.63879298416496
 21
31.83383671450001
 31
0.0
  0
LINE
  5
2EB
  8
LAYER0001
  6
CONTINUOUS
 62
     7
 10
-46.63879298416496
 20
31.317955851
 30
0.0
 11
-46.63879298416496
 21
30.65527846210001
 31
0.0
  0
LINE
  5
2EC
  8
LAYER0001
  6
CONTINUOUS
 62
     7
 10
-80.63879298416497
 20
32.630528864
 30
0.0
 11
-80.63879298416497
 21
31.83383671450001
 31
0.0
  0
LINE
  5
2ED
  8
LAYER0001
  6
CONTINUOUS
 62
     7
 10
-74.63879298416497
 20
31.317955851
 30
0.0
 11
-74.63879298416497
 21
30.65527846210001
 31
0.0
  0
LINE
  5
2EE
  8
LAYER0001
  6
CONTINUOUS
 62
     7
 10
-91.63879298416494
 20
44.58027874299999
 30
0.0
 11
-91.63879298416494
 21
45.8643679708
 31
0.0
  0
LINE
  5
2EF
  8
LAYER0001
  6
CONTINUOUS
 62
     7
 10
-91.63879298416494
 20
37.6900047187
 30
0.0
 11
-91.63879298416494
 21
36.40591549090001
 31
0.0
  0
LINE
  5
2F0
  8
LAYER0001
  6
CONTINUOUS
 62
     7
 10
-29.63879298416497
 20
45.8643679708
 30
0.0
 11
-29.63879298416497
 21
44.58027874299999
 31
0.0
  0
LINE
  5
2F1
  8
LAYER0001
  6
CONTINUOUS
 62
     7
 10
-29.63879298416497
 20
37.6900047187
 30
0.0
 11
-29.63879298416497
 21
36.40591549090001
 31
0.0
  0
LINE
  5
2F2
  8
LAYER0001
  6
CONTINUOUS
 62
     7
 10
92.86120701583506
 20
-35.21829883200001
 30
0.0
 11
89.86120701583506
 21
-11.8242915364
 31
0.0
  0
LINE
  5
2F3
  8
LAYER0001
  6
CONTINUOUS
 62
     7
 10
93.86120701583506
 20
-35.2588655648
 30
0.0
 11
90.86120701583506
 21
-11.86485826919999
 31
0.0
  0
LINE
  5
2F4
  8
LAYER0001
  6
CONTINUOUS
 62
     7
 10
95.86120701583506
 20
-40.95995933090001
 30
0.0
 11
95.86120701583506
 21
-41.1695309983
 31
0.0
  0
LINE
  5
2F5
  8
LAYER0001
  6
CONTINUOUS
 62
     7
 10
95.86120701583506
 20
-40.95995933090001
 30
0.0
 11
99.91354297213503
 21
-40.74758540249999
 31
0.0
  0
LINE
  5
2F6
  8
LAYER0001
  6
CONTINUOUS
 62
     7
 10
90.26120701583504
 20
5.385141730800015
 30
0.0
 11
90.26120701583504
 21
-3.614858269199985
 31
0.0
  0
LINE
  5
2F7
  8
LAYER0001
  6
CONTINUOUS
 62
     7
 10
88.86120701583506
 20
-3.614858269199985
 30
0.0
 11
90.26120701583504
 21
-3.614858269199985
 31
0.0
  0
LINE
  5
2F8
  8
LAYER0001
  6
CONTINUOUS
 62
     7
 10
88.86120701583506
 20
5.385141730800015
 30
0.0
 11
90.26120701583504
 21
5.385141730800015
 31
0.0
  0
LINE
  5
2F9
  8
LAYER0001
  6
CONTINUOUS
 62
     7
 10
90.86120701583506
 20
63.63514173080002
 30
0.0
 11
99.91354297213503
 21
63.1607289061
 31
0.0
  0
LINE
  5
2FA
  8
LAYER0001
  6
CONTINUOUS
 62
     7
 10
100.861207015935
 20
62.16209937129998
 30
0.0
 11
100.861207015935
 21
35.38514173080002
 31
0.0
  0
LINE
  5
2FB
  8
LAYER0001
  6
CONTINUOUS
 62
     7
 10
90.86120701583506
 20
63.63514173080002
 30
0.0
 11
90.86120701583506
 21
-11.86485826919999
 31
0.0
  0
LINE
  5
2FC
  8
LAYER0001
  6
CONTINUOUS
 62
     7
 10
97.86120701583506
 20
35.38514173080002
 30
0.0
 11
100.861207015935
 21
35.38514173080002
 31
0.0
  0
LINE
  5
2FD
  8
LAYER0001
  6
CONTINUOUS
 62
     7
 10
98.99244001123502
 20
33.88514173080002
 30
0.0
 11
98.86120701593502
 21
35.38514173080002
 31
0.0
  0
LINE
  5
2FE
  8
LAYER0001
  6
CONTINUOUS
 62
     7
 10
98.99244001123502
 20
33.88514173080002
 30
0.0
 11
99.36120701593502
 21
33.88514173080002
 31
0.0
  0
LINE
  5
2FF
  8
LAYER0001
  6
CONTINUOUS
 62
     7
 10
99.36120701593502
 20
33.88514173080002
 30
0.0
 11
100.861207015935
 21
35.38514173080002
 31
0.0
  0
LINE
  5
300
  8
LAYER0001
  6
CONTINUOUS
 62
     7
 10
97.86120701583506
 20
35.38514173080002
 30
0.0
 11
97.86120701583506
 21
-0.1148582691999853
 31
0.0
  0
LINE
  5
301
  8
LAYER0001
  6
CONTINUOUS
 62
     7
 10
97.86120701583506
 20
-0.1148582691999853
 30
0.0
 11
100.861207015835
 21
-0.1148582691999853
 31
0.0
  0
LINE
  5
302
  8
LAYER0001
  6
CONTINUOUS
 62
     7
 10
100.861207015835
 20
-0.1148582691999853
 30
0.0
 11
100.861207015835
 21
-39.7489558678
 31
0.0
  0
LINE
  5
303
  8
LAYER0001
  6
CONTINUOUS
 62
     7
 10
93.86120701583506
 20
-35.9900231976
 30
0.0
 11
99.91354297213503
 21
-35.6728337107
 31
0.0
  0
LINE
  5
304
  8
LAYER0001
  6
CONTINUOUS
 62
     7
 10
93.86120701583506
 20
-41.2743465568
 30
0.0
 11
95.86120701583506
 21
-41.1695309983
 31
0.0
  0
LINE
  5
305
  8
LAYER0001
  6
CONTINUOUS
 62
     7
 10
93.86120701583506
 20
-35.2588655648
 30
0.0
 11
93.86120701583506
 21
-41.2743465568
 31
0.0
  0
LINE
  5
306
  8
LAYER0001
  6
CONTINUOUS
 62
     7
 10
90.86120701583506
 20
-11.86485826919999
 30
0.0
 11
100.861207015835
 21
-11.3407804763
 31
0.0
  0
LINE
  5
307
  8
LAYER0001
  6
CONTINUOUS
 62
     7
 10
90.86120701583506
 20
63.13514173080002
 30
0.0
 11
89.86120701583506
 21
63.08273395159999
 31
0.0
  0
LINE
  5
308
  8
LAYER0001
  6
CONTINUOUS
 62
     7
 10
92.86120701583506
 20
-40.72193877749999
 30
0.0
 11
93.86120701583506
 21
-40.7743465568
 31
0.0
  0
LINE
  5
309
  8
LAYER0001
  6
CONTINUOUS
 62
     7
 10
66.80887105963505
 20
59.6848066989
 30
0.0
 11
66.92745800153504
 21
59.6910215772
 31
0.0
  0
LINE
  5
30A
  8
LAYER0001
  6
CONTINUOUS
 62
     7
 10
100.861207015835
 20
-39.7489558678
 30
0.0
 11
100.861207015835
 21
-54.1648582692
 31
0.0
  0
LINE
  5
30B
  8
LAYER0001
  6
CONTINUOUS
 62
     7
 10
97.86120701583506
 20
-40.8551437724
 30
0.0
 11
97.86120701583506
 21
-52.56485826920001
 31
0.0
  0
LINE
  5
30C
  8
LAYER0001
  6
CONTINUOUS
 62
     7
 10
96.86120701583506
 20
-54.1648582692
 30
0.0
 11
100.861207015835
 21
-54.1648582692
 31
0.0
  0
LINE
  5
30D
  8
LAYER0001
  6
CONTINUOUS
 62
     7
 10
96.86120701583506
 20
-52.56485826920001
 30
0.0
 11
97.86120701583506
 21
-52.56485826920001
 31
0.0
  0
LINE
  5
30E
  8
LAYER0001
  6
CONTINUOUS
 62
     7
 10
96.86120701583506
 20
-52.56485826920001
 30
0.0
 11
96.86120701583506
 21
-54.1648582692
 31
0.0
  0
LINE
  5
30F
  8
LAYER0001
  6
CONTINUOUS
 62
     7
 10
-73.43506069306495
 20
-52.56485826920001
 30
0.0
 11
-73.43506069306495
 21
-41.2132217313
 31
0.0
  0
LINE
  5
310
  8
LAYER0001
  6
CONTINUOUS
 62
     7
 10
-47.83506069306495
 20
-41.2132217313
 30
0.0
 11
-47.83506069306495
 21
-52.56485826920001
 31
0.0
  0
LINE
  5
311
  8
LAYER0001
  6
CONTINUOUS
 62
     7
 10
-42.68506069306495
 20
-54.1648582692
 30
0.0
 11
-42.68506069306495
 21
-41.0663160185
 31
0.0
  0
LINE
  5
312
  8
LAYER0001
  6
CONTINUOUS
 62
     7
 10
-78.58506069306496
 20
-54.1648582692
 30
0.0
 11
-42.68506069306495
 21
-54.1648582692
 31
0.0
  0
LINE
  5
313
  8
LAYER0001
  6
CONTINUOUS
 62
     7
 10
-78.58506069306496
 20
-52.56485826920001
 30
0.0
 11
-42.68506069306495
 21
-52.56485826920001
 31
0.0
  0
LINE
  5
314
  8
LAYER0001
  6
CONTINUOUS
 62
     7
 10
-78.58506069306496
 20
-54.1648582692
 30
0.0
 11
-78.58506069306496
 21
-41.06656428399999
 31
0.0
  0
LINE
  5
315
  8
LAYER0001
  6
CONTINUOUS
 62
     7
 10
-48.76879298416495
 20
-31.3648582692
 30
0.0
 11
-48.76879298416495
 21
-13.47441091369999
 31
0.0
  0
LINE
  5
316
  8
LAYER0001
  6
CONTINUOUS
 62
     7
 10
74.16120701583502
 20
-13.47441091369999
 30
0.0
 11
74.16120701583502
 21
-31.3648582692
 31
0.0
  0
LINE
  5
317
  8
LAYER0001
  6
CONTINUOUS
 62
     7
 10
74.16120701583502
 20
-31.3648582692
 30
0.0
 11
79.86120701583506
 21
-31.3648582692
 31
0.0
  0
LINE
  5
318
  8
LAYER0001
  6
CONTINUOUS
 62
     7
 10
79.16120701583502
 20
68.63514173080002
 30
0.0
 11
79.16120701583502
 21
63.0743784925
 31
0.0
  0
ARC
  5
319
  8
LAYER0001
  6
CONTINUOUS
 62
     7
 10
-60.63879298426494
 20
498.6351417307999
 30
0.0
 40
539.9999999998157
 50
268.0897868283
 51
268.9509427073
  0
ARC
  5
31A
  8
LAYER0001
  6
CONTINUOUS
 62
     7
 10
-60.63879298426494
 20
138.0329637896
 30
0.0
 40
179.9999999997568
 50
255.4398259834
 51
264.2608295228
  0
ARC
  5
31B
  8
LAYER0001
  6
CONTINUOUS
 62
     7
 10
-60.63879298416496
 20
-50.46703621029999
 30
0.0
 40
13.49999999990049
 50
42.91713969019999
 51
137.0828603086
  0
ARC
  5
31C
  8
LAYER0001
  6
CONTINUOUS
 62
     7
 10
-60.63879298416496
 20
-75.3648582692
 30
0.0
 40
136.050000000017
 50
68.72598911780001
 51
72.9723290573
  0
ARC
  5
31D
  8
LAYER0001
  6
CONTINUOUS
 62
     7
 10
-88.88879298416494
 20
34.13514173080002
 30
0.0
 40
3.000000000000242
 50
139.6387875935001
 51
347.0124927493001
  0
ARC
  5
31E
  8
LAYER0001
  6
CONTINUOUS
 62
     7
 10
-88.88879298416494
 20
48.13514173080002
 30
0.0
 40
3.000000000005164
 50
12.98750725080028
 51
220.3612124064999
  0
ARC
  5
31F
  8
LAYER0001
  6
CONTINUOUS
 62
     7
 10
-32.38879298416497
 20
34.13514173080002
 30
0.0
 40
2.999999999988809
 50
192.9875072507002
 51
40.36121240649997
  0
ARC
  5
320
  8
LAYER0001
  6
CONTINUOUS
 62
     7
 10
-32.38879298416497
 20
48.13514173080002
 30
0.0
 40
2.999999999980769
 50
319.6387875934998
 51
167.0124927491999
  0
ARC
  5
321
  8
LAYER0001
  6
CONTINUOUS
 62
     7
 10
-88.88879298416494
 20
34.13514173080002
 30
0.0
 40
2.299999999998033
 50
137.4551115496002
 51
349.5948563935999
  0
ARC
  5
322
  8
LAYER0001
  6
CONTINUOUS
 62
     7
 10
-88.88879298416494
 20
48.13514173080002
 30
0.0
 40
2.300000000004096
 50
10.40514360639976
 51
222.5448884503999
  0
ARC
  5
323
  8
LAYER0001
  6
CONTINUOUS
 62
     7
 10
-32.38879298416497
 20
34.13514173080002
 30
0.0
 40
2.299999999991
 50
190.4051436062997
 51
42.54488845050001
  0
ARC
  5
324
  8
LAYER0001
  6
CONTINUOUS
 62
     7
 10
-32.38879298416497
 20
48.13514173080002
 30
0.0
 40
2.299999999997913
 50
317.4551115496004
 51
169.5948563936001
  0
ARC
  5
325
  8
LAYER0001
  6
CONTINUOUS
 62
     7
 10
-60.63879298416496
 20
-75.3648582692
 30
0.0
 40
135.0
 50
68.5510774723
 51
111.4489225277
  0
ARC
  5
326
  8
LAYER0001
  6
CONTINUOUS
 62
     7
 10
-60.63879298416496
 20
-75.3648582692
 30
0.0
 40
136.0500000000151
 50
107.0276709427
 51
111.2740108822
  0
ARC
  5
327
  8
LAYER0001
  6
CONTINUOUS
 62
     7
 10
142.169517924035
 20
12.6819616906
 30
0.0
 40
80.28093086919418
 50
166.6240407449
 51
168.2176935899
  0
ARC
  5
328
  8
LAYER0001
  6
CONTINUOUS
 62
     7
 10
146.314371217135
 20
11.67610521670001
 30
0.0
 40
84.54395689321807
 50
168.1239600279
 51
170.0924794136
  0
ARC
  5
329
  8
LAYER0001
  6
CONTINUOUS
 62
     7
 10
188.548579853835
 20
3.67690680669999
 30
0.0
 40
127.5261195921354
 50
169.8169965225
 51
171.4232227432
  0
ARC
  5
32A
  8
LAYER0001
  6
CONTINUOUS
 62
     7
 10
203.249972299435
 20
1.509495475500003
 30
0.0
 40
142.3863495279915
 50
171.4430661029
 51
172.9698814203
  0
ARC
  5
32B
  8
LAYER0001
  6
CONTINUOUS
 62
     7
 10
239.828921095335
 20
-3.325496174000008
 30
0.0
 40
179.2823444866129
 50
172.8670695682
 51
174.1493511874
  0
ARC
  5
32C
  8
LAYER0001
  6
CONTINUOUS
 62
     7
 10
-60.63879298426494
 20
498.6351417307999
 30
0.0
 40
540.0000000000387
 50
271.0490572927
 51
271.9102131717
  0
ARC
  5
32D
  8
LAYER0001
  6
CONTINUOUS
 62
     7
 10
-60.63879298426494
 20
138.0329637896
 30
0.0
 40
179.9999999999717
 50
275.7391704772
 51
284.5601740166
  0
CIRCLE
  5
32E
  8
LAYER0001
  6
CONTINUOUS
 62
     7
 10
-15.63879298416497
 20
58.6351417309
 30
0.0
 40
2.500000000000227
  0
CIRCLE
  5
32F
  8
LAYER0001
  6
CONTINUOUS
 62
     7
 10
-105.638792984165
 20
58.63514173099999
 30
0.0
 40
2.499999999950219
  0
ARC
  5
330
  8
LAYER0001
  6
CONTINUOUS
 62
     7
 10
-63.11674286526494
 20
-9.198517524999986
 30
0.0
 40
45.00000000000002
 50
358.2062803083
 51
64.83091143279995
  0
ARC
  5
331
  8
LAYER0001
  6
CONTINUOUS
 62
     7
 10
-55.33879298416495
 20
51.7936701348
 30
0.0
 40
0.3000000000000378
 50
180.0
 51
266.9112662445004
  0
ARC
  5
332
  8
LAYER0001
  6
CONTINUOUS
 62
     7
 10
-65.93879298416495
 20
51.7936701348
 30
0.0
 40
0.3000000000000662
 50
273.0887337554994
 51
0.0
  0
ARC
  5
333
  8
LAYER0001
  6
CONTINUOUS
 62
     7
 10
89.26120701583504
 20
-40.58499237840001
 30
0.0
 40
0.4999999999608513
 50
180.0
 51
267.0000000020031
  0
ARC
  5
334
  8
LAYER0001
  6
CONTINUOUS
 62
     7
 10
66.86120701583506
 20
-9.658106999600006
 30
0.0
 40
1.00000000002161
 50
180.0
 51
267.0000000022998
  0
ARC
  5
335
  8
LAYER0001
  6
CONTINUOUS
 62
     7
 10
60.81120701583505
 20
-9.841726108000007
 30
0.0
 40
0.5000000000162004
 50
180.0
 51
267.000000002603
  0
ARC
  5
336
  8
LAYER0001
  6
CONTINUOUS
 62
     7
 10
66.86120701583506
 20
49.08939456949999
 30
0.0
 40
1.000000000005604
 50
93.23290501280147
 51
180.0
  0
ARC
  5
337
  8
LAYER0001
  6
CONTINUOUS
 62
     7
 10
-15.63879298406495
 20
-35.21829883200001
 30
0.0
 40
0.9999999999540989
 50
284.5601739996005
 51
0.0000000083001791
  0
ARC
  5
338
  8
LAYER0001
  6
CONTINUOUS
 62
     7
 10
-105.638792984265
 20
-35.21829883189999
 30
0.0
 40
0.9999999999122404
 50
180.0
 51
255.4398259944001
  0
ARC
  5
339
  8
LAYER0001
  6
CONTINUOUS
 62
     7
 10
-15.63879298416497
 20
58.6351417309
 30
0.0
 40
5.0
 50
0.0
 51
90.0
  0
ARC
  5
33A
  8
LAYER0001
  6
CONTINUOUS
 62
     7
 10
-105.638792984165
 20
58.63514173099999
 30
0.0
 40
5.0
 50
90.0
 51
180.0
  0
ARC
  5
33B
  8
LAYER0001
  6
CONTINUOUS
 62
     7
 10
-12.63879298416497
 20
-9.864858269099996
 30
0.0
 40
2.000000000000028
 50
270.0
 51
0.0
  0
ARC
  5
33C
  8
LAYER0001
  6
CONTINUOUS
 62
     7
 10
-108.638792984165
 20
-9.864858269099996
 30
0.0
 40
2.000000000000028
 50
180.0
 51
270.0
  0
ARC
  5
33D
  8
LAYER0001
  6
CONTINUOUS
 62
     7
 10
-12.63879298416497
 20
-8.607071566399997
 30
0.0
 40
2.000000000000028
 50
270.0
 51
0.0
  0
ARC
  5
33E
  8
LAYER0001
  6
CONTINUOUS
 62
     7
 10
-108.638792984165
 20
-8.607071566399997
 30
0.0
 40
2.000000000000028
 50
180.0
 51
270.0
  0
ARC
  5
33F
  8
LAYER0001
  6
CONTINUOUS
 62
     7
 10
80.26120701583504
 20
-2.614858269199985
 30
0.0
 40
1.0
 50
180.0
 51
270.0
  0
ARC
  5
340
  8
LAYER0001
  6
CONTINUOUS
 62
     7
 10
80.26120701583504
 20
4.385141730800015
 30
0.0
 40
1.0
 50
90.0
 51
180.0
  0
ARC
  5
341
  8
LAYER0001
  6
CONTINUOUS
 62
     7
 10
80.86120701583506
 20
-34.35975750030001
 30
0.0
 40
0.9999999999574811
 50
180.0
 51
267.0000000022997
  0
ARC
  5
342
  8
LAYER0001
  6
CONTINUOUS
 62
     7
 10
80.86120701583506
 20
-35.97846004020001
 30
0.0
 40
0.9999999999715783
 50
180.0
 51
267.0000000025997
  0
ARC
  5
343
  8
LAYER0001
  6
CONTINUOUS
 62
     7
 10
253.583118585635
 20
-4.697931969500004
 30
0.0
 40
193.1047999206937
 50
174.1602573724
 51
175.3989351889
  0
ARC
  5
344
  8
LAYER0001
  6
CONTINUOUS
 62
     7
 10
73.86120701583506
 20
58.7911278783
 30
0.0
 40
3.999999999989029
 50
92.99999999900037
 51
180.0
  0
ARC
  5
345
  8
LAYER0001
  6
CONTINUOUS
 62
     7
 10
66.86120701583506
 20
58.68617716409998
 30
0.0
 40
1.000000000032347
 50
92.9999999974005
 51
180.0
  0
ARC
  5
346
  8
LAYER0001
  6
CONTINUOUS
 62
     7
 10
-109.638792984165
 20
49.35482742640001
 30
0.0
 40
0.9999999999740383
 50
111.4489225315997
 51
180.0
  0
ARC
  5
347
  8
LAYER0001
  6
CONTINUOUS
 62
     7
 10
-109.638792984165
 20
50.4822811501
 30
0.0
 40
0.9999999999468621
 50
111.2740108836003
 51
180.0
  0
ARC
  5
348
  8
LAYER0001
  6
CONTINUOUS
 62
     7
 10
-11.63879298416497
 20
49.35482742640001
 30
0.0
 40
0.9999999999741362
 50
0.0
 51
68.5510774683996
  0
ARC
  5
349
  8
LAYER0001
  6
CONTINUOUS
 62
     7
 10
-11.63879298416497
 20
50.4822811501
 30
0.0
 40
0.9999999999475904
 50
0.0
 51
68.72598911639953
  0
ARC
  5
34A
  8
LAYER0001
  6
CONTINUOUS
 62
     7
 10
-40.33879298416495
 20
32.630528864
 30
0.0
 40
0.3000000000000114
 50
104.3254256125989
 51
180.0
  0
ARC
  5
34B
  8
LAYER0001
  6
CONTINUOUS
 62
     7
 10
-46.93879298416495
 20
31.317955851
 30
0.0
 40
0.3000000000000256
 50
0.0
 51
98.5083604873995
  0
ARC
  5
34C
  8
LAYER0001
  6
CONTINUOUS
 62
     7
 10
-80.93879298416495
 20
32.630528864
 30
0.0
 40
0.3000000000000344
 50
0.0
 51
75.67457438740212
  0
ARC
  5
34D
  8
LAYER0001
  6
CONTINUOUS
 62
     7
 10
-74.33879298416495
 20
31.317955851
 30
0.0
 40
0.3000000000000256
 50
81.4916395126005
 51
180.0
  0
ARC
  5
34E
  8
LAYER0001
  6
CONTINUOUS
 62
     7
 10
285.569029616635
 20
-7.497032339400006
 30
0.0
 40
225.212281104172
 50
175.3418837613
 51
176.4450733772
  0
ARC
  5
34F
  8
LAYER0001
  6
CONTINUOUS
 62
     7
 10
295.595473292035
 20
-8.096551081399996
 30
0.0
 40
235.2566065930522
 50
176.4507548716
 51
177.5311678279
  0
ARC
  5
350
  8
LAYER0001
  6
CONTINUOUS
 62
     7
 10
317.4104550429352
 20
-9.168734661699986
 30
0.0
 40
257.0975586342058
 50
177.5018649071
 51
178.5125911535
  0
ARC
  5
351
  8
LAYER0001
  6
CONTINUOUS
 62
     7
 10
99.86120701583503
 20
-39.7489558678
 30
0.0
 40
0.9999999999242545
 50
273.0000000033998
 51
0.0
  0
ARC
  5
352
  8
LAYER0001
  6
CONTINUOUS
 62
     7
 10
99.86120701583503
 20
62.16209937129998
 30
0.0
 40
1.000000000024215
 50
0.0
 51
86.99999999690033
  0
ARC
  5
353
  8
LAYER0001
  6
CONTINUOUS
 62
     7
 10
99.86120701583503
 20
-34.674204176
 30
0.0
 40
0.9999999999613667
 50
273.0000000033993
 51
0.0
  0
ARC
  5
354
  8
LAYER0001
  6
CONTINUOUS
 62
     7
 10
299.486492742835
 20
-8.909902107200017
 30
0.0
 40
239.1730063220097
 50
178.463119638
 51
179.6716803868
  0
ARC
  5
355
  8
LAYER0001
  6
CONTINUOUS
 62
     7
 10
86.36120701583506
 20
62.45034215739998
 30
0.0
 40
1.0
 50
92.99999999999908
 51
180.0
  0
ARC
  5
356
  8
LAYER0001
  6
CONTINUOUS
 62
     7
 10
-58.16084310296495
 20
-9.198517524999986
 30
0.0
 40
44.99999999999999
 50
115.1690885672
 51
181.7937196917
  0
CIRCLE
  5
357
  8
LAYER0001
  6
CONTINUOUS
 62
     7
 10
-60.63506069306493
 20
-45.3648582692
 30
0.0
 40
5.0
  0
CIRCLE
  5
358
  8
LAYER0001
  6
CONTINUOUS
 62
     7
 10
-60.63506069306493
 20
-45.3648582692
 30
0.0
 40
2.5
  0
LINE
  5
359
  8
LAYER0001
  6
DIVIDE
 62
     7
 10
-48.76879298416495
 20
-31.3648582692
 30
0.0
 11
-48.76879298416495
 21
-13.47441091369999
 31
0.0
  0
LINE
  5
35A
  8
LAYER0001
  6
DIVIDE
 62
     7
 10
74.16120701583502
 20
-13.47441091369999
 30
0.0
 11
74.16120701583502
 21
-31.3648582692
 31
0.0
  0
LINE
  5
35B
  8
LAYER0001
  6
DIVIDE
 62
     7
 10
74.16120701583502
 20
-31.3648582692
 30
0.0
 11
79.86120701583506
 21
-31.3648582692
 31
0.0
  0
LINE
  5
35C
  8
LAYER0001
  6
DIVIDE
 62
     7
 10
79.16120701583502
 20
68.63514173080002
 30
0.0
 11
79.16120701583502
 21
63.0743784925
 31
0.0
  0
LINE
  5
35D
  8
LAYER0001
  6
CONTINUOUS
 62
     7
 10
-86.63879298416494
 20
68.63514173080002
 30
0.0
 11
-57.63879298416496
 21
68.63514173080002
 31
0.0
  0
LINE
  5
35E
  8
LAYER0001
  6
CONTINUOUS
 62
     7
 10
-57.63879298416496
 20
68.63514173080002
 30
0.0
 11
-57.63879298416496
 21
62.8490250416
 31
0.0
  0
LINE
  5
35F
  8
LAYER0001
  6
CONTINUOUS
 62
     7
 10
-86.63879298416494
 20
68.63514173080002
 30
0.0
 11
-86.63879298416494
 21
62.58698614520002
 31
0.0
  0
LINE
  5
360
  8
LAYER0001
  6
CONTINUOUS
 62
     7
 10
79.16120701583502
 20
68.63514173080002
 30
0.0
 11
88.16120701583502
 21
68.63514173080002
 31
0.0
  0
LINE
  5
361
  8
LAYER0001
  6
CONTINUOUS
 62
     7
 10
88.16120701583502
 20
68.63514173080002
 30
0.0
 11
88.16120701583502
 21
63.54604850610001
 31
0.0
  0
LINE
  5
362
  8
LAYER0001
  6
CENTER
 62
   222
 10
94.73093259273507
 20
17.63514173080002
 30
0.0
 11
100.917185527835
 21
17.63514173080002
 31
0.0
  0
LINE
  5
363
  8
LAYER0001
  6
CENTER
 62
   222
 10
-60.63879298416496
 20
75.9216980497
 30
0.0
 11
-60.63879298416496
 21
-69.356678409
 31
0.0
  0
INSERT
  5
364
  8
LAYER0001
  6
CONTINUOUS
  2
DC_GROUP_1
 10
0.0
 20
0.0
 30
0.0
  0
INSERT
  5
365
  8
LAYER0001
  6
CONTINUOUS
  2
DC_GROUP_2
 10
0.0
 20
0.0
 30
0.0
  0
INSERT
  5
366
  8
LAYER0001
  6
CONTINUOUS
  2
DC_GROUP_3
 10
0.0
 20
0.0
 30
0.0
  0
INSERT
  5
367
  8
LAYER0001
  6
CONTINUOUS
  2
DC_GROUP_4
 10
0.0
 20
0.0
 30
0.0
  0
INSERT
  5
368
  8
LAYER0001
  6
CONTINUOUS
  2
DC_GROUP_5
 10
0.0
 20
0.0
 30
0.0
  0
INSERT
  5
369
  8
LAYER0001
  6
CONTINUOUS
  2
DC_GROUP_6
 10
0.0
 20
0.0
 30
0.0
  0
INSERT
  5
36A
  8
LAYER0001
  6
CONTINUOUS
  2
DC_GROUP_7
 10
0.0
 20
0.0
 30
0.0
  0
INSERT
  5
36B
  8
LAYER0001
  6
CONTINUOUS
  2
DC_GROUP_8
 10
0.0
 20
0.0
 30
0.0
  0
INSERT
  5
36C
  8
LAYER0001
  6
CONTINUOUS
  2
DC_GROUP_9
 10
0.0
 20
0.0
 30
0.0
  0
INSERT
  5
36D
  8
LAYER0001
  6
CONTINUOUS
  2
DC_GROUP_10
 10
0.0
 20
0.0
 30
0.0
  0
INSERT
  5
36E
  8
LAYER0001
  6
CONTINUOUS
  2
DC_GROUP_11
 10
0.0
 20
0.0
 30
0.0
  0
INSERT
  5
36F
  8
LAYER0001
  6
CONTINUOUS
  2
DC_GROUP_12
 10
0.0
 20
0.0
 30
0.0
  0
INSERT
  5
370
  8
LAYER0001
  6
CONTINUOUS
  2
DC_GROUP_13
 10
0.0
 20
0.0
 30
0.0
  0
INSERT
  5
371
  8
LAYER0001
  6
CONTINUOUS
  2
DC_GROUP_14
 10
0.0
 20
0.0
 30
0.0
  0
INSERT
  5
372
  8
LAYER0001
  6
CONTINUOUS
  2
DC_GROUP_15
 10
0.0
 20
0.0
 30
0.0
  0
INSERT
  5
373
  8
LAYER0001
  6
CONTINUOUS
  2
DC_GROUP_16
 10
0.0
 20
0.0
 30
0.0
  0
INSERT
  5
374
  8
LAYER0001
  6
CONTINUOUS
  2
DC_GROUP_17
 10
0.0
 20
0.0
 30
0.0
  0
INSERT
  5
375
  8
LAYER0001
  6
CONTINUOUS
  2
DC_GROUP_18
 10
0.0
 20
0.0
 30
0.0
  0
INSERT
  5
376
  8
LAYER0001
  6
CONTINUOUS
  2
DC_GROUP_19
 10
0.0
 20
0.0
 30
0.0
  0
INSERT
  5
377
  8
LAYER0001
  6
CONTINUOUS
  2
DC_GROUP_20
 10
0.0
 20
0.0
 30
0.0
  0
INSERT
  5
378
  8
LAYER0001
  6
CONTINUOUS
  2
DC_GROUP_21
 10
0.0
 20
0.0
 30
0.0
  0
INSERT
  5
379
  8
LAYER0001
  6
CONTINUOUS
  2
DC_GROUP_22
 10
0.0
 20
0.0
 30
0.0
  0
TEXT
  5
37B
  8
LAYER0001
 62
     7
 10
105.876292984135
 20
-78.630031383
 30
0.0
 40
8.0
  1
000
 41
0.5526315789473684
  7
DCSTYLE0
 72
     5
 11
117.876292984135
 21
-78.630031383
 31
0.0
  0
VIEWPORT
  5
B2
 67
     1
  8
0
 10
-1.631250000014973
 20
-1.354166666650002
 30
0.0
 40
654.0452579049
 41
463.6551882981
 68
     1
 69
     1
1001
ACAD
1000
MVIEW
1002
{
1070
    16
1010
0.0
1020
0.0
1030
0.0
1010
0.0
1020
0.0
1030
1.0
1040
0.0
1040
463.6551882981
1040
-1.631250000014973
1040
-1.354166666650002
1040
50.0
1040
0.0
1040
0.0
1070
     0
1070
   100
1070
     0
1070
     3
1070
     0
1070
     0
1070
     0
1070
     0
1040
0.0
1040
0.0
1040
0.0
1040
0.5
1040
0.5
1040
0.0
1040
0.0
1070
     0
1002
{
1002
}
1002
}
  0
ENDSEC
  0
EOF
