  0
SECTION
  2
HEADER
  9
$ACADVER
  1
AC1009
  9
$DWGCODEPAGE
  3
ansi_932
  9
$INSBASE
 10
0.0
 20
0.0
 30
0.0
  9
$EXTMIN
 10
-316.722659850015
 20
-265.6966337104562
 30
0.0
  9
$EXTMAX
 10
336.2113299250075
 20
243.7932674209125
 30
0.0
  9
$LIMMIN
 10
-148.5
 20
-105.0
  9
$LIMMAX
 10
148.5
 20
105.0
  9
$ORTHOMODE
 70
     0
  9
$REGENMODE
 70
     1
  9
$FILLMODE
 70
     1
  9
$QTEXTMODE
 70
     0
  9
$MIRRTEXT
 70
     1
  9
$DRAGMODE
 70
     2
  9
$LTSCALE
 40
0.25
  9
$OSMODE
 70
    37
  9
$ATTMODE
 70
     1
  9
$TEXTSIZE
 40
0.2
  9
$TRACEWID
 40
0.05
  9
$TEXTSTYLE
  7
STANDARD
  9
$CLAYER
  8
0
  9
$CELTYPE
  6
BYLAYER
  9
$CECOLOR
 62
   256
  9
$DIMSCALE
 40
1.0
  9
$DIMASZ
 40
1.800315856933594
  9
$DIMEXO
 40
1.0
  9
$DIMDLI
 40
10.0
  9
$DIMRND
 40
0.0
  9
$DIMDLE
 40
0.0
  9
$DIMEXE
 40
1.0
  9
$DIMTP
 40
0.0
  9
$DIMTM
 40
0.0
  9
$DIMTXT
 40
3.5
  9
$DIMCEN
 40
0.0
  9
$DIMTSZ
 40
0.0
  9
$DIMTOL
 70
     0
  9
$DIMLIM
 70
     0
  9
$DIMTIH
 70
     0
  9
$DIMTOH
 70
     0
  9
$DIMSE1
 70
     0
  9
$DIMSE2
 70
     0
  9
$DIMTAD
 70
     1
  9
$DIMZIN
 70
     8
  9
$DIMBLK
  1

  9
$DIMASO
 70
     1
  9
$DIMSHO
 70
     1
  9
$DIMPOST
  1

  9
$DIMAPOST
  1

  9
$DIMALT
 70
     0
  9
$DIMALTD
 70
     2
  9
$DIMALTF
 40
0.0393700787401575
  9
$DIMLFAC
 40
1.0
  9
$DIMTOFL
 70
     0
  9
$DIMTVP
 40
0.0
  9
$DIMTIX
 70
     0
  9
$DIMSOXD
 70
     0
  9
$DIMSAH
 70
     0
  9
$DIMBLK1
  1

  9
$DIMBLK2
  1

  9
$DIMSTYLE
  2
STANDARD
  9
$DIMCLRD
 70
     0
  9
$DIMCLRE
 70
     0
  9
$DIMCLRT
 70
     0
  9
$DIMTFAC
 40
0.65
  9
$DIMGAP
 40
0.09
  9
$LUNITS
 70
     2
  9
$LUPREC
 70
     4
  9
$SKETCHINC
 40
0.1
  9
$FILLETRAD
 40
0.5
  9
$AUNITS
 70
     0
  9
$AUPREC
 70
     0
  9
$MENU
  1
.
  9
$ELEVATION
 40
0.0
  9
$PELEVATION
 40
0.0
  9
$THICKNESS
 40
0.0
  9
$LIMCHECK
 70
     0
  9
$CHAMFERA
 40
0.0
  9
$CHAMFERB
 40
0.0
  9
$SKPOLY
 70
     0
  9
$TDCREATE
 40
2460098.436818715
  9
$TDUPDATE
 40
2460098.436818715
  9
$TDINDWG
 40
0.0000000116
  9
$TDUSRTIMER
 40
0.0000000116
  9
$USRTIMER
 70
     1
  9
$ANGBASE
 50
0.0
  9
$ANGDIR
 70
     0
  9
$PDMODE
 70
     0
  9
$PDSIZE
 40
1.0
  9
$PLINEWID
 40
0.0
  9
$COORDS
 70
     1
  9
$SPLFRAME
 70
     0
  9
$SPLINETYPE
 70
     6
  9
$SPLINESEGS
 70
     8
  9
$ATTDIA
 70
     0
  9
$ATTREQ
 70
     1
  9
$HANDLING
 70
     1
  9
$HANDSEED
  5
249
  9
$SURFTAB1
 70
     6
  9
$SURFTAB2
 70
     6
  9
$SURFTYPE
 70
     6
  9
$SURFU
 70
     6
  9
$SURFV
 70
     6
  9
$UCSNAME
  2

  9
$UCSORG
 10
0.0
 20
0.0
 30
0.0
  9
$UCSXDIR
 10
1.0
 20
0.0
 30
0.0
  9
$UCSYDIR
 10
0.0
 20
1.0
 30
0.0
  9
$PUCSNAME
  2

  9
$PUCSORG
 10
0.0
 20
0.0
 30
0.0
  9
$PUCSXDIR
 10
1.0
 20
0.0
 30
0.0
  9
$PUCSYDIR
 10
0.0
 20
1.0
 30
0.0
  9
$USERI1
 70
     0
  9
$USERI2
 70
     0
  9
$USERI3
 70
     0
  9
$USERI4
 70
     0
  9
$USERI5
 70
     0
  9
$USERR1
 40
0.0
  9
$USERR2
 40
0.0
  9
$USERR3
 40
0.0
  9
$USERR4
 40
0.0
  9
$USERR5
 40
0.0
  9
$WORLDVIEW
 70
     1
  9
$SHADEDGE
 70
     3
  9
$SHADEDIF
 70
    70
  9
$TILEMODE
 70
     1
  9
$MAXACTVP
 70
    64
  9
$PLIMCHECK
 70
     0
  9
$PEXTMIN
 10
1.000000000000000E+20
 20
1.000000000000000E+20
 30
1.000000000000000E+20
  9
$PEXTMAX
 10
-1.000000000000000E+20
 20
-1.000000000000000E+20
 30
-1.000000000000000E+20
  9
$PLIMMIN
 10
0.0
 20
0.0
  9
$PLIMMAX
 10
12.0
 20
9.0
  9
$UNITMODE
 70
     0
  9
$VISRETAIN
 70
     0
  9
$PLINEGEN
 70
     1
  9
$PSLTSCALE
 70
     0
  0
ENDSEC
  0
SECTION
  2
TABLES
  0
TABLE
  2
VPORT
 70
     1
  0
VPORT
  2
*ACTIVE
 70
     0
 10
0.0
 20
0.0
 11
1.0
 21
1.0
 12
13.49433503749624
 22
-10.95168314477189
 13
0.0
 23
0.0
 14
0.5
 24
0.5
 15
0.5
 25
0.5
 16
0.0
 26
0.0
 36
1.0
 17
0.0
 27
0.0
 37
0.0
 40
173.2265663846653
 41
1.325706335444844
 42
50.0
 43
0.0
 44
0.0
 50
0.0
 51
0.0
 71
     0
 72
  1000
 73
     1
 74
     1
 75
     0
 76
     0
 77
     0
 78
     0
  0
ENDTAB
  0
TABLE
  2
LTYPE
 70
    67
  0
LTYPE
  2
CONTINUOUS
 70
     0
  3
Solid line
 72
    65
 73
     0
 40
0.0
  0
LTYPE
  2
HIDDENX2
 70
     0
  3
Hidden (2x) ____ ____ ____ ____ ____ ____ ____ 
 72
    65
 73
     2
 40
19.05
 49
12.7
 49
-6.35
  0
LTYPE
  2
HIDDEN
 70
     0
  3
Hidden __ __ __ __ __ __ __ __ __ __ __ __ __ __
 72
    65
 73
     2
 40
9.524999999999999
 49
6.35
 49
-3.175
  0
LTYPE
  2
HIDDEN2
 70
     0
  3
Hidden (.5x) _ _ _ _ _ _ _ _ _ _ _ _ _ _ _ _ _ 
 72
    65
 73
     2
 40
4.762499999999999
 49
3.175
 49
-1.5875
  0
LTYPE
  2
DASHED
 70
     0
  3
Dashed __ __ __ __ __ __ __ __ __ __ __ __ __ _
 72
    65
 73
     2
 40
19.05
 49
12.7
 49
-6.35
  0
LTYPE
  2
DASHED2
 70
     0
  3
Dashed (.5x) _ _ _ _ _ _ _ _ _ _ _ _ _ _ _ _ _ 
 72
    65
 73
     2
 40
9.524999999999999
 49
6.35
 49
-3.175
  0
LTYPE
  2
DASHEDX2
 70
     0
  3
Dashed (2x) ____  ____  ____  ____  ____  ___
 72
    65
 73
     2
 40
38.09999999999999
 49
25.4
 49
-12.7
  0
LTYPE
  2
DOTX2
 70
     0
  3
Dot (2x) .  .  .  .  .  .  .  .  .  .  .  .  .  .
 72
    65
 73
     2
 40
12.7
 49
0.0
 49
-12.7
  0
LTYPE
  2
DOT
 70
     0
  3
Dot . . . . . . . . . . . . . . . . . . . . . . . .
 72
    65
 73
     2
 40
6.35
 49
0.0
 49
-6.35
  0
LTYPE
  2
DOT2
 70
     0
  3
Dot (.5x) ........................................
 72
    65
 73
     2
 40
3.175
 49
0.0
 49
-3.175
  0
LTYPE
  2
CENTERX2
 70
     0
  3
Center (2x) ________  __  ________  __  _____
 72
    65
 73
     4
 40
101.6
 49
63.5
 49
-12.7
 49
12.7
 49
-12.7
  0
LTYPE
  2
CENTER
 70
     0
  3
Center ____ _ ____ _ ____ _ ____ _ ____ _ ____
 72
    65
 73
     4
 40
50.8
 49
31.75
 49
-6.35
 49
6.35
 49
-6.35
  0
LTYPE
  2
CENTER2
 70
     0
  3
Center (.5x) ___ _ ___ _ ___ _ ___ _ ___ _ ___
 72
    65
 73
     4
 40
28.575
 49
19.05
 49
-3.175
 49
3.175
 49
-3.175
  0
LTYPE
  2
DASHDOTX2
 70
     0
  3
Dash dot (2x) ____  .  ____  .  ____  .  ___
 72
    65
 73
     4
 40
50.8
 49
25.4
 49
-12.7
 49
0.0
 49
-12.7
  0
LTYPE
  2
DASHDOT
 70
     0
  3
Dash dot __ . __ . __ . __ . __ . __ . __ . __
 72
    65
 73
     4
 40
25.4
 49
12.7
 49
-6.35
 49
0.0
 49
-6.35
  0
LTYPE
  2
DASHDOT2
 70
     0
  3
Dash dot (.5x) _._._._._._._._._._._._._._._.
 72
    65
 73
     4
 40
12.7
 49
6.35
 49
-3.175
 49
0.0
 49
-3.175
  0
LTYPE
  2
DIVIDEX2
 70
     0
  3
Divide (2x) ________  .  .  ________  .  .  _
 72
    65
 73
     6
 40
63.5
 49
25.4
 49
-12.7
 49
0.0
 49
-12.7
 49
0.0
 49
-12.7
  0
LTYPE
  2
DIVIDE
 70
     0
  3
Divide ____ . . ____ . . ____ . . ____ . . ____
 72
    65
 73
     6
 40
31.75
 49
12.7
 49
-6.35
 49
0.0
 49
-6.35
 49
0.0
 49
-6.35
  0
LTYPE
  2
DIVIDE2
 70
     0
  3
Divide (.5x) __..__..__..__..__..__..__..__.._
 72
    65
 73
     6
 40
15.875
 49
6.35
 49
-3.175
 49
0.0
 49
-3.175
 49
0.0
 49
-3.175
  0
LTYPE
  2
BORDERX2
 70
     0
  3
Border (2x) ____  ____  .  ____  ____  .  ___
 72
    65
 73
     6
 40
88.89999999999999
 49
25.4
 49
-12.7
 49
25.4
 49
-12.7
 49
0.0
 49
-12.7
  0
LTYPE
  2
BORDER
 70
     0
  3
Border __ __ . __ __ . __ __ . __ __ . __ __ .
 72
    65
 73
     6
 40
44.45
 49
12.7
 49
-6.35
 49
12.7
 49
-6.35
 49
0.0
 49
-6.35
  0
LTYPE
  2
BORDER2
 70
     0
  3
Border (.5x) __.__.__.__.__.__.__.__.__.__.__.
 72
    65
 73
     6
 40
22.225
 49
6.35
 49
-3.175
 49
6.35
 49
-3.175
 49
0.0
 49
-3.175
  0
LTYPE
  2
PHANTOMX2
 70
     0
  3
Phantom (2x) ____________    ____    ____   _
 72
    65
 73
     6
 40
127.0
 49
63.5
 49
-12.7
 49
12.7
 49
-12.7
 49
12.7
 49
-12.7
  0
LTYPE
  2
PHANTOM
 70
     0
  3
Phantom ______  __  __  ______  __  __  ______ 
 72
    65
 73
     6
 40
63.5
 49
31.75
 49
-6.35
 49
6.35
 49
-6.35
 49
6.35
 49
-6.35
  0
LTYPE
  2
PHANTOM2
 70
     0
  3
Phantom (.5x) ___ _ _ ___ _ _ ___ _ _ ___ _ _
 72
    65
 73
     6
 40
31.75
 49
15.875
 49
-3.175
 49
3.175
 49
-3.175
 49
3.175
 49
-3.175
  0
LTYPE
  2
ACAD_ISO06W100
 70
     0
  3
ISO long-dash triple-dot ____ ... ____ ... ____
 72
    65
 73
     8
 40
36.0
 49
24.0
 49
-3.0
 49
0.0
 49
-3.0
 49
0.0
 49
-3.0
 49
0.0
 49
-3.0
  0
LTYPE
  2
ACAD_ISO13W100
 70
     0
  3
ISO double-dash double-dot __ __ . . __ __ . . _
 72
    65
 73
     8
 40
36.0
 49
12.0
 49
-3.0
 49
12.0
 49
-3.0
 49
0.0
 49
-3.0
 49
0.0
 49
-3.0
  0
LTYPE
  2
ACAD_ISO14W100
 70
     0
  3
ISO dash triple-dot __ . . . __ . . . __ . . . _
 72
    65
 73
     8
 40
24.0
 49
12.0
 49
-3.0
 49
0.0
 49
-3.0
 49
0.0
 49
-3.0
 49
0.0
 49
-3.0
  0
LTYPE
  2
ACAD_ISO02W100
 70
     0
  3
ISO dash __ __ __ __ __ __ __ __ __ __ __ __ __
 72
    65
 73
     2
 40
15.0
 49
12.0
 49
-3.0
  0
LTYPE
  2
ACAD_ISO03W100
 70
     0
  3
ISO dash space __    __    __    __    __    __
 72
    65
 73
     2
 40
30.0
 49
12.0
 49
-18.0
  0
LTYPE
  2
ACAD_ISO04W100
 70
     0
  3
ISO long-dash dot ____ . ____ . ____ . ____ . _
 72
    65
 73
     4
 40
30.0
 49
24.0
 49
-3.0
 49
0.0
 49
-3.0
  0
LTYPE
  2
ACAD_ISO05W100
 70
     0
  3
ISO long-dash double-dot ____ .. ____ .. ____ . 
 72
    65
 73
     6
 40
33.0
 49
24.0
 49
-3.0
 49
0.0
 49
-3.0
 49
0.0
 49
-3.0
  0
LTYPE
  2
ACAD_ISO07W100
 70
     0
  3
ISO dot . . . . . . . . . . . . . . . . . . . . 
 72
    65
 73
     2
 40
3.0
 49
0.0
 49
-3.0
  0
LTYPE
  2
ACAD_ISO08W100
 70
     0
  3
ISO long-dash short-dash ____ __ ____ __ ____ _
 72
    65
 73
     4
 40
36.0
 49
24.0
 49
-3.0
 49
6.0
 49
-3.0
  0
LTYPE
  2
ACAD_ISO09W100
 70
     0
  3
ISO long-dash double-short-dash ____ __ __ ____
 72
    65
 73
     6
 40
45.0
 49
24.0
 49
-3.0
 49
6.0
 49
-3.0
 49
6.0
 49
-3.0
  0
LTYPE
  2
ACAD_ISO10W100
 70
     0
  3
ISO dash dot __ . __ . __ . __ . __ . __ . __ . 
 72
    65
 73
     4
 40
18.0
 49
12.0
 49
-3.0
 49
0.0
 49
-3.0
  0
LTYPE
  2
ACAD_ISO11W100
 70
     0
  3
ISO double-dash dot __ __ . __ __ . __ __ . __ _
 72
    65
 73
     6
 40
33.0
 49
12.0
 49
-3.0
 49
12.0
 49
-3.0
 49
0.0
 49
-3.0
  0
LTYPE
  2
ACAD_ISO12W100
 70
     0
  3
ISO dash double-dot __ . . __ . . __ . . __ . . 
 72
    65
 73
     6
 40
21.0
 49
12.0
 49
-3.0
 49
0.0
 49
-3.0
 49
0.0
 49
-3.0
  0
LTYPE
  2
ACAD_ISO15W100
 70
     0
  3
ISO double-dash triple-dot __ __ . . . __ __ . .
 72
    65
 73
    10
 40
39.0
 49
12.0
 49
-3.0
 49
12.0
 49
-3.0
 49
0.0
 49
-3.0
 49
0.0
 49
-3.0
 49
0.0
 49
-3.0
  0
LTYPE
  2
JIS_02_0_7
 70
     0
  3
HIDDEN0.75 _ _ _ _ _ _ _ _ _ _ _ _ _ _ _ _ _ 
 72
    65
 73
     2
 40
1.35
 49
0.75
 49
-0.6
  0
LTYPE
  2
JIS_02_1_0
 70
     0
  3
HIDDEN01 _ _ _ _ _ _ _ _ _ _ _ _ _ _ _ _ _ 
 72
    65
 73
     2
 40
2.0
 49
1.0
 49
-1.0
  0
LTYPE
  2
JIS_02_1_2
 70
     0
  3
HIDDEN01.25  _ _ _ _ _ _ _ _ _ _ _ _ _ _ _ _ _ 
 72
    65
 73
     2
 40
2.5
 49
1.25
 49
-1.25
  0
LTYPE
  2
JIS_02_2_0
 70
     0
  3
HIDDEN02 __ __ __ __ __ __ __ __ __ __ __ 
 72
    65
 73
     2
 40
3.0
 49
2.0
 49
-1.0
  0
LTYPE
  2
JIS_02_4_0
 70
     0
  3
HIDDEN04 ____ ____ ____ ____ ____ ____ ____ 
 72
    65
 73
     2
 40
5.5
 49
4.0
 49
-1.5
  0
LTYPE
  2
JIS_08_11
 70
     0
  3
1SASEN11 ___ _ ___ _ ___ _ ___ _ ___ _ ___
 72
    65
 73
     4
 40
12.8
 49
11.0
 49
-0.6
 49
0.6
 49
-0.6
  0
LTYPE
  2
JIS_08_15
 70
     0
  3
1SASEN15 ____ _ ____ _ ____ _ ____ _ ____ 
 72
    65
 73
     4
 40
17.25
 49
15.0
 49
-0.75
 49
0.75
 49
-0.75
  0
LTYPE
  2
JIS_08_25
 70
     0
  3
1SASEN25 ________  __  ________  __  _____
 72
    65
 73
     4
 40
28.0
 49
25.0
 49
-1.125
 49
0.75
 49
-1.125
  0
LTYPE
  2
JIS_08_37
 70
     0
  3
1SASEN37 ________  __  ________  __  _____
 72
    65
 73
     4
 40
40.5
 49
37.5
 49
-1.125
 49
0.75
 49
-1.125
  0
LTYPE
  2
JIS_08_50
 70
     0
  3
1SASEN50 _______________  __  ____________
 72
    65
 73
     4
 40
53.0
 49
50.0
 49
-1.125
 49
0.75
 49
-1.125
  0
LTYPE
  2
JIS_09_08
 70
     0
  3
2SASEN8 __ _ _ __ _ _ __ _ _ __ _ _ __ _ _ 
 72
    65
 73
     6
 40
10.75
 49
8.0
 49
-0.55
 49
0.55
 49
-0.55
 49
0.55
 49
-0.55
  0
LTYPE
  2
JIS_09_15
 70
     0
  3
2SASEN15 ___ _ _ ___ _ _ ___ _ _ ___ _ _ ___ 
 72
    65
 73
     6
 40
18.9
 49
15.0
 49
-0.9
 49
0.6
 49
-0.9
 49
0.6
 49
-0.9
  0
LTYPE
  2
JIS_09_29
 70
     0
  3
2SASEN29 ______　__  __  ______　__  __  ___
 72
    65
 73
     6
 40
34.0
 49
29.0
 49
-1.2
 49
0.7
 49
-1.2
 49
0.7
 49
-1.2
  0
LTYPE
  2
JIS_09_50
 70
     0
  3
2SASEN50 ____________　__  __  _____________
 72
    65
 73
     6
 40
55.0
 49
50.0
 49
-1.2
 49
0.7
 49
-1.2
 49
0.7
 49
-1.2
  0
LTYPE
  2
SXF_破線
 70
     0
  3
02 dashed -- -- -- -- -- --
 72
    65
 73
     2
 40
7.5
 49
6.0
 49
-1.5
  0
LTYPE
  2
SXF_跳び破線
 70
     0
  3
03 dashed_spaced --  --  --  --
 72
    65
 73
     2
 40
12.0
 49
6.0
 49
-6.0
  0
LTYPE
  2
SXF_一点長鎖線
 70
     0
  3
04 long_dashed_dotted ---- . ---- . ----
 72
    65
 73
     4
 40
15.25
 49
12.0
 49
-1.5
 49
0.25
 49
-1.5
  0
LTYPE
  2
SXF_二点長鎖線
 70
     0
  3
05 long_dashed_double-dotted ---- . . ---- 
 72
    65
 73
     6
 40
17.0
 49
12.0
 49
-1.5
 49
0.25
 49
-1.5
 49
0.25
 49
-1.5
  0
LTYPE
  2
SXF_三点長鎖線
 70
     0
  3
06 long_dashed_triplicate-dotted ---- ... ---- 
 72
    65
 73
     8
 40
18.75
 49
12.0
 49
-1.5
 49
0.25
 49
-1.5
 49
0.25
 49
-1.5
 49
0.25
 49
-1.5
  0
LTYPE
  2
SXF_点線
 70
     0
  3
07 dotted . . . . . . . . . . . . 
 72
    65
 73
     2
 40
1.75
 49
0.25
 49
-1.5
  0
LTYPE
  2
SXF_一点鎖線
 70
     0
  3
08 chain ---- - --- - --- - ---
 72
    65
 73
     4
 40
18.5
 49
12.0
 49
-1.5
 49
3.5
 49
-1.5
  0
LTYPE
  2
SXF_二点鎖線
 70
     0
  3
09 chain_double_dash ---- - - ---- - - ----
 72
    65
 73
     6
 40
23.5
 49
12.0
 49
-1.5
 49
3.5
 49
-1.5
 49
3.5
 49
-1.5
  0
LTYPE
  2
SXF_一点短鎖線
 70
     0
  3
10 dashed_dotted -- . -- . -- . --
 72
    65
 73
     4
 40
9.25
 49
6.0
 49
-1.5
 49
0.25
 49
-1.5
  0
LTYPE
  2
SXF_一点二短鎖線
 70
     0
  3
11 double-dashed_dotted -- -- . -- --
 72
    65
 73
     6
 40
16.75
 49
6.0
 49
-1.5
 49
6.0
 49
-1.5
 49
0.25
 49
-1.5
  0
LTYPE
  2
SXF_二点短鎖線
 70
     0
  3
12 dashed_double_dotted -- . . -- . . --
 72
    65
 73
     6
 40
11.0
 49
6.0
 49
-1.5
 49
0.25
 49
-1.5
 49
0.25
 49
-1.5
  0
LTYPE
  2
SXF_二点二短鎖線
 70
     0
  3
13 double-dashed_double-dotted -- -- . . -- --
 72
    65
 73
     8
 40
18.5
 49
6.0
 49
-1.5
 49
6.0
 49
-1.5
 49
0.25
 49
-1.5
 49
0.25
 49
-1.5
  0
LTYPE
  2
SXF_三点短鎖線
 70
     0
  3
14 dashed triplicate-dotted -- . . . -- . . . --
 72
    65
 73
     8
 40
12.75
 49
6.0
 49
-1.5
 49
0.25
 49
-1.5
 49
0.25
 49
-1.5
 49
0.25
 49
-1.5
  0
LTYPE
  2
SXF_三点二短鎖線
 70
     0
  3
15 double-dashed triplicate-dotted -- -- . . . -- -- 
 72
    65
 73
    10
 40
20.25
 49
6.0
 49
-1.5
 49
6.0
 49
-1.5
 49
0.25
 49
-1.5
 49
0.25
 49
-1.5
 49
0.25
 49
-1.5
  0
ENDTAB
  0
TABLE
  2
LAYER
 70
     4
  0
LAYER
  2
0
 70
     0
 62
     7
  6
CONTINUOUS
  0
LAYER
  2
LAYER0001
 70
     0
 62
     7
  6
CONTINUOUS
  0
LAYER
  2
LAYER0004
 70
     0
 62
     7
  6
CONTINUOUS
  0
LAYER
  2
LAYER0005
 70
     0
 62
     7
  6
CONTINUOUS
  0
ENDTAB
  0
TABLE
  2
STYLE
 70
     2
  0
STYLE
  2
STANDARD
 70
     0
 40
0.0
 41
1.0
 50
0.0
 71
     0
 42
0.2
  3
txt.shx
  4
bigfont.shx
  0
STYLE
  2
DCSTYLE0
 70
     0
 40
0.0
 41
1.0
 50
0.0
 71
     0
 42
0.2
  3
txt.shx
  4
bigfont
  0
ENDTAB
  0
TABLE
  2
VIEW
 70
     0
  0
ENDTAB
  0
TABLE
  2
UCS
 70
     0
  0
ENDTAB
  0
TABLE
  2
APPID
 70
     2
  0
APPID
  2
ACAD
 70
     0
  0
APPID
  2
DAFUSIONOUT
 70
     0
  0
ENDTAB
  0
TABLE
  2
DIMSTYLE
 70
     1
  0
DIMSTYLE
  2
STANDARD
 70
     0
  3

  4

  5

  6

  7

 40
1.0
 41
0.18
 42
0.0625
 43
0.38
 44
0.18
 45
0.0
 46
0.0
 47
0.0
 48
0.0
140
0.18
141
0.09
142
0.0
143
25.4
144
1.0
145
0.0
146
1.0
147
0.09
 71
     0
 72
     0
 73
     1
 74
     1
 75
     0
 76
     0
 77
     0
 78
     0
170
     0
171
     2
172
     0
173
     0
174
     0
175
     0
176
     0
177
     0
178
     0
  0
ENDTAB
  0
ENDSEC
  0
SECTION
  2
BLOCKS
  0
BLOCK
  8
0
  2
$MODEL_SPACE
 70
     0
 10
0.0
 20
0.0
 30
0.0
  3
$MODEL_SPACE
  1

  0
ENDBLK
  5
21
  8
0
  0
BLOCK
 67
     1
  8
0
  2
$PAPER_SPACE
 70
     0
 10
0.0
 20
0.0
 30
0.0
  3
$PAPER_SPACE
  1

  0
ENDBLK
  5
1D
 67
     1
  8
0
  0
BLOCK
  8
0
  2
DC_GROUP_1
 70
     0
 10
0.0
 20
0.0
 30
0.0
  3
DC_GROUP_1
  1

  0
ARC
  5
BE
  8
0
  6
CONTINUOUS
 62
     7
 10
-58.97239574133678
 20
-6.038354748979778
 30
0.0
 40
51.99441387461729
 50
0.0283566560277286
 51
3.276329450920112
  0
ARC
  5
BF
  8
0
  6
CONTINUOUS
 62
     7
 10
-54.26864862989541
 20
-5.652981344538723
 30
0.0
 40
47.27647238777095
 50
3.135846074923251
 51
6.124945504217935
  0
ARC
  5
C0
  8
0
  6
CONTINUOUS
 62
     7
 10
-58.51963020020858
 20
-5.988698999088918
 30
0.0
 40
51.53914680272722
 50
5.991802590338068
 51
9.005384110718714
  0
ARC
  5
C1
  8
0
  6
CONTINUOUS
 62
     7
 10
-58.48777189267778
 20
-5.985455593521301
 30
0.0
 40
51.50717354171634
 50
9.007367790317206
 51
12.02289266158987
  0
ARC
  5
C2
  8
0
  6
CONTINUOUS
 62
     7
 10
-58.39200074635394
 20
-5.961917772615386
 30
0.0
 40
51.40860029302397
 50
12.0194687113123
 51
15.03353394116069
  0
ARC
  5
C3
  8
0
  6
CONTINUOUS
 62
     7
 10
-57.2697223334275
 20
-5.675822762627327
 30
0.0
 40
50.25052639411258
 50
15.05040696333171
 51
18.11575074688647
  0
ARC
  5
C4
  8
0
  6
CONTINUOUS
 62
     7
 10
-57.24173619757548
 20
-5.668576377584891
 30
0.0
 40
50.2216743812653
 50
18.1178211311876
 51
21.18507165504446
  0
ARC
  5
C5
  8
0
  6
CONTINUOUS
 62
     7
 10
-56.94017014670933
 20
-5.54660567531176
 30
0.0
 40
49.89641102331092
 50
21.17962042212439
 51
24.25252407196354
  0
ARC
  5
C6
  8
0
  6
CONTINUOUS
 62
     7
 10
-55.47296552101116
 20
-4.910089783489532
 30
0.0
 40
48.29724660192031
 50
24.2790121512217
 51
27.42725289104911
  0
ARC
  5
C7
  8
0
  6
CONTINUOUS
 62
     7
 10
-55.4485995600559
 20
-4.899559732854875
 30
0.0
 40
48.27076912620556
 50
27.42948090210432
 51
30.57966673478107
  0
ARC
  5
C8
  8
0
  6
CONTINUOUS
 62
     7
 10
-55.05192309708886
 20
-4.658254131300346
 30
0.0
 40
47.80650092705751
 50
30.57254542383178
 51
33.733542436549
  0
ARC
  5
C9
  8
0
  6
CONTINUOUS
 62
     7
 10
-53.48013027536646
 20
-3.641734927329374
 30
0.0
 40
45.93485540308025
 50
33.76784251262359
 51
37.02427531384747
  0
ARC
  5
CA
  8
0
  6
CONTINUOUS
 62
     7
 10
-53.4588629091875
 20
-3.62815900812496
 30
0.0
 40
45.90970121059911
 50
37.0267307328318
 51
40.28523164652953
  0
ARC
  5
CB
  8
0
  6
CONTINUOUS
 62
     7
 10
-53.08269186791929
 20
-3.300800821212825
 30
0.0
 40
45.41107766164569
 50
40.27704229109494
 51
43.54861709535274
  0
ARC
  5
CC
  8
0
  6
CONTINUOUS
 62
     7
 10
-51.64943438484639
 20
-1.979354300592441
 30
0.0
 40
43.46184030465126
 50
43.58777051427807
 51
46.96807811176557
  0
ARC
  5
CD
  8
0
  6
CONTINUOUS
 62
     7
 10
-51.63072274303082
 20
-1.962359299043563
 30
0.0
 40
43.43664852524587
 50
46.97082207143719
 51
50.35341957679989
  0
ARC
  5
CE
  8
0
  6
CONTINUOUS
 62
     7
 10
-51.36312180869393
 20
-1.629581079990096
 30
0.0
 40
43.0096686662085
 50
50.3450564258085
 51
53.73905454600431
  0
ARC
  5
CF
  8
0
  6
CONTINUOUS
 62
     7
 10
-50.256239109858
 20
-0.1688713534101751
 30
0.0
 40
41.17718118331464
 50
53.77879109376956
 51
57.28469599862979
  0
ARC
  5
D0
  8
0
  6
CONTINUOUS
 62
     7
 10
-50.23988624097009
 20
-0.1474939475687123
 30
0.0
 40
41.15035685582976
 50
57.28776615423467
 51
60.79629149174204
  0
ARC
  5
D1
  8
0
  6
CONTINUOUS
 62
     7
 10
-93.76118004701138
 20
-81.39515652029615
 30
0.0
 40
133.315656881859
 50
61.50660949588559
 51
62.14866883655327
  0
LINE
  5
D2
  8
0
  6
CONTINUOUS
 62
     7
 10
-31.47891181638428
 20
36.47758601965574
 30
0.0
 11
-31.68474182854087
 21
36.58228807833961
 31
0.0
  0
ENDBLK
  5
B7
  8
0
  0
BLOCK
  8
0
  2
DC_GROUP_2
 70
     0
 10
0.0
 20
0.0
 30
0.0
  3
DC_GROUP_2
  1

  0
ARC
  5
D3
  8
0
  6
CONTINUOUS
 62
     7
 10
-48.5758906505871
 20
1.147710830787439
 30
0.0
 40
39.69701751324533
 50
116.7949341182232
 51
117.4617193028862
  0
ARC
  5
D4
  8
0
  6
CONTINUOUS
 62
     7
 10
-47.7964659306611
 20
-0.3551190975907232
 30
0.0
 40
41.38994358895664
 50
117.4597253950393
 51
120.9530072035604
  0
ARC
  5
D5
  8
0
  6
CONTINUOUS
 62
     7
 10
-47.93856972639526
 20
-0.1114082266028689
 30
0.0
 40
41.10785093064362
 50
120.9578607839117
 51
124.4681995776719
  0
ARC
  5
D6
  8
0
  6
CONTINUOUS
 62
     7
 10
-47.83503920116365
 20
-0.2602045725199176
 30
0.0
 40
41.28911764029785
 50
124.4697865839444
 51
127.9709359391176
  0
ARC
  5
D7
  8
0
  6
CONTINUOUS
 62
     7
 10
-46.37251540573496
 20
-2.142046329443538
 30
0.0
 40
43.67245179614796
 50
127.9645283865562
 51
131.3334182370843
  0
ARC
  5
D8
  8
0
  6
CONTINUOUS
 62
     7
 10
-46.55356169292008
 20
-1.931209849342856
 30
0.0
 40
43.3945690626656
 50
131.3377765945077
 51
134.7220137450446
  0
ARC
  5
D9
  8
0
  6
CONTINUOUS
 62
     7
 10
-46.42844231226141
 20
-2.056004020388862
 30
0.0
 40
43.57128144774016
 50
134.7234435806438
 51
138.0995032274016
  0
ARC
  5
DA
  8
0
  6
CONTINUOUS
 62
     7
 10
-44.51911998622506
 20
-3.77536996508622
 30
0.0
 40
46.14066092392545
 50
138.0937736827273
 51
141.3400335575665
  0
ARC
  5
DB
  8
0
  6
CONTINUOUS
 62
     7
 10
-44.72963207443064
 20
-3.602966246825652
 30
0.0
 40
45.86857894862892
 50
141.3439284373204
 51
144.6038896851758
  0
ARC
  5
DC
  8
0
  6
CONTINUOUS
 62
     7
 10
-44.58739660614381
 20
-3.702775608708301
 30
0.0
 40
46.04233679793819
 50
144.6051653943821
 51
147.8577950607181
  0
ARC
  5
DD
  8
0
  6
CONTINUOUS
 62
     7
 10
-42.5116628415964
 20
-5.012147495539985
 30
0.0
 40
48.4965387969833
 50
147.8526583298038
 51
150.9918384282876
  0
ARC
  5
DE
  8
0
  6
CONTINUOUS
 62
     7
 10
-42.74250422339674
 20
-4.880767672261136
 30
0.0
 40
48.23094583987061
 50
150.995349317451
 51
154.1468354031364
  0
ARC
  5
DF
  8
0
  6
CONTINUOUS
 62
     7
 10
-42.58684594977484
 20
-4.95512093540561
 30
0.0
 40
48.40344794577818
 50
154.1479785709594
 51
157.2927636583164
  0
ARC
  5
E0
  8
0
  6
CONTINUOUS
 62
     7
 10
-40.70741011501431
 20
-5.746046287634449
 30
0.0
 40
50.44252266643429
 50
157.288088915938
 51
160.3452618035717
  0
ARC
  5
E1
  8
0
  6
CONTINUOUS
 62
     7
 10
-40.95057192707591
 20
-5.656196364573937
 30
0.0
 40
50.1833072318196
 50
160.3484896277823
 51
163.416912445566
  0
ARC
  5
E2
  8
0
  6
CONTINUOUS
 62
     7
 10
-40.78462159092052
 20
-5.70466009156798
 30
0.0
 40
50.3561869942252
 50
163.4179537315622
 51
166.4800798753901
  0
ARC
  5
E3
  8
0
  6
CONTINUOUS
 62
     7
 10
-39.45578968207784
 20
-6.028221222345231
 30
0.0
 40
51.72383861839093
 50
166.475719904897
 51
169.4817657758383
  0
ARC
  5
E4
  8
0
  6
CONTINUOUS
 62
     7
 10
-39.7046021127926
 20
-5.979236623108996
 30
0.0
 40
51.47026502842384
 50
169.4848172135134
 51
172.5014230836171
  0
ARC
  5
E5
  8
0
  6
CONTINUOUS
 62
     7
 10
-39.53123644121138
 20
-6.001171709306625
 30
0.0
 40
51.64501066521143
 50
172.5023960324675
 51
175.5128872927536
  0
ARC
  5
E6
  8
0
  6
CONTINUOUS
 62
     7
 10
-38.97757872380893
 20
-6.048178327061244
 30
0.0
 40
52.20064907408708
 50
175.508993856294
 51
177.9411868055538
  0
LINE
  5
E7
  8
0
  6
CONTINUOUS
 62
     7
 10
-91.14453106477137
 20
-4.172852432252689
 30
0.0
 11
-91.19099462606943
 21
-6.012621830046733
 31
0.0
  0
ENDBLK
  5
BA
  8
0
  0
BLOCK
  8
0
  2
DC_GROUP_3
 70
     0
 10
0.0
 20
0.0
 30
0.0
  3
DC_GROUP_3
  1

  0
ARC
  5
E8
  8
0
  6
CONTINUOUS
 62
     7
 10
133.5008844836941
 20
18.01012033685571
 30
0.0
 40
80.28093086920009
 50
166.624040744959
 51
168.2176935899362
  0
ARC
  5
E9
  8
0
  6
CONTINUOUS
 62
     7
 10
137.6457377768442
 20
17.00426386295145
 30
0.0
 40
84.54395689325733
 50
168.1239600279474
 51
170.0924794136097
  0
ARC
  5
EA
  8
0
  6
CONTINUOUS
 62
     7
 10
179.8799464134677
 20
9.005065453022432
 30
0.0
 40
127.5261195920819
 50
169.816996522485
 51
171.4232227431983
  0
ARC
  5
EB
  8
0
  6
CONTINUOUS
 62
     7
 10
194.581338859192
 20
6.837654121815028
 30
0.0
 40
142.386349527991
 50
171.4430661029207
 51
172.9698814203024
  0
ARC
  5
EC
  8
0
  6
CONTINUOUS
 62
     7
 10
231.1602876551096
 20
2.002662472255899
 30
0.0
 40
179.2823444866404
 50
172.8670695681564
 51
174.1493511873718
  0
ARC
  5
ED
  8
0
  6
CONTINUOUS
 62
     7
 10
244.9144851452982
 20
0.6302266767427724
 30
0.0
 40
193.1047999206922
 50
174.1602573723877
 51
175.3989351888726
  0
ARC
  5
EE
  8
0
  6
CONTINUOUS
 62
     7
 10
276.9003961762658
 20
-2.168873693155611
 30
0.0
 40
225.2122811041448
 50
175.341883761288
 51
176.445073377193
  0
ARC
  5
EF
  8
0
  6
CONTINUOUS
 62
     7
 10
286.9268398517191
 20
-2.768392435109384
 30
0.0
 40
235.2566065930811
 50
176.4507548715816
 51
177.5311678279016
  0
ARC
  5
F0
  8
0
  6
CONTINUOUS
 62
     7
 10
308.7418216026225
 20
-3.840576015441407
 30
0.0
 40
257.0975586342214
 50
177.5018649071281
 51
178.5125911534706
  0
ARC
  5
F1
  8
0
  6
CONTINUOUS
 62
     7
 10
290.8178593025319
 20
-3.581743460879302
 30
0.0
 40
239.1730063220467
 50
178.4631196380224
 51
179.6716803868358
  0
LINE
  5
F2
  8
0
  6
CONTINUOUS
 62
     7
 10
51.64877969536778
 20
-2.211227868934323
 30
0.0
 11
51.64425947380622
 21
-4.9881380992394
 31
0.0
  0
ENDBLK
  5
BD
  8
0
  0
ENDSEC
  0
SECTION
  2
ENTITIES
  0
LINE
  5
F3
  8
0
  6
CONTINUOUS
 62
     3
 10
-86.40799659167416
 20
-26.03669962287712
 30
0.0
 11
-89.83065560783038
 21
-31.96491893584335
 31
0.0
  0
LINE
  5
F4
  8
0
  6
CONTINUOUS
 62
     3
 10
-88.94799659167418
 20
-6.644402292213506
 30
0.0
 11
-11.74799659167416
 21
-6.644402292213506
 31
0.0
  0
LINE
  5
F5
  8
0
  6
CONTINUOUS
 62
     3
 10
-3.077996591674172
 20
-6.536699622877116
 30
0.0
 11
-3.077996591674172
 21
-29.89014018568572
 31
0.0
  0
LINE
  5
F6
  8
0
  6
CONTINUOUS
 62
     3
 10
-3.759297722353772
 20
-6.012621830046733
 30
0.0
 11
-3.077996591674172
 21
-6.536699622877116
 31
0.0
  0
LINE
  5
F7
  8
0
  6
CONTINUOUS
 62
     3
 10
-94.39669546099461
 20
-6.012621830046733
 30
0.0
 11
-3.759297722353772
 21
-6.012621830046733
 31
0.0
  0
LINE
  5
F8
  8
0
  6
CONTINUOUS
 62
     3
 10
-3.077996591674172
 20
-6.536699622877116
 30
0.0
 11
-1.077996591674172
 21
-6.536699622877116
 31
0.0
  0
LINE
  5
F9
  8
0
  6
CONTINUOUS
 62
     3
 10
-95.07799659167418
 20
-6.536699622877116
 30
0.0
 11
-94.39669546099461
 21
-6.012621830046733
 31
0.0
  0
LINE
  5
FA
  8
0
  6
CONTINUOUS
 62
     3
 10
-49.01616567653517
 20
-31.63887756402404
 30
0.0
 11
-49.11398476345667
 21
-31.63887756402404
 31
0.0
  0
LINE
  5
FB
  8
0
  6
CONTINUOUS
 62
     3
 10
-10.07799659167417
 20
68.96330037712289
 30
0.0
 11
-10.07799659167417
 21
59.20725574835097
 31
0.0
  0
LINE
  5
FC
  8
0
  6
CONTINUOUS
 62
     3
 10
-88.07799659167418
 20
59.20725574835097
 30
0.0
 11
-88.07799659167418
 21
68.96330037712289
 31
0.0
  0
LINE
  5
FD
  8
0
  6
CONTINUOUS
 62
     3
 10
-95.07799659167418
 20
-6.536699622877116
 30
0.0
 11
-95.07799659167418
 21
-29.89014018568572
 31
0.0
  0
LINE
  5
FE
  8
0
  6
CONTINUOUS
 62
     3
 10
-99.07799659167418
 20
63.75366925999071
 30
0.0
 11
-99.07799659167418
 21
-4.536699622877116
 31
0.0
  0
LINE
  5
FF
  8
0
  6
CONTINUOUS
 62
     3
 10
0.9220034083258284
 20
63.96330037712288
 30
0.0
 11
0.9220034083258284
 21
-4.536699622877116
 31
0.0
  0
LINE
  5
100
  8
0
  6
CONTINUOUS
 62
     3
 10
-97.07799659167418
 20
-6.536699622877116
 30
0.0
 11
-95.07799659167418
 21
-6.536699622877116
 31
0.0
  0
LINE
  5
101
  8
0
  6
CONTINUOUS
 62
     3
 10
-11.74799659167416
 20
-16.03669962287712
 30
0.0
 11
-9.207996591674167
 21
-16.03669962287712
 31
0.0
  0
LINE
  5
102
  8
0
  6
CONTINUOUS
 62
     3
 10
-88.94799659167418
 20
-17.03669962287712
 30
0.0
 11
-86.40799659167416
 21
-17.03669962287712
 31
0.0
  0
LINE
  5
103
  8
0
  6
CONTINUOUS
 62
     3
 10
-88.94799659167418
 20
-17.03669962287712
 30
0.0
 11
-88.94799659167418
 21
-6.644402292213506
 31
0.0
  0
LINE
  5
104
  8
0
  6
CONTINUOUS
 62
     3
 10
-86.40799659167416
 20
-17.03669962287712
 30
0.0
 11
-86.40799659167416
 21
-26.63669962287714
 31
0.0
  0
LINE
  5
105
  8
0
  6
CONTINUOUS
 62
     3
 10
-11.74799659167416
 20
-16.03669962287712
 30
0.0
 11
-11.74799659167416
 21
-6.644402292213506
 31
0.0
  0
LINE
  5
106
  8
0
  6
CONTINUOUS
 62
     3
 10
-9.207996591674167
 20
-26.63669962287714
 30
0.0
 11
-9.207996591674167
 21
-16.03669962287712
 31
0.0
  0
LINE
  5
107
  8
0
  6
CONTINUOUS
 62
     3
 10
-10.20799659167416
 20
-27.63669962287714
 30
0.0
 11
-85.40799659167416
 21
-27.63669962287714
 31
0.0
  0
LINE
  5
108
  8
0
  6
CONTINUOUS
 62
     3
 10
-94.07799659167418
 20
68.96330037712289
 30
0.0
 11
-4.077996591674172
 21
68.96330037712289
 31
0.0
  0
LINE
  5
109
  8
0
  6
CONTINUOUS
 62
     3
 10
-9.207996591674167
 20
-26.03669962287712
 30
0.0
 11
-6.0935159513309
 21
-31.43113833114126
 31
0.0
  0
ARC
  5
10A
  8
0
  6
CONTINUOUS
 62
     3
 10
-49.07799659167418
 20
143.361122435976
 30
0.0
 40
180.0
 50
255.4398259833522
 51
264.2608295227334
  0
ARC
  5
10B
  8
0
  6
CONTINUOUS
 62
     3
 10
-49.07799659167418
 20
-45.13887756402404
 30
0.0
 40
13.50000000000009
 50
42.91713969024426
 51
137.0828603097567
  0
ARC
  5
10C
  8
0
  6
CONTINUOUS
 62
     3
 10
-77.32799659167418
 20
39.46330037712288
 30
0.0
 40
3.00000000000022
 50
139.6387875935302
 51
347.0124927492548
  0
ARC
  5
10D
  8
0
  6
CONTINUOUS
 62
     3
 10
-77.32799659167418
 20
53.46330037712288
 30
0.0
 40
3.000000000005107
 50
12.98750725076712
 51
220.361212406473
  0
ARC
  5
10E
  8
0
  6
CONTINUOUS
 62
     3
 10
-20.82799659167418
 20
39.46330037712288
 30
0.0
 40
2.99999999998878
 50
192.9875072507258
 51
40.36121240649213
  0
ARC
  5
10F
  8
0
  6
CONTINUOUS
 62
     3
 10
-20.82799659167418
 20
53.46330037712288
 30
0.0
 40
2.999999999980732
 50
319.6387875934878
 51
167.0124927492403
  0
ARC
  5
110
  8
0
  6
CONTINUOUS
 62
     3
 10
-49.07799659167418
 20
-70.03669962287711
 30
0.0
 40
135.0
 50
68.55107747232363
 51
111.4489225276768
  0
ARC
  5
111
  8
0
  6
CONTINUOUS
 62
     3
 10
-49.07799659167418
 20
143.361122435976
 30
0.0
 40
179.9999999999999
 50
275.7391704772689
 51
284.560174016649
  0
CIRCLE
  5
112
  8
0
  6
CONTINUOUS
 62
     3
 10
-4.077996591674172
 20
63.96330037712288
 30
0.0
 40
2.5
  0
CIRCLE
  5
113
  8
0
  6
CONTINUOUS
 62
     3
 10
-94.07799659167418
 20
63.96330037712288
 30
0.0
 40
2.5
  0
ARC
  5
114
  8
0
  6
CONTINUOUS
 62
     3
 10
-4.077996591674172
 20
-29.89014018568572
 30
0.0
 40
1.000000000000043
 50
284.560174016649
 51
0.0
  0
ARC
  5
115
  8
0
  6
CONTINUOUS
 62
     3
 10
-94.07799659167418
 20
-29.89014018568572
 30
0.0
 40
1.0
 50
180.0000000000004
 51
255.4398259833529
  0
ARC
  5
116
  8
0
  6
CONTINUOUS
 62
     3
 10
-4.077996591674172
 20
63.96330037712288
 30
0.0
 40
5.0
 50
0.0
 51
90.0000000000002
  0
ARC
  5
117
  8
0
  6
CONTINUOUS
 62
     3
 10
-94.07799659167418
 20
63.96330037712288
 30
0.0
 40
5.0
 50
90.0000000000002
 51
180.0000000000004
  0
ARC
  5
118
  8
0
  6
CONTINUOUS
 62
     3
 10
-10.20799659167417
 20
-26.63669962287714
 30
0.0
 40
1.0
 50
270.0000000000006
 51
0.0
  0
ARC
  5
119
  8
0
  6
CONTINUOUS
 62
     3
 10
-85.40799659167416
 20
-26.63669962287714
 30
0.0
 40
1.0
 50
180.0000000000004
 51
270.0000000000006
  0
ARC
  5
11A
  8
0
  6
CONTINUOUS
 62
     3
 10
-1.077996591674172
 20
-4.536699622877116
 30
0.0
 40
2.0
 50
270.0000000000006
 51
0.0
  0
ARC
  5
11B
  8
0
  6
CONTINUOUS
 62
     3
 10
-97.07799659167418
 20
-4.536699622877116
 30
0.0
 40
2.0
 50
180.0000000000004
 51
270.0000000000006
  0
ARC
  5
11C
  8
0
  6
CONTINUOUS
 62
     3
 10
-98.07799659167418
 20
54.68298607268581
 30
0.0
 40
0.9999999999999869
 50
111.4489225276768
 51
180.0000000000004
  0
ARC
  5
11D
  8
0
  6
CONTINUOUS
 62
     3
 10
-0.0779965916741716
 20
54.68298607268581
 30
0.0
 40
1.0
 50
0.0
 51
68.5510774723252
  0
LINE
  5
11E
  8
0
  6
CONTINUOUS
 62
     3
 10
80.09257357565357
 20
-30.44699265631521
 30
0.0
 11
80.09257357565357
 21
-36.03669962287733
 31
0.0
  0
LINE
  5
11F
  8
0
  6
CONTINUOUS
 62
     3
 10
69.1343821213157
 20
-7.186699622877121
 30
0.0
 11
71.1925735756536
 21
-6.644402292213506
 31
0.0
  0
LINE
  5
120
  8
0
  6
CONTINUOUS
 62
     3
 10
63.49257357565361
 20
-5.556674150284216
 30
0.0
 11
63.49257357565361
 21
-7.186699622877121
 31
0.0
  0
LINE
  5
121
  8
0
  6
CONTINUOUS
 62
     3
 10
57.1925735756536
 20
-5.278912920084231
 30
0.0
 11
58.14023761941067
 21
-5.328577888123796
 31
0.0
  0
LINE
  5
122
  8
0
  6
CONTINUOUS
 62
     3
 10
52.11640559753212
 20
-5.012882229083012
 30
0.0
 11
57.1925735756536
 21
-5.278912920084231
 31
0.0
  0
LINE
  5
123
  8
0
  6
CONTINUOUS
 62
     3
 10
55.39773188018191
 20
36.58228807833893
 30
0.0
 11
57.1925735756536
 21
36.58228807833893
 31
0.0
  0
LINE
  5
124
  8
0
  6
CONTINUOUS
 62
     3
 10
70.59257357565357
 20
2.713300377122884
 30
0.0
 11
81.1925735756536
 21
2.713300377122884
 31
0.0
  0
LINE
  5
125
  8
0
  6
CONTINUOUS
 62
     3
 10
70.59257357565357
 20
9.713300377122884
 30
0.0
 11
70.59257357565357
 21
2.713300377122884
 31
0.0
  0
LINE
  5
126
  8
0
  6
CONTINUOUS
 62
     3
 10
70.59257357565357
 20
9.713300377122884
 30
0.0
 11
81.1925735756536
 21
9.713300377122884
 31
0.0
  0
LINE
  5
127
  8
0
  6
CONTINUOUS
 62
     3
 10
84.1925735756536
 20
-36.03669962287733
 30
0.0
 11
84.1925735756536
 21
-29.89014018568594
 31
0.0
  0
LINE
  5
128
  8
0
  6
CONTINUOUS
 62
     3
 10
84.1925735756536
 20
-30.66186455137569
 30
0.0
 11
72.14023761941067
 21
-30.0302283887358
 31
0.0
  0
LINE
  5
129
  8
0
  6
CONTINUOUS
 62
     3
 10
71.1925735756536
 20
-29.0315988539814
 30
0.0
 11
71.1925735756536
 21
-6.012621830046733
 31
0.0
  0
LINE
  5
12A
  8
0
  6
CONTINUOUS
 62
     3
 10
58.14023761941067
 20
-5.328577888123796
 30
0.0
 11
81.1925735756536
 21
-6.536699622877116
 31
0.0
  0
LINE
  5
12B
  8
0
  6
CONTINUOUS
 62
     3
 10
77.1925735756536
 20
56.49235830454131
 30
0.0
 11
58.1361786744985
 21
55.4159617569503
 31
0.0
  0
LINE
  5
12C
  8
0
  6
CONTINUOUS
 62
     3
 10
81.1925735756536
 20
68.96330037712289
 30
0.0
 11
81.1925735756536
 21
-6.536699622877116
 31
0.0
  0
LINE
  5
12D
  8
0
  6
CONTINUOUS
 62
     3
 10
77.1925735756536
 20
56.49235830454131
 30
0.0
 11
77.1925735756536
 21
68.96330037712289
 31
0.0
  0
LINE
  5
12E
  8
0
  6
CONTINUOUS
 62
     3
 10
77.1925735756536
 20
60.0493369067982
 30
0.0
 11
61.1925735756536
 21
59.42620760089482
 31
0.0
  0
LINE
  5
12F
  8
0
  6
CONTINUOUS
 62
     3
 10
61.1925735756536
 20
59.42620760089482
 30
0.0
 11
61.1925735756536
 21
64.96330037712289
 31
0.0
  0
LINE
  5
130
  8
0
  6
CONTINUOUS
 62
     3
 10
58.25882456128298
 20
65.01918022343807
 30
0.0
 11
61.33589788896128
 21
65.18044280323272
 31
0.0
  0
LINE
  5
131
  8
0
  6
CONTINUOUS
 62
     3
 10
57.1925735756536
 20
64.06807181865793
 30
0.0
 11
57.1925735756536
 21
-4.329948353369225
 31
0.0
  0
ARC
  5
132
  8
0
  6
CONTINUOUS
 62
     3
 10
58.1925735756536
 20
-4.329948353369225
 30
0.0
 40
1.0
 50
180.0000000000004
 51
267.0000000000015
  0
ARC
  5
133
  8
0
  6
CONTINUOUS
 62
     3
 10
52.14257357565359
 20
-4.513567461705698
 30
0.0
 40
0.5
 50
180.0000000000004
 51
267.0000000000016
  0
ARC
  5
134
  8
0
  6
CONTINUOUS
 62
     3
 10
58.1925735756536
 20
54.41755321575896
 30
0.0
 40
1.000000000000055
 50
93.23290501599365
 51
180.0000000000004
  0
ARC
  5
135
  8
0
  6
CONTINUOUS
 62
     3
 10
72.19257357565371
 20
-29.0315988539814
 30
0.0
 40
1.000000000000114
 50
180.0000000000004
 51
266.9999999999945
  0
ARC
  5
136
  8
0
  6
CONTINUOUS
 62
     3
 10
58.1925735756536
 20
64.01433581040794
 30
0.0
 40
1.000000000000053
 50
92.9999999999991
 51
180.0000000000004
  0
LINE
  5
137
  8
0
  6
CONTINUOUS
 62
     3
 10
84.1925735756536
 20
-29.8901401856856
 30
0.0
 11
81.1925735756536
 21
-6.496132890084034
 31
0.0
  0
LINE
  5
138
  8
0
  6
CONTINUOUS
 62
     3
 10
85.1925735756536
 20
-29.93070691847874
 30
0.0
 11
82.1925735756536
 21
-6.536699622877116
 31
0.0
  0
LINE
  5
139
  8
0
  6
CONTINUOUS
 62
     3
 10
92.1925735756536
 20
68.96330037712289
 30
0.0
 11
92.1925735756536
 21
40.71330037712288
 31
0.0
  0
LINE
  5
13A
  8
0
  6
CONTINUOUS
 62
     3
 10
82.1925735756536
 20
68.96330037712289
 30
0.0
 11
82.1925735756536
 21
-6.536699622877116
 31
0.0
  0
LINE
  5
13B
  8
0
  6
CONTINUOUS
 62
     3
 10
89.1925735756536
 20
40.71330037712288
 30
0.0
 11
92.1925735756536
 21
40.71330037712288
 31
0.0
  0
LINE
  5
13C
  8
0
  6
CONTINUOUS
 62
     3
 10
90.32380657094248
 20
39.21330037712288
 30
0.0
 11
90.1925735756536
 21
40.71330037712288
 31
0.0
  0
LINE
  5
13D
  8
0
  6
CONTINUOUS
 62
     3
 10
90.32380657094248
 20
39.21330037712288
 30
0.0
 11
90.6925735756536
 21
39.21330037712288
 31
0.0
  0
LINE
  5
13E
  8
0
  6
CONTINUOUS
 62
     3
 10
90.6925735756536
 20
39.21330037712288
 30
0.0
 11
92.1925735756536
 21
40.71330037712288
 31
0.0
  0
LINE
  5
13F
  8
0
  6
CONTINUOUS
 62
     3
 10
89.1925735756536
 20
40.71330037712288
 30
0.0
 11
89.1925735756536
 21
5.213300377122884
 31
0.0
  0
LINE
  5
140
  8
0
  6
CONTINUOUS
 62
     3
 10
89.1925735756536
 20
5.213300377122884
 30
0.0
 11
92.1925735756536
 21
5.213300377122884
 31
0.0
  0
LINE
  5
141
  8
0
  6
CONTINUOUS
 62
     3
 10
92.1925735756536
 20
5.213300377122884
 30
0.0
 11
92.1925735756536
 21
-36.03669962287733
 31
0.0
  0
LINE
  5
142
  8
0
  6
CONTINUOUS
 62
     3
 10
85.1925735756536
 20
-30.66186455137569
 30
0.0
 11
91.24490953189652
 21
-30.34467506443412
 31
0.0
  0
LINE
  5
143
  8
0
  6
CONTINUOUS
 62
     3
 10
85.1925735756536
 20
-29.93070691847874
 30
0.0
 11
85.1925735756536
 21
-36.03669962287733
 31
0.0
  0
LINE
  5
144
  8
0
  6
CONTINUOUS
 62
     3
 10
82.1925735756536
 20
-6.536699622877116
 30
0.0
 11
92.1925735756536
 21
-6.012621830046733
 31
0.0
  0
LINE
  5
145
  8
0
  6
CONTINUOUS
 62
     3
 10
84.1925735756536
 20
-29.8901401856856
 30
0.0
 11
84.1925735756536
 21
-36.03669962287733
 31
0.0
  0
LINE
  5
146
  8
0
  6
CONTINUOUS
 62
     3
 10
89.1925735756536
 20
37.71330037712277
 30
0.0
 11
89.49257357565361
 21
37.21330037712277
 31
0.0
  0
LINE
  5
147
  8
0
  6
CONTINUOUS
 62
     3
 10
89.49257357565361
 20
37.21330037712277
 30
0.0
 11
89.1925735756536
 21
36.71330037712277
 31
0.0
  0
ARC
  5
148
  8
0
  6
CONTINUOUS
 62
     3
 10
91.1925735756536
 20
-29.34604552967949
 30
0.0
 40
1.000000000000053
 50
272.9999999999995
 51
0.0
  0
ARC
  5
149
  8
0
  6
CONTINUOUS
 62
     3
 10
-49.08172888268979
 20
503.9633003771229
 30
0.0
 40
540.0000000000002
 50
268.0897868282913
 51
268.950942707263
  0
ARC
  5
14A
  8
0
  6
CONTINUOUS
 62
     3
 10
-49.07426430065857
 20
503.9633003771229
 30
0.0
 40
540.0000000000002
 50
271.049057292737
 51
271.9102131717087
  0
ARC
  5
14B
  8
0
  6
CONTINUOUS
 62
     3
 10
65.1925735756536
 20
64.96330037712289
 30
0.0
 40
4.0
 50
90.0
 51
180.0
  0
LINE
  5
14C
  8
LAYER0005
  6
CONTINUOUS
 62
     2
 10
-12.27799659167417
 20
-7.186699622877121
 30
0.0
 11
-12.27799659167417
 21
-16.43669962287712
 31
0.0
  0
LINE
  5
14D
  8
LAYER0005
  6
CONTINUOUS
 62
     2
 10
-12.27799659167417
 20
-7.186699622877121
 30
0.0
 11
-88.44799659167421
 21
-7.186699622879196
 31
0.0
  0
LINE
  5
14E
  8
LAYER0005
  6
CONTINUOUS
 62
     2
 10
-9.777996591674174
 20
-16.43669962287712
 30
0.0
 11
-88.44799659167418
 21
-16.43669962287712
 31
0.0
  0
LINE
  5
14F
  8
LAYER0005
  6
CONTINUOUS
 62
     2
 10
-88.44799659167418
 20
-16.43669962287712
 30
0.0
 11
-88.44799659167418
 21
-7.186699622879196
 31
0.0
  0
LINE
  5
150
  8
LAYER0005
  6
CONTINUOUS
 62
     2
 10
-9.777996591674174
 20
-25.48669962287712
 30
0.0
 11
-85.94799659167418
 21
-25.48669962287712
 31
0.0
  0
LINE
  5
151
  8
LAYER0005
  6
CONTINUOUS
 62
     2
 10
-9.777996591674174
 20
-16.43669962287712
 30
0.0
 11
-9.777996591674174
 21
-25.48669962287712
 31
0.0
  0
LINE
  5
152
  8
LAYER0005
  6
CONTINUOUS
 62
     2
 10
-85.94799659167418
 20
-25.48669962287712
 30
0.0
 11
-85.94799659167418
 21
-16.43669962287712
 31
0.0
  0
LINE
  5
153
  8
LAYER0001
  6
CONTINUOUS
 62
     2
 10
71.1925735756536
 20
-7.186699622877121
 30
0.0
 11
62.49257357565359
 21
-7.186699622877121
 31
0.0
  0
LINE
  5
154
  8
LAYER0001
  6
CONTINUOUS
 62
     2
 10
62.49257357565359
 20
-16.43669962287712
 30
0.0
 11
71.1925735756536
 21
-16.43669962287712
 31
0.0
  0
LINE
  5
155
  8
LAYER0001
  6
CONTINUOUS
 62
     2
 10
62.49257357565359
 20
-7.186699622877121
 30
0.0
 11
62.49257357565359
 21
-16.43669962287712
 31
0.0
  0
INSERT
  5
156
  8
0
  6
CONTINUOUS
  2
DC_GROUP_1
 10
0.0
 20
0.0
 30
0.0
  0
INSERT
  5
157
  8
0
  6
CONTINUOUS
  2
DC_GROUP_2
 10
0.0
 20
0.0
 30
0.0
  0
INSERT
  5
158
  8
0
  6
CONTINUOUS
  2
DC_GROUP_3
 10
0.0
 20
0.0
 30
0.0
  0
LINE
  5
159
  8
0
  6
CENTER
 62
   150
 10
-49.07799659167418
 20
71.7456790123457
 30
0.0
 11
-49.07799659167418
 21
-51.85396196379269
 31
0.0
  0
LINE
  5
15A
  8
0
  6
CENTER
 62
   150
 10
-41.57947800342089
 20
-40.03669962287713
 30
0.0
 11
-56.78416897163582
 21
-40.03669962287713
 31
0.0
  0
LINE
  5
15B
  8
0
  6
CENTER
 62
   150
 10
74.17480279073473
 20
63.96330037712288
 30
0.0
 11
95.50960581490087
 21
63.96330037712288
 31
0.0
  0
LINE
  5
15C
  8
0
  6
CENTER
 62
   150
 10
86.44211894104376
 20
-40.03669962287713
 30
0.0
 11
94.82895753360191
 21
-40.03669962287713
 31
0.0
  0
LINE
  5
15D
  8
0
  6
DASHED2
 62
   150
 10
89.1925735756536
 20
-37.53669962287713
 30
0.0
 11
92.1925735756536
 21
-37.53669962287713
 31
0.0
  0
LINE
  5
15E
  8
0
  6
DASHED2
 62
   150
 10
89.1925735756536
 20
-42.53669962287713
 30
0.0
 11
92.1925735756536
 21
-42.53669962287713
 31
0.0
  0
LINE
  5
15F
  8
0
  6
DASHED2
 62
   150
 10
77.1925735756536
 20
66.46330037712289
 30
0.0
 11
92.1925735756536
 21
66.46330037712289
 31
0.0
  0
LINE
  5
160
  8
0
  6
DASHED2
 62
   150
 10
77.1925735756536
 20
61.46330037712288
 30
0.0
 11
92.1925735756536
 21
61.46330037712288
 31
0.0
  0
POLYLINE
  5
161
  8
0
  6
CONTINUOUS
 62
     7
 66
     1
 10
0.0
 20
0.0
 30
0.0
 70
     1
  0
VERTEX
  5
191
  8
0
  6
CONTINUOUS
 62
     7
 10
1.0
 20
0.0
 30
0.0
  0
VERTEX
  5
192
  8
0
  6
CONTINUOUS
 62
     7
 10
0.9807852804032304
 20
0.1950903220161282
 30
0.0
  0
VERTEX
  5
193
  8
0
  6
CONTINUOUS
 62
     7
 10
0.9238795325112867
 20
0.3826834323650898
 30
0.0
  0
VERTEX
  5
194
  8
0
  6
CONTINUOUS
 62
     7
 10
0.8314696123025452
 20
0.5555702330196022
 30
0.0
  0
VERTEX
  5
195
  8
0
  6
CONTINUOUS
 62
     7
 10
0.7071067811865476
 20
0.7071067811865476
 30
0.0
  0
VERTEX
  5
196
  8
0
  6
CONTINUOUS
 62
     7
 10
0.5555702330196023
 20
0.8314696123025452
 30
0.0
  0
VERTEX
  5
197
  8
0
  6
CONTINUOUS
 62
     7
 10
0.3826834323650898
 20
0.9238795325112867
 30
0.0
  0
VERTEX
  5
198
  8
0
  6
CONTINUOUS
 62
     7
 10
0.1950903220161283
 20
0.9807852804032304
 30
0.0
  0
VERTEX
  5
199
  8
0
  6
CONTINUOUS
 62
     7
 10
0.0000000000000001
 20
1.0
 30
0.0
  0
VERTEX
  5
19A
  8
0
  6
CONTINUOUS
 62
     7
 10
-0.1950903220161282
 20
0.9807852804032304
 30
0.0
  0
VERTEX
  5
19B
  8
0
  6
CONTINUOUS
 62
     7
 10
-0.3826834323650897
 20
0.9238795325112867
 30
0.0
  0
VERTEX
  5
19C
  8
0
  6
CONTINUOUS
 62
     7
 10
-0.555570233019602
 20
0.8314696123025453
 30
0.0
  0
VERTEX
  5
19D
  8
0
  6
CONTINUOUS
 62
     7
 10
-0.7071067811865475
 20
0.7071067811865476
 30
0.0
  0
VERTEX
  5
19E
  8
0
  6
CONTINUOUS
 62
     7
 10
-0.8314696123025453
 20
0.5555702330196022
 30
0.0
  0
VERTEX
  5
19F
  8
0
  6
CONTINUOUS
 62
     7
 10
-0.9238795325112868
 20
0.3826834323650894
 30
0.0
  0
VERTEX
  5
1A0
  8
0
  6
CONTINUOUS
 62
     7
 10
-0.9807852804032305
 20
0.1950903220161277
 30
0.0
  0
VERTEX
  5
1A1
  8
0
  6
CONTINUOUS
 62
     7
 10
-1.0
 20
-0.0000000000000008
 30
0.0
  0
VERTEX
  5
1A2
  8
0
  6
CONTINUOUS
 62
     7
 10
-0.9807852804032302
 20
-0.1950903220161292
 30
0.0
  0
VERTEX
  5
1A3
  8
0
  6
CONTINUOUS
 62
     7
 10
-0.9238795325112863
 20
-0.3826834323650909
 30
0.0
  0
VERTEX
  5
1A4
  8
0
  6
CONTINUOUS
 62
     7
 10
-0.8314696123025445
 20
-0.5555702330196034
 30
0.0
  0
VERTEX
  5
1A5
  8
0
  6
CONTINUOUS
 62
     7
 10
-0.7071067811865464
 20
-0.7071067811865487
 30
0.0
  0
VERTEX
  5
1A6
  8
0
  6
CONTINUOUS
 62
     7
 10
-0.5555702330196007
 20
-0.8314696123025462
 30
0.0
  0
VERTEX
  5
1A7
  8
0
  6
CONTINUOUS
 62
     7
 10
-0.3826834323650879
 20
-0.9238795325112875
 30
0.0
  0
VERTEX
  5
1A8
  8
0
  6
CONTINUOUS
 62
     7
 10
-0.1950903220161261
 20
-0.9807852804032309
 30
0.0
  0
VERTEX
  5
1A9
  8
0
  6
CONTINUOUS
 62
     7
 10
0.0000000000000025
 20
-1.0
 30
0.0
  0
VERTEX
  5
1AA
  8
0
  6
CONTINUOUS
 62
     7
 10
0.1950903220161309
 20
-0.9807852804032299
 30
0.0
  0
VERTEX
  5
1AB
  8
0
  6
CONTINUOUS
 62
     7
 10
0.3826834323650924
 20
-0.9238795325112856
 30
0.0
  0
VERTEX
  5
1AC
  8
0
  6
CONTINUOUS
 62
     7
 10
0.5555702330196048
 20
-0.8314696123025435
 30
0.0
  0
VERTEX
  5
1AD
  8
0
  6
CONTINUOUS
 62
     7
 10
0.7071067811865499
 20
-0.7071067811865451
 30
0.0
  0
VERTEX
  5
1AE
  8
0
  6
CONTINUOUS
 62
     7
 10
0.8314696123025472
 20
-0.5555702330195993
 30
0.0
  0
VERTEX
  5
1AF
  8
0
  6
CONTINUOUS
 62
     7
 10
0.9238795325112882
 20
-0.3826834323650863
 30
0.0
  0
VERTEX
  5
1B0
  8
0
  6
CONTINUOUS
 62
     7
 10
0.9807852804032312
 20
-0.1950903220161244
 30
0.0
  0
SEQEND
  5
247
  8
0
  6
CONTINUOUS
 62
     7
  0
POLYLINE
  5
162
  8
0
  6
CONTINUOUS
 62
     7
 66
     1
 10
0.0
 20
0.0
 30
0.0
 70
   129
  0
VERTEX
  5
1B1
  8
0
  6
CONTINUOUS
 62
     7
 10
-15.07799659167417
 20
46.46330037712288
 30
0.0
  0
VERTEX
  5
1B2
  8
0
  6
CONTINUOUS
 62
     7
 10
-15.10782021737063
 20
46.94487024633746
 30
0.0
  0
VERTEX
  5
1B3
  8
0
  6
CONTINUOUS
 62
     7
 10
-15.19723877368639
 20
47.42559527836288
 30
0.0
  0
VERTEX
  5
1B4
  8
0
  6
CONTINUOUS
 62
     7
 10
-15.34609539008907
 20
47.90463211814154
 30
0.0
  0
VERTEX
  5
1B5
  8
0
  6
CONTINUOUS
 62
     7
 10
-15.55412892149165
 20
48.38114037227862
 30
0.0
  0
VERTEX
  5
1B6
  8
0
  6
CONTINUOUS
 62
     7
 10
-15.82097440638979
 20
48.8542840833778
 30
0.0
  0
VERTEX
  5
1B7
  8
0
  6
CONTINUOUS
 62
     7
 10
-16.14616370712829
 20
49.32323319659447
 30
0.0
  0
VERTEX
  5
1B8
  8
0
  6
CONTINUOUS
 62
     7
 10
-16.52912633117357
 20
49.7871650158341
 30
0.0
  0
VERTEX
  5
1B9
  8
0
  6
CONTINUOUS
 62
     7
 10
-16.96919043195148
 20
50.24526564704063
 30
0.0
  0
VERTEX
  5
1BA
  8
0
  6
CONTINUOUS
 62
     7
 10
-17.46558398749449
 20
50.69673142604329
 30
0.0
  0
VERTEX
  5
1BB
  8
0
  6
CONTINUOUS
 62
     7
 10
-18.01743615483049
 20
51.14077032845661
 30
0.0
  0
VERTEX
  5
1BC
  8
0
  6
CONTINUOUS
 62
     7
 10
-18.62377879773736
 20
51.57660335916032
 30
0.0
  0
VERTEX
  5
1BD
  8
0
  6
CONTINUOUS
 62
     7
 10
-19.28354818518281
 20
52.00346591892151
 30
0.0
  0
VERTEX
  5
1BE
  8
0
  6
CONTINUOUS
 62
     7
 10
-19.99558685747014
 20
52.42060914576148
 30
0.0
  0
VERTEX
  5
1BF
  8
0
  6
CONTINUOUS
 62
     7
 10
-20.75864565681578
 20
52.82730122871414
 30
0.0
  0
VERTEX
  5
1C0
  8
0
  6
CONTINUOUS
 62
     7
 10
-21.57138591879655
 20
53.22282869167108
 30
0.0
  0
VERTEX
  5
1C1
  8
0
  6
CONTINUOUS
 62
     7
 10
-22.43238182082194
 20
53.60649764506116
 30
0.0
  0
VERTEX
  5
1C2
  8
0
  6
CONTINUOUS
 62
     7
 10
-23.34012288351144
 20
53.97763500316853
 30
0.0
  0
VERTEX
  5
1C3
  8
0
  6
CONTINUOUS
 62
     7
 10
-24.29301662058858
 20
54.33558966495374
 30
0.0
  0
VERTEX
  5
1C4
  8
0
  6
CONTINUOUS
 62
     7
 10
-25.28939133264309
 20
54.67973365630624
 30
0.0
  0
VERTEX
  5
1C5
  8
0
  6
CONTINUOUS
 62
     7
 10
-26.3274990398596
 20
55.00946323172425
 30
0.0
  0
VERTEX
  5
1C6
  8
0
  6
CONTINUOUS
 62
     7
 10
-27.4055185485683
 20
55.32419993348964
 30
0.0
  0
VERTEX
  5
1C7
  8
0
  6
CONTINUOUS
 62
     7
 10
-28.52155864623741
 20
55.62339160647927
 30
0.0
  0
VERTEX
  5
1C8
  8
0
  6
CONTINUOUS
 62
     7
 10
-29.67366141930265
 20
55.90651336683268
 30
0.0
  0
VERTEX
  5
1C9
  8
0
  6
CONTINUOUS
 62
     7
 10
-30.85980568801292
 20
56.17306852277682
 30
0.0
  0
VERTEX
  5
1CA
  8
0
  6
CONTINUOUS
 62
     7
 10
-32.07791055226636
 20
56.42258944599208
 30
0.0
  0
VERTEX
  5
1CB
  8
0
  6
CONTINUOUS
 62
     7
 10
-33.32583904221625
 20
56.65463839199139
 30
0.0
  0
VERTEX
  5
1CC
  8
0
  6
CONTINUOUS
 62
     7
 10
-34.60140186724229
 20
56.86880826807269
 30
0.0
  0
VERTEX
  5
1CD
  8
0
  6
CONTINUOUS
 62
     7
 10
-35.9023612567102
 20
57.06472334749792
 30
0.0
  0
VERTEX
  5
1CE
  8
0
  6
CONTINUOUS
 62
     7
 10
-37.2264348857819
 20
57.24203992864538
 30
0.0
  0
VERTEX
  5
1CF
  8
0
  6
CONTINUOUS
 62
     7
 10
-38.57129987938874
 20
57.40044693797917
 30
0.0
  0
VERTEX
  5
1D0
  8
0
  6
CONTINUOUS
 62
     7
 10
-39.93459688734375
 20
57.53966647577784
 30
0.0
  0
VERTEX
  5
1D1
  8
0
  6
CONTINUOUS
 62
     7
 10
-41.31393422344354
 20
57.65945430366497
 30
0.0
  0
VERTEX
  5
1D2
  8
0
  6
CONTINUOUS
 62
     7
 10
-42.70689206129861
 20
57.75960027308628
 30
0.0
  0
VERTEX
  5
1D3
  8
0
  6
CONTINUOUS
 62
     7
 10
-44.11102667953111
 20
57.83992869398157
 30
0.0
  0
VERTEX
  5
1D4
  8
0
  6
CONTINUOUS
 62
     7
 10
-45.52387474889251
 20
57.90029864300482
 30
0.0
  0
VERTEX
  5
1D5
  8
0
  6
CONTINUOUS
 62
     7
 10
-46.94295765378015
 20
57.94060421075158
 30
0.0
  0
VERTEX
  5
1D6
  8
0
  6
CONTINUOUS
 62
     7
 10
-48.36578584057125
 20
57.96077468756011
 30
0.0
  0
VERTEX
  5
1D7
  8
0
  6
CONTINUOUS
 62
     7
 10
-49.7898631851459
 20
57.96077468756011
 30
0.0
  0
VERTEX
  5
1D8
  8
0
  6
CONTINUOUS
 62
     7
 10
-51.212691371937
 20
57.94060421075158
 30
0.0
  0
VERTEX
  5
1D9
  8
0
  6
CONTINUOUS
 62
     7
 10
-52.63177427682464
 20
57.90029864300482
 30
0.0
  0
VERTEX
  5
1DA
  8
0
  6
CONTINUOUS
 62
     7
 10
-54.04462234618605
 20
57.83992869398157
 30
0.0
  0
VERTEX
  5
1DB
  8
0
  6
CONTINUOUS
 62
     7
 10
-55.44875696441854
 20
57.75960027308628
 30
0.0
  0
VERTEX
  5
1DC
  8
0
  6
CONTINUOUS
 62
     7
 10
-56.84171480227361
 20
57.65945430366497
 30
0.0
  0
VERTEX
  5
1DD
  8
0
  6
CONTINUOUS
 62
     7
 10
-58.22105213837339
 20
57.53966647577784
 30
0.0
  0
VERTEX
  5
1DE
  8
0
  6
CONTINUOUS
 62
     7
 10
-59.58434914632841
 20
57.40044693797917
 30
0.0
  0
VERTEX
  5
1DF
  8
0
  6
CONTINUOUS
 62
     7
 10
-60.92921413993525
 20
57.24203992864538
 30
0.0
  0
VERTEX
  5
1E0
  8
0
  6
CONTINUOUS
 62
     7
 10
-62.25328776900695
 20
57.06472334749792
 30
0.0
  0
VERTEX
  5
1E1
  8
0
  6
CONTINUOUS
 62
     7
 10
-63.55424715847486
 20
56.86880826807269
 30
0.0
  0
VERTEX
  5
1E2
  8
0
  6
CONTINUOUS
 62
     7
 10
-64.8298099835009
 20
56.65463839199139
 30
0.0
  0
VERTEX
  5
1E3
  8
0
  6
CONTINUOUS
 62
     7
 10
-66.07773847345078
 20
56.42258944599208
 30
0.0
  0
VERTEX
  5
1E4
  8
0
  6
CONTINUOUS
 62
     7
 10
-67.29584333770423
 20
56.17306852277682
 30
0.0
  0
VERTEX
  5
1E5
  8
0
  6
CONTINUOUS
 62
     7
 10
-68.48198760641449
 20
55.90651336683268
 30
0.0
  0
VERTEX
  5
1E6
  8
0
  6
CONTINUOUS
 62
     7
 10
-69.63409037947974
 20
55.62339160647927
 30
0.0
  0
VERTEX
  5
1E7
  8
0
  6
CONTINUOUS
 62
     7
 10
-70.75013047714884
 20
55.32419993348964
 30
0.0
  0
VERTEX
  5
1E8
  8
0
  6
CONTINUOUS
 62
     7
 10
-71.82814998585755
 20
55.00946323172425
 30
0.0
  0
VERTEX
  5
1E9
  8
0
  6
CONTINUOUS
 62
     7
 10
-72.86625769307406
 20
54.67973365630623
 30
0.0
  0
VERTEX
  5
1EA
  8
0
  6
CONTINUOUS
 62
     7
 10
-73.86263240512856
 20
54.33558966495374
 30
0.0
  0
VERTEX
  5
1EB
  8
0
  6
CONTINUOUS
 62
     7
 10
-74.81552614220573
 20
53.97763500316852
 30
0.0
  0
VERTEX
  5
1EC
  8
0
  6
CONTINUOUS
 62
     7
 10
-75.72326720489522
 20
53.60649764506115
 30
0.0
  0
VERTEX
  5
1ED
  8
0
  6
CONTINUOUS
 62
     7
 10
-76.58426310692062
 20
53.22282869167108
 30
0.0
  0
VERTEX
  5
1EE
  8
0
  6
CONTINUOUS
 62
     7
 10
-77.39700336890138
 20
52.82730122871413
 30
0.0
  0
VERTEX
  5
1EF
  8
0
  6
CONTINUOUS
 62
     7
 10
-78.16006216824702
 20
52.42060914576147
 30
0.0
  0
VERTEX
  5
1F0
  8
0
  6
CONTINUOUS
 62
     7
 10
-78.87210084053434
 20
52.0034659189215
 30
0.0
  0
VERTEX
  5
1F1
  8
0
  6
CONTINUOUS
 62
     7
 10
-79.53187022797981
 20
51.57660335916031
 30
0.0
  0
VERTEX
  5
1F2
  8
0
  6
CONTINUOUS
 62
     7
 10
-80.13821287088668
 20
51.1407703284566
 30
0.0
  0
VERTEX
  5
1F3
  8
0
  6
CONTINUOUS
 62
     7
 10
-80.69006503822267
 20
50.69673142604328
 30
0.0
  0
VERTEX
  5
1F4
  8
0
  6
CONTINUOUS
 62
     7
 10
-81.18645859376568
 20
50.24526564704061
 30
0.0
  0
VERTEX
  5
1F5
  8
0
  6
CONTINUOUS
 62
     7
 10
-81.62652269454358
 20
49.78716501583408
 30
0.0
  0
VERTEX
  5
1F6
  8
0
  6
CONTINUOUS
 62
     7
 10
-82.00948531858887
 20
49.32323319659446
 30
0.0
  0
VERTEX
  5
1F7
  8
0
  6
CONTINUOUS
 62
     7
 10
-82.33467461932736
 20
48.85428408337778
 30
0.0
  0
VERTEX
  5
1F8
  8
0
  6
CONTINUOUS
 62
     7
 10
-82.6015201042255
 20
48.3811403722786
 30
0.0
  0
VERTEX
  5
1F9
  8
0
  6
CONTINUOUS
 62
     7
 10
-82.80955363562808
 20
47.90463211814151
 30
0.0
  0
VERTEX
  5
1FA
  8
0
  6
CONTINUOUS
 62
     7
 10
-82.95841025203075
 20
47.42559527836286
 30
0.0
  0
VERTEX
  5
1FB
  8
0
  6
CONTINUOUS
 62
     7
 10
-83.04782880834651
 20
46.94487024633743
 30
0.0
  0
VERTEX
  5
1FC
  8
0
  6
CONTINUOUS
 62
     7
 10
-83.07765243404296
 20
46.46330037712286
 30
0.0
  0
VERTEX
  5
1FD
  8
0
  6
CONTINUOUS
 62
     7
 10
-83.04782880834651
 20
45.98173050790829
 30
0.0
  0
VERTEX
  5
1FE
  8
0
  6
CONTINUOUS
 62
     7
 10
-82.95841025203075
 20
45.50100547588286
 30
0.0
  0
VERTEX
  5
1FF
  8
0
  6
CONTINUOUS
 62
     7
 10
-82.80955363562806
 20
45.02196863610421
 30
0.0
  0
VERTEX
  5
200
  8
0
  6
CONTINUOUS
 62
     7
 10
-82.60152010422547
 20
44.54546038196712
 30
0.0
  0
VERTEX
  5
201
  8
0
  6
CONTINUOUS
 62
     7
 10
-82.33467461932733
 20
44.07231667086795
 30
0.0
  0
VERTEX
  5
202
  8
0
  6
CONTINUOUS
 62
     7
 10
-82.00948531858883
 20
43.60336755765127
 30
0.0
  0
VERTEX
  5
203
  8
0
  6
CONTINUOUS
 62
     7
 10
-81.62652269454355
 20
43.13943573841164
 30
0.0
  0
VERTEX
  5
204
  8
0
  6
CONTINUOUS
 62
     7
 10
-81.18645859376562
 20
42.68133510720511
 30
0.0
  0
VERTEX
  5
205
  8
0
  6
CONTINUOUS
 62
     7
 10
-80.69006503822263
 20
42.22986932820245
 30
0.0
  0
VERTEX
  5
206
  8
0
  6
CONTINUOUS
 62
     7
 10
-80.1382128708866
 20
41.78583042578913
 30
0.0
  0
VERTEX
  5
207
  8
0
  6
CONTINUOUS
 62
     7
 10
-79.53187022797974
 20
41.34999739508542
 30
0.0
  0
VERTEX
  5
208
  8
0
  6
CONTINUOUS
 62
     7
 10
-78.87210084053427
 20
40.92313483532423
 30
0.0
  0
VERTEX
  5
209
  8
0
  6
CONTINUOUS
 62
     7
 10
-78.16006216824695
 20
40.50599160848426
 30
0.0
  0
VERTEX
  5
20A
  8
0
  6
CONTINUOUS
 62
     7
 10
-77.39700336890131
 20
40.0992995255316
 30
0.0
  0
VERTEX
  5
20B
  8
0
  6
CONTINUOUS
 62
     7
 10
-76.58426310692053
 20
39.70377206257465
 30
0.0
  0
VERTEX
  5
20C
  8
0
  6
CONTINUOUS
 62
     7
 10
-75.72326720489512
 20
39.32010310918458
 30
0.0
  0
VERTEX
  5
20D
  8
0
  6
CONTINUOUS
 62
     7
 10
-74.81552614220563
 20
38.94896575107721
 30
0.0
  0
VERTEX
  5
20E
  8
0
  6
CONTINUOUS
 62
     7
 10
-73.86263240512847
 20
38.59101108929199
 30
0.0
  0
VERTEX
  5
20F
  8
0
  6
CONTINUOUS
 62
     7
 10
-72.86625769307396
 20
38.2468670979395
 30
0.0
  0
VERTEX
  5
210
  8
0
  6
CONTINUOUS
 62
     7
 10
-71.82814998585744
 20
37.91713752252149
 30
0.0
  0
VERTEX
  5
211
  8
0
  6
CONTINUOUS
 62
     7
 10
-70.75013047714876
 20
37.6024008207561
 30
0.0
  0
VERTEX
  5
212
  8
0
  6
CONTINUOUS
 62
     7
 10
-69.63409037947963
 20
37.30320914776648
 30
0.0
  0
VERTEX
  5
213
  8
0
  6
CONTINUOUS
 62
     7
 10
-68.48198760641439
 20
37.02008738741306
 30
0.0
  0
VERTEX
  5
214
  8
0
  6
CONTINUOUS
 62
     7
 10
-67.29584333770413
 20
36.75353223146893
 30
0.0
  0
VERTEX
  5
215
  8
0
  6
CONTINUOUS
 62
     7
 10
-66.07773847345068
 20
36.50401130825367
 30
0.0
  0
VERTEX
  5
216
  8
0
  6
CONTINUOUS
 62
     7
 10
-64.82980998350078
 20
36.27196236225436
 30
0.0
  0
VERTEX
  5
217
  8
0
  6
CONTINUOUS
 62
     7
 10
-63.55424715847474
 20
36.05779248617306
 30
0.0
  0
VERTEX
  5
218
  8
0
  6
CONTINUOUS
 62
     7
 10
-62.25328776900682
 20
35.86187740674783
 30
0.0
  0
VERTEX
  5
219
  8
0
  6
CONTINUOUS
 62
     7
 10
-60.92921413993513
 20
35.68456082560037
 30
0.0
  0
VERTEX
  5
21A
  8
0
  6
CONTINUOUS
 62
     7
 10
-59.58434914632828
 20
35.52615381626659
 30
0.0
  0
VERTEX
  5
21B
  8
0
  6
CONTINUOUS
 62
     7
 10
-58.22105213837327
 20
35.38693427846793
 30
0.0
  0
VERTEX
  5
21C
  8
0
  6
CONTINUOUS
 62
     7
 10
-56.84171480227348
 20
35.2671464505808
 30
0.0
  0
VERTEX
  5
21D
  8
0
  6
CONTINUOUS
 62
     7
 10
-55.44875696441841
 20
35.16700048115948
 30
0.0
  0
VERTEX
  5
21E
  8
0
  6
CONTINUOUS
 62
     7
 10
-54.04462234618591
 20
35.08667206026419
 30
0.0
  0
VERTEX
  5
21F
  8
0
  6
CONTINUOUS
 62
     7
 10
-52.63177427682451
 20
35.02630211124094
 30
0.0
  0
VERTEX
  5
220
  8
0
  6
CONTINUOUS
 62
     7
 10
-51.21269137193686
 20
34.98599654349419
 30
0.0
  0
VERTEX
  5
221
  8
0
  6
CONTINUOUS
 62
     7
 10
-49.78986318514577
 20
34.96582606668566
 30
0.0
  0
VERTEX
  5
222
  8
0
  6
CONTINUOUS
 62
     7
 10
-48.36578584057111
 20
34.96582606668566
 30
0.0
  0
VERTEX
  5
223
  8
0
  6
CONTINUOUS
 62
     7
 10
-46.94295765378001
 20
34.9859965434942
 30
0.0
  0
VERTEX
  5
224
  8
0
  6
CONTINUOUS
 62
     7
 10
-45.52387474889237
 20
35.02630211124096
 30
0.0
  0
VERTEX
  5
225
  8
0
  6
CONTINUOUS
 62
     7
 10
-44.11102667953097
 20
35.08667206026421
 30
0.0
  0
VERTEX
  5
226
  8
0
  6
CONTINUOUS
 62
     7
 10
-42.70689206129848
 20
35.1670004811595
 30
0.0
  0
VERTEX
  5
227
  8
0
  6
CONTINUOUS
 62
     7
 10
-41.31393422344341
 20
35.26714645058081
 30
0.0
  0
VERTEX
  5
228
  8
0
  6
CONTINUOUS
 62
     7
 10
-39.93459688734362
 20
35.38693427846795
 30
0.0
  0
VERTEX
  5
229
  8
0
  6
CONTINUOUS
 62
     7
 10
-38.57129987938861
 20
35.52615381626661
 30
0.0
  0
VERTEX
  5
22A
  8
0
  6
CONTINUOUS
 62
     7
 10
-37.22643488578177
 20
35.6845608256004
 30
0.0
  0
VERTEX
  5
22B
  8
0
  6
CONTINUOUS
 62
     7
 10
-35.90236125671008
 20
35.86187740674787
 30
0.0
  0
VERTEX
  5
22C
  8
0
  6
CONTINUOUS
 62
     7
 10
-34.60140186724216
 20
36.0577924861731
 30
0.0
  0
VERTEX
  5
22D
  8
0
  6
CONTINUOUS
 62
     7
 10
-33.32583904221613
 20
36.2719623622544
 30
0.0
  0
VERTEX
  5
22E
  8
0
  6
CONTINUOUS
 62
     7
 10
-32.07791055226624
 20
36.50401130825371
 30
0.0
  0
VERTEX
  5
22F
  8
0
  6
CONTINUOUS
 62
     7
 10
-30.8598056880128
 20
36.75353223146898
 30
0.0
  0
VERTEX
  5
230
  8
0
  6
CONTINUOUS
 62
     7
 10
-29.67366141930254
 20
37.02008738741311
 30
0.0
  0
VERTEX
  5
231
  8
0
  6
CONTINUOUS
 62
     7
 10
-28.5215586462373
 20
37.30320914776653
 30
0.0
  0
VERTEX
  5
232
  8
0
  6
CONTINUOUS
 62
     7
 10
-27.40551854856819
 20
37.60240082075616
 30
0.0
  0
VERTEX
  5
233
  8
0
  6
CONTINUOUS
 62
     7
 10
-26.32749903985949
 20
37.91713752252155
 30
0.0
  0
VERTEX
  5
234
  8
0
  6
CONTINUOUS
 62
     7
 10
-25.28939133264299
 20
38.24686709793957
 30
0.0
  0
VERTEX
  5
235
  8
0
  6
CONTINUOUS
 62
     7
 10
-24.29301662058848
 20
38.59101108929206
 30
0.0
  0
VERTEX
  5
236
  8
0
  6
CONTINUOUS
 62
     7
 10
-23.34012288351133
 20
38.94896575107728
 30
0.0
  0
VERTEX
  5
237
  8
0
  6
CONTINUOUS
 62
     7
 10
-22.43238182082184
 20
39.32010310918465
 30
0.0
  0
VERTEX
  5
238
  8
0
  6
CONTINUOUS
 62
     7
 10
-21.57138591879645
 20
39.70377206257473
 30
0.0
  0
VERTEX
  5
239
  8
0
  6
CONTINUOUS
 62
     7
 10
-20.75864565681568
 20
40.09929952553168
 30
0.0
  0
VERTEX
  5
23A
  8
0
  6
CONTINUOUS
 62
     7
 10
-19.99558685747005
 20
40.50599160848434
 30
0.0
  0
VERTEX
  5
23B
  8
0
  6
CONTINUOUS
 62
     7
 10
-19.28354818518273
 20
40.92313483532431
 30
0.0
  0
VERTEX
  5
23C
  8
0
  6
CONTINUOUS
 62
     7
 10
-18.62377879773727
 20
41.3499973950855
 30
0.0
  0
VERTEX
  5
23D
  8
0
  6
CONTINUOUS
 62
     7
 10
-18.01743615483041
 20
41.78583042578921
 30
0.0
  0
VERTEX
  5
23E
  8
0
  6
CONTINUOUS
 62
     7
 10
-17.46558398749442
 20
42.22986932820253
 30
0.0
  0
VERTEX
  5
23F
  8
0
  6
CONTINUOUS
 62
     7
 10
-16.96919043195143
 20
42.68133510720519
 30
0.0
  0
VERTEX
  5
240
  8
0
  6
CONTINUOUS
 62
     7
 10
-16.52912633117352
 20
43.13943573841173
 30
0.0
  0
VERTEX
  5
241
  8
0
  6
CONTINUOUS
 62
     7
 10
-16.14616370712825
 20
43.60336755765135
 30
0.0
  0
VERTEX
  5
242
  8
0
  6
CONTINUOUS
 62
     7
 10
-15.82097440638976
 20
44.07231667086803
 30
0.0
  0
VERTEX
  5
243
  8
0
  6
CONTINUOUS
 62
     7
 10
-15.55412892149162
 20
44.54546038196721
 30
0.0
  0
VERTEX
  5
244
  8
0
  6
CONTINUOUS
 62
     7
 10
-15.34609539008904
 20
45.0219686361043
 30
0.0
  0
VERTEX
  5
245
  8
0
  6
CONTINUOUS
 62
     7
 10
-15.19723877368638
 20
45.50100547588295
 30
0.0
  0
VERTEX
  5
246
  8
0
  6
CONTINUOUS
 62
     7
 10
-15.10782021737062
 20
45.98173050790838
 30
0.0
  0
SEQEND
  5
248
  8
0
  6
CONTINUOUS
 62
     7
  0
LINE
  5
163
  8
0
  6
CONTINUOUS
 62
     7
 10
-37.22828546435265
 20
72.96330037712289
 30
0.0
 11
-37.22828546435265
 21
68.96330037712289
 31
0.0
  0
LINE
  5
164
  8
0
  6
CONTINUOUS
 62
     7
 10
-19.96736356136466
 20
72.96330037712289
 30
0.0
 11
-19.96736356136466
 21
68.96330037712289
 31
0.0
  0
LINE
  5
165
  8
0
  6
CONTINUOUS
 62
     7
 10
-39.2428245128587
 20
68.96330037712289
 30
0.0
 11
-39.2428245128587
 21
73.96330037712289
 31
0.0
  0
LINE
  5
166
  8
0
  6
CONTINUOUS
 62
     7
 10
-43.09282451285861
 20
73.96330037712289
 30
0.0
 11
-43.09282451285861
 21
68.96330037712289
 31
0.0
  0
LINE
  5
167
  8
0
  6
CONTINUOUS
 62
     7
 10
-14.10282451285855
 20
73.96330037712289
 30
0.0
 11
-14.10282451285855
 21
68.96330037712289
 31
0.0
  0
LINE
  5
168
  8
0
  6
CONTINUOUS
 62
     7
 10
-17.95282451285865
 20
68.96330037712289
 30
0.0
 11
-17.95282451285865
 21
73.96330037712289
 31
0.0
  0
LINE
  5
169
  8
0
  6
CONTINUOUS
 62
     7
 10
-14.10282451285855
 20
73.96330037712289
 30
0.0
 11
-17.95282451285865
 21
73.96330037712289
 31
0.0
  0
LINE
  5
16A
  8
0
  6
CONTINUOUS
 62
     7
 10
-19.96736356136466
 20
72.96330037712289
 30
0.0
 11
-37.22828546435265
 21
72.96330037712289
 31
0.0
  0
LINE
  5
16B
  8
0
  6
CONTINUOUS
 62
     7
 10
-39.2428245128587
 20
73.96330037712289
 30
0.0
 11
-43.09282451285861
 21
73.96330037712289
 31
0.0
  0
LINE
  5
16C
  8
0
  6
CONTINUOUS
 62
     7
 10
65.1925735756536
 20
68.96330037712289
 30
0.0
 11
92.1925735756536
 21
68.96330037712289
 31
0.0
  0
LINE
  5
16D
  8
0
  6
CONTINUOUS
 62
     7
 10
80.09257357565357
 20
-36.03669962287733
 30
0.0
 11
92.1925735756536
 21
-36.03669962287733
 31
0.0
  0
LINE
  5
16E
  8
0
  6
CONTINUOUS
 62
     7
 10
87.1925735756536
 20
-49.03669962287714
 30
0.0
 11
92.1925735756536
 21
-49.03669962287714
 31
0.0
  0
LINE
  5
16F
  8
0
  6
CONTINUOUS
 62
     7
 10
87.1925735756536
 20
-47.43669962287712
 30
0.0
 11
89.1925735756536
 21
-47.43669962287712
 31
0.0
  0
LINE
  5
170
  8
0
  6
CONTINUOUS
 62
     7
 10
92.1925735756536
 20
-36.03669962287733
 30
0.0
 11
92.1925735756536
 21
-49.03669962287714
 31
0.0
  0
LINE
  5
171
  8
0
  6
CONTINUOUS
 62
     7
 10
89.1925735756536
 20
-36.03669962287733
 30
0.0
 11
89.1925735756536
 21
-47.43669962287712
 31
0.0
  0
LINE
  5
172
  8
0
  6
CONTINUOUS
 62
     7
 10
87.1925735756536
 20
-47.43669962287712
 30
0.0
 11
87.1925735756536
 21
-49.03669962287714
 31
0.0
  0
CIRCLE
  5
173
  8
0
  6
CONTINUOUS
 62
     7
 10
73.84257357565357
 20
6.213300377122884
 30
0.0
 40
2.75
  0
CIRCLE
  5
174
  8
0
  6
CONTINUOUS
 62
     7
 10
73.84257357565357
 20
6.213300377122884
 30
0.0
 40
1.25
  0
LINE
  5
175
  8
0
  6
CONTINUOUS
 62
     7
 10
79.79257357565353
 20
72.96330037712289
 30
0.0
 11
79.79257357565353
 21
68.96330037712289
 31
0.0
  0
LINE
  5
176
  8
0
  6
CONTINUOUS
 62
     7
 10
70.89257357565369
 20
72.96330037712289
 30
0.0
 11
70.89257357565369
 21
68.96330037712289
 31
0.0
  0
LINE
  5
177
  8
0
  6
CONTINUOUS
 62
     7
 10
77.3425735756536
 20
73.96330037712289
 30
0.0
 11
77.3425735756536
 21
68.96330037712289
 31
0.0
  0
LINE
  5
178
  8
0
  6
CONTINUOUS
 62
     7
 10
73.3425735756536
 20
73.96330037712289
 30
0.0
 11
73.3425735756536
 21
68.96330037712289
 31
0.0
  0
LINE
  5
179
  8
0
  6
CONTINUOUS
 62
     7
 10
70.8925735756537
 20
72.96330037712289
 30
0.0
 11
73.3425735756536
 21
72.96330037712289
 31
0.0
  0
LINE
  5
17A
  8
0
  6
CONTINUOUS
 62
     7
 10
77.3425735756536
 20
72.96330037712289
 30
0.0
 11
79.79257357565353
 21
72.96330037712289
 31
0.0
  0
LINE
  5
17B
  8
0
  6
CONTINUOUS
 62
     7
 10
73.3425735756536
 20
73.96330037712289
 30
0.0
 11
77.3425735756536
 21
73.96330037712289
 31
0.0
  0
LINE
  5
17C
  8
LAYER0004
  6
CONTINUOUS
 62
     7
 10
-61.87799659167419
 20
-47.43669962287712
 30
0.0
 11
-61.87799659167419
 21
-35.88506308498875
 31
0.0
  0
CIRCLE
  5
17D
  8
LAYER0004
  6
CONTINUOUS
 62
     7
 10
-49.07799659167418
 20
-40.03669962287713
 30
0.0
 40
5.0
  0
CIRCLE
  5
17E
  8
LAYER0004
  6
CONTINUOUS
 62
     7
 10
-49.07799659167418
 20
-40.03669962287713
 30
0.0
 40
2.5
  0
LINE
  5
17F
  8
LAYER0004
  6
CONTINUOUS
 62
     7
 10
-36.27799659167422
 20
-35.88506308498875
 30
0.0
 11
-36.27799659167422
 21
-47.43669962287712
 31
0.0
  0
LINE
  5
180
  8
LAYER0004
  6
CONTINUOUS
 62
     7
 10
-31.12799659167419
 20
-49.03669962287714
 30
0.0
 11
-31.12799659167419
 21
-35.73840563770676
 31
0.0
  0
LINE
  5
181
  8
LAYER0004
  6
CONTINUOUS
 62
     7
 10
-67.02799659167417
 20
-49.03669962287714
 30
0.0
 11
-31.12799659167419
 21
-49.03669962287714
 31
0.0
  0
LINE
  5
182
  8
LAYER0004
  6
CONTINUOUS
 62
     7
 10
-67.02799659167417
 20
-47.43669962287712
 30
0.0
 11
-31.12799659167419
 21
-47.43669962287712
 31
0.0
  0
LINE
  5
183
  8
LAYER0004
  6
CONTINUOUS
 62
     7
 10
-67.02799659167417
 20
-49.03669962287714
 30
0.0
 11
-67.02799659167417
 21
-35.73840563770676
 31
0.0
  0
LINE
  5
184
  8
0
  6
CENTER
 62
   222
 10
-0.0779965916741716
 20
63.96330037712288
 30
0.0
 11
-8.077996591674172
 21
63.96330037712288
 31
0.0
  0
LINE
  5
185
  8
0
  6
CENTER
 62
   222
 10
-4.077996591674172
 20
67.96330037712289
 30
0.0
 11
-4.077996591674172
 21
59.96330037712288
 31
0.0
  0
LINE
  5
186
  8
0
  6
CENTER
 62
   222
 10
-90.07799659167418
 20
63.96330037712288
 30
0.0
 11
-98.07799659167418
 21
63.96330037712288
 31
0.0
  0
LINE
  5
187
  8
0
  6
CENTER
 62
   222
 10
-94.07799659167418
 20
67.96330037712289
 30
0.0
 11
-94.07799659167418
 21
59.96330037712288
 31
0.0
  0
TEXT
  5
189
  8
0
 62
     7
 10
117.0666666666667
 20
-95.86666666666667
 30
0.0
 40
6.0
  1
000
 41
0.5526315789473685
  7
DCSTYLE0
 72
     5
 11
126.0666666666667
 21
-95.86666666666667
 31
0.0
  0
VIEWPORT
  5
B4
 67
     1
  8
0
 10
9.744335037496228
 20
-10.95168314477189
 30
0.0
 40
652.9339897750225
 41
509.4899011313687
 68
     1
 69
     1
1001
ACAD
1000
MVIEW
1002
{
1070
    16
1010
0.0
1020
0.0
1030
0.0
1010
0.0
1020
0.0
1030
1.0
1040
0.0
1040
509.4899011313687
1040
9.744335037496228
1040
-10.95168314477189
1040
50.0
1040
0.0
1040
0.0
1070
     0
1070
   100
1070
     0
1070
     3
1070
     0
1070
     0
1070
     0
1070
     0
1040
0.0
1040
0.0
1040
0.0
1040
0.5
1040
0.5
1040
0.0
1040
0.0
1070
     0
1002
{
1002
}
1002
}
  0
ENDSEC
  0
EOF
