  0
SECTION
  2
HEADER
  9
$ACADVER
  1
AC1009
  9
$DWGCODEPAGE
  3
ansi_932
  9
$INSBASE
 10
0.0
 20
0.0
 30
0.0
  9
$EXTMIN
 10
-301.9423536844006
 20
-259.3098181731251
 30
0.0
  9
$EXTMAX
 10
337.0981527337193
 20
227.785328040233
 30
0.0
  9
$LIMMIN
 10
-148.5
 20
-105.0
  9
$LIMMAX
 10
148.5
 20
105.0
  9
$ORTHOMODE
 70
     0
  9
$REGENMODE
 70
     1
  9
$FILLMODE
 70
     1
  9
$QTEXTMODE
 70
     0
  9
$MIRRTEXT
 70
     1
  9
$DRAGMODE
 70
     2
  9
$LTSCALE
 40
0.25
  9
$OSMODE
 70
    37
  9
$ATTMODE
 70
     1
  9
$TEXTSIZE
 40
0.2
  9
$TRACEWID
 40
0.05
  9
$TEXTSTYLE
  7
STANDARD
  9
$CLAYER
  8
0
  9
$CELTYPE
  6
BYLAYER
  9
$CECOLOR
 62
   256
  9
$DIMSCALE
 40
1.0
  9
$DIMASZ
 40
1.800315856933594
  9
$DIMEXO
 40
1.0
  9
$DIMDLI
 40
10.0
  9
$DIMRND
 40
0.0
  9
$DIMDLE
 40
0.0
  9
$DIMEXE
 40
1.0
  9
$DIMTP
 40
0.0
  9
$DIMTM
 40
0.0
  9
$DIMTXT
 40
3.5
  9
$DIMCEN
 40
0.0
  9
$DIMTSZ
 40
0.0
  9
$DIMTOL
 70
     0
  9
$DIMLIM
 70
     0
  9
$DIMTIH
 70
     0
  9
$DIMTOH
 70
     0
  9
$DIMSE1
 70
     0
  9
$DIMSE2
 70
     0
  9
$DIMTAD
 70
     1
  9
$DIMZIN
 70
     8
  9
$DIMBLK
  1

  9
$DIMASO
 70
     1
  9
$DIMSHO
 70
     1
  9
$DIMPOST
  1

  9
$DIMAPOST
  1

  9
$DIMALT
 70
     0
  9
$DIMALTD
 70
     2
  9
$DIMALTF
 40
0.0393700787401575
  9
$DIMLFAC
 40
1.0
  9
$DIMTOFL
 70
     0
  9
$DIMTVP
 40
0.0
  9
$DIMTIX
 70
     0
  9
$DIMSOXD
 70
     0
  9
$DIMSAH
 70
     0
  9
$DIMBLK1
  1

  9
$DIMBLK2
  1

  9
$DIMSTYLE
  2
STANDARD
  9
$DIMCLRD
 70
     0
  9
$DIMCLRE
 70
     0
  9
$DIMCLRT
 70
     0
  9
$DIMTFAC
 40
0.65
  9
$DIMGAP
 40
0.09
  9
$LUNITS
 70
     2
  9
$LUPREC
 70
     4
  9
$SKETCHINC
 40
0.1
  9
$FILLETRAD
 40
0.5
  9
$AUNITS
 70
     0
  9
$AUPREC
 70
     0
  9
$MENU
  1
.
  9
$ELEVATION
 40
0.0
  9
$PELEVATION
 40
0.0
  9
$THICKNESS
 40
0.0
  9
$LIMCHECK
 70
     0
  9
$CHAMFERA
 40
0.0
  9
$CHAMFERB
 40
0.0
  9
$SKPOLY
 70
     0
  9
$TDCREATE
 40
2460189.471164873
  9
$TDUPDATE
 40
2460189.471165069
  9
$TDINDWG
 40
0.0000000116
  9
$TDUSRTIMER
 40
0.0000000116
  9
$USRTIMER
 70
     1
  9
$ANGBASE
 50
0.0
  9
$ANGDIR
 70
     0
  9
$PDMODE
 70
     0
  9
$PDSIZE
 40
1.0
  9
$PLINEWID
 40
0.0
  9
$COORDS
 70
     1
  9
$SPLFRAME
 70
     0
  9
$SPLINETYPE
 70
     6
  9
$SPLINESEGS
 70
     8
  9
$ATTDIA
 70
     0
  9
$ATTREQ
 70
     1
  9
$HANDLING
 70
     1
  9
$HANDSEED
  5
201
  9
$SURFTAB1
 70
     6
  9
$SURFTAB2
 70
     6
  9
$SURFTYPE
 70
     6
  9
$SURFU
 70
     6
  9
$SURFV
 70
     6
  9
$UCSNAME
  2

  9
$UCSORG
 10
0.0
 20
0.0
 30
0.0
  9
$UCSXDIR
 10
1.0
 20
0.0
 30
0.0
  9
$UCSYDIR
 10
0.0
 20
1.0
 30
0.0
  9
$PUCSNAME
  2

  9
$PUCSORG
 10
0.0
 20
0.0
 30
0.0
  9
$PUCSXDIR
 10
1.0
 20
0.0
 30
0.0
  9
$PUCSYDIR
 10
0.0
 20
1.0
 30
0.0
  9
$USERI1
 70
     0
  9
$USERI2
 70
     0
  9
$USERI3
 70
     0
  9
$USERI4
 70
     0
  9
$USERI5
 70
     0
  9
$USERR1
 40
0.0
  9
$USERR2
 40
0.0
  9
$USERR3
 40
0.0
  9
$USERR4
 40
0.0
  9
$USERR5
 40
0.0
  9
$WORLDVIEW
 70
     1
  9
$SHADEDGE
 70
     3
  9
$SHADEDIF
 70
    70
  9
$TILEMODE
 70
     1
  9
$MAXACTVP
 70
    64
  9
$PLIMCHECK
 70
     0
  9
$PEXTMIN
 10
1.000000000000000E+20
 20
1.000000000000000E+20
 30
1.000000000000000E+20
  9
$PEXTMAX
 10
-1.000000000000000E+20
 20
-1.000000000000000E+20
 30
-1.000000000000000E+20
  9
$PLIMMIN
 10
0.0
 20
0.0
  9
$PLIMMAX
 10
12.0
 20
9.0
  9
$UNITMODE
 70
     0
  9
$VISRETAIN
 70
     0
  9
$PLINEGEN
 70
     1
  9
$PSLTSCALE
 70
     0
  0
ENDSEC
  0
SECTION
  2
TABLES
  0
TABLE
  2
VPORT
 70
     1
  0
VPORT
  2
*ACTIVE
 70
     0
 10
0.0
 20
0.0
 11
1.0
 21
1.0
 12
20.92289952465933
 22
-16.31046627439898
 13
0.0
 23
0.0
 14
0.5
 24
0.5
 15
0.5
 25
0.5
 16
0.0
 26
0.0
 36
1.0
 17
0.0
 27
0.0
 37
0.0
 40
166.7307209767659
 41
1.344068872666778
 42
50.0
 43
0.0
 44
0.0
 50
0.0
 51
0.0
 71
     0
 72
  1000
 73
     1
 74
     1
 75
     0
 76
     0
 77
     0
 78
     0
  0
ENDTAB
  0
TABLE
  2
LTYPE
 70
    67
  0
LTYPE
  2
CONTINUOUS
 70
     0
  3
Solid line
 72
    65
 73
     0
 40
0.0
  0
LTYPE
  2
HIDDENX2
 70
     0
  3
Hidden (2x) ____ ____ ____ ____ ____ ____ ____ 
 72
    65
 73
     2
 40
19.05
 49
12.7
 49
-6.35
  0
LTYPE
  2
HIDDEN
 70
     0
  3
Hidden __ __ __ __ __ __ __ __ __ __ __ __ __ __
 72
    65
 73
     2
 40
9.524999999999999
 49
6.35
 49
-3.175
  0
LTYPE
  2
HIDDEN2
 70
     0
  3
Hidden (.5x) _ _ _ _ _ _ _ _ _ _ _ _ _ _ _ _ _ 
 72
    65
 73
     2
 40
4.762499999999999
 49
3.175
 49
-1.5875
  0
LTYPE
  2
DASHED
 70
     0
  3
Dashed __ __ __ __ __ __ __ __ __ __ __ __ __ _
 72
    65
 73
     2
 40
19.05
 49
12.7
 49
-6.35
  0
LTYPE
  2
DASHED2
 70
     0
  3
Dashed (.5x) _ _ _ _ _ _ _ _ _ _ _ _ _ _ _ _ _ 
 72
    65
 73
     2
 40
9.524999999999999
 49
6.35
 49
-3.175
  0
LTYPE
  2
DASHEDX2
 70
     0
  3
Dashed (2x) ____  ____  ____  ____  ____  ___
 72
    65
 73
     2
 40
38.09999999999999
 49
25.4
 49
-12.7
  0
LTYPE
  2
DOTX2
 70
     0
  3
Dot (2x) .  .  .  .  .  .  .  .  .  .  .  .  .  .
 72
    65
 73
     2
 40
12.7
 49
0.0
 49
-12.7
  0
LTYPE
  2
DOT
 70
     0
  3
Dot . . . . . . . . . . . . . . . . . . . . . . . .
 72
    65
 73
     2
 40
6.35
 49
0.0
 49
-6.35
  0
LTYPE
  2
DOT2
 70
     0
  3
Dot (.5x) ........................................
 72
    65
 73
     2
 40
3.175
 49
0.0
 49
-3.175
  0
LTYPE
  2
CENTERX2
 70
     0
  3
Center (2x) ________  __  ________  __  _____
 72
    65
 73
     4
 40
101.6
 49
63.5
 49
-12.7
 49
12.7
 49
-12.7
  0
LTYPE
  2
CENTER
 70
     0
  3
Center ____ _ ____ _ ____ _ ____ _ ____ _ ____
 72
    65
 73
     4
 40
50.8
 49
31.75
 49
-6.35
 49
6.35
 49
-6.35
  0
LTYPE
  2
CENTER2
 70
     0
  3
Center (.5x) ___ _ ___ _ ___ _ ___ _ ___ _ ___
 72
    65
 73
     4
 40
28.575
 49
19.05
 49
-3.175
 49
3.175
 49
-3.175
  0
LTYPE
  2
DASHDOTX2
 70
     0
  3
Dash dot (2x) ____  .  ____  .  ____  .  ___
 72
    65
 73
     4
 40
50.8
 49
25.4
 49
-12.7
 49
0.0
 49
-12.7
  0
LTYPE
  2
DASHDOT
 70
     0
  3
Dash dot __ . __ . __ . __ . __ . __ . __ . __
 72
    65
 73
     4
 40
25.4
 49
12.7
 49
-6.35
 49
0.0
 49
-6.35
  0
LTYPE
  2
DASHDOT2
 70
     0
  3
Dash dot (.5x) _._._._._._._._._._._._._._._.
 72
    65
 73
     4
 40
12.7
 49
6.35
 49
-3.175
 49
0.0
 49
-3.175
  0
LTYPE
  2
DIVIDEX2
 70
     0
  3
Divide (2x) ________  .  .  ________  .  .  _
 72
    65
 73
     6
 40
63.5
 49
25.4
 49
-12.7
 49
0.0
 49
-12.7
 49
0.0
 49
-12.7
  0
LTYPE
  2
DIVIDE
 70
     0
  3
Divide ____ . . ____ . . ____ . . ____ . . ____
 72
    65
 73
     6
 40
31.75
 49
12.7
 49
-6.35
 49
0.0
 49
-6.35
 49
0.0
 49
-6.35
  0
LTYPE
  2
DIVIDE2
 70
     0
  3
Divide (.5x) __..__..__..__..__..__..__..__.._
 72
    65
 73
     6
 40
15.875
 49
6.35
 49
-3.175
 49
0.0
 49
-3.175
 49
0.0
 49
-3.175
  0
LTYPE
  2
BORDERX2
 70
     0
  3
Border (2x) ____  ____  .  ____  ____  .  ___
 72
    65
 73
     6
 40
88.89999999999999
 49
25.4
 49
-12.7
 49
25.4
 49
-12.7
 49
0.0
 49
-12.7
  0
LTYPE
  2
BORDER
 70
     0
  3
Border __ __ . __ __ . __ __ . __ __ . __ __ .
 72
    65
 73
     6
 40
44.45
 49
12.7
 49
-6.35
 49
12.7
 49
-6.35
 49
0.0
 49
-6.35
  0
LTYPE
  2
BORDER2
 70
     0
  3
Border (.5x) __.__.__.__.__.__.__.__.__.__.__.
 72
    65
 73
     6
 40
22.225
 49
6.35
 49
-3.175
 49
6.35
 49
-3.175
 49
0.0
 49
-3.175
  0
LTYPE
  2
PHANTOMX2
 70
     0
  3
Phantom (2x) ____________    ____    ____   _
 72
    65
 73
     6
 40
127.0
 49
63.5
 49
-12.7
 49
12.7
 49
-12.7
 49
12.7
 49
-12.7
  0
LTYPE
  2
PHANTOM
 70
     0
  3
Phantom ______  __  __  ______  __  __  ______ 
 72
    65
 73
     6
 40
63.5
 49
31.75
 49
-6.35
 49
6.35
 49
-6.35
 49
6.35
 49
-6.35
  0
LTYPE
  2
PHANTOM2
 70
     0
  3
Phantom (.5x) ___ _ _ ___ _ _ ___ _ _ ___ _ _
 72
    65
 73
     6
 40
31.75
 49
15.875
 49
-3.175
 49
3.175
 49
-3.175
 49
3.175
 49
-3.175
  0
LTYPE
  2
ACAD_ISO06W100
 70
     0
  3
ISO long-dash triple-dot ____ ... ____ ... ____
 72
    65
 73
     8
 40
36.0
 49
24.0
 49
-3.0
 49
0.0
 49
-3.0
 49
0.0
 49
-3.0
 49
0.0
 49
-3.0
  0
LTYPE
  2
ACAD_ISO13W100
 70
     0
  3
ISO double-dash double-dot __ __ . . __ __ . . _
 72
    65
 73
     8
 40
36.0
 49
12.0
 49
-3.0
 49
12.0
 49
-3.0
 49
0.0
 49
-3.0
 49
0.0
 49
-3.0
  0
LTYPE
  2
ACAD_ISO14W100
 70
     0
  3
ISO dash triple-dot __ . . . __ . . . __ . . . _
 72
    65
 73
     8
 40
24.0
 49
12.0
 49
-3.0
 49
0.0
 49
-3.0
 49
0.0
 49
-3.0
 49
0.0
 49
-3.0
  0
LTYPE
  2
ACAD_ISO02W100
 70
     0
  3
ISO dash __ __ __ __ __ __ __ __ __ __ __ __ __
 72
    65
 73
     2
 40
15.0
 49
12.0
 49
-3.0
  0
LTYPE
  2
ACAD_ISO03W100
 70
     0
  3
ISO dash space __    __    __    __    __    __
 72
    65
 73
     2
 40
30.0
 49
12.0
 49
-18.0
  0
LTYPE
  2
ACAD_ISO04W100
 70
     0
  3
ISO long-dash dot ____ . ____ . ____ . ____ . _
 72
    65
 73
     4
 40
30.0
 49
24.0
 49
-3.0
 49
0.0
 49
-3.0
  0
LTYPE
  2
ACAD_ISO05W100
 70
     0
  3
ISO long-dash double-dot ____ .. ____ .. ____ . 
 72
    65
 73
     6
 40
33.0
 49
24.0
 49
-3.0
 49
0.0
 49
-3.0
 49
0.0
 49
-3.0
  0
LTYPE
  2
ACAD_ISO07W100
 70
     0
  3
ISO dot . . . . . . . . . . . . . . . . . . . . 
 72
    65
 73
     2
 40
3.0
 49
0.0
 49
-3.0
  0
LTYPE
  2
ACAD_ISO08W100
 70
     0
  3
ISO long-dash short-dash ____ __ ____ __ ____ _
 72
    65
 73
     4
 40
36.0
 49
24.0
 49
-3.0
 49
6.0
 49
-3.0
  0
LTYPE
  2
ACAD_ISO09W100
 70
     0
  3
ISO long-dash double-short-dash ____ __ __ ____
 72
    65
 73
     6
 40
45.0
 49
24.0
 49
-3.0
 49
6.0
 49
-3.0
 49
6.0
 49
-3.0
  0
LTYPE
  2
ACAD_ISO10W100
 70
     0
  3
ISO dash dot __ . __ . __ . __ . __ . __ . __ . 
 72
    65
 73
     4
 40
18.0
 49
12.0
 49
-3.0
 49
0.0
 49
-3.0
  0
LTYPE
  2
ACAD_ISO11W100
 70
     0
  3
ISO double-dash dot __ __ . __ __ . __ __ . __ _
 72
    65
 73
     6
 40
33.0
 49
12.0
 49
-3.0
 49
12.0
 49
-3.0
 49
0.0
 49
-3.0
  0
LTYPE
  2
ACAD_ISO12W100
 70
     0
  3
ISO dash double-dot __ . . __ . . __ . . __ . . 
 72
    65
 73
     6
 40
21.0
 49
12.0
 49
-3.0
 49
0.0
 49
-3.0
 49
0.0
 49
-3.0
  0
LTYPE
  2
ACAD_ISO15W100
 70
     0
  3
ISO double-dash triple-dot __ __ . . . __ __ . .
 72
    65
 73
    10
 40
39.0
 49
12.0
 49
-3.0
 49
12.0
 49
-3.0
 49
0.0
 49
-3.0
 49
0.0
 49
-3.0
 49
0.0
 49
-3.0
  0
LTYPE
  2
JIS_02_0_7
 70
     0
  3
HIDDEN0.75 _ _ _ _ _ _ _ _ _ _ _ _ _ _ _ _ _ 
 72
    65
 73
     2
 40
1.35
 49
0.75
 49
-0.6
  0
LTYPE
  2
JIS_02_1_0
 70
     0
  3
HIDDEN01 _ _ _ _ _ _ _ _ _ _ _ _ _ _ _ _ _ 
 72
    65
 73
     2
 40
2.0
 49
1.0
 49
-1.0
  0
LTYPE
  2
JIS_02_1_2
 70
     0
  3
HIDDEN01.25  _ _ _ _ _ _ _ _ _ _ _ _ _ _ _ _ _ 
 72
    65
 73
     2
 40
2.5
 49
1.25
 49
-1.25
  0
LTYPE
  2
JIS_02_2_0
 70
     0
  3
HIDDEN02 __ __ __ __ __ __ __ __ __ __ __ 
 72
    65
 73
     2
 40
3.0
 49
2.0
 49
-1.0
  0
LTYPE
  2
JIS_02_4_0
 70
     0
  3
HIDDEN04 ____ ____ ____ ____ ____ ____ ____ 
 72
    65
 73
     2
 40
5.5
 49
4.0
 49
-1.5
  0
LTYPE
  2
JIS_08_11
 70
     0
  3
1SASEN11 ___ _ ___ _ ___ _ ___ _ ___ _ ___
 72
    65
 73
     4
 40
12.8
 49
11.0
 49
-0.6
 49
0.6
 49
-0.6
  0
LTYPE
  2
JIS_08_15
 70
     0
  3
1SASEN15 ____ _ ____ _ ____ _ ____ _ ____ 
 72
    65
 73
     4
 40
17.25
 49
15.0
 49
-0.75
 49
0.75
 49
-0.75
  0
LTYPE
  2
JIS_08_25
 70
     0
  3
1SASEN25 ________  __  ________  __  _____
 72
    65
 73
     4
 40
28.0
 49
25.0
 49
-1.125
 49
0.75
 49
-1.125
  0
LTYPE
  2
JIS_08_37
 70
     0
  3
1SASEN37 ________  __  ________  __  _____
 72
    65
 73
     4
 40
40.5
 49
37.5
 49
-1.125
 49
0.75
 49
-1.125
  0
LTYPE
  2
JIS_08_50
 70
     0
  3
1SASEN50 _______________  __  ____________
 72
    65
 73
     4
 40
53.0
 49
50.0
 49
-1.125
 49
0.75
 49
-1.125
  0
LTYPE
  2
JIS_09_08
 70
     0
  3
2SASEN8 __ _ _ __ _ _ __ _ _ __ _ _ __ _ _ 
 72
    65
 73
     6
 40
10.75
 49
8.0
 49
-0.55
 49
0.55
 49
-0.55
 49
0.55
 49
-0.55
  0
LTYPE
  2
JIS_09_15
 70
     0
  3
2SASEN15 ___ _ _ ___ _ _ ___ _ _ ___ _ _ ___ 
 72
    65
 73
     6
 40
18.9
 49
15.0
 49
-0.9
 49
0.6
 49
-0.9
 49
0.6
 49
-0.9
  0
LTYPE
  2
JIS_09_29
 70
     0
  3
2SASEN29 ______　__  __  ______　__  __  ___
 72
    65
 73
     6
 40
34.0
 49
29.0
 49
-1.2
 49
0.7
 49
-1.2
 49
0.7
 49
-1.2
  0
LTYPE
  2
JIS_09_50
 70
     0
  3
2SASEN50 ____________　__  __  _____________
 72
    65
 73
     6
 40
55.0
 49
50.0
 49
-1.2
 49
0.7
 49
-1.2
 49
0.7
 49
-1.2
  0
LTYPE
  2
SXF_破線
 70
     0
  3
02 dashed -- -- -- -- -- --
 72
    65
 73
     2
 40
7.5
 49
6.0
 49
-1.5
  0
LTYPE
  2
SXF_跳び破線
 70
     0
  3
03 dashed_spaced --  --  --  --
 72
    65
 73
     2
 40
12.0
 49
6.0
 49
-6.0
  0
LTYPE
  2
SXF_一点長鎖線
 70
     0
  3
04 long_dashed_dotted ---- . ---- . ----
 72
    65
 73
     4
 40
15.25
 49
12.0
 49
-1.5
 49
0.25
 49
-1.5
  0
LTYPE
  2
SXF_二点長鎖線
 70
     0
  3
05 long_dashed_double-dotted ---- . . ---- 
 72
    65
 73
     6
 40
17.0
 49
12.0
 49
-1.5
 49
0.25
 49
-1.5
 49
0.25
 49
-1.5
  0
LTYPE
  2
SXF_三点長鎖線
 70
     0
  3
06 long_dashed_triplicate-dotted ---- ... ---- 
 72
    65
 73
     8
 40
18.75
 49
12.0
 49
-1.5
 49
0.25
 49
-1.5
 49
0.25
 49
-1.5
 49
0.25
 49
-1.5
  0
LTYPE
  2
SXF_点線
 70
     0
  3
07 dotted . . . . . . . . . . . . 
 72
    65
 73
     2
 40
1.75
 49
0.25
 49
-1.5
  0
LTYPE
  2
SXF_一点鎖線
 70
     0
  3
08 chain ---- - --- - --- - ---
 72
    65
 73
     4
 40
18.5
 49
12.0
 49
-1.5
 49
3.5
 49
-1.5
  0
LTYPE
  2
SXF_二点鎖線
 70
     0
  3
09 chain_double_dash ---- - - ---- - - ----
 72
    65
 73
     6
 40
23.5
 49
12.0
 49
-1.5
 49
3.5
 49
-1.5
 49
3.5
 49
-1.5
  0
LTYPE
  2
SXF_一点短鎖線
 70
     0
  3
10 dashed_dotted -- . -- . -- . --
 72
    65
 73
     4
 40
9.25
 49
6.0
 49
-1.5
 49
0.25
 49
-1.5
  0
LTYPE
  2
SXF_一点二短鎖線
 70
     0
  3
11 double-dashed_dotted -- -- . -- --
 72
    65
 73
     6
 40
16.75
 49
6.0
 49
-1.5
 49
6.0
 49
-1.5
 49
0.25
 49
-1.5
  0
LTYPE
  2
SXF_二点短鎖線
 70
     0
  3
12 dashed_double_dotted -- . . -- . . --
 72
    65
 73
     6
 40
11.0
 49
6.0
 49
-1.5
 49
0.25
 49
-1.5
 49
0.25
 49
-1.5
  0
LTYPE
  2
SXF_二点二短鎖線
 70
     0
  3
13 double-dashed_double-dotted -- -- . . -- --
 72
    65
 73
     8
 40
18.5
 49
6.0
 49
-1.5
 49
6.0
 49
-1.5
 49
0.25
 49
-1.5
 49
0.25
 49
-1.5
  0
LTYPE
  2
SXF_三点短鎖線
 70
     0
  3
14 dashed triplicate-dotted -- . . . -- . . . --
 72
    65
 73
     8
 40
12.75
 49
6.0
 49
-1.5
 49
0.25
 49
-1.5
 49
0.25
 49
-1.5
 49
0.25
 49
-1.5
  0
LTYPE
  2
SXF_三点二短鎖線
 70
     0
  3
15 double-dashed triplicate-dotted -- -- . . . -- -- 
 72
    65
 73
    10
 40
20.25
 49
6.0
 49
-1.5
 49
6.0
 49
-1.5
 49
0.25
 49
-1.5
 49
0.25
 49
-1.5
 49
0.25
 49
-1.5
  0
ENDTAB
  0
TABLE
  2
LAYER
 70
     4
  0
LAYER
  2
0
 70
     0
 62
     7
  6
CONTINUOUS
  0
LAYER
  2
LAYER0016
 70
     0
 62
     7
  6
CONTINUOUS
  0
LAYER
  2
LAYER0064
 70
     0
 62
     7
  6
CONTINUOUS
  0
LAYER
  2
LAYER0240
 70
     0
 62
     7
  6
CONTINUOUS
  0
ENDTAB
  0
TABLE
  2
STYLE
 70
     2
  0
STYLE
  2
STANDARD
 70
     0
 40
0.0
 41
1.0
 50
0.0
 71
     0
 42
0.2
  3
txt.shx
  4
bigfont.shx
  0
STYLE
  2
DCSTYLE0
 70
     0
 40
0.0
 41
1.0
 50
0.0
 71
     0
 42
0.2
  3
ＭＳ ゴシック
  4

  0
ENDTAB
  0
TABLE
  2
VIEW
 70
     0
  0
ENDTAB
  0
TABLE
  2
UCS
 70
     0
  0
ENDTAB
  0
TABLE
  2
APPID
 70
     2
  0
APPID
  2
ACAD
 70
     0
  0
APPID
  2
DAFUSIONOUT
 70
     0
  0
ENDTAB
  0
TABLE
  2
DIMSTYLE
 70
     1
  0
DIMSTYLE
  2
STANDARD
 70
     0
  3

  4

  5

  6

  7

 40
1.0
 41
0.18
 42
0.0625
 43
0.38
 44
0.18
 45
0.0
 46
0.0
 47
0.0
 48
0.0
140
0.18
141
0.09
142
0.0
143
25.4
144
1.0
145
0.0
146
1.0
147
0.09
 71
     0
 72
     0
 73
     1
 74
     1
 75
     0
 76
     0
 77
     0
 78
     0
170
     0
171
     2
172
     0
173
     0
174
     0
175
     0
176
     0
177
     0
178
     0
  0
ENDTAB
  0
ENDSEC
  0
SECTION
  2
BLOCKS
  0
BLOCK
  8
0
  2
$MODEL_SPACE
 70
     0
 10
0.0
 20
0.0
 30
0.0
  3
$MODEL_SPACE
  1

  0
ENDBLK
  5
21
  8
0
  0
BLOCK
 67
     1
  8
0
  2
$PAPER_SPACE
 70
     0
 10
0.0
 20
0.0
 30
0.0
  3
$PAPER_SPACE
  1

  0
ENDBLK
  5
1D
 67
     1
  8
0
  0
ENDSEC
  0
SECTION
  2
ENTITIES
  0
LINE
  5
B5
  8
LAYER0016
  6
CONTINUOUS
 62
     3
 10
105.8446099866556
 20
44.44648097730886
 30
0.0
 11
105.8446099866556
 21
44.93614097730859
 31
0.0
  0
LINE
  5
B6
  8
LAYER0016
  6
CONTINUOUS
 62
     3
 10
27.74460998665556
 20
-69.46384902269129
 30
0.0
 11
27.74460998665557
 21
60.53615097730871
 31
0.0
  0
LINE
  5
B7
  8
LAYER0016
  6
CONTINUOUS
 62
     3
 10
109.3446139866556
 20
48.4361369773086
 30
0.0
 11
105.8446099866556
 21
44.93614097730859
 31
0.0
  0
LINE
  5
B8
  8
LAYER0016
  6
CONTINUOUS
 62
     3
 10
103.3446099866556
 20
54.2861509773087
 30
0.0
 11
103.3446099866556
 21
53.5361509773087
 31
0.0
  0
LINE
  5
B9
  8
LAYER0016
  6
CONTINUOUS
 62
     3
 10
109.3446099866556
 20
54.2861509773087
 30
0.0
 11
109.3446099866556
 21
48.43614497730858
 31
0.0
  0
LINE
  5
BA
  8
LAYER0016
  6
CONTINUOUS
 62
     3
 10
109.7446039866557
 20
-66.9638490226913
 30
0.0
 11
103.9446159866555
 21
-66.9638490226913
 31
0.0
  0
LINE
  5
BB
  8
LAYER0016
  6
CONTINUOUS
 62
     3
 10
109.7446039866557
 20
44.43615097730879
 30
0.0
 11
106.3446099866556
 21
44.43615097730879
 31
0.0
  0
LINE
  5
BC
  8
LAYER0016
  6
CONTINUOUS
 62
     3
 10
103.9446159866555
 20
-69.4638490226913
 30
0.0
 11
103.9446159866555
 21
-65.54431902269118
 31
0.0
  0
LINE
  5
BD
  8
LAYER0016
  6
CONTINUOUS
 62
     3
 10
109.7446039866557
 20
-66.9638490226913
 30
0.0
 11
109.7446039866557
 21
44.43615097730879
 31
0.0
  0
LINE
  5
BE
  8
LAYER0016
  6
CONTINUOUS
 62
     3
 10
103.9446159866555
 20
-69.4638490226913
 30
0.0
 11
27.74460998665556
 21
-69.46384902269129
 31
0.0
  0
LINE
  5
BF
  8
LAYER0016
  6
CONTINUOUS
 62
     3
 10
109.2445969866556
 20
-67.26383902269129
 30
0.0
 11
107.2445959866557
 21
-68.86382902269145
 31
0.0
  0
LINE
  5
C0
  8
LAYER0016
  6
CONTINUOUS
 62
     3
 10
107.2446039866557
 20
-68.8638490226914
 30
0.0
 11
106.2446039866557
 21
-68.8638490226914
 31
0.0
  0
LINE
  5
C1
  8
LAYER0016
  6
CONTINUOUS
 62
     3
 10
106.2446039866557
 20
-68.8638490226914
 30
0.0
 11
106.2446039866557
 21
-67.4638490226913
 31
0.0
  0
LINE
  5
C2
  8
LAYER0016
  6
CONTINUOUS
 62
     3
 10
106.2446039866557
 20
-67.4638490226913
 30
0.0
 11
103.9446159866555
 21
-67.4638490226913
 31
0.0
  0
LINE
  5
C3
  8
LAYER0016
  6
CONTINUOUS
 62
     3
 10
94.24460398665568
 20
60.5361509773087
 30
0.0
 11
94.24460398665568
 21
56.5361509773087
 31
0.0
  0
LINE
  5
C4
  8
LAYER0016
  6
CONTINUOUS
 62
     3
 10
109.2446039866557
 20
-67.26384902269149
 30
0.0
 11
109.2446039866557
 21
-66.9638490226913
 31
0.0
  0
LINE
  5
C5
  8
LAYER0016
  6
CONTINUOUS
 62
     3
 10
94.24460398665568
 20
60.5361509773087
 30
0.0
 11
27.74460998665557
 21
60.53615097730871
 31
0.0
  0
LINE
  5
C6
  8
LAYER0016
  6
CONTINUOUS
 62
     3
 10
27.74460998665556
 20
-68.96384902269129
 30
0.0
 11
26.74460998665556
 21
-68.96384902269129
 31
0.0
  0
LINE
  5
C7
  8
LAYER0016
  6
CONTINUOUS
 62
     3
 10
27.74460998665557
 20
60.03615097730871
 30
0.0
 11
26.74460998665557
 21
60.03615097730871
 31
0.0
  0
LINE
  5
C8
  8
LAYER0016
  6
CONTINUOUS
 62
     3
 10
26.74460998665556
 20
-68.96384902269129
 30
0.0
 11
26.74460998665557
 21
60.03615097730871
 31
0.0
  0
LINE
  5
C9
  8
LAYER0016
  6
CONTINUOUS
 62
     3
 10
101.8446099866556
 20
52.0361509773087
 30
0.0
 11
95.11250898665574
 21
52.0361509773087
 31
0.0
  0
LINE
  5
CA
  8
LAYER0016
  6
CONTINUOUS
 62
     3
 10
109.7446029866556
 20
-64.26384902269149
 30
0.0
 11
105.1236629866555
 21
-64.34450902269134
 31
0.0
  0
LINE
  5
CB
  8
LAYER0016
  6
CONTINUOUS
 62
     3
 10
63.64460498665564
 20
46.62114197730865
 30
0.0
 11
61.69460798665548
 21
46.62114197730865
 31
0.0
  0
LINE
  5
CC
  8
LAYER0016
  6
CONTINUOUS
 62
     3
 10
63.64460498665564
 20
46.62114197730865
 30
0.0
 11
63.64460498665564
 21
47.42114597730859
 31
0.0
  0
LINE
  5
CD
  8
LAYER0016
  6
CONTINUOUS
 62
     3
 10
64.64460498665565
 20
46.62114197730865
 30
0.0
 11
64.64460498665565
 21
47.42114597730859
 31
0.0
  0
LINE
  5
CE
  8
LAYER0016
  6
CONTINUOUS
 62
     3
 10
65.79460698665551
 20
47.42114597730859
 30
0.0
 11
64.64460498665565
 21
47.42114597730859
 31
0.0
  0
LINE
  5
CF
  8
LAYER0016
  6
CONTINUOUS
 62
     3
 10
63.64460498665564
 20
52.73115797730873
 30
0.0
 11
62.49461198665565
 21
52.73115797730873
 31
0.0
  0
LINE
  5
D0
  8
LAYER0016
  6
CONTINUOUS
 62
     3
 10
63.64460498665564
 20
53.53116097730879
 30
0.0
 11
61.69460798665548
 21
53.53116097730879
 31
0.0
  0
LINE
  5
D1
  8
LAYER0016
  6
CONTINUOUS
 62
     3
 10
66.59460998665557
 20
53.53116097730879
 30
0.0
 11
66.59460998665557
 21
46.62114197730865
 31
0.0
  0
LINE
  5
D2
  8
LAYER0016
  6
CONTINUOUS
 62
     3
 10
61.69460798665548
 20
53.53116097730879
 30
0.0
 11
61.69460798665548
 21
46.62114197730865
 31
0.0
  0
LINE
  5
D3
  8
LAYER0016
  6
CONTINUOUS
 62
     3
 10
65.79460698665551
 20
52.73115797730873
 30
0.0
 11
65.79460698665551
 21
47.42114597730859
 31
0.0
  0
LINE
  5
D4
  8
LAYER0016
  6
CONTINUOUS
 62
     3
 10
62.49461198665565
 20
52.73115797730873
 30
0.0
 11
62.49461198665565
 21
47.42114597730859
 31
0.0
  0
LINE
  5
D5
  8
LAYER0016
  6
CONTINUOUS
 62
     3
 10
64.64460498665565
 20
53.53116097730879
 30
0.0
 11
64.64460498665565
 21
52.73115797730873
 31
0.0
  0
LINE
  5
D6
  8
LAYER0016
  6
CONTINUOUS
 62
     3
 10
63.64460498665564
 20
53.53116097730879
 30
0.0
 11
63.64460498665564
 21
52.73115797730873
 31
0.0
  0
LINE
  5
D7
  8
LAYER0016
  6
CONTINUOUS
 62
     3
 10
66.59460998665557
 20
53.53116097730879
 30
0.0
 11
64.64460498665565
 21
53.53116097730879
 31
0.0
  0
LINE
  5
D8
  8
LAYER0016
  6
CONTINUOUS
 62
     3
 10
66.59460998665557
 20
46.62114197730865
 30
0.0
 11
64.64460498665565
 21
46.62114197730865
 31
0.0
  0
LINE
  5
D9
  8
LAYER0016
  6
CONTINUOUS
 62
     3
 10
65.79460698665551
 20
52.73115797730873
 30
0.0
 11
64.64460498665565
 21
52.73115797730873
 31
0.0
  0
LINE
  5
DA
  8
LAYER0016
  6
CONTINUOUS
 62
     3
 10
74.04460698665551
 20
41.54115097730881
 30
0.0
 11
72.09460998665557
 21
41.54115097730881
 31
0.0
  0
LINE
  5
DB
  8
LAYER0016
  6
CONTINUOUS
 62
     3
 10
74.04460698665551
 20
42.34114097730879
 30
0.0
 11
72.89461298665563
 21
42.34114097730879
 31
0.0
  0
LINE
  5
DC
  8
LAYER0016
  6
CONTINUOUS
 62
     3
 10
74.04460698665551
 20
42.34114097730879
 30
0.0
 11
74.04460698665551
 21
41.54115097730881
 31
0.0
  0
LINE
  5
DD
  8
LAYER0016
  6
CONTINUOUS
 62
     3
 10
75.04460698665551
 20
42.34114097730879
 30
0.0
 11
75.04460698665551
 21
41.54115097730881
 31
0.0
  0
LINE
  5
DE
  8
LAYER0016
  6
CONTINUOUS
 62
     3
 10
74.04460698665551
 20
52.73115797730873
 30
0.0
 11
72.89461298665563
 21
52.73115797730873
 31
0.0
  0
LINE
  5
DF
  8
LAYER0016
  6
CONTINUOUS
 62
     3
 10
74.04460698665551
 20
53.53116097730879
 30
0.0
 11
72.09460998665557
 21
53.53116097730879
 31
0.0
  0
LINE
  5
E0
  8
LAYER0016
  6
CONTINUOUS
 62
     3
 10
76.99460398665568
 20
53.53116097730879
 30
0.0
 11
76.99460398665568
 21
41.54115097730881
 31
0.0
  0
LINE
  5
E1
  8
LAYER0016
  6
CONTINUOUS
 62
     3
 10
72.09460998665557
 20
53.53116097730879
 30
0.0
 11
72.09460998665557
 21
41.54115097730881
 31
0.0
  0
LINE
  5
E2
  8
LAYER0016
  6
CONTINUOUS
 62
     3
 10
76.19461598665546
 20
52.73115797730873
 30
0.0
 11
76.19461598665546
 21
42.34114097730879
 31
0.0
  0
LINE
  5
E3
  8
LAYER0016
  6
CONTINUOUS
 62
     3
 10
72.89461298665563
 20
52.73115797730873
 30
0.0
 11
72.89461298665563
 21
42.34114097730879
 31
0.0
  0
LINE
  5
E4
  8
LAYER0016
  6
CONTINUOUS
 62
     3
 10
75.04460698665551
 20
53.53116097730879
 30
0.0
 11
75.04460698665551
 21
52.73115797730873
 31
0.0
  0
LINE
  5
E5
  8
LAYER0016
  6
CONTINUOUS
 62
     3
 10
74.04460698665551
 20
53.53116097730879
 30
0.0
 11
74.04460698665551
 21
52.73115797730873
 31
0.0
  0
LINE
  5
E6
  8
LAYER0016
  6
CONTINUOUS
 62
     3
 10
76.99460398665568
 20
53.53116097730879
 30
0.0
 11
75.04460698665551
 21
53.53116097730879
 31
0.0
  0
LINE
  5
E7
  8
LAYER0016
  6
CONTINUOUS
 62
     3
 10
76.99460398665568
 20
41.54115097730881
 30
0.0
 11
75.04460698665551
 21
41.54115097730881
 31
0.0
  0
LINE
  5
E8
  8
LAYER0016
  6
CONTINUOUS
 62
     3
 10
76.19461598665546
 20
42.34114097730879
 30
0.0
 11
75.04460698665551
 21
42.34114097730879
 31
0.0
  0
LINE
  5
E9
  8
LAYER0016
  6
CONTINUOUS
 62
     3
 10
76.19461598665546
 20
52.73115797730873
 30
0.0
 11
75.04460698665551
 21
52.73115797730873
 31
0.0
  0
LINE
  5
EA
  8
LAYER0016
  6
CONTINUOUS
 62
     3
 10
84.44461598665546
 20
41.54115097730881
 30
0.0
 11
82.49460398665568
 21
41.54115097730881
 31
0.0
  0
LINE
  5
EB
  8
LAYER0016
  6
CONTINUOUS
 62
     3
 10
84.44461598665546
 20
42.34114097730879
 30
0.0
 11
83.29460698665551
 21
42.34114097730879
 31
0.0
  0
LINE
  5
EC
  8
LAYER0016
  6
CONTINUOUS
 62
     3
 10
84.44461598665546
 20
42.34114097730879
 30
0.0
 11
84.44461598665546
 21
41.54115097730881
 31
0.0
  0
LINE
  5
ED
  8
LAYER0016
  6
CONTINUOUS
 62
     3
 10
85.44461598665546
 20
42.34114097730879
 30
0.0
 11
85.44461598665546
 21
41.54115097730881
 31
0.0
  0
LINE
  5
EE
  8
LAYER0016
  6
CONTINUOUS
 62
     3
 10
84.44461598665546
 20
52.73115797730873
 30
0.0
 11
83.29460698665551
 21
52.73115797730873
 31
0.0
  0
LINE
  5
EF
  8
LAYER0016
  6
CONTINUOUS
 62
     3
 10
84.44461598665546
 20
53.53116097730879
 30
0.0
 11
82.49460398665568
 21
53.53116097730879
 31
0.0
  0
LINE
  5
F0
  8
LAYER0016
  6
CONTINUOUS
 62
     3
 10
87.39461298665563
 20
53.53116097730879
 30
0.0
 11
87.39461298665563
 21
41.54115097730881
 31
0.0
  0
LINE
  5
F1
  8
LAYER0016
  6
CONTINUOUS
 62
     3
 10
82.49460398665568
 20
53.53116097730879
 30
0.0
 11
82.49460398665568
 21
41.54115097730881
 31
0.0
  0
LINE
  5
F2
  8
LAYER0016
  6
CONTINUOUS
 62
     3
 10
86.59460998665557
 20
52.73115797730873
 30
0.0
 11
86.59460998665557
 21
42.34114097730879
 31
0.0
  0
LINE
  5
F3
  8
LAYER0016
  6
CONTINUOUS
 62
     3
 10
83.29460698665551
 20
52.73115797730873
 30
0.0
 11
83.29460698665551
 21
42.34114097730879
 31
0.0
  0
LINE
  5
F4
  8
LAYER0016
  6
CONTINUOUS
 62
     3
 10
85.44461598665546
 20
53.53116097730879
 30
0.0
 11
85.44461598665546
 21
52.73115797730873
 31
0.0
  0
LINE
  5
F5
  8
LAYER0016
  6
CONTINUOUS
 62
     3
 10
84.44461598665546
 20
53.53116097730879
 30
0.0
 11
84.44461598665546
 21
52.73115797730873
 31
0.0
  0
LINE
  5
F6
  8
LAYER0016
  6
CONTINUOUS
 62
     3
 10
87.39461298665563
 20
53.53116097730879
 30
0.0
 11
85.44461598665546
 21
53.53116097730879
 31
0.0
  0
LINE
  5
F7
  8
LAYER0016
  6
CONTINUOUS
 62
     3
 10
87.39461298665563
 20
41.54115097730881
 30
0.0
 11
85.44461598665546
 21
41.54115097730881
 31
0.0
  0
LINE
  5
F8
  8
LAYER0016
  6
CONTINUOUS
 62
     3
 10
86.59460998665557
 20
42.34114097730879
 30
0.0
 11
85.44461598665546
 21
42.34114097730879
 31
0.0
  0
LINE
  5
F9
  8
LAYER0016
  6
CONTINUOUS
 62
     3
 10
86.59460998665557
 20
52.73115797730873
 30
0.0
 11
85.44461598665546
 21
52.73115797730873
 31
0.0
  0
LINE
  5
FA
  8
LAYER0016
  6
CONTINUOUS
 62
     3
 10
63.64460498665564
 20
47.42114597730859
 30
0.0
 11
62.49461198665565
 21
47.42114597730859
 31
0.0
  0
LINE
  5
FB
  8
LAYER0016
  6
CONTINUOUS
 62
     3
 10
104.8446099866556
 20
54.2861509773087
 30
0.0
 11
104.8446099866556
 21
53.5361509773087
 31
0.0
  0
LINE
  5
FC
  8
LAYER0016
  6
CONTINUOUS
 62
     3
 10
104.3446099866556
 20
44.60259097730876
 30
0.0
 11
104.3446099866556
 21
45.55746797730865
 31
0.0
  0
LINE
  5
FD
  8
LAYER0016
  6
CONTINUOUS
 62
     3
 10
107.8446099866556
 20
54.2861509773087
 30
0.0
 11
107.8446099866556
 21
49.05746797730865
 31
0.0
  0
LINE
  5
FE
  8
LAYER0016
  6
CONTINUOUS
 62
     3
 10
107.8446089866555
 20
49.05745997730867
 30
0.0
 11
104.3446059866556
 21
45.55745997730867
 31
0.0
  0
LINE
  5
FF
  8
LAYER0016
  6
CONTINUOUS
 62
     3
 10
101.8446099866556
 20
50.5361509773087
 30
0.0
 11
95.8369959866557
 21
50.5361509773087
 31
0.0
  0
ARC
  5
100
  8
LAYER0016
  6
CONTINUOUS
 62
     3
 10
106.3446099866556
 20
54.2861509773087
 30
0.0
 40
3.0
 50
0.0
 51
180.0
  0
ARC
  5
101
  8
LAYER0016
  6
CONTINUOUS
 62
     3
 10
106.3446099866556
 20
56.5361509773087
 30
0.0
 40
12.1
 50
180.0
 51
270.03218
  0
ARC
  5
102
  8
LAYER0016
  6
CONTINUOUS
 62
     3
 10
105.1446129866556
 20
-65.54431902269118
 30
0.0
 40
1.2
 50
90.99999329000002
 51
180.0
  0
ARC
  5
103
  8
LAYER0016
  6
CONTINUOUS
 62
     3
 10
101.8446099866556
 20
53.5361509773087
 30
0.0
 40
1.5
 50
270.0
 51
0.0
  0
ARC
  5
104
  8
LAYER0016
  6
CONTINUOUS
 62
     3
 10
106.3446099866556
 20
54.2861509773087
 30
0.0
 40
1.5
 50
0.0
 51
180.0
  0
ARC
  5
105
  8
LAYER0016
  6
CONTINUOUS
 62
     3
 10
101.8446099866556
 20
53.5361509773087
 30
0.0
 40
3.0
 50
270.0
 51
0.0
  0
LINE
  5
106
  8
LAYER0016
  6
CONTINUOUS
 62
     3
 10
26.74460998665556
 20
-68.96384902269129
 30
0.0
 11
26.74460998665556
 21
-68.71384902269129
 31
0.0
  0
LINE
  5
107
  8
LAYER0016
  6
CONTINUOUS
 62
     3
 10
26.74460998665557
 20
59.78615097730871
 30
0.0
 11
26.74460998665557
 21
60.03615097730871
 31
0.0
  0
LINE
  5
108
  8
LAYER0064
  6
CONTINUOUS
 62
     3
 10
-54.12092217598148
 20
60.53615597730881
 30
0.0
 11
-81.02092316598144
 21
60.53615597730881
 31
0.0
  0
LINE
  5
109
  8
LAYER0064
  6
CONTINUOUS
 62
     3
 10
-54.12092217598148
 20
-69.46384402269119
 30
0.0
 11
-81.02092316598144
 21
-69.46384402269119
 31
0.0
  0
LINE
  5
10A
  8
LAYER0064
  6
CONTINUOUS
 62
     3
 10
-81.3209231759814
 20
60.23615597730863
 30
0.0
 11
-81.3209231759814
 21
-69.16385402269121
 31
0.0
  0
LINE
  5
10B
  8
LAYER0064
  6
CONTINUOUS
 62
     3
 10
-53.82092317598141
 20
-69.16385402269121
 30
0.0
 11
-53.82092317598141
 21
60.23615597730863
 31
0.0
  0
LINE
  5
10C
  8
LAYER0064
  6
CONTINUOUS
 62
     3
 10
-73.47965124885933
 20
60.53615597730881
 30
0.0
 11
-73.47965124885933
 21
52.5821902129061
 31
0.0
  0
LINE
  5
10D
  8
LAYER0064
  6
CONTINUOUS
 62
     3
 10
-72.0209239759814
 20
54.53615597730881
 30
0.0
 11
-72.0209239759814
 21
53.53615597730881
 31
0.0
  0
LINE
  5
10E
  8
LAYER0064
  6
CONTINUOUS
 62
     3
 10
-65.8209231759814
 20
54.53615597730881
 30
0.0
 11
-65.8209231759814
 21
53.53615597730881
 31
0.0
  0
LINE
  5
10F
  8
LAYER0064
  6
CONTINUOUS
 62
     3
 10
-68.02092317598145
 20
54.53615597730881
 30
0.0
 11
-68.02092317598145
 21
53.53615597730881
 31
0.0
  0
LINE
  5
110
  8
LAYER0064
  6
CONTINUOUS
 62
     3
 10
-69.8209231759814
 20
54.53615597730881
 30
0.0
 11
-69.8209231759814
 21
53.53615597730881
 31
0.0
  0
ARC
  5
111
  8
LAYER0064
  6
CONTINUOUS
 62
     3
 10
-54.12092217598148
 20
-69.16385402269121
 30
0.0
 40
0.30000001
 50
270.0
 51
0.0
  0
ARC
  5
112
  8
LAYER0064
  6
CONTINUOUS
 62
     3
 10
-81.02092316598144
 20
-69.16385402269121
 30
0.0
 40
0.30000001
 50
180.0
 51
270.0
  0
ARC
  5
113
  8
LAYER0064
  6
CONTINUOUS
 62
     3
 10
-54.12092217598148
 20
60.23615597730863
 30
0.0
 40
0.30000001
 50
0.0
 51
90.00000000000001
  0
ARC
  5
114
  8
LAYER0064
  6
CONTINUOUS
 62
     3
 10
-81.02092316598144
 20
60.23615597730863
 30
0.0
 40
0.30000001
 50
90.00000000000001
 51
180.0
  0
LINE
  5
115
  8
LAYER0064
  6
CONTINUOUS
 62
     3
 10
-54.12092317598147
 20
51.63615597730872
 30
0.0
 11
-73.7209231759815
 21
51.63615597730872
 31
0.0
  0
LINE
  5
116
  8
LAYER0064
  6
CONTINUOUS
 62
     3
 10
-54.12092317598147
 20
52.28219021290637
 30
0.0
 11
-73.17965124885937
 21
52.28219021290637
 31
0.0
  0
ARC
  5
117
  8
LAYER0064
  6
CONTINUOUS
 62
     3
 10
-54.12092317598147
 20
51.9361559773089
 30
0.0
 40
0.3
 50
270.0
 51
0.0
  0
ARC
  5
118
  8
LAYER0064
  6
CONTINUOUS
 62
     3
 10
-54.12092317598147
 20
52.5821902129061
 30
0.0
 40
0.3
 50
270.0
 51
0.0
  0
ARC
  5
119
  8
LAYER0064
  6
CONTINUOUS
 62
     3
 10
-73.17965124885937
 20
52.5821902129061
 30
0.0
 40
0.3
 50
180.0
 51
270.0
  0
LINE
  5
11A
  8
LAYER0064
  6
CONTINUOUS
 62
     3
 10
-72.0209239759814
 20
53.53615597730881
 30
0.0
 11
-69.8209231759814
 21
53.53615597730881
 31
0.0
  0
LINE
  5
11B
  8
LAYER0064
  6
CONTINUOUS
 62
     3
 10
-68.02092317598145
 20
53.53615597730881
 30
0.0
 11
-65.8209231759814
 21
53.53615597730881
 31
0.0
  0
LINE
  5
11C
  8
LAYER0064
  6
CONTINUOUS
 62
     3
 10
-72.0209239759814
 20
54.53615597730881
 30
0.0
 11
-69.8209231759814
 21
54.53615597730881
 31
0.0
  0
LINE
  5
11D
  8
LAYER0064
  6
CONTINUOUS
 62
     3
 10
-68.02092317598145
 20
54.53615597730881
 30
0.0
 11
-65.8209231759814
 21
54.53615597730881
 31
0.0
  0
LINE
  5
11E
  8
LAYER0064
  6
CONTINUOUS
 62
     3
 10
-81.3209231759814
 20
49.83615597730899
 30
0.0
 11
-74.3209231759814
 21
49.83615597730899
 31
0.0
  0
LINE
  5
11F
  8
LAYER0064
  6
CONTINUOUS
 62
     3
 10
-74.02092317598145
 20
50.13615597730872
 30
0.0
 11
-74.02092317598145
 21
60.53615597730881
 31
0.0
  0
ARC
  5
120
  8
LAYER0064
  6
CONTINUOUS
 62
     3
 10
-73.7209231759815
 20
51.9361559773089
 30
0.0
 40
0.3
 50
180.0
 51
270.0
  0
ARC
  5
121
  8
LAYER0064
  6
CONTINUOUS
 62
     3
 10
-74.3209231759814
 20
50.13615597730872
 30
0.0
 40
0.3
 50
270.0
 51
0.0
  0
ARC
  5
122
  8
LAYER0064
  6
CONTINUOUS
 62
     3
 10
-73.7209231759815
 20
51.33615597730899
 30
0.0
 40
0.3
 50
90.00000000000001
 51
180.0
  0
LINE
  5
123
  8
LAYER0064
  6
CONTINUOUS
 62
     3
 10
-74.06536517598146
 20
59.53615597730881
 30
0.0
 11
-81.3209231759814
 21
59.53615597730881
 31
0.0
  0
LINE
  5
124
  8
LAYER0064
  6
CONTINUOUS
 62
     3
 10
26.74460998665556
 20
60.53615097730871
 30
0.0
 11
26.74460998665556
 21
-69.46384902269129
 31
0.0
  0
LINE
  5
125
  8
LAYER0064
  6
CONTINUOUS
 62
     3
 10
21.44460698665562
 20
-69.46384902269129
 30
0.0
 11
26.74460998665556
 21
-69.46384902269129
 31
0.0
  0
LINE
  5
126
  8
LAYER0064
  6
CONTINUOUS
 62
     3
 10
2.74460998665561
 20
60.53615097730871
 30
0.0
 11
26.74460998665556
 21
60.53615097730871
 31
0.0
  0
LINE
  5
127
  8
LAYER0064
  6
CONTINUOUS
 62
     3
 10
19.44460998665561
 20
51.63615097730897
 30
0.0
 11
19.44460998665561
 21
-67.46384902269129
 31
0.0
  0
LINE
  5
128
  8
LAYER0064
  6
CONTINUOUS
 62
     3
 10
0.7446099866556102
 20
58.53615097730871
 30
0.0
 11
0.7446099866556102
 21
52.57189184534799
 31
0.0
  0
LINE
  5
129
  8
LAYER0064
  6
CONTINUOUS
 62
     3
 10
24.29461298665563
 20
-46.46384902269129
 30
0.0
 11
24.29461298665563
 21
-56.46384902269129
 31
0.0
  0
LINE
  5
12A
  8
LAYER0064
  6
CONTINUOUS
 62
     3
 10
21.89461198665554
 20
-46.46384902269129
 30
0.0
 11
21.89461198665554
 21
-56.46384902269129
 31
0.0
  0
LINE
  5
12B
  8
LAYER0064
  6
CONTINUOUS
 62
     3
 10
24.29461298665563
 20
52.53615097730871
 30
0.0
 11
24.29461298665563
 21
42.53615097730871
 31
0.0
  0
LINE
  5
12C
  8
LAYER0064
  6
CONTINUOUS
 62
     3
 10
21.89461198665554
 20
52.53615097730871
 30
0.0
 11
21.89461198665554
 21
42.53615097730871
 31
0.0
  0
LINE
  5
12D
  8
LAYER0064
  6
CONTINUOUS
 62
     3
 10
24.29461298665563
 20
42.53615097730871
 30
0.0
 11
21.89461198665554
 21
42.53615097730871
 31
0.0
  0
LINE
  5
12E
  8
LAYER0064
  6
CONTINUOUS
 62
     3
 10
24.29461298665563
 20
52.53615097730871
 30
0.0
 11
21.89461198665554
 21
52.53615097730871
 31
0.0
  0
LINE
  5
12F
  8
LAYER0064
  6
CONTINUOUS
 62
     3
 10
24.29461298665563
 20
-46.46384902269129
 30
0.0
 11
21.89461198665554
 21
-46.46384902269129
 31
0.0
  0
LINE
  5
130
  8
LAYER0064
  6
CONTINUOUS
 62
     3
 10
24.29461298665563
 20
-56.46384902269129
 30
0.0
 11
21.89461198665554
 21
-56.46384902269129
 31
0.0
  0
ARC
  5
131
  8
LAYER0064
  6
CONTINUOUS
 62
     3
 10
21.44460698665562
 20
-67.46384902269129
 30
0.0
 40
2.0
 50
180.0
 51
270.0
  0
ARC
  5
132
  8
LAYER0064
  6
CONTINUOUS
 62
     3
 10
2.74460998665561
 20
58.53615097730871
 30
0.0
 40
2.0
 50
90.00000000000001
 51
180.0
  0
ARC
  5
133
  8
LAYER0064
  6
CONTINUOUS
 62
     3
 10
1.044609986656019
 20
52.57189184534799
 30
0.0
 40
0.3
 50
180.0
 51
267.9999999999789
  0
LINE
  5
134
  8
LAYER0064
  6
CONTINUOUS
 62
     3
 10
19.44460998665561
 20
51.63615097730897
 30
0.0
 11
1.034140137645159
 21
52.27207459724231
 31
0.0
  0
LINE
  5
135
  8
0
  6
CONTINUOUS
 62
     7
 10
19.44460998665561
 20
43.83615097730871
 30
0.0
 11
1.844612986655473
 21
43.83615097730871
 31
0.0
  0
LINE
  5
136
  8
0
  6
CONTINUOUS
 62
     7
 10
19.44460998665561
 20
13.8361509773087
 30
0.0
 11
1.844612986655473
 21
13.8361509773087
 31
0.0
  0
LINE
  5
137
  8
0
  6
CONTINUOUS
 62
     7
 10
1.844612986655473
 20
43.83615097730871
 30
0.0
 11
1.844612986655473
 21
13.8361509773087
 31
0.0
  0
LINE
  5
138
  8
0
  6
CONTINUOUS
 62
     7
 10
19.44460998665561
 20
5.536150977308708
 30
0.0
 11
1.844612986655473
 21
5.536150977308708
 31
0.0
  0
LINE
  5
139
  8
0
  6
CONTINUOUS
 62
     7
 10
19.44460998665561
 20
-24.4638490226913
 30
0.0
 11
1.844612986655473
 21
-24.4638490226913
 31
0.0
  0
LINE
  5
13A
  8
0
  6
CONTINUOUS
 62
     7
 10
1.844612986655473
 20
5.536150977308708
 30
0.0
 11
1.844612986655473
 21
-24.4638490226913
 31
0.0
  0
LINE
  5
13B
  8
0
  6
CONTINUOUS
 62
     7
 10
19.44460998665561
 20
-34.21384902269125
 30
0.0
 11
10.84461298665546
 21
-34.21384902269124
 31
0.0
  0
LINE
  5
13C
  8
0
  6
CONTINUOUS
 62
     7
 10
19.4446099866556
 20
-62.21384902269125
 30
0.0
 11
10.84461298665546
 21
-62.21384902269124
 31
0.0
  0
LINE
  5
13D
  8
0
  6
CONTINUOUS
 62
     7
 10
10.84461298665546
 20
-34.21384902269124
 30
0.0
 11
10.84461298665546
 21
-62.21384902269124
 31
0.0
  0
LINE
  5
13E
  8
0
  6
CONTINUOUS
 62
     7
 10
-75.70183657598213
 20
43.83615097730871
 30
0.0
 11
-60.70183657598211
 21
43.83615097730871
 31
0.0
  0
LINE
  5
13F
  8
0
  6
CONTINUOUS
 62
     7
 10
-60.70183657598211
 20
13.8361509773087
 30
0.0
 11
-75.70183657598213
 21
13.8361509773087
 31
0.0
  0
LINE
  5
140
  8
0
  6
CONTINUOUS
 62
     7
 10
-75.70183657598213
 20
13.8361509773087
 30
0.0
 11
-75.70183657598213
 21
43.83615097730871
 31
0.0
  0
LINE
  5
141
  8
0
  6
CONTINUOUS
 62
     7
 10
-60.70183657598211
 20
43.83615097730871
 30
0.0
 11
-60.70183657598211
 21
13.8361509773087
 31
0.0
  0
LINE
  5
142
  8
0
  6
CONTINUOUS
 62
     7
 10
-75.70183657598213
 20
5.536150977308711
 30
0.0
 11
-60.7018365759821
 21
5.536150977308711
 31
0.0
  0
LINE
  5
143
  8
0
  6
CONTINUOUS
 62
     7
 10
-60.7018365759821
 20
-24.4638490226913
 30
0.0
 11
-75.70183657598213
 21
-24.4638490226913
 31
0.0
  0
LINE
  5
144
  8
0
  6
CONTINUOUS
 62
     7
 10
-75.70183657598213
 20
-24.4638490226913
 30
0.0
 11
-75.70183657598213
 21
5.536150977308711
 31
0.0
  0
LINE
  5
145
  8
0
  6
CONTINUOUS
 62
     7
 10
-60.7018365759821
 20
5.536150977308711
 30
0.0
 11
-60.7018365759821
 21
-24.4638490226913
 31
0.0
  0
LINE
  5
146
  8
0
  6
CONTINUOUS
 62
     7
 10
-75.70183657598213
 20
-34.21384902269125
 30
0.0
 11
-60.7018365759821
 21
-34.21384902269125
 31
0.0
  0
LINE
  5
147
  8
0
  6
CONTINUOUS
 62
     7
 10
-60.7018365759821
 20
-62.21384902269125
 30
0.0
 11
-75.70183657598213
 21
-62.21384902269125
 31
0.0
  0
LINE
  5
148
  8
0
  6
CONTINUOUS
 62
     7
 10
-75.70183657598213
 20
-62.21384902269125
 30
0.0
 11
-75.70183657598213
 21
-34.21384902269125
 31
0.0
  0
LINE
  5
149
  8
0
  6
CONTINUOUS
 62
     7
 10
-60.7018365759821
 20
-34.21384902269125
 30
0.0
 11
-60.7018365759821
 21
-62.21384902269125
 31
0.0
  0
TEXT
  5
14B
  8
LAYER0240
 62
     7
 10
121.774650594346
 20
-96.94476943533901
 30
0.0
 40
6.0
  1
000
 41
0.7689423076923089
  7
DCSTYLE0
 72
     5
 11
130.774650594346
 21
-96.94476943533901
 31
0.0
  0
LINE
  5
14C
  8
LAYER0240
  6
CONTINUOUS
 62
     7
 10
12.84461298665546
 20
-34.21384902269124
 30
0.0
 11
12.84461298665546
 21
-62.21384902269124
 31
0.0
  0
LINE
  5
14D
  8
LAYER0240
  6
CONTINUOUS
 62
     7
 10
6.844612986655472
 20
43.83615097730871
 30
0.0
 11
6.844612986655473
 21
13.8361509773087
 31
0.0
  0
LINE
  5
14E
  8
LAYER0240
  6
CONTINUOUS
 62
     7
 10
6.844612986655474
 20
5.536150977308708
 30
0.0
 11
6.844612986655476
 21
-24.46384902269129
 31
0.0
  0
LINE
  5
14F
  8
LAYER0240
  6
CONTINUOUS
 62
     7
 10
7.844612986655472
 20
34.83615097730871
 30
0.0
 11
8.844612986655472
 21
34.83615097730871
 31
0.0
  0
LINE
  5
150
  8
LAYER0240
  6
CONTINUOUS
 62
     7
 10
8.844612986655472
 20
37.83615097730871
 30
0.0
 11
7.844612986655472
 21
37.83615097730871
 31
0.0
  0
LINE
  5
151
  8
LAYER0240
  6
CONTINUOUS
 62
     7
 10
7.844612986655472
 20
37.83615097730871
 30
0.0
 11
7.844612986655472
 21
34.83615097730871
 31
0.0
  0
LINE
  5
152
  8
LAYER0240
  6
CONTINUOUS
 62
     7
 10
8.844612986655472
 20
34.83615097730871
 30
0.0
 11
8.844612986655472
 21
37.83615097730871
 31
0.0
  0
LINE
  5
153
  8
LAYER0240
  6
CONTINUOUS
 62
     7
 10
7.844612986655472
 20
29.83615097730871
 30
0.0
 11
8.844612986655472
 21
29.83615097730871
 31
0.0
  0
LINE
  5
154
  8
LAYER0240
  6
CONTINUOUS
 62
     7
 10
8.844612986655472
 20
32.83615097730871
 30
0.0
 11
7.844612986655472
 21
32.83615097730871
 31
0.0
  0
LINE
  5
155
  8
LAYER0240
  6
CONTINUOUS
 62
     7
 10
7.844612986655472
 20
32.83615097730871
 30
0.0
 11
7.844612986655472
 21
29.83615097730871
 31
0.0
  0
LINE
  5
156
  8
LAYER0240
  6
CONTINUOUS
 62
     7
 10
8.844612986655472
 20
29.83615097730871
 30
0.0
 11
8.844612986655472
 21
32.83615097730871
 31
0.0
  0
LINE
  5
157
  8
LAYER0240
  6
CONTINUOUS
 62
     7
 10
7.844612986655472
 20
24.83615097730871
 30
0.0
 11
8.844612986655472
 21
24.83615097730871
 31
0.0
  0
LINE
  5
158
  8
LAYER0240
  6
CONTINUOUS
 62
     7
 10
8.844612986655472
 20
27.83615097730871
 30
0.0
 11
7.844612986655472
 21
27.83615097730871
 31
0.0
  0
LINE
  5
159
  8
LAYER0240
  6
CONTINUOUS
 62
     7
 10
7.844612986655472
 20
27.83615097730871
 30
0.0
 11
7.844612986655472
 21
24.83615097730871
 31
0.0
  0
LINE
  5
15A
  8
LAYER0240
  6
CONTINUOUS
 62
     7
 10
8.844612986655472
 20
24.83615097730871
 30
0.0
 11
8.844612986655472
 21
27.83615097730871
 31
0.0
  0
LINE
  5
15B
  8
LAYER0240
  6
CONTINUOUS
 62
     7
 10
7.844612986655472
 20
19.83615097730871
 30
0.0
 11
8.844612986655472
 21
19.83615097730871
 31
0.0
  0
LINE
  5
15C
  8
LAYER0240
  6
CONTINUOUS
 62
     7
 10
8.844612986655472
 20
22.83615097730871
 30
0.0
 11
7.844612986655472
 21
22.83615097730871
 31
0.0
  0
LINE
  5
15D
  8
LAYER0240
  6
CONTINUOUS
 62
     7
 10
7.844612986655472
 20
22.83615097730871
 30
0.0
 11
7.844612986655472
 21
19.83615097730871
 31
0.0
  0
LINE
  5
15E
  8
LAYER0240
  6
CONTINUOUS
 62
     7
 10
8.844612986655472
 20
19.83615097730871
 30
0.0
 11
8.844612986655472
 21
22.83615097730871
 31
0.0
  0
LINE
  5
15F
  8
LAYER0240
  6
CONTINUOUS
 62
     7
 10
7.844612986655472
 20
39.83615097730871
 30
0.0
 11
8.844612986655472
 21
39.83615097730871
 31
0.0
  0
LINE
  5
160
  8
LAYER0240
  6
CONTINUOUS
 62
     7
 10
8.844612986655472
 20
42.83615097730871
 30
0.0
 11
7.844612986655472
 21
42.83615097730871
 31
0.0
  0
LINE
  5
161
  8
LAYER0240
  6
CONTINUOUS
 62
     7
 10
7.844612986655472
 20
42.83615097730871
 30
0.0
 11
7.844612986655472
 21
39.83615097730871
 31
0.0
  0
LINE
  5
162
  8
LAYER0240
  6
CONTINUOUS
 62
     7
 10
8.844612986655472
 20
39.83615097730871
 30
0.0
 11
8.844612986655472
 21
42.83615097730871
 31
0.0
  0
LINE
  5
163
  8
LAYER0240
  6
CONTINUOUS
 62
     7
 10
7.844612986655472
 20
14.83615097730871
 30
0.0
 11
8.844612986655472
 21
14.83615097730871
 31
0.0
  0
LINE
  5
164
  8
LAYER0240
  6
CONTINUOUS
 62
     7
 10
8.844612986655472
 20
17.83615097730871
 30
0.0
 11
7.844612986655472
 21
17.83615097730871
 31
0.0
  0
LINE
  5
165
  8
LAYER0240
  6
CONTINUOUS
 62
     7
 10
7.844612986655472
 20
17.83615097730871
 30
0.0
 11
7.844612986655472
 21
14.83615097730871
 31
0.0
  0
LINE
  5
166
  8
LAYER0240
  6
CONTINUOUS
 62
     7
 10
8.844612986655472
 20
14.83615097730871
 30
0.0
 11
8.844612986655472
 21
17.83615097730871
 31
0.0
  0
LINE
  5
167
  8
LAYER0240
  6
CONTINUOUS
 62
     7
 10
7.844612986655474
 20
-3.463849022691292
 30
0.0
 11
8.844612986655473
 21
-3.463849022691292
 31
0.0
  0
LINE
  5
168
  8
LAYER0240
  6
CONTINUOUS
 62
     7
 10
8.844612986655473
 20
-0.4638490226912921
 30
0.0
 11
7.844612986655474
 21
-0.4638490226912921
 31
0.0
  0
LINE
  5
169
  8
LAYER0240
  6
CONTINUOUS
 62
     7
 10
7.844612986655474
 20
-0.4638490226912921
 30
0.0
 11
7.844612986655474
 21
-3.463849022691292
 31
0.0
  0
LINE
  5
16A
  8
LAYER0240
  6
CONTINUOUS
 62
     7
 10
8.844612986655473
 20
-3.463849022691292
 30
0.0
 11
8.844612986655473
 21
-0.4638490226912921
 31
0.0
  0
LINE
  5
16B
  8
LAYER0240
  6
CONTINUOUS
 62
     7
 10
7.844612986655474
 20
-8.463849022691292
 30
0.0
 11
8.844612986655473
 21
-8.463849022691292
 31
0.0
  0
LINE
  5
16C
  8
LAYER0240
  6
CONTINUOUS
 62
     7
 10
8.844612986655473
 20
-5.463849022691292
 30
0.0
 11
7.844612986655474
 21
-5.463849022691292
 31
0.0
  0
LINE
  5
16D
  8
LAYER0240
  6
CONTINUOUS
 62
     7
 10
7.844612986655474
 20
-5.463849022691292
 30
0.0
 11
7.844612986655474
 21
-8.463849022691292
 31
0.0
  0
LINE
  5
16E
  8
LAYER0240
  6
CONTINUOUS
 62
     7
 10
8.844612986655473
 20
-8.463849022691292
 30
0.0
 11
8.844612986655473
 21
-5.463849022691292
 31
0.0
  0
LINE
  5
16F
  8
LAYER0240
  6
CONTINUOUS
 62
     7
 10
7.844612986655474
 20
-13.46384902269129
 30
0.0
 11
8.844612986655473
 21
-13.46384902269129
 31
0.0
  0
LINE
  5
170
  8
LAYER0240
  6
CONTINUOUS
 62
     7
 10
8.844612986655473
 20
-10.46384902269129
 30
0.0
 11
7.844612986655474
 21
-10.46384902269129
 31
0.0
  0
LINE
  5
171
  8
LAYER0240
  6
CONTINUOUS
 62
     7
 10
7.844612986655474
 20
-10.46384902269129
 30
0.0
 11
7.844612986655474
 21
-13.46384902269129
 31
0.0
  0
LINE
  5
172
  8
LAYER0240
  6
CONTINUOUS
 62
     7
 10
8.844612986655473
 20
-13.46384902269129
 30
0.0
 11
8.844612986655473
 21
-10.46384902269129
 31
0.0
  0
LINE
  5
173
  8
LAYER0240
  6
CONTINUOUS
 62
     7
 10
7.844612986655474
 20
-18.46384902269129
 30
0.0
 11
8.844612986655473
 21
-18.46384902269129
 31
0.0
  0
LINE
  5
174
  8
LAYER0240
  6
CONTINUOUS
 62
     7
 10
8.844612986655473
 20
-15.46384902269129
 30
0.0
 11
7.844612986655474
 21
-15.46384902269129
 31
0.0
  0
LINE
  5
175
  8
LAYER0240
  6
CONTINUOUS
 62
     7
 10
7.844612986655474
 20
-15.46384902269129
 30
0.0
 11
7.844612986655474
 21
-18.46384902269129
 31
0.0
  0
LINE
  5
176
  8
LAYER0240
  6
CONTINUOUS
 62
     7
 10
8.844612986655473
 20
-18.46384902269129
 30
0.0
 11
8.844612986655473
 21
-15.46384902269129
 31
0.0
  0
LINE
  5
177
  8
LAYER0240
  6
CONTINUOUS
 62
     7
 10
7.844612986655474
 20
1.536150977308708
 30
0.0
 11
8.844612986655473
 21
1.536150977308708
 31
0.0
  0
LINE
  5
178
  8
LAYER0240
  6
CONTINUOUS
 62
     7
 10
8.844612986655473
 20
4.536150977308708
 30
0.0
 11
7.844612986655474
 21
4.536150977308708
 31
0.0
  0
LINE
  5
179
  8
LAYER0240
  6
CONTINUOUS
 62
     7
 10
7.844612986655474
 20
4.536150977308708
 30
0.0
 11
7.844612986655474
 21
1.536150977308708
 31
0.0
  0
LINE
  5
17A
  8
LAYER0240
  6
CONTINUOUS
 62
     7
 10
8.844612986655473
 20
1.536150977308708
 30
0.0
 11
8.844612986655473
 21
4.536150977308708
 31
0.0
  0
LINE
  5
17B
  8
LAYER0240
  6
CONTINUOUS
 62
     7
 10
7.844612986655474
 20
-23.46384902269129
 30
0.0
 11
8.844612986655473
 21
-23.46384902269129
 31
0.0
  0
LINE
  5
17C
  8
LAYER0240
  6
CONTINUOUS
 62
     7
 10
8.844612986655473
 20
-20.46384902269129
 30
0.0
 11
7.844612986655474
 21
-20.46384902269129
 31
0.0
  0
LINE
  5
17D
  8
LAYER0240
  6
CONTINUOUS
 62
     7
 10
7.844612986655474
 20
-20.46384902269129
 30
0.0
 11
7.844612986655474
 21
-23.46384902269129
 31
0.0
  0
LINE
  5
17E
  8
LAYER0240
  6
CONTINUOUS
 62
     7
 10
8.844612986655473
 20
-23.46384902269129
 30
0.0
 11
8.844612986655473
 21
-20.46384902269129
 31
0.0
  0
LINE
  5
17F
  8
LAYER0240
  6
CONTINUOUS
 62
     7
 10
13.84461298665546
 20
-60.96384902269124
 30
0.0
 11
14.84461298665546
 21
-60.96384902269124
 31
0.0
  0
LINE
  5
180
  8
LAYER0240
  6
CONTINUOUS
 62
     7
 10
14.84461298665546
 20
-57.96384902269124
 30
0.0
 11
13.84461298665546
 21
-57.96384902269124
 31
0.0
  0
LINE
  5
181
  8
LAYER0240
  6
CONTINUOUS
 62
     7
 10
13.84461298665546
 20
-57.96384902269124
 30
0.0
 11
13.84461298665546
 21
-60.96384902269124
 31
0.0
  0
LINE
  5
182
  8
LAYER0240
  6
CONTINUOUS
 62
     7
 10
14.84461298665546
 20
-60.96384902269124
 30
0.0
 11
14.84461298665546
 21
-57.96384902269124
 31
0.0
  0
LINE
  5
183
  8
LAYER0240
  6
CONTINUOUS
 62
     7
 10
13.84461298665546
 20
-53.46384902269124
 30
0.0
 11
14.84461298665546
 21
-53.46384902269124
 31
0.0
  0
LINE
  5
184
  8
LAYER0240
  6
CONTINUOUS
 62
     7
 10
14.84461298665546
 20
-50.46384902269124
 30
0.0
 11
13.84461298665546
 21
-50.46384902269124
 31
0.0
  0
LINE
  5
185
  8
LAYER0240
  6
CONTINUOUS
 62
     7
 10
13.84461298665546
 20
-50.46384902269124
 30
0.0
 11
13.84461298665546
 21
-53.46384902269124
 31
0.0
  0
LINE
  5
186
  8
LAYER0240
  6
CONTINUOUS
 62
     7
 10
14.84461298665546
 20
-53.46384902269124
 30
0.0
 11
14.84461298665546
 21
-50.46384902269124
 31
0.0
  0
LINE
  5
187
  8
LAYER0240
  6
CONTINUOUS
 62
     7
 10
13.84461298665546
 20
-45.96384902269124
 30
0.0
 11
14.84461298665546
 21
-45.96384902269124
 31
0.0
  0
LINE
  5
188
  8
LAYER0240
  6
CONTINUOUS
 62
     7
 10
14.84461298665546
 20
-42.96384902269124
 30
0.0
 11
13.84461298665546
 21
-42.96384902269124
 31
0.0
  0
LINE
  5
189
  8
LAYER0240
  6
CONTINUOUS
 62
     7
 10
13.84461298665546
 20
-42.96384902269124
 30
0.0
 11
13.84461298665546
 21
-45.96384902269124
 31
0.0
  0
LINE
  5
18A
  8
LAYER0240
  6
CONTINUOUS
 62
     7
 10
14.84461298665546
 20
-45.96384902269124
 30
0.0
 11
14.84461298665546
 21
-42.96384902269124
 31
0.0
  0
LINE
  5
18B
  8
LAYER0240
  6
CONTINUOUS
 62
     7
 10
13.84461298665546
 20
-38.46384902269124
 30
0.0
 11
14.84461298665546
 21
-38.46384902269124
 31
0.0
  0
LINE
  5
18C
  8
LAYER0240
  6
CONTINUOUS
 62
     7
 10
14.84461298665546
 20
-35.46384902269124
 30
0.0
 11
13.84461298665546
 21
-35.46384902269124
 31
0.0
  0
LINE
  5
18D
  8
LAYER0240
  6
CONTINUOUS
 62
     7
 10
13.84461298665546
 20
-35.46384902269124
 30
0.0
 11
13.84461298665546
 21
-38.46384902269124
 31
0.0
  0
LINE
  5
18E
  8
LAYER0240
  6
CONTINUOUS
 62
     7
 10
14.84461298665546
 20
-38.46384902269124
 30
0.0
 11
14.84461298665546
 21
-35.46384902269124
 31
0.0
  0
LINE
  5
18F
  8
LAYER0240
  6
CONTINUOUS
 62
     7
 10
-66.42092317598149
 20
39.83615097730871
 30
0.0
 11
-61.42092317598149
 21
39.83615097730871
 31
0.0
  0
LINE
  5
190
  8
LAYER0240
  6
CONTINUOUS
 62
     7
 10
-61.42092317598149
 20
42.83615097730871
 30
0.0
 11
-66.42092317598149
 21
42.83615097730871
 31
0.0
  0
LINE
  5
191
  8
LAYER0240
  6
CONTINUOUS
 62
     7
 10
-66.42092317598149
 20
42.83615097730871
 30
0.0
 11
-66.42092317598149
 21
39.83615097730871
 31
0.0
  0
LINE
  5
192
  8
LAYER0240
  6
CONTINUOUS
 62
     7
 10
-61.42092317598149
 20
39.83615097730871
 30
0.0
 11
-61.42092317598149
 21
42.83615097730871
 31
0.0
  0
LINE
  5
193
  8
LAYER0240
  6
CONTINUOUS
 62
     7
 10
-74.57092267098146
 20
43.83615097730871
 30
0.0
 11
-74.57092267098146
 21
13.8361509773087
 31
0.0
  0
LINE
  5
194
  8
LAYER0240
  6
CONTINUOUS
 62
     7
 10
-74.57092267098146
 20
-34.21384902269125
 30
0.0
 11
-74.57092267098146
 21
-62.21384902269125
 31
0.0
  0
LINE
  5
195
  8
LAYER0240
  6
CONTINUOUS
 62
     7
 10
-61.83275048098277
 20
-34.21384902269125
 30
0.0
 11
-61.83275048098277
 21
-62.21384902269125
 31
0.0
  0
LINE
  5
196
  8
LAYER0240
  6
CONTINUOUS
 62
     7
 10
-73.20183657598211
 20
-35.46384902269124
 30
0.0
 11
-63.20183657598211
 21
-35.46384902269124
 31
0.0
  0
LINE
  5
197
  8
LAYER0240
  6
CONTINUOUS
 62
     7
 10
-63.20183657598211
 20
-38.46384902269124
 30
0.0
 11
-73.20183657598211
 21
-38.46384902269124
 31
0.0
  0
LINE
  5
198
  8
LAYER0240
  6
CONTINUOUS
 62
     7
 10
-73.20183657598211
 20
-38.46384902269124
 30
0.0
 11
-73.20183657598211
 21
-35.46384902269124
 31
0.0
  0
LINE
  5
199
  8
LAYER0240
  6
CONTINUOUS
 62
     7
 10
-63.20183657598211
 20
-35.46384902269124
 30
0.0
 11
-63.20183657598211
 21
-38.46384902269124
 31
0.0
  0
CIRCLE
  5
19A
  8
LAYER0240
  6
CONTINUOUS
 62
     7
 10
-71.07092267098146
 20
41.33615097730871
 30
0.0
 40
1.75
  0
LINE
  5
19B
  8
LAYER0240
  6
CONTINUOUS
 62
     7
 10
-62.42092317598149
 20
42.83615097730871
 30
0.0
 11
-62.42092317598149
 21
39.83615097730871
 31
0.0
  0
LINE
  5
19C
  8
LAYER0240
  6
CONTINUOUS
 62
     7
 10
-69.83348580390499
 20
42.57358784438517
 30
0.0
 11
-72.30835953805791
 21
40.09871411023224
 31
0.0
  0
LINE
  5
19D
  8
LAYER0240
  6
CONTINUOUS
 62
     7
 10
-66.42092317598149
 20
34.83615097730871
 30
0.0
 11
-61.42092317598149
 21
34.83615097730871
 31
0.0
  0
LINE
  5
19E
  8
LAYER0240
  6
CONTINUOUS
 62
     7
 10
-61.42092317598149
 20
37.83615097730871
 30
0.0
 11
-66.42092317598149
 21
37.83615097730871
 31
0.0
  0
LINE
  5
19F
  8
LAYER0240
  6
CONTINUOUS
 62
     7
 10
-66.42092317598149
 20
37.83615097730871
 30
0.0
 11
-66.42092317598149
 21
34.83615097730871
 31
0.0
  0
LINE
  5
1A0
  8
LAYER0240
  6
CONTINUOUS
 62
     7
 10
-61.42092317598149
 20
34.83615097730871
 30
0.0
 11
-61.42092317598149
 21
37.83615097730871
 31
0.0
  0
CIRCLE
  5
1A1
  8
LAYER0240
  6
CONTINUOUS
 62
     7
 10
-71.07092267098146
 20
36.33615097730871
 30
0.0
 40
1.75
  0
LINE
  5
1A2
  8
LAYER0240
  6
CONTINUOUS
 62
     7
 10
-62.42092317598149
 20
37.83615097730871
 30
0.0
 11
-62.42092317598149
 21
34.83615097730871
 31
0.0
  0
LINE
  5
1A3
  8
LAYER0240
  6
CONTINUOUS
 62
     7
 10
-69.83348580390499
 20
37.57358784438517
 30
0.0
 11
-72.30835953805791
 21
35.09871411023224
 31
0.0
  0
LINE
  5
1A4
  8
LAYER0240
  6
CONTINUOUS
 62
     7
 10
-66.42092317598149
 20
29.83615097730871
 30
0.0
 11
-61.42092317598149
 21
29.83615097730871
 31
0.0
  0
LINE
  5
1A5
  8
LAYER0240
  6
CONTINUOUS
 62
     7
 10
-61.42092317598149
 20
32.83615097730871
 30
0.0
 11
-66.42092317598149
 21
32.83615097730871
 31
0.0
  0
LINE
  5
1A6
  8
LAYER0240
  6
CONTINUOUS
 62
     7
 10
-66.42092317598149
 20
32.83615097730871
 30
0.0
 11
-66.42092317598149
 21
29.83615097730871
 31
0.0
  0
LINE
  5
1A7
  8
LAYER0240
  6
CONTINUOUS
 62
     7
 10
-61.42092317598149
 20
29.83615097730871
 30
0.0
 11
-61.42092317598149
 21
32.83615097730871
 31
0.0
  0
CIRCLE
  5
1A8
  8
LAYER0240
  6
CONTINUOUS
 62
     7
 10
-71.07092267098146
 20
31.33615097730871
 30
0.0
 40
1.75
  0
LINE
  5
1A9
  8
LAYER0240
  6
CONTINUOUS
 62
     7
 10
-62.42092317598149
 20
32.83615097730871
 30
0.0
 11
-62.42092317598149
 21
29.83615097730871
 31
0.0
  0
LINE
  5
1AA
  8
LAYER0240
  6
CONTINUOUS
 62
     7
 10
-69.83348580390499
 20
32.57358784438517
 30
0.0
 11
-72.30835953805791
 21
30.09871411023224
 31
0.0
  0
LINE
  5
1AB
  8
LAYER0240
  6
CONTINUOUS
 62
     7
 10
-66.42092317598149
 20
24.83615097730871
 30
0.0
 11
-61.42092317598149
 21
24.83615097730871
 31
0.0
  0
LINE
  5
1AC
  8
LAYER0240
  6
CONTINUOUS
 62
     7
 10
-61.42092317598149
 20
27.83615097730871
 30
0.0
 11
-66.42092317598149
 21
27.83615097730871
 31
0.0
  0
LINE
  5
1AD
  8
LAYER0240
  6
CONTINUOUS
 62
     7
 10
-66.42092317598149
 20
27.83615097730871
 30
0.0
 11
-66.42092317598149
 21
24.83615097730871
 31
0.0
  0
LINE
  5
1AE
  8
LAYER0240
  6
CONTINUOUS
 62
     7
 10
-61.42092317598149
 20
24.83615097730871
 30
0.0
 11
-61.42092317598149
 21
27.83615097730871
 31
0.0
  0
CIRCLE
  5
1AF
  8
LAYER0240
  6
CONTINUOUS
 62
     7
 10
-71.07092267098146
 20
26.33615097730871
 30
0.0
 40
1.75
  0
LINE
  5
1B0
  8
LAYER0240
  6
CONTINUOUS
 62
     7
 10
-62.42092317598149
 20
27.83615097730871
 30
0.0
 11
-62.42092317598149
 21
24.83615097730871
 31
0.0
  0
LINE
  5
1B1
  8
LAYER0240
  6
CONTINUOUS
 62
     7
 10
-69.83348580390499
 20
27.57358784438517
 30
0.0
 11
-72.30835953805791
 21
25.09871411023224
 31
0.0
  0
LINE
  5
1B2
  8
LAYER0240
  6
CONTINUOUS
 62
     7
 10
-66.42092317598149
 20
19.83615097730871
 30
0.0
 11
-61.42092317598149
 21
19.83615097730871
 31
0.0
  0
LINE
  5
1B3
  8
LAYER0240
  6
CONTINUOUS
 62
     7
 10
-61.42092317598149
 20
22.83615097730871
 30
0.0
 11
-66.42092317598149
 21
22.83615097730871
 31
0.0
  0
LINE
  5
1B4
  8
LAYER0240
  6
CONTINUOUS
 62
     7
 10
-66.42092317598149
 20
22.83615097730871
 30
0.0
 11
-66.42092317598149
 21
19.83615097730871
 31
0.0
  0
LINE
  5
1B5
  8
LAYER0240
  6
CONTINUOUS
 62
     7
 10
-61.42092317598149
 20
19.83615097730871
 30
0.0
 11
-61.42092317598149
 21
22.83615097730871
 31
0.0
  0
CIRCLE
  5
1B6
  8
LAYER0240
  6
CONTINUOUS
 62
     7
 10
-71.07092267098146
 20
21.33615097730871
 30
0.0
 40
1.75
  0
LINE
  5
1B7
  8
LAYER0240
  6
CONTINUOUS
 62
     7
 10
-62.42092317598149
 20
22.83615097730871
 30
0.0
 11
-62.42092317598149
 21
19.83615097730871
 31
0.0
  0
LINE
  5
1B8
  8
LAYER0240
  6
CONTINUOUS
 62
     7
 10
-69.83348580390499
 20
22.57358784438517
 30
0.0
 11
-72.30835953805791
 21
20.09871411023224
 31
0.0
  0
LINE
  5
1B9
  8
LAYER0240
  6
CONTINUOUS
 62
     7
 10
-66.42092317598149
 20
14.83615097730871
 30
0.0
 11
-61.42092317598149
 21
14.83615097730871
 31
0.0
  0
LINE
  5
1BA
  8
LAYER0240
  6
CONTINUOUS
 62
     7
 10
-61.42092317598149
 20
17.83615097730871
 30
0.0
 11
-66.42092317598149
 21
17.83615097730871
 31
0.0
  0
LINE
  5
1BB
  8
LAYER0240
  6
CONTINUOUS
 62
     7
 10
-66.42092317598149
 20
17.83615097730871
 30
0.0
 11
-66.42092317598149
 21
14.83615097730871
 31
0.0
  0
LINE
  5
1BC
  8
LAYER0240
  6
CONTINUOUS
 62
     7
 10
-61.42092317598149
 20
14.83615097730871
 30
0.0
 11
-61.42092317598149
 21
17.83615097730871
 31
0.0
  0
CIRCLE
  5
1BD
  8
LAYER0240
  6
CONTINUOUS
 62
     7
 10
-71.07092267098146
 20
16.33615097730871
 30
0.0
 40
1.75
  0
LINE
  5
1BE
  8
LAYER0240
  6
CONTINUOUS
 62
     7
 10
-62.42092317598149
 20
17.83615097730871
 30
0.0
 11
-62.42092317598149
 21
14.83615097730871
 31
0.0
  0
LINE
  5
1BF
  8
LAYER0240
  6
CONTINUOUS
 62
     7
 10
-69.83348580390499
 20
17.57358784438517
 30
0.0
 11
-72.30835953805791
 21
15.09871411023224
 31
0.0
  0
LINE
  5
1C0
  8
LAYER0240
  6
CONTINUOUS
 62
     7
 10
-66.42092317598147
 20
1.536150977308708
 30
0.0
 11
-61.42092317598147
 21
1.536150977308708
 31
0.0
  0
LINE
  5
1C1
  8
LAYER0240
  6
CONTINUOUS
 62
     7
 10
-61.42092317598147
 20
4.536150977308708
 30
0.0
 11
-66.42092317598147
 21
4.536150977308708
 31
0.0
  0
LINE
  5
1C2
  8
LAYER0240
  6
CONTINUOUS
 62
     7
 10
-66.42092317598147
 20
4.536150977308708
 30
0.0
 11
-66.42092317598147
 21
1.536150977308708
 31
0.0
  0
LINE
  5
1C3
  8
LAYER0240
  6
CONTINUOUS
 62
     7
 10
-61.42092317598147
 20
1.536150977308708
 30
0.0
 11
-61.42092317598147
 21
4.536150977308708
 31
0.0
  0
LINE
  5
1C4
  8
LAYER0240
  6
CONTINUOUS
 62
     7
 10
-74.57092267098145
 20
5.536150977308708
 30
0.0
 11
-74.57092267098145
 21
-24.4638490226913
 31
0.0
  0
CIRCLE
  5
1C5
  8
LAYER0240
  6
CONTINUOUS
 62
     7
 10
-71.07092267098145
 20
3.036150977308708
 30
0.0
 40
1.75
  0
LINE
  5
1C6
  8
LAYER0240
  6
CONTINUOUS
 62
     7
 10
-62.42092317598147
 20
4.536150977308708
 30
0.0
 11
-62.42092317598147
 21
1.536150977308708
 31
0.0
  0
LINE
  5
1C7
  8
LAYER0240
  6
CONTINUOUS
 62
     7
 10
-69.83348580390498
 20
4.273587844385169
 30
0.0
 11
-72.3083595380579
 21
1.79871411023224
 31
0.0
  0
LINE
  5
1C8
  8
LAYER0240
  6
CONTINUOUS
 62
     7
 10
-66.42092317598147
 20
-3.463849022691292
 30
0.0
 11
-61.42092317598147
 21
-3.463849022691292
 31
0.0
  0
LINE
  5
1C9
  8
LAYER0240
  6
CONTINUOUS
 62
     7
 10
-61.42092317598147
 20
-0.4638490226912921
 30
0.0
 11
-66.42092317598147
 21
-0.4638490226912921
 31
0.0
  0
LINE
  5
1CA
  8
LAYER0240
  6
CONTINUOUS
 62
     7
 10
-66.42092317598147
 20
-0.4638490226912921
 30
0.0
 11
-66.42092317598147
 21
-3.463849022691292
 31
0.0
  0
LINE
  5
1CB
  8
LAYER0240
  6
CONTINUOUS
 62
     7
 10
-61.42092317598147
 20
-3.463849022691292
 30
0.0
 11
-61.42092317598147
 21
-0.4638490226912921
 31
0.0
  0
CIRCLE
  5
1CC
  8
LAYER0240
  6
CONTINUOUS
 62
     7
 10
-71.07092267098145
 20
-1.963849022691292
 30
0.0
 40
1.75
  0
LINE
  5
1CD
  8
LAYER0240
  6
CONTINUOUS
 62
     7
 10
-62.42092317598147
 20
-0.4638490226912921
 30
0.0
 11
-62.42092317598147
 21
-3.463849022691292
 31
0.0
  0
LINE
  5
1CE
  8
LAYER0240
  6
CONTINUOUS
 62
     7
 10
-69.83348580390498
 20
-0.7264121556148311
 30
0.0
 11
-72.3083595380579
 21
-3.20128588976776
 31
0.0
  0
LINE
  5
1CF
  8
LAYER0240
  6
CONTINUOUS
 62
     7
 10
-66.42092317598147
 20
-8.463849022691292
 30
0.0
 11
-61.42092317598147
 21
-8.463849022691292
 31
0.0
  0
LINE
  5
1D0
  8
LAYER0240
  6
CONTINUOUS
 62
     7
 10
-61.42092317598147
 20
-5.463849022691292
 30
0.0
 11
-66.42092317598147
 21
-5.463849022691292
 31
0.0
  0
LINE
  5
1D1
  8
LAYER0240
  6
CONTINUOUS
 62
     7
 10
-66.42092317598147
 20
-5.463849022691292
 30
0.0
 11
-66.42092317598147
 21
-8.463849022691292
 31
0.0
  0
LINE
  5
1D2
  8
LAYER0240
  6
CONTINUOUS
 62
     7
 10
-61.42092317598147
 20
-8.463849022691292
 30
0.0
 11
-61.42092317598147
 21
-5.463849022691292
 31
0.0
  0
CIRCLE
  5
1D3
  8
LAYER0240
  6
CONTINUOUS
 62
     7
 10
-71.07092267098145
 20
-6.963849022691292
 30
0.0
 40
1.75
  0
LINE
  5
1D4
  8
LAYER0240
  6
CONTINUOUS
 62
     7
 10
-62.42092317598147
 20
-5.463849022691292
 30
0.0
 11
-62.42092317598147
 21
-8.463849022691292
 31
0.0
  0
LINE
  5
1D5
  8
LAYER0240
  6
CONTINUOUS
 62
     7
 10
-69.83348580390498
 20
-5.726412155614831
 30
0.0
 11
-72.3083595380579
 21
-8.20128588976776
 31
0.0
  0
LINE
  5
1D6
  8
LAYER0240
  6
CONTINUOUS
 62
     7
 10
-66.42092317598147
 20
-13.46384902269129
 30
0.0
 11
-61.42092317598147
 21
-13.46384902269129
 31
0.0
  0
LINE
  5
1D7
  8
LAYER0240
  6
CONTINUOUS
 62
     7
 10
-61.42092317598147
 20
-10.46384902269129
 30
0.0
 11
-66.42092317598147
 21
-10.46384902269129
 31
0.0
  0
LINE
  5
1D8
  8
LAYER0240
  6
CONTINUOUS
 62
     7
 10
-66.42092317598147
 20
-10.46384902269129
 30
0.0
 11
-66.42092317598147
 21
-13.46384902269129
 31
0.0
  0
LINE
  5
1D9
  8
LAYER0240
  6
CONTINUOUS
 62
     7
 10
-61.42092317598147
 20
-13.46384902269129
 30
0.0
 11
-61.42092317598147
 21
-10.46384902269129
 31
0.0
  0
CIRCLE
  5
1DA
  8
LAYER0240
  6
CONTINUOUS
 62
     7
 10
-71.07092267098145
 20
-11.96384902269129
 30
0.0
 40
1.75
  0
LINE
  5
1DB
  8
LAYER0240
  6
CONTINUOUS
 62
     7
 10
-62.42092317598147
 20
-10.46384902269129
 30
0.0
 11
-62.42092317598147
 21
-13.46384902269129
 31
0.0
  0
LINE
  5
1DC
  8
LAYER0240
  6
CONTINUOUS
 62
     7
 10
-69.83348580390498
 20
-10.72641215561483
 30
0.0
 11
-72.3083595380579
 21
-13.20128588976776
 31
0.0
  0
LINE
  5
1DD
  8
LAYER0240
  6
CONTINUOUS
 62
     7
 10
-66.42092317598147
 20
-18.46384902269129
 30
0.0
 11
-61.42092317598147
 21
-18.46384902269129
 31
0.0
  0
LINE
  5
1DE
  8
LAYER0240
  6
CONTINUOUS
 62
     7
 10
-61.42092317598147
 20
-15.46384902269129
 30
0.0
 11
-66.42092317598147
 21
-15.46384902269129
 31
0.0
  0
LINE
  5
1DF
  8
LAYER0240
  6
CONTINUOUS
 62
     7
 10
-66.42092317598147
 20
-15.46384902269129
 30
0.0
 11
-66.42092317598147
 21
-18.46384902269129
 31
0.0
  0
LINE
  5
1E0
  8
LAYER0240
  6
CONTINUOUS
 62
     7
 10
-61.42092317598147
 20
-18.46384902269129
 30
0.0
 11
-61.42092317598147
 21
-15.46384902269129
 31
0.0
  0
CIRCLE
  5
1E1
  8
LAYER0240
  6
CONTINUOUS
 62
     7
 10
-71.07092267098145
 20
-16.96384902269129
 30
0.0
 40
1.75
  0
LINE
  5
1E2
  8
LAYER0240
  6
CONTINUOUS
 62
     7
 10
-62.42092317598147
 20
-15.46384902269129
 30
0.0
 11
-62.42092317598147
 21
-18.46384902269129
 31
0.0
  0
LINE
  5
1E3
  8
LAYER0240
  6
CONTINUOUS
 62
     7
 10
-69.83348580390498
 20
-15.72641215561483
 30
0.0
 11
-72.3083595380579
 21
-18.20128588976776
 31
0.0
  0
LINE
  5
1E4
  8
LAYER0240
  6
CONTINUOUS
 62
     7
 10
-66.42092317598147
 20
-23.46384902269129
 30
0.0
 11
-61.42092317598147
 21
-23.46384902269129
 31
0.0
  0
LINE
  5
1E5
  8
LAYER0240
  6
CONTINUOUS
 62
     7
 10
-61.42092317598147
 20
-20.46384902269129
 30
0.0
 11
-66.42092317598147
 21
-20.46384902269129
 31
0.0
  0
LINE
  5
1E6
  8
LAYER0240
  6
CONTINUOUS
 62
     7
 10
-66.42092317598147
 20
-20.46384902269129
 30
0.0
 11
-66.42092317598147
 21
-23.46384902269129
 31
0.0
  0
LINE
  5
1E7
  8
LAYER0240
  6
CONTINUOUS
 62
     7
 10
-61.42092317598147
 20
-23.46384902269129
 30
0.0
 11
-61.42092317598147
 21
-20.46384902269129
 31
0.0
  0
CIRCLE
  5
1E8
  8
LAYER0240
  6
CONTINUOUS
 62
     7
 10
-71.07092267098145
 20
-21.96384902269129
 30
0.0
 40
1.75
  0
LINE
  5
1E9
  8
LAYER0240
  6
CONTINUOUS
 62
     7
 10
-62.42092317598147
 20
-20.46384902269129
 30
0.0
 11
-62.42092317598147
 21
-23.46384902269129
 31
0.0
  0
LINE
  5
1EA
  8
LAYER0240
  6
CONTINUOUS
 62
     7
 10
-69.83348580390498
 20
-20.72641215561483
 30
0.0
 11
-72.3083595380579
 21
-23.20128588976776
 31
0.0
  0
LINE
  5
1EB
  8
LAYER0240
  6
CONTINUOUS
 62
     7
 10
-73.20183657598211
 20
-42.96384902269124
 30
0.0
 11
-63.20183657598211
 21
-42.96384902269124
 31
0.0
  0
LINE
  5
1EC
  8
LAYER0240
  6
CONTINUOUS
 62
     7
 10
-63.20183657598211
 20
-45.96384902269124
 30
0.0
 11
-73.20183657598211
 21
-45.96384902269124
 31
0.0
  0
LINE
  5
1ED
  8
LAYER0240
  6
CONTINUOUS
 62
     7
 10
-73.20183657598211
 20
-45.96384902269124
 30
0.0
 11
-73.20183657598211
 21
-42.96384902269124
 31
0.0
  0
LINE
  5
1EE
  8
LAYER0240
  6
CONTINUOUS
 62
     7
 10
-63.20183657598211
 20
-42.96384902269124
 30
0.0
 11
-63.20183657598211
 21
-45.96384902269124
 31
0.0
  0
LINE
  5
1EF
  8
LAYER0240
  6
CONTINUOUS
 62
     7
 10
-73.20183657598211
 20
-50.46384902269124
 30
0.0
 11
-63.20183657598211
 21
-50.46384902269124
 31
0.0
  0
LINE
  5
1F0
  8
LAYER0240
  6
CONTINUOUS
 62
     7
 10
-63.20183657598211
 20
-53.46384902269124
 30
0.0
 11
-73.20183657598211
 21
-53.46384902269124
 31
0.0
  0
LINE
  5
1F1
  8
LAYER0240
  6
CONTINUOUS
 62
     7
 10
-73.20183657598211
 20
-53.46384902269124
 30
0.0
 11
-73.20183657598211
 21
-50.46384902269124
 31
0.0
  0
LINE
  5
1F2
  8
LAYER0240
  6
CONTINUOUS
 62
     7
 10
-63.20183657598211
 20
-50.46384902269124
 30
0.0
 11
-63.20183657598211
 21
-53.46384902269124
 31
0.0
  0
LINE
  5
1F3
  8
LAYER0240
  6
CONTINUOUS
 62
     7
 10
-73.20183657598211
 20
-57.96384902269124
 30
0.0
 11
-63.20183657598211
 21
-57.96384902269124
 31
0.0
  0
LINE
  5
1F4
  8
LAYER0240
  6
CONTINUOUS
 62
     7
 10
-63.20183657598211
 20
-60.96384902269124
 30
0.0
 11
-73.20183657598211
 21
-60.96384902269124
 31
0.0
  0
LINE
  5
1F5
  8
LAYER0240
  6
CONTINUOUS
 62
     7
 10
-73.20183657598211
 20
-60.96384902269124
 30
0.0
 11
-73.20183657598211
 21
-57.96384902269124
 31
0.0
  0
LINE
  5
1F6
  8
LAYER0240
  6
CONTINUOUS
 62
     7
 10
-63.20183657598211
 20
-57.96384902269124
 30
0.0
 11
-63.20183657598211
 21
-60.96384902269124
 31
0.0
  0
LINE
  5
1F7
  8
LAYER0240
  6
CENTER
 62
   150
 10
-2.95594544592317
 20
-4.463849022691292
 30
0.0
 11
114.170064267744
 21
-4.463849022691292
 31
0.0
  0
LINE
  5
1F8
  8
LAYER0240
  6
CENTER
 62
   150
 10
-88.92885154502733
 20
-4.463849022691292
 30
0.0
 11
-47.87437391343265
 21
-4.463849022691292
 31
0.0
  0
LINE
  5
1F9
  8
LAYER0240
  6
CENTER
 62
   150
 10
-67.57092267098146
 20
65.42027930244701
 30
0.0
 11
-67.57092267098146
 21
-75.13093235395364
 31
0.0
  0
VIEWPORT
  5
B4
 67
     1
  8
0
 10
17.57789952465933
 20
-15.76224506644601
 30
0.0
 40
639.04050641812
 41
487.0951462133581
 68
     1
 69
     1
1001
ACAD
1000
MVIEW
1002
{
1070
    16
1010
0.0
1020
0.0
1030
0.0
1010
0.0
1020
0.0
1030
1.0
1040
0.0
1040
487.0951462133581
1040
17.57789952465933
1040
-15.76224506644601
1040
50.0
1040
0.0
1040
0.0
1070
     0
1070
   100
1070
     0
1070
     3
1070
     0
1070
     0
1070
     0
1070
     0
1040
0.0
1040
0.0
1040
0.0
1040
0.5
1040
0.5
1040
0.0
1040
0.0
1070
     0
1002
{
1002
}
1002
}
  0
ENDSEC
  0
EOF
