  0
SECTION
  2
HEADER
  9
$ACADVER
  1
AC1014
  9
$ACADMAINTVER
 70
       0
  9
$DWGCODEPAGE
  3
ANSI_932
  9
$INSBASE
 10
0.0
 20
0.0
 30
0.0
  9
$EXTMIN
 10
-149.79969103
 20
-193.85560689
 30
0.0
  9
$EXTMAX
 10
145.29969103
 20
193.85560689
 30
0.0
  9
$LIMMIN
 10
-159.02154672
 20
-205.97158232
  9
$LIMMAX
 10
154.52154672
 20
205.97158232
  9
$ORTHOMODE
 70
       0
  9
$REGENMODE
 70
       1
  9
$FILLMODE
 70
       1
  9
$QTEXTMODE
 70
       0
  9
$MIRRTEXT
 70
       1
  9
$DRAGMODE
 70
       2
  9
$LTSCALE
 40
1.0
  9
$OSMODE
 70
       0
  9
$ATTMODE
 70
       1
  9
$TEXTSIZE
 40
0.2
  9
$TRACEWID
 40
0.05
  9
$TEXTSTYLE
  7
STANDARD
  9
$CLAYER
  8
0
  9
$CELTYPE
  6
CONTINUOUS
  9
$CECOLOR
 62
     256
  9
$CELTSCALE
 40
1.0
  9
$DELOBJ
 70
       1
  9
$DISPSILH
 70
       0
  9
$DIMSCALE
 40
1.0
  9
$DIMASZ
 40
0.18
  9
$DIMEXO
 40
0.0625
  9
$DIMDLI
 40
0.38
  9
$DIMRND
 40
0.0
  9
$DIMDLE
 40
0.0
  9
$DIMEXE
 40
0.18
  9
$DIMTP
 40
0.0
  9
$DIMTM
 40
0.0
  9
$DIMTXT
 40
0.18
  9
$DIMCEN
 40
0.09
  9
$DIMTSZ
 40
0.0
  9
$DIMTOL
 70
       0
  9
$DIMLIM
 70
       0
  9
$DIMTIH
 70
       1
  9
$DIMTOH
 70
       1
  9
$DIMSE1
 70
       0
  9
$DIMSE2
 70
       0
  9
$DIMTAD
 70
       0
  9
$DIMZIN
 70
       0
  9
$DIMBLK
  1

  9
$DIMASO
 70
       1
  9
$DIMSHO
 70
       1
  9
$DIMPOST
  1

  9
$DIMAPOST
  1

  9
$DIMALT
 70
       0
  9
$DIMALTD
 70
       2
  9
$DIMALTF
 40
25.4
  9
$DIMLFAC
 40
1.0
  9
$DIMTOFL
 70
       0
  9
$DIMTVP
 40
0.0
  9
$DIMTIX
 70
       0
  9
$DIMSOXD
 70
       0
  9
$DIMSAH
 70
       0
  9
$DIMBLK1
  1

  9
$DIMBLK2
  1

  9
$DIMSTYLE
  2
STANDARD
  9
$DIMCLRD
 70
       0
  9
$DIMCLRE
 70
       0
  9
$DIMCLRT
 70
       0
  9
$DIMTFAC
 40
1.0
  9
$DIMGAP
 40
0.09
  9
$DIMJUST
 70
       0
  9
$DIMSD1
 70
       0
  9
$DIMSD2
 70
       0
  9
$DIMTOLJ
 70
       1
  9
$DIMTZIN
 70
       0
  9
$DIMALTZ
 70
       0
  9
$DIMALTTZ
 70
       0
  9
$DIMFIT
 70
       3
  9
$DIMUPT
 70
       0
  9
$DIMUNIT
 70
       2
  9
$DIMDEC
 70
       4
  9
$DIMTDEC
 70
       4
  9
$DIMALTU
 70
       2
  9
$DIMALTTD
 70
       2
  9
$DIMTXSTY
  7
STANDARD
  9
$DIMAUNIT
 70
       0
  9
$LUNITS
 70
       2
  9
$LUPREC
 70
       4
  9
$SKETCHINC
 40
0.1
  9
$FILLETRAD
 40
0.0
  9
$AUNITS
 70
       0
  9
$AUPREC
 70
       0
  9
$MENU
  1
acad
  9
$ELEVATION
 40
0.0
  9
$PELEVATION
 40
0.0
  9
$THICKNESS
 40
0.0
  9
$LIMCHECK
 70
       0
  9
$BLIPMODE
 70
       1
  9
$CHAMFERA
 40
0.0
  9
$CHAMFERB
 40
0.0
  9
$CHAMFERC
 40
0.0
  9
$CHAMFERD
 40
0.0
  9
$SKPOLY
 70
       0
  9
$TDCREATE
 40
0.000000000
  9
$TDUPDATE
 40
0.000000000
  9
$TDINDWG
 40
0.0000000000
  9
$TDUSRTIMER
 40
0.0000000000
  9
$USRTIMER
 70
       1
  9
$ANGBASE
 50
0.0
  9
$ANGDIR
 70
       0
  9
$PDMODE
 70
       0
  9
$PDSIZE
 40
1.0
  9
$PLINEWID
 40
0.0
  9
$COORDS
 70
       1
  9
$SPLFRAME
 70
       0
  9
$SPLINETYPE
 70
       6
  9
$SPLINESEGS
 70
       8
  9
$ATTDIA
 70
       0
  9
$ATTREQ
 70
       1
  9
$HANDLING
 70
       1
  9
$HANDSEED
  5
656
  9
$SURFTAB1
 70
       6
  9
$SURFTAB2
 70
       6
  9
$SURFTYPE
 70
       6
  9
$SURFU
 70
       6
  9
$SURFV
 70
       6
  9
$UCSNAME
  2

  9
$UCSORG
 10
0.0
 20
0.0
 30
0.0
  9
$UCSXDIR
 10
1.0
 20
0.0
 30
0.0
  9
$UCSYDIR
 10
0.0
 20
1.0
 30
0.0
  9
$PUCSNAME
  2

  9
$PUCSORG
 10
0.0
 20
0.0
 30
0.0
  9
$PUCSXDIR
 10
1.0
 20
0.0
 30
0.0
  9
$PUCSYDIR
 10
0.0
 20
1.0
 30
0.0
  9
$USERI1
 70
       0
  9
$USERI2
 70
       0
  9
$USERI3
 70
       0
  9
$USERI4
 70
       0
  9
$USERI5
 70
       0
  9
$USERR1
 40
0.0
  9
$USERR2
 40
0.0
  9
$USERR3
 40
0.0
  9
$USERR4
 40
0.0
  9
$USERR5
 40
0.0
  9
$WORLDVIEW
 70
       1
  9
$SHADEDGE
 70
       3
  9
$SHADEDIF
 70
      70
  9
$TILEMODE
 70
       1
  9
$MAXACTVP
 70
      16
  9
$PINSBASE
 10
0.0
 20
0.0
 30
0.0
  9
$PLIMCHECK
 70
       0
  9
$PEXTMIN
 10
1.00000000E+20
 20
1.00000000E+20
 30
1.00000000E+20
  9
$PEXTMAX
 10
-1.00000000E+20
 20
-1.00000000E+20
 30
-1.00000000E+20
  9
$PLIMMIN
 10
0.0
 20
0.0
  9
$PLIMMAX
 10
12.0
 20
9.0
  9
$UNITMODE
 70
       0
  9
$VISRETAIN
 70
       0
  9
$PLINEGEN
 70
       1
  9
$PSLTSCALE
 70
       0
  9
$TREEDEPTH
 70
    3020
  9
$PICKSTYLE
 70
       1
  9
$CMLSTYLE
  2
STANDARD
  9
$CMLJUST
 70
       0
  9
$CMLSCALE
 40
1.0
  9
$PROXYGRAPHICS
 70
       0
  9
$MEASUREMENT
 70
       0
  0
ENDSEC
  0
SECTION
  2
CLASSES
  0
CLASS
  1
LWPOLYLINE
  2
AcDbPolyline
  3
"AutoCAD"
 90
        0
280
       0
281
       1
  0
CLASS
  1
IMAGE
  2
AcDbRasterImage
  3
ISM
 90
      127
280
       0
281
       1
  0
CLASS
  1
OLE2FRAME
  2
AcDbOle2Frame
  3
""
 90
        0
280
       0
281
       1
  0
CLASS
  1
HATCH
  2
AcDbHatch
  3
"ACAD_SEDONA"
 90
        0
280
       0
281
       1
  0
CLASS
  1
DICTIONARYVAR
  2
AcDbDictionaryVar
  3
"AutoCAD"
 90
        0
280
       0
281
       0
  0
CLASS
  1
RASTERVARIABLES
  2
AcDbRasterVariables
  3
ISM
 90
        0
280
       0
281
       0
  0
CLASS
  1
IMAGEDEF
  2
AcDbRasterImageDef
  3
ISM
 90
        0
280
       0
281
       0
  0
CLASS
  1
IMAGEDEF_REACTOR
  2
AcDbRasterImageDefReactor
  3
ISM
 90
        1
280
       0
281
       0
  0
CLASS
  1
IDBUFFER
  2
AcDbIdBuffer
  3
"Acad"
 90
        0
280
       0
281
       0
  0
CLASS
  1
SPATIAL_FILTER
  2
AcDbSpatialFilter
  3
"Acad"
 90
        0
280
       0
281
       0
  0
CLASS
  1
XRECORD
  2
AcDbXrecord
  3
"<Built In>"
 90
        0
280
       0
281
       0
  0
CLASS
  1
SORTENTSTABLE
  2
AcDbSortentsTable
  3
"AutoCAD"
 90
        0
280
       0
281
       0
  0
CLASS
  1
LAYER_INDEX
  2
AcDbLayerIndex
  3
"Acad"
 90
        0
280
       0
281
       0
  0
CLASS
  1
SPATIAL_INDEX
  2
AcDbSpatialIndex
  3
"Acad"
 90
        0
280
       0
281
       0
  0
CLASS
  1
OBJECT_PTR
  2
CAseDLPNTableRecord
  3
"ASE-LPNTableRecord"
 90
        1
280
       0
281
       0
  0
CLASS
  1
LAYOUT
  2
AcDbLayout
  3
"AutoCAD 2000"
 90
        1
280
       0
281
       0
  0
CLASS
  1
PLOTSETTINGS
  2
AcDbPlotSettings
  3
"AutoCAD 2000"
 90
        1
280
       0
281
       0
  0
CLASS
  1
ACDBDICTIONARYWDFLT
  2
AcDbDictionaryWithDefault
  3
"AutoCAD 2000"
 90
        1
280
       0
281
       0
  0
CLASS
  1
ACDBPLACEHOLDER
  2
AcDbPlaceHolder
  3
"AutoCAD 2000"
 90
        1
280
       0
281
       0
  0
CLASS
  1
VBA_PROJECT
  2
AcDbVbaProject
  3
"acadvba"
 90
        1
280
       0
281
       0
  0
CLASS
  1
WIPEOUT
  2
AcDbWipeout
  3
WipeOut|AutoCAD Express Tool|expresstools@autodesk.com
 90
      127
280
       0
281
       1
  0
CLASS
  1
WIPEOUTVARIABLES
  2
AcDbWipeoutVariables
  3
WipeOut|AutoCAD Express Tool|expresstools@autodesk.com
 90
        0
280
       0
281
       0
  0
CLASS
  1
RTEXT
  2
RText
  3
RText|AutoCAD Express Tool|expresstools@autodesk.com
 90
        0
280
       0
281
       1
  0
CLASS
  1
ARCALIGNEDTEXT
  2
AcDbArcAlignedText
  3
ATEXT|AutoCAD Express Tool|expresstools@autodesk.com
 90
        0
280
       0
281
       1
  0
ENDSEC
  0
SECTION
  2
TABLES
  0
TABLE
  2
VPORT
  5
7
100
AcDbSymbolTable
 70
       1
  0
VPORT
  5
15
100
AcDbSymbolTableRecord
100
AcDbViewportTableRecord
  2
*ACTIVE
 70
       0
 10
0.0
 20
0.0
 11
1.0
 21
1.0
 12
-2.25
 22
0.0
 13
0.0
 23
0.0
 14
1.0
 24
1.0
 15
0.0
 25
0.0
 16
0.0
 26
0.0
 36
1.0
 17
0.0
 27
0.0
 37
0.0
 40
411.94316464
 41
0.76113192
 42
50.0
 43
0.0
 44
0.0
 50
0.0
 51
0.0
 71
       0
 72
     100
 73
       1
 74
       1
 75
       0
 76
       0
 77
       0
 78
       0
  0
ENDTAB
  0
TABLE
  2
LTYPE
  5
4
100
AcDbSymbolTable
 70
      30
  0
LTYPE
  5
11
100
AcDbSymbolTableRecord
100
AcDbLinetypeTableRecord
  2
BYBLOCK
 70
      64
  3

 72
      65
 73
       0
 40
0.0
  0
LTYPE
  5
12
100
AcDbSymbolTableRecord
100
AcDbLinetypeTableRecord
  2
BYLAYER
 70
      64
  3

 72
      65
 73
       0
 40
0.0
  0
LTYPE
  5
13
100
AcDbSymbolTableRecord
100
AcDbLinetypeTableRecord
  2
CONTINUOUS
 70
      64
  3
Solid line
 72
      65
 73
       0
 40
0.0
  0
LTYPE
  5
1D
100
AcDbSymbolTableRecord
100
AcDbLinetypeTableRecord
  2
HIDDENX2
 70
      64
  3
CADPAC LINETYPE
 72
      65
 73
       2
 40
21.92573761
 49
16.44430321
 74
       0
 49
-5.4814344
 74
       0
  0
LTYPE
  5
1E
100
AcDbSymbolTableRecord
100
AcDbLinetypeTableRecord
  2
HIDDEN
 70
      64
  3
CADPAC LINETYPE
 72
      65
 73
       2
 40
16.44430321
 49
10.9628688
 74
       0
 49
-5.4814344
 74
       0
  0
LTYPE
  5
1F
100
AcDbSymbolTableRecord
100
AcDbLinetypeTableRecord
  2
HIDDEN2
 70
      64
  3
CADPAC LINETYPE
 72
      65
 73
       2
 40
13.703586
 49
8.2221516
 74
       0
 49
-5.4814344
 74
       0
  0
LTYPE
  5
20
100
AcDbSymbolTableRecord
100
AcDbLinetypeTableRecord
  2
DASHED
 70
      64
  3
CADPAC LINETYPE
 72
      65
 73
       2
 40
16.44430321
 49
10.9628688
 74
       0
 49
-5.4814344
 74
       0
  0
LTYPE
  5
21
100
AcDbSymbolTableRecord
100
AcDbLinetypeTableRecord
  2
DASHED2
 70
      64
  3
CADPAC LINETYPE
 72
      65
 73
       2
 40
12.3332274
 49
8.2221516
 74
       0
 49
-4.1110758
 74
       0
  0
LTYPE
  5
22
100
AcDbSymbolTableRecord
100
AcDbLinetypeTableRecord
  2
DASHEDX2
 70
      64
  3
CADPAC LINETYPE
 72
      65
 73
       2
 40
24.66645481
 49
16.44430321
 74
       0
 49
-8.2221516
 74
       0
  0
LTYPE
  5
23
100
AcDbSymbolTableRecord
100
AcDbLinetypeTableRecord
  2
DOTX2
 70
      64
  3
CADPAC LINETYPE
 72
      65
 73
       2
 40
6.851793
 49
0.0
 74
       0
 49
-6.851793
 74
       0
  0
LTYPE
  5
24
100
AcDbSymbolTableRecord
100
AcDbLinetypeTableRecord
  2
DOT
 70
      64
  3
CADPAC LINETYPE
 72
      65
 73
       2
 40
5.4814344
 49
0.0
 74
       0
 49
-5.4814344
 74
       0
  0
LTYPE
  5
25
100
AcDbSymbolTableRecord
100
AcDbLinetypeTableRecord
  2
DOT2
 70
      64
  3
CADPAC LINETYPE
 72
      65
 73
       2
 40
4.1110758
 49
0.0
 74
       0
 49
-4.1110758
 74
       0
  0
LTYPE
  5
26
100
AcDbSymbolTableRecord
100
AcDbLinetypeTableRecord
  2
CENTERX2
 70
      64
  3
CADPAC LINETYPE
 72
      65
 73
       4
 40
32.88860641
 49
13.703586
 74
       0
 49
-6.851793
 74
       0
 49
5.4814344
 74
       0
 49
-6.851793
 74
       0
  0
LTYPE
  5
27
100
AcDbSymbolTableRecord
100
AcDbLinetypeTableRecord
  2
CENTER
 70
      64
  3
CADPAC LINETYPE
 72
      65
 73
       4
 40
25.21459825
 49
10.9628688
 74
       0
 49
-5.4814344
 74
       0
 49
3.28886064
 74
       0
 49
-5.4814344
 74
       0
  0
LTYPE
  5
28
100
AcDbSymbolTableRecord
100
AcDbLinetypeTableRecord
  2
CENTER2
 70
      64
  3
CADPAC LINETYPE
 72
      65
 73
       4
 40
17.54059009
 49
8.2221516
 74
       0
 49
-4.1110758
 74
       0
 49
1.09628688
 74
       0
 49
-4.1110758
 74
       0
  0
LTYPE
  5
29
100
AcDbSymbolTableRecord
100
AcDbLinetypeTableRecord
  2
DASHDOTX2
 70
      64
  3
CADPAC LINETYPE
 72
      65
 73
       4
 40
27.40717201
 49
13.703586
 74
       0
 49
-6.851793
 74
       0
 49
0.0
 74
       0
 49
-6.851793
 74
       0
  0
LTYPE
  5
2A
100
AcDbSymbolTableRecord
100
AcDbLinetypeTableRecord
  2
DASHDOT
 70
      64
  3
CADPAC LINETYPE
 72
      65
 73
       4
 40
21.92573761
 49
10.9628688
 74
       0
 49
-5.4814344
 74
       0
 49
0.0
 74
       0
 49
-5.4814344
 74
       0
  0
LTYPE
  5
2B
100
AcDbSymbolTableRecord
100
AcDbLinetypeTableRecord
  2
DASHDOT2
 70
      64
  3
CADPAC LINETYPE
 72
      65
 73
       4
 40
16.44430321
 49
8.2221516
 74
       0
 49
-4.1110758
 74
       0
 49
0.0
 74
       0
 49
-4.1110758
 74
       0
  0
LTYPE
  5
2C
100
AcDbSymbolTableRecord
100
AcDbLinetypeTableRecord
  2
DIVIDEX2
 70
      64
  3
CADPAC LINETYPE
 72
      65
 73
       6
 40
34.25896501
 49
13.703586
 74
       0
 49
-6.851793
 74
       0
 49
0.0
 74
       0
 49
-6.851793
 74
       0
 49
0.0
 74
       0
 49
-6.851793
 74
       0
  0
LTYPE
  5
2D
100
AcDbSymbolTableRecord
100
AcDbLinetypeTableRecord
  2
DIVIDE
 70
      64
  3
CADPAC LINETYPE
 72
      65
 73
       6
 40
27.40717201
 49
10.9628688
 74
       0
 49
-5.4814344
 74
       0
 49
0.0
 74
       0
 49
-5.4814344
 74
       0
 49
0.0
 74
       0
 49
-5.4814344
 74
       0
  0
LTYPE
  5
2E
100
AcDbSymbolTableRecord
100
AcDbLinetypeTableRecord
  2
DIVIDE2
 70
      64
  3
CADPAC LINETYPE
 72
      65
 73
       6
 40
20.55537901
 49
8.2221516
 74
       0
 49
-4.1110758
 74
       0
 49
0.0
 74
       0
 49
-4.1110758
 74
       0
 49
0.0
 74
       0
 49
-4.1110758
 74
       0
  0
LTYPE
  5
2F
100
AcDbSymbolTableRecord
100
AcDbLinetypeTableRecord
  2
BORDERX2
 70
      64
  3
CADPAC LINETYPE
 72
      65
 73
       6
 40
47.96255102
 49
13.703586
 74
       0
 49
-6.851793
 74
       0
 49
13.703586
 74
       0
 49
-6.851793
 74
       0
 49
0.0
 74
       0
 49
-6.851793
 74
       0
  0
LTYPE
  5
30
100
AcDbSymbolTableRecord
100
AcDbLinetypeTableRecord
  2
BORDER
 70
      64
  3
CADPAC LINETYPE
 72
      65
 73
       6
 40
38.37004081
 49
10.9628688
 74
       0
 49
-5.4814344
 74
       0
 49
10.9628688
 74
       0
 49
-5.4814344
 74
       0
 49
0.0
 74
       0
 49
-5.4814344
 74
       0
  0
LTYPE
  5
31
100
AcDbSymbolTableRecord
100
AcDbLinetypeTableRecord
  2
BORDER2
 70
      64
  3
CADPAC LINETYPE
 72
      65
 73
       6
 40
28.77753061
 49
8.2221516
 74
       0
 49
-4.1110758
 74
       0
 49
8.2221516
 74
       0
 49
-4.1110758
 74
       0
 49
0.0
 74
       0
 49
-4.1110758
 74
       0
  0
LTYPE
  5
32
100
AcDbSymbolTableRecord
100
AcDbLinetypeTableRecord
  2
PHANTOMX2
 70
      64
  3
CADPAC LINETYPE
 72
      65
 73
       6
 40
41.11075801
 49
13.703586
 74
       0
 49
-5.4814344
 74
       0
 49
5.4814344
 74
       0
 49
-5.4814344
 74
       0
 49
5.4814344
 74
       0
 49
-5.4814344
 74
       0
  0
LTYPE
  5
33
100
AcDbSymbolTableRecord
100
AcDbLinetypeTableRecord
  2
PHANTOM
 70
      64
  3
CADPAC LINETYPE
 72
      65
 73
       6
 40
33.98489329
 49
10.9628688
 74
       0
 49
-5.4814344
 74
       0
 49
3.28886064
 74
       0
 49
-5.4814344
 74
       0
 49
3.28886064
 74
       0
 49
-5.4814344
 74
       0
  0
LTYPE
  5
34
100
AcDbSymbolTableRecord
100
AcDbLinetypeTableRecord
  2
PHANTOM2
 70
      64
  3
CADPAC LINETYPE
 72
      65
 73
       6
 40
29.05160233
 49
8.2221516
 74
       0
 49
-5.4814344
 74
       0
 49
2.19257376
 74
       0
 49
-5.4814344
 74
       0
 49
2.19257376
 74
       0
 49
-5.4814344
 74
       0
  0
LTYPE
  5
35
100
AcDbSymbolTableRecord
100
AcDbLinetypeTableRecord
  2
ACAD_ISO06W100
 70
      64
  3
CADPAC LINETYPE
 72
      65
 73
       8
 40
36.99968221
 49
13.703586
 74
       0
 49
-6.851793
 74
       0
 49
0.0
 74
       0
 49
-5.4814344
 74
       0
 49
0.0
 74
       0
 49
-5.4814344
 74
       0
 49
0.0
 74
       0
 49
-5.4814344
 74
       0
  0
LTYPE
  5
36
100
AcDbSymbolTableRecord
100
AcDbLinetypeTableRecord
  2
ACAD_ISO13W100
 70
      64
  3
CADPAC LINETYPE
 72
      65
 73
       8
 40
43.85147521
 49
10.9628688
 74
       0
 49
-5.4814344
 74
       0
 49
10.9628688
 74
       0
 49
-5.4814344
 74
       0
 49
0.0
 74
       0
 49
-5.4814344
 74
       0
 49
0.0
 74
       0
 49
-5.4814344
 74
       0
  0
LTYPE
  5
37
100
AcDbSymbolTableRecord
100
AcDbLinetypeTableRecord
  2
ACAD_ISO14W100
 70
      64
  3
CADPAC LINETYPE
 72
      65
 73
       8
 40
32.88860641
 49
10.9628688
 74
       0
 49
-5.4814344
 74
       0
 49
0.0
 74
       0
 49
-5.4814344
 74
       0
 49
0.0
 74
       0
 49
-5.4814344
 74
       0
 49
0.0
 74
       0
 49
-5.4814344
 74
       0
  0
ENDTAB
  0
TABLE
  2
LAYER
  5
2
100
AcDbSymbolTable
 70
       2
  0
LAYER
  5
14
100
AcDbSymbolTableRecord
100
AcDbLayerTableRecord
  2
0
 70
       0
 62
       7
  6
CONTINUOUS
  0
LAYER
  5
38
100
AcDbSymbolTableRecord
100
AcDbLayerTableRecord
  2
SLD-0
 70
       0
 62
       7
  6
CONTINUOUS
  0
ENDTAB
  0
TABLE
  2
STYLE
  5
3
100
AcDbSymbolTable
 70
       1
  0
STYLE
  5
17
100
AcDbSymbolTableRecord
100
AcDbTextStyleTableRecord
  2
STANDARD
 70
       0
 40
0.0
 41
1.0
 50
0.0
 71
       0
 42
5.0
  3
txt.shx
  4
bigfont.shx
  0
ENDTAB
  0
TABLE
  2
VIEW
  5
5
100
AcDbSymbolTable
 70
       1
  0
VIEW
  5
39
100
AcDbSymbolTableRecord
100
AcDbViewTableRecord
  2
QQQQ
 70
       0
 40
411.94316464
 10
-2.25
 20
0.0
 41
313.54309343
 11
0.0
 21
0.0
 31
1.0
 12
100.0
 22
100.0
 32
0.0
 42
50.0
 43
0.0
 44
0.0
 50
0.0
 71
       0
  0
ENDTAB
  0
TABLE
  2
UCS
  5
6
100
AcDbSymbolTable
 70
       0
  0
ENDTAB
  0
TABLE
  2
APPID
  5
8
100
AcDbSymbolTable
 70
       1
  0
APPID
  5
16
100
AcDbSymbolTableRecord
100
AcDbRegAppTableRecord
  2
ACAD
 70
       0
  0
ENDTAB
  0
TABLE
  2
DIMSTYLE
  5
9
100
AcDbSymbolTable
 70
       1
  0
DIMSTYLE
105
18
100
AcDbSymbolTableRecord
100
AcDbDimStyleTableRecord
  2
STANDARD
 70
       0
  3

  4

  5

  6

  7

 40
1.0
 41
0.18
 42
0.0625
 43
0.38
 44
0.18
 45
0.0
 46
0.0
 47
0.0
 48
0.0
 71
       0
 72
       0
 73
       1
 74
       1
 75
       0
 76
       0
 77
       0
 78
       0
140
0.18
141
0.09
142
0.0
143
25.4
144
1.0
145
0.0
146
1.0
147
0.09
170
       0
171
       2
172
       0
173
       0
174
       0
175
       0
176
       0
177
       0
178
       0
270
       2
271
       4
272
       4
273
       2
274
       2
275
       0
280
       0
281
       0
282
       0
283
       1
284
       0
285
       0
286
       0
287
       0
288
       0
340
17
  0
ENDTAB
  0
TABLE
  2
BLOCK_RECORD
  5
1
100
AcDbSymbolTable
 70
       0
  0
BLOCK_RECORD
  5
A
100
AcDbSymbolTableRecord
100
AcDbBlockTableRecord
  2
*MODEL_SPACE
  0
BLOCK_RECORD
  5
B
100
AcDbSymbolTableRecord
100
AcDbBlockTableRecord
  2
*PAPER_SPACE
  0
ENDTAB
  0
ENDSEC
  0
SECTION
  2
BLOCKS
  0
BLOCK
  5
D
100
AcDbEntity
  8
0
100
AcDbBlockBegin
  2
*MODEL_SPACE
 70
       0
 10
0.0
 20
0.0
 30
0.0
  3
*MODEL_SPACE
  1

  0
ENDBLK
  5
E
100
AcDbEntity
  8
0
100
AcDbBlockEnd
  0
BLOCK
  5
F
100
AcDbEntity
 67
       1
  8
0
100
AcDbBlockBegin
  2
*PAPER_SPACE
 70
       0
 10
0.0
 20
0.0
 30
0.0
  3
*PAPER_SPACE
  1

  0
ENDBLK
  5
10
100
AcDbEntity
 67
       1
  8
0
100
AcDbBlockEnd
  0
ENDSEC
  0
SECTION
  2
ENTITIES
  0
LINE
  5
3A
100
AcDbEntity
  8
SLD-0
  6
CONTINUOUS
 62
       3
100
AcDbLine
 10
-105.96706236
 20
-50.63614598
 30
0.0
 11
-105.96706236
 21
-55.13614602
 31
0.0
  0
LINE
  5
3B
100
AcDbEntity
  8
SLD-0
  6
CONTINUOUS
 62
       3
100
AcDbLine
 10
-105.96706236
 20
-50.63614598
 30
0.0
 11
-131.96706202
 21
-50.63614598
 31
0.0
  0
LINE
  5
3C
100
AcDbEntity
  8
SLD-0
  6
CONTINUOUS
 62
       3
100
AcDbLine
 10
-131.96706202
 20
-64.63614664
 30
0.0
 11
-131.96706202
 21
-50.63614598
 31
0.0
  0
LINE
  5
3D
100
AcDbEntity
  8
SLD-0
  6
CONTINUOUS
 62
       3
100
AcDbLine
 10
-131.96706202
 20
-64.63614664
 30
0.0
 11
-133.4670632
 21
-64.63614664
 31
0.0
  0
LINE
  5
3E
100
AcDbEntity
  8
SLD-0
  6
CONTINUOUS
 62
       3
100
AcDbLine
 10
-133.4670632
 20
-64.63614664
 30
0.0
 11
-133.4670632
 21
-48.63614588
 31
0.0
  0
LINE
  5
3F
100
AcDbEntity
  8
SLD-0
  6
CONTINUOUS
 62
       3
100
AcDbLine
 10
-77.46706147
 20
-48.63614588
 30
0.0
 11
-133.4670632
 21
-48.63614588
 31
0.0
  0
LINE
  5
40
100
AcDbEntity
  8
SLD-0
  6
CONTINUOUS
 62
       3
100
AcDbLine
 10
-77.46706147
 20
-64.63614664
 30
0.0
 11
-77.46706147
 21
-48.63614588
 31
0.0
  0
LINE
  5
41
100
AcDbEntity
  8
SLD-0
  6
CONTINUOUS
 62
       3
100
AcDbLine
 10
-78.96706265
 20
-64.63614664
 30
0.0
 11
-77.46706147
 21
-64.63614664
 31
0.0
  0
LINE
  5
42
100
AcDbEntity
  8
SLD-0
  6
CONTINUOUS
 62
       3
100
AcDbLine
 10
-78.96706265
 20
-64.63614664
 30
0.0
 11
-78.96706265
 21
-50.63614598
 31
0.0
  0
LINE
  5
43
100
AcDbEntity
  8
SLD-0
  6
CONTINUOUS
 62
       3
100
AcDbLine
 10
-78.96706265
 20
-50.63614598
 30
0.0
 11
-104.96706231
 21
-50.63614598
 31
0.0
  0
LINE
  5
44
100
AcDbEntity
  8
SLD-0
  6
CONTINUOUS
 62
       3
100
AcDbLine
 10
-104.96706231
 20
-55.13614602
 30
0.0
 11
-104.96706231
 21
-50.63614598
 31
0.0
  0
LINE
  5
45
100
AcDbEntity
  8
SLD-0
  6
CONTINUOUS
 62
       3
100
AcDbLine
 10
-104.06706221
 20
-56.80647553
 30
0.0
 11
-104.06706221
 21
-64.63614725
 31
0.0
  0
LINE
  5
46
100
AcDbEntity
  8
SLD-0
  6
CONTINUOUS
 62
       3
100
AcDbLine
 10
-104.06706221
 20
-64.63614725
 30
0.0
 11
-106.86706211
 21
-64.63614725
 31
0.0
  0
LINE
  5
47
100
AcDbEntity
  8
SLD-0
  6
CONTINUOUS
 62
       3
100
AcDbLine
 10
-106.86706211
 20
-56.80647553
 30
0.0
 11
-106.86706211
 21
-64.63614725
 31
0.0
  0
LINE
  5
48
100
AcDbEntity
  8
SLD-0
  6
CONTINUOUS
 62
       3
100
AcDbLine
 10
-86.21706244
 20
-50.63614598
 30
0.0
 11
-86.21706244
 21
-53.63614577
 31
0.0
  0
LINE
  5
49
100
AcDbEntity
  8
SLD-0
  6
CONTINUOUS
 62
       3
100
AcDbLine
 10
-86.21706244
 20
-53.63614577
 30
0.0
 11
-87.2170626
 21
-53.63614577
 31
0.0
  0
LINE
  5
4A
100
AcDbEntity
  8
SLD-0
  6
CONTINUOUS
 62
       3
100
AcDbLine
 10
-87.2170626
 20
-50.63614598
 30
0.0
 11
-87.2170626
 21
-53.63614577
 31
0.0
  0
LINE
  5
4B
100
AcDbEntity
  8
SLD-0
  6
CONTINUOUS
 62
       3
100
AcDbLine
 10
-114.71706245
 20
-53.63614577
 30
0.0
 11
-113.71706229
 21
-53.63614577
 31
0.0
  0
LINE
  5
4C
100
AcDbEntity
  8
SLD-0
  6
CONTINUOUS
 62
       3
100
AcDbLine
 10
-114.71706245
 20
-50.63614598
 30
0.0
 11
-114.71706245
 21
-53.63614577
 31
0.0
  0
LINE
  5
4D
100
AcDbEntity
  8
SLD-0
  6
CONTINUOUS
 62
       3
100
AcDbLine
 10
-113.71706229
 20
-50.63614598
 30
0.0
 11
-113.71706229
 21
-53.63614577
 31
0.0
  0
LINE
  5
4E
100
AcDbEntity
  8
SLD-0
  6
CONTINUOUS
 62
       3
100
AcDbLine
 10
-96.21706222
 20
-50.63614598
 30
0.0
 11
-96.21706222
 21
-53.63614577
 31
0.0
  0
LINE
  5
4F
100
AcDbEntity
  8
SLD-0
  6
CONTINUOUS
 62
       3
100
AcDbLine
 10
-96.21706222
 20
-53.63614577
 30
0.0
 11
-97.21706238
 21
-53.63614577
 31
0.0
  0
LINE
  5
50
100
AcDbEntity
  8
SLD-0
  6
CONTINUOUS
 62
       3
100
AcDbLine
 10
-97.21706238
 20
-50.63614598
 30
0.0
 11
-97.21706238
 21
-53.63614577
 31
0.0
  0
LINE
  5
51
100
AcDbEntity
  8
SLD-0
  6
CONTINUOUS
 62
       3
100
AcDbLine
 10
-124.71706223
 20
-53.63614577
 30
0.0
 11
-123.71706207
 21
-53.63614577
 31
0.0
  0
LINE
  5
52
100
AcDbEntity
  8
SLD-0
  6
CONTINUOUS
 62
       3
100
AcDbLine
 10
-123.71706207
 20
-50.63614598
 30
0.0
 11
-123.71706207
 21
-53.63614577
 31
0.0
  0
LINE
  5
53
100
AcDbEntity
  8
SLD-0
  6
CONTINUOUS
 62
       3
100
AcDbLine
 10
-124.71706223
 20
-50.63614598
 30
0.0
 11
-124.71706223
 21
-53.63614577
 31
0.0
  0
LINE
  5
54
100
AcDbEntity
  8
SLD-0
  6
CONTINUOUS
 62
       3
100
AcDbLine
 10
-126.26706239
 20
-55.6361461
 30
0.0
 11
-108.46706236
 21
-55.6361461
 31
0.0
  0
LINE
  5
55
100
AcDbEntity
  8
SLD-0
  6
CONTINUOUS
 62
       3
100
AcDbLine
 10
-83.66706211
 20
-50.63614598
 30
0.0
 11
-83.66706234
 21
-54.63614594
 31
0.0
  0
LINE
  5
56
100
AcDbEntity
  8
SLD-0
  6
CONTINUOUS
 62
       3
100
AcDbLine
 10
-103.46706224
 20
-50.63614598
 30
0.0
 11
-103.46706224
 21
-54.63614588
 31
0.0
  0
LINE
  5
57
100
AcDbEntity
  8
SLD-0
  6
CONTINUOUS
 62
       3
100
AcDbLine
 10
-84.66706228
 20
-55.6361461
 30
0.0
 11
-102.46706231
 21
-55.6361461
 31
0.0
  0
LINE
  5
58
100
AcDbEntity
  8
SLD-0
  6
CONTINUOUS
 62
       3
100
AcDbLine
 10
-127.26706256
 20
-50.63614598
 30
0.0
 11
-127.26706256
 21
-54.63614594
 31
0.0
  0
LINE
  5
59
100
AcDbEntity
  8
SLD-0
  6
CONTINUOUS
 62
       3
100
AcDbLine
 10
-107.46706243
 20
-50.63614598
 30
0.0
 11
-107.46706243
 21
-54.63614588
 31
0.0
  0
LINE
  5
5A
100
AcDbEntity
  8
SLD-0
  6
CONTINUOUS
 62
       3
100
AcDbLine
 10
-78.96706265
 20
-174.63614791
 30
0.0
 11
-78.96706265
 21
-173.63614588
 31
0.0
  0
LINE
  5
5B
100
AcDbEntity
  8
SLD-0
  6
CONTINUOUS
 62
       3
100
AcDbLine
 10
-78.96706265
 20
-173.63614588
 30
0.0
 11
-77.46706147
 21
-173.63614588
 31
0.0
  0
LINE
  5
5C
100
AcDbEntity
  8
SLD-0
  6
CONTINUOUS
 62
       3
100
AcDbLine
 10
-78.96706265
 20
-177.13614553
 30
0.0
 11
-84.96706177
 21
-177.13614553
 31
0.0
  0
LINE
  5
5D
100
AcDbEntity
  8
SLD-0
  6
CONTINUOUS
 62
       3
100
AcDbLine
 10
-78.96706265
 20
-174.63614791
 30
0.0
 11
-78.96706265
 21
-177.13614553
 31
0.0
  0
LINE
  5
5E
100
AcDbEntity
  8
SLD-0
  6
CONTINUOUS
 62
       3
100
AcDbLine
 10
-133.4670632
 20
-178.63614111
 30
0.0
 11
-77.46706147
 21
-178.63614111
 31
0.0
  0
LINE
  5
5F
100
AcDbEntity
  8
SLD-0
  6
CONTINUOUS
 62
       3
100
AcDbLine
 10
-125.9670629
 20
-177.13614553
 30
0.0
 11
-131.96706202
 21
-177.13614553
 31
0.0
  0
LINE
  5
60
100
AcDbEntity
  8
SLD-0
  6
CONTINUOUS
 62
       3
100
AcDbLine
 10
-112.96706217
 20
-176.63615196
 30
0.0
 11
-125.9670629
 21
-176.63615196
 31
0.0
  0
LINE
  5
61
100
AcDbEntity
  8
SLD-0
  6
CONTINUOUS
 62
       3
100
AcDbLine
 10
-112.96706217
 20
-177.13614553
 30
0.0
 11
-112.96706217
 21
-176.63615196
 31
0.0
  0
LINE
  5
62
100
AcDbEntity
  8
SLD-0
  6
CONTINUOUS
 62
       3
100
AcDbLine
 10
-106.86706229
 20
-177.13614553
 30
0.0
 11
-112.96706217
 21
-177.13614553
 31
0.0
  0
LINE
  5
63
100
AcDbEntity
  8
SLD-0
  6
CONTINUOUS
 62
       3
100
AcDbLine
 10
-106.86706229
 20
-177.13614553
 30
0.0
 11
-106.86706229
 21
-174.63614791
 31
0.0
  0
LINE
  5
64
100
AcDbEntity
  8
SLD-0
  6
CONTINUOUS
 62
       3
100
AcDbLine
 10
-97.9670625
 20
-177.13614553
 30
0.0
 11
-104.06706239
 21
-177.13614553
 31
0.0
  0
LINE
  5
65
100
AcDbEntity
  8
SLD-0
  6
CONTINUOUS
 62
       3
100
AcDbLine
 10
-97.9670625
 20
-177.13614553
 30
0.0
 11
-97.9670625
 21
-176.63615196
 31
0.0
  0
LINE
  5
66
100
AcDbEntity
  8
SLD-0
  6
CONTINUOUS
 62
       3
100
AcDbLine
 10
-84.96706177
 20
-176.63615196
 30
0.0
 11
-97.9670625
 21
-176.63615196
 31
0.0
  0
LINE
  5
67
100
AcDbEntity
  8
SLD-0
  6
CONTINUOUS
 62
       3
100
AcDbLine
 10
-84.96706177
 20
-176.63615196
 30
0.0
 11
-84.96706177
 21
-177.13614553
 31
0.0
  0
LINE
  5
68
100
AcDbEntity
  8
SLD-0
  6
CONTINUOUS
 62
       3
100
AcDbLine
 10
-131.96706202
 20
-177.13614553
 30
0.0
 11
-131.96706202
 21
-174.63614791
 31
0.0
  0
LINE
  5
69
100
AcDbEntity
  8
SLD-0
  6
CONTINUOUS
 62
       3
100
AcDbLine
 10
-104.06706239
 20
-174.63614791
 30
0.0
 11
-104.06706239
 21
-177.13614553
 31
0.0
  0
LINE
  5
6A
100
AcDbEntity
  8
SLD-0
  6
CONTINUOUS
 62
       3
100
AcDbLine
 10
-125.9670629
 20
-176.63615196
 30
0.0
 11
-125.9670629
 21
-177.13614553
 31
0.0
  0
LINE
  5
6B
100
AcDbEntity
  8
SLD-0
  6
CONTINUOUS
 62
       3
100
AcDbLine
 10
-133.4670632
 20
-174.63614791
 30
0.0
 11
-133.4670632
 21
-178.63614111
 31
0.0
  0
LINE
  5
6C
100
AcDbEntity
  8
SLD-0
  6
CONTINUOUS
 62
       3
100
AcDbLine
 10
-106.86706229
 20
-173.63614588
 30
0.0
 11
-104.06706239
 21
-173.63614588
 31
0.0
  0
LINE
  5
6D
100
AcDbEntity
  8
SLD-0
  6
CONTINUOUS
 62
       3
100
AcDbLine
 10
-106.86706229
 20
-174.63614791
 30
0.0
 11
-106.86706229
 21
-173.63614588
 31
0.0
  0
LINE
  5
6E
100
AcDbEntity
  8
SLD-0
  6
CONTINUOUS
 62
       3
100
AcDbLine
 10
-104.06706239
 20
-173.63614588
 30
0.0
 11
-104.06706239
 21
-174.63614791
 31
0.0
  0
LINE
  5
6F
100
AcDbEntity
  8
SLD-0
  6
CONTINUOUS
 62
       3
100
AcDbLine
 10
-133.4670632
 20
-173.63614588
 30
0.0
 11
-131.96706202
 21
-173.63614588
 31
0.0
  0
LINE
  5
70
100
AcDbEntity
  8
SLD-0
  6
CONTINUOUS
 62
       3
100
AcDbLine
 10
-131.96706202
 20
-173.63614588
 30
0.0
 11
-131.96706202
 21
-174.63614791
 31
0.0
  0
LINE
  5
71
100
AcDbEntity
  8
SLD-0
  6
CONTINUOUS
 62
       3
100
AcDbLine
 10
-133.4670632
 20
-174.63614791
 30
0.0
 11
-133.4670632
 21
-173.63614588
 31
0.0
  0
LINE
  5
72
100
AcDbEntity
  8
SLD-0
  6
CONTINUOUS
 62
       3
100
AcDbLine
 10
-125.9670629
 20
-176.1361435
 30
0.0
 11
-112.96706217
 21
-176.1361435
 31
0.0
  0
LINE
  5
73
100
AcDbEntity
  8
SLD-0
  6
CONTINUOUS
 62
       3
100
AcDbLine
 10
-112.96706217
 20
-176.1361435
 30
0.0
 11
-112.96706217
 21
-176.63615196
 31
0.0
  0
LINE
  5
74
100
AcDbEntity
  8
SLD-0
  6
CONTINUOUS
 62
       3
100
AcDbLine
 10
-125.9670629
 20
-176.63615196
 30
0.0
 11
-125.9670629
 21
-176.1361435
 31
0.0
  0
LINE
  5
75
100
AcDbEntity
  8
SLD-0
  6
CONTINUOUS
 62
       3
100
AcDbLine
 10
-104.06706239
 20
-176.63615196
 30
0.0
 11
-97.9670625
 21
-176.63615196
 31
0.0
  0
LINE
  5
76
100
AcDbEntity
  8
SLD-0
  6
CONTINUOUS
 62
       3
100
AcDbLine
 10
-112.96706217
 20
-176.63615196
 30
0.0
 11
-106.86706229
 21
-176.63615196
 31
0.0
  0
LINE
  5
77
100
AcDbEntity
  8
SLD-0
  6
CONTINUOUS
 62
       3
100
AcDbLine
 10
-131.96706202
 20
-176.63615196
 30
0.0
 11
-125.9670629
 21
-176.63615196
 31
0.0
  0
LINE
  5
78
100
AcDbEntity
  8
SLD-0
  6
CONTINUOUS
 62
       3
100
AcDbLine
 10
-84.96706177
 20
-176.63615196
 30
0.0
 11
-78.96706265
 21
-176.63615196
 31
0.0
  0
LINE
  5
79
100
AcDbEntity
  8
SLD-0
  6
CONTINUOUS
 62
       3
100
AcDbLine
 10
-97.9670625
 20
-176.1361435
 30
0.0
 11
-84.96706177
 21
-176.1361435
 31
0.0
  0
LINE
  5
7A
100
AcDbEntity
  8
SLD-0
  6
CONTINUOUS
 62
       3
100
AcDbLine
 10
-84.96706177
 20
-176.1361435
 30
0.0
 11
-84.96706177
 21
-176.63615196
 31
0.0
  0
LINE
  5
7B
100
AcDbEntity
  8
SLD-0
  6
CONTINUOUS
 62
       3
100
AcDbLine
 10
-97.9670625
 20
-176.63615196
 30
0.0
 11
-97.9670625
 21
-176.1361435
 31
0.0
  0
LINE
  5
7C
100
AcDbEntity
  8
SLD-0
  6
CONTINUOUS
 62
       3
100
AcDbLine
 10
-100.46706245
 20
-58.63614566
 30
0.0
 11
-100.46706245
 21
-60.63614599
 31
0.0
  0
LINE
  5
7D
100
AcDbEntity
  8
SLD-0
  6
CONTINUOUS
 62
       3
100
AcDbLine
 10
-100.46706245
 20
-60.63614599
 30
0.0
 11
-104.06706239
 21
-60.63614599
 31
0.0
  0
LINE
  5
7E
100
AcDbEntity
  8
SLD-0
  6
CONTINUOUS
 62
       3
100
AcDbLine
 10
-104.06706239
 20
-58.63614566
 30
0.0
 11
-100.46706245
 21
-58.63614566
 31
0.0
  0
LINE
  5
7F
100
AcDbEntity
  8
SLD-0
  6
CONTINUOUS
 62
       3
100
AcDbLine
 10
-110.46706222
 20
-60.63614599
 30
0.0
 11
-106.86706229
 21
-60.63614599
 31
0.0
  0
LINE
  5
80
100
AcDbEntity
  8
SLD-0
  6
CONTINUOUS
 62
       3
100
AcDbLine
 10
-106.86706229
 20
-58.63614566
 30
0.0
 11
-110.46706222
 21
-58.63614566
 31
0.0
  0
LINE
  5
81
100
AcDbEntity
  8
SLD-0
  6
CONTINUOUS
 62
       3
100
AcDbLine
 10
-110.46706222
 20
-58.63614566
 30
0.0
 11
-110.46706222
 21
-60.63614599
 31
0.0
  0
LINE
  5
82
100
AcDbEntity
  8
SLD-0
  6
CONTINUOUS
 62
       3
100
AcDbLine
 10
-78.96706265
 20
-60.63614599
 30
0.0
 11
-82.46706229
 21
-60.63614599
 31
0.0
  0
LINE
  5
83
100
AcDbEntity
  8
SLD-0
  6
CONTINUOUS
 62
       3
100
AcDbLine
 10
-82.46706229
 20
-60.63614599
 30
0.0
 11
-82.46706229
 21
-58.63614566
 31
0.0
  0
LINE
  5
84
100
AcDbEntity
  8
SLD-0
  6
CONTINUOUS
 62
       3
100
AcDbLine
 10
-82.46706229
 20
-58.63614566
 30
0.0
 11
-78.96706265
 21
-58.63614566
 31
0.0
  0
LINE
  5
85
100
AcDbEntity
  8
SLD-0
  6
CONTINUOUS
 62
       3
100
AcDbLine
 10
-128.46706238
 20
-58.63614566
 30
0.0
 11
-131.96706202
 21
-58.63614566
 31
0.0
  0
LINE
  5
86
100
AcDbEntity
  8
SLD-0
  6
CONTINUOUS
 62
       3
100
AcDbLine
 10
-131.96706202
 20
-60.63614599
 30
0.0
 11
-128.46706238
 21
-60.63614599
 31
0.0
  0
LINE
  5
87
100
AcDbEntity
  8
SLD-0
  6
CONTINUOUS
 62
       3
100
AcDbLine
 10
-128.46706238
 20
-60.63614599
 30
0.0
 11
-128.46706238
 21
-58.63614566
 31
0.0
  0
LINE
  5
88
100
AcDbEntity
  8
SLD-0
  6
CONTINUOUS
 62
       3
100
AcDbLine
 10
-81.06706281
 20
-175.18614977
 30
0.0
 11
-78.96706265
 21
-175.18614977
 31
0.0
  0
LINE
  5
89
100
AcDbEntity
  8
SLD-0
  6
CONTINUOUS
 62
       3
100
AcDbLine
 10
-81.06706281
 20
-173.98614436
 30
0.0
 11
-81.06706281
 21
-175.18614977
 31
0.0
  0
LINE
  5
8A
100
AcDbEntity
  8
SLD-0
  6
CONTINUOUS
 62
       3
100
AcDbLine
 10
-78.96706265
 20
-173.98614436
 30
0.0
 11
-81.06706281
 21
-173.98614436
 31
0.0
  0
LINE
  5
8B
100
AcDbEntity
  8
SLD-0
  6
CONTINUOUS
 62
       3
100
AcDbLine
 10
-101.46706215
 20
-175.18614977
 30
0.0
 11
-101.46706215
 21
-173.98614436
 31
0.0
  0
LINE
  5
8C
100
AcDbEntity
  8
SLD-0
  6
CONTINUOUS
 62
       3
100
AcDbLine
 10
-104.06706239
 20
-175.18614977
 30
0.0
 11
-101.46706215
 21
-175.18614977
 31
0.0
  0
LINE
  5
8D
100
AcDbEntity
  8
SLD-0
  6
CONTINUOUS
 62
       3
100
AcDbLine
 10
-101.46706215
 20
-173.98614436
 30
0.0
 11
-104.06706239
 21
-173.98614436
 31
0.0
  0
LINE
  5
8E
100
AcDbEntity
  8
SLD-0
  6
CONTINUOUS
 62
       3
100
AcDbLine
 10
-106.86706229
 20
-175.18614977
 30
0.0
 11
-109.46706253
 21
-175.18614977
 31
0.0
  0
LINE
  5
8F
100
AcDbEntity
  8
SLD-0
  6
CONTINUOUS
 62
       3
100
AcDbLine
 10
-109.46706253
 20
-175.18614977
 30
0.0
 11
-109.46706253
 21
-173.98614436
 31
0.0
  0
LINE
  5
90
100
AcDbEntity
  8
SLD-0
  6
CONTINUOUS
 62
       3
100
AcDbLine
 10
-109.46706253
 20
-173.98614436
 30
0.0
 11
-106.86706229
 21
-173.98614436
 31
0.0
  0
LINE
  5
91
100
AcDbEntity
  8
SLD-0
  6
CONTINUOUS
 62
       3
100
AcDbLine
 10
-129.86706186
 20
-175.18614977
 30
0.0
 11
-131.96706202
 21
-175.18614977
 31
0.0
  0
LINE
  5
92
100
AcDbEntity
  8
SLD-0
  6
CONTINUOUS
 62
       3
100
AcDbLine
 10
-131.96706202
 20
-173.98614436
 30
0.0
 11
-129.86706186
 21
-173.98614436
 31
0.0
  0
LINE
  5
93
100
AcDbEntity
  8
SLD-0
  6
CONTINUOUS
 62
       3
100
AcDbLine
 10
-129.86706186
 20
-173.98614436
 30
0.0
 11
-129.86706186
 21
-175.18614977
 31
0.0
  0
LINE
  5
94
100
AcDbEntity
  8
SLD-0
  6
CONTINUOUS
 62
       3
100
AcDbLine
 10
-126.06706273
 20
-176.63615196
 30
0.0
 11
-126.06706273
 21
-171.13614827
 31
0.0
  0
LINE
  5
95
100
AcDbEntity
  8
SLD-0
  6
CONTINUOUS
 62
       3
100
AcDbLine
 10
-126.06706273
 20
-171.13614827
 30
0.0
 11
-124.34004609
 21
-171.13614827
 31
0.0
  0
LINE
  5
96
100
AcDbEntity
  8
SLD-0
  6
CONTINUOUS
 62
       3
100
AcDbLine
 10
-124.34004609
 20
-171.13614827
 30
0.0
 11
-124.26706206
 21
-171.13614827
 31
0.0
  0
LINE
  5
97
100
AcDbEntity
  8
SLD-0
  6
CONTINUOUS
 62
       3
100
AcDbLine
 10
-124.26706206
 20
-176.1361435
 30
0.0
 11
-124.26706206
 21
-171.13614827
 31
0.0
  0
LINE
  5
98
100
AcDbEntity
  8
SLD-0
  6
CONTINUOUS
 62
       3
100
AcDbLine
 10
-86.66706261
 20
-176.1361435
 30
0.0
 11
-86.66706261
 21
-171.13614827
 31
0.0
  0
LINE
  5
99
100
AcDbEntity
  8
SLD-0
  6
CONTINUOUS
 62
       3
100
AcDbLine
 10
-86.59407858
 20
-171.13614827
 30
0.0
 11
-86.66706261
 21
-171.13614827
 31
0.0
  0
LINE
  5
9A
100
AcDbEntity
  8
SLD-0
  6
CONTINUOUS
 62
       3
100
AcDbLine
 10
-84.86706194
 20
-171.13614827
 30
0.0
 11
-86.59407858
 21
-171.13614827
 31
0.0
  0
LINE
  5
9B
100
AcDbEntity
  8
SLD-0
  6
CONTINUOUS
 62
       3
100
AcDbLine
 10
-84.86706194
 20
-176.63615196
 30
0.0
 11
-84.86706194
 21
-171.13614827
 31
0.0
  0
LINE
  5
9C
100
AcDbEntity
  8
SLD-0
  6
CONTINUOUS
 62
       3
100
AcDbLine
 10
-110.16706227
 20
-176.63615196
 30
0.0
 11
-110.16706227
 21
-171.13614827
 31
0.0
  0
LINE
  5
9D
100
AcDbEntity
  8
SLD-0
  6
CONTINUOUS
 62
       3
100
AcDbLine
 10
-111.96706247
 20
-176.63615196
 30
0.0
 11
-111.96706247
 21
-171.13614827
 31
0.0
  0
LINE
  5
9E
100
AcDbEntity
  8
SLD-0
  6
CONTINUOUS
 62
       3
100
AcDbLine
 10
-111.96706247
 20
-171.13614827
 30
0.0
 11
-110.16706227
 21
-171.13614827
 31
0.0
  0
LINE
  5
9F
100
AcDbEntity
  8
SLD-0
  6
CONTINUOUS
 62
       3
100
AcDbLine
 10
-98.9670622
 20
-176.63615196
 30
0.0
 11
-98.9670622
 21
-171.13614827
 31
0.0
  0
LINE
  5
A0
100
AcDbEntity
  8
SLD-0
  6
CONTINUOUS
 62
       3
100
AcDbLine
 10
-100.7670624
 20
-176.63615196
 30
0.0
 11
-100.7670624
 21
-171.13614827
 31
0.0
  0
LINE
  5
A1
100
AcDbEntity
  8
SLD-0
  6
CONTINUOUS
 62
       3
100
AcDbLine
 10
-98.9670622
 20
-171.13614827
 30
0.0
 11
-100.7670624
 21
-171.13614827
 31
0.0
  0
LINE
  5
A2
100
AcDbEntity
  8
SLD-0
  6
CONTINUOUS
 62
       3
100
AcDbLine
 10
-131.96706202
 20
-89.98614549
 30
0.0
 11
-131.46706147
 21
-90.48614604
 31
0.0
  0
LINE
  5
A3
100
AcDbEntity
  8
SLD-0
  6
CONTINUOUS
 62
       3
100
AcDbLine
 10
-131.46706147
 20
-136.78614841
 30
0.0
 11
-131.96706202
 21
-137.28614896
 31
0.0
  0
LINE
  5
A4
100
AcDbEntity
  8
SLD-0
  6
CONTINUOUS
 62
       3
100
AcDbLine
 10
-131.96706202
 20
-137.28614896
 30
0.0
 11
-131.96706202
 21
-173.63614588
 31
0.0
  0
LINE
  5
A5
100
AcDbEntity
  8
SLD-0
  6
CONTINUOUS
 62
       3
100
AcDbLine
 10
-133.4670632
 20
-64.63614664
 30
0.0
 11
-133.4670632
 21
-173.63614588
 31
0.0
  0
LINE
  5
A6
100
AcDbEntity
  8
SLD-0
  6
CONTINUOUS
 62
       3
100
AcDbLine
 10
-131.96706202
 20
-64.63614664
 30
0.0
 11
-131.96706202
 21
-89.98614549
 31
0.0
  0
LINE
  5
A7
100
AcDbEntity
  8
SLD-0
  6
CONTINUOUS
 62
       3
100
AcDbLine
 10
-131.96706202
 20
-54.78614568
 30
0.0
 11
-128.76706187
 21
-54.78614568
 31
0.0
  0
LINE
  5
A8
100
AcDbEntity
  8
SLD-0
  6
CONTINUOUS
 62
       3
100
AcDbLine
 10
-128.76706187
 20
-52.68614599
 30
0.0
 11
-128.76706187
 21
-54.78614568
 31
0.0
  0
LINE
  5
A9
100
AcDbEntity
  8
SLD-0
  6
CONTINUOUS
 62
       3
100
AcDbLine
 10
-128.76706187
 20
-50.63614598
 30
0.0
 11
-128.76706187
 21
-52.68614599
 31
0.0
  0
LINE
  5
AA
100
AcDbEntity
  8
SLD-0
  6
CONTINUOUS
 62
       3
100
AcDbLine
 10
-78.96706265
 20
-173.63614588
 30
0.0
 11
-78.96706265
 21
-166.13614588
 31
0.0
  0
LINE
  5
AB
100
AcDbEntity
  8
SLD-0
  6
CONTINUOUS
 62
       3
100
AcDbLine
 10
-78.96706265
 20
-66.13614111
 30
0.0
 11
-78.96706265
 21
-64.63614664
 31
0.0
  0
LINE
  5
AC
100
AcDbEntity
  8
SLD-0
  6
CONTINUOUS
 62
       3
100
AcDbLine
 10
-128.76706187
 20
-174.58613961
 30
0.0
 11
-128.76706187
 21
-176.63615196
 31
0.0
  0
LINE
  5
AD
100
AcDbEntity
  8
SLD-0
  6
CONTINUOUS
 62
       3
100
AcDbLine
 10
-131.96706202
 20
-172.48614877
 30
0.0
 11
-128.76706187
 21
-172.48614877
 31
0.0
  0
LINE
  5
AE
100
AcDbEntity
  8
SLD-0
  6
CONTINUOUS
 62
       3
100
AcDbLine
 10
-128.76706187
 20
-172.48614877
 30
0.0
 11
-128.76706187
 21
-174.58613961
 31
0.0
  0
LINE
  5
AF
100
AcDbEntity
  8
SLD-0
  6
CONTINUOUS
 62
       3
100
AcDbLine
 10
-104.56706235
 20
-173.63614588
 30
0.0
 11
-104.56706235
 21
-166.13614588
 31
0.0
  0
LINE
  5
B0
100
AcDbEntity
  8
SLD-0
  6
CONTINUOUS
 62
       3
100
AcDbLine
 10
-106.36706232
 20
-166.13614588
 30
0.0
 11
-106.36706232
 21
-173.63614588
 31
0.0
  0
LINE
  5
B1
100
AcDbEntity
  8
SLD-0
  6
CONTINUOUS
 62
       3
100
AcDbLine
 10
-126.76706239
 20
-57.13614588
 30
0.0
 11
-107.96706239
 21
-57.13614634
 31
0.0
  0
LINE
  5
B2
100
AcDbEntity
  8
SLD-0
  6
CONTINUOUS
 62
       3
100
AcDbLine
 10
-84.16706277
 20
-57.13614634
 30
0.0
 11
-102.96706198
 21
-57.13614634
 31
0.0
  0
LINE
  5
B3
100
AcDbEntity
  8
SLD-0
  6
CONTINUOUS
 62
       3
100
AcDbLine
 10
-82.16706221
 20
-50.63614621
 30
0.0
 11
-82.16706175
 21
-55.13614591
 31
0.0
  0
LINE
  5
B4
100
AcDbEntity
  8
SLD-0
  6
CONTINUOUS
 62
       3
100
AcDbLine
 10
-128.76706187
 20
-54.78614568
 30
0.0
 11
-128.76706234
 21
-55.13614588
 31
0.0
  0
LINE
  5
B5
100
AcDbEntity
  8
SLD-0
  6
CONTINUOUS
 62
       3
100
AcDbLine
 10
-114.96706203
 20
-176.1361435
 30
0.0
 11
-114.96706203
 21
-166.13614588
 31
0.0
  0
LINE
  5
B6
100
AcDbEntity
  8
SLD-0
  6
CONTINUOUS
 62
       3
100
AcDbLine
 10
-111.96706247
 20
-166.13614588
 30
0.0
 11
-111.96706247
 21
-171.13614827
 31
0.0
  0
LINE
  5
B7
100
AcDbEntity
  8
SLD-0
  6
CONTINUOUS
 62
       3
100
AcDbLine
 10
-95.96706264
 20
-176.1361435
 30
0.0
 11
-95.96706264
 21
-166.13614588
 31
0.0
  0
LINE
  5
B8
100
AcDbEntity
  8
SLD-0
  6
CONTINUOUS
 62
       3
100
AcDbLine
 10
-98.9670622
 20
-166.13614588
 30
0.0
 11
-98.9670622
 21
-171.13614827
 31
0.0
  0
LINE
  5
B9
100
AcDbEntity
  8
SLD-0
  6
CONTINUOUS
 62
       3
100
AcDbLine
 10
-113.46706272
 20
-175.13614147
 30
0.0
 11
-114.96706203
 21
-175.13614147
 31
0.0
  0
LINE
  5
BA
100
AcDbEntity
  8
SLD-0
  6
CONTINUOUS
 62
       3
100
AcDbLine
 10
-113.46706272
 20
-166.13614588
 30
0.0
 11
-113.46706272
 21
-175.13614147
 31
0.0
  0
LINE
  5
BB
100
AcDbEntity
  8
SLD-0
  6
CONTINUOUS
 62
       3
100
AcDbLine
 10
-97.46706196
 20
-166.13614588
 30
0.0
 11
-97.46706196
 21
-175.13614147
 31
0.0
  0
LINE
  5
BC
100
AcDbEntity
  8
SLD-0
  6
CONTINUOUS
 62
       3
100
AcDbLine
 10
-97.46706196
 20
-175.13614147
 30
0.0
 11
-95.96706264
 21
-175.13614147
 31
0.0
  0
LINE
  5
BD
100
AcDbEntity
  8
SLD-0
  6
CONTINUOUS
 62
       3
100
AcDbLine
 10
45.77669463
 20
-160.13614833
 30
0.0
 11
45.17669471
 21
-160.13614833
 31
0.0
  0
LINE
  5
BE
100
AcDbEntity
  8
SLD-0
  6
CONTINUOUS
 62
       3
100
AcDbLine
 10
45.17669471
 20
-165.13614356
 30
0.0
 11
45.77669463
 21
-165.13614356
 31
0.0
  0
LINE
  5
BF
100
AcDbEntity
  8
SLD-0
  6
CONTINUOUS
 62
       3
100
AcDbLine
 10
45.77669463
 20
-67.13614612
 30
0.0
 11
45.17669471
 21
-67.13614612
 31
0.0
  0
LINE
  5
C0
100
AcDbEntity
  8
SLD-0
  6
CONTINUOUS
 62
       3
100
AcDbLine
 10
45.17669471
 20
-72.13614508
 30
0.0
 11
45.77669463
 21
-72.13614508
 31
0.0
  0
LINE
  5
C1
100
AcDbEntity
  8
SLD-0
  6
CONTINUOUS
 62
       3
100
AcDbLine
 10
52.92669482
 20
-81.98614418
 30
0.0
 11
53.22669478
 21
-81.98614418
 31
0.0
  0
LINE
  5
C2
100
AcDbEntity
  8
SLD-0
  6
CONTINUOUS
 62
       3
100
AcDbLine
 10
53.22669478
 20
-81.98614418
 30
0.0
 11
53.22669478
 21
-85.78614517
 31
0.0
  0
LINE
  5
C3
100
AcDbEntity
  8
SLD-0
  6
CONTINUOUS
 62
       3
100
AcDbLine
 10
52.92669482
 20
-85.78614517
 30
0.0
 11
53.22669478
 21
-85.78614517
 31
0.0
  0
LINE
  5
C4
100
AcDbEntity
  8
SLD-0
  6
CONTINUOUS
 62
       3
100
AcDbLine
 10
51.52669475
 20
-85.78614517
 30
0.0
 11
52.92669482
 21
-85.78614517
 31
0.0
  0
LINE
  5
C5
100
AcDbEntity
  8
SLD-0
  6
CONTINUOUS
 62
       3
100
AcDbLine
 10
51.52669475
 20
-81.98614418
 30
0.0
 11
52.92669482
 21
-81.98614418
 31
0.0
  0
LINE
  5
C6
100
AcDbEntity
  8
SLD-0
  6
CONTINUOUS
 62
       3
100
AcDbLine
 10
51.22669476
 20
-81.98614418
 30
0.0
 11
51.22669476
 21
-85.78614517
 31
0.0
  0
LINE
  5
C7
100
AcDbEntity
  8
SLD-0
  6
CONTINUOUS
 62
       3
100
AcDbLine
 10
51.22669476
 20
-85.78614517
 30
0.0
 11
51.52669475
 21
-85.78614517
 31
0.0
  0
LINE
  5
C8
100
AcDbEntity
  8
SLD-0
  6
CONTINUOUS
 62
       3
100
AcDbLine
 10
51.22669476
 20
-81.98614418
 30
0.0
 11
51.52669475
 21
-81.98614418
 31
0.0
  0
LINE
  5
C9
100
AcDbEntity
  8
SLD-0
  6
CONTINUOUS
 62
       3
100
AcDbLine
 10
51.52669475
 20
-141.48614555
 30
0.0
 11
52.92669482
 21
-141.48614555
 31
0.0
  0
LINE
  5
CA
100
AcDbEntity
  8
SLD-0
  6
CONTINUOUS
 62
       3
100
AcDbLine
 10
51.52669475
 20
-145.28614282
 30
0.0
 11
52.92669482
 21
-145.28614282
 31
0.0
  0
LINE
  5
CB
100
AcDbEntity
  8
SLD-0
  6
CONTINUOUS
 62
       3
100
AcDbLine
 10
52.92669482
 20
-141.48614555
 30
0.0
 11
53.22669478
 21
-141.48614555
 31
0.0
  0
LINE
  5
CC
100
AcDbEntity
  8
SLD-0
  6
CONTINUOUS
 62
       3
100
AcDbLine
 10
53.22669478
 20
-141.48614555
 30
0.0
 11
53.22669478
 21
-145.28614282
 31
0.0
  0
LINE
  5
CD
100
AcDbEntity
  8
SLD-0
  6
CONTINUOUS
 62
       3
100
AcDbLine
 10
52.92669482
 20
-145.28614282
 30
0.0
 11
53.22669478
 21
-145.28614282
 31
0.0
  0
LINE
  5
CE
100
AcDbEntity
  8
SLD-0
  6
CONTINUOUS
 62
       3
100
AcDbLine
 10
51.22669476
 20
-141.48614555
 30
0.0
 11
51.22669476
 21
-145.28614282
 31
0.0
  0
LINE
  5
CF
100
AcDbEntity
  8
SLD-0
  6
CONTINUOUS
 62
       3
100
AcDbLine
 10
51.22669476
 20
-141.48614555
 30
0.0
 11
51.52669475
 21
-141.48614555
 31
0.0
  0
LINE
  5
D0
100
AcDbEntity
  8
SLD-0
  6
CONTINUOUS
 62
       3
100
AcDbLine
 10
51.22669476
 20
-145.28614282
 30
0.0
 11
51.52669475
 21
-145.28614282
 31
0.0
  0
LINE
  5
D1
100
AcDbEntity
  8
SLD-0
  6
CONTINUOUS
 62
       3
100
AcDbLine
 10
45.77669463
 20
-173.63614588
 30
0.0
 11
45.77669463
 21
-64.63614664
 31
0.0
  0
LINE
  5
D2
100
AcDbEntity
  8
SLD-0
  6
CONTINUOUS
 62
       3
100
AcDbLine
 10
45.77669463
 20
-64.63614664
 30
0.0
 11
39.67669474
 21
-64.63614664
 31
0.0
  0
LINE
  5
D3
100
AcDbEntity
  8
SLD-0
  6
CONTINUOUS
 62
       3
100
AcDbLine
 10
28.50530192
 20
-48.63614588
 30
0.0
 11
54.17669479
 21
-48.63614588
 31
0.0
  0
LINE
  5
D4
100
AcDbEntity
  8
SLD-0
  6
CONTINUOUS
 62
       3
100
AcDbLine
 10
54.17669479
 20
-48.63614588
 30
0.0
 11
54.17669479
 21
-95.88614479
 31
0.0
  0
LINE
  5
D5
100
AcDbEntity
  8
SLD-0
  6
CONTINUOUS
 62
       3
100
AcDbLine
 10
54.17669479
 20
-95.88614479
 30
0.0
 11
51.17669477
 21
-95.88614479
 31
0.0
  0
LINE
  5
D6
100
AcDbEntity
  8
SLD-0
  6
CONTINUOUS
 62
       3
100
AcDbLine
 10
51.17669477
 20
-131.38614595
 30
0.0
 11
51.17669477
 21
-95.88614479
 31
0.0
  0
LINE
  5
D7
100
AcDbEntity
  8
SLD-0
  6
CONTINUOUS
 62
       3
100
AcDbLine
 10
54.17669479
 20
-131.38614595
 30
0.0
 11
51.17669477
 21
-131.38614595
 31
0.0
  0
LINE
  5
D8
100
AcDbEntity
  8
SLD-0
  6
CONTINUOUS
 62
       3
100
AcDbLine
 10
54.17669479
 20
-178.63614112
 30
0.0
 11
54.17669479
 21
-131.38614595
 31
0.0
  0
LINE
  5
D9
100
AcDbEntity
  8
SLD-0
  6
CONTINUOUS
 62
       3
100
AcDbLine
 10
37.47669476
 20
-178.63614112
 30
0.0
 11
54.17669479
 21
-178.63614112
 31
0.0
  0
LINE
  5
DA
100
AcDbEntity
  8
SLD-0
  6
CONTINUOUS
 62
       3
100
AcDbLine
 10
37.47669476
 20
-178.63614112
 30
0.0
 11
37.47669476
 21
-174.63614792
 31
0.0
  0
LINE
  5
DB
100
AcDbEntity
  8
SLD-0
  6
CONTINUOUS
 62
       3
100
AcDbLine
 10
38.47669477
 20
-173.63614588
 30
0.0
 11
45.77669463
 21
-173.63614588
 31
0.0
  0
LINE
  5
DC
100
AcDbEntity
  8
SLD-0
  6
CONTINUOUS
 62
       3
100
AcDbLine
 10
52.67669478
 20
-97.3861441
 30
0.0
 11
54.17669479
 21
-95.88614479
 31
0.0
  0
LINE
  5
DD
100
AcDbEntity
  8
SLD-0
  6
CONTINUOUS
 62
       3
100
AcDbLine
 10
52.30792771
 20
-97.3861441
 30
0.0
 11
52.67669478
 21
-97.3861441
 31
0.0
  0
LINE
  5
DE
100
AcDbEntity
  8
SLD-0
  6
CONTINUOUS
 62
       3
100
AcDbLine
 10
52.17669481
 20
-95.88614479
 30
0.0
 11
52.30792771
 21
-97.3861441
 31
0.0
  0
LINE
  5
DF
100
AcDbEntity
  8
SLD-0
  6
CONTINUOUS
 62
       3
100
AcDbLine
 10
-18.46706284
 20
-53.93614573
 30
0.0
 11
-17.96706183
 21
-53.43614611
 31
0.0
  0
LINE
  5
E0
100
AcDbEntity
  8
SLD-0
  6
CONTINUOUS
 62
       3
100
AcDbLine
 10
-17.96706183
 20
-51.93614587
 30
0.0
 11
-18.46706284
 21
-51.43614578
 31
0.0
  0
LINE
  5
E1
100
AcDbEntity
  8
SLD-0
  6
CONTINUOUS
 62
       3
100
AcDbLine
 10
-18.46706284
 20
-175.83615332
 30
0.0
 11
-17.96706183
 21
-175.33614486
 31
0.0
  0
LINE
  5
E2
100
AcDbEntity
  8
SLD-0
  6
CONTINUOUS
 62
       3
100
AcDbLine
 10
-17.96706183
 20
-173.83614927
 30
0.0
 11
-18.46706284
 21
-173.33614826
 31
0.0
  0
LINE
  5
E3
100
AcDbEntity
  8
SLD-0
  6
CONTINUOUS
 62
       3
100
AcDbLine
 10
-21.46706147
 20
-53.93614573
 30
0.0
 11
-18.46706284
 21
-53.93614573
 31
0.0
  0
LINE
  5
E4
100
AcDbEntity
  8
SLD-0
  6
CONTINUOUS
 62
       3
100
AcDbLine
 10
-18.46706284
 20
-51.43614578
 30
0.0
 11
-21.46706147
 21
-51.43614578
 31
0.0
  0
LINE
  5
E5
100
AcDbEntity
  8
SLD-0
  6
CONTINUOUS
 62
       3
100
AcDbLine
 10
-21.46706147
 20
-175.83615332
 30
0.0
 11
-18.46706284
 21
-175.83615332
 31
0.0
  0
LINE
  5
E6
100
AcDbEntity
  8
SLD-0
  6
CONTINUOUS
 62
       3
100
AcDbLine
 10
-18.46706284
 20
-173.33614826
 30
0.0
 11
-21.46706147
 21
-173.33614826
 31
0.0
  0
LINE
  5
E7
100
AcDbEntity
  8
SLD-0
  6
CONTINUOUS
 62
       3
100
AcDbLine
 10
-49.96706236
 20
-50.63614598
 30
0.0
 11
-49.96706236
 21
-55.13614602
 31
0.0
  0
LINE
  5
E8
100
AcDbEntity
  8
SLD-0
  6
CONTINUOUS
 62
       3
100
AcDbLine
 10
-49.96706236
 20
-50.63614598
 30
0.0
 11
-75.96706202
 21
-50.63614598
 31
0.0
  0
LINE
  5
E9
100
AcDbEntity
  8
SLD-0
  6
CONTINUOUS
 62
       3
100
AcDbLine
 10
-75.96706202
 20
-64.63614664
 30
0.0
 11
-75.96706202
 21
-50.63614598
 31
0.0
  0
LINE
  5
EA
100
AcDbEntity
  8
SLD-0
  6
CONTINUOUS
 62
       3
100
AcDbLine
 10
-75.96706202
 20
-64.63614664
 30
0.0
 11
-77.46706147
 21
-64.63614664
 31
0.0
  0
LINE
  5
EB
100
AcDbEntity
  8
SLD-0
  6
CONTINUOUS
 62
       3
100
AcDbLine
 10
-21.46706147
 20
-48.63614588
 30
0.0
 11
-77.46706147
 21
-48.63614588
 31
0.0
  0
LINE
  5
EC
100
AcDbEntity
  8
SLD-0
  6
CONTINUOUS
 62
       3
100
AcDbLine
 10
-21.46706147
 20
-64.63614664
 30
0.0
 11
-21.46706147
 21
-48.63614588
 31
0.0
  0
LINE
  5
ED
100
AcDbEntity
  8
SLD-0
  6
CONTINUOUS
 62
       3
100
AcDbLine
 10
-22.96706265
 20
-64.63614664
 30
0.0
 11
-21.46706147
 21
-64.63614664
 31
0.0
  0
LINE
  5
EE
100
AcDbEntity
  8
SLD-0
  6
CONTINUOUS
 62
       3
100
AcDbLine
 10
-22.96706265
 20
-64.63614664
 30
0.0
 11
-22.96706265
 21
-50.63614598
 31
0.0
  0
LINE
  5
EF
100
AcDbEntity
  8
SLD-0
  6
CONTINUOUS
 62
       3
100
AcDbLine
 10
-22.96706265
 20
-50.63614598
 30
0.0
 11
-48.96706231
 21
-50.63614598
 31
0.0
  0
LINE
  5
F0
100
AcDbEntity
  8
SLD-0
  6
CONTINUOUS
 62
       3
100
AcDbLine
 10
-48.96706231
 20
-55.13614602
 30
0.0
 11
-48.96706231
 21
-50.63614598
 31
0.0
  0
LINE
  5
F1
100
AcDbEntity
  8
SLD-0
  6
CONTINUOUS
 62
       3
100
AcDbLine
 10
-48.06706221
 20
-56.80647553
 30
0.0
 11
-48.06706221
 21
-64.63614725
 31
0.0
  0
LINE
  5
F2
100
AcDbEntity
  8
SLD-0
  6
CONTINUOUS
 62
       3
100
AcDbLine
 10
-48.06706221
 20
-64.63614725
 30
0.0
 11
-50.86706211
 21
-64.63614725
 31
0.0
  0
LINE
  5
F3
100
AcDbEntity
  8
SLD-0
  6
CONTINUOUS
 62
       3
100
AcDbLine
 10
-50.86706211
 20
-56.80647553
 30
0.0
 11
-50.86706211
 21
-64.63614725
 31
0.0
  0
LINE
  5
F4
100
AcDbEntity
  8
SLD-0
  6
CONTINUOUS
 62
       3
100
AcDbLine
 10
-30.21706244
 20
-50.63614598
 30
0.0
 11
-30.21706244
 21
-53.63614577
 31
0.0
  0
LINE
  5
F5
100
AcDbEntity
  8
SLD-0
  6
CONTINUOUS
 62
       3
100
AcDbLine
 10
-30.21706244
 20
-53.63614577
 30
0.0
 11
-31.2170626
 21
-53.63614577
 31
0.0
  0
LINE
  5
F6
100
AcDbEntity
  8
SLD-0
  6
CONTINUOUS
 62
       3
100
AcDbLine
 10
-31.2170626
 20
-50.63614598
 30
0.0
 11
-31.2170626
 21
-53.63614577
 31
0.0
  0
LINE
  5
F7
100
AcDbEntity
  8
SLD-0
  6
CONTINUOUS
 62
       3
100
AcDbLine
 10
-58.71706245
 20
-53.63614577
 30
0.0
 11
-57.71706229
 21
-53.63614577
 31
0.0
  0
LINE
  5
F8
100
AcDbEntity
  8
SLD-0
  6
CONTINUOUS
 62
       3
100
AcDbLine
 10
-58.71706245
 20
-50.63614598
 30
0.0
 11
-58.71706245
 21
-53.63614577
 31
0.0
  0
LINE
  5
F9
100
AcDbEntity
  8
SLD-0
  6
CONTINUOUS
 62
       3
100
AcDbLine
 10
-57.71706229
 20
-50.63614598
 30
0.0
 11
-57.71706229
 21
-53.63614577
 31
0.0
  0
LINE
  5
FA
100
AcDbEntity
  8
SLD-0
  6
CONTINUOUS
 62
       3
100
AcDbLine
 10
-40.21706222
 20
-50.63614598
 30
0.0
 11
-40.21706222
 21
-53.63614577
 31
0.0
  0
LINE
  5
FB
100
AcDbEntity
  8
SLD-0
  6
CONTINUOUS
 62
       3
100
AcDbLine
 10
-40.21706222
 20
-53.63614577
 30
0.0
 11
-41.21706238
 21
-53.63614577
 31
0.0
  0
LINE
  5
FC
100
AcDbEntity
  8
SLD-0
  6
CONTINUOUS
 62
       3
100
AcDbLine
 10
-41.21706238
 20
-50.63614598
 30
0.0
 11
-41.21706238
 21
-53.63614577
 31
0.0
  0
LINE
  5
FD
100
AcDbEntity
  8
SLD-0
  6
CONTINUOUS
 62
       3
100
AcDbLine
 10
-68.71706223
 20
-53.63614577
 30
0.0
 11
-67.71706207
 21
-53.63614577
 31
0.0
  0
LINE
  5
FE
100
AcDbEntity
  8
SLD-0
  6
CONTINUOUS
 62
       3
100
AcDbLine
 10
-67.71706207
 20
-50.63614598
 30
0.0
 11
-67.71706207
 21
-53.63614577
 31
0.0
  0
LINE
  5
FF
100
AcDbEntity
  8
SLD-0
  6
CONTINUOUS
 62
       3
100
AcDbLine
 10
-68.71706223
 20
-50.63614598
 30
0.0
 11
-68.71706223
 21
-53.63614577
 31
0.0
  0
LINE
  5
100
100
AcDbEntity
  8
SLD-0
  6
CONTINUOUS
 62
       3
100
AcDbLine
 10
-70.26706239
 20
-55.6361461
 30
0.0
 11
-52.46706236
 21
-55.6361461
 31
0.0
  0
LINE
  5
101
100
AcDbEntity
  8
SLD-0
  6
CONTINUOUS
 62
       3
100
AcDbLine
 10
-27.66706211
 20
-50.63614598
 30
0.0
 11
-27.66706234
 21
-54.63614594
 31
0.0
  0
LINE
  5
102
100
AcDbEntity
  8
SLD-0
  6
CONTINUOUS
 62
       3
100
AcDbLine
 10
-47.46706224
 20
-50.63614598
 30
0.0
 11
-47.46706224
 21
-54.63614588
 31
0.0
  0
LINE
  5
103
100
AcDbEntity
  8
SLD-0
  6
CONTINUOUS
 62
       3
100
AcDbLine
 10
-28.66706228
 20
-55.6361461
 30
0.0
 11
-46.46706231
 21
-55.6361461
 31
0.0
  0
LINE
  5
104
100
AcDbEntity
  8
SLD-0
  6
CONTINUOUS
 62
       3
100
AcDbLine
 10
-71.26706256
 20
-50.63614598
 30
0.0
 11
-71.26706256
 21
-54.63614594
 31
0.0
  0
LINE
  5
105
100
AcDbEntity
  8
SLD-0
  6
CONTINUOUS
 62
       3
100
AcDbLine
 10
-51.46706243
 20
-50.63614598
 30
0.0
 11
-51.46706243
 21
-54.63614588
 31
0.0
  0
LINE
  5
106
100
AcDbEntity
  8
SLD-0
  6
CONTINUOUS
 62
       3
100
AcDbLine
 10
-22.96706265
 20
-174.63614791
 30
0.0
 11
-22.96706265
 21
-173.63614588
 31
0.0
  0
LINE
  5
107
100
AcDbEntity
  8
SLD-0
  6
CONTINUOUS
 62
       3
100
AcDbLine
 10
-22.96706265
 20
-173.63614588
 30
0.0
 11
-21.46706147
 21
-173.63614588
 31
0.0
  0
LINE
  5
108
100
AcDbEntity
  8
SLD-0
  6
CONTINUOUS
 62
       3
100
AcDbLine
 10
-21.46706147
 20
-173.63614588
 30
0.0
 11
-21.46706147
 21
-174.63614791
 31
0.0
  0
LINE
  5
109
100
AcDbEntity
  8
SLD-0
  6
CONTINUOUS
 62
       3
100
AcDbLine
 10
-22.96706265
 20
-177.13614553
 30
0.0
 11
-28.96706177
 21
-177.13614553
 31
0.0
  0
LINE
  5
10A
100
AcDbEntity
  8
SLD-0
  6
CONTINUOUS
 62
       3
100
AcDbLine
 10
-22.96706265
 20
-174.63614791
 30
0.0
 11
-22.96706265
 21
-177.13614553
 31
0.0
  0
LINE
  5
10B
100
AcDbEntity
  8
SLD-0
  6
CONTINUOUS
 62
       3
100
AcDbLine
 10
-77.46706147
 20
-178.63614111
 30
0.0
 11
-21.46706147
 21
-178.63614111
 31
0.0
  0
LINE
  5
10C
100
AcDbEntity
  8
SLD-0
  6
CONTINUOUS
 62
       3
100
AcDbLine
 10
-69.9670629
 20
-177.13614553
 30
0.0
 11
-75.96706202
 21
-177.13614553
 31
0.0
  0
LINE
  5
10D
100
AcDbEntity
  8
SLD-0
  6
CONTINUOUS
 62
       3
100
AcDbLine
 10
-56.96706217
 20
-176.63615196
 30
0.0
 11
-69.9670629
 21
-176.63615196
 31
0.0
  0
LINE
  5
10E
100
AcDbEntity
  8
SLD-0
  6
CONTINUOUS
 62
       3
100
AcDbLine
 10
-56.96706217
 20
-177.13614553
 30
0.0
 11
-56.96706217
 21
-176.63615196
 31
0.0
  0
LINE
  5
10F
100
AcDbEntity
  8
SLD-0
  6
CONTINUOUS
 62
       3
100
AcDbLine
 10
-50.86706229
 20
-177.13614553
 30
0.0
 11
-56.96706217
 21
-177.13614553
 31
0.0
  0
LINE
  5
110
100
AcDbEntity
  8
SLD-0
  6
CONTINUOUS
 62
       3
100
AcDbLine
 10
-50.86706229
 20
-177.13614553
 30
0.0
 11
-50.86706229
 21
-174.63614791
 31
0.0
  0
LINE
  5
111
100
AcDbEntity
  8
SLD-0
  6
CONTINUOUS
 62
       3
100
AcDbLine
 10
-41.9670625
 20
-177.13614553
 30
0.0
 11
-48.06706239
 21
-177.13614553
 31
0.0
  0
LINE
  5
112
100
AcDbEntity
  8
SLD-0
  6
CONTINUOUS
 62
       3
100
AcDbLine
 10
-41.9670625
 20
-177.13614553
 30
0.0
 11
-41.9670625
 21
-176.63615196
 31
0.0
  0
LINE
  5
113
100
AcDbEntity
  8
SLD-0
  6
CONTINUOUS
 62
       3
100
AcDbLine
 10
-28.96706177
 20
-176.63615196
 30
0.0
 11
-41.9670625
 21
-176.63615196
 31
0.0
  0
LINE
  5
114
100
AcDbEntity
  8
SLD-0
  6
CONTINUOUS
 62
       3
100
AcDbLine
 10
-28.96706177
 20
-176.63615196
 30
0.0
 11
-28.96706177
 21
-177.13614553
 31
0.0
  0
LINE
  5
115
100
AcDbEntity
  8
SLD-0
  6
CONTINUOUS
 62
       3
100
AcDbLine
 10
-48.06706239
 20
-174.63614791
 30
0.0
 11
-48.06706239
 21
-177.13614553
 31
0.0
  0
LINE
  5
116
100
AcDbEntity
  8
SLD-0
  6
CONTINUOUS
 62
       3
100
AcDbLine
 10
-69.9670629
 20
-176.63615196
 30
0.0
 11
-69.9670629
 21
-177.13614553
 31
0.0
  0
LINE
  5
117
100
AcDbEntity
  8
SLD-0
  6
CONTINUOUS
 62
       3
100
AcDbLine
 10
-21.46706147
 20
-178.63614111
 30
0.0
 11
-21.46706147
 21
-174.63614791
 31
0.0
  0
LINE
  5
118
100
AcDbEntity
  8
SLD-0
  6
CONTINUOUS
 62
       3
100
AcDbLine
 10
-77.46706147
 20
-173.63614588
 30
0.0
 11
-77.46706147
 21
-178.63614111
 31
0.0
  0
LINE
  5
119
100
AcDbEntity
  8
SLD-0
  6
CONTINUOUS
 62
       3
100
AcDbLine
 10
-50.86706229
 20
-173.63614588
 30
0.0
 11
-48.06706239
 21
-173.63614588
 31
0.0
  0
LINE
  5
11A
100
AcDbEntity
  8
SLD-0
  6
CONTINUOUS
 62
       3
100
AcDbLine
 10
-50.86706229
 20
-174.63614791
 30
0.0
 11
-50.86706229
 21
-173.63614588
 31
0.0
  0
LINE
  5
11B
100
AcDbEntity
  8
SLD-0
  6
CONTINUOUS
 62
       3
100
AcDbLine
 10
-48.06706239
 20
-173.63614588
 30
0.0
 11
-48.06706239
 21
-174.63614791
 31
0.0
  0
LINE
  5
11C
100
AcDbEntity
  8
SLD-0
  6
CONTINUOUS
 62
       3
100
AcDbLine
 10
-69.9670629
 20
-176.1361435
 30
0.0
 11
-56.96706217
 21
-176.1361435
 31
0.0
  0
LINE
  5
11D
100
AcDbEntity
  8
SLD-0
  6
CONTINUOUS
 62
       3
100
AcDbLine
 10
-56.96706217
 20
-176.1361435
 30
0.0
 11
-56.96706217
 21
-176.63615196
 31
0.0
  0
LINE
  5
11E
100
AcDbEntity
  8
SLD-0
  6
CONTINUOUS
 62
       3
100
AcDbLine
 10
-69.9670629
 20
-176.63615196
 30
0.0
 11
-69.9670629
 21
-176.1361435
 31
0.0
  0
LINE
  5
11F
100
AcDbEntity
  8
SLD-0
  6
CONTINUOUS
 62
       3
100
AcDbLine
 10
-48.06706239
 20
-176.63615196
 30
0.0
 11
-41.9670625
 21
-176.63615196
 31
0.0
  0
LINE
  5
120
100
AcDbEntity
  8
SLD-0
  6
CONTINUOUS
 62
       3
100
AcDbLine
 10
-56.96706217
 20
-176.63615196
 30
0.0
 11
-50.86706229
 21
-176.63615196
 31
0.0
  0
LINE
  5
121
100
AcDbEntity
  8
SLD-0
  6
CONTINUOUS
 62
       3
100
AcDbLine
 10
-75.96706202
 20
-176.63615196
 30
0.0
 11
-69.9670629
 21
-176.63615196
 31
0.0
  0
LINE
  5
122
100
AcDbEntity
  8
SLD-0
  6
CONTINUOUS
 62
       3
100
AcDbLine
 10
-28.96706177
 20
-176.63615196
 30
0.0
 11
-22.96706265
 21
-176.63615196
 31
0.0
  0
LINE
  5
123
100
AcDbEntity
  8
SLD-0
  6
CONTINUOUS
 62
       3
100
AcDbLine
 10
-41.9670625
 20
-176.1361435
 30
0.0
 11
-28.96706177
 21
-176.1361435
 31
0.0
  0
LINE
  5
124
100
AcDbEntity
  8
SLD-0
  6
CONTINUOUS
 62
       3
100
AcDbLine
 10
-28.96706177
 20
-176.1361435
 30
0.0
 11
-28.96706177
 21
-176.63615196
 31
0.0
  0
LINE
  5
125
100
AcDbEntity
  8
SLD-0
  6
CONTINUOUS
 62
       3
100
AcDbLine
 10
-41.9670625
 20
-176.63615196
 30
0.0
 11
-41.9670625
 21
-176.1361435
 31
0.0
  0
LINE
  5
126
100
AcDbEntity
  8
SLD-0
  6
CONTINUOUS
 62
       3
100
AcDbLine
 10
-44.46706245
 20
-58.63614566
 30
0.0
 11
-44.46706245
 21
-60.63614599
 31
0.0
  0
LINE
  5
127
100
AcDbEntity
  8
SLD-0
  6
CONTINUOUS
 62
       3
100
AcDbLine
 10
-44.46706245
 20
-60.63614599
 30
0.0
 11
-48.06706239
 21
-60.63614599
 31
0.0
  0
LINE
  5
128
100
AcDbEntity
  8
SLD-0
  6
CONTINUOUS
 62
       3
100
AcDbLine
 10
-48.06706239
 20
-58.63614566
 30
0.0
 11
-44.46706245
 21
-58.63614566
 31
0.0
  0
LINE
  5
129
100
AcDbEntity
  8
SLD-0
  6
CONTINUOUS
 62
       3
100
AcDbLine
 10
-54.46706222
 20
-60.63614599
 30
0.0
 11
-50.86706229
 21
-60.63614599
 31
0.0
  0
LINE
  5
12A
100
AcDbEntity
  8
SLD-0
  6
CONTINUOUS
 62
       3
100
AcDbLine
 10
-50.86706229
 20
-58.63614566
 30
0.0
 11
-54.46706222
 21
-58.63614566
 31
0.0
  0
LINE
  5
12B
100
AcDbEntity
  8
SLD-0
  6
CONTINUOUS
 62
       3
100
AcDbLine
 10
-54.46706222
 20
-58.63614566
 30
0.0
 11
-54.46706222
 21
-60.63614599
 31
0.0
  0
LINE
  5
12C
100
AcDbEntity
  8
SLD-0
  6
CONTINUOUS
 62
       3
100
AcDbLine
 10
-22.96706265
 20
-60.63614599
 30
0.0
 11
-26.46706229
 21
-60.63614599
 31
0.0
  0
LINE
  5
12D
100
AcDbEntity
  8
SLD-0
  6
CONTINUOUS
 62
       3
100
AcDbLine
 10
-26.46706229
 20
-60.63614599
 30
0.0
 11
-26.46706229
 21
-58.63614566
 31
0.0
  0
LINE
  5
12E
100
AcDbEntity
  8
SLD-0
  6
CONTINUOUS
 62
       3
100
AcDbLine
 10
-26.46706229
 20
-58.63614566
 30
0.0
 11
-22.96706265
 21
-58.63614566
 31
0.0
  0
LINE
  5
12F
100
AcDbEntity
  8
SLD-0
  6
CONTINUOUS
 62
       3
100
AcDbLine
 10
-72.46706238
 20
-58.63614566
 30
0.0
 11
-75.96706202
 21
-58.63614566
 31
0.0
  0
LINE
  5
130
100
AcDbEntity
  8
SLD-0
  6
CONTINUOUS
 62
       3
100
AcDbLine
 10
-75.96706202
 20
-60.63614599
 30
0.0
 11
-72.46706238
 21
-60.63614599
 31
0.0
  0
LINE
  5
131
100
AcDbEntity
  8
SLD-0
  6
CONTINUOUS
 62
       3
100
AcDbLine
 10
-72.46706238
 20
-60.63614599
 30
0.0
 11
-72.46706238
 21
-58.63614566
 31
0.0
  0
LINE
  5
132
100
AcDbEntity
  8
SLD-0
  6
CONTINUOUS
 62
       3
100
AcDbLine
 10
-25.06706281
 20
-175.18614977
 30
0.0
 11
-22.96706265
 21
-175.18614977
 31
0.0
  0
LINE
  5
133
100
AcDbEntity
  8
SLD-0
  6
CONTINUOUS
 62
       3
100
AcDbLine
 10
-25.06706281
 20
-173.98614436
 30
0.0
 11
-25.06706281
 21
-175.18614977
 31
0.0
  0
LINE
  5
134
100
AcDbEntity
  8
SLD-0
  6
CONTINUOUS
 62
       3
100
AcDbLine
 10
-22.96706265
 20
-173.98614436
 30
0.0
 11
-25.06706281
 21
-173.98614436
 31
0.0
  0
LINE
  5
135
100
AcDbEntity
  8
SLD-0
  6
CONTINUOUS
 62
       3
100
AcDbLine
 10
-45.46706215
 20
-175.18614977
 30
0.0
 11
-45.46706215
 21
-173.98614436
 31
0.0
  0
LINE
  5
136
100
AcDbEntity
  8
SLD-0
  6
CONTINUOUS
 62
       3
100
AcDbLine
 10
-48.06706239
 20
-175.18614977
 30
0.0
 11
-45.46706215
 21
-175.18614977
 31
0.0
  0
LINE
  5
137
100
AcDbEntity
  8
SLD-0
  6
CONTINUOUS
 62
       3
100
AcDbLine
 10
-45.46706215
 20
-173.98614436
 30
0.0
 11
-48.06706239
 21
-173.98614436
 31
0.0
  0
LINE
  5
138
100
AcDbEntity
  8
SLD-0
  6
CONTINUOUS
 62
       3
100
AcDbLine
 10
-50.86706229
 20
-175.18614977
 30
0.0
 11
-53.46706253
 21
-175.18614977
 31
0.0
  0
LINE
  5
139
100
AcDbEntity
  8
SLD-0
  6
CONTINUOUS
 62
       3
100
AcDbLine
 10
-53.46706253
 20
-175.18614977
 30
0.0
 11
-53.46706253
 21
-173.98614436
 31
0.0
  0
LINE
  5
13A
100
AcDbEntity
  8
SLD-0
  6
CONTINUOUS
 62
       3
100
AcDbLine
 10
-53.46706253
 20
-173.98614436
 30
0.0
 11
-50.86706229
 21
-173.98614436
 31
0.0
  0
LINE
  5
13B
100
AcDbEntity
  8
SLD-0
  6
CONTINUOUS
 62
       3
100
AcDbLine
 10
-70.06706273
 20
-176.63615196
 30
0.0
 11
-70.06706273
 21
-171.13614827
 31
0.0
  0
LINE
  5
13C
100
AcDbEntity
  8
SLD-0
  6
CONTINUOUS
 62
       3
100
AcDbLine
 10
-70.06706273
 20
-171.13614827
 30
0.0
 11
-68.34004609
 21
-171.13614827
 31
0.0
  0
LINE
  5
13D
100
AcDbEntity
  8
SLD-0
  6
CONTINUOUS
 62
       3
100
AcDbLine
 10
-68.34004609
 20
-171.13614827
 30
0.0
 11
-68.26706206
 21
-171.13614827
 31
0.0
  0
LINE
  5
13E
100
AcDbEntity
  8
SLD-0
  6
CONTINUOUS
 62
       3
100
AcDbLine
 10
-68.26706206
 20
-176.1361435
 30
0.0
 11
-68.26706206
 21
-171.13614827
 31
0.0
  0
LINE
  5
13F
100
AcDbEntity
  8
SLD-0
  6
CONTINUOUS
 62
       3
100
AcDbLine
 10
-30.66706261
 20
-176.1361435
 30
0.0
 11
-30.66706261
 21
-171.13614827
 31
0.0
  0
LINE
  5
140
100
AcDbEntity
  8
SLD-0
  6
CONTINUOUS
 62
       3
100
AcDbLine
 10
-30.59407858
 20
-171.13614827
 30
0.0
 11
-30.66706261
 21
-171.13614827
 31
0.0
  0
LINE
  5
141
100
AcDbEntity
  8
SLD-0
  6
CONTINUOUS
 62
       3
100
AcDbLine
 10
-28.86706194
 20
-171.13614827
 30
0.0
 11
-30.59407858
 21
-171.13614827
 31
0.0
  0
LINE
  5
142
100
AcDbEntity
  8
SLD-0
  6
CONTINUOUS
 62
       3
100
AcDbLine
 10
-28.86706194
 20
-176.63615196
 30
0.0
 11
-28.86706194
 21
-171.13614827
 31
0.0
  0
LINE
  5
143
100
AcDbEntity
  8
SLD-0
  6
CONTINUOUS
 62
       3
100
AcDbLine
 10
-54.16706227
 20
-176.63615196
 30
0.0
 11
-54.16706227
 21
-171.13614827
 31
0.0
  0
LINE
  5
144
100
AcDbEntity
  8
SLD-0
  6
CONTINUOUS
 62
       3
100
AcDbLine
 10
-55.96706247
 20
-176.63615196
 30
0.0
 11
-55.96706247
 21
-171.13614827
 31
0.0
  0
LINE
  5
145
100
AcDbEntity
  8
SLD-0
  6
CONTINUOUS
 62
       3
100
AcDbLine
 10
-55.96706247
 20
-171.13614827
 30
0.0
 11
-54.16706227
 21
-171.13614827
 31
0.0
  0
LINE
  5
146
100
AcDbEntity
  8
SLD-0
  6
CONTINUOUS
 62
       3
100
AcDbLine
 10
-42.9670622
 20
-176.63615196
 30
0.0
 11
-42.9670622
 21
-171.13614827
 31
0.0
  0
LINE
  5
147
100
AcDbEntity
  8
SLD-0
  6
CONTINUOUS
 62
       3
100
AcDbLine
 10
-44.7670624
 20
-176.63615196
 30
0.0
 11
-44.7670624
 21
-171.13614827
 31
0.0
  0
LINE
  5
148
100
AcDbEntity
  8
SLD-0
  6
CONTINUOUS
 62
       3
100
AcDbLine
 10
-42.9670622
 20
-171.13614827
 30
0.0
 11
-44.7670624
 21
-171.13614827
 31
0.0
  0
LINE
  5
149
100
AcDbEntity
  8
SLD-0
  6
CONTINUOUS
 62
       3
100
AcDbLine
 10
-75.96706202
 20
-166.13614588
 30
0.0
 11
-75.96706202
 21
-177.13614553
 31
0.0
  0
LINE
  5
14A
100
AcDbEntity
  8
SLD-0
  6
CONTINUOUS
 62
       3
100
AcDbLine
 10
-75.96706202
 20
-64.63614664
 30
0.0
 11
-75.96706202
 21
-66.13614111
 31
0.0
  0
LINE
  5
14B
100
AcDbEntity
  8
SLD-0
  6
CONTINUOUS
 62
       3
100
AcDbLine
 10
-75.96706202
 20
-54.78614568
 30
0.0
 11
-72.76706187
 21
-54.78614568
 31
0.0
  0
LINE
  5
14C
100
AcDbEntity
  8
SLD-0
  6
CONTINUOUS
 62
       3
100
AcDbLine
 10
-72.76706187
 20
-52.68614599
 30
0.0
 11
-72.76706187
 21
-54.78614568
 31
0.0
  0
LINE
  5
14D
100
AcDbEntity
  8
SLD-0
  6
CONTINUOUS
 62
       3
100
AcDbLine
 10
-72.76706187
 20
-50.63614598
 30
0.0
 11
-72.76706187
 21
-52.68614599
 31
0.0
  0
LINE
  5
14E
100
AcDbEntity
  8
SLD-0
  6
CONTINUOUS
 62
       3
100
AcDbLine
 10
-22.96706265
 20
-137.28614896
 30
0.0
 11
-23.46706147
 21
-136.78615014
 31
0.0
  0
LINE
  5
14F
100
AcDbEntity
  8
SLD-0
  6
CONTINUOUS
 62
       3
100
AcDbLine
 10
-23.46706147
 20
-90.48614431
 30
0.0
 11
-22.96706265
 21
-89.98614549
 31
0.0
  0
LINE
  5
150
100
AcDbEntity
  8
SLD-0
  6
CONTINUOUS
 62
       3
100
AcDbLine
 10
-22.96706265
 20
-173.63614588
 30
0.0
 11
-22.96706265
 21
-137.28614896
 31
0.0
  0
LINE
  5
151
100
AcDbEntity
  8
SLD-0
  6
CONTINUOUS
 62
       3
100
AcDbLine
 10
-22.96706265
 20
-89.98614549
 30
0.0
 11
-22.96706265
 21
-64.63614664
 31
0.0
  0
LINE
  5
152
100
AcDbEntity
  8
SLD-0
  6
CONTINUOUS
 62
       3
100
AcDbLine
 10
-21.46706147
 20
-173.63614588
 30
0.0
 11
-21.46706147
 21
-64.63614664
 31
0.0
  0
LINE
  5
153
100
AcDbEntity
  8
SLD-0
  6
CONTINUOUS
 62
       3
100
AcDbLine
 10
-72.76706187
 20
-174.58613961
 30
0.0
 11
-72.76706187
 21
-176.63615196
 31
0.0
  0
LINE
  5
154
100
AcDbEntity
  8
SLD-0
  6
CONTINUOUS
 62
       3
100
AcDbLine
 10
-75.96706202
 20
-172.48614877
 30
0.0
 11
-72.76706187
 21
-172.48614877
 31
0.0
  0
LINE
  5
155
100
AcDbEntity
  8
SLD-0
  6
CONTINUOUS
 62
       3
100
AcDbLine
 10
-72.76706187
 20
-172.48614877
 30
0.0
 11
-72.76706187
 21
-174.58613961
 31
0.0
  0
LINE
  5
156
100
AcDbEntity
  8
SLD-0
  6
CONTINUOUS
 62
       3
100
AcDbLine
 10
-48.56706235
 20
-173.63614588
 30
0.0
 11
-48.56706235
 21
-166.13614588
 31
0.0
  0
LINE
  5
157
100
AcDbEntity
  8
SLD-0
  6
CONTINUOUS
 62
       3
100
AcDbLine
 10
-50.36706232
 20
-166.13614588
 30
0.0
 11
-50.36706232
 21
-173.63614588
 31
0.0
  0
LINE
  5
158
100
AcDbEntity
  8
SLD-0
  6
CONTINUOUS
 62
       3
100
AcDbLine
 10
-17.96706183
 20
-51.93614587
 30
0.0
 11
-17.96706183
 21
-53.43614611
 31
0.0
  0
LINE
  5
159
100
AcDbEntity
  8
SLD-0
  6
CONTINUOUS
 62
       3
100
AcDbLine
 10
-18.46706284
 20
-53.93614573
 30
0.0
 11
-18.46706284
 21
-51.43614578
 31
0.0
  0
LINE
  5
15A
100
AcDbEntity
  8
SLD-0
  6
CONTINUOUS
 62
       3
100
AcDbLine
 10
-17.96706183
 20
-173.83614927
 30
0.0
 11
-17.96706183
 21
-175.33614486
 31
0.0
  0
LINE
  5
15B
100
AcDbEntity
  8
SLD-0
  6
CONTINUOUS
 62
       3
100
AcDbLine
 10
-18.46706284
 20
-175.83615332
 30
0.0
 11
-18.46706284
 21
-173.33614826
 31
0.0
  0
LINE
  5
15C
100
AcDbEntity
  8
SLD-0
  6
CONTINUOUS
 62
       3
100
AcDbLine
 10
-70.76706239
 20
-57.13614588
 30
0.0
 11
-51.96706239
 21
-57.13614634
 31
0.0
  0
LINE
  5
15D
100
AcDbEntity
  8
SLD-0
  6
CONTINUOUS
 62
       3
100
AcDbLine
 10
-28.16706277
 20
-57.13614634
 30
0.0
 11
-46.96706198
 21
-57.13614634
 31
0.0
  0
LINE
  5
15E
100
AcDbEntity
  8
SLD-0
  6
CONTINUOUS
 62
       3
100
AcDbLine
 10
-26.16706221
 20
-50.63614621
 30
0.0
 11
-26.16706175
 21
-55.13614591
 31
0.0
  0
LINE
  5
15F
100
AcDbEntity
  8
SLD-0
  6
CONTINUOUS
 62
       3
100
AcDbLine
 10
-72.76706187
 20
-54.78614568
 30
0.0
 11
-72.76706234
 21
-55.13614588
 31
0.0
  0
LINE
  5
160
100
AcDbEntity
  8
SLD-0
  6
CONTINUOUS
 62
       3
100
AcDbLine
 10
-58.96706203
 20
-176.1361435
 30
0.0
 11
-58.96706203
 21
-166.13614588
 31
0.0
  0
LINE
  5
161
100
AcDbEntity
  8
SLD-0
  6
CONTINUOUS
 62
       3
100
AcDbLine
 10
-55.96706247
 20
-166.13614588
 30
0.0
 11
-55.96706247
 21
-171.13614827
 31
0.0
  0
LINE
  5
162
100
AcDbEntity
  8
SLD-0
  6
CONTINUOUS
 62
       3
100
AcDbLine
 10
-39.96706264
 20
-176.1361435
 30
0.0
 11
-39.96706264
 21
-166.13614588
 31
0.0
  0
LINE
  5
163
100
AcDbEntity
  8
SLD-0
  6
CONTINUOUS
 62
       3
100
AcDbLine
 10
-42.9670622
 20
-166.13614588
 30
0.0
 11
-42.9670622
 21
-171.13614827
 31
0.0
  0
LINE
  5
164
100
AcDbEntity
  8
SLD-0
  6
CONTINUOUS
 62
       3
100
AcDbLine
 10
-17.96706183
 20
-141.48614555
 30
0.0
 11
-17.96706183
 21
-145.28614282
 31
0.0
  0
LINE
  5
165
100
AcDbEntity
  8
SLD-0
  6
CONTINUOUS
 62
       3
100
AcDbLine
 10
-21.46706147
 20
-145.28614282
 30
0.0
 11
-17.96706183
 21
-145.28614282
 31
0.0
  0
LINE
  5
166
100
AcDbEntity
  8
SLD-0
  6
CONTINUOUS
 62
       3
100
AcDbLine
 10
-21.46706147
 20
-141.48614555
 30
0.0
 11
-17.96706183
 21
-141.48614555
 31
0.0
  0
LINE
  5
167
100
AcDbEntity
  8
SLD-0
  6
CONTINUOUS
 62
       3
100
AcDbLine
 10
-17.96706183
 20
-81.98614418
 30
0.0
 11
-17.96706183
 21
-85.78614517
 31
0.0
  0
LINE
  5
168
100
AcDbEntity
  8
SLD-0
  6
CONTINUOUS
 62
       3
100
AcDbLine
 10
-21.46706147
 20
-85.78614517
 30
0.0
 11
-17.96706183
 21
-85.78614517
 31
0.0
  0
LINE
  5
169
100
AcDbEntity
  8
SLD-0
  6
CONTINUOUS
 62
       3
100
AcDbLine
 10
-21.46706147
 20
-81.98614418
 30
0.0
 11
-17.96706183
 21
-81.98614418
 31
0.0
  0
LINE
  5
16A
100
AcDbEntity
  8
SLD-0
  6
CONTINUOUS
 62
       3
100
AcDbLine
 10
-17.46706082
 20
-81.98614418
 30
0.0
 11
-17.46706082
 21
-85.78614517
 31
0.0
  0
LINE
  5
16B
100
AcDbEntity
  8
SLD-0
  6
CONTINUOUS
 62
       3
100
AcDbLine
 10
-17.96706183
 20
-85.78614517
 30
0.0
 11
-17.46706082
 21
-85.78614517
 31
0.0
  0
LINE
  5
16C
100
AcDbEntity
  8
SLD-0
  6
CONTINUOUS
 62
       3
100
AcDbLine
 10
-17.96706183
 20
-81.98614418
 30
0.0
 11
-17.46706082
 21
-81.98614418
 31
0.0
  0
LINE
  5
16D
100
AcDbEntity
  8
SLD-0
  6
CONTINUOUS
 62
       3
100
AcDbLine
 10
-17.46706082
 20
-141.48614555
 30
0.0
 11
-17.46706082
 21
-145.28614282
 31
0.0
  0
LINE
  5
16E
100
AcDbEntity
  8
SLD-0
  6
CONTINUOUS
 62
       3
100
AcDbLine
 10
-17.96706183
 20
-145.28614282
 30
0.0
 11
-17.46706082
 21
-145.28614282
 31
0.0
  0
LINE
  5
16F
100
AcDbEntity
  8
SLD-0
  6
CONTINUOUS
 62
       3
100
AcDbLine
 10
-17.96706183
 20
-141.48614555
 30
0.0
 11
-17.46706082
 21
-141.48614555
 31
0.0
  0
LINE
  5
170
100
AcDbEntity
  8
SLD-0
  6
CONTINUOUS
 62
       3
100
AcDbLine
 10
-57.46706272
 20
-175.13614147
 30
0.0
 11
-58.96706203
 21
-175.13614147
 31
0.0
  0
LINE
  5
171
100
AcDbEntity
  8
SLD-0
  6
CONTINUOUS
 62
       3
100
AcDbLine
 10
-57.46706272
 20
-166.13614588
 30
0.0
 11
-57.46706272
 21
-175.13614147
 31
0.0
  0
LINE
  5
172
100
AcDbEntity
  8
SLD-0
  6
CONTINUOUS
 62
       3
100
AcDbLine
 10
-41.46706196
 20
-166.13614588
 30
0.0
 11
-41.46706196
 21
-175.13614147
 31
0.0
  0
LINE
  5
173
100
AcDbEntity
  8
SLD-0
  6
CONTINUOUS
 62
       3
100
AcDbLine
 10
-41.46706196
 20
-175.13614147
 30
0.0
 11
-39.96706264
 21
-175.13614147
 31
0.0
  0
LINE
  5
174
100
AcDbEntity
  8
SLD-0
  6
CONTINUOUS
 62
       3
100
AcDbLine
 10
-77.46706147
 20
-64.63614664
 30
0.0
 11
-77.4670632
 21
-66.13614111
 31
0.0
  0
LINE
  5
175
100
AcDbEntity
  8
SLD-0
  6
CONTINUOUS
 62
       3
100
AcDbLine
 10
-77.4670632
 20
-166.13614588
 30
0.0
 11
-77.46706147
 21
-173.63614588
 31
0.0
  0
LINE
  5
176
100
AcDbEntity
  8
SLD-0
  6
CONTINUOUS
 62
       3
100
AcDbLine
 10
-112.86706147
 20
-178.63614111
 30
0.0
 11
-112.86706147
 21
-181.63614111
 31
0.0
  0
LINE
  5
177
100
AcDbEntity
  8
SLD-0
  6
CONTINUOUS
 62
       3
100
AcDbLine
 10
-98.06706147
 20
-178.63614111
 30
0.0
 11
-98.06706147
 21
-181.63614111
 31
0.0
  0
LINE
  5
178
100
AcDbEntity
  8
SLD-0
  6
CONTINUOUS
 62
       3
100
AcDbLine
 10
51.17664479
 20
-183.63614112
 30
0.0
 11
54.17669479
 21
-183.63614112
 31
0.0
  0
LINE
  5
179
100
AcDbEntity
  8
SLD-0
  6
CONTINUOUS
 62
       3
100
AcDbLine
 10
54.17669479
 20
-183.63614112
 30
0.0
 11
54.17669479
 21
-178.63614112
 31
0.0
  0
LINE
  5
17A
100
AcDbEntity
  8
SLD-0
  6
CONTINUOUS
 62
       3
100
AcDbLine
 10
51.17664479
 20
-183.63614112
 30
0.0
 11
51.17664479
 21
-178.63614112
 31
0.0
  0
LINE
  5
17B
100
AcDbEntity
  8
SLD-0
  6
CONTINUOUS
 62
       3
100
AcDbLine
 10
-131.46706147
 20
-66.13614111
 30
0.0
 11
-23.46706147
 21
-66.13614111
 31
0.0
  0
LINE
  5
17C
100
AcDbEntity
  8
SLD-0
  6
CONTINUOUS
 62
       3
100
AcDbLine
 10
-131.46706147
 20
-166.13614588
 30
0.0
 11
-23.46706147
 21
-166.13614588
 31
0.0
  0
LINE
  5
17D
100
AcDbEntity
  8
SLD-0
  6
CONTINUOUS
 62
       3
100
AcDbLine
 10
-131.46706147
 20
-66.13614111
 30
0.0
 11
-131.46706147
 21
-166.13614588
 31
0.0
  0
LINE
  5
17E
100
AcDbEntity
  8
SLD-0
  6
CONTINUOUS
 62
       3
100
AcDbLine
 10
45.17669471
 20
-166.13614588
 30
0.0
 11
45.17669471
 21
-66.13614111
 31
0.0
  0
LINE
  5
17F
100
AcDbEntity
  8
SLD-0
  6
CONTINUOUS
 62
       3
100
AcDbLine
 10
43.57669471
 20
-66.13614111
 30
0.0
 11
43.57669471
 21
-166.13614588
 31
0.0
  0
LINE
  5
180
100
AcDbEntity
  8
SLD-0
  6
CONTINUOUS
 62
       3
100
AcDbLine
 10
43.57669471
 20
-66.13614111
 30
0.0
 11
45.17669471
 21
-66.13614111
 31
0.0
  0
LINE
  5
181
100
AcDbEntity
  8
SLD-0
  6
CONTINUOUS
 62
       3
100
AcDbLine
 10
43.57669471
 20
-166.13614588
 30
0.0
 11
45.17669471
 21
-166.13614588
 31
0.0
  0
LINE
  5
182
100
AcDbEntity
  8
SLD-0
  6
CONTINUOUS
 62
       3
100
AcDbLine
 10
-56.86706147
 20
-178.63614111
 30
0.0
 11
-56.86706147
 21
-181.63614111
 31
0.0
  0
LINE
  5
183
100
AcDbEntity
  8
SLD-0
  6
CONTINUOUS
 62
       3
100
AcDbLine
 10
-42.06706147
 20
-178.63614111
 30
0.0
 11
-42.06706147
 21
-181.63614111
 31
0.0
  0
LINE
  5
184
100
AcDbEntity
  8
SLD-0
  6
CONTINUOUS
 62
       3
100
AcDbLine
 10
-23.46706147
 20
-166.13614588
 30
0.0
 11
-23.46706147
 21
-66.13614111
 31
0.0
  0
LINE
  5
185
100
AcDbEntity
  8
SLD-0
  6
CONTINUOUS
 62
       3
100
AcDbLine
 10
-48.27936269
 20
166.6306779
 30
0.0
 11
-47.77936168
 21
167.13067752
 31
0.0
  0
LINE
  5
186
100
AcDbEntity
  8
SLD-0
  6
CONTINUOUS
 62
       3
100
AcDbLine
 10
-47.77936168
 20
168.63067776
 30
0.0
 11
-48.27936269
 21
169.13067784
 31
0.0
  0
LINE
  5
187
100
AcDbEntity
  8
SLD-0
  6
CONTINUOUS
 62
       3
100
AcDbLine
 10
-48.27936269
 20
44.73067031
 30
0.0
 11
-47.77936168
 21
45.23067877
 31
0.0
  0
LINE
  5
188
100
AcDbEntity
  8
SLD-0
  6
CONTINUOUS
 62
       3
100
AcDbLine
 10
-47.77936168
 20
46.73067436
 30
0.0
 11
-48.27936269
 21
47.23067537
 31
0.0
  0
LINE
  5
189
100
AcDbEntity
  8
SLD-0
  6
CONTINUOUS
 62
       3
100
AcDbLine
 10
-51.27936132
 20
166.6306779
 30
0.0
 11
-48.27936269
 21
166.6306779
 31
0.0
  0
LINE
  5
18A
100
AcDbEntity
  8
SLD-0
  6
CONTINUOUS
 62
       3
100
AcDbLine
 10
-48.27936269
 20
169.13067784
 30
0.0
 11
-51.27936132
 21
169.13067784
 31
0.0
  0
LINE
  5
18B
100
AcDbEntity
  8
SLD-0
  6
CONTINUOUS
 62
       3
100
AcDbLine
 10
-51.27936132
 20
44.73067031
 30
0.0
 11
-48.27936269
 21
44.73067031
 31
0.0
  0
LINE
  5
18C
100
AcDbEntity
  8
SLD-0
  6
CONTINUOUS
 62
       3
100
AcDbLine
 10
-48.27936269
 20
47.23067537
 30
0.0
 11
-51.27936132
 21
47.23067537
 31
0.0
  0
LINE
  5
18D
100
AcDbEntity
  8
SLD-0
  6
CONTINUOUS
 62
       3
100
AcDbLine
 10
-79.77936221
 20
169.93067765
 30
0.0
 11
-79.77936221
 21
165.43067761
 31
0.0
  0
LINE
  5
18E
100
AcDbEntity
  8
SLD-0
  6
CONTINUOUS
 62
       3
100
AcDbLine
 10
-79.77936221
 20
169.93067765
 30
0.0
 11
-105.77936187
 21
169.93067765
 31
0.0
  0
LINE
  5
18F
100
AcDbEntity
  8
SLD-0
  6
CONTINUOUS
 62
       3
100
AcDbLine
 10
-105.77936187
 20
155.93067698
 30
0.0
 11
-105.77936187
 21
169.93067765
 31
0.0
  0
LINE
  5
190
100
AcDbEntity
  8
SLD-0
  6
CONTINUOUS
 62
       3
100
AcDbLine
 10
-105.77936187
 20
155.93067698
 30
0.0
 11
-107.27936305
 21
155.93067698
 31
0.0
  0
LINE
  5
191
100
AcDbEntity
  8
SLD-0
  6
CONTINUOUS
 62
       3
100
AcDbLine
 10
-107.27936305
 20
155.93067698
 30
0.0
 11
-107.27936305
 21
171.93067774
 31
0.0
  0
LINE
  5
192
100
AcDbEntity
  8
SLD-0
  6
CONTINUOUS
 62
       3
100
AcDbLine
 10
-51.27936132
 20
171.93067774
 30
0.0
 11
-107.27936305
 21
171.93067774
 31
0.0
  0
LINE
  5
193
100
AcDbEntity
  8
SLD-0
  6
CONTINUOUS
 62
       3
100
AcDbLine
 10
-51.27936132
 20
155.93067698
 30
0.0
 11
-51.27936132
 21
171.93067774
 31
0.0
  0
LINE
  5
194
100
AcDbEntity
  8
SLD-0
  6
CONTINUOUS
 62
       3
100
AcDbLine
 10
-52.7793625
 20
155.93067698
 30
0.0
 11
-51.27936132
 21
155.93067698
 31
0.0
  0
LINE
  5
195
100
AcDbEntity
  8
SLD-0
  6
CONTINUOUS
 62
       3
100
AcDbLine
 10
-52.7793625
 20
155.93067698
 30
0.0
 11
-52.7793625
 21
169.93067765
 31
0.0
  0
LINE
  5
196
100
AcDbEntity
  8
SLD-0
  6
CONTINUOUS
 62
       3
100
AcDbLine
 10
-52.7793625
 20
169.93067765
 30
0.0
 11
-78.77936216
 21
169.93067765
 31
0.0
  0
LINE
  5
197
100
AcDbEntity
  8
SLD-0
  6
CONTINUOUS
 62
       3
100
AcDbLine
 10
-78.77936216
 20
165.43067761
 30
0.0
 11
-78.77936216
 21
169.93067765
 31
0.0
  0
LINE
  5
198
100
AcDbEntity
  8
SLD-0
  6
CONTINUOUS
 62
       3
100
AcDbLine
 10
-77.87936205
 20
163.7603481
 30
0.0
 11
-77.87936205
 21
155.93067637
 31
0.0
  0
LINE
  5
199
100
AcDbEntity
  8
SLD-0
  6
CONTINUOUS
 62
       3
100
AcDbLine
 10
-77.87936205
 20
155.93067637
 30
0.0
 11
-80.67936195
 21
155.93067637
 31
0.0
  0
LINE
  5
19A
100
AcDbEntity
  8
SLD-0
  6
CONTINUOUS
 62
       3
100
AcDbLine
 10
-80.67936195
 20
163.7603481
 30
0.0
 11
-80.67936195
 21
155.93067637
 31
0.0
  0
LINE
  5
19B
100
AcDbEntity
  8
SLD-0
  6
CONTINUOUS
 62
       3
100
AcDbLine
 10
-60.02936229
 20
169.93067765
 30
0.0
 11
-60.02936229
 21
166.93067786
 31
0.0
  0
LINE
  5
19C
100
AcDbEntity
  8
SLD-0
  6
CONTINUOUS
 62
       3
100
AcDbLine
 10
-60.02936229
 20
166.93067786
 30
0.0
 11
-61.02936245
 21
166.93067786
 31
0.0
  0
LINE
  5
19D
100
AcDbEntity
  8
SLD-0
  6
CONTINUOUS
 62
       3
100
AcDbLine
 10
-61.02936245
 20
169.93067765
 30
0.0
 11
-61.02936245
 21
166.93067786
 31
0.0
  0
LINE
  5
19E
100
AcDbEntity
  8
SLD-0
  6
CONTINUOUS
 62
       3
100
AcDbLine
 10
-88.5293623
 20
166.93067786
 30
0.0
 11
-87.52936214
 21
166.93067786
 31
0.0
  0
LINE
  5
19F
100
AcDbEntity
  8
SLD-0
  6
CONTINUOUS
 62
       3
100
AcDbLine
 10
-88.5293623
 20
169.93067765
 30
0.0
 11
-88.5293623
 21
166.93067786
 31
0.0
  0
LINE
  5
1A0
100
AcDbEntity
  8
SLD-0
  6
CONTINUOUS
 62
       3
100
AcDbLine
 10
-87.52936214
 20
169.93067765
 30
0.0
 11
-87.52936214
 21
166.93067786
 31
0.0
  0
LINE
  5
1A1
100
AcDbEntity
  8
SLD-0
  6
CONTINUOUS
 62
       3
100
AcDbLine
 10
-70.02936207
 20
169.93067765
 30
0.0
 11
-70.02936207
 21
166.93067786
 31
0.0
  0
LINE
  5
1A2
100
AcDbEntity
  8
SLD-0
  6
CONTINUOUS
 62
       3
100
AcDbLine
 10
-70.02936207
 20
166.93067786
 30
0.0
 11
-71.02936223
 21
166.93067786
 31
0.0
  0
LINE
  5
1A3
100
AcDbEntity
  8
SLD-0
  6
CONTINUOUS
 62
       3
100
AcDbLine
 10
-71.02936223
 20
169.93067765
 30
0.0
 11
-71.02936223
 21
166.93067786
 31
0.0
  0
LINE
  5
1A4
100
AcDbEntity
  8
SLD-0
  6
CONTINUOUS
 62
       3
100
AcDbLine
 10
-98.52936208
 20
166.93067786
 30
0.0
 11
-97.52936192
 21
166.93067786
 31
0.0
  0
LINE
  5
1A5
100
AcDbEntity
  8
SLD-0
  6
CONTINUOUS
 62
       3
100
AcDbLine
 10
-97.52936192
 20
169.93067765
 30
0.0
 11
-97.52936192
 21
166.93067786
 31
0.0
  0
LINE
  5
1A6
100
AcDbEntity
  8
SLD-0
  6
CONTINUOUS
 62
       3
100
AcDbLine
 10
-98.52936208
 20
169.93067765
 30
0.0
 11
-98.52936208
 21
166.93067786
 31
0.0
  0
LINE
  5
1A7
100
AcDbEntity
  8
SLD-0
  6
CONTINUOUS
 62
       3
100
AcDbLine
 10
-100.07936224
 20
164.93067753
 30
0.0
 11
-82.27936221
 21
164.93067753
 31
0.0
  0
LINE
  5
1A8
100
AcDbEntity
  8
SLD-0
  6
CONTINUOUS
 62
       3
100
AcDbLine
 10
-57.47936197
 20
169.93067765
 30
0.0
 11
-57.47936219
 21
165.93067769
 31
0.0
  0
LINE
  5
1A9
100
AcDbEntity
  8
SLD-0
  6
CONTINUOUS
 62
       3
100
AcDbLine
 10
-77.27936209
 20
169.93067765
 30
0.0
 11
-77.27936219
 21
165.93067774
 31
0.0
  0
LINE
  5
1AA
100
AcDbEntity
  8
SLD-0
  6
CONTINUOUS
 62
       3
100
AcDbLine
 10
-58.47936213
 20
164.93067753
 30
0.0
 11
-76.27936216
 21
164.93067753
 31
0.0
  0
LINE
  5
1AB
100
AcDbEntity
  8
SLD-0
  6
CONTINUOUS
 62
       3
100
AcDbLine
 10
-101.07936241
 20
169.93067765
 30
0.0
 11
-101.07936241
 21
165.93067769
 31
0.0
  0
LINE
  5
1AC
100
AcDbEntity
  8
SLD-0
  6
CONTINUOUS
 62
       3
100
AcDbLine
 10
-81.27936228
 20
169.93067765
 30
0.0
 11
-81.27936228
 21
165.93067774
 31
0.0
  0
LINE
  5
1AD
100
AcDbEntity
  8
SLD-0
  6
CONTINUOUS
 62
       3
100
AcDbLine
 10
-52.7793625
 20
45.93067572
 30
0.0
 11
-52.7793625
 21
46.93067774
 31
0.0
  0
LINE
  5
1AE
100
AcDbEntity
  8
SLD-0
  6
CONTINUOUS
 62
       3
100
AcDbLine
 10
-52.7793625
 20
46.93067774
 30
0.0
 11
-51.27936132
 21
46.93067774
 31
0.0
  0
LINE
  5
1AF
100
AcDbEntity
  8
SLD-0
  6
CONTINUOUS
 62
       3
100
AcDbLine
 10
-51.27936132
 20
46.93067774
 30
0.0
 11
-51.27936132
 21
45.93067572
 31
0.0
  0
LINE
  5
1B0
100
AcDbEntity
  8
SLD-0
  6
CONTINUOUS
 62
       3
100
AcDbLine
 10
-52.7793625
 20
43.4306781
 30
0.0
 11
-58.77936162
 21
43.4306781
 31
0.0
  0
LINE
  5
1B1
100
AcDbEntity
  8
SLD-0
  6
CONTINUOUS
 62
       3
100
AcDbLine
 10
-52.7793625
 20
45.93067572
 30
0.0
 11
-52.7793625
 21
43.4306781
 31
0.0
  0
LINE
  5
1B2
100
AcDbEntity
  8
SLD-0
  6
CONTINUOUS
 62
       3
100
AcDbLine
 10
-107.27936305
 20
41.93068251
 30
0.0
 11
-51.27936132
 21
41.93068251
 31
0.0
  0
LINE
  5
1B3
100
AcDbEntity
  8
SLD-0
  6
CONTINUOUS
 62
       3
100
AcDbLine
 10
-99.77936275
 20
43.4306781
 30
0.0
 11
-105.77936187
 21
43.4306781
 31
0.0
  0
LINE
  5
1B4
100
AcDbEntity
  8
SLD-0
  6
CONTINUOUS
 62
       3
100
AcDbLine
 10
-86.77936202
 20
43.93067166
 30
0.0
 11
-99.77936275
 21
43.93067166
 31
0.0
  0
LINE
  5
1B5
100
AcDbEntity
  8
SLD-0
  6
CONTINUOUS
 62
       3
100
AcDbLine
 10
-86.77936202
 20
43.4306781
 30
0.0
 11
-86.77936202
 21
43.93067166
 31
0.0
  0
LINE
  5
1B6
100
AcDbEntity
  8
SLD-0
  6
CONTINUOUS
 62
       3
100
AcDbLine
 10
-80.67936214
 20
43.4306781
 30
0.0
 11
-86.77936202
 21
43.4306781
 31
0.0
  0
LINE
  5
1B7
100
AcDbEntity
  8
SLD-0
  6
CONTINUOUS
 62
       3
100
AcDbLine
 10
-80.67936214
 20
43.4306781
 30
0.0
 11
-80.67936214
 21
45.93067572
 31
0.0
  0
LINE
  5
1B8
100
AcDbEntity
  8
SLD-0
  6
CONTINUOUS
 62
       3
100
AcDbLine
 10
-71.77936235
 20
43.4306781
 30
0.0
 11
-77.87936224
 21
43.4306781
 31
0.0
  0
LINE
  5
1B9
100
AcDbEntity
  8
SLD-0
  6
CONTINUOUS
 62
       3
100
AcDbLine
 10
-71.77936235
 20
43.4306781
 30
0.0
 11
-71.77936235
 21
43.93067166
 31
0.0
  0
LINE
  5
1BA
100
AcDbEntity
  8
SLD-0
  6
CONTINUOUS
 62
       3
100
AcDbLine
 10
-58.77936162
 20
43.93067166
 30
0.0
 11
-71.77936235
 21
43.93067166
 31
0.0
  0
LINE
  5
1BB
100
AcDbEntity
  8
SLD-0
  6
CONTINUOUS
 62
       3
100
AcDbLine
 10
-58.77936162
 20
43.93067166
 30
0.0
 11
-58.77936162
 21
43.4306781
 31
0.0
  0
LINE
  5
1BC
100
AcDbEntity
  8
SLD-0
  6
CONTINUOUS
 62
       3
100
AcDbLine
 10
-105.77936187
 20
43.4306781
 30
0.0
 11
-105.77936187
 21
45.93067572
 31
0.0
  0
LINE
  5
1BD
100
AcDbEntity
  8
SLD-0
  6
CONTINUOUS
 62
       3
100
AcDbLine
 10
-77.87936224
 20
45.93067572
 30
0.0
 11
-77.87936224
 21
43.4306781
 31
0.0
  0
LINE
  5
1BE
100
AcDbEntity
  8
SLD-0
  6
CONTINUOUS
 62
       3
100
AcDbLine
 10
-99.77936275
 20
43.93067166
 30
0.0
 11
-99.77936275
 21
43.4306781
 31
0.0
  0
LINE
  5
1BF
100
AcDbEntity
  8
SLD-0
  6
CONTINUOUS
 62
       3
100
AcDbLine
 10
-51.27936132
 20
41.93068251
 30
0.0
 11
-51.27936132
 21
45.93067572
 31
0.0
  0
LINE
  5
1C0
100
AcDbEntity
  8
SLD-0
  6
CONTINUOUS
 62
       3
100
AcDbLine
 10
-107.27936305
 20
45.93067572
 30
0.0
 11
-107.27936305
 21
41.93068251
 31
0.0
  0
LINE
  5
1C1
100
AcDbEntity
  8
SLD-0
  6
CONTINUOUS
 62
       3
100
AcDbLine
 10
-80.67936214
 20
46.93067774
 30
0.0
 11
-77.87936224
 21
46.93067774
 31
0.0
  0
LINE
  5
1C2
100
AcDbEntity
  8
SLD-0
  6
CONTINUOUS
 62
       3
100
AcDbLine
 10
-80.67936214
 20
45.93067572
 30
0.0
 11
-80.67936214
 21
46.93067774
 31
0.0
  0
LINE
  5
1C3
100
AcDbEntity
  8
SLD-0
  6
CONTINUOUS
 62
       3
100
AcDbLine
 10
-77.87936224
 20
46.93067774
 30
0.0
 11
-77.87936224
 21
45.93067572
 31
0.0
  0
LINE
  5
1C4
100
AcDbEntity
  8
SLD-0
  6
CONTINUOUS
 62
       3
100
AcDbLine
 10
-107.27936305
 20
46.93067774
 30
0.0
 11
-105.77936187
 21
46.93067774
 31
0.0
  0
LINE
  5
1C5
100
AcDbEntity
  8
SLD-0
  6
CONTINUOUS
 62
       3
100
AcDbLine
 10
-105.77936187
 20
46.93067774
 30
0.0
 11
-105.77936187
 21
45.93067572
 31
0.0
  0
LINE
  5
1C6
100
AcDbEntity
  8
SLD-0
  6
CONTINUOUS
 62
       3
100
AcDbLine
 10
-107.27936305
 20
45.93067572
 30
0.0
 11
-107.27936305
 21
46.93067774
 31
0.0
  0
LINE
  5
1C7
100
AcDbEntity
  8
SLD-0
  6
CONTINUOUS
 62
       3
100
AcDbLine
 10
-99.77936275
 20
44.43068013
 30
0.0
 11
-86.77936202
 21
44.43068013
 31
0.0
  0
LINE
  5
1C8
100
AcDbEntity
  8
SLD-0
  6
CONTINUOUS
 62
       3
100
AcDbLine
 10
-86.77936202
 20
44.43068013
 30
0.0
 11
-86.77936202
 21
43.93067166
 31
0.0
  0
LINE
  5
1C9
100
AcDbEntity
  8
SLD-0
  6
CONTINUOUS
 62
       3
100
AcDbLine
 10
-99.77936275
 20
43.93067166
 30
0.0
 11
-99.77936275
 21
44.43068013
 31
0.0
  0
LINE
  5
1CA
100
AcDbEntity
  8
SLD-0
  6
CONTINUOUS
 62
       3
100
AcDbLine
 10
-77.87936224
 20
43.93067166
 30
0.0
 11
-71.77936235
 21
43.93067166
 31
0.0
  0
LINE
  5
1CB
100
AcDbEntity
  8
SLD-0
  6
CONTINUOUS
 62
       3
100
AcDbLine
 10
-86.77936202
 20
43.93067166
 30
0.0
 11
-80.67936214
 21
43.93067166
 31
0.0
  0
LINE
  5
1CC
100
AcDbEntity
  8
SLD-0
  6
CONTINUOUS
 62
       3
100
AcDbLine
 10
-105.77936187
 20
43.93067166
 30
0.0
 11
-99.77936275
 21
43.93067166
 31
0.0
  0
LINE
  5
1CD
100
AcDbEntity
  8
SLD-0
  6
CONTINUOUS
 62
       3
100
AcDbLine
 10
-58.77936162
 20
43.93067166
 30
0.0
 11
-52.7793625
 21
43.93067166
 31
0.0
  0
LINE
  5
1CE
100
AcDbEntity
  8
SLD-0
  6
CONTINUOUS
 62
       3
100
AcDbLine
 10
-71.77936235
 20
44.43068013
 30
0.0
 11
-58.77936162
 21
44.43068013
 31
0.0
  0
LINE
  5
1CF
100
AcDbEntity
  8
SLD-0
  6
CONTINUOUS
 62
       3
100
AcDbLine
 10
-58.77936162
 20
44.43068013
 30
0.0
 11
-58.77936162
 21
43.93067166
 31
0.0
  0
LINE
  5
1D0
100
AcDbEntity
  8
SLD-0
  6
CONTINUOUS
 62
       3
100
AcDbLine
 10
-71.77936235
 20
43.93067166
 30
0.0
 11
-71.77936235
 21
44.43068013
 31
0.0
  0
LINE
  5
1D1
100
AcDbEntity
  8
SLD-0
  6
CONTINUOUS
 62
       3
100
AcDbLine
 10
-74.2793623
 20
161.93067797
 30
0.0
 11
-74.2793623
 21
159.93067764
 31
0.0
  0
LINE
  5
1D2
100
AcDbEntity
  8
SLD-0
  6
CONTINUOUS
 62
       3
100
AcDbLine
 10
-74.2793623
 20
159.93067764
 30
0.0
 11
-77.87936224
 21
159.93067764
 31
0.0
  0
LINE
  5
1D3
100
AcDbEntity
  8
SLD-0
  6
CONTINUOUS
 62
       3
100
AcDbLine
 10
-77.87936224
 20
161.93067797
 30
0.0
 11
-74.2793623
 21
161.93067797
 31
0.0
  0
LINE
  5
1D4
100
AcDbEntity
  8
SLD-0
  6
CONTINUOUS
 62
       3
100
AcDbLine
 10
-84.27936207
 20
159.93067764
 30
0.0
 11
-80.67936214
 21
159.93067764
 31
0.0
  0
LINE
  5
1D5
100
AcDbEntity
  8
SLD-0
  6
CONTINUOUS
 62
       3
100
AcDbLine
 10
-80.67936214
 20
161.93067797
 30
0.0
 11
-84.27936207
 21
161.93067797
 31
0.0
  0
LINE
  5
1D6
100
AcDbEntity
  8
SLD-0
  6
CONTINUOUS
 62
       3
100
AcDbLine
 10
-84.27936207
 20
161.93067797
 30
0.0
 11
-84.27936207
 21
159.93067764
 31
0.0
  0
LINE
  5
1D7
100
AcDbEntity
  8
SLD-0
  6
CONTINUOUS
 62
       3
100
AcDbLine
 10
-52.7793625
 20
159.93067764
 30
0.0
 11
-56.27936214
 21
159.93067764
 31
0.0
  0
LINE
  5
1D8
100
AcDbEntity
  8
SLD-0
  6
CONTINUOUS
 62
       3
100
AcDbLine
 10
-56.27936214
 20
159.93067764
 30
0.0
 11
-56.27936214
 21
161.93067797
 31
0.0
  0
LINE
  5
1D9
100
AcDbEntity
  8
SLD-0
  6
CONTINUOUS
 62
       3
100
AcDbLine
 10
-56.27936214
 20
161.93067797
 30
0.0
 11
-52.7793625
 21
161.93067797
 31
0.0
  0
LINE
  5
1DA
100
AcDbEntity
  8
SLD-0
  6
CONTINUOUS
 62
       3
100
AcDbLine
 10
-102.27936223
 20
161.93067797
 30
0.0
 11
-105.77936187
 21
161.93067797
 31
0.0
  0
LINE
  5
1DB
100
AcDbEntity
  8
SLD-0
  6
CONTINUOUS
 62
       3
100
AcDbLine
 10
-105.77936187
 20
159.93067764
 30
0.0
 11
-102.27936223
 21
159.93067764
 31
0.0
  0
LINE
  5
1DC
100
AcDbEntity
  8
SLD-0
  6
CONTINUOUS
 62
       3
100
AcDbLine
 10
-102.27936223
 20
159.93067764
 30
0.0
 11
-102.27936223
 21
161.93067797
 31
0.0
  0
LINE
  5
1DD
100
AcDbEntity
  8
SLD-0
  6
CONTINUOUS
 62
       3
100
AcDbLine
 10
-54.87936266
 20
45.38067386
 30
0.0
 11
-52.7793625
 21
45.38067386
 31
0.0
  0
LINE
  5
1DE
100
AcDbEntity
  8
SLD-0
  6
CONTINUOUS
 62
       3
100
AcDbLine
 10
-54.87936266
 20
46.58067927
 30
0.0
 11
-54.87936266
 21
45.38067386
 31
0.0
  0
LINE
  5
1DF
100
AcDbEntity
  8
SLD-0
  6
CONTINUOUS
 62
       3
100
AcDbLine
 10
-52.7793625
 20
46.58067927
 30
0.0
 11
-54.87936266
 21
46.58067927
 31
0.0
  0
LINE
  5
1E0
100
AcDbEntity
  8
SLD-0
  6
CONTINUOUS
 62
       3
100
AcDbLine
 10
-75.279362
 20
45.38067386
 30
0.0
 11
-75.279362
 21
46.58067927
 31
0.0
  0
LINE
  5
1E1
100
AcDbEntity
  8
SLD-0
  6
CONTINUOUS
 62
       3
100
AcDbLine
 10
-77.87936224
 20
45.38067386
 30
0.0
 11
-75.279362
 21
45.38067386
 31
0.0
  0
LINE
  5
1E2
100
AcDbEntity
  8
SLD-0
  6
CONTINUOUS
 62
       3
100
AcDbLine
 10
-75.279362
 20
46.58067927
 30
0.0
 11
-77.87936224
 21
46.58067927
 31
0.0
  0
LINE
  5
1E3
100
AcDbEntity
  8
SLD-0
  6
CONTINUOUS
 62
       3
100
AcDbLine
 10
-80.67936214
 20
45.38067386
 30
0.0
 11
-83.27936238
 21
45.38067386
 31
0.0
  0
LINE
  5
1E4
100
AcDbEntity
  8
SLD-0
  6
CONTINUOUS
 62
       3
100
AcDbLine
 10
-83.27936238
 20
45.38067386
 30
0.0
 11
-83.27936238
 21
46.58067927
 31
0.0
  0
LINE
  5
1E5
100
AcDbEntity
  8
SLD-0
  6
CONTINUOUS
 62
       3
100
AcDbLine
 10
-83.27936238
 20
46.58067927
 30
0.0
 11
-80.67936214
 21
46.58067927
 31
0.0
  0
LINE
  5
1E6
100
AcDbEntity
  8
SLD-0
  6
CONTINUOUS
 62
       3
100
AcDbLine
 10
-103.67936171
 20
45.38067386
 30
0.0
 11
-105.77936187
 21
45.38067386
 31
0.0
  0
LINE
  5
1E7
100
AcDbEntity
  8
SLD-0
  6
CONTINUOUS
 62
       3
100
AcDbLine
 10
-105.77936187
 20
46.58067927
 30
0.0
 11
-103.67936171
 21
46.58067927
 31
0.0
  0
LINE
  5
1E8
100
AcDbEntity
  8
SLD-0
  6
CONTINUOUS
 62
       3
100
AcDbLine
 10
-103.67936171
 20
46.58067927
 30
0.0
 11
-103.67936171
 21
45.38067386
 31
0.0
  0
LINE
  5
1E9
100
AcDbEntity
  8
SLD-0
  6
CONTINUOUS
 62
       3
100
AcDbLine
 10
-99.87936258
 20
43.93067166
 30
0.0
 11
-99.87936258
 21
49.43067536
 31
0.0
  0
LINE
  5
1EA
100
AcDbEntity
  8
SLD-0
  6
CONTINUOUS
 62
       3
100
AcDbLine
 10
-99.87936258
 20
49.43067536
 30
0.0
 11
-98.15234594
 21
49.43067536
 31
0.0
  0
LINE
  5
1EB
100
AcDbEntity
  8
SLD-0
  6
CONTINUOUS
 62
       3
100
AcDbLine
 10
-98.15234594
 20
49.43067536
 30
0.0
 11
-98.07936191
 21
49.43067536
 31
0.0
  0
LINE
  5
1EC
100
AcDbEntity
  8
SLD-0
  6
CONTINUOUS
 62
       3
100
AcDbLine
 10
-98.07936191
 20
44.43068013
 30
0.0
 11
-98.07936191
 21
49.43067536
 31
0.0
  0
LINE
  5
1ED
100
AcDbEntity
  8
SLD-0
  6
CONTINUOUS
 62
       3
100
AcDbLine
 10
-60.47936246
 20
44.43068013
 30
0.0
 11
-60.47936246
 21
49.43067536
 31
0.0
  0
LINE
  5
1EE
100
AcDbEntity
  8
SLD-0
  6
CONTINUOUS
 62
       3
100
AcDbLine
 10
-60.40637843
 20
49.43067536
 30
0.0
 11
-60.47936246
 21
49.43067536
 31
0.0
  0
LINE
  5
1EF
100
AcDbEntity
  8
SLD-0
  6
CONTINUOUS
 62
       3
100
AcDbLine
 10
-58.67936179
 20
49.43067536
 30
0.0
 11
-60.40637843
 21
49.43067536
 31
0.0
  0
LINE
  5
1F0
100
AcDbEntity
  8
SLD-0
  6
CONTINUOUS
 62
       3
100
AcDbLine
 10
-58.67936179
 20
43.93067166
 30
0.0
 11
-58.67936179
 21
49.43067536
 31
0.0
  0
LINE
  5
1F1
100
AcDbEntity
  8
SLD-0
  6
CONTINUOUS
 62
       3
100
AcDbLine
 10
-83.97936212
 20
43.93067166
 30
0.0
 11
-83.97936212
 21
49.43067536
 31
0.0
  0
LINE
  5
1F2
100
AcDbEntity
  8
SLD-0
  6
CONTINUOUS
 62
       3
100
AcDbLine
 10
-85.77936232
 20
43.93067166
 30
0.0
 11
-85.77936232
 21
49.43067536
 31
0.0
  0
LINE
  5
1F3
100
AcDbEntity
  8
SLD-0
  6
CONTINUOUS
 62
       3
100
AcDbLine
 10
-85.77936232
 20
49.43067536
 30
0.0
 11
-83.97936212
 21
49.43067536
 31
0.0
  0
LINE
  5
1F4
100
AcDbEntity
  8
SLD-0
  6
CONTINUOUS
 62
       3
100
AcDbLine
 10
-72.77936205
 20
43.93067166
 30
0.0
 11
-72.77936205
 21
49.43067536
 31
0.0
  0
LINE
  5
1F5
100
AcDbEntity
  8
SLD-0
  6
CONTINUOUS
 62
       3
100
AcDbLine
 10
-74.57936225
 20
43.93067166
 30
0.0
 11
-74.57936225
 21
49.43067536
 31
0.0
  0
LINE
  5
1F6
100
AcDbEntity
  8
SLD-0
  6
CONTINUOUS
 62
       3
100
AcDbLine
 10
-72.77936205
 20
49.43067536
 30
0.0
 11
-74.57936225
 21
49.43067536
 31
0.0
  0
LINE
  5
1F7
100
AcDbEntity
  8
SLD-0
  6
CONTINUOUS
 62
       3
100
AcDbLine
 10
-105.77936187
 20
130.58067814
 30
0.0
 11
-105.27936132
 21
130.08067759
 31
0.0
  0
LINE
  5
1F8
100
AcDbEntity
  8
SLD-0
  6
CONTINUOUS
 62
       3
100
AcDbLine
 10
-105.27936132
 20
83.78067522
 30
0.0
 11
-105.77936187
 21
83.28067467
 31
0.0
  0
LINE
  5
1F9
100
AcDbEntity
  8
SLD-0
  6
CONTINUOUS
 62
       3
100
AcDbLine
 10
-105.77936187
 20
83.28067467
 30
0.0
 11
-105.77936187
 21
46.93067774
 31
0.0
  0
LINE
  5
1FA
100
AcDbEntity
  8
SLD-0
  6
CONTINUOUS
 62
       3
100
AcDbLine
 10
-107.27936305
 20
155.93067698
 30
0.0
 11
-107.27936305
 21
46.93067774
 31
0.0
  0
LINE
  5
1FB
100
AcDbEntity
  8
SLD-0
  6
CONTINUOUS
 62
       3
100
AcDbLine
 10
-105.77936187
 20
155.93067698
 30
0.0
 11
-105.77936187
 21
130.58067814
 31
0.0
  0
LINE
  5
1FC
100
AcDbEntity
  8
SLD-0
  6
CONTINUOUS
 62
       3
100
AcDbLine
 10
-105.77936187
 20
165.78067795
 30
0.0
 11
-102.57936172
 21
165.78067795
 31
0.0
  0
LINE
  5
1FD
100
AcDbEntity
  8
SLD-0
  6
CONTINUOUS
 62
       3
100
AcDbLine
 10
-102.57936172
 20
167.88067764
 30
0.0
 11
-102.57936172
 21
165.78067795
 31
0.0
  0
LINE
  5
1FE
100
AcDbEntity
  8
SLD-0
  6
CONTINUOUS
 62
       3
100
AcDbLine
 10
-102.57936172
 20
169.93067765
 30
0.0
 11
-102.57936172
 21
167.88067764
 31
0.0
  0
LINE
  5
1FF
100
AcDbEntity
  8
SLD-0
  6
CONTINUOUS
 62
       3
100
AcDbLine
 10
-52.7793625
 20
83.28067467
 30
0.0
 11
-53.27936132
 21
83.78067349
 31
0.0
  0
LINE
  5
200
100
AcDbEntity
  8
SLD-0
  6
CONTINUOUS
 62
       3
100
AcDbLine
 10
-53.27936132
 20
130.08067932
 30
0.0
 11
-52.7793625
 21
130.58067814
 31
0.0
  0
LINE
  5
201
100
AcDbEntity
  8
SLD-0
  6
CONTINUOUS
 62
       3
100
AcDbLine
 10
-52.7793625
 20
46.93067774
 30
0.0
 11
-52.7793625
 21
83.28067467
 31
0.0
  0
LINE
  5
202
100
AcDbEntity
  8
SLD-0
  6
CONTINUOUS
 62
       3
100
AcDbLine
 10
-52.7793625
 20
130.58067814
 30
0.0
 11
-52.7793625
 21
155.93067698
 31
0.0
  0
LINE
  5
203
100
AcDbEntity
  8
SLD-0
  6
CONTINUOUS
 62
       3
100
AcDbLine
 10
-51.27936132
 20
46.93067774
 30
0.0
 11
-51.27936132
 21
155.93067698
 31
0.0
  0
LINE
  5
204
100
AcDbEntity
  8
SLD-0
  6
CONTINUOUS
 62
       3
100
AcDbLine
 10
-102.57936172
 20
45.98068402
 30
0.0
 11
-102.57936172
 21
43.93067166
 31
0.0
  0
LINE
  5
205
100
AcDbEntity
  8
SLD-0
  6
CONTINUOUS
 62
       3
100
AcDbLine
 10
-105.77936187
 20
48.08067486
 30
0.0
 11
-102.57936172
 21
48.08067486
 31
0.0
  0
LINE
  5
206
100
AcDbEntity
  8
SLD-0
  6
CONTINUOUS
 62
       3
100
AcDbLine
 10
-102.57936172
 20
48.08067486
 30
0.0
 11
-102.57936172
 21
45.98068402
 31
0.0
  0
LINE
  5
207
100
AcDbEntity
  8
SLD-0
  6
CONTINUOUS
 62
       3
100
AcDbLine
 10
-78.3793622
 20
46.93067774
 30
0.0
 11
-78.3793622
 21
54.43067774
 31
0.0
  0
LINE
  5
208
100
AcDbEntity
  8
SLD-0
  6
CONTINUOUS
 62
       3
100
AcDbLine
 10
-80.17936217
 20
54.43067774
 30
0.0
 11
-80.17936217
 21
46.93067774
 31
0.0
  0
LINE
  5
209
100
AcDbEntity
  8
SLD-0
  6
CONTINUOUS
 62
       3
100
AcDbLine
 10
-47.77936168
 20
168.63067776
 30
0.0
 11
-47.77936168
 21
167.13067752
 31
0.0
  0
LINE
  5
20A
100
AcDbEntity
  8
SLD-0
  6
CONTINUOUS
 62
       3
100
AcDbLine
 10
-48.27936269
 20
166.6306779
 30
0.0
 11
-48.27936269
 21
169.13067784
 31
0.0
  0
LINE
  5
20B
100
AcDbEntity
  8
SLD-0
  6
CONTINUOUS
 62
       3
100
AcDbLine
 10
-47.77936168
 20
46.73067436
 30
0.0
 11
-47.77936168
 21
45.23067877
 31
0.0
  0
LINE
  5
20C
100
AcDbEntity
  8
SLD-0
  6
CONTINUOUS
 62
       3
100
AcDbLine
 10
-48.27936269
 20
44.73067031
 30
0.0
 11
-48.27936269
 21
47.23067537
 31
0.0
  0
LINE
  5
20D
100
AcDbEntity
  8
SLD-0
  6
CONTINUOUS
 62
       3
100
AcDbLine
 10
-100.57936223
 20
163.43067774
 30
0.0
 11
-81.77936223
 21
163.43067728
 31
0.0
  0
LINE
  5
20E
100
AcDbEntity
  8
SLD-0
  6
CONTINUOUS
 62
       3
100
AcDbLine
 10
-57.97936261
 20
163.43067728
 30
0.0
 11
-76.77936182
 21
163.43067728
 31
0.0
  0
LINE
  5
20F
100
AcDbEntity
  8
SLD-0
  6
CONTINUOUS
 62
       3
100
AcDbLine
 10
-55.97936205
 20
169.93067742
 30
0.0
 11
-55.97936159
 21
165.43067772
 31
0.0
  0
LINE
  5
210
100
AcDbEntity
  8
SLD-0
  6
CONTINUOUS
 62
       3
100
AcDbLine
 10
-102.57936172
 20
165.78067795
 30
0.0
 11
-102.57936219
 21
165.43067774
 31
0.0
  0
LINE
  5
211
100
AcDbEntity
  8
SLD-0
  6
CONTINUOUS
 62
       3
100
AcDbLine
 10
-88.77936188
 20
44.43068013
 30
0.0
 11
-88.77936188
 21
54.43067774
 31
0.0
  0
LINE
  5
212
100
AcDbEntity
  8
SLD-0
  6
CONTINUOUS
 62
       3
100
AcDbLine
 10
-85.77936232
 20
54.43067774
 30
0.0
 11
-85.77936232
 21
49.43067536
 31
0.0
  0
LINE
  5
213
100
AcDbEntity
  8
SLD-0
  6
CONTINUOUS
 62
       3
100
AcDbLine
 10
-69.77936249
 20
44.43068013
 30
0.0
 11
-69.77936249
 21
54.43067774
 31
0.0
  0
LINE
  5
214
100
AcDbEntity
  8
SLD-0
  6
CONTINUOUS
 62
       3
100
AcDbLine
 10
-72.77936205
 20
54.43067774
 30
0.0
 11
-72.77936205
 21
49.43067536
 31
0.0
  0
LINE
  5
215
100
AcDbEntity
  8
SLD-0
  6
CONTINUOUS
 62
       3
100
AcDbLine
 10
-47.77936168
 20
79.08067808
 30
0.0
 11
-47.77936168
 21
75.28068081
 31
0.0
  0
LINE
  5
216
100
AcDbEntity
  8
SLD-0
  6
CONTINUOUS
 62
       3
100
AcDbLine
 10
-51.27936132
 20
75.28068081
 30
0.0
 11
-47.77936168
 21
75.28068081
 31
0.0
  0
LINE
  5
217
100
AcDbEntity
  8
SLD-0
  6
CONTINUOUS
 62
       3
100
AcDbLine
 10
-51.27936132
 20
79.08067808
 30
0.0
 11
-47.77936168
 21
79.08067808
 31
0.0
  0
LINE
  5
218
100
AcDbEntity
  8
SLD-0
  6
CONTINUOUS
 62
       3
100
AcDbLine
 10
-47.77936168
 20
138.58067945
 30
0.0
 11
-47.77936168
 21
134.78067845
 31
0.0
  0
LINE
  5
219
100
AcDbEntity
  8
SLD-0
  6
CONTINUOUS
 62
       3
100
AcDbLine
 10
-51.27936132
 20
134.78067845
 30
0.0
 11
-47.77936168
 21
134.78067845
 31
0.0
  0
LINE
  5
21A
100
AcDbEntity
  8
SLD-0
  6
CONTINUOUS
 62
       3
100
AcDbLine
 10
-51.27936132
 20
138.58067945
 30
0.0
 11
-47.77936168
 21
138.58067945
 31
0.0
  0
LINE
  5
21B
100
AcDbEntity
  8
SLD-0
  6
CONTINUOUS
 62
       3
100
AcDbLine
 10
-47.27936067
 20
138.58067945
 30
0.0
 11
-47.27936067
 21
134.78067845
 31
0.0
  0
LINE
  5
21C
100
AcDbEntity
  8
SLD-0
  6
CONTINUOUS
 62
       3
100
AcDbLine
 10
-47.77936168
 20
134.78067845
 30
0.0
 11
-47.27936067
 21
134.78067845
 31
0.0
  0
LINE
  5
21D
100
AcDbEntity
  8
SLD-0
  6
CONTINUOUS
 62
       3
100
AcDbLine
 10
-47.77936168
 20
138.58067945
 30
0.0
 11
-47.27936067
 21
138.58067945
 31
0.0
  0
LINE
  5
21E
100
AcDbEntity
  8
SLD-0
  6
CONTINUOUS
 62
       3
100
AcDbLine
 10
-47.27936067
 20
79.08067808
 30
0.0
 11
-47.27936067
 21
75.28068081
 31
0.0
  0
LINE
  5
21F
100
AcDbEntity
  8
SLD-0
  6
CONTINUOUS
 62
       3
100
AcDbLine
 10
-47.77936168
 20
75.28068081
 30
0.0
 11
-47.27936067
 21
75.28068081
 31
0.0
  0
LINE
  5
220
100
AcDbEntity
  8
SLD-0
  6
CONTINUOUS
 62
       3
100
AcDbLine
 10
-47.77936168
 20
79.08067808
 30
0.0
 11
-47.27936067
 21
79.08067808
 31
0.0
  0
LINE
  5
221
100
AcDbEntity
  8
SLD-0
  6
CONTINUOUS
 62
       3
100
AcDbLine
 10
-87.27936257
 20
45.43068216
 30
0.0
 11
-88.77936188
 21
45.43068216
 31
0.0
  0
LINE
  5
222
100
AcDbEntity
  8
SLD-0
  6
CONTINUOUS
 62
       3
100
AcDbLine
 10
-87.27936257
 20
54.43067774
 30
0.0
 11
-87.27936257
 21
45.43068216
 31
0.0
  0
LINE
  5
223
100
AcDbEntity
  8
SLD-0
  6
CONTINUOUS
 62
       3
100
AcDbLine
 10
-71.27936181
 20
54.43067774
 30
0.0
 11
-71.27936181
 21
45.43068216
 31
0.0
  0
LINE
  5
224
100
AcDbEntity
  8
SLD-0
  6
CONTINUOUS
 62
       3
100
AcDbLine
 10
-71.27936181
 20
45.43068216
 30
0.0
 11
-69.77936249
 21
45.43068216
 31
0.0
  0
LINE
  5
225
100
AcDbEntity
  8
SLD-0
  6
CONTINUOUS
 62
       3
100
AcDbLine
 10
33.19417682
 20
60.4306753
 30
0.0
 11
32.5941769
 21
60.4306753
 31
0.0
  0
LINE
  5
226
100
AcDbEntity
  8
SLD-0
  6
CONTINUOUS
 62
       3
100
AcDbLine
 10
32.5941769
 20
55.43068007
 30
0.0
 11
33.19417682
 21
55.43068007
 31
0.0
  0
LINE
  5
227
100
AcDbEntity
  8
SLD-0
  6
CONTINUOUS
 62
       3
100
AcDbLine
 10
33.19417682
 20
153.43067751
 30
0.0
 11
32.5941769
 21
153.43067751
 31
0.0
  0
LINE
  5
228
100
AcDbEntity
  8
SLD-0
  6
CONTINUOUS
 62
       3
100
AcDbLine
 10
32.5941769
 20
148.43067855
 30
0.0
 11
33.19417682
 21
148.43067855
 31
0.0
  0
LINE
  5
229
100
AcDbEntity
  8
SLD-0
  6
CONTINUOUS
 62
       3
100
AcDbLine
 10
40.34417701
 20
138.58067945
 30
0.0
 11
40.64417697
 21
138.58067945
 31
0.0
  0
LINE
  5
22A
100
AcDbEntity
  8
SLD-0
  6
CONTINUOUS
 62
       3
100
AcDbLine
 10
40.64417697
 20
138.58067945
 30
0.0
 11
40.64417697
 21
134.78067845
 31
0.0
  0
LINE
  5
22B
100
AcDbEntity
  8
SLD-0
  6
CONTINUOUS
 62
       3
100
AcDbLine
 10
40.34417701
 20
134.78067845
 30
0.0
 11
40.64417697
 21
134.78067845
 31
0.0
  0
LINE
  5
22C
100
AcDbEntity
  8
SLD-0
  6
CONTINUOUS
 62
       3
100
AcDbLine
 10
38.94417694
 20
134.78067845
 30
0.0
 11
40.34417701
 21
134.78067845
 31
0.0
  0
LINE
  5
22D
100
AcDbEntity
  8
SLD-0
  6
CONTINUOUS
 62
       3
100
AcDbLine
 10
38.94417694
 20
138.58067945
 30
0.0
 11
40.34417701
 21
138.58067945
 31
0.0
  0
LINE
  5
22E
100
AcDbEntity
  8
SLD-0
  6
CONTINUOUS
 62
       3
100
AcDbLine
 10
38.64417696
 20
138.58067945
 30
0.0
 11
38.64417696
 21
134.78067845
 31
0.0
  0
LINE
  5
22F
100
AcDbEntity
  8
SLD-0
  6
CONTINUOUS
 62
       3
100
AcDbLine
 10
38.64417696
 20
134.78067845
 30
0.0
 11
38.94417694
 21
134.78067845
 31
0.0
  0
LINE
  5
230
100
AcDbEntity
  8
SLD-0
  6
CONTINUOUS
 62
       3
100
AcDbLine
 10
38.64417696
 20
138.58067945
 30
0.0
 11
38.94417694
 21
138.58067945
 31
0.0
  0
LINE
  5
231
100
AcDbEntity
  8
SLD-0
  6
CONTINUOUS
 62
       3
100
AcDbLine
 10
38.94417694
 20
79.08067808
 30
0.0
 11
40.34417701
 21
79.08067808
 31
0.0
  0
LINE
  5
232
100
AcDbEntity
  8
SLD-0
  6
CONTINUOUS
 62
       3
100
AcDbLine
 10
38.94417694
 20
75.28068081
 30
0.0
 11
40.34417701
 21
75.28068081
 31
0.0
  0
LINE
  5
233
100
AcDbEntity
  8
SLD-0
  6
CONTINUOUS
 62
       3
100
AcDbLine
 10
40.34417701
 20
79.08067808
 30
0.0
 11
40.64417697
 21
79.08067808
 31
0.0
  0
LINE
  5
234
100
AcDbEntity
  8
SLD-0
  6
CONTINUOUS
 62
       3
100
AcDbLine
 10
40.64417697
 20
79.08067808
 30
0.0
 11
40.64417697
 21
75.28068081
 31
0.0
  0
LINE
  5
235
100
AcDbEntity
  8
SLD-0
  6
CONTINUOUS
 62
       3
100
AcDbLine
 10
40.34417701
 20
75.28068081
 30
0.0
 11
40.64417697
 21
75.28068081
 31
0.0
  0
LINE
  5
236
100
AcDbEntity
  8
SLD-0
  6
CONTINUOUS
 62
       3
100
AcDbLine
 10
38.64417696
 20
79.08067808
 30
0.0
 11
38.64417696
 21
75.28068081
 31
0.0
  0
LINE
  5
237
100
AcDbEntity
  8
SLD-0
  6
CONTINUOUS
 62
       3
100
AcDbLine
 10
38.64417696
 20
79.08067808
 30
0.0
 11
38.94417694
 21
79.08067808
 31
0.0
  0
LINE
  5
238
100
AcDbEntity
  8
SLD-0
  6
CONTINUOUS
 62
       3
100
AcDbLine
 10
38.64417696
 20
75.28068081
 30
0.0
 11
38.94417694
 21
75.28068081
 31
0.0
  0
LINE
  5
239
100
AcDbEntity
  8
SLD-0
  6
CONTINUOUS
 62
       3
100
AcDbLine
 10
33.19417682
 20
46.93067774
 30
0.0
 11
33.19417682
 21
155.93067698
 31
0.0
  0
LINE
  5
23A
100
AcDbEntity
  8
SLD-0
  6
CONTINUOUS
 62
       3
100
AcDbLine
 10
33.19417682
 20
155.93067698
 30
0.0
 11
27.09417693
 21
155.93067698
 31
0.0
  0
LINE
  5
23B
100
AcDbEntity
  8
SLD-0
  6
CONTINUOUS
 62
       3
100
AcDbLine
 10
15.92278412
 20
171.93067774
 30
0.0
 11
41.59417699
 21
171.93067774
 31
0.0
  0
LINE
  5
23C
100
AcDbEntity
  8
SLD-0
  6
CONTINUOUS
 62
       3
100
AcDbLine
 10
41.59417699
 20
171.93067774
 30
0.0
 11
41.59417699
 21
124.68067885
 31
0.0
  0
LINE
  5
23D
100
AcDbEntity
  8
SLD-0
  6
CONTINUOUS
 62
       3
100
AcDbLine
 10
41.59417699
 20
124.68067885
 30
0.0
 11
38.59417697
 21
124.68067885
 31
0.0
  0
LINE
  5
23E
100
AcDbEntity
  8
SLD-0
  6
CONTINUOUS
 62
       3
100
AcDbLine
 10
38.59417697
 20
89.18067769
 30
0.0
 11
38.59417697
 21
124.68067885
 31
0.0
  0
LINE
  5
23F
100
AcDbEntity
  8
SLD-0
  6
CONTINUOUS
 62
       3
100
AcDbLine
 10
41.59417699
 20
89.18067769
 30
0.0
 11
38.59417697
 21
89.18067769
 31
0.0
  0
LINE
  5
240
100
AcDbEntity
  8
SLD-0
  6
CONTINUOUS
 62
       3
100
AcDbLine
 10
41.59417699
 20
41.93068251
 30
0.0
 11
41.59417699
 21
89.18067769
 31
0.0
  0
LINE
  5
241
100
AcDbEntity
  8
SLD-0
  6
CONTINUOUS
 62
       3
100
AcDbLine
 10
24.89417696
 20
41.93068251
 30
0.0
 11
41.59417699
 21
41.93068251
 31
0.0
  0
LINE
  5
242
100
AcDbEntity
  8
SLD-0
  6
CONTINUOUS
 62
       3
100
AcDbLine
 10
24.89417696
 20
41.93068251
 30
0.0
 11
24.89417696
 21
45.93067572
 31
0.0
  0
LINE
  5
243
100
AcDbEntity
  8
SLD-0
  6
CONTINUOUS
 62
       3
100
AcDbLine
 10
25.89417696
 20
46.93067774
 30
0.0
 11
33.19417682
 21
46.93067774
 31
0.0
  0
LINE
  5
244
100
AcDbEntity
  8
SLD-0
  6
CONTINUOUS
 62
       3
100
AcDbLine
 10
40.09417698
 20
123.18067953
 30
0.0
 11
41.59417699
 21
124.68067885
 31
0.0
  0
LINE
  5
245
100
AcDbEntity
  8
SLD-0
  6
CONTINUOUS
 62
       3
100
AcDbLine
 10
39.72540991
 20
123.18067953
 30
0.0
 11
40.09417698
 21
123.18067953
 31
0.0
  0
LINE
  5
246
100
AcDbEntity
  8
SLD-0
  6
CONTINUOUS
 62
       3
100
AcDbLine
 10
39.59417701
 20
124.68067885
 30
0.0
 11
39.72540991
 21
123.18067953
 31
0.0
  0
LINE
  5
247
100
AcDbEntity
  8
SLD-0
  6
CONTINUOUS
 62
       3
100
AcDbLine
 10
-86.67936132
 20
41.93068251
 30
0.0
 11
-86.67936132
 21
38.93068251
 31
0.0
  0
LINE
  5
248
100
AcDbEntity
  8
SLD-0
  6
CONTINUOUS
 62
       3
100
AcDbLine
 10
-71.87936132
 20
41.93068251
 30
0.0
 11
-71.87936132
 21
38.93068251
 31
0.0
  0
LINE
  5
249
100
AcDbEntity
  8
SLD-0
  6
CONTINUOUS
 62
       3
100
AcDbLine
 10
38.59412699
 20
36.93068251
 30
0.0
 11
41.59417699
 21
36.93068251
 31
0.0
  0
LINE
  5
24A
100
AcDbEntity
  8
SLD-0
  6
CONTINUOUS
 62
       3
100
AcDbLine
 10
41.59417699
 20
36.93068251
 30
0.0
 11
41.59417699
 21
41.93068251
 31
0.0
  0
LINE
  5
24B
100
AcDbEntity
  8
SLD-0
  6
CONTINUOUS
 62
       3
100
AcDbLine
 10
38.59412699
 20
36.93068251
 30
0.0
 11
38.59412699
 21
41.93068251
 31
0.0
  0
LINE
  5
24C
100
AcDbEntity
  8
SLD-0
  6
CONTINUOUS
 62
       3
100
AcDbLine
 10
-105.27936132
 20
154.43068251
 30
0.0
 11
-53.27936132
 21
154.43068251
 31
0.0
  0
LINE
  5
24D
100
AcDbEntity
  8
SLD-0
  6
CONTINUOUS
 62
       3
100
AcDbLine
 10
-105.27936132
 20
54.43067774
 30
0.0
 11
-53.27936132
 21
54.43067774
 31
0.0
  0
LINE
  5
24E
100
AcDbEntity
  8
SLD-0
  6
CONTINUOUS
 62
       3
100
AcDbLine
 10
-105.27936132
 20
154.43068251
 30
0.0
 11
-105.27936132
 21
54.43067774
 31
0.0
  0
LINE
  5
24F
100
AcDbEntity
  8
SLD-0
  6
CONTINUOUS
 62
       3
100
AcDbLine
 10
-53.27936132
 20
54.43067774
 30
0.0
 11
-53.27936132
 21
154.43068251
 31
0.0
  0
LINE
  5
250
100
AcDbEntity
  8
SLD-0
  6
CONTINUOUS
 62
       3
100
AcDbLine
 10
32.5941769
 20
54.43067774
 30
0.0
 11
32.5941769
 21
154.43068251
 31
0.0
  0
LINE
  5
251
100
AcDbEntity
  8
SLD-0
  6
CONTINUOUS
 62
       3
100
AcDbLine
 10
30.9941769
 20
154.43068251
 30
0.0
 11
30.9941769
 21
54.43067774
 31
0.0
  0
LINE
  5
252
100
AcDbEntity
  8
SLD-0
  6
CONTINUOUS
 62
       3
100
AcDbLine
 10
30.9941769
 20
154.43068251
 30
0.0
 11
32.5941769
 21
154.43068251
 31
0.0
  0
LINE
  5
253
100
AcDbEntity
  8
SLD-0
  6
CONTINUOUS
 62
       3
100
AcDbLine
 10
30.9941769
 20
54.43067774
 30
0.0
 11
32.5941769
 21
54.43067774
 31
0.0
  0
ARC
  5
254
100
AcDbEntity
  8
SLD-0
  6
CONTINUOUS
 62
       3
100
AcDbCircle
 10
-84.66706234
 20
-54.63614588
 30
0.0
 40
1.0
100
AcDbArc
 50
330.0
 51
359.99999671
  0
ARC
  5
255
100
AcDbEntity
  8
SLD-0
  6
CONTINUOUS
 62
       3
100
AcDbCircle
 10
-102.46706234
 20
-54.63614588
 30
0.0
 40
0.9999999
100
AcDbArc
 50
180.0
 51
210.0
  0
ARC
  5
256
100
AcDbEntity
  8
SLD-0
  6
CONTINUOUS
 62
       3
100
AcDbCircle
 10
-108.46706239
 20
-54.63614588
 30
0.0
 40
0.99999995
100
AcDbArc
 50
330.0
 51
360.0
  0
ARC
  5
257
100
AcDbEntity
  8
SLD-0
  6
CONTINUOUS
 62
       3
100
AcDbCircle
 10
-126.26706234
 20
-54.63614588
 30
0.0
 40
1.00000022
100
AcDbArc
 50
180.00000344
 51
210.0
  0
ARC
  5
258
100
AcDbEntity
  8
SLD-0
  6
CONTINUOUS
 62
       3
100
AcDbCircle
 10
-127.96706234
 20
-61.13614588
 30
0.0
 40
2.0
100
AcDbArc
 50
165.52248781
 51
464.47751219
  0
ARC
  5
259
100
AcDbEntity
  8
SLD-0
  6
CONTINUOUS
 62
       3
100
AcDbCircle
 10
-82.96706234
 20
-61.13614588
 30
0.0
 40
2.0
100
AcDbArc
 50
75.52248781
 51
374.47751219
  0
CIRCLE
  5
25A
100
AcDbEntity
  8
SLD-0
  6
CONTINUOUS
 62
       3
100
AcDbCircle
 10
-120.46706234
 20
-62.13614588
 30
0.0
 40
4.0
  0
CIRCLE
  5
25B
100
AcDbEntity
  8
SLD-0
  6
CONTINUOUS
 62
       3
100
AcDbCircle
 10
-90.46706234
 20
-62.13614588
 30
0.0
 40
4.0
  0
ARC
  5
25C
100
AcDbEntity
  8
SLD-0
  6
CONTINUOUS
 62
       3
100
AcDbCircle
 10
-126.76706234
 20
-55.13614588
 30
0.0
 40
2.0
100
AcDbArc
 50
180.0
 51
269.9999986
  0
ARC
  5
25D
100
AcDbEntity
  8
SLD-0
  6
CONTINUOUS
 62
       3
100
AcDbCircle
 10
-84.16706198
 20
-55.13614611
 30
0.0
 40
2.00000023
100
AcDbArc
 50
269.99997737
 51
360.00000586
  0
ARC
  5
25E
100
AcDbEntity
  8
SLD-0
  6
CONTINUOUS
 62
       3
100
AcDbCircle
 10
-107.96706234
 20
-55.13614621
 30
0.0
 40
2.00000013
100
AcDbArc
 50
269.9999986
 51
303.3670184
  0
ARC
  5
25F
100
AcDbEntity
  8
SLD-0
  6
CONTINUOUS
 62
       3
100
AcDbCircle
 10
-102.96706198
 20
-55.13614621
 30
0.0
 40
2.00000013
100
AcDbArc
 50
236.6329816
 51
270.0
  0
ARC
  5
260
100
AcDbEntity
  8
SLD-0
  6
CONTINUOUS
 62
       3
100
AcDbCircle
 10
-120.46706234
 20
-170.13614588
 30
0.0
 40
4.00000099
100
AcDbArc
 50
198.19487234
 51
554.47754389
  0
ARC
  5
261
100
AcDbEntity
  8
SLD-0
  6
CONTINUOUS
 62
       3
100
AcDbCircle
 10
-90.46706234
 20
-170.13614588
 30
0.0
 40
4.000001
100
AcDbArc
 50
345.52245615
 51
701.80512766
  0
ARC
  5
262
100
AcDbEntity
  8
SLD-0
  6
CONTINUOUS
 62
       3
100
AcDbCircle
 10
-112.96706234
 20
-175.63614588
 30
0.0
 40
1.00000608
100
AcDbArc
 50
270.00000974
 51
360.0
  0
ARC
  5
263
100
AcDbEntity
  8
SLD-0
  6
CONTINUOUS
 62
       3
100
AcDbCircle
 10
-97.96706234
 20
-175.63614588
 30
0.0
 40
1.00000608
100
AcDbArc
 50
180.0
 51
269.99999083
  0
CIRCLE
  5
264
100
AcDbEntity
  8
SLD-0
  6
CONTINUOUS
 62
       3
100
AcDbCircle
 10
-120.46706234
 20
-170.13614588
 30
0.0
 40
2.25
  0
CIRCLE
  5
265
100
AcDbEntity
  8
SLD-0
  6
CONTINUOUS
 62
       3
100
AcDbCircle
 10
-90.46706234
 20
-170.13614588
 30
0.0
 40
2.25
  0
CIRCLE
  5
266
100
AcDbEntity
  8
SLD-0
  6
CONTINUOUS
 62
       3
100
AcDbCircle
 10
-120.46706234
 20
-62.13614588
 30
0.0
 40
2.25
  0
CIRCLE
  5
267
100
AcDbEntity
  8
SLD-0
  6
CONTINUOUS
 62
       3
100
AcDbCircle
 10
-90.46706234
 20
-62.13614588
 30
0.0
 40
2.25
  0
CIRCLE
  5
268
100
AcDbEntity
  8
SLD-0
  6
CONTINUOUS
 62
       3
100
AcDbCircle
 10
47.87669477
 20
-52.68614588
 30
0.0
 40
1.25
  0
CIRCLE
  5
269
100
AcDbEntity
  8
SLD-0
  6
CONTINUOUS
 62
       3
100
AcDbCircle
 10
47.87669477
 20
-174.58614588
 30
0.0
 40
1.25
  0
ARC
  5
26A
100
AcDbEntity
  8
SLD-0
  6
CONTINUOUS
 62
       3
100
AcDbCircle
 10
39.67669477
 20
-52.73614588
 30
0.0
 40
11.90000076
100
AcDbArc
 50
159.8464165
 51
269.99999986
  0
ARC
  5
26B
100
AcDbEntity
  8
SLD-0
  6
CONTINUOUS
 62
       3
100
AcDbCircle
 10
38.47669477
 20
-174.63614589
 30
0.0
 40
1.00000001
100
AcDbArc
 50
90.0
 51
180.00011631
  0
ARC
  5
26C
100
AcDbEntity
  8
SLD-0
  6
CONTINUOUS
 62
       3
100
AcDbCircle
 10
-28.66706234
 20
-54.63614588
 30
0.0
 40
1.0
100
AcDbArc
 50
330.0
 51
359.99999671
  0
ARC
  5
26D
100
AcDbEntity
  8
SLD-0
  6
CONTINUOUS
 62
       3
100
AcDbCircle
 10
-46.46706234
 20
-54.63614588
 30
0.0
 40
0.9999999
100
AcDbArc
 50
180.0
 51
210.0
  0
ARC
  5
26E
100
AcDbEntity
  8
SLD-0
  6
CONTINUOUS
 62
       3
100
AcDbCircle
 10
-52.46706239
 20
-54.63614588
 30
0.0
 40
0.99999995
100
AcDbArc
 50
330.0
 51
360.0
  0
ARC
  5
26F
100
AcDbEntity
  8
SLD-0
  6
CONTINUOUS
 62
       3
100
AcDbCircle
 10
-70.26706234
 20
-54.63614588
 30
0.0
 40
1.00000022
100
AcDbArc
 50
180.00000344
 51
210.0
  0
ARC
  5
270
100
AcDbEntity
  8
SLD-0
  6
CONTINUOUS
 62
       3
100
AcDbCircle
 10
-71.96706234
 20
-61.13614588
 30
0.0
 40
2.0
100
AcDbArc
 50
165.52248781
 51
464.47751219
  0
ARC
  5
271
100
AcDbEntity
  8
SLD-0
  6
CONTINUOUS
 62
       3
100
AcDbCircle
 10
-26.96706234
 20
-61.13614588
 30
0.0
 40
2.0
100
AcDbArc
 50
75.52248781
 51
374.47751219
  0
CIRCLE
  5
272
100
AcDbEntity
  8
SLD-0
  6
CONTINUOUS
 62
       3
100
AcDbCircle
 10
-64.46706234
 20
-62.13614588
 30
0.0
 40
4.0
  0
CIRCLE
  5
273
100
AcDbEntity
  8
SLD-0
  6
CONTINUOUS
 62
       3
100
AcDbCircle
 10
-34.46706234
 20
-62.13614588
 30
0.0
 40
4.0
  0
ARC
  5
274
100
AcDbEntity
  8
SLD-0
  6
CONTINUOUS
 62
       3
100
AcDbCircle
 10
-70.76706234
 20
-55.13614588
 30
0.0
 40
2.0
100
AcDbArc
 50
180.0
 51
269.9999986
  0
ARC
  5
275
100
AcDbEntity
  8
SLD-0
  6
CONTINUOUS
 62
       3
100
AcDbCircle
 10
-28.16706198
 20
-55.13614611
 30
0.0
 40
2.00000023
100
AcDbArc
 50
269.99997737
 51
360.00000586
  0
ARC
  5
276
100
AcDbEntity
  8
SLD-0
  6
CONTINUOUS
 62
       3
100
AcDbCircle
 10
-51.96706234
 20
-55.13614621
 30
0.0
 40
2.00000013
100
AcDbArc
 50
269.9999986
 51
303.3670184
  0
ARC
  5
277
100
AcDbEntity
  8
SLD-0
  6
CONTINUOUS
 62
       3
100
AcDbCircle
 10
-46.96706198
 20
-55.13614621
 30
0.0
 40
2.00000013
100
AcDbArc
 50
236.6329816
 51
270.0
  0
ARC
  5
278
100
AcDbEntity
  8
SLD-0
  6
CONTINUOUS
 62
       3
100
AcDbCircle
 10
-64.46706234
 20
-170.13614588
 30
0.0
 40
4.00000099
100
AcDbArc
 50
198.19487234
 51
554.47754389
  0
ARC
  5
279
100
AcDbEntity
  8
SLD-0
  6
CONTINUOUS
 62
       3
100
AcDbCircle
 10
-34.46706234
 20
-170.13614588
 30
0.0
 40
4.000001
100
AcDbArc
 50
345.52245615
 51
701.80512766
  0
ARC
  5
27A
100
AcDbEntity
  8
SLD-0
  6
CONTINUOUS
 62
       3
100
AcDbCircle
 10
-56.96706234
 20
-175.63614588
 30
0.0
 40
1.00000608
100
AcDbArc
 50
270.00000974
 51
360.0
  0
ARC
  5
27B
100
AcDbEntity
  8
SLD-0
  6
CONTINUOUS
 62
       3
100
AcDbCircle
 10
-41.96706234
 20
-175.63614588
 30
0.0
 40
1.00000608
100
AcDbArc
 50
180.0
 51
269.99999083
  0
CIRCLE
  5
27C
100
AcDbEntity
  8
SLD-0
  6
CONTINUOUS
 62
       3
100
AcDbCircle
 10
-64.46706234
 20
-170.13614588
 30
0.0
 40
2.25
  0
CIRCLE
  5
27D
100
AcDbEntity
  8
SLD-0
  6
CONTINUOUS
 62
       3
100
AcDbCircle
 10
-34.46706234
 20
-170.13614588
 30
0.0
 40
2.25
  0
CIRCLE
  5
27E
100
AcDbEntity
  8
SLD-0
  6
CONTINUOUS
 62
       3
100
AcDbCircle
 10
-64.46706234
 20
-62.13614588
 30
0.0
 40
2.25
  0
CIRCLE
  5
27F
100
AcDbEntity
  8
SLD-0
  6
CONTINUOUS
 62
       3
100
AcDbCircle
 10
-34.46706234
 20
-62.13614588
 30
0.0
 40
2.25
  0
ARC
  5
280
100
AcDbEntity
  8
SLD-0
  6
CONTINUOUS
 62
       3
100
AcDbCircle
 10
-105.46706147
 20
-168.94614111
 30
0.0
 40
14.69
100
AcDbArc
 50
239.75198538
 51
300.24801462
  0
ARC
  5
281
100
AcDbEntity
  8
SLD-0
  6
CONTINUOUS
 62
       3
100
AcDbCircle
 10
-49.46706147
 20
-168.94614111
 30
0.0
 40
14.69
100
AcDbArc
 50
239.75198538
 51
300.24801462
  0
ARC
  5
282
100
AcDbEntity
  8
SLD-0
  6
CONTINUOUS
 62
       3
100
AcDbCircle
 10
-58.47936219
 20
165.93067774
 30
0.0
 40
1.0
100
AcDbArc
 50
330.0
 51
359.99999685
  0
ARC
  5
283
100
AcDbEntity
  8
SLD-0
  6
CONTINUOUS
 62
       3
100
AcDbCircle
 10
-76.27936219
 20
165.93067774
 30
0.0
 40
1.0
100
AcDbArc
 50
180.0
 51
210.0
  0
ARC
  5
284
100
AcDbEntity
  8
SLD-0
  6
CONTINUOUS
 62
       3
100
AcDbCircle
 10
-82.27936223
 20
165.93067774
 30
0.0
 40
0.99999996
100
AcDbArc
 50
330.0
 51
360.0
  0
ARC
  5
285
100
AcDbEntity
  8
SLD-0
  6
CONTINUOUS
 62
       3
100
AcDbCircle
 10
-100.07936219
 20
165.93067774
 30
0.0
 40
1.00000022
100
AcDbArc
 50
180.00000286
 51
210.0
  0
ARC
  5
286
100
AcDbEntity
  8
SLD-0
  6
CONTINUOUS
 62
       3
100
AcDbCircle
 10
-101.77936219
 20
159.43067774
 30
0.0
 40
2.0
100
AcDbArc
 50
165.52248781
 51
464.47751219
  0
ARC
  5
287
100
AcDbEntity
  8
SLD-0
  6
CONTINUOUS
 62
       3
100
AcDbCircle
 10
-56.77936219
 20
159.43067774
 30
0.0
 40
2.0
100
AcDbArc
 50
75.52248781
 51
374.47751219
  0
CIRCLE
  5
288
100
AcDbEntity
  8
SLD-0
  6
CONTINUOUS
 62
       3
100
AcDbCircle
 10
-94.27936219
 20
158.43067774
 30
0.0
 40
4.0
  0
CIRCLE
  5
289
100
AcDbEntity
  8
SLD-0
  6
CONTINUOUS
 62
       3
100
AcDbCircle
 10
-64.27936219
 20
158.43067774
 30
0.0
 40
4.0
  0
ARC
  5
28A
100
AcDbEntity
  8
SLD-0
  6
CONTINUOUS
 62
       3
100
AcDbCircle
 10
-100.57936219
 20
165.43067774
 30
0.0
 40
2.0
100
AcDbArc
 50
180.0
 51
269.9999986
  0
ARC
  5
28B
100
AcDbEntity
  8
SLD-0
  6
CONTINUOUS
 62
       3
100
AcDbCircle
 10
-57.97936182
 20
165.43067751
 30
0.0
 40
2.00000023
100
AcDbArc
 50
269.99997737
 51
360.00000586
  0
ARC
  5
28C
100
AcDbEntity
  8
SLD-0
  6
CONTINUOUS
 62
       3
100
AcDbCircle
 10
-81.77936219
 20
165.43067741
 30
0.0
 40
2.00000013
100
AcDbArc
 50
269.9999986
 51
303.36701856
  0
ARC
  5
28D
100
AcDbEntity
  8
SLD-0
  6
CONTINUOUS
 62
       3
100
AcDbCircle
 10
-76.77936182
 20
165.43067741
 30
0.0
 40
2.00000013
100
AcDbArc
 50
236.63298144
 51
270.0
  0
ARC
  5
28E
100
AcDbEntity
  8
SLD-0
  6
CONTINUOUS
 62
       3
100
AcDbCircle
 10
-94.27936219
 20
50.43067774
 30
0.0
 40
4.00000099
100
AcDbArc
 50
198.19487234
 51
554.47754375
  0
ARC
  5
28F
100
AcDbEntity
  8
SLD-0
  6
CONTINUOUS
 62
       3
100
AcDbCircle
 10
-64.27936219
 20
50.43067774
 30
0.0
 40
4.000001
100
AcDbArc
 50
345.52245629
 51
701.80512766
  0
ARC
  5
290
100
AcDbEntity
  8
SLD-0
  6
CONTINUOUS
 62
       3
100
AcDbCircle
 10
-86.77936219
 20
44.93067774
 30
0.0
 40
1.00000608
100
AcDbArc
 50
270.00000974
 51
360.0
  0
ARC
  5
291
100
AcDbEntity
  8
SLD-0
  6
CONTINUOUS
 62
       3
100
AcDbCircle
 10
-71.77936219
 20
44.93067774
 30
0.0
 40
1.00000608
100
AcDbArc
 50
180.0
 51
269.99999083
  0
CIRCLE
  5
292
100
AcDbEntity
  8
SLD-0
  6
CONTINUOUS
 62
       3
100
AcDbCircle
 10
-94.27936219
 20
50.43067774
 30
0.0
 40
2.25
  0
CIRCLE
  5
293
100
AcDbEntity
  8
SLD-0
  6
CONTINUOUS
 62
       3
100
AcDbCircle
 10
-64.27936219
 20
50.43067774
 30
0.0
 40
2.25
  0
CIRCLE
  5
294
100
AcDbEntity
  8
SLD-0
  6
CONTINUOUS
 62
       3
100
AcDbCircle
 10
-94.27936219
 20
158.43067774
 30
0.0
 40
2.25
  0
CIRCLE
  5
295
100
AcDbEntity
  8
SLD-0
  6
CONTINUOUS
 62
       3
100
AcDbCircle
 10
-64.27936219
 20
158.43067774
 30
0.0
 40
2.25
  0
CIRCLE
  5
296
100
AcDbEntity
  8
SLD-0
  6
CONTINUOUS
 62
       3
100
AcDbCircle
 10
35.29417696
 20
167.88067774
 30
0.0
 40
1.25
  0
CIRCLE
  5
297
100
AcDbEntity
  8
SLD-0
  6
CONTINUOUS
 62
       3
100
AcDbCircle
 10
35.29417696
 20
45.98067774
 30
0.0
 40
1.25
  0
ARC
  5
298
100
AcDbEntity
  8
SLD-0
  6
CONTINUOUS
 62
       3
100
AcDbCircle
 10
27.09417696
 20
167.83067774
 30
0.0
 40
11.90000076
100
AcDbArc
 50
159.8464165
 51
269.99999986
  0
ARC
  5
299
100
AcDbEntity
  8
SLD-0
  6
CONTINUOUS
 62
       3
100
AcDbCircle
 10
25.89417696
 20
45.93067774
 30
0.0
 40
1.00000001
100
AcDbArc
 50
90.0
 51
180.00011574
  0
ARC
  5
29A
100
AcDbEntity
  8
SLD-0
  6
CONTINUOUS
 62
       3
100
AcDbCircle
 10
-79.27936132
 20
51.62068251
 30
0.0
 40
14.69
100
AcDbArc
 50
239.75198538
 51
300.24801462
  0
LINE
  5
29B
100
AcDbEntity
  8
SLD-0
  6
CONTINUOUS
 62
       3
100
AcDbLine
 10
-83.80103693
 20
-55.13614588
 30
0.0
 11
-83.81320558
 21
-55.15665609
 31
0.0
  0
LINE
  5
29C
100
AcDbEntity
  8
SLD-0
  6
CONTINUOUS
 62
       3
100
AcDbLine
 10
-83.81320558
 20
-55.15665609
 30
0.0
 11
-83.82577609
 21
-55.17674246
 31
0.0
  0
LINE
  5
29D
100
AcDbEntity
  8
SLD-0
  6
CONTINUOUS
 62
       3
100
AcDbLine
 10
-83.82577609
 20
-55.17674246
 30
0.0
 11
-83.83873667
 21
-55.19640416
 31
0.0
  0
LINE
  5
29E
100
AcDbEntity
  8
SLD-0
  6
CONTINUOUS
 62
       3
100
AcDbLine
 10
-83.83873667
 20
-55.19640416
 30
0.0
 11
-83.8520755
 21
-55.21564036
 31
0.0
  0
LINE
  5
29F
100
AcDbEntity
  8
SLD-0
  6
CONTINUOUS
 62
       3
100
AcDbLine
 10
-83.8520755
 20
-55.21564036
 30
0.0
 11
-83.86578076
 21
-55.23445025
 31
0.0
  0
LINE
  5
2A0
100
AcDbEntity
  8
SLD-0
  6
CONTINUOUS
 62
       3
100
AcDbLine
 10
-83.86578076
 20
-55.23445025
 30
0.0
 11
-83.87984064
 21
-55.252833
 31
0.0
  0
LINE
  5
2A1
100
AcDbEntity
  8
SLD-0
  6
CONTINUOUS
 62
       3
100
AcDbLine
 10
-83.87984064
 20
-55.252833
 30
0.0
 11
-83.89424332
 21
-55.27078778
 31
0.0
  0
LINE
  5
2A2
100
AcDbEntity
  8
SLD-0
  6
CONTINUOUS
 62
       3
100
AcDbLine
 10
-83.89424332
 20
-55.27078778
 30
0.0
 11
-83.90897699
 21
-55.28831376
 31
0.0
  0
LINE
  5
2A3
100
AcDbEntity
  8
SLD-0
  6
CONTINUOUS
 62
       3
100
AcDbLine
 10
-83.90897699
 20
-55.28831376
 30
0.0
 11
-83.92402984
 21
-55.30541012
 31
0.0
  0
LINE
  5
2A4
100
AcDbEntity
  8
SLD-0
  6
CONTINUOUS
 62
       3
100
AcDbLine
 10
-83.92402984
 20
-55.30541012
 30
0.0
 11
-83.93939005
 21
-55.32207604
 31
0.0
  0
LINE
  5
2A5
100
AcDbEntity
  8
SLD-0
  6
CONTINUOUS
 62
       3
100
AcDbLine
 10
-83.93939005
 20
-55.32207604
 30
0.0
 11
-83.95504581
 21
-55.33831069
 31
0.0
  0
LINE
  5
2A6
100
AcDbEntity
  8
SLD-0
  6
CONTINUOUS
 62
       3
100
AcDbLine
 10
-83.95504581
 20
-55.33831069
 30
0.0
 11
-83.9709853
 21
-55.35411324
 31
0.0
  0
LINE
  5
2A7
100
AcDbEntity
  8
SLD-0
  6
CONTINUOUS
 62
       3
100
AcDbLine
 10
-83.9709853
 20
-55.35411324
 30
0.0
 11
-83.98718781
 21
-55.36947576
 31
0.0
  0
LINE
  5
2A8
100
AcDbEntity
  8
SLD-0
  6
CONTINUOUS
 62
       3
100
AcDbLine
 10
-83.98718781
 20
-55.36947576
 30
0.0
 11
-84.00359048
 21
-55.3843575
 31
0.0
  0
LINE
  5
2A9
100
AcDbEntity
  8
SLD-0
  6
CONTINUOUS
 62
       3
100
AcDbLine
 10
-84.00359048
 20
-55.3843575
 30
0.0
 11
-84.02017878
 21
-55.39875777
 31
0.0
  0
LINE
  5
2AA
100
AcDbEntity
  8
SLD-0
  6
CONTINUOUS
 62
       3
100
AcDbLine
 10
-84.02017878
 20
-55.39875777
 30
0.0
 11
-84.03694731
 21
-55.41268328
 31
0.0
  0
LINE
  5
2AB
100
AcDbEntity
  8
SLD-0
  6
CONTINUOUS
 62
       3
100
AcDbLine
 10
-84.03694731
 20
-55.41268328
 30
0.0
 11
-84.05389071
 21
-55.42614075
 31
0.0
  0
LINE
  5
2AC
100
AcDbEntity
  8
SLD-0
  6
CONTINUOUS
 62
       3
100
AcDbLine
 10
-84.05389071
 20
-55.42614075
 30
0.0
 11
-84.07100359
 21
-55.43913691
 31
0.0
  0
LINE
  5
2AD
100
AcDbEntity
  8
SLD-0
  6
CONTINUOUS
 62
       3
100
AcDbLine
 10
-84.07100359
 20
-55.43913691
 30
0.0
 11
-84.08828058
 21
-55.45167848
 31
0.0
  0
LINE
  5
2AE
100
AcDbEntity
  8
SLD-0
  6
CONTINUOUS
 62
       3
100
AcDbLine
 10
-84.08828058
 20
-55.45167848
 30
0.0
 11
-84.1057163
 21
-55.46377218
 31
0.0
  0
LINE
  5
2AF
100
AcDbEntity
  8
SLD-0
  6
CONTINUOUS
 62
       3
100
AcDbLine
 10
-84.1057163
 20
-55.46377218
 30
0.0
 11
-84.12330537
 21
-55.47542474
 31
0.0
  0
LINE
  5
2B0
100
AcDbEntity
  8
SLD-0
  6
CONTINUOUS
 62
       3
100
AcDbLine
 10
-84.12330537
 20
-55.47542474
 30
0.0
 11
-84.14104242
 21
-55.48664288
 31
0.0
  0
LINE
  5
2B1
100
AcDbEntity
  8
SLD-0
  6
CONTINUOUS
 62
       3
100
AcDbLine
 10
-84.14104242
 20
-55.48664288
 30
0.0
 11
-84.15892206
 21
-55.49743331
 31
0.0
  0
LINE
  5
2B2
100
AcDbEntity
  8
SLD-0
  6
CONTINUOUS
 62
       3
100
AcDbLine
 10
-84.15892206
 20
-55.49743331
 30
0.0
 11
-84.17693892
 21
-55.50780277
 31
0.0
  0
LINE
  5
2B3
100
AcDbEntity
  8
SLD-0
  6
CONTINUOUS
 62
       3
100
AcDbLine
 10
-84.17693892
 20
-55.50780277
 30
0.0
 11
-84.19508762
 21
-55.51775797
 31
0.0
  0
LINE
  5
2B4
100
AcDbEntity
  8
SLD-0
  6
CONTINUOUS
 62
       3
100
AcDbLine
 10
-84.19508762
 20
-55.51775797
 30
0.0
 11
-84.21332506
 21
-55.52728641
 31
0.0
  0
LINE
  5
2B5
100
AcDbEntity
  8
SLD-0
  6
CONTINUOUS
 62
       3
100
AcDbLine
 10
-84.21332506
 20
-55.52728641
 30
0.0
 11
-84.23161257
 21
-55.53637539
 31
0.0
  0
LINE
  5
2B6
100
AcDbEntity
  8
SLD-0
  6
CONTINUOUS
 62
       3
100
AcDbLine
 10
-84.23161257
 20
-55.53637539
 30
0.0
 11
-84.2499515
 21
-55.54503136
 31
0.0
  0
LINE
  5
2B7
100
AcDbEntity
  8
SLD-0
  6
CONTINUOUS
 62
       3
100
AcDbLine
 10
-84.2499515
 20
-55.54503136
 30
0.0
 11
-84.26834314
 21
-55.55326078
 31
0.0
  0
LINE
  5
2B8
100
AcDbEntity
  8
SLD-0
  6
CONTINUOUS
 62
       3
100
AcDbLine
 10
-84.26834314
 20
-55.55326078
 30
0.0
 11
-84.28678882
 21
-55.56107009
 31
0.0
  0
LINE
  5
2B9
100
AcDbEntity
  8
SLD-0
  6
CONTINUOUS
 62
       3
100
AcDbLine
 10
-84.28678882
 20
-55.56107009
 30
0.0
 11
-84.30528985
 21
-55.56846575
 31
0.0
  0
LINE
  5
2BA
100
AcDbEntity
  8
SLD-0
  6
CONTINUOUS
 62
       3
100
AcDbLine
 10
-84.30528985
 20
-55.56846575
 30
0.0
 11
-84.32384755
 21
-55.5754542
 31
0.0
  0
LINE
  5
2BB
100
AcDbEntity
  8
SLD-0
  6
CONTINUOUS
 62
       3
100
AcDbLine
 10
-84.32384755
 20
-55.5754542
 30
0.0
 11
-84.34246325
 21
-55.58204189
 31
0.0
  0
LINE
  5
2BC
100
AcDbEntity
  8
SLD-0
  6
CONTINUOUS
 62
       3
100
AcDbLine
 10
-84.34246325
 20
-55.58204189
 30
0.0
 11
-84.36113825
 21
-55.58823528
 31
0.0
  0
LINE
  5
2BD
100
AcDbEntity
  8
SLD-0
  6
CONTINUOUS
 62
       3
100
AcDbLine
 10
-84.36113825
 20
-55.58823528
 30
0.0
 11
-84.37987387
 21
-55.59404081
 31
0.0
  0
LINE
  5
2BE
100
AcDbEntity
  8
SLD-0
  6
CONTINUOUS
 62
       3
100
AcDbLine
 10
-84.37987387
 20
-55.59404081
 30
0.0
 11
-84.39867143
 21
-55.59946493
 31
0.0
  0
LINE
  5
2BF
100
AcDbEntity
  8
SLD-0
  6
CONTINUOUS
 62
       3
100
AcDbLine
 10
-84.39867143
 20
-55.59946493
 30
0.0
 11
-84.41753225
 21
-55.6045141
 31
0.0
  0
LINE
  5
2C0
100
AcDbEntity
  8
SLD-0
  6
CONTINUOUS
 62
       3
100
AcDbLine
 10
-84.41753225
 20
-55.6045141
 30
0.0
 11
-84.43646217
 21
-55.60919345
 31
0.0
  0
LINE
  5
2C1
100
AcDbEntity
  8
SLD-0
  6
CONTINUOUS
 62
       3
100
AcDbLine
 10
-84.43646217
 20
-55.60919345
 30
0.0
 11
-84.45548387
 21
-55.61349918
 31
0.0
  0
LINE
  5
2C2
100
AcDbEntity
  8
SLD-0
  6
CONTINUOUS
 62
       3
100
AcDbLine
 10
-84.45548387
 20
-55.61349918
 30
0.0
 11
-84.47458831
 21
-55.61743028
 31
0.0
  0
LINE
  5
2C3
100
AcDbEntity
  8
SLD-0
  6
CONTINUOUS
 62
       3
100
AcDbLine
 10
-84.47458831
 20
-55.61743028
 30
0.0
 11
-84.49376132
 21
-55.6209868
 31
0.0
  0
LINE
  5
2C4
100
AcDbEntity
  8
SLD-0
  6
CONTINUOUS
 62
       3
100
AcDbLine
 10
-84.49376132
 20
-55.6209868
 30
0.0
 11
-84.51298871
 21
-55.62416877
 31
0.0
  0
LINE
  5
2C5
100
AcDbEntity
  8
SLD-0
  6
CONTINUOUS
 62
       3
100
AcDbLine
 10
-84.51298871
 20
-55.62416877
 30
0.0
 11
-84.53225627
 21
-55.62697624
 31
0.0
  0
LINE
  5
2C6
100
AcDbEntity
  8
SLD-0
  6
CONTINUOUS
 62
       3
100
AcDbLine
 10
-84.53225627
 20
-55.62697624
 30
0.0
 11
-84.55154983
 21
-55.62940925
 31
0.0
  0
LINE
  5
2C7
100
AcDbEntity
  8
SLD-0
  6
CONTINUOUS
 62
       3
100
AcDbLine
 10
-84.55154983
 20
-55.62940925
 30
0.0
 11
-84.57085519
 21
-55.63146784
 31
0.0
  0
LINE
  5
2C8
100
AcDbEntity
  8
SLD-0
  6
CONTINUOUS
 62
       3
100
AcDbLine
 10
-84.57085519
 20
-55.63146784
 30
0.0
 11
-84.59015816
 21
-55.63315204
 31
0.0
  0
LINE
  5
2C9
100
AcDbEntity
  8
SLD-0
  6
CONTINUOUS
 62
       3
100
AcDbLine
 10
-84.59015816
 20
-55.63315204
 30
0.0
 11
-84.60944455
 21
-55.63446191
 31
0.0
  0
LINE
  5
2CA
100
AcDbEntity
  8
SLD-0
  6
CONTINUOUS
 62
       3
100
AcDbLine
 10
-84.60944455
 20
-55.63446191
 30
0.0
 11
-84.62870017
 21
-55.63539748
 31
0.0
  0
LINE
  5
2CB
100
AcDbEntity
  8
SLD-0
  6
CONTINUOUS
 62
       3
100
AcDbLine
 10
-84.62870017
 20
-55.63539748
 30
0.0
 11
-84.64791083
 21
-55.63595879
 31
0.0
  0
LINE
  5
2CC
100
AcDbEntity
  8
SLD-0
  6
CONTINUOUS
 62
       3
100
AcDbLine
 10
-84.64791083
 20
-55.63595879
 30
0.0
 11
-84.66706234
 21
-55.63614588
 31
0.0
  0
LINE
  5
2CD
100
AcDbEntity
  8
SLD-0
  6
CONTINUOUS
 62
       3
100
AcDbLine
 10
-104.06706234
 20
-56.80647519
 30
0.0
 11
-104.10037428
 21
-56.78406193
 31
0.0
  0
LINE
  5
2CE
100
AcDbEntity
  8
SLD-0
  6
CONTINUOUS
 62
       3
100
AcDbLine
 10
-104.10037428
 20
-56.78406193
 30
0.0
 11
-104.13310536
 21
-56.76108312
 31
0.0
  0
LINE
  5
2CF
100
AcDbEntity
  8
SLD-0
  6
CONTINUOUS
 62
       3
100
AcDbLine
 10
-104.13310536
 20
-56.76108312
 30
0.0
 11
-104.16525923
 21
-56.73754099
 31
0.0
  0
LINE
  5
2D0
100
AcDbEntity
  8
SLD-0
  6
CONTINUOUS
 62
       3
100
AcDbLine
 10
-104.16525923
 20
-56.73754099
 30
0.0
 11
-104.19683953
 21
-56.71343774
 31
0.0
  0
LINE
  5
2D1
100
AcDbEntity
  8
SLD-0
  6
CONTINUOUS
 62
       3
100
AcDbLine
 10
-104.19683953
 20
-56.71343774
 30
0.0
 11
-104.22784992
 21
-56.68877562
 31
0.0
  0
LINE
  5
2D2
100
AcDbEntity
  8
SLD-0
  6
CONTINUOUS
 62
       3
100
AcDbLine
 10
-104.22784992
 20
-56.68877562
 30
0.0
 11
-104.25829405
 21
-56.66355683
 31
0.0
  0
LINE
  5
2D3
100
AcDbEntity
  8
SLD-0
  6
CONTINUOUS
 62
       3
100
AcDbLine
 10
-104.25829405
 20
-56.66355683
 30
0.0
 11
-104.28817555
 21
-56.63778362
 31
0.0
  0
LINE
  5
2D4
100
AcDbEntity
  8
SLD-0
  6
CONTINUOUS
 62
       3
100
AcDbLine
 10
-104.28817555
 20
-56.63778362
 30
0.0
 11
-104.31749809
 21
-56.61145819
 31
0.0
  0
LINE
  5
2D5
100
AcDbEntity
  8
SLD-0
  6
CONTINUOUS
 62
       3
100
AcDbLine
 10
-104.31749809
 20
-56.61145819
 30
0.0
 11
-104.34626532
 21
-56.58458278
 31
0.0
  0
LINE
  5
2D6
100
AcDbEntity
  8
SLD-0
  6
CONTINUOUS
 62
       3
100
AcDbLine
 10
-104.34626532
 20
-56.58458278
 30
0.0
 11
-104.37448087
 21
-56.5571596
 31
0.0
  0
LINE
  5
2D7
100
AcDbEntity
  8
SLD-0
  6
CONTINUOUS
 62
       3
100
AcDbLine
 10
-104.37448087
 20
-56.5571596
 30
0.0
 11
-104.40214841
 21
-56.52919089
 31
0.0
  0
LINE
  5
2D8
100
AcDbEntity
  8
SLD-0
  6
CONTINUOUS
 62
       3
100
AcDbLine
 10
-104.40214841
 20
-56.52919089
 30
0.0
 11
-104.42927158
 21
-56.50067886
 31
0.0
  0
LINE
  5
2D9
100
AcDbEntity
  8
SLD-0
  6
CONTINUOUS
 62
       3
100
AcDbLine
 10
-104.42927158
 20
-56.50067886
 30
0.0
 11
-104.45585312
 21
-56.47162116
 31
0.0
  0
LINE
  5
2DA
100
AcDbEntity
  8
SLD-0
  6
CONTINUOUS
 62
       3
100
AcDbLine
 10
-104.45585312
 20
-56.47162116
 30
0.0
 11
-104.4818841
 21
-56.44200045
 31
0.0
  0
LINE
  5
2DB
100
AcDbEntity
  8
SLD-0
  6
CONTINUOUS
 62
       3
100
AcDbLine
 10
-104.4818841
 20
-56.44200045
 30
0.0
 11
-104.50734902
 21
-56.41183459
 31
0.0
  0
LINE
  5
2DC
100
AcDbEntity
  8
SLD-0
  6
CONTINUOUS
 62
       3
100
AcDbLine
 10
-104.50734902
 20
-56.41183459
 30
0.0
 11
-104.53223246
 21
-56.38114689
 31
0.0
  0
LINE
  5
2DD
100
AcDbEntity
  8
SLD-0
  6
CONTINUOUS
 62
       3
100
AcDbLine
 10
-104.53223246
 20
-56.38114689
 30
0.0
 11
-104.55651906
 21
-56.34996069
 31
0.0
  0
LINE
  5
2DE
100
AcDbEntity
  8
SLD-0
  6
CONTINUOUS
 62
       3
100
AcDbLine
 10
-104.55651906
 20
-56.34996069
 30
0.0
 11
-104.5801934
 21
-56.3182993
 31
0.0
  0
LINE
  5
2DF
100
AcDbEntity
  8
SLD-0
  6
CONTINUOUS
 62
       3
100
AcDbLine
 10
-104.5801934
 20
-56.3182993
 30
0.0
 11
-104.6032401
 21
-56.28618604
 31
0.0
  0
LINE
  5
2E0
100
AcDbEntity
  8
SLD-0
  6
CONTINUOUS
 62
       3
100
AcDbLine
 10
-104.6032401
 20
-56.28618604
 30
0.0
 11
-104.62564376
 21
-56.25364424
 31
0.0
  0
LINE
  5
2E1
100
AcDbEntity
  8
SLD-0
  6
CONTINUOUS
 62
       3
100
AcDbLine
 10
-104.62564376
 20
-56.25364424
 30
0.0
 11
-104.64738899
 21
-56.22069721
 31
0.0
  0
LINE
  5
2E2
100
AcDbEntity
  8
SLD-0
  6
CONTINUOUS
 62
       3
100
AcDbLine
 10
-104.64738899
 20
-56.22069721
 30
0.0
 11
-104.66846039
 21
-56.18736827
 31
0.0
  0
LINE
  5
2E3
100
AcDbEntity
  8
SLD-0
  6
CONTINUOUS
 62
       3
100
AcDbLine
 10
-104.66846039
 20
-56.18736827
 30
0.0
 11
-104.68884258
 21
-56.15368075
 31
0.0
  0
LINE
  5
2E4
100
AcDbEntity
  8
SLD-0
  6
CONTINUOUS
 62
       3
100
AcDbLine
 10
-104.68884258
 20
-56.15368075
 30
0.0
 11
-104.70852016
 21
-56.11965796
 31
0.0
  0
LINE
  5
2E5
100
AcDbEntity
  8
SLD-0
  6
CONTINUOUS
 62
       3
100
AcDbLine
 10
-104.70852016
 20
-56.11965796
 30
0.0
 11
-104.72747773
 21
-56.08532323
 31
0.0
  0
LINE
  5
2E6
100
AcDbEntity
  8
SLD-0
  6
CONTINUOUS
 62
       3
100
AcDbLine
 10
-104.72747773
 20
-56.08532323
 30
0.0
 11
-104.74574089
 21
-56.05063499
 31
0.0
  0
LINE
  5
2E7
100
AcDbEntity
  8
SLD-0
  6
CONTINUOUS
 62
       3
100
AcDbLine
 10
-104.74574089
 20
-56.05063499
 30
0.0
 11
-104.76333974
 21
-56.01554716
 31
0.0
  0
LINE
  5
2E8
100
AcDbEntity
  8
SLD-0
  6
CONTINUOUS
 62
       3
100
AcDbLine
 10
-104.76333974
 20
-56.01554716
 30
0.0
 11
-104.78026567
 21
-55.98007623
 31
0.0
  0
LINE
  5
2E9
100
AcDbEntity
  8
SLD-0
  6
CONTINUOUS
 62
       3
100
AcDbLine
 10
-104.78026567
 20
-55.98007623
 30
0.0
 11
-104.79651008
 21
-55.94423869
 31
0.0
  0
LINE
  5
2EA
100
AcDbEntity
  8
SLD-0
  6
CONTINUOUS
 62
       3
100
AcDbLine
 10
-104.79651008
 20
-55.94423869
 30
0.0
 11
-104.81206435
 21
-55.90805106
 31
0.0
  0
LINE
  5
2EB
100
AcDbEntity
  8
SLD-0
  6
CONTINUOUS
 62
       3
100
AcDbLine
 10
-104.81206435
 20
-55.90805106
 30
0.0
 11
-104.82691988
 21
-55.87152984
 31
0.0
  0
LINE
  5
2EC
100
AcDbEntity
  8
SLD-0
  6
CONTINUOUS
 62
       3
100
AcDbLine
 10
-104.82691988
 20
-55.87152984
 30
0.0
 11
-104.84106806
 21
-55.83469152
 31
0.0
  0
LINE
  5
2ED
100
AcDbEntity
  8
SLD-0
  6
CONTINUOUS
 62
       3
100
AcDbLine
 10
-104.84106806
 20
-55.83469152
 30
0.0
 11
-104.85450029
 21
-55.7975526
 31
0.0
  0
LINE
  5
2EE
100
AcDbEntity
  8
SLD-0
  6
CONTINUOUS
 62
       3
100
AcDbLine
 10
-104.85450029
 20
-55.7975526
 30
0.0
 11
-104.86720794
 21
-55.7601296
 31
0.0
  0
LINE
  5
2EF
100
AcDbEntity
  8
SLD-0
  6
CONTINUOUS
 62
       3
100
AcDbLine
 10
-104.86720794
 20
-55.7601296
 30
0.0
 11
-104.87918241
 21
-55.72243901
 31
0.0
  0
LINE
  5
2F0
100
AcDbEntity
  8
SLD-0
  6
CONTINUOUS
 62
       3
100
AcDbLine
 10
-104.87918241
 20
-55.72243901
 30
0.0
 11
-104.8904151
 21
-55.68449733
 31
0.0
  0
LINE
  5
2F1
100
AcDbEntity
  8
SLD-0
  6
CONTINUOUS
 62
       3
100
AcDbLine
 10
-104.8904151
 20
-55.68449733
 30
0.0
 11
-104.90089739
 21
-55.64632106
 31
0.0
  0
LINE
  5
2F2
100
AcDbEntity
  8
SLD-0
  6
CONTINUOUS
 62
       3
100
AcDbLine
 10
-104.90089739
 20
-55.64632106
 30
0.0
 11
-104.91062106
 21
-55.60793521
 31
0.0
  0
LINE
  5
2F3
100
AcDbEntity
  8
SLD-0
  6
CONTINUOUS
 62
       3
100
AcDbLine
 10
-104.91062106
 20
-55.60793521
 30
0.0
 11
-104.91958208
 21
-55.56940088
 31
0.0
  0
LINE
  5
2F4
100
AcDbEntity
  8
SLD-0
  6
CONTINUOUS
 62
       3
100
AcDbLine
 10
-104.91958208
 20
-55.56940088
 30
0.0
 11
-104.9277779
 21
-55.53072664
 31
0.0
  0
LINE
  5
2F5
100
AcDbEntity
  8
SLD-0
  6
CONTINUOUS
 62
       3
100
AcDbLine
 10
-104.9277779
 20
-55.53072664
 30
0.0
 11
-104.93520585
 21
-55.49191184
 31
0.0
  0
LINE
  5
2F6
100
AcDbEntity
  8
SLD-0
  6
CONTINUOUS
 62
       3
100
AcDbLine
 10
-104.93520585
 20
-55.49191184
 30
0.0
 11
-104.94186327
 21
-55.45295583
 31
0.0
  0
LINE
  5
2F7
100
AcDbEntity
  8
SLD-0
  6
CONTINUOUS
 62
       3
100
AcDbLine
 10
-104.94186327
 20
-55.45295583
 30
0.0
 11
-104.94774747
 21
-55.41385795
 31
0.0
  0
LINE
  5
2F8
100
AcDbEntity
  8
SLD-0
  6
CONTINUOUS
 62
       3
100
AcDbLine
 10
-104.94774747
 20
-55.41385795
 30
0.0
 11
-104.95285578
 21
-55.37461756
 31
0.0
  0
LINE
  5
2F9
100
AcDbEntity
  8
SLD-0
  6
CONTINUOUS
 62
       3
100
AcDbLine
 10
-104.95285578
 20
-55.37461756
 30
0.0
 11
-104.95718553
 21
-55.335234
 31
0.0
  0
LINE
  5
2FA
100
AcDbEntity
  8
SLD-0
  6
CONTINUOUS
 62
       3
100
AcDbLine
 10
-104.95718553
 20
-55.335234
 30
0.0
 11
-104.96073405
 21
-55.29570662
 31
0.0
  0
LINE
  5
2FB
100
AcDbEntity
  8
SLD-0
  6
CONTINUOUS
 62
       3
100
AcDbLine
 10
-104.96073405
 20
-55.29570662
 30
0.0
 11
-104.96349867
 21
-55.25603477
 31
0.0
  0
LINE
  5
2FC
100
AcDbEntity
  8
SLD-0
  6
CONTINUOUS
 62
       3
100
AcDbLine
 10
-104.96349867
 20
-55.25603477
 30
0.0
 11
-104.9654767
 21
-55.21621779
 31
0.0
  0
LINE
  5
2FD
100
AcDbEntity
  8
SLD-0
  6
CONTINUOUS
 62
       3
100
AcDbLine
 10
-104.9654767
 20
-55.21621779
 30
0.0
 11
-104.96666548
 21
-55.17625505
 31
0.0
  0
LINE
  5
2FE
100
AcDbEntity
  8
SLD-0
  6
CONTINUOUS
 62
       3
100
AcDbLine
 10
-104.96666548
 20
-55.17625505
 30
0.0
 11
-104.96706234
 21
-55.13614588
 31
0.0
  0
LINE
  5
2FF
100
AcDbEntity
  8
SLD-0
  6
CONTINUOUS
 62
       3
100
AcDbLine
 10
-105.96706234
 20
-55.13614588
 30
0.0
 11
-105.96745904
 21
-55.17624962
 31
0.0
  0
LINE
  5
300
100
AcDbEntity
  8
SLD-0
  6
CONTINUOUS
 62
       3
100
AcDbLine
 10
-105.96745904
 20
-55.17624962
 30
0.0
 11
-105.9686467
 21
-55.21618957
 31
0.0
  0
LINE
  5
301
100
AcDbEntity
  8
SLD-0
  6
CONTINUOUS
 62
       3
100
AcDbLine
 10
-105.9686467
 20
-55.21618957
 30
0.0
 11
-105.97062169
 21
-55.25596664
 31
0.0
  0
LINE
  5
302
100
AcDbEntity
  8
SLD-0
  6
CONTINUOUS
 62
       3
100
AcDbLine
 10
-105.97062169
 20
-55.25596664
 30
0.0
 11
-105.97338035
 21
-55.29558175
 31
0.0
  0
LINE
  5
303
100
AcDbEntity
  8
SLD-0
  6
CONTINUOUS
 62
       3
100
AcDbLine
 10
-105.97338035
 20
-55.29558175
 30
0.0
 11
-105.97691902
 21
-55.33503581
 31
0.0
  0
LINE
  5
304
100
AcDbEntity
  8
SLD-0
  6
CONTINUOUS
 62
       3
100
AcDbLine
 10
-105.97691902
 20
-55.33503581
 30
0.0
 11
-105.98123407
 21
-55.37432972
 31
0.0
  0
LINE
  5
305
100
AcDbEntity
  8
SLD-0
  6
CONTINUOUS
 62
       3
100
AcDbLine
 10
-105.98123407
 20
-55.37432972
 30
0.0
 11
-105.98632185
 21
-55.41346441
 31
0.0
  0
LINE
  5
306
100
AcDbEntity
  8
SLD-0
  6
CONTINUOUS
 62
       3
100
AcDbLine
 10
-105.98632185
 20
-55.41346441
 30
0.0
 11
-105.9921787
 21
-55.45244078
 31
0.0
  0
LINE
  5
307
100
AcDbEntity
  8
SLD-0
  6
CONTINUOUS
 62
       3
100
AcDbLine
 10
-105.9921787
 20
-55.45244078
 30
0.0
 11
-105.99880098
 21
-55.49125975
 31
0.0
  0
LINE
  5
308
100
AcDbEntity
  8
SLD-0
  6
CONTINUOUS
 62
       3
100
AcDbLine
 10
-105.99880098
 20
-55.49125975
 30
0.0
 11
-106.00618503
 21
-55.52992222
 31
0.0
  0
LINE
  5
309
100
AcDbEntity
  8
SLD-0
  6
CONTINUOUS
 62
       3
100
AcDbLine
 10
-106.00618503
 20
-55.52992222
 30
0.0
 11
-106.01432721
 21
-55.56842912
 31
0.0
  0
LINE
  5
30A
100
AcDbEntity
  8
SLD-0
  6
CONTINUOUS
 62
       3
100
AcDbLine
 10
-106.01432721
 20
-55.56842912
 30
0.0
 11
-106.02322387
 21
-55.60678135
 31
0.0
  0
LINE
  5
30B
100
AcDbEntity
  8
SLD-0
  6
CONTINUOUS
 62
       3
100
AcDbLine
 10
-106.02322387
 20
-55.60678135
 30
0.0
 11
-106.03287566
 21
-55.64498173
 31
0.0
  0
LINE
  5
30C
100
AcDbEntity
  8
SLD-0
  6
CONTINUOUS
 62
       3
100
AcDbLine
 10
-106.03287566
 20
-55.64498173
 30
0.0
 11
-106.04330183
 21
-55.68303253
 31
0.0
  0
LINE
  5
30D
100
AcDbEntity
  8
SLD-0
  6
CONTINUOUS
 62
       3
100
AcDbLine
 10
-106.04330183
 20
-55.68303253
 30
0.0
 11
-106.05449573
 21
-55.7209107
 31
0.0
  0
LINE
  5
30E
100
AcDbEntity
  8
SLD-0
  6
CONTINUOUS
 62
       3
100
AcDbLine
 10
-106.05449573
 20
-55.7209107
 30
0.0
 11
-106.06644609
 21
-55.75859013
 31
0.0
  0
LINE
  5
30F
100
AcDbEntity
  8
SLD-0
  6
CONTINUOUS
 62
       3
100
AcDbLine
 10
-106.06644609
 20
-55.75859013
 30
0.0
 11
-106.07914164
 21
-55.79604475
 31
0.0
  0
LINE
  5
310
100
AcDbEntity
  8
SLD-0
  6
CONTINUOUS
 62
       3
100
AcDbLine
 10
-106.07914164
 20
-55.79604475
 30
0.0
 11
-106.0925711
 21
-55.83324847
 31
0.0
  0
LINE
  5
311
100
AcDbEntity
  8
SLD-0
  6
CONTINUOUS
 62
       3
100
AcDbLine
 10
-106.0925711
 20
-55.83324847
 30
0.0
 11
-106.10672321
 21
-55.87017519
 31
0.0
  0
LINE
  5
312
100
AcDbEntity
  8
SLD-0
  6
CONTINUOUS
 62
       3
100
AcDbLine
 10
-106.10672321
 20
-55.87017519
 30
0.0
 11
-106.12158671
 21
-55.90679882
 31
0.0
  0
LINE
  5
313
100
AcDbEntity
  8
SLD-0
  6
CONTINUOUS
 62
       3
100
AcDbLine
 10
-106.12158671
 20
-55.90679882
 30
0.0
 11
-106.13715031
 21
-55.94309327
 31
0.0
  0
LINE
  5
314
100
AcDbEntity
  8
SLD-0
  6
CONTINUOUS
 62
       3
100
AcDbLine
 10
-106.13715031
 20
-55.94309327
 30
0.0
 11
-106.15340276
 21
-55.97903246
 31
0.0
  0
LINE
  5
315
100
AcDbEntity
  8
SLD-0
  6
CONTINUOUS
 62
       3
100
AcDbLine
 10
-106.15340276
 20
-55.97903246
 30
0.0
 11
-106.17033277
 21
-56.0145903
 31
0.0
  0
LINE
  5
316
100
AcDbEntity
  8
SLD-0
  6
CONTINUOUS
 62
       3
100
AcDbLine
 10
-106.17033277
 20
-56.0145903
 30
0.0
 11
-106.1879291
 21
-56.04974068
 31
0.0
  0
LINE
  5
317
100
AcDbEntity
  8
SLD-0
  6
CONTINUOUS
 62
       3
100
AcDbLine
 10
-106.1879291
 20
-56.04974068
 30
0.0
 11
-106.20618045
 21
-56.08445753
 31
0.0
  0
LINE
  5
318
100
AcDbEntity
  8
SLD-0
  6
CONTINUOUS
 62
       3
100
AcDbLine
 10
-106.20618045
 20
-56.08445753
 30
0.0
 11
-106.22510655
 21
-56.11878468
 31
0.0
  0
LINE
  5
319
100
AcDbEntity
  8
SLD-0
  6
CONTINUOUS
 62
       3
100
AcDbLine
 10
-106.22510655
 20
-56.11878468
 30
0.0
 11
-106.24472884
 21
-56.1527729
 31
0.0
  0
LINE
  5
31A
100
AcDbEntity
  8
SLD-0
  6
CONTINUOUS
 62
       3
100
AcDbLine
 10
-106.24472884
 20
-56.1527729
 30
0.0
 11
-106.26503863
 21
-56.18640657
 31
0.0
  0
LINE
  5
31B
100
AcDbEntity
  8
SLD-0
  6
CONTINUOUS
 62
       3
100
AcDbLine
 10
-106.26503863
 20
-56.18640657
 30
0.0
 11
-106.28602721
 21
-56.21967002
 31
0.0
  0
LINE
  5
31C
100
AcDbEntity
  8
SLD-0
  6
CONTINUOUS
 62
       3
100
AcDbLine
 10
-106.28602721
 20
-56.21967002
 30
0.0
 11
-106.3076859
 21
-56.25254761
 31
0.0
  0
LINE
  5
31D
100
AcDbEntity
  8
SLD-0
  6
CONTINUOUS
 62
       3
100
AcDbLine
 10
-106.3076859
 20
-56.25254761
 30
0.0
 11
-106.33000601
 21
-56.28502369
 31
0.0
  0
LINE
  5
31E
100
AcDbEntity
  8
SLD-0
  6
CONTINUOUS
 62
       3
100
AcDbLine
 10
-106.33000601
 20
-56.28502369
 30
0.0
 11
-106.35297885
 21
-56.31708262
 31
0.0
  0
LINE
  5
31F
100
AcDbEntity
  8
SLD-0
  6
CONTINUOUS
 62
       3
100
AcDbLine
 10
-106.35297885
 20
-56.31708262
 30
0.0
 11
-106.37659571
 21
-56.34870874
 31
0.0
  0
LINE
  5
320
100
AcDbEntity
  8
SLD-0
  6
CONTINUOUS
 62
       3
100
AcDbLine
 10
-106.37659571
 20
-56.34870874
 30
0.0
 11
-106.40084792
 21
-56.3798864
 31
0.0
  0
LINE
  5
321
100
AcDbEntity
  8
SLD-0
  6
CONTINUOUS
 62
       3
100
AcDbLine
 10
-106.40084792
 20
-56.3798864
 30
0.0
 11
-106.42572677
 21
-56.41059996
 31
0.0
  0
LINE
  5
322
100
AcDbEntity
  8
SLD-0
  6
CONTINUOUS
 62
       3
100
AcDbLine
 10
-106.42572677
 20
-56.41059996
 30
0.0
 11
-106.45122357
 21
-56.44083377
 31
0.0
  0
LINE
  5
323
100
AcDbEntity
  8
SLD-0
  6
CONTINUOUS
 62
       3
100
AcDbLine
 10
-106.45122357
 20
-56.44083377
 30
0.0
 11
-106.47732964
 21
-56.47057218
 31
0.0
  0
LINE
  5
324
100
AcDbEntity
  8
SLD-0
  6
CONTINUOUS
 62
       3
100
AcDbLine
 10
-106.47732964
 20
-56.47057218
 30
0.0
 11
-106.50402869
 21
-56.49979491
 31
0.0
  0
LINE
  5
325
100
AcDbEntity
  8
SLD-0
  6
CONTINUOUS
 62
       3
100
AcDbLine
 10
-106.50402869
 20
-56.49979491
 30
0.0
 11
-106.5312708
 21
-56.52846373
 31
0.0
  0
LINE
  5
326
100
AcDbEntity
  8
SLD-0
  6
CONTINUOUS
 62
       3
100
AcDbLine
 10
-106.5312708
 20
-56.52846373
 30
0.0
 11
-106.55905076
 21
-56.55657189
 31
0.0
  0
LINE
  5
327
100
AcDbEntity
  8
SLD-0
  6
CONTINUOUS
 62
       3
100
AcDbLine
 10
-106.55905076
 20
-56.55657189
 30
0.0
 11
-106.58737143
 21
-56.58411782
 31
0.0
  0
LINE
  5
328
100
AcDbEntity
  8
SLD-0
  6
CONTINUOUS
 62
       3
100
AcDbLine
 10
-106.58737143
 20
-56.58411782
 30
0.0
 11
-106.61623569
 21
-56.61109997
 31
0.0
  0
LINE
  5
329
100
AcDbEntity
  8
SLD-0
  6
CONTINUOUS
 62
       3
100
AcDbLine
 10
-106.61623569
 20
-56.61109997
 30
0.0
 11
-106.6456464
 21
-56.6375168
 31
0.0
  0
LINE
  5
32A
100
AcDbEntity
  8
SLD-0
  6
CONTINUOUS
 62
       3
100
AcDbLine
 10
-106.6456464
 20
-56.6375168
 30
0.0
 11
-106.67560641
 21
-56.66336676
 31
0.0
  0
LINE
  5
32B
100
AcDbEntity
  8
SLD-0
  6
CONTINUOUS
 62
       3
100
AcDbLine
 10
-106.67560641
 20
-56.66336676
 30
0.0
 11
-106.70611859
 21
-56.68864828
 31
0.0
  0
LINE
  5
32C
100
AcDbEntity
  8
SLD-0
  6
CONTINUOUS
 62
       3
100
AcDbLine
 10
-106.70611859
 20
-56.68864828
 30
0.0
 11
-106.73718581
 21
-56.71335983
 31
0.0
  0
LINE
  5
32D
100
AcDbEntity
  8
SLD-0
  6
CONTINUOUS
 62
       3
100
AcDbLine
 10
-106.73718581
 20
-56.71335983
 30
0.0
 11
-106.76881093
 21
-56.73749984
 31
0.0
  0
LINE
  5
32E
100
AcDbEntity
  8
SLD-0
  6
CONTINUOUS
 62
       3
100
AcDbLine
 10
-106.76881093
 20
-56.73749984
 30
0.0
 11
-106.80099682
 21
-56.76106677
 31
0.0
  0
LINE
  5
32F
100
AcDbEntity
  8
SLD-0
  6
CONTINUOUS
 62
       3
100
AcDbLine
 10
-106.80099682
 20
-56.76106677
 30
0.0
 11
-106.83374633
 21
-56.78405907
 31
0.0
  0
LINE
  5
330
100
AcDbEntity
  8
SLD-0
  6
CONTINUOUS
 62
       3
100
AcDbLine
 10
-106.83374633
 20
-56.78405907
 30
0.0
 11
-106.86706234
 21
-56.80647519
 31
0.0
  0
LINE
  5
331
100
AcDbEntity
  8
SLD-0
  6
CONTINUOUS
 62
       3
100
AcDbLine
 10
-127.13308774
 20
-55.13614588
 30
0.0
 11
-127.1209191
 21
-55.15665609
 31
0.0
  0
LINE
  5
332
100
AcDbEntity
  8
SLD-0
  6
CONTINUOUS
 62
       3
100
AcDbLine
 10
-127.1209191
 20
-55.15665609
 30
0.0
 11
-127.10834858
 21
-55.17674246
 31
0.0
  0
LINE
  5
333
100
AcDbEntity
  8
SLD-0
  6
CONTINUOUS
 62
       3
100
AcDbLine
 10
-127.10834858
 20
-55.17674246
 30
0.0
 11
-127.095388
 21
-55.19640416
 31
0.0
  0
LINE
  5
334
100
AcDbEntity
  8
SLD-0
  6
CONTINUOUS
 62
       3
100
AcDbLine
 10
-127.095388
 20
-55.19640416
 30
0.0
 11
-127.08204917
 21
-55.21564036
 31
0.0
  0
LINE
  5
335
100
AcDbEntity
  8
SLD-0
  6
CONTINUOUS
 62
       3
100
AcDbLine
 10
-127.08204917
 20
-55.21564036
 30
0.0
 11
-127.06834391
 21
-55.23445025
 31
0.0
  0
LINE
  5
336
100
AcDbEntity
  8
SLD-0
  6
CONTINUOUS
 62
       3
100
AcDbLine
 10
-127.06834391
 20
-55.23445025
 30
0.0
 11
-127.05428404
 21
-55.252833
 31
0.0
  0
LINE
  5
337
100
AcDbEntity
  8
SLD-0
  6
CONTINUOUS
 62
       3
100
AcDbLine
 10
-127.05428404
 20
-55.252833
 30
0.0
 11
-127.03988135
 21
-55.27078778
 31
0.0
  0
LINE
  5
338
100
AcDbEntity
  8
SLD-0
  6
CONTINUOUS
 62
       3
100
AcDbLine
 10
-127.03988135
 20
-55.27078778
 30
0.0
 11
-127.02514768
 21
-55.28831376
 31
0.0
  0
LINE
  5
339
100
AcDbEntity
  8
SLD-0
  6
CONTINUOUS
 62
       3
100
AcDbLine
 10
-127.02514768
 20
-55.28831376
 30
0.0
 11
-127.01009483
 21
-55.30541012
 31
0.0
  0
LINE
  5
33A
100
AcDbEntity
  8
SLD-0
  6
CONTINUOUS
 62
       3
100
AcDbLine
 10
-127.01009483
 20
-55.30541012
 30
0.0
 11
-126.99473462
 21
-55.32207604
 31
0.0
  0
LINE
  5
33B
100
AcDbEntity
  8
SLD-0
  6
CONTINUOUS
 62
       3
100
AcDbLine
 10
-126.99473462
 20
-55.32207604
 30
0.0
 11
-126.97907886
 21
-55.33831069
 31
0.0
  0
LINE
  5
33C
100
AcDbEntity
  8
SLD-0
  6
CONTINUOUS
 62
       3
100
AcDbLine
 10
-126.97907886
 20
-55.33831069
 30
0.0
 11
-126.96313937
 21
-55.35411324
 31
0.0
  0
LINE
  5
33D
100
AcDbEntity
  8
SLD-0
  6
CONTINUOUS
 62
       3
100
AcDbLine
 10
-126.96313937
 20
-55.35411324
 30
0.0
 11
-126.94693686
 21
-55.36947576
 31
0.0
  0
LINE
  5
33E
100
AcDbEntity
  8
SLD-0
  6
CONTINUOUS
 62
       3
100
AcDbLine
 10
-126.94693686
 20
-55.36947576
 30
0.0
 11
-126.93053419
 21
-55.3843575
 31
0.0
  0
LINE
  5
33F
100
AcDbEntity
  8
SLD-0
  6
CONTINUOUS
 62
       3
100
AcDbLine
 10
-126.93053419
 20
-55.3843575
 30
0.0
 11
-126.91394589
 21
-55.39875777
 31
0.0
  0
LINE
  5
340
100
AcDbEntity
  8
SLD-0
  6
CONTINUOUS
 62
       3
100
AcDbLine
 10
-126.91394589
 20
-55.39875777
 30
0.0
 11
-126.89717736
 21
-55.41268328
 31
0.0
  0
LINE
  5
341
100
AcDbEntity
  8
SLD-0
  6
CONTINUOUS
 62
       3
100
AcDbLine
 10
-126.89717736
 20
-55.41268328
 30
0.0
 11
-126.88023396
 21
-55.42614075
 31
0.0
  0
LINE
  5
342
100
AcDbEntity
  8
SLD-0
  6
CONTINUOUS
 62
       3
100
AcDbLine
 10
-126.88023396
 20
-55.42614075
 30
0.0
 11
-126.86312108
 21
-55.43913691
 31
0.0
  0
LINE
  5
343
100
AcDbEntity
  8
SLD-0
  6
CONTINUOUS
 62
       3
100
AcDbLine
 10
-126.86312108
 20
-55.43913691
 30
0.0
 11
-126.84584409
 21
-55.45167848
 31
0.0
  0
LINE
  5
344
100
AcDbEntity
  8
SLD-0
  6
CONTINUOUS
 62
       3
100
AcDbLine
 10
-126.84584409
 20
-55.45167848
 30
0.0
 11
-126.82840837
 21
-55.46377218
 31
0.0
  0
LINE
  5
345
100
AcDbEntity
  8
SLD-0
  6
CONTINUOUS
 62
       3
100
AcDbLine
 10
-126.82840837
 20
-55.46377218
 30
0.0
 11
-126.8108193
 21
-55.47542474
 31
0.0
  0
LINE
  5
346
100
AcDbEntity
  8
SLD-0
  6
CONTINUOUS
 62
       3
100
AcDbLine
 10
-126.8108193
 20
-55.47542474
 30
0.0
 11
-126.79308225
 21
-55.48664288
 31
0.0
  0
LINE
  5
347
100
AcDbEntity
  8
SLD-0
  6
CONTINUOUS
 62
       3
100
AcDbLine
 10
-126.79308225
 20
-55.48664288
 30
0.0
 11
-126.77520261
 21
-55.49743331
 31
0.0
  0
LINE
  5
348
100
AcDbEntity
  8
SLD-0
  6
CONTINUOUS
 62
       3
100
AcDbLine
 10
-126.77520261
 20
-55.49743331
 30
0.0
 11
-126.75718575
 21
-55.50780277
 31
0.0
  0
LINE
  5
349
100
AcDbEntity
  8
SLD-0
  6
CONTINUOUS
 62
       3
100
AcDbLine
 10
-126.75718575
 20
-55.50780277
 30
0.0
 11
-126.73903705
 21
-55.51775797
 31
0.0
  0
LINE
  5
34A
100
AcDbEntity
  8
SLD-0
  6
CONTINUOUS
 62
       3
100
AcDbLine
 10
-126.73903705
 20
-55.51775797
 30
0.0
 11
-126.72079961
 21
-55.52728641
 31
0.0
  0
LINE
  5
34B
100
AcDbEntity
  8
SLD-0
  6
CONTINUOUS
 62
       3
100
AcDbLine
 10
-126.72079961
 20
-55.52728641
 30
0.0
 11
-126.7025121
 21
-55.53637539
 31
0.0
  0
LINE
  5
34C
100
AcDbEntity
  8
SLD-0
  6
CONTINUOUS
 62
       3
100
AcDbLine
 10
-126.7025121
 20
-55.53637539
 30
0.0
 11
-126.68417317
 21
-55.54503136
 31
0.0
  0
LINE
  5
34D
100
AcDbEntity
  8
SLD-0
  6
CONTINUOUS
 62
       3
100
AcDbLine
 10
-126.68417317
 20
-55.54503136
 30
0.0
 11
-126.66578153
 21
-55.55326078
 31
0.0
  0
LINE
  5
34E
100
AcDbEntity
  8
SLD-0
  6
CONTINUOUS
 62
       3
100
AcDbLine
 10
-126.66578153
 20
-55.55326078
 30
0.0
 11
-126.64733585
 21
-55.56107009
 31
0.0
  0
LINE
  5
34F
100
AcDbEntity
  8
SLD-0
  6
CONTINUOUS
 62
       3
100
AcDbLine
 10
-126.64733585
 20
-55.56107009
 30
0.0
 11
-126.62883482
 21
-55.56846575
 31
0.0
  0
LINE
  5
350
100
AcDbEntity
  8
SLD-0
  6
CONTINUOUS
 62
       3
100
AcDbLine
 10
-126.62883482
 20
-55.56846575
 30
0.0
 11
-126.61027712
 21
-55.5754542
 31
0.0
  0
LINE
  5
351
100
AcDbEntity
  8
SLD-0
  6
CONTINUOUS
 62
       3
100
AcDbLine
 10
-126.61027712
 20
-55.5754542
 30
0.0
 11
-126.59166142
 21
-55.58204189
 31
0.0
  0
LINE
  5
352
100
AcDbEntity
  8
SLD-0
  6
CONTINUOUS
 62
       3
100
AcDbLine
 10
-126.59166142
 20
-55.58204189
 30
0.0
 11
-126.57298642
 21
-55.58823528
 31
0.0
  0
LINE
  5
353
100
AcDbEntity
  8
SLD-0
  6
CONTINUOUS
 62
       3
100
AcDbLine
 10
-126.57298642
 20
-55.58823528
 30
0.0
 11
-126.5542508
 21
-55.59404081
 31
0.0
  0
LINE
  5
354
100
AcDbEntity
  8
SLD-0
  6
CONTINUOUS
 62
       3
100
AcDbLine
 10
-126.5542508
 20
-55.59404081
 30
0.0
 11
-126.53545324
 21
-55.59946493
 31
0.0
  0
LINE
  5
355
100
AcDbEntity
  8
SLD-0
  6
CONTINUOUS
 62
       3
100
AcDbLine
 10
-126.53545324
 20
-55.59946493
 30
0.0
 11
-126.51659242
 21
-55.6045141
 31
0.0
  0
LINE
  5
356
100
AcDbEntity
  8
SLD-0
  6
CONTINUOUS
 62
       3
100
AcDbLine
 10
-126.51659242
 20
-55.6045141
 30
0.0
 11
-126.4976625
 21
-55.60919345
 31
0.0
  0
LINE
  5
357
100
AcDbEntity
  8
SLD-0
  6
CONTINUOUS
 62
       3
100
AcDbLine
 10
-126.4976625
 20
-55.60919345
 30
0.0
 11
-126.4786408
 21
-55.61349918
 31
0.0
  0
LINE
  5
358
100
AcDbEntity
  8
SLD-0
  6
CONTINUOUS
 62
       3
100
AcDbLine
 10
-126.4786408
 20
-55.61349918
 30
0.0
 11
-126.45953636
 21
-55.61743028
 31
0.0
  0
LINE
  5
359
100
AcDbEntity
  8
SLD-0
  6
CONTINUOUS
 62
       3
100
AcDbLine
 10
-126.45953636
 20
-55.61743028
 30
0.0
 11
-126.44036335
 21
-55.6209868
 31
0.0
  0
LINE
  5
35A
100
AcDbEntity
  8
SLD-0
  6
CONTINUOUS
 62
       3
100
AcDbLine
 10
-126.44036335
 20
-55.6209868
 30
0.0
 11
-126.42113596
 21
-55.62416877
 31
0.0
  0
LINE
  5
35B
100
AcDbEntity
  8
SLD-0
  6
CONTINUOUS
 62
       3
100
AcDbLine
 10
-126.42113596
 20
-55.62416877
 30
0.0
 11
-126.4018684
 21
-55.62697624
 31
0.0
  0
LINE
  5
35C
100
AcDbEntity
  8
SLD-0
  6
CONTINUOUS
 62
       3
100
AcDbLine
 10
-126.4018684
 20
-55.62697624
 30
0.0
 11
-126.38257484
 21
-55.62940925
 31
0.0
  0
LINE
  5
35D
100
AcDbEntity
  8
SLD-0
  6
CONTINUOUS
 62
       3
100
AcDbLine
 10
-126.38257484
 20
-55.62940925
 30
0.0
 11
-126.36326948
 21
-55.63146784
 31
0.0
  0
LINE
  5
35E
100
AcDbEntity
  8
SLD-0
  6
CONTINUOUS
 62
       3
100
AcDbLine
 10
-126.36326948
 20
-55.63146784
 30
0.0
 11
-126.34396651
 21
-55.63315204
 31
0.0
  0
LINE
  5
35F
100
AcDbEntity
  8
SLD-0
  6
CONTINUOUS
 62
       3
100
AcDbLine
 10
-126.34396651
 20
-55.63315204
 30
0.0
 11
-126.32468012
 21
-55.63446191
 31
0.0
  0
LINE
  5
360
100
AcDbEntity
  8
SLD-0
  6
CONTINUOUS
 62
       3
100
AcDbLine
 10
-126.32468012
 20
-55.63446191
 30
0.0
 11
-126.3054245
 21
-55.63539748
 31
0.0
  0
LINE
  5
361
100
AcDbEntity
  8
SLD-0
  6
CONTINUOUS
 62
       3
100
AcDbLine
 10
-126.3054245
 20
-55.63539748
 30
0.0
 11
-126.28621384
 21
-55.63595879
 31
0.0
  0
LINE
  5
362
100
AcDbEntity
  8
SLD-0
  6
CONTINUOUS
 62
       3
100
AcDbLine
 10
-126.28621384
 20
-55.63595879
 30
0.0
 11
-126.26706234
 21
-55.63614588
 31
0.0
  0
LINE
  5
363
100
AcDbEntity
  8
SLD-0
  6
CONTINUOUS
 62
       3
100
AcDbLine
 10
-107.60103693
 20
-55.13614588
 30
0.0
 11
-107.61320558
 21
-55.15665609
 31
0.0
  0
LINE
  5
364
100
AcDbEntity
  8
SLD-0
  6
CONTINUOUS
 62
       3
100
AcDbLine
 10
-107.61320558
 20
-55.15665609
 30
0.0
 11
-107.62577609
 21
-55.17674246
 31
0.0
  0
LINE
  5
365
100
AcDbEntity
  8
SLD-0
  6
CONTINUOUS
 62
       3
100
AcDbLine
 10
-107.62577609
 20
-55.17674246
 30
0.0
 11
-107.63873667
 21
-55.19640416
 31
0.0
  0
LINE
  5
366
100
AcDbEntity
  8
SLD-0
  6
CONTINUOUS
 62
       3
100
AcDbLine
 10
-107.63873667
 20
-55.19640416
 30
0.0
 11
-107.6520755
 21
-55.21564036
 31
0.0
  0
LINE
  5
367
100
AcDbEntity
  8
SLD-0
  6
CONTINUOUS
 62
       3
100
AcDbLine
 10
-107.6520755
 20
-55.21564036
 30
0.0
 11
-107.66578076
 21
-55.23445025
 31
0.0
  0
LINE
  5
368
100
AcDbEntity
  8
SLD-0
  6
CONTINUOUS
 62
       3
100
AcDbLine
 10
-107.66578076
 20
-55.23445025
 30
0.0
 11
-107.67984064
 21
-55.252833
 31
0.0
  0
LINE
  5
369
100
AcDbEntity
  8
SLD-0
  6
CONTINUOUS
 62
       3
100
AcDbLine
 10
-107.67984064
 20
-55.252833
 30
0.0
 11
-107.69424332
 21
-55.27078778
 31
0.0
  0
LINE
  5
36A
100
AcDbEntity
  8
SLD-0
  6
CONTINUOUS
 62
       3
100
AcDbLine
 10
-107.69424332
 20
-55.27078778
 30
0.0
 11
-107.70897699
 21
-55.28831376
 31
0.0
  0
LINE
  5
36B
100
AcDbEntity
  8
SLD-0
  6
CONTINUOUS
 62
       3
100
AcDbLine
 10
-107.70897699
 20
-55.28831376
 30
0.0
 11
-107.72402984
 21
-55.30541012
 31
0.0
  0
LINE
  5
36C
100
AcDbEntity
  8
SLD-0
  6
CONTINUOUS
 62
       3
100
AcDbLine
 10
-107.72402984
 20
-55.30541012
 30
0.0
 11
-107.73939005
 21
-55.32207604
 31
0.0
  0
LINE
  5
36D
100
AcDbEntity
  8
SLD-0
  6
CONTINUOUS
 62
       3
100
AcDbLine
 10
-107.73939005
 20
-55.32207604
 30
0.0
 11
-107.75504581
 21
-55.33831069
 31
0.0
  0
LINE
  5
36E
100
AcDbEntity
  8
SLD-0
  6
CONTINUOUS
 62
       3
100
AcDbLine
 10
-107.75504581
 20
-55.33831069
 30
0.0
 11
-107.7709853
 21
-55.35411324
 31
0.0
  0
LINE
  5
36F
100
AcDbEntity
  8
SLD-0
  6
CONTINUOUS
 62
       3
100
AcDbLine
 10
-107.7709853
 20
-55.35411324
 30
0.0
 11
-107.78718781
 21
-55.36947576
 31
0.0
  0
LINE
  5
370
100
AcDbEntity
  8
SLD-0
  6
CONTINUOUS
 62
       3
100
AcDbLine
 10
-107.78718781
 20
-55.36947576
 30
0.0
 11
-107.80359048
 21
-55.3843575
 31
0.0
  0
LINE
  5
371
100
AcDbEntity
  8
SLD-0
  6
CONTINUOUS
 62
       3
100
AcDbLine
 10
-107.80359048
 20
-55.3843575
 30
0.0
 11
-107.82017878
 21
-55.39875777
 31
0.0
  0
LINE
  5
372
100
AcDbEntity
  8
SLD-0
  6
CONTINUOUS
 62
       3
100
AcDbLine
 10
-107.82017878
 20
-55.39875777
 30
0.0
 11
-107.83694731
 21
-55.41268328
 31
0.0
  0
LINE
  5
373
100
AcDbEntity
  8
SLD-0
  6
CONTINUOUS
 62
       3
100
AcDbLine
 10
-107.83694731
 20
-55.41268328
 30
0.0
 11
-107.85389071
 21
-55.42614075
 31
0.0
  0
LINE
  5
374
100
AcDbEntity
  8
SLD-0
  6
CONTINUOUS
 62
       3
100
AcDbLine
 10
-107.85389071
 20
-55.42614075
 30
0.0
 11
-107.87100359
 21
-55.43913691
 31
0.0
  0
LINE
  5
375
100
AcDbEntity
  8
SLD-0
  6
CONTINUOUS
 62
       3
100
AcDbLine
 10
-107.87100359
 20
-55.43913691
 30
0.0
 11
-107.88828058
 21
-55.45167848
 31
0.0
  0
LINE
  5
376
100
AcDbEntity
  8
SLD-0
  6
CONTINUOUS
 62
       3
100
AcDbLine
 10
-107.88828058
 20
-55.45167848
 30
0.0
 11
-107.9057163
 21
-55.46377218
 31
0.0
  0
LINE
  5
377
100
AcDbEntity
  8
SLD-0
  6
CONTINUOUS
 62
       3
100
AcDbLine
 10
-107.9057163
 20
-55.46377218
 30
0.0
 11
-107.92330537
 21
-55.47542474
 31
0.0
  0
LINE
  5
378
100
AcDbEntity
  8
SLD-0
  6
CONTINUOUS
 62
       3
100
AcDbLine
 10
-107.92330537
 20
-55.47542474
 30
0.0
 11
-107.94104242
 21
-55.48664288
 31
0.0
  0
LINE
  5
379
100
AcDbEntity
  8
SLD-0
  6
CONTINUOUS
 62
       3
100
AcDbLine
 10
-107.94104242
 20
-55.48664288
 30
0.0
 11
-107.95892206
 21
-55.49743331
 31
0.0
  0
LINE
  5
37A
100
AcDbEntity
  8
SLD-0
  6
CONTINUOUS
 62
       3
100
AcDbLine
 10
-107.95892206
 20
-55.49743331
 30
0.0
 11
-107.97693892
 21
-55.50780277
 31
0.0
  0
LINE
  5
37B
100
AcDbEntity
  8
SLD-0
  6
CONTINUOUS
 62
       3
100
AcDbLine
 10
-107.97693892
 20
-55.50780277
 30
0.0
 11
-107.99508762
 21
-55.51775797
 31
0.0
  0
LINE
  5
37C
100
AcDbEntity
  8
SLD-0
  6
CONTINUOUS
 62
       3
100
AcDbLine
 10
-107.99508762
 20
-55.51775797
 30
0.0
 11
-108.01332506
 21
-55.52728641
 31
0.0
  0
LINE
  5
37D
100
AcDbEntity
  8
SLD-0
  6
CONTINUOUS
 62
       3
100
AcDbLine
 10
-108.01332506
 20
-55.52728641
 30
0.0
 11
-108.03161257
 21
-55.53637539
 31
0.0
  0
LINE
  5
37E
100
AcDbEntity
  8
SLD-0
  6
CONTINUOUS
 62
       3
100
AcDbLine
 10
-108.03161257
 20
-55.53637539
 30
0.0
 11
-108.0499515
 21
-55.54503136
 31
0.0
  0
LINE
  5
37F
100
AcDbEntity
  8
SLD-0
  6
CONTINUOUS
 62
       3
100
AcDbLine
 10
-108.0499515
 20
-55.54503136
 30
0.0
 11
-108.06834314
 21
-55.55326078
 31
0.0
  0
LINE
  5
380
100
AcDbEntity
  8
SLD-0
  6
CONTINUOUS
 62
       3
100
AcDbLine
 10
-108.06834314
 20
-55.55326078
 30
0.0
 11
-108.08678882
 21
-55.56107009
 31
0.0
  0
LINE
  5
381
100
AcDbEntity
  8
SLD-0
  6
CONTINUOUS
 62
       3
100
AcDbLine
 10
-108.08678882
 20
-55.56107009
 30
0.0
 11
-108.10528985
 21
-55.56846575
 31
0.0
  0
LINE
  5
382
100
AcDbEntity
  8
SLD-0
  6
CONTINUOUS
 62
       3
100
AcDbLine
 10
-108.10528985
 20
-55.56846575
 30
0.0
 11
-108.12384755
 21
-55.5754542
 31
0.0
  0
LINE
  5
383
100
AcDbEntity
  8
SLD-0
  6
CONTINUOUS
 62
       3
100
AcDbLine
 10
-108.12384755
 20
-55.5754542
 30
0.0
 11
-108.14246325
 21
-55.58204189
 31
0.0
  0
LINE
  5
384
100
AcDbEntity
  8
SLD-0
  6
CONTINUOUS
 62
       3
100
AcDbLine
 10
-108.14246325
 20
-55.58204189
 30
0.0
 11
-108.16113825
 21
-55.58823528
 31
0.0
  0
LINE
  5
385
100
AcDbEntity
  8
SLD-0
  6
CONTINUOUS
 62
       3
100
AcDbLine
 10
-108.16113825
 20
-55.58823528
 30
0.0
 11
-108.17987387
 21
-55.59404081
 31
0.0
  0
LINE
  5
386
100
AcDbEntity
  8
SLD-0
  6
CONTINUOUS
 62
       3
100
AcDbLine
 10
-108.17987387
 20
-55.59404081
 30
0.0
 11
-108.19867143
 21
-55.59946493
 31
0.0
  0
LINE
  5
387
100
AcDbEntity
  8
SLD-0
  6
CONTINUOUS
 62
       3
100
AcDbLine
 10
-108.19867143
 20
-55.59946493
 30
0.0
 11
-108.21753225
 21
-55.6045141
 31
0.0
  0
LINE
  5
388
100
AcDbEntity
  8
SLD-0
  6
CONTINUOUS
 62
       3
100
AcDbLine
 10
-108.21753225
 20
-55.6045141
 30
0.0
 11
-108.23646217
 21
-55.60919345
 31
0.0
  0
LINE
  5
389
100
AcDbEntity
  8
SLD-0
  6
CONTINUOUS
 62
       3
100
AcDbLine
 10
-108.23646217
 20
-55.60919345
 30
0.0
 11
-108.25548387
 21
-55.61349918
 31
0.0
  0
LINE
  5
38A
100
AcDbEntity
  8
SLD-0
  6
CONTINUOUS
 62
       3
100
AcDbLine
 10
-108.25548387
 20
-55.61349918
 30
0.0
 11
-108.27458831
 21
-55.61743028
 31
0.0
  0
LINE
  5
38B
100
AcDbEntity
  8
SLD-0
  6
CONTINUOUS
 62
       3
100
AcDbLine
 10
-108.27458831
 20
-55.61743028
 30
0.0
 11
-108.29376132
 21
-55.6209868
 31
0.0
  0
LINE
  5
38C
100
AcDbEntity
  8
SLD-0
  6
CONTINUOUS
 62
       3
100
AcDbLine
 10
-108.29376132
 20
-55.6209868
 30
0.0
 11
-108.31298871
 21
-55.62416877
 31
0.0
  0
LINE
  5
38D
100
AcDbEntity
  8
SLD-0
  6
CONTINUOUS
 62
       3
100
AcDbLine
 10
-108.31298871
 20
-55.62416877
 30
0.0
 11
-108.33225627
 21
-55.62697624
 31
0.0
  0
LINE
  5
38E
100
AcDbEntity
  8
SLD-0
  6
CONTINUOUS
 62
       3
100
AcDbLine
 10
-108.33225627
 20
-55.62697624
 30
0.0
 11
-108.35154983
 21
-55.62940925
 31
0.0
  0
LINE
  5
38F
100
AcDbEntity
  8
SLD-0
  6
CONTINUOUS
 62
       3
100
AcDbLine
 10
-108.35154983
 20
-55.62940925
 30
0.0
 11
-108.37085519
 21
-55.63146784
 31
0.0
  0
LINE
  5
390
100
AcDbEntity
  8
SLD-0
  6
CONTINUOUS
 62
       3
100
AcDbLine
 10
-108.37085519
 20
-55.63146784
 30
0.0
 11
-108.39015816
 21
-55.63315204
 31
0.0
  0
LINE
  5
391
100
AcDbEntity
  8
SLD-0
  6
CONTINUOUS
 62
       3
100
AcDbLine
 10
-108.39015816
 20
-55.63315204
 30
0.0
 11
-108.40944455
 21
-55.63446191
 31
0.0
  0
LINE
  5
392
100
AcDbEntity
  8
SLD-0
  6
CONTINUOUS
 62
       3
100
AcDbLine
 10
-108.40944455
 20
-55.63446191
 30
0.0
 11
-108.42870017
 21
-55.63539748
 31
0.0
  0
LINE
  5
393
100
AcDbEntity
  8
SLD-0
  6
CONTINUOUS
 62
       3
100
AcDbLine
 10
-108.42870017
 20
-55.63539748
 30
0.0
 11
-108.44791083
 21
-55.63595879
 31
0.0
  0
LINE
  5
394
100
AcDbEntity
  8
SLD-0
  6
CONTINUOUS
 62
       3
100
AcDbLine
 10
-108.44791083
 20
-55.63595879
 30
0.0
 11
-108.46706234
 21
-55.63614588
 31
0.0
  0
LINE
  5
395
100
AcDbEntity
  8
SLD-0
  6
CONTINUOUS
 62
       3
100
AcDbLine
 10
-48.06706234
 20
-56.80647519
 30
0.0
 11
-48.10037428
 21
-56.78406193
 31
0.0
  0
LINE
  5
396
100
AcDbEntity
  8
SLD-0
  6
CONTINUOUS
 62
       3
100
AcDbLine
 10
-48.10037428
 20
-56.78406193
 30
0.0
 11
-48.13310536
 21
-56.76108312
 31
0.0
  0
LINE
  5
397
100
AcDbEntity
  8
SLD-0
  6
CONTINUOUS
 62
       3
100
AcDbLine
 10
-48.13310536
 20
-56.76108312
 30
0.0
 11
-48.16525923
 21
-56.73754099
 31
0.0
  0
LINE
  5
398
100
AcDbEntity
  8
SLD-0
  6
CONTINUOUS
 62
       3
100
AcDbLine
 10
-48.16525923
 20
-56.73754099
 30
0.0
 11
-48.19683953
 21
-56.71343774
 31
0.0
  0
LINE
  5
399
100
AcDbEntity
  8
SLD-0
  6
CONTINUOUS
 62
       3
100
AcDbLine
 10
-48.19683953
 20
-56.71343774
 30
0.0
 11
-48.22784992
 21
-56.68877562
 31
0.0
  0
LINE
  5
39A
100
AcDbEntity
  8
SLD-0
  6
CONTINUOUS
 62
       3
100
AcDbLine
 10
-48.22784992
 20
-56.68877562
 30
0.0
 11
-48.25829405
 21
-56.66355683
 31
0.0
  0
LINE
  5
39B
100
AcDbEntity
  8
SLD-0
  6
CONTINUOUS
 62
       3
100
AcDbLine
 10
-48.25829405
 20
-56.66355683
 30
0.0
 11
-48.28817555
 21
-56.63778362
 31
0.0
  0
LINE
  5
39C
100
AcDbEntity
  8
SLD-0
  6
CONTINUOUS
 62
       3
100
AcDbLine
 10
-48.28817555
 20
-56.63778362
 30
0.0
 11
-48.31749809
 21
-56.61145819
 31
0.0
  0
LINE
  5
39D
100
AcDbEntity
  8
SLD-0
  6
CONTINUOUS
 62
       3
100
AcDbLine
 10
-48.31749809
 20
-56.61145819
 30
0.0
 11
-48.34626532
 21
-56.58458278
 31
0.0
  0
LINE
  5
39E
100
AcDbEntity
  8
SLD-0
  6
CONTINUOUS
 62
       3
100
AcDbLine
 10
-48.34626532
 20
-56.58458278
 30
0.0
 11
-48.37448087
 21
-56.5571596
 31
0.0
  0
LINE
  5
39F
100
AcDbEntity
  8
SLD-0
  6
CONTINUOUS
 62
       3
100
AcDbLine
 10
-48.37448087
 20
-56.5571596
 30
0.0
 11
-48.40214841
 21
-56.52919089
 31
0.0
  0
LINE
  5
3A0
100
AcDbEntity
  8
SLD-0
  6
CONTINUOUS
 62
       3
100
AcDbLine
 10
-48.40214841
 20
-56.52919089
 30
0.0
 11
-48.42927158
 21
-56.50067886
 31
0.0
  0
LINE
  5
3A1
100
AcDbEntity
  8
SLD-0
  6
CONTINUOUS
 62
       3
100
AcDbLine
 10
-48.42927158
 20
-56.50067886
 30
0.0
 11
-48.45585312
 21
-56.47162116
 31
0.0
  0
LINE
  5
3A2
100
AcDbEntity
  8
SLD-0
  6
CONTINUOUS
 62
       3
100
AcDbLine
 10
-48.45585312
 20
-56.47162116
 30
0.0
 11
-48.4818841
 21
-56.44200045
 31
0.0
  0
LINE
  5
3A3
100
AcDbEntity
  8
SLD-0
  6
CONTINUOUS
 62
       3
100
AcDbLine
 10
-48.4818841
 20
-56.44200045
 30
0.0
 11
-48.50734902
 21
-56.41183459
 31
0.0
  0
LINE
  5
3A4
100
AcDbEntity
  8
SLD-0
  6
CONTINUOUS
 62
       3
100
AcDbLine
 10
-48.50734902
 20
-56.41183459
 30
0.0
 11
-48.53223246
 21
-56.38114689
 31
0.0
  0
LINE
  5
3A5
100
AcDbEntity
  8
SLD-0
  6
CONTINUOUS
 62
       3
100
AcDbLine
 10
-48.53223246
 20
-56.38114689
 30
0.0
 11
-48.55651906
 21
-56.34996069
 31
0.0
  0
LINE
  5
3A6
100
AcDbEntity
  8
SLD-0
  6
CONTINUOUS
 62
       3
100
AcDbLine
 10
-48.55651906
 20
-56.34996069
 30
0.0
 11
-48.5801934
 21
-56.3182993
 31
0.0
  0
LINE
  5
3A7
100
AcDbEntity
  8
SLD-0
  6
CONTINUOUS
 62
       3
100
AcDbLine
 10
-48.5801934
 20
-56.3182993
 30
0.0
 11
-48.6032401
 21
-56.28618604
 31
0.0
  0
LINE
  5
3A8
100
AcDbEntity
  8
SLD-0
  6
CONTINUOUS
 62
       3
100
AcDbLine
 10
-48.6032401
 20
-56.28618604
 30
0.0
 11
-48.62564376
 21
-56.25364424
 31
0.0
  0
LINE
  5
3A9
100
AcDbEntity
  8
SLD-0
  6
CONTINUOUS
 62
       3
100
AcDbLine
 10
-48.62564376
 20
-56.25364424
 30
0.0
 11
-48.64738899
 21
-56.22069721
 31
0.0
  0
LINE
  5
3AA
100
AcDbEntity
  8
SLD-0
  6
CONTINUOUS
 62
       3
100
AcDbLine
 10
-48.64738899
 20
-56.22069721
 30
0.0
 11
-48.66846039
 21
-56.18736827
 31
0.0
  0
LINE
  5
3AB
100
AcDbEntity
  8
SLD-0
  6
CONTINUOUS
 62
       3
100
AcDbLine
 10
-48.66846039
 20
-56.18736827
 30
0.0
 11
-48.68884258
 21
-56.15368075
 31
0.0
  0
LINE
  5
3AC
100
AcDbEntity
  8
SLD-0
  6
CONTINUOUS
 62
       3
100
AcDbLine
 10
-48.68884258
 20
-56.15368075
 30
0.0
 11
-48.70852016
 21
-56.11965796
 31
0.0
  0
LINE
  5
3AD
100
AcDbEntity
  8
SLD-0
  6
CONTINUOUS
 62
       3
100
AcDbLine
 10
-48.70852016
 20
-56.11965796
 30
0.0
 11
-48.72747773
 21
-56.08532323
 31
0.0
  0
LINE
  5
3AE
100
AcDbEntity
  8
SLD-0
  6
CONTINUOUS
 62
       3
100
AcDbLine
 10
-48.72747773
 20
-56.08532323
 30
0.0
 11
-48.74574089
 21
-56.05063499
 31
0.0
  0
LINE
  5
3AF
100
AcDbEntity
  8
SLD-0
  6
CONTINUOUS
 62
       3
100
AcDbLine
 10
-48.74574089
 20
-56.05063499
 30
0.0
 11
-48.76333974
 21
-56.01554716
 31
0.0
  0
LINE
  5
3B0
100
AcDbEntity
  8
SLD-0
  6
CONTINUOUS
 62
       3
100
AcDbLine
 10
-48.76333974
 20
-56.01554716
 30
0.0
 11
-48.78026567
 21
-55.98007623
 31
0.0
  0
LINE
  5
3B1
100
AcDbEntity
  8
SLD-0
  6
CONTINUOUS
 62
       3
100
AcDbLine
 10
-48.78026567
 20
-55.98007623
 30
0.0
 11
-48.79651008
 21
-55.94423869
 31
0.0
  0
LINE
  5
3B2
100
AcDbEntity
  8
SLD-0
  6
CONTINUOUS
 62
       3
100
AcDbLine
 10
-48.79651008
 20
-55.94423869
 30
0.0
 11
-48.81206435
 21
-55.90805106
 31
0.0
  0
LINE
  5
3B3
100
AcDbEntity
  8
SLD-0
  6
CONTINUOUS
 62
       3
100
AcDbLine
 10
-48.81206435
 20
-55.90805106
 30
0.0
 11
-48.82691988
 21
-55.87152984
 31
0.0
  0
LINE
  5
3B4
100
AcDbEntity
  8
SLD-0
  6
CONTINUOUS
 62
       3
100
AcDbLine
 10
-48.82691988
 20
-55.87152984
 30
0.0
 11
-48.84106806
 21
-55.83469152
 31
0.0
  0
LINE
  5
3B5
100
AcDbEntity
  8
SLD-0
  6
CONTINUOUS
 62
       3
100
AcDbLine
 10
-48.84106806
 20
-55.83469152
 30
0.0
 11
-48.85450029
 21
-55.7975526
 31
0.0
  0
LINE
  5
3B6
100
AcDbEntity
  8
SLD-0
  6
CONTINUOUS
 62
       3
100
AcDbLine
 10
-48.85450029
 20
-55.7975526
 30
0.0
 11
-48.86720794
 21
-55.7601296
 31
0.0
  0
LINE
  5
3B7
100
AcDbEntity
  8
SLD-0
  6
CONTINUOUS
 62
       3
100
AcDbLine
 10
-48.86720794
 20
-55.7601296
 30
0.0
 11
-48.87918241
 21
-55.72243901
 31
0.0
  0
LINE
  5
3B8
100
AcDbEntity
  8
SLD-0
  6
CONTINUOUS
 62
       3
100
AcDbLine
 10
-48.87918241
 20
-55.72243901
 30
0.0
 11
-48.8904151
 21
-55.68449733
 31
0.0
  0
LINE
  5
3B9
100
AcDbEntity
  8
SLD-0
  6
CONTINUOUS
 62
       3
100
AcDbLine
 10
-48.8904151
 20
-55.68449733
 30
0.0
 11
-48.90089739
 21
-55.64632106
 31
0.0
  0
LINE
  5
3BA
100
AcDbEntity
  8
SLD-0
  6
CONTINUOUS
 62
       3
100
AcDbLine
 10
-48.90089739
 20
-55.64632106
 30
0.0
 11
-48.91062106
 21
-55.60793521
 31
0.0
  0
LINE
  5
3BB
100
AcDbEntity
  8
SLD-0
  6
CONTINUOUS
 62
       3
100
AcDbLine
 10
-48.91062106
 20
-55.60793521
 30
0.0
 11
-48.91958208
 21
-55.56940088
 31
0.0
  0
LINE
  5
3BC
100
AcDbEntity
  8
SLD-0
  6
CONTINUOUS
 62
       3
100
AcDbLine
 10
-48.91958208
 20
-55.56940088
 30
0.0
 11
-48.9277779
 21
-55.53072664
 31
0.0
  0
LINE
  5
3BD
100
AcDbEntity
  8
SLD-0
  6
CONTINUOUS
 62
       3
100
AcDbLine
 10
-48.9277779
 20
-55.53072664
 30
0.0
 11
-48.93520585
 21
-55.49191184
 31
0.0
  0
LINE
  5
3BE
100
AcDbEntity
  8
SLD-0
  6
CONTINUOUS
 62
       3
100
AcDbLine
 10
-48.93520585
 20
-55.49191184
 30
0.0
 11
-48.94186327
 21
-55.45295583
 31
0.0
  0
LINE
  5
3BF
100
AcDbEntity
  8
SLD-0
  6
CONTINUOUS
 62
       3
100
AcDbLine
 10
-48.94186327
 20
-55.45295583
 30
0.0
 11
-48.94774747
 21
-55.41385795
 31
0.0
  0
LINE
  5
3C0
100
AcDbEntity
  8
SLD-0
  6
CONTINUOUS
 62
       3
100
AcDbLine
 10
-48.94774747
 20
-55.41385795
 30
0.0
 11
-48.95285578
 21
-55.37461756
 31
0.0
  0
LINE
  5
3C1
100
AcDbEntity
  8
SLD-0
  6
CONTINUOUS
 62
       3
100
AcDbLine
 10
-48.95285578
 20
-55.37461756
 30
0.0
 11
-48.95718553
 21
-55.335234
 31
0.0
  0
LINE
  5
3C2
100
AcDbEntity
  8
SLD-0
  6
CONTINUOUS
 62
       3
100
AcDbLine
 10
-48.95718553
 20
-55.335234
 30
0.0
 11
-48.96073405
 21
-55.29570662
 31
0.0
  0
LINE
  5
3C3
100
AcDbEntity
  8
SLD-0
  6
CONTINUOUS
 62
       3
100
AcDbLine
 10
-48.96073405
 20
-55.29570662
 30
0.0
 11
-48.96349867
 21
-55.25603477
 31
0.0
  0
LINE
  5
3C4
100
AcDbEntity
  8
SLD-0
  6
CONTINUOUS
 62
       3
100
AcDbLine
 10
-48.96349867
 20
-55.25603477
 30
0.0
 11
-48.9654767
 21
-55.21621779
 31
0.0
  0
LINE
  5
3C5
100
AcDbEntity
  8
SLD-0
  6
CONTINUOUS
 62
       3
100
AcDbLine
 10
-48.9654767
 20
-55.21621779
 30
0.0
 11
-48.96666548
 21
-55.17625505
 31
0.0
  0
LINE
  5
3C6
100
AcDbEntity
  8
SLD-0
  6
CONTINUOUS
 62
       3
100
AcDbLine
 10
-48.96666548
 20
-55.17625505
 30
0.0
 11
-48.96706234
 21
-55.13614588
 31
0.0
  0
LINE
  5
3C7
100
AcDbEntity
  8
SLD-0
  6
CONTINUOUS
 62
       3
100
AcDbLine
 10
-71.13308774
 20
-55.13614588
 30
0.0
 11
-71.1209191
 21
-55.15665609
 31
0.0
  0
LINE
  5
3C8
100
AcDbEntity
  8
SLD-0
  6
CONTINUOUS
 62
       3
100
AcDbLine
 10
-71.1209191
 20
-55.15665609
 30
0.0
 11
-71.10834858
 21
-55.17674246
 31
0.0
  0
LINE
  5
3C9
100
AcDbEntity
  8
SLD-0
  6
CONTINUOUS
 62
       3
100
AcDbLine
 10
-71.10834858
 20
-55.17674246
 30
0.0
 11
-71.095388
 21
-55.19640416
 31
0.0
  0
LINE
  5
3CA
100
AcDbEntity
  8
SLD-0
  6
CONTINUOUS
 62
       3
100
AcDbLine
 10
-71.095388
 20
-55.19640416
 30
0.0
 11
-71.08204917
 21
-55.21564036
 31
0.0
  0
LINE
  5
3CB
100
AcDbEntity
  8
SLD-0
  6
CONTINUOUS
 62
       3
100
AcDbLine
 10
-71.08204917
 20
-55.21564036
 30
0.0
 11
-71.06834391
 21
-55.23445025
 31
0.0
  0
LINE
  5
3CC
100
AcDbEntity
  8
SLD-0
  6
CONTINUOUS
 62
       3
100
AcDbLine
 10
-71.06834391
 20
-55.23445025
 30
0.0
 11
-71.05428404
 21
-55.252833
 31
0.0
  0
LINE
  5
3CD
100
AcDbEntity
  8
SLD-0
  6
CONTINUOUS
 62
       3
100
AcDbLine
 10
-71.05428404
 20
-55.252833
 30
0.0
 11
-71.03988135
 21
-55.27078778
 31
0.0
  0
LINE
  5
3CE
100
AcDbEntity
  8
SLD-0
  6
CONTINUOUS
 62
       3
100
AcDbLine
 10
-71.03988135
 20
-55.27078778
 30
0.0
 11
-71.02514768
 21
-55.28831376
 31
0.0
  0
LINE
  5
3CF
100
AcDbEntity
  8
SLD-0
  6
CONTINUOUS
 62
       3
100
AcDbLine
 10
-71.02514768
 20
-55.28831376
 30
0.0
 11
-71.01009483
 21
-55.30541012
 31
0.0
  0
LINE
  5
3D0
100
AcDbEntity
  8
SLD-0
  6
CONTINUOUS
 62
       3
100
AcDbLine
 10
-71.01009483
 20
-55.30541012
 30
0.0
 11
-70.99473462
 21
-55.32207604
 31
0.0
  0
LINE
  5
3D1
100
AcDbEntity
  8
SLD-0
  6
CONTINUOUS
 62
       3
100
AcDbLine
 10
-70.99473462
 20
-55.32207604
 30
0.0
 11
-70.97907886
 21
-55.33831069
 31
0.0
  0
LINE
  5
3D2
100
AcDbEntity
  8
SLD-0
  6
CONTINUOUS
 62
       3
100
AcDbLine
 10
-70.97907886
 20
-55.33831069
 30
0.0
 11
-70.96313937
 21
-55.35411324
 31
0.0
  0
LINE
  5
3D3
100
AcDbEntity
  8
SLD-0
  6
CONTINUOUS
 62
       3
100
AcDbLine
 10
-70.96313937
 20
-55.35411324
 30
0.0
 11
-70.94693686
 21
-55.36947576
 31
0.0
  0
LINE
  5
3D4
100
AcDbEntity
  8
SLD-0
  6
CONTINUOUS
 62
       3
100
AcDbLine
 10
-70.94693686
 20
-55.36947576
 30
0.0
 11
-70.93053419
 21
-55.3843575
 31
0.0
  0
LINE
  5
3D5
100
AcDbEntity
  8
SLD-0
  6
CONTINUOUS
 62
       3
100
AcDbLine
 10
-70.93053419
 20
-55.3843575
 30
0.0
 11
-70.91394589
 21
-55.39875777
 31
0.0
  0
LINE
  5
3D6
100
AcDbEntity
  8
SLD-0
  6
CONTINUOUS
 62
       3
100
AcDbLine
 10
-70.91394589
 20
-55.39875777
 30
0.0
 11
-70.89717736
 21
-55.41268328
 31
0.0
  0
LINE
  5
3D7
100
AcDbEntity
  8
SLD-0
  6
CONTINUOUS
 62
       3
100
AcDbLine
 10
-70.89717736
 20
-55.41268328
 30
0.0
 11
-70.88023396
 21
-55.42614075
 31
0.0
  0
LINE
  5
3D8
100
AcDbEntity
  8
SLD-0
  6
CONTINUOUS
 62
       3
100
AcDbLine
 10
-70.88023396
 20
-55.42614075
 30
0.0
 11
-70.86312108
 21
-55.43913691
 31
0.0
  0
LINE
  5
3D9
100
AcDbEntity
  8
SLD-0
  6
CONTINUOUS
 62
       3
100
AcDbLine
 10
-70.86312108
 20
-55.43913691
 30
0.0
 11
-70.84584409
 21
-55.45167848
 31
0.0
  0
LINE
  5
3DA
100
AcDbEntity
  8
SLD-0
  6
CONTINUOUS
 62
       3
100
AcDbLine
 10
-70.84584409
 20
-55.45167848
 30
0.0
 11
-70.82840837
 21
-55.46377218
 31
0.0
  0
LINE
  5
3DB
100
AcDbEntity
  8
SLD-0
  6
CONTINUOUS
 62
       3
100
AcDbLine
 10
-70.82840837
 20
-55.46377218
 30
0.0
 11
-70.8108193
 21
-55.47542474
 31
0.0
  0
LINE
  5
3DC
100
AcDbEntity
  8
SLD-0
  6
CONTINUOUS
 62
       3
100
AcDbLine
 10
-70.8108193
 20
-55.47542474
 30
0.0
 11
-70.79308225
 21
-55.48664288
 31
0.0
  0
LINE
  5
3DD
100
AcDbEntity
  8
SLD-0
  6
CONTINUOUS
 62
       3
100
AcDbLine
 10
-70.79308225
 20
-55.48664288
 30
0.0
 11
-70.77520261
 21
-55.49743331
 31
0.0
  0
LINE
  5
3DE
100
AcDbEntity
  8
SLD-0
  6
CONTINUOUS
 62
       3
100
AcDbLine
 10
-70.77520261
 20
-55.49743331
 30
0.0
 11
-70.75718575
 21
-55.50780277
 31
0.0
  0
LINE
  5
3DF
100
AcDbEntity
  8
SLD-0
  6
CONTINUOUS
 62
       3
100
AcDbLine
 10
-70.75718575
 20
-55.50780277
 30
0.0
 11
-70.73903705
 21
-55.51775797
 31
0.0
  0
LINE
  5
3E0
100
AcDbEntity
  8
SLD-0
  6
CONTINUOUS
 62
       3
100
AcDbLine
 10
-70.73903705
 20
-55.51775797
 30
0.0
 11
-70.72079961
 21
-55.52728641
 31
0.0
  0
LINE
  5
3E1
100
AcDbEntity
  8
SLD-0
  6
CONTINUOUS
 62
       3
100
AcDbLine
 10
-70.72079961
 20
-55.52728641
 30
0.0
 11
-70.7025121
 21
-55.53637539
 31
0.0
  0
LINE
  5
3E2
100
AcDbEntity
  8
SLD-0
  6
CONTINUOUS
 62
       3
100
AcDbLine
 10
-70.7025121
 20
-55.53637539
 30
0.0
 11
-70.68417317
 21
-55.54503136
 31
0.0
  0
LINE
  5
3E3
100
AcDbEntity
  8
SLD-0
  6
CONTINUOUS
 62
       3
100
AcDbLine
 10
-70.68417317
 20
-55.54503136
 30
0.0
 11
-70.66578153
 21
-55.55326078
 31
0.0
  0
LINE
  5
3E4
100
AcDbEntity
  8
SLD-0
  6
CONTINUOUS
 62
       3
100
AcDbLine
 10
-70.66578153
 20
-55.55326078
 30
0.0
 11
-70.64733585
 21
-55.56107009
 31
0.0
  0
LINE
  5
3E5
100
AcDbEntity
  8
SLD-0
  6
CONTINUOUS
 62
       3
100
AcDbLine
 10
-70.64733585
 20
-55.56107009
 30
0.0
 11
-70.62883482
 21
-55.56846575
 31
0.0
  0
LINE
  5
3E6
100
AcDbEntity
  8
SLD-0
  6
CONTINUOUS
 62
       3
100
AcDbLine
 10
-70.62883482
 20
-55.56846575
 30
0.0
 11
-70.61027712
 21
-55.5754542
 31
0.0
  0
LINE
  5
3E7
100
AcDbEntity
  8
SLD-0
  6
CONTINUOUS
 62
       3
100
AcDbLine
 10
-70.61027712
 20
-55.5754542
 30
0.0
 11
-70.59166142
 21
-55.58204189
 31
0.0
  0
LINE
  5
3E8
100
AcDbEntity
  8
SLD-0
  6
CONTINUOUS
 62
       3
100
AcDbLine
 10
-70.59166142
 20
-55.58204189
 30
0.0
 11
-70.57298642
 21
-55.58823528
 31
0.0
  0
LINE
  5
3E9
100
AcDbEntity
  8
SLD-0
  6
CONTINUOUS
 62
       3
100
AcDbLine
 10
-70.57298642
 20
-55.58823528
 30
0.0
 11
-70.5542508
 21
-55.59404081
 31
0.0
  0
LINE
  5
3EA
100
AcDbEntity
  8
SLD-0
  6
CONTINUOUS
 62
       3
100
AcDbLine
 10
-70.5542508
 20
-55.59404081
 30
0.0
 11
-70.53545324
 21
-55.59946493
 31
0.0
  0
LINE
  5
3EB
100
AcDbEntity
  8
SLD-0
  6
CONTINUOUS
 62
       3
100
AcDbLine
 10
-70.53545324
 20
-55.59946493
 30
0.0
 11
-70.51659242
 21
-55.6045141
 31
0.0
  0
LINE
  5
3EC
100
AcDbEntity
  8
SLD-0
  6
CONTINUOUS
 62
       3
100
AcDbLine
 10
-70.51659242
 20
-55.6045141
 30
0.0
 11
-70.4976625
 21
-55.60919345
 31
0.0
  0
LINE
  5
3ED
100
AcDbEntity
  8
SLD-0
  6
CONTINUOUS
 62
       3
100
AcDbLine
 10
-70.4976625
 20
-55.60919345
 30
0.0
 11
-70.4786408
 21
-55.61349918
 31
0.0
  0
LINE
  5
3EE
100
AcDbEntity
  8
SLD-0
  6
CONTINUOUS
 62
       3
100
AcDbLine
 10
-70.4786408
 20
-55.61349918
 30
0.0
 11
-70.45953636
 21
-55.61743028
 31
0.0
  0
LINE
  5
3EF
100
AcDbEntity
  8
SLD-0
  6
CONTINUOUS
 62
       3
100
AcDbLine
 10
-70.45953636
 20
-55.61743028
 30
0.0
 11
-70.44036335
 21
-55.6209868
 31
0.0
  0
LINE
  5
3F0
100
AcDbEntity
  8
SLD-0
  6
CONTINUOUS
 62
       3
100
AcDbLine
 10
-70.44036335
 20
-55.6209868
 30
0.0
 11
-70.42113596
 21
-55.62416877
 31
0.0
  0
LINE
  5
3F1
100
AcDbEntity
  8
SLD-0
  6
CONTINUOUS
 62
       3
100
AcDbLine
 10
-70.42113596
 20
-55.62416877
 30
0.0
 11
-70.4018684
 21
-55.62697624
 31
0.0
  0
LINE
  5
3F2
100
AcDbEntity
  8
SLD-0
  6
CONTINUOUS
 62
       3
100
AcDbLine
 10
-70.4018684
 20
-55.62697624
 30
0.0
 11
-70.38257484
 21
-55.62940925
 31
0.0
  0
LINE
  5
3F3
100
AcDbEntity
  8
SLD-0
  6
CONTINUOUS
 62
       3
100
AcDbLine
 10
-70.38257484
 20
-55.62940925
 30
0.0
 11
-70.36326948
 21
-55.63146784
 31
0.0
  0
LINE
  5
3F4
100
AcDbEntity
  8
SLD-0
  6
CONTINUOUS
 62
       3
100
AcDbLine
 10
-70.36326948
 20
-55.63146784
 30
0.0
 11
-70.34396651
 21
-55.63315204
 31
0.0
  0
LINE
  5
3F5
100
AcDbEntity
  8
SLD-0
  6
CONTINUOUS
 62
       3
100
AcDbLine
 10
-70.34396651
 20
-55.63315204
 30
0.0
 11
-70.32468012
 21
-55.63446191
 31
0.0
  0
LINE
  5
3F6
100
AcDbEntity
  8
SLD-0
  6
CONTINUOUS
 62
       3
100
AcDbLine
 10
-70.32468012
 20
-55.63446191
 30
0.0
 11
-70.3054245
 21
-55.63539748
 31
0.0
  0
LINE
  5
3F7
100
AcDbEntity
  8
SLD-0
  6
CONTINUOUS
 62
       3
100
AcDbLine
 10
-70.3054245
 20
-55.63539748
 30
0.0
 11
-70.28621384
 21
-55.63595879
 31
0.0
  0
LINE
  5
3F8
100
AcDbEntity
  8
SLD-0
  6
CONTINUOUS
 62
       3
100
AcDbLine
 10
-70.28621384
 20
-55.63595879
 30
0.0
 11
-70.26706234
 21
-55.63614588
 31
0.0
  0
LINE
  5
3F9
100
AcDbEntity
  8
SLD-0
  6
CONTINUOUS
 62
       3
100
AcDbLine
 10
-103.33308774
 20
-55.13614588
 30
0.0
 11
-103.3209191
 21
-55.15665609
 31
0.0
  0
LINE
  5
3FA
100
AcDbEntity
  8
SLD-0
  6
CONTINUOUS
 62
       3
100
AcDbLine
 10
-103.3209191
 20
-55.15665609
 30
0.0
 11
-103.30834858
 21
-55.17674246
 31
0.0
  0
LINE
  5
3FB
100
AcDbEntity
  8
SLD-0
  6
CONTINUOUS
 62
       3
100
AcDbLine
 10
-103.30834858
 20
-55.17674246
 30
0.0
 11
-103.295388
 21
-55.19640416
 31
0.0
  0
LINE
  5
3FC
100
AcDbEntity
  8
SLD-0
  6
CONTINUOUS
 62
       3
100
AcDbLine
 10
-103.295388
 20
-55.19640416
 30
0.0
 11
-103.28204917
 21
-55.21564036
 31
0.0
  0
LINE
  5
3FD
100
AcDbEntity
  8
SLD-0
  6
CONTINUOUS
 62
       3
100
AcDbLine
 10
-103.28204917
 20
-55.21564036
 30
0.0
 11
-103.26834391
 21
-55.23445025
 31
0.0
  0
LINE
  5
3FE
100
AcDbEntity
  8
SLD-0
  6
CONTINUOUS
 62
       3
100
AcDbLine
 10
-103.26834391
 20
-55.23445025
 30
0.0
 11
-103.25428404
 21
-55.252833
 31
0.0
  0
LINE
  5
3FF
100
AcDbEntity
  8
SLD-0
  6
CONTINUOUS
 62
       3
100
AcDbLine
 10
-103.25428404
 20
-55.252833
 30
0.0
 11
-103.23988135
 21
-55.27078778
 31
0.0
  0
LINE
  5
400
100
AcDbEntity
  8
SLD-0
  6
CONTINUOUS
 62
       3
100
AcDbLine
 10
-103.23988135
 20
-55.27078778
 30
0.0
 11
-103.22514768
 21
-55.28831376
 31
0.0
  0
LINE
  5
401
100
AcDbEntity
  8
SLD-0
  6
CONTINUOUS
 62
       3
100
AcDbLine
 10
-103.22514768
 20
-55.28831376
 30
0.0
 11
-103.21009483
 21
-55.30541012
 31
0.0
  0
LINE
  5
402
100
AcDbEntity
  8
SLD-0
  6
CONTINUOUS
 62
       3
100
AcDbLine
 10
-103.21009483
 20
-55.30541012
 30
0.0
 11
-103.19473462
 21
-55.32207604
 31
0.0
  0
LINE
  5
403
100
AcDbEntity
  8
SLD-0
  6
CONTINUOUS
 62
       3
100
AcDbLine
 10
-103.19473462
 20
-55.32207604
 30
0.0
 11
-103.17907886
 21
-55.33831069
 31
0.0
  0
LINE
  5
404
100
AcDbEntity
  8
SLD-0
  6
CONTINUOUS
 62
       3
100
AcDbLine
 10
-103.17907886
 20
-55.33831069
 30
0.0
 11
-103.16313937
 21
-55.35411324
 31
0.0
  0
LINE
  5
405
100
AcDbEntity
  8
SLD-0
  6
CONTINUOUS
 62
       3
100
AcDbLine
 10
-103.16313937
 20
-55.35411324
 30
0.0
 11
-103.14693686
 21
-55.36947576
 31
0.0
  0
LINE
  5
406
100
AcDbEntity
  8
SLD-0
  6
CONTINUOUS
 62
       3
100
AcDbLine
 10
-103.14693686
 20
-55.36947576
 30
0.0
 11
-103.13053419
 21
-55.3843575
 31
0.0
  0
LINE
  5
407
100
AcDbEntity
  8
SLD-0
  6
CONTINUOUS
 62
       3
100
AcDbLine
 10
-103.13053419
 20
-55.3843575
 30
0.0
 11
-103.11394589
 21
-55.39875777
 31
0.0
  0
LINE
  5
408
100
AcDbEntity
  8
SLD-0
  6
CONTINUOUS
 62
       3
100
AcDbLine
 10
-103.11394589
 20
-55.39875777
 30
0.0
 11
-103.09717736
 21
-55.41268328
 31
0.0
  0
LINE
  5
409
100
AcDbEntity
  8
SLD-0
  6
CONTINUOUS
 62
       3
100
AcDbLine
 10
-103.09717736
 20
-55.41268328
 30
0.0
 11
-103.08023396
 21
-55.42614075
 31
0.0
  0
LINE
  5
40A
100
AcDbEntity
  8
SLD-0
  6
CONTINUOUS
 62
       3
100
AcDbLine
 10
-103.08023396
 20
-55.42614075
 30
0.0
 11
-103.06312108
 21
-55.43913691
 31
0.0
  0
LINE
  5
40B
100
AcDbEntity
  8
SLD-0
  6
CONTINUOUS
 62
       3
100
AcDbLine
 10
-103.06312108
 20
-55.43913691
 30
0.0
 11
-103.04584409
 21
-55.45167848
 31
0.0
  0
LINE
  5
40C
100
AcDbEntity
  8
SLD-0
  6
CONTINUOUS
 62
       3
100
AcDbLine
 10
-103.04584409
 20
-55.45167848
 30
0.0
 11
-103.02840837
 21
-55.46377218
 31
0.0
  0
LINE
  5
40D
100
AcDbEntity
  8
SLD-0
  6
CONTINUOUS
 62
       3
100
AcDbLine
 10
-103.02840837
 20
-55.46377218
 30
0.0
 11
-103.0108193
 21
-55.47542474
 31
0.0
  0
LINE
  5
40E
100
AcDbEntity
  8
SLD-0
  6
CONTINUOUS
 62
       3
100
AcDbLine
 10
-103.0108193
 20
-55.47542474
 30
0.0
 11
-102.99308225
 21
-55.48664288
 31
0.0
  0
LINE
  5
40F
100
AcDbEntity
  8
SLD-0
  6
CONTINUOUS
 62
       3
100
AcDbLine
 10
-102.99308225
 20
-55.48664288
 30
0.0
 11
-102.97520261
 21
-55.49743331
 31
0.0
  0
LINE
  5
410
100
AcDbEntity
  8
SLD-0
  6
CONTINUOUS
 62
       3
100
AcDbLine
 10
-102.97520261
 20
-55.49743331
 30
0.0
 11
-102.95718575
 21
-55.50780277
 31
0.0
  0
LINE
  5
411
100
AcDbEntity
  8
SLD-0
  6
CONTINUOUS
 62
       3
100
AcDbLine
 10
-102.95718575
 20
-55.50780277
 30
0.0
 11
-102.93903705
 21
-55.51775797
 31
0.0
  0
LINE
  5
412
100
AcDbEntity
  8
SLD-0
  6
CONTINUOUS
 62
       3
100
AcDbLine
 10
-102.93903705
 20
-55.51775797
 30
0.0
 11
-102.92079961
 21
-55.52728641
 31
0.0
  0
LINE
  5
413
100
AcDbEntity
  8
SLD-0
  6
CONTINUOUS
 62
       3
100
AcDbLine
 10
-102.92079961
 20
-55.52728641
 30
0.0
 11
-102.9025121
 21
-55.53637539
 31
0.0
  0
LINE
  5
414
100
AcDbEntity
  8
SLD-0
  6
CONTINUOUS
 62
       3
100
AcDbLine
 10
-102.9025121
 20
-55.53637539
 30
0.0
 11
-102.88417317
 21
-55.54503136
 31
0.0
  0
LINE
  5
415
100
AcDbEntity
  8
SLD-0
  6
CONTINUOUS
 62
       3
100
AcDbLine
 10
-102.88417317
 20
-55.54503136
 30
0.0
 11
-102.86578153
 21
-55.55326078
 31
0.0
  0
LINE
  5
416
100
AcDbEntity
  8
SLD-0
  6
CONTINUOUS
 62
       3
100
AcDbLine
 10
-102.86578153
 20
-55.55326078
 30
0.0
 11
-102.84733585
 21
-55.56107009
 31
0.0
  0
LINE
  5
417
100
AcDbEntity
  8
SLD-0
  6
CONTINUOUS
 62
       3
100
AcDbLine
 10
-102.84733585
 20
-55.56107009
 30
0.0
 11
-102.82883482
 21
-55.56846575
 31
0.0
  0
LINE
  5
418
100
AcDbEntity
  8
SLD-0
  6
CONTINUOUS
 62
       3
100
AcDbLine
 10
-102.82883482
 20
-55.56846575
 30
0.0
 11
-102.81027712
 21
-55.5754542
 31
0.0
  0
LINE
  5
419
100
AcDbEntity
  8
SLD-0
  6
CONTINUOUS
 62
       3
100
AcDbLine
 10
-102.81027712
 20
-55.5754542
 30
0.0
 11
-102.79166142
 21
-55.58204189
 31
0.0
  0
LINE
  5
41A
100
AcDbEntity
  8
SLD-0
  6
CONTINUOUS
 62
       3
100
AcDbLine
 10
-102.79166142
 20
-55.58204189
 30
0.0
 11
-102.77298642
 21
-55.58823528
 31
0.0
  0
LINE
  5
41B
100
AcDbEntity
  8
SLD-0
  6
CONTINUOUS
 62
       3
100
AcDbLine
 10
-102.77298642
 20
-55.58823528
 30
0.0
 11
-102.7542508
 21
-55.59404081
 31
0.0
  0
LINE
  5
41C
100
AcDbEntity
  8
SLD-0
  6
CONTINUOUS
 62
       3
100
AcDbLine
 10
-102.7542508
 20
-55.59404081
 30
0.0
 11
-102.73545324
 21
-55.59946493
 31
0.0
  0
LINE
  5
41D
100
AcDbEntity
  8
SLD-0
  6
CONTINUOUS
 62
       3
100
AcDbLine
 10
-102.73545324
 20
-55.59946493
 30
0.0
 11
-102.71659242
 21
-55.6045141
 31
0.0
  0
LINE
  5
41E
100
AcDbEntity
  8
SLD-0
  6
CONTINUOUS
 62
       3
100
AcDbLine
 10
-102.71659242
 20
-55.6045141
 30
0.0
 11
-102.6976625
 21
-55.60919345
 31
0.0
  0
LINE
  5
41F
100
AcDbEntity
  8
SLD-0
  6
CONTINUOUS
 62
       3
100
AcDbLine
 10
-102.6976625
 20
-55.60919345
 30
0.0
 11
-102.6786408
 21
-55.61349918
 31
0.0
  0
LINE
  5
420
100
AcDbEntity
  8
SLD-0
  6
CONTINUOUS
 62
       3
100
AcDbLine
 10
-102.6786408
 20
-55.61349918
 30
0.0
 11
-102.65953636
 21
-55.61743028
 31
0.0
  0
LINE
  5
421
100
AcDbEntity
  8
SLD-0
  6
CONTINUOUS
 62
       3
100
AcDbLine
 10
-102.65953636
 20
-55.61743028
 30
0.0
 11
-102.64036335
 21
-55.6209868
 31
0.0
  0
LINE
  5
422
100
AcDbEntity
  8
SLD-0
  6
CONTINUOUS
 62
       3
100
AcDbLine
 10
-102.64036335
 20
-55.6209868
 30
0.0
 11
-102.62113596
 21
-55.62416877
 31
0.0
  0
LINE
  5
423
100
AcDbEntity
  8
SLD-0
  6
CONTINUOUS
 62
       3
100
AcDbLine
 10
-102.62113596
 20
-55.62416877
 30
0.0
 11
-102.6018684
 21
-55.62697624
 31
0.0
  0
LINE
  5
424
100
AcDbEntity
  8
SLD-0
  6
CONTINUOUS
 62
       3
100
AcDbLine
 10
-102.6018684
 20
-55.62697624
 30
0.0
 11
-102.58257484
 21
-55.62940925
 31
0.0
  0
LINE
  5
425
100
AcDbEntity
  8
SLD-0
  6
CONTINUOUS
 62
       3
100
AcDbLine
 10
-102.58257484
 20
-55.62940925
 30
0.0
 11
-102.56326948
 21
-55.63146784
 31
0.0
  0
LINE
  5
426
100
AcDbEntity
  8
SLD-0
  6
CONTINUOUS
 62
       3
100
AcDbLine
 10
-102.56326948
 20
-55.63146784
 30
0.0
 11
-102.54396651
 21
-55.63315204
 31
0.0
  0
LINE
  5
427
100
AcDbEntity
  8
SLD-0
  6
CONTINUOUS
 62
       3
100
AcDbLine
 10
-102.54396651
 20
-55.63315204
 30
0.0
 11
-102.52468012
 21
-55.63446191
 31
0.0
  0
LINE
  5
428
100
AcDbEntity
  8
SLD-0
  6
CONTINUOUS
 62
       3
100
AcDbLine
 10
-102.52468012
 20
-55.63446191
 30
0.0
 11
-102.5054245
 21
-55.63539748
 31
0.0
  0
LINE
  5
429
100
AcDbEntity
  8
SLD-0
  6
CONTINUOUS
 62
       3
100
AcDbLine
 10
-102.5054245
 20
-55.63539748
 30
0.0
 11
-102.48621384
 21
-55.63595879
 31
0.0
  0
LINE
  5
42A
100
AcDbEntity
  8
SLD-0
  6
CONTINUOUS
 62
       3
100
AcDbLine
 10
-102.48621384
 20
-55.63595879
 30
0.0
 11
-102.46706234
 21
-55.63614588
 31
0.0
  0
LINE
  5
42B
100
AcDbEntity
  8
SLD-0
  6
CONTINUOUS
 62
       3
100
AcDbLine
 10
-49.96706234
 20
-55.13614588
 30
0.0
 11
-49.96745904
 21
-55.17624962
 31
0.0
  0
LINE
  5
42C
100
AcDbEntity
  8
SLD-0
  6
CONTINUOUS
 62
       3
100
AcDbLine
 10
-49.96745904
 20
-55.17624962
 30
0.0
 11
-49.9686467
 21
-55.21618957
 31
0.0
  0
LINE
  5
42D
100
AcDbEntity
  8
SLD-0
  6
CONTINUOUS
 62
       3
100
AcDbLine
 10
-49.9686467
 20
-55.21618957
 30
0.0
 11
-49.97062169
 21
-55.25596664
 31
0.0
  0
LINE
  5
42E
100
AcDbEntity
  8
SLD-0
  6
CONTINUOUS
 62
       3
100
AcDbLine
 10
-49.97062169
 20
-55.25596664
 30
0.0
 11
-49.97338035
 21
-55.29558175
 31
0.0
  0
LINE
  5
42F
100
AcDbEntity
  8
SLD-0
  6
CONTINUOUS
 62
       3
100
AcDbLine
 10
-49.97338035
 20
-55.29558175
 30
0.0
 11
-49.97691902
 21
-55.33503581
 31
0.0
  0
LINE
  5
430
100
AcDbEntity
  8
SLD-0
  6
CONTINUOUS
 62
       3
100
AcDbLine
 10
-49.97691902
 20
-55.33503581
 30
0.0
 11
-49.98123407
 21
-55.37432972
 31
0.0
  0
LINE
  5
431
100
AcDbEntity
  8
SLD-0
  6
CONTINUOUS
 62
       3
100
AcDbLine
 10
-49.98123407
 20
-55.37432972
 30
0.0
 11
-49.98632185
 21
-55.41346441
 31
0.0
  0
LINE
  5
432
100
AcDbEntity
  8
SLD-0
  6
CONTINUOUS
 62
       3
100
AcDbLine
 10
-49.98632185
 20
-55.41346441
 30
0.0
 11
-49.9921787
 21
-55.45244078
 31
0.0
  0
LINE
  5
433
100
AcDbEntity
  8
SLD-0
  6
CONTINUOUS
 62
       3
100
AcDbLine
 10
-49.9921787
 20
-55.45244078
 30
0.0
 11
-49.99880098
 21
-55.49125975
 31
0.0
  0
LINE
  5
434
100
AcDbEntity
  8
SLD-0
  6
CONTINUOUS
 62
       3
100
AcDbLine
 10
-49.99880098
 20
-55.49125975
 30
0.0
 11
-50.00618503
 21
-55.52992222
 31
0.0
  0
LINE
  5
435
100
AcDbEntity
  8
SLD-0
  6
CONTINUOUS
 62
       3
100
AcDbLine
 10
-50.00618503
 20
-55.52992222
 30
0.0
 11
-50.01432721
 21
-55.56842912
 31
0.0
  0
LINE
  5
436
100
AcDbEntity
  8
SLD-0
  6
CONTINUOUS
 62
       3
100
AcDbLine
 10
-50.01432721
 20
-55.56842912
 30
0.0
 11
-50.02322387
 21
-55.60678135
 31
0.0
  0
LINE
  5
437
100
AcDbEntity
  8
SLD-0
  6
CONTINUOUS
 62
       3
100
AcDbLine
 10
-50.02322387
 20
-55.60678135
 30
0.0
 11
-50.03287566
 21
-55.64498173
 31
0.0
  0
LINE
  5
438
100
AcDbEntity
  8
SLD-0
  6
CONTINUOUS
 62
       3
100
AcDbLine
 10
-50.03287566
 20
-55.64498173
 30
0.0
 11
-50.04330183
 21
-55.68303253
 31
0.0
  0
LINE
  5
439
100
AcDbEntity
  8
SLD-0
  6
CONTINUOUS
 62
       3
100
AcDbLine
 10
-50.04330183
 20
-55.68303253
 30
0.0
 11
-50.05449573
 21
-55.7209107
 31
0.0
  0
LINE
  5
43A
100
AcDbEntity
  8
SLD-0
  6
CONTINUOUS
 62
       3
100
AcDbLine
 10
-50.05449573
 20
-55.7209107
 30
0.0
 11
-50.06644609
 21
-55.75859013
 31
0.0
  0
LINE
  5
43B
100
AcDbEntity
  8
SLD-0
  6
CONTINUOUS
 62
       3
100
AcDbLine
 10
-50.06644609
 20
-55.75859013
 30
0.0
 11
-50.07914164
 21
-55.79604475
 31
0.0
  0
LINE
  5
43C
100
AcDbEntity
  8
SLD-0
  6
CONTINUOUS
 62
       3
100
AcDbLine
 10
-50.07914164
 20
-55.79604475
 30
0.0
 11
-50.0925711
 21
-55.83324847
 31
0.0
  0
LINE
  5
43D
100
AcDbEntity
  8
SLD-0
  6
CONTINUOUS
 62
       3
100
AcDbLine
 10
-50.0925711
 20
-55.83324847
 30
0.0
 11
-50.10672321
 21
-55.87017519
 31
0.0
  0
LINE
  5
43E
100
AcDbEntity
  8
SLD-0
  6
CONTINUOUS
 62
       3
100
AcDbLine
 10
-50.10672321
 20
-55.87017519
 30
0.0
 11
-50.12158671
 21
-55.90679882
 31
0.0
  0
LINE
  5
43F
100
AcDbEntity
  8
SLD-0
  6
CONTINUOUS
 62
       3
100
AcDbLine
 10
-50.12158671
 20
-55.90679882
 30
0.0
 11
-50.13715031
 21
-55.94309327
 31
0.0
  0
LINE
  5
440
100
AcDbEntity
  8
SLD-0
  6
CONTINUOUS
 62
       3
100
AcDbLine
 10
-50.13715031
 20
-55.94309327
 30
0.0
 11
-50.15340276
 21
-55.97903246
 31
0.0
  0
LINE
  5
441
100
AcDbEntity
  8
SLD-0
  6
CONTINUOUS
 62
       3
100
AcDbLine
 10
-50.15340276
 20
-55.97903246
 30
0.0
 11
-50.17033277
 21
-56.0145903
 31
0.0
  0
LINE
  5
442
100
AcDbEntity
  8
SLD-0
  6
CONTINUOUS
 62
       3
100
AcDbLine
 10
-50.17033277
 20
-56.0145903
 30
0.0
 11
-50.1879291
 21
-56.04974068
 31
0.0
  0
LINE
  5
443
100
AcDbEntity
  8
SLD-0
  6
CONTINUOUS
 62
       3
100
AcDbLine
 10
-50.1879291
 20
-56.04974068
 30
0.0
 11
-50.20618045
 21
-56.08445753
 31
0.0
  0
LINE
  5
444
100
AcDbEntity
  8
SLD-0
  6
CONTINUOUS
 62
       3
100
AcDbLine
 10
-50.20618045
 20
-56.08445753
 30
0.0
 11
-50.22510655
 21
-56.11878468
 31
0.0
  0
LINE
  5
445
100
AcDbEntity
  8
SLD-0
  6
CONTINUOUS
 62
       3
100
AcDbLine
 10
-50.22510655
 20
-56.11878468
 30
0.0
 11
-50.24472884
 21
-56.1527729
 31
0.0
  0
LINE
  5
446
100
AcDbEntity
  8
SLD-0
  6
CONTINUOUS
 62
       3
100
AcDbLine
 10
-50.24472884
 20
-56.1527729
 30
0.0
 11
-50.26503863
 21
-56.18640657
 31
0.0
  0
LINE
  5
447
100
AcDbEntity
  8
SLD-0
  6
CONTINUOUS
 62
       3
100
AcDbLine
 10
-50.26503863
 20
-56.18640657
 30
0.0
 11
-50.28602721
 21
-56.21967002
 31
0.0
  0
LINE
  5
448
100
AcDbEntity
  8
SLD-0
  6
CONTINUOUS
 62
       3
100
AcDbLine
 10
-50.28602721
 20
-56.21967002
 30
0.0
 11
-50.3076859
 21
-56.25254761
 31
0.0
  0
LINE
  5
449
100
AcDbEntity
  8
SLD-0
  6
CONTINUOUS
 62
       3
100
AcDbLine
 10
-50.3076859
 20
-56.25254761
 30
0.0
 11
-50.33000601
 21
-56.28502369
 31
0.0
  0
LINE
  5
44A
100
AcDbEntity
  8
SLD-0
  6
CONTINUOUS
 62
       3
100
AcDbLine
 10
-50.33000601
 20
-56.28502369
 30
0.0
 11
-50.35297885
 21
-56.31708262
 31
0.0
  0
LINE
  5
44B
100
AcDbEntity
  8
SLD-0
  6
CONTINUOUS
 62
       3
100
AcDbLine
 10
-50.35297885
 20
-56.31708262
 30
0.0
 11
-50.37659571
 21
-56.34870874
 31
0.0
  0
LINE
  5
44C
100
AcDbEntity
  8
SLD-0
  6
CONTINUOUS
 62
       3
100
AcDbLine
 10
-50.37659571
 20
-56.34870874
 30
0.0
 11
-50.40084792
 21
-56.3798864
 31
0.0
  0
LINE
  5
44D
100
AcDbEntity
  8
SLD-0
  6
CONTINUOUS
 62
       3
100
AcDbLine
 10
-50.40084792
 20
-56.3798864
 30
0.0
 11
-50.42572677
 21
-56.41059996
 31
0.0
  0
LINE
  5
44E
100
AcDbEntity
  8
SLD-0
  6
CONTINUOUS
 62
       3
100
AcDbLine
 10
-50.42572677
 20
-56.41059996
 30
0.0
 11
-50.45122357
 21
-56.44083377
 31
0.0
  0
LINE
  5
44F
100
AcDbEntity
  8
SLD-0
  6
CONTINUOUS
 62
       3
100
AcDbLine
 10
-50.45122357
 20
-56.44083377
 30
0.0
 11
-50.47732964
 21
-56.47057218
 31
0.0
  0
LINE
  5
450
100
AcDbEntity
  8
SLD-0
  6
CONTINUOUS
 62
       3
100
AcDbLine
 10
-50.47732964
 20
-56.47057218
 30
0.0
 11
-50.50402869
 21
-56.49979491
 31
0.0
  0
LINE
  5
451
100
AcDbEntity
  8
SLD-0
  6
CONTINUOUS
 62
       3
100
AcDbLine
 10
-50.50402869
 20
-56.49979491
 30
0.0
 11
-50.5312708
 21
-56.52846373
 31
0.0
  0
LINE
  5
452
100
AcDbEntity
  8
SLD-0
  6
CONTINUOUS
 62
       3
100
AcDbLine
 10
-50.5312708
 20
-56.52846373
 30
0.0
 11
-50.55905076
 21
-56.55657189
 31
0.0
  0
LINE
  5
453
100
AcDbEntity
  8
SLD-0
  6
CONTINUOUS
 62
       3
100
AcDbLine
 10
-50.55905076
 20
-56.55657189
 30
0.0
 11
-50.58737143
 21
-56.58411782
 31
0.0
  0
LINE
  5
454
100
AcDbEntity
  8
SLD-0
  6
CONTINUOUS
 62
       3
100
AcDbLine
 10
-50.58737143
 20
-56.58411782
 30
0.0
 11
-50.61623569
 21
-56.61109997
 31
0.0
  0
LINE
  5
455
100
AcDbEntity
  8
SLD-0
  6
CONTINUOUS
 62
       3
100
AcDbLine
 10
-50.61623569
 20
-56.61109997
 30
0.0
 11
-50.6456464
 21
-56.6375168
 31
0.0
  0
LINE
  5
456
100
AcDbEntity
  8
SLD-0
  6
CONTINUOUS
 62
       3
100
AcDbLine
 10
-50.6456464
 20
-56.6375168
 30
0.0
 11
-50.67560641
 21
-56.66336676
 31
0.0
  0
LINE
  5
457
100
AcDbEntity
  8
SLD-0
  6
CONTINUOUS
 62
       3
100
AcDbLine
 10
-50.67560641
 20
-56.66336676
 30
0.0
 11
-50.70611859
 21
-56.68864828
 31
0.0
  0
LINE
  5
458
100
AcDbEntity
  8
SLD-0
  6
CONTINUOUS
 62
       3
100
AcDbLine
 10
-50.70611859
 20
-56.68864828
 30
0.0
 11
-50.73718581
 21
-56.71335983
 31
0.0
  0
LINE
  5
459
100
AcDbEntity
  8
SLD-0
  6
CONTINUOUS
 62
       3
100
AcDbLine
 10
-50.73718581
 20
-56.71335983
 30
0.0
 11
-50.76881093
 21
-56.73749984
 31
0.0
  0
LINE
  5
45A
100
AcDbEntity
  8
SLD-0
  6
CONTINUOUS
 62
       3
100
AcDbLine
 10
-50.76881093
 20
-56.73749984
 30
0.0
 11
-50.80099682
 21
-56.76106677
 31
0.0
  0
LINE
  5
45B
100
AcDbEntity
  8
SLD-0
  6
CONTINUOUS
 62
       3
100
AcDbLine
 10
-50.80099682
 20
-56.76106677
 30
0.0
 11
-50.83374633
 21
-56.78405907
 31
0.0
  0
LINE
  5
45C
100
AcDbEntity
  8
SLD-0
  6
CONTINUOUS
 62
       3
100
AcDbLine
 10
-50.83374633
 20
-56.78405907
 30
0.0
 11
-50.86706234
 21
-56.80647519
 31
0.0
  0
LINE
  5
45D
100
AcDbEntity
  8
SLD-0
  6
CONTINUOUS
 62
       3
100
AcDbLine
 10
-51.60103693
 20
-55.13614588
 30
0.0
 11
-51.61320558
 21
-55.15665609
 31
0.0
  0
LINE
  5
45E
100
AcDbEntity
  8
SLD-0
  6
CONTINUOUS
 62
       3
100
AcDbLine
 10
-51.61320558
 20
-55.15665609
 30
0.0
 11
-51.62577609
 21
-55.17674246
 31
0.0
  0
LINE
  5
45F
100
AcDbEntity
  8
SLD-0
  6
CONTINUOUS
 62
       3
100
AcDbLine
 10
-51.62577609
 20
-55.17674246
 30
0.0
 11
-51.63873667
 21
-55.19640416
 31
0.0
  0
LINE
  5
460
100
AcDbEntity
  8
SLD-0
  6
CONTINUOUS
 62
       3
100
AcDbLine
 10
-51.63873667
 20
-55.19640416
 30
0.0
 11
-51.6520755
 21
-55.21564036
 31
0.0
  0
LINE
  5
461
100
AcDbEntity
  8
SLD-0
  6
CONTINUOUS
 62
       3
100
AcDbLine
 10
-51.6520755
 20
-55.21564036
 30
0.0
 11
-51.66578076
 21
-55.23445025
 31
0.0
  0
LINE
  5
462
100
AcDbEntity
  8
SLD-0
  6
CONTINUOUS
 62
       3
100
AcDbLine
 10
-51.66578076
 20
-55.23445025
 30
0.0
 11
-51.67984064
 21
-55.252833
 31
0.0
  0
LINE
  5
463
100
AcDbEntity
  8
SLD-0
  6
CONTINUOUS
 62
       3
100
AcDbLine
 10
-51.67984064
 20
-55.252833
 30
0.0
 11
-51.69424332
 21
-55.27078778
 31
0.0
  0
LINE
  5
464
100
AcDbEntity
  8
SLD-0
  6
CONTINUOUS
 62
       3
100
AcDbLine
 10
-51.69424332
 20
-55.27078778
 30
0.0
 11
-51.70897699
 21
-55.28831376
 31
0.0
  0
LINE
  5
465
100
AcDbEntity
  8
SLD-0
  6
CONTINUOUS
 62
       3
100
AcDbLine
 10
-51.70897699
 20
-55.28831376
 30
0.0
 11
-51.72402984
 21
-55.30541012
 31
0.0
  0
LINE
  5
466
100
AcDbEntity
  8
SLD-0
  6
CONTINUOUS
 62
       3
100
AcDbLine
 10
-51.72402984
 20
-55.30541012
 30
0.0
 11
-51.73939005
 21
-55.32207604
 31
0.0
  0
LINE
  5
467
100
AcDbEntity
  8
SLD-0
  6
CONTINUOUS
 62
       3
100
AcDbLine
 10
-51.73939005
 20
-55.32207604
 30
0.0
 11
-51.75504581
 21
-55.33831069
 31
0.0
  0
LINE
  5
468
100
AcDbEntity
  8
SLD-0
  6
CONTINUOUS
 62
       3
100
AcDbLine
 10
-51.75504581
 20
-55.33831069
 30
0.0
 11
-51.7709853
 21
-55.35411324
 31
0.0
  0
LINE
  5
469
100
AcDbEntity
  8
SLD-0
  6
CONTINUOUS
 62
       3
100
AcDbLine
 10
-51.7709853
 20
-55.35411324
 30
0.0
 11
-51.78718781
 21
-55.36947576
 31
0.0
  0
LINE
  5
46A
100
AcDbEntity
  8
SLD-0
  6
CONTINUOUS
 62
       3
100
AcDbLine
 10
-51.78718781
 20
-55.36947576
 30
0.0
 11
-51.80359048
 21
-55.3843575
 31
0.0
  0
LINE
  5
46B
100
AcDbEntity
  8
SLD-0
  6
CONTINUOUS
 62
       3
100
AcDbLine
 10
-51.80359048
 20
-55.3843575
 30
0.0
 11
-51.82017878
 21
-55.39875777
 31
0.0
  0
LINE
  5
46C
100
AcDbEntity
  8
SLD-0
  6
CONTINUOUS
 62
       3
100
AcDbLine
 10
-51.82017878
 20
-55.39875777
 30
0.0
 11
-51.83694731
 21
-55.41268328
 31
0.0
  0
LINE
  5
46D
100
AcDbEntity
  8
SLD-0
  6
CONTINUOUS
 62
       3
100
AcDbLine
 10
-51.83694731
 20
-55.41268328
 30
0.0
 11
-51.85389071
 21
-55.42614075
 31
0.0
  0
LINE
  5
46E
100
AcDbEntity
  8
SLD-0
  6
CONTINUOUS
 62
       3
100
AcDbLine
 10
-51.85389071
 20
-55.42614075
 30
0.0
 11
-51.87100359
 21
-55.43913691
 31
0.0
  0
LINE
  5
46F
100
AcDbEntity
  8
SLD-0
  6
CONTINUOUS
 62
       3
100
AcDbLine
 10
-51.87100359
 20
-55.43913691
 30
0.0
 11
-51.88828058
 21
-55.45167848
 31
0.0
  0
LINE
  5
470
100
AcDbEntity
  8
SLD-0
  6
CONTINUOUS
 62
       3
100
AcDbLine
 10
-51.88828058
 20
-55.45167848
 30
0.0
 11
-51.9057163
 21
-55.46377218
 31
0.0
  0
LINE
  5
471
100
AcDbEntity
  8
SLD-0
  6
CONTINUOUS
 62
       3
100
AcDbLine
 10
-51.9057163
 20
-55.46377218
 30
0.0
 11
-51.92330537
 21
-55.47542474
 31
0.0
  0
LINE
  5
472
100
AcDbEntity
  8
SLD-0
  6
CONTINUOUS
 62
       3
100
AcDbLine
 10
-51.92330537
 20
-55.47542474
 30
0.0
 11
-51.94104242
 21
-55.48664288
 31
0.0
  0
LINE
  5
473
100
AcDbEntity
  8
SLD-0
  6
CONTINUOUS
 62
       3
100
AcDbLine
 10
-51.94104242
 20
-55.48664288
 30
0.0
 11
-51.95892206
 21
-55.49743331
 31
0.0
  0
LINE
  5
474
100
AcDbEntity
  8
SLD-0
  6
CONTINUOUS
 62
       3
100
AcDbLine
 10
-51.95892206
 20
-55.49743331
 30
0.0
 11
-51.97693892
 21
-55.50780277
 31
0.0
  0
LINE
  5
475
100
AcDbEntity
  8
SLD-0
  6
CONTINUOUS
 62
       3
100
AcDbLine
 10
-51.97693892
 20
-55.50780277
 30
0.0
 11
-51.99508762
 21
-55.51775797
 31
0.0
  0
LINE
  5
476
100
AcDbEntity
  8
SLD-0
  6
CONTINUOUS
 62
       3
100
AcDbLine
 10
-51.99508762
 20
-55.51775797
 30
0.0
 11
-52.01332506
 21
-55.52728641
 31
0.0
  0
LINE
  5
477
100
AcDbEntity
  8
SLD-0
  6
CONTINUOUS
 62
       3
100
AcDbLine
 10
-52.01332506
 20
-55.52728641
 30
0.0
 11
-52.03161257
 21
-55.53637539
 31
0.0
  0
LINE
  5
478
100
AcDbEntity
  8
SLD-0
  6
CONTINUOUS
 62
       3
100
AcDbLine
 10
-52.03161257
 20
-55.53637539
 30
0.0
 11
-52.0499515
 21
-55.54503136
 31
0.0
  0
LINE
  5
479
100
AcDbEntity
  8
SLD-0
  6
CONTINUOUS
 62
       3
100
AcDbLine
 10
-52.0499515
 20
-55.54503136
 30
0.0
 11
-52.06834314
 21
-55.55326078
 31
0.0
  0
LINE
  5
47A
100
AcDbEntity
  8
SLD-0
  6
CONTINUOUS
 62
       3
100
AcDbLine
 10
-52.06834314
 20
-55.55326078
 30
0.0
 11
-52.08678882
 21
-55.56107009
 31
0.0
  0
LINE
  5
47B
100
AcDbEntity
  8
SLD-0
  6
CONTINUOUS
 62
       3
100
AcDbLine
 10
-52.08678882
 20
-55.56107009
 30
0.0
 11
-52.10528985
 21
-55.56846575
 31
0.0
  0
LINE
  5
47C
100
AcDbEntity
  8
SLD-0
  6
CONTINUOUS
 62
       3
100
AcDbLine
 10
-52.10528985
 20
-55.56846575
 30
0.0
 11
-52.12384755
 21
-55.5754542
 31
0.0
  0
LINE
  5
47D
100
AcDbEntity
  8
SLD-0
  6
CONTINUOUS
 62
       3
100
AcDbLine
 10
-52.12384755
 20
-55.5754542
 30
0.0
 11
-52.14246325
 21
-55.58204189
 31
0.0
  0
LINE
  5
47E
100
AcDbEntity
  8
SLD-0
  6
CONTINUOUS
 62
       3
100
AcDbLine
 10
-52.14246325
 20
-55.58204189
 30
0.0
 11
-52.16113825
 21
-55.58823528
 31
0.0
  0
LINE
  5
47F
100
AcDbEntity
  8
SLD-0
  6
CONTINUOUS
 62
       3
100
AcDbLine
 10
-52.16113825
 20
-55.58823528
 30
0.0
 11
-52.17987387
 21
-55.59404081
 31
0.0
  0
LINE
  5
480
100
AcDbEntity
  8
SLD-0
  6
CONTINUOUS
 62
       3
100
AcDbLine
 10
-52.17987387
 20
-55.59404081
 30
0.0
 11
-52.19867143
 21
-55.59946493
 31
0.0
  0
LINE
  5
481
100
AcDbEntity
  8
SLD-0
  6
CONTINUOUS
 62
       3
100
AcDbLine
 10
-52.19867143
 20
-55.59946493
 30
0.0
 11
-52.21753225
 21
-55.6045141
 31
0.0
  0
LINE
  5
482
100
AcDbEntity
  8
SLD-0
  6
CONTINUOUS
 62
       3
100
AcDbLine
 10
-52.21753225
 20
-55.6045141
 30
0.0
 11
-52.23646217
 21
-55.60919345
 31
0.0
  0
LINE
  5
483
100
AcDbEntity
  8
SLD-0
  6
CONTINUOUS
 62
       3
100
AcDbLine
 10
-52.23646217
 20
-55.60919345
 30
0.0
 11
-52.25548387
 21
-55.61349918
 31
0.0
  0
LINE
  5
484
100
AcDbEntity
  8
SLD-0
  6
CONTINUOUS
 62
       3
100
AcDbLine
 10
-52.25548387
 20
-55.61349918
 30
0.0
 11
-52.27458831
 21
-55.61743028
 31
0.0
  0
LINE
  5
485
100
AcDbEntity
  8
SLD-0
  6
CONTINUOUS
 62
       3
100
AcDbLine
 10
-52.27458831
 20
-55.61743028
 30
0.0
 11
-52.29376132
 21
-55.6209868
 31
0.0
  0
LINE
  5
486
100
AcDbEntity
  8
SLD-0
  6
CONTINUOUS
 62
       3
100
AcDbLine
 10
-52.29376132
 20
-55.6209868
 30
0.0
 11
-52.31298871
 21
-55.62416877
 31
0.0
  0
LINE
  5
487
100
AcDbEntity
  8
SLD-0
  6
CONTINUOUS
 62
       3
100
AcDbLine
 10
-52.31298871
 20
-55.62416877
 30
0.0
 11
-52.33225627
 21
-55.62697624
 31
0.0
  0
LINE
  5
488
100
AcDbEntity
  8
SLD-0
  6
CONTINUOUS
 62
       3
100
AcDbLine
 10
-52.33225627
 20
-55.62697624
 30
0.0
 11
-52.35154983
 21
-55.62940925
 31
0.0
  0
LINE
  5
489
100
AcDbEntity
  8
SLD-0
  6
CONTINUOUS
 62
       3
100
AcDbLine
 10
-52.35154983
 20
-55.62940925
 30
0.0
 11
-52.37085519
 21
-55.63146784
 31
0.0
  0
LINE
  5
48A
100
AcDbEntity
  8
SLD-0
  6
CONTINUOUS
 62
       3
100
AcDbLine
 10
-52.37085519
 20
-55.63146784
 30
0.0
 11
-52.39015816
 21
-55.63315204
 31
0.0
  0
LINE
  5
48B
100
AcDbEntity
  8
SLD-0
  6
CONTINUOUS
 62
       3
100
AcDbLine
 10
-52.39015816
 20
-55.63315204
 30
0.0
 11
-52.40944455
 21
-55.63446191
 31
0.0
  0
LINE
  5
48C
100
AcDbEntity
  8
SLD-0
  6
CONTINUOUS
 62
       3
100
AcDbLine
 10
-52.40944455
 20
-55.63446191
 30
0.0
 11
-52.42870017
 21
-55.63539748
 31
0.0
  0
LINE
  5
48D
100
AcDbEntity
  8
SLD-0
  6
CONTINUOUS
 62
       3
100
AcDbLine
 10
-52.42870017
 20
-55.63539748
 30
0.0
 11
-52.44791083
 21
-55.63595879
 31
0.0
  0
LINE
  5
48E
100
AcDbEntity
  8
SLD-0
  6
CONTINUOUS
 62
       3
100
AcDbLine
 10
-52.44791083
 20
-55.63595879
 30
0.0
 11
-52.46706234
 21
-55.63614588
 31
0.0
  0
LINE
  5
48F
100
AcDbEntity
  8
SLD-0
  6
CONTINUOUS
 62
       3
100
AcDbLine
 10
-47.33308774
 20
-55.13614588
 30
0.0
 11
-47.3209191
 21
-55.15665609
 31
0.0
  0
LINE
  5
490
100
AcDbEntity
  8
SLD-0
  6
CONTINUOUS
 62
       3
100
AcDbLine
 10
-47.3209191
 20
-55.15665609
 30
0.0
 11
-47.30834858
 21
-55.17674246
 31
0.0
  0
LINE
  5
491
100
AcDbEntity
  8
SLD-0
  6
CONTINUOUS
 62
       3
100
AcDbLine
 10
-47.30834858
 20
-55.17674246
 30
0.0
 11
-47.295388
 21
-55.19640416
 31
0.0
  0
LINE
  5
492
100
AcDbEntity
  8
SLD-0
  6
CONTINUOUS
 62
       3
100
AcDbLine
 10
-47.295388
 20
-55.19640416
 30
0.0
 11
-47.28204917
 21
-55.21564036
 31
0.0
  0
LINE
  5
493
100
AcDbEntity
  8
SLD-0
  6
CONTINUOUS
 62
       3
100
AcDbLine
 10
-47.28204917
 20
-55.21564036
 30
0.0
 11
-47.26834391
 21
-55.23445025
 31
0.0
  0
LINE
  5
494
100
AcDbEntity
  8
SLD-0
  6
CONTINUOUS
 62
       3
100
AcDbLine
 10
-47.26834391
 20
-55.23445025
 30
0.0
 11
-47.25428404
 21
-55.252833
 31
0.0
  0
LINE
  5
495
100
AcDbEntity
  8
SLD-0
  6
CONTINUOUS
 62
       3
100
AcDbLine
 10
-47.25428404
 20
-55.252833
 30
0.0
 11
-47.23988135
 21
-55.27078778
 31
0.0
  0
LINE
  5
496
100
AcDbEntity
  8
SLD-0
  6
CONTINUOUS
 62
       3
100
AcDbLine
 10
-47.23988135
 20
-55.27078778
 30
0.0
 11
-47.22514768
 21
-55.28831376
 31
0.0
  0
LINE
  5
497
100
AcDbEntity
  8
SLD-0
  6
CONTINUOUS
 62
       3
100
AcDbLine
 10
-47.22514768
 20
-55.28831376
 30
0.0
 11
-47.21009483
 21
-55.30541012
 31
0.0
  0
LINE
  5
498
100
AcDbEntity
  8
SLD-0
  6
CONTINUOUS
 62
       3
100
AcDbLine
 10
-47.21009483
 20
-55.30541012
 30
0.0
 11
-47.19473462
 21
-55.32207604
 31
0.0
  0
LINE
  5
499
100
AcDbEntity
  8
SLD-0
  6
CONTINUOUS
 62
       3
100
AcDbLine
 10
-47.19473462
 20
-55.32207604
 30
0.0
 11
-47.17907886
 21
-55.33831069
 31
0.0
  0
LINE
  5
49A
100
AcDbEntity
  8
SLD-0
  6
CONTINUOUS
 62
       3
100
AcDbLine
 10
-47.17907886
 20
-55.33831069
 30
0.0
 11
-47.16313937
 21
-55.35411324
 31
0.0
  0
LINE
  5
49B
100
AcDbEntity
  8
SLD-0
  6
CONTINUOUS
 62
       3
100
AcDbLine
 10
-47.16313937
 20
-55.35411324
 30
0.0
 11
-47.14693686
 21
-55.36947576
 31
0.0
  0
LINE
  5
49C
100
AcDbEntity
  8
SLD-0
  6
CONTINUOUS
 62
       3
100
AcDbLine
 10
-47.14693686
 20
-55.36947576
 30
0.0
 11
-47.13053419
 21
-55.3843575
 31
0.0
  0
LINE
  5
49D
100
AcDbEntity
  8
SLD-0
  6
CONTINUOUS
 62
       3
100
AcDbLine
 10
-47.13053419
 20
-55.3843575
 30
0.0
 11
-47.11394589
 21
-55.39875777
 31
0.0
  0
LINE
  5
49E
100
AcDbEntity
  8
SLD-0
  6
CONTINUOUS
 62
       3
100
AcDbLine
 10
-47.11394589
 20
-55.39875777
 30
0.0
 11
-47.09717736
 21
-55.41268328
 31
0.0
  0
LINE
  5
49F
100
AcDbEntity
  8
SLD-0
  6
CONTINUOUS
 62
       3
100
AcDbLine
 10
-47.09717736
 20
-55.41268328
 30
0.0
 11
-47.08023396
 21
-55.42614075
 31
0.0
  0
LINE
  5
4A0
100
AcDbEntity
  8
SLD-0
  6
CONTINUOUS
 62
       3
100
AcDbLine
 10
-47.08023396
 20
-55.42614075
 30
0.0
 11
-47.06312108
 21
-55.43913691
 31
0.0
  0
LINE
  5
4A1
100
AcDbEntity
  8
SLD-0
  6
CONTINUOUS
 62
       3
100
AcDbLine
 10
-47.06312108
 20
-55.43913691
 30
0.0
 11
-47.04584409
 21
-55.45167848
 31
0.0
  0
LINE
  5
4A2
100
AcDbEntity
  8
SLD-0
  6
CONTINUOUS
 62
       3
100
AcDbLine
 10
-47.04584409
 20
-55.45167848
 30
0.0
 11
-47.02840837
 21
-55.46377218
 31
0.0
  0
LINE
  5
4A3
100
AcDbEntity
  8
SLD-0
  6
CONTINUOUS
 62
       3
100
AcDbLine
 10
-47.02840837
 20
-55.46377218
 30
0.0
 11
-47.0108193
 21
-55.47542474
 31
0.0
  0
LINE
  5
4A4
100
AcDbEntity
  8
SLD-0
  6
CONTINUOUS
 62
       3
100
AcDbLine
 10
-47.0108193
 20
-55.47542474
 30
0.0
 11
-46.99308225
 21
-55.48664288
 31
0.0
  0
LINE
  5
4A5
100
AcDbEntity
  8
SLD-0
  6
CONTINUOUS
 62
       3
100
AcDbLine
 10
-46.99308225
 20
-55.48664288
 30
0.0
 11
-46.97520261
 21
-55.49743331
 31
0.0
  0
LINE
  5
4A6
100
AcDbEntity
  8
SLD-0
  6
CONTINUOUS
 62
       3
100
AcDbLine
 10
-46.97520261
 20
-55.49743331
 30
0.0
 11
-46.95718575
 21
-55.50780277
 31
0.0
  0
LINE
  5
4A7
100
AcDbEntity
  8
SLD-0
  6
CONTINUOUS
 62
       3
100
AcDbLine
 10
-46.95718575
 20
-55.50780277
 30
0.0
 11
-46.93903705
 21
-55.51775797
 31
0.0
  0
LINE
  5
4A8
100
AcDbEntity
  8
SLD-0
  6
CONTINUOUS
 62
       3
100
AcDbLine
 10
-46.93903705
 20
-55.51775797
 30
0.0
 11
-46.92079961
 21
-55.52728641
 31
0.0
  0
LINE
  5
4A9
100
AcDbEntity
  8
SLD-0
  6
CONTINUOUS
 62
       3
100
AcDbLine
 10
-46.92079961
 20
-55.52728641
 30
0.0
 11
-46.9025121
 21
-55.53637539
 31
0.0
  0
LINE
  5
4AA
100
AcDbEntity
  8
SLD-0
  6
CONTINUOUS
 62
       3
100
AcDbLine
 10
-46.9025121
 20
-55.53637539
 30
0.0
 11
-46.88417317
 21
-55.54503136
 31
0.0
  0
LINE
  5
4AB
100
AcDbEntity
  8
SLD-0
  6
CONTINUOUS
 62
       3
100
AcDbLine
 10
-46.88417317
 20
-55.54503136
 30
0.0
 11
-46.86578153
 21
-55.55326078
 31
0.0
  0
LINE
  5
4AC
100
AcDbEntity
  8
SLD-0
  6
CONTINUOUS
 62
       3
100
AcDbLine
 10
-46.86578153
 20
-55.55326078
 30
0.0
 11
-46.84733585
 21
-55.56107009
 31
0.0
  0
LINE
  5
4AD
100
AcDbEntity
  8
SLD-0
  6
CONTINUOUS
 62
       3
100
AcDbLine
 10
-46.84733585
 20
-55.56107009
 30
0.0
 11
-46.82883482
 21
-55.56846575
 31
0.0
  0
LINE
  5
4AE
100
AcDbEntity
  8
SLD-0
  6
CONTINUOUS
 62
       3
100
AcDbLine
 10
-46.82883482
 20
-55.56846575
 30
0.0
 11
-46.81027712
 21
-55.5754542
 31
0.0
  0
LINE
  5
4AF
100
AcDbEntity
  8
SLD-0
  6
CONTINUOUS
 62
       3
100
AcDbLine
 10
-46.81027712
 20
-55.5754542
 30
0.0
 11
-46.79166142
 21
-55.58204189
 31
0.0
  0
LINE
  5
4B0
100
AcDbEntity
  8
SLD-0
  6
CONTINUOUS
 62
       3
100
AcDbLine
 10
-46.79166142
 20
-55.58204189
 30
0.0
 11
-46.77298642
 21
-55.58823528
 31
0.0
  0
LINE
  5
4B1
100
AcDbEntity
  8
SLD-0
  6
CONTINUOUS
 62
       3
100
AcDbLine
 10
-46.77298642
 20
-55.58823528
 30
0.0
 11
-46.7542508
 21
-55.59404081
 31
0.0
  0
LINE
  5
4B2
100
AcDbEntity
  8
SLD-0
  6
CONTINUOUS
 62
       3
100
AcDbLine
 10
-46.7542508
 20
-55.59404081
 30
0.0
 11
-46.73545324
 21
-55.59946493
 31
0.0
  0
LINE
  5
4B3
100
AcDbEntity
  8
SLD-0
  6
CONTINUOUS
 62
       3
100
AcDbLine
 10
-46.73545324
 20
-55.59946493
 30
0.0
 11
-46.71659242
 21
-55.6045141
 31
0.0
  0
LINE
  5
4B4
100
AcDbEntity
  8
SLD-0
  6
CONTINUOUS
 62
       3
100
AcDbLine
 10
-46.71659242
 20
-55.6045141
 30
0.0
 11
-46.6976625
 21
-55.60919345
 31
0.0
  0
LINE
  5
4B5
100
AcDbEntity
  8
SLD-0
  6
CONTINUOUS
 62
       3
100
AcDbLine
 10
-46.6976625
 20
-55.60919345
 30
0.0
 11
-46.6786408
 21
-55.61349918
 31
0.0
  0
LINE
  5
4B6
100
AcDbEntity
  8
SLD-0
  6
CONTINUOUS
 62
       3
100
AcDbLine
 10
-46.6786408
 20
-55.61349918
 30
0.0
 11
-46.65953636
 21
-55.61743028
 31
0.0
  0
LINE
  5
4B7
100
AcDbEntity
  8
SLD-0
  6
CONTINUOUS
 62
       3
100
AcDbLine
 10
-46.65953636
 20
-55.61743028
 30
0.0
 11
-46.64036335
 21
-55.6209868
 31
0.0
  0
LINE
  5
4B8
100
AcDbEntity
  8
SLD-0
  6
CONTINUOUS
 62
       3
100
AcDbLine
 10
-46.64036335
 20
-55.6209868
 30
0.0
 11
-46.62113596
 21
-55.62416877
 31
0.0
  0
LINE
  5
4B9
100
AcDbEntity
  8
SLD-0
  6
CONTINUOUS
 62
       3
100
AcDbLine
 10
-46.62113596
 20
-55.62416877
 30
0.0
 11
-46.6018684
 21
-55.62697624
 31
0.0
  0
LINE
  5
4BA
100
AcDbEntity
  8
SLD-0
  6
CONTINUOUS
 62
       3
100
AcDbLine
 10
-46.6018684
 20
-55.62697624
 30
0.0
 11
-46.58257484
 21
-55.62940925
 31
0.0
  0
LINE
  5
4BB
100
AcDbEntity
  8
SLD-0
  6
CONTINUOUS
 62
       3
100
AcDbLine
 10
-46.58257484
 20
-55.62940925
 30
0.0
 11
-46.56326948
 21
-55.63146784
 31
0.0
  0
LINE
  5
4BC
100
AcDbEntity
  8
SLD-0
  6
CONTINUOUS
 62
       3
100
AcDbLine
 10
-46.56326948
 20
-55.63146784
 30
0.0
 11
-46.54396651
 21
-55.63315204
 31
0.0
  0
LINE
  5
4BD
100
AcDbEntity
  8
SLD-0
  6
CONTINUOUS
 62
       3
100
AcDbLine
 10
-46.54396651
 20
-55.63315204
 30
0.0
 11
-46.52468012
 21
-55.63446191
 31
0.0
  0
LINE
  5
4BE
100
AcDbEntity
  8
SLD-0
  6
CONTINUOUS
 62
       3
100
AcDbLine
 10
-46.52468012
 20
-55.63446191
 30
0.0
 11
-46.5054245
 21
-55.63539748
 31
0.0
  0
LINE
  5
4BF
100
AcDbEntity
  8
SLD-0
  6
CONTINUOUS
 62
       3
100
AcDbLine
 10
-46.5054245
 20
-55.63539748
 30
0.0
 11
-46.48621384
 21
-55.63595879
 31
0.0
  0
LINE
  5
4C0
100
AcDbEntity
  8
SLD-0
  6
CONTINUOUS
 62
       3
100
AcDbLine
 10
-46.48621384
 20
-55.63595879
 30
0.0
 11
-46.46706234
 21
-55.63614588
 31
0.0
  0
CIRCLE
  5
4C1
100
AcDbEntity
  8
SLD-0
  6
CONTINUOUS
 62
       3
100
AcDbCircle
 10
-126.96706234
 20
-69.63614588
 30
0.0
 40
2.8
  0
LINE
  5
4C2
100
AcDbEntity
  8
SLD-0
  6
CONTINUOUS
 62
       3
100
AcDbLine
 10
-128.94696132
 20
-67.6562469
 30
0.0
 11
-124.98716335
 21
-71.61604487
 31
0.0
  0
LINE
  5
4C3
100
AcDbEntity
  8
SLD-0
  6
CONTINUOUS
 62
       3
100
AcDbLine
 10
-27.80103693
 20
-55.13614588
 30
0.0
 11
-27.81320558
 21
-55.15665609
 31
0.0
  0
LINE
  5
4C4
100
AcDbEntity
  8
SLD-0
  6
CONTINUOUS
 62
       3
100
AcDbLine
 10
-27.81320558
 20
-55.15665609
 30
0.0
 11
-27.82577609
 21
-55.17674246
 31
0.0
  0
LINE
  5
4C5
100
AcDbEntity
  8
SLD-0
  6
CONTINUOUS
 62
       3
100
AcDbLine
 10
-27.82577609
 20
-55.17674246
 30
0.0
 11
-27.83873667
 21
-55.19640416
 31
0.0
  0
LINE
  5
4C6
100
AcDbEntity
  8
SLD-0
  6
CONTINUOUS
 62
       3
100
AcDbLine
 10
-27.83873667
 20
-55.19640416
 30
0.0
 11
-27.8520755
 21
-55.21564036
 31
0.0
  0
LINE
  5
4C7
100
AcDbEntity
  8
SLD-0
  6
CONTINUOUS
 62
       3
100
AcDbLine
 10
-27.8520755
 20
-55.21564036
 30
0.0
 11
-27.86578076
 21
-55.23445025
 31
0.0
  0
LINE
  5
4C8
100
AcDbEntity
  8
SLD-0
  6
CONTINUOUS
 62
       3
100
AcDbLine
 10
-27.86578076
 20
-55.23445025
 30
0.0
 11
-27.87984064
 21
-55.252833
 31
0.0
  0
LINE
  5
4C9
100
AcDbEntity
  8
SLD-0
  6
CONTINUOUS
 62
       3
100
AcDbLine
 10
-27.87984064
 20
-55.252833
 30
0.0
 11
-27.89424332
 21
-55.27078778
 31
0.0
  0
LINE
  5
4CA
100
AcDbEntity
  8
SLD-0
  6
CONTINUOUS
 62
       3
100
AcDbLine
 10
-27.89424332
 20
-55.27078778
 30
0.0
 11
-27.90897699
 21
-55.28831376
 31
0.0
  0
LINE
  5
4CB
100
AcDbEntity
  8
SLD-0
  6
CONTINUOUS
 62
       3
100
AcDbLine
 10
-27.90897699
 20
-55.28831376
 30
0.0
 11
-27.92402984
 21
-55.30541012
 31
0.0
  0
LINE
  5
4CC
100
AcDbEntity
  8
SLD-0
  6
CONTINUOUS
 62
       3
100
AcDbLine
 10
-27.92402984
 20
-55.30541012
 30
0.0
 11
-27.93939005
 21
-55.32207604
 31
0.0
  0
LINE
  5
4CD
100
AcDbEntity
  8
SLD-0
  6
CONTINUOUS
 62
       3
100
AcDbLine
 10
-27.93939005
 20
-55.32207604
 30
0.0
 11
-27.95504581
 21
-55.33831069
 31
0.0
  0
LINE
  5
4CE
100
AcDbEntity
  8
SLD-0
  6
CONTINUOUS
 62
       3
100
AcDbLine
 10
-27.95504581
 20
-55.33831069
 30
0.0
 11
-27.9709853
 21
-55.35411324
 31
0.0
  0
LINE
  5
4CF
100
AcDbEntity
  8
SLD-0
  6
CONTINUOUS
 62
       3
100
AcDbLine
 10
-27.9709853
 20
-55.35411324
 30
0.0
 11
-27.98718781
 21
-55.36947576
 31
0.0
  0
LINE
  5
4D0
100
AcDbEntity
  8
SLD-0
  6
CONTINUOUS
 62
       3
100
AcDbLine
 10
-27.98718781
 20
-55.36947576
 30
0.0
 11
-28.00359048
 21
-55.3843575
 31
0.0
  0
LINE
  5
4D1
100
AcDbEntity
  8
SLD-0
  6
CONTINUOUS
 62
       3
100
AcDbLine
 10
-28.00359048
 20
-55.3843575
 30
0.0
 11
-28.02017878
 21
-55.39875777
 31
0.0
  0
LINE
  5
4D2
100
AcDbEntity
  8
SLD-0
  6
CONTINUOUS
 62
       3
100
AcDbLine
 10
-28.02017878
 20
-55.39875777
 30
0.0
 11
-28.03694731
 21
-55.41268328
 31
0.0
  0
LINE
  5
4D3
100
AcDbEntity
  8
SLD-0
  6
CONTINUOUS
 62
       3
100
AcDbLine
 10
-28.03694731
 20
-55.41268328
 30
0.0
 11
-28.05389071
 21
-55.42614075
 31
0.0
  0
LINE
  5
4D4
100
AcDbEntity
  8
SLD-0
  6
CONTINUOUS
 62
       3
100
AcDbLine
 10
-28.05389071
 20
-55.42614075
 30
0.0
 11
-28.07100359
 21
-55.43913691
 31
0.0
  0
LINE
  5
4D5
100
AcDbEntity
  8
SLD-0
  6
CONTINUOUS
 62
       3
100
AcDbLine
 10
-28.07100359
 20
-55.43913691
 30
0.0
 11
-28.08828058
 21
-55.45167848
 31
0.0
  0
LINE
  5
4D6
100
AcDbEntity
  8
SLD-0
  6
CONTINUOUS
 62
       3
100
AcDbLine
 10
-28.08828058
 20
-55.45167848
 30
0.0
 11
-28.1057163
 21
-55.46377218
 31
0.0
  0
LINE
  5
4D7
100
AcDbEntity
  8
SLD-0
  6
CONTINUOUS
 62
       3
100
AcDbLine
 10
-28.1057163
 20
-55.46377218
 30
0.0
 11
-28.12330537
 21
-55.47542474
 31
0.0
  0
LINE
  5
4D8
100
AcDbEntity
  8
SLD-0
  6
CONTINUOUS
 62
       3
100
AcDbLine
 10
-28.12330537
 20
-55.47542474
 30
0.0
 11
-28.14104242
 21
-55.48664288
 31
0.0
  0
LINE
  5
4D9
100
AcDbEntity
  8
SLD-0
  6
CONTINUOUS
 62
       3
100
AcDbLine
 10
-28.14104242
 20
-55.48664288
 30
0.0
 11
-28.15892206
 21
-55.49743331
 31
0.0
  0
LINE
  5
4DA
100
AcDbEntity
  8
SLD-0
  6
CONTINUOUS
 62
       3
100
AcDbLine
 10
-28.15892206
 20
-55.49743331
 30
0.0
 11
-28.17693892
 21
-55.50780277
 31
0.0
  0
LINE
  5
4DB
100
AcDbEntity
  8
SLD-0
  6
CONTINUOUS
 62
       3
100
AcDbLine
 10
-28.17693892
 20
-55.50780277
 30
0.0
 11
-28.19508762
 21
-55.51775797
 31
0.0
  0
LINE
  5
4DC
100
AcDbEntity
  8
SLD-0
  6
CONTINUOUS
 62
       3
100
AcDbLine
 10
-28.19508762
 20
-55.51775797
 30
0.0
 11
-28.21332506
 21
-55.52728641
 31
0.0
  0
LINE
  5
4DD
100
AcDbEntity
  8
SLD-0
  6
CONTINUOUS
 62
       3
100
AcDbLine
 10
-28.21332506
 20
-55.52728641
 30
0.0
 11
-28.23161257
 21
-55.53637539
 31
0.0
  0
LINE
  5
4DE
100
AcDbEntity
  8
SLD-0
  6
CONTINUOUS
 62
       3
100
AcDbLine
 10
-28.23161257
 20
-55.53637539
 30
0.0
 11
-28.2499515
 21
-55.54503136
 31
0.0
  0
LINE
  5
4DF
100
AcDbEntity
  8
SLD-0
  6
CONTINUOUS
 62
       3
100
AcDbLine
 10
-28.2499515
 20
-55.54503136
 30
0.0
 11
-28.26834314
 21
-55.55326078
 31
0.0
  0
LINE
  5
4E0
100
AcDbEntity
  8
SLD-0
  6
CONTINUOUS
 62
       3
100
AcDbLine
 10
-28.26834314
 20
-55.55326078
 30
0.0
 11
-28.28678882
 21
-55.56107009
 31
0.0
  0
LINE
  5
4E1
100
AcDbEntity
  8
SLD-0
  6
CONTINUOUS
 62
       3
100
AcDbLine
 10
-28.28678882
 20
-55.56107009
 30
0.0
 11
-28.30528985
 21
-55.56846575
 31
0.0
  0
LINE
  5
4E2
100
AcDbEntity
  8
SLD-0
  6
CONTINUOUS
 62
       3
100
AcDbLine
 10
-28.30528985
 20
-55.56846575
 30
0.0
 11
-28.32384755
 21
-55.5754542
 31
0.0
  0
LINE
  5
4E3
100
AcDbEntity
  8
SLD-0
  6
CONTINUOUS
 62
       3
100
AcDbLine
 10
-28.32384755
 20
-55.5754542
 30
0.0
 11
-28.34246325
 21
-55.58204189
 31
0.0
  0
LINE
  5
4E4
100
AcDbEntity
  8
SLD-0
  6
CONTINUOUS
 62
       3
100
AcDbLine
 10
-28.34246325
 20
-55.58204189
 30
0.0
 11
-28.36113825
 21
-55.58823528
 31
0.0
  0
LINE
  5
4E5
100
AcDbEntity
  8
SLD-0
  6
CONTINUOUS
 62
       3
100
AcDbLine
 10
-28.36113825
 20
-55.58823528
 30
0.0
 11
-28.37987387
 21
-55.59404081
 31
0.0
  0
LINE
  5
4E6
100
AcDbEntity
  8
SLD-0
  6
CONTINUOUS
 62
       3
100
AcDbLine
 10
-28.37987387
 20
-55.59404081
 30
0.0
 11
-28.39867143
 21
-55.59946493
 31
0.0
  0
LINE
  5
4E7
100
AcDbEntity
  8
SLD-0
  6
CONTINUOUS
 62
       3
100
AcDbLine
 10
-28.39867143
 20
-55.59946493
 30
0.0
 11
-28.41753225
 21
-55.6045141
 31
0.0
  0
LINE
  5
4E8
100
AcDbEntity
  8
SLD-0
  6
CONTINUOUS
 62
       3
100
AcDbLine
 10
-28.41753225
 20
-55.6045141
 30
0.0
 11
-28.43646217
 21
-55.60919345
 31
0.0
  0
LINE
  5
4E9
100
AcDbEntity
  8
SLD-0
  6
CONTINUOUS
 62
       3
100
AcDbLine
 10
-28.43646217
 20
-55.60919345
 30
0.0
 11
-28.45548387
 21
-55.61349918
 31
0.0
  0
LINE
  5
4EA
100
AcDbEntity
  8
SLD-0
  6
CONTINUOUS
 62
       3
100
AcDbLine
 10
-28.45548387
 20
-55.61349918
 30
0.0
 11
-28.47458831
 21
-55.61743028
 31
0.0
  0
LINE
  5
4EB
100
AcDbEntity
  8
SLD-0
  6
CONTINUOUS
 62
       3
100
AcDbLine
 10
-28.47458831
 20
-55.61743028
 30
0.0
 11
-28.49376132
 21
-55.6209868
 31
0.0
  0
LINE
  5
4EC
100
AcDbEntity
  8
SLD-0
  6
CONTINUOUS
 62
       3
100
AcDbLine
 10
-28.49376132
 20
-55.6209868
 30
0.0
 11
-28.51298871
 21
-55.62416877
 31
0.0
  0
LINE
  5
4ED
100
AcDbEntity
  8
SLD-0
  6
CONTINUOUS
 62
       3
100
AcDbLine
 10
-28.51298871
 20
-55.62416877
 30
0.0
 11
-28.53225627
 21
-55.62697624
 31
0.0
  0
LINE
  5
4EE
100
AcDbEntity
  8
SLD-0
  6
CONTINUOUS
 62
       3
100
AcDbLine
 10
-28.53225627
 20
-55.62697624
 30
0.0
 11
-28.55154983
 21
-55.62940925
 31
0.0
  0
LINE
  5
4EF
100
AcDbEntity
  8
SLD-0
  6
CONTINUOUS
 62
       3
100
AcDbLine
 10
-28.55154983
 20
-55.62940925
 30
0.0
 11
-28.57085519
 21
-55.63146784
 31
0.0
  0
LINE
  5
4F0
100
AcDbEntity
  8
SLD-0
  6
CONTINUOUS
 62
       3
100
AcDbLine
 10
-28.57085519
 20
-55.63146784
 30
0.0
 11
-28.59015816
 21
-55.63315204
 31
0.0
  0
LINE
  5
4F1
100
AcDbEntity
  8
SLD-0
  6
CONTINUOUS
 62
       3
100
AcDbLine
 10
-28.59015816
 20
-55.63315204
 30
0.0
 11
-28.60944455
 21
-55.63446191
 31
0.0
  0
LINE
  5
4F2
100
AcDbEntity
  8
SLD-0
  6
CONTINUOUS
 62
       3
100
AcDbLine
 10
-28.60944455
 20
-55.63446191
 30
0.0
 11
-28.62870017
 21
-55.63539748
 31
0.0
  0
LINE
  5
4F3
100
AcDbEntity
  8
SLD-0
  6
CONTINUOUS
 62
       3
100
AcDbLine
 10
-28.62870017
 20
-55.63539748
 30
0.0
 11
-28.64791083
 21
-55.63595879
 31
0.0
  0
LINE
  5
4F4
100
AcDbEntity
  8
SLD-0
  6
CONTINUOUS
 62
       3
100
AcDbLine
 10
-28.64791083
 20
-55.63595879
 30
0.0
 11
-28.66706234
 21
-55.63614588
 31
0.0
  0
ARC
  5
4F5
100
AcDbEntity
  8
SLD-0
  6
CONTINUOUS
 62
       3
100
AcDbCircle
 10
42.67669471
 20
-67.81832416
 30
0.0
 40
0.90000029
100
AcDbArc
 50
95.00001318
 51
180.0
  0
ARC
  5
4F6
100
AcDbEntity
  8
SLD-0
  6
CONTINUOUS
 62
       3
100
AcDbCircle
 10
42.67669471
 20
-71.45396761
 30
0.0
 40
0.90000029
100
AcDbArc
 50
180.0
 51
264.99998682
  0
LINE
  5
4F7
100
AcDbEntity
  8
SLD-0
  6
CONTINUOUS
 62
       3
100
AcDbLine
 10
41.77669471
 20
-67.81832416
 30
0.0
 11
41.77669471
 21
-71.45396761
 31
0.0
  0
LINE
  5
4F8
100
AcDbEntity
  8
SLD-0
  6
CONTINUOUS
 62
       3
100
AcDbLine
 10
42.59825431
 20
-66.92174866
 30
0.0
 11
43.57669471
 21
-66.83614588
 31
0.0
  0
LINE
  5
4F9
100
AcDbEntity
  8
SLD-0
  6
CONTINUOUS
 62
       3
100
AcDbLine
 10
42.59825431
 20
-72.35054311
 30
0.0
 11
43.57669471
 21
-72.43614588
 31
0.0
  0
LINE
  5
4FA
100
AcDbEntity
  8
SLD-0
  6
CONTINUOUS
 62
       3
100
AcDbLine
 10
41.77669471
 20
-69.63614588
 30
0.0
 11
42.47669471
 21
-69.63614588
 31
0.0
  0
ARC
  5
4FB
100
AcDbEntity
  8
SLD-0
  6
CONTINUOUS
 62
       3
100
AcDbCircle
 10
42.67669471
 20
-160.81832416
 30
0.0
 40
0.90000029
100
AcDbArc
 50
95.00001318
 51
180.0
  0
ARC
  5
4FC
100
AcDbEntity
  8
SLD-0
  6
CONTINUOUS
 62
       3
100
AcDbCircle
 10
42.67669471
 20
-164.45396761
 30
0.0
 40
0.90000029
100
AcDbArc
 50
180.0
 51
264.99998682
  0
LINE
  5
4FD
100
AcDbEntity
  8
SLD-0
  6
CONTINUOUS
 62
       3
100
AcDbLine
 10
41.77669471
 20
-160.81832416
 30
0.0
 11
41.77669471
 21
-164.45396761
 31
0.0
  0
LINE
  5
4FE
100
AcDbEntity
  8
SLD-0
  6
CONTINUOUS
 62
       3
100
AcDbLine
 10
42.59825431
 20
-159.92174866
 30
0.0
 11
43.57669471
 21
-159.83614588
 31
0.0
  0
LINE
  5
4FF
100
AcDbEntity
  8
SLD-0
  6
CONTINUOUS
 62
       3
100
AcDbLine
 10
42.59825431
 20
-165.35054311
 30
0.0
 11
43.57669471
 21
-165.43614588
 31
0.0
  0
LINE
  5
500
100
AcDbEntity
  8
SLD-0
  6
CONTINUOUS
 62
       3
100
AcDbLine
 10
41.77669471
 20
-162.63614588
 30
0.0
 11
42.47669471
 21
-162.63614588
 31
0.0
  0
CIRCLE
  5
501
100
AcDbEntity
  8
SLD-0
  6
CONTINUOUS
 62
       3
100
AcDbCircle
 10
-27.96706234
 20
-69.63614588
 30
0.0
 40
2.8
  0
LINE
  5
502
100
AcDbEntity
  8
SLD-0
  6
CONTINUOUS
 62
       3
100
AcDbLine
 10
-29.94696132
 20
-67.6562469
 30
0.0
 11
-25.98716335
 21
-71.61604487
 31
0.0
  0
CIRCLE
  5
503
100
AcDbEntity
  8
SLD-0
  6
CONTINUOUS
 62
       3
100
AcDbCircle
 10
-70.96706234
 20
-162.63614588
 30
0.0
 40
2.8
  0
LINE
  5
504
100
AcDbEntity
  8
SLD-0
  6
CONTINUOUS
 62
       3
100
AcDbLine
 10
-72.94696132
 20
-160.6562469
 30
0.0
 11
-68.98716335
 21
-164.61604487
 31
0.0
  0
CIRCLE
  5
505
100
AcDbEntity
  8
SLD-0
  6
CONTINUOUS
 62
       3
100
AcDbCircle
 10
-70.96706234
 20
-69.63614588
 30
0.0
 40
2.8
  0
LINE
  5
506
100
AcDbEntity
  8
SLD-0
  6
CONTINUOUS
 62
       3
100
AcDbLine
 10
-72.94696132
 20
-67.6562469
 30
0.0
 11
-68.98716335
 21
-71.61604487
 31
0.0
  0
CIRCLE
  5
507
100
AcDbEntity
  8
SLD-0
  6
CONTINUOUS
 62
       3
100
AcDbCircle
 10
-27.96706234
 20
-162.63614588
 30
0.0
 40
2.8
  0
LINE
  5
508
100
AcDbEntity
  8
SLD-0
  6
CONTINUOUS
 62
       3
100
AcDbLine
 10
-29.94696132
 20
-160.6562469
 30
0.0
 11
-25.98716335
 21
-164.61604487
 31
0.0
  0
CIRCLE
  5
509
100
AcDbEntity
  8
SLD-0
  6
CONTINUOUS
 62
       3
100
AcDbCircle
 10
-126.96706234
 20
-162.63614588
 30
0.0
 40
2.8
  0
LINE
  5
50A
100
AcDbEntity
  8
SLD-0
  6
CONTINUOUS
 62
       3
100
AcDbLine
 10
-128.94696132
 20
-160.6562469
 30
0.0
 11
-124.98716335
 21
-164.61604487
 31
0.0
  0
ARC
  5
50B
100
AcDbEntity
  8
SLD-0
  6
CONTINUOUS
 62
       3
100
AcDbCircle
 10
30.0941769
 20
152.74849947
 30
0.0
 40
0.90000029
100
AcDbArc
 50
95.00001318
 51
180.0
  0
ARC
  5
50C
100
AcDbEntity
  8
SLD-0
  6
CONTINUOUS
 62
       3
100
AcDbCircle
 10
30.0941769
 20
149.11285602
 30
0.0
 40
0.90000029
100
AcDbArc
 50
180.0
 51
264.99998682
  0
LINE
  5
50D
100
AcDbEntity
  8
SLD-0
  6
CONTINUOUS
 62
       3
100
AcDbLine
 10
29.1941769
 20
152.74849947
 30
0.0
 11
29.1941769
 21
149.11285602
 31
0.0
  0
LINE
  5
50E
100
AcDbEntity
  8
SLD-0
  6
CONTINUOUS
 62
       3
100
AcDbLine
 10
30.0157365
 20
153.64507497
 30
0.0
 11
30.9941769
 21
153.73067774
 31
0.0
  0
LINE
  5
50F
100
AcDbEntity
  8
SLD-0
  6
CONTINUOUS
 62
       3
100
AcDbLine
 10
30.0157365
 20
148.21628052
 30
0.0
 11
30.9941769
 21
148.13067774
 31
0.0
  0
LINE
  5
510
100
AcDbEntity
  8
SLD-0
  6
CONTINUOUS
 62
       3
100
AcDbLine
 10
29.1941769
 20
150.93067774
 30
0.0
 11
29.8941769
 21
150.93067774
 31
0.0
  0
LINE
  5
511
100
AcDbEntity
  8
SLD-0
  6
CONTINUOUS
 62
       3
100
AcDbLine
 10
-79.77936219
 20
165.43067774
 30
0.0
 11
-79.77975889
 21
165.39057401
 31
0.0
  0
LINE
  5
512
100
AcDbEntity
  8
SLD-0
  6
CONTINUOUS
 62
       3
100
AcDbLine
 10
-79.77975889
 20
165.39057401
 30
0.0
 11
-79.78094655
 21
165.35063406
 31
0.0
  0
LINE
  5
513
100
AcDbEntity
  8
SLD-0
  6
CONTINUOUS
 62
       3
100
AcDbLine
 10
-79.78094655
 20
165.35063406
 30
0.0
 11
-79.78292154
 21
165.31085698
 31
0.0
  0
LINE
  5
514
100
AcDbEntity
  8
SLD-0
  6
CONTINUOUS
 62
       3
100
AcDbLine
 10
-79.78292154
 20
165.31085698
 30
0.0
 11
-79.7856802
 21
165.27124187
 31
0.0
  0
LINE
  5
515
100
AcDbEntity
  8
SLD-0
  6
CONTINUOUS
 62
       3
100
AcDbLine
 10
-79.7856802
 20
165.27124187
 30
0.0
 11
-79.78921887
 21
165.23178782
 31
0.0
  0
LINE
  5
516
100
AcDbEntity
  8
SLD-0
  6
CONTINUOUS
 62
       3
100
AcDbLine
 10
-79.78921887
 20
165.23178782
 30
0.0
 11
-79.79353393
 21
165.1924939
 31
0.0
  0
LINE
  5
517
100
AcDbEntity
  8
SLD-0
  6
CONTINUOUS
 62
       3
100
AcDbLine
 10
-79.79353393
 20
165.1924939
 30
0.0
 11
-79.7986217
 21
165.15335922
 31
0.0
  0
LINE
  5
518
100
AcDbEntity
  8
SLD-0
  6
CONTINUOUS
 62
       3
100
AcDbLine
 10
-79.7986217
 20
165.15335922
 30
0.0
 11
-79.80447855
 21
165.11438285
 31
0.0
  0
LINE
  5
519
100
AcDbEntity
  8
SLD-0
  6
CONTINUOUS
 62
       3
100
AcDbLine
 10
-79.80447855
 20
165.11438285
 30
0.0
 11
-79.81110083
 21
165.07556388
 31
0.0
  0
LINE
  5
51A
100
AcDbEntity
  8
SLD-0
  6
CONTINUOUS
 62
       3
100
AcDbLine
 10
-79.81110083
 20
165.07556388
 30
0.0
 11
-79.81848488
 21
165.0369014
 31
0.0
  0
LINE
  5
51B
100
AcDbEntity
  8
SLD-0
  6
CONTINUOUS
 62
       3
100
AcDbLine
 10
-79.81848488
 20
165.0369014
 30
0.0
 11
-79.82662706
 21
164.99839451
 31
0.0
  0
LINE
  5
51C
100
AcDbEntity
  8
SLD-0
  6
CONTINUOUS
 62
       3
100
AcDbLine
 10
-79.82662706
 20
164.99839451
 30
0.0
 11
-79.83552372
 21
164.96004228
 31
0.0
  0
LINE
  5
51D
100
AcDbEntity
  8
SLD-0
  6
CONTINUOUS
 62
       3
100
AcDbLine
 10
-79.83552372
 20
164.96004228
 30
0.0
 11
-79.84517551
 21
164.9218419
 31
0.0
  0
LINE
  5
51E
100
AcDbEntity
  8
SLD-0
  6
CONTINUOUS
 62
       3
100
AcDbLine
 10
-79.84517551
 20
164.9218419
 30
0.0
 11
-79.85560169
 21
164.8837911
 31
0.0
  0
LINE
  5
51F
100
AcDbEntity
  8
SLD-0
  6
CONTINUOUS
 62
       3
100
AcDbLine
 10
-79.85560169
 20
164.8837911
 30
0.0
 11
-79.86679558
 21
164.84591293
 31
0.0
  0
LINE
  5
520
100
AcDbEntity
  8
SLD-0
  6
CONTINUOUS
 62
       3
100
AcDbLine
 10
-79.86679558
 20
164.84591293
 30
0.0
 11
-79.87874594
 21
164.80823349
 31
0.0
  0
LINE
  5
521
100
AcDbEntity
  8
SLD-0
  6
CONTINUOUS
 62
       3
100
AcDbLine
 10
-79.87874594
 20
164.80823349
 30
0.0
 11
-79.89144149
 21
164.77077887
 31
0.0
  0
LINE
  5
522
100
AcDbEntity
  8
SLD-0
  6
CONTINUOUS
 62
       3
100
AcDbLine
 10
-79.89144149
 20
164.77077887
 30
0.0
 11
-79.90487095
 21
164.73357516
 31
0.0
  0
LINE
  5
523
100
AcDbEntity
  8
SLD-0
  6
CONTINUOUS
 62
       3
100
AcDbLine
 10
-79.90487095
 20
164.73357516
 30
0.0
 11
-79.91902306
 21
164.69664844
 31
0.0
  0
LINE
  5
524
100
AcDbEntity
  8
SLD-0
  6
CONTINUOUS
 62
       3
100
AcDbLine
 10
-79.91902306
 20
164.69664844
 30
0.0
 11
-79.93388656
 21
164.66002481
 31
0.0
  0
LINE
  5
525
100
AcDbEntity
  8
SLD-0
  6
CONTINUOUS
 62
       3
100
AcDbLine
 10
-79.93388656
 20
164.66002481
 30
0.0
 11
-79.94945016
 21
164.62373035
 31
0.0
  0
LINE
  5
526
100
AcDbEntity
  8
SLD-0
  6
CONTINUOUS
 62
       3
100
AcDbLine
 10
-79.94945016
 20
164.62373035
 30
0.0
 11
-79.96570261
 21
164.58779116
 31
0.0
  0
LINE
  5
527
100
AcDbEntity
  8
SLD-0
  6
CONTINUOUS
 62
       3
100
AcDbLine
 10
-79.96570261
 20
164.58779116
 30
0.0
 11
-79.98263263
 21
164.55223333
 31
0.0
  0
LINE
  5
528
100
AcDbEntity
  8
SLD-0
  6
CONTINUOUS
 62
       3
100
AcDbLine
 10
-79.98263263
 20
164.55223333
 30
0.0
 11
-80.00022895
 21
164.51708295
 31
0.0
  0
LINE
  5
529
100
AcDbEntity
  8
SLD-0
  6
CONTINUOUS
 62
       3
100
AcDbLine
 10
-80.00022895
 20
164.51708295
 30
0.0
 11
-80.0184803
 21
164.4823661
 31
0.0
  0
LINE
  5
52A
100
AcDbEntity
  8
SLD-0
  6
CONTINUOUS
 62
       3
100
AcDbLine
 10
-80.0184803
 20
164.4823661
 30
0.0
 11
-80.0374064
 21
164.44803895
 31
0.0
  0
LINE
  5
52B
100
AcDbEntity
  8
SLD-0
  6
CONTINUOUS
 62
       3
100
AcDbLine
 10
-80.0374064
 20
164.44803895
 30
0.0
 11
-80.05702869
 21
164.41405072
 31
0.0
  0
LINE
  5
52C
100
AcDbEntity
  8
SLD-0
  6
CONTINUOUS
 62
       3
100
AcDbLine
 10
-80.05702869
 20
164.41405072
 30
0.0
 11
-80.07733848
 21
164.38041706
 31
0.0
  0
LINE
  5
52D
100
AcDbEntity
  8
SLD-0
  6
CONTINUOUS
 62
       3
100
AcDbLine
 10
-80.07733848
 20
164.38041706
 30
0.0
 11
-80.09832706
 21
164.34715361
 31
0.0
  0
LINE
  5
52E
100
AcDbEntity
  8
SLD-0
  6
CONTINUOUS
 62
       3
100
AcDbLine
 10
-80.09832706
 20
164.34715361
 30
0.0
 11
-80.11998576
 21
164.31427602
 31
0.0
  0
LINE
  5
52F
100
AcDbEntity
  8
SLD-0
  6
CONTINUOUS
 62
       3
100
AcDbLine
 10
-80.11998576
 20
164.31427602
 30
0.0
 11
-80.14230586
 21
164.28179993
 31
0.0
  0
LINE
  5
530
100
AcDbEntity
  8
SLD-0
  6
CONTINUOUS
 62
       3
100
AcDbLine
 10
-80.14230586
 20
164.28179993
 30
0.0
 11
-80.1652787
 21
164.24974101
 31
0.0
  0
LINE
  5
531
100
AcDbEntity
  8
SLD-0
  6
CONTINUOUS
 62
       3
100
AcDbLine
 10
-80.1652787
 20
164.24974101
 30
0.0
 11
-80.18889556
 21
164.21811489
 31
0.0
  0
LINE
  5
532
100
AcDbEntity
  8
SLD-0
  6
CONTINUOUS
 62
       3
100
AcDbLine
 10
-80.18889556
 20
164.21811489
 30
0.0
 11
-80.21314777
 21
164.18693722
 31
0.0
  0
LINE
  5
533
100
AcDbEntity
  8
SLD-0
  6
CONTINUOUS
 62
       3
100
AcDbLine
 10
-80.21314777
 20
164.18693722
 30
0.0
 11
-80.23802662
 21
164.15622366
 31
0.0
  0
LINE
  5
534
100
AcDbEntity
  8
SLD-0
  6
CONTINUOUS
 62
       3
100
AcDbLine
 10
-80.23802662
 20
164.15622366
 30
0.0
 11
-80.26352342
 21
164.12598985
 31
0.0
  0
LINE
  5
535
100
AcDbEntity
  8
SLD-0
  6
CONTINUOUS
 62
       3
100
AcDbLine
 10
-80.26352342
 20
164.12598985
 30
0.0
 11
-80.28962949
 21
164.09625144
 31
0.0
  0
LINE
  5
536
100
AcDbEntity
  8
SLD-0
  6
CONTINUOUS
 62
       3
100
AcDbLine
 10
-80.28962949
 20
164.09625144
 30
0.0
 11
-80.31632854
 21
164.06702872
 31
0.0
  0
LINE
  5
537
100
AcDbEntity
  8
SLD-0
  6
CONTINUOUS
 62
       3
100
AcDbLine
 10
-80.31632854
 20
164.06702872
 30
0.0
 11
-80.34357065
 21
164.03835989
 31
0.0
  0
LINE
  5
538
100
AcDbEntity
  8
SLD-0
  6
CONTINUOUS
 62
       3
100
AcDbLine
 10
-80.34357065
 20
164.03835989
 30
0.0
 11
-80.37135061
 21
164.01025174
 31
0.0
  0
LINE
  5
539
100
AcDbEntity
  8
SLD-0
  6
CONTINUOUS
 62
       3
100
AcDbLine
 10
-80.37135061
 20
164.01025174
 30
0.0
 11
-80.39967129
 21
163.98270581
 31
0.0
  0
LINE
  5
53A
100
AcDbEntity
  8
SLD-0
  6
CONTINUOUS
 62
       3
100
AcDbLine
 10
-80.39967129
 20
163.98270581
 30
0.0
 11
-80.42853554
 21
163.95572365
 31
0.0
  0
LINE
  5
53B
100
AcDbEntity
  8
SLD-0
  6
CONTINUOUS
 62
       3
100
AcDbLine
 10
-80.42853554
 20
163.95572365
 30
0.0
 11
-80.45794625
 21
163.92930682
 31
0.0
  0
LINE
  5
53C
100
AcDbEntity
  8
SLD-0
  6
CONTINUOUS
 62
       3
100
AcDbLine
 10
-80.45794625
 20
163.92930682
 30
0.0
 11
-80.48790626
 21
163.90345687
 31
0.0
  0
LINE
  5
53D
100
AcDbEntity
  8
SLD-0
  6
CONTINUOUS
 62
       3
100
AcDbLine
 10
-80.48790626
 20
163.90345687
 30
0.0
 11
-80.51841844
 21
163.87817535
 31
0.0
  0
LINE
  5
53E
100
AcDbEntity
  8
SLD-0
  6
CONTINUOUS
 62
       3
100
AcDbLine
 10
-80.51841844
 20
163.87817535
 30
0.0
 11
-80.54948566
 21
163.8534638
 31
0.0
  0
LINE
  5
53F
100
AcDbEntity
  8
SLD-0
  6
CONTINUOUS
 62
       3
100
AcDbLine
 10
-80.54948566
 20
163.8534638
 30
0.0
 11
-80.58111078
 21
163.82932379
 31
0.0
  0
LINE
  5
540
100
AcDbEntity
  8
SLD-0
  6
CONTINUOUS
 62
       3
100
AcDbLine
 10
-80.58111078
 20
163.82932379
 30
0.0
 11
-80.61329667
 21
163.80575685
 31
0.0
  0
LINE
  5
541
100
AcDbEntity
  8
SLD-0
  6
CONTINUOUS
 62
       3
100
AcDbLine
 10
-80.61329667
 20
163.80575685
 30
0.0
 11
-80.64604618
 21
163.78276455
 31
0.0
  0
LINE
  5
542
100
AcDbEntity
  8
SLD-0
  6
CONTINUOUS
 62
       3
100
AcDbLine
 10
-80.64604618
 20
163.78276455
 30
0.0
 11
-80.67936219
 21
163.76034844
 31
0.0
  0
ARC
  5
543
100
AcDbEntity
  8
SLD-0
  6
CONTINUOUS
 62
       3
100
AcDbCircle
 10
30.0941769
 20
59.74849947
 30
0.0
 40
0.90000029
100
AcDbArc
 50
95.00001318
 51
180.0
  0
ARC
  5
544
100
AcDbEntity
  8
SLD-0
  6
CONTINUOUS
 62
       3
100
AcDbCircle
 10
30.0941769
 20
56.11285602
 30
0.0
 40
0.90000029
100
AcDbArc
 50
180.0
 51
264.99998682
  0
LINE
  5
545
100
AcDbEntity
  8
SLD-0
  6
CONTINUOUS
 62
       3
100
AcDbLine
 10
29.1941769
 20
59.74849947
 30
0.0
 11
29.1941769
 21
56.11285602
 31
0.0
  0
LINE
  5
546
100
AcDbEntity
  8
SLD-0
  6
CONTINUOUS
 62
       3
100
AcDbLine
 10
30.0157365
 20
60.64507497
 30
0.0
 11
30.9941769
 21
60.73067774
 31
0.0
  0
LINE
  5
547
100
AcDbEntity
  8
SLD-0
  6
CONTINUOUS
 62
       3
100
AcDbLine
 10
30.0157365
 20
55.21628052
 30
0.0
 11
30.9941769
 21
55.13067774
 31
0.0
  0
LINE
  5
548
100
AcDbEntity
  8
SLD-0
  6
CONTINUOUS
 62
       3
100
AcDbLine
 10
29.1941769
 20
57.93067774
 30
0.0
 11
29.8941769
 21
57.93067774
 31
0.0
  0
LINE
  5
549
100
AcDbEntity
  8
SLD-0
  6
CONTINUOUS
 62
       3
100
AcDbLine
 10
-77.87936219
 20
163.76034844
 30
0.0
 11
-77.91267413
 21
163.78276169
 31
0.0
  0
LINE
  5
54A
100
AcDbEntity
  8
SLD-0
  6
CONTINUOUS
 62
       3
100
AcDbLine
 10
-77.91267413
 20
163.78276169
 30
0.0
 11
-77.94540521
 21
163.8057405
 31
0.0
  0
LINE
  5
54B
100
AcDbEntity
  8
SLD-0
  6
CONTINUOUS
 62
       3
100
AcDbLine
 10
-77.94540521
 20
163.8057405
 30
0.0
 11
-77.97755908
 21
163.82928264
 31
0.0
  0
LINE
  5
54C
100
AcDbEntity
  8
SLD-0
  6
CONTINUOUS
 62
       3
100
AcDbLine
 10
-77.97755908
 20
163.82928264
 30
0.0
 11
-78.00913938
 21
163.85338589
 31
0.0
  0
LINE
  5
54D
100
AcDbEntity
  8
SLD-0
  6
CONTINUOUS
 62
       3
100
AcDbLine
 10
-78.00913938
 20
163.85338589
 30
0.0
 11
-78.04014977
 21
163.87804801
 31
0.0
  0
LINE
  5
54E
100
AcDbEntity
  8
SLD-0
  6
CONTINUOUS
 62
       3
100
AcDbLine
 10
-78.04014977
 20
163.87804801
 30
0.0
 11
-78.0705939
 21
163.90326679
 31
0.0
  0
LINE
  5
54F
100
AcDbEntity
  8
SLD-0
  6
CONTINUOUS
 62
       3
100
AcDbLine
 10
-78.0705939
 20
163.90326679
 30
0.0
 11
-78.1004754
 21
163.92904001
 31
0.0
  0
LINE
  5
550
100
AcDbEntity
  8
SLD-0
  6
CONTINUOUS
 62
       3
100
AcDbLine
 10
-78.1004754
 20
163.92904001
 30
0.0
 11
-78.12979794
 21
163.95536544
 31
0.0
  0
LINE
  5
551
100
AcDbEntity
  8
SLD-0
  6
CONTINUOUS
 62
       3
100
AcDbLine
 10
-78.12979794
 20
163.95536544
 30
0.0
 11
-78.15856517
 21
163.98224085
 31
0.0
  0
LINE
  5
552
100
AcDbEntity
  8
SLD-0
  6
CONTINUOUS
 62
       3
100
AcDbLine
 10
-78.15856517
 20
163.98224085
 30
0.0
 11
-78.18678072
 21
164.00966402
 31
0.0
  0
LINE
  5
553
100
AcDbEntity
  8
SLD-0
  6
CONTINUOUS
 62
       3
100
AcDbLine
 10
-78.18678072
 20
164.00966402
 30
0.0
 11
-78.21444826
 21
164.03763274
 31
0.0
  0
LINE
  5
554
100
AcDbEntity
  8
SLD-0
  6
CONTINUOUS
 62
       3
100
AcDbLine
 10
-78.21444826
 20
164.03763274
 30
0.0
 11
-78.24157143
 21
164.06614477
 31
0.0
  0
LINE
  5
555
100
AcDbEntity
  8
SLD-0
  6
CONTINUOUS
 62
       3
100
AcDbLine
 10
-78.24157143
 20
164.06614477
 30
0.0
 11
-78.26815297
 21
164.09520247
 31
0.0
  0
LINE
  5
556
100
AcDbEntity
  8
SLD-0
  6
CONTINUOUS
 62
       3
100
AcDbLine
 10
-78.26815297
 20
164.09520247
 30
0.0
 11
-78.29418395
 21
164.12482318
 31
0.0
  0
LINE
  5
557
100
AcDbEntity
  8
SLD-0
  6
CONTINUOUS
 62
       3
100
AcDbLine
 10
-78.29418395
 20
164.12482318
 30
0.0
 11
-78.31964887
 21
164.15498904
 31
0.0
  0
LINE
  5
558
100
AcDbEntity
  8
SLD-0
  6
CONTINUOUS
 62
       3
100
AcDbLine
 10
-78.31964887
 20
164.15498904
 30
0.0
 11
-78.34453232
 21
164.18567673
 31
0.0
  0
LINE
  5
559
100
AcDbEntity
  8
SLD-0
  6
CONTINUOUS
 62
       3
100
AcDbLine
 10
-78.34453232
 20
164.18567673
 30
0.0
 11
-78.36881891
 21
164.21686294
 31
0.0
  0
LINE
  5
55A
100
AcDbEntity
  8
SLD-0
  6
CONTINUOUS
 62
       3
100
AcDbLine
 10
-78.36881891
 20
164.21686294
 30
0.0
 11
-78.39249325
 21
164.24852433
 31
0.0
  0
LINE
  5
55B
100
AcDbEntity
  8
SLD-0
  6
CONTINUOUS
 62
       3
100
AcDbLine
 10
-78.39249325
 20
164.24852433
 30
0.0
 11
-78.41553995
 21
164.28063758
 31
0.0
  0
LINE
  5
55C
100
AcDbEntity
  8
SLD-0
  6
CONTINUOUS
 62
       3
100
AcDbLine
 10
-78.41553995
 20
164.28063758
 30
0.0
 11
-78.43794361
 21
164.31317939
 31
0.0
  0
LINE
  5
55D
100
AcDbEntity
  8
SLD-0
  6
CONTINUOUS
 62
       3
100
AcDbLine
 10
-78.43794361
 20
164.31317939
 30
0.0
 11
-78.45968884
 21
164.34612642
 31
0.0
  0
LINE
  5
55E
100
AcDbEntity
  8
SLD-0
  6
CONTINUOUS
 62
       3
100
AcDbLine
 10
-78.45968884
 20
164.34612642
 30
0.0
 11
-78.48076024
 21
164.37945536
 31
0.0
  0
LINE
  5
55F
100
AcDbEntity
  8
SLD-0
  6
CONTINUOUS
 62
       3
100
AcDbLine
 10
-78.48076024
 20
164.37945536
 30
0.0
 11
-78.50114243
 21
164.41314288
 31
0.0
  0
LINE
  5
560
100
AcDbEntity
  8
SLD-0
  6
CONTINUOUS
 62
       3
100
AcDbLine
 10
-78.50114243
 20
164.41314288
 30
0.0
 11
-78.52082001
 21
164.44716567
 31
0.0
  0
LINE
  5
561
100
AcDbEntity
  8
SLD-0
  6
CONTINUOUS
 62
       3
100
AcDbLine
 10
-78.52082001
 20
164.44716567
 30
0.0
 11
-78.53977758
 21
164.4815004
 31
0.0
  0
LINE
  5
562
100
AcDbEntity
  8
SLD-0
  6
CONTINUOUS
 62
       3
100
AcDbLine
 10
-78.53977758
 20
164.4815004
 30
0.0
 11
-78.55804074
 21
164.51618863
 31
0.0
  0
LINE
  5
563
100
AcDbEntity
  8
SLD-0
  6
CONTINUOUS
 62
       3
100
AcDbLine
 10
-78.55804074
 20
164.51618863
 30
0.0
 11
-78.57563959
 21
164.55127647
 31
0.0
  0
LINE
  5
564
100
AcDbEntity
  8
SLD-0
  6
CONTINUOUS
 62
       3
100
AcDbLine
 10
-78.57563959
 20
164.55127647
 30
0.0
 11
-78.59256552
 21
164.5867474
 31
0.0
  0
LINE
  5
565
100
AcDbEntity
  8
SLD-0
  6
CONTINUOUS
 62
       3
100
AcDbLine
 10
-78.59256552
 20
164.5867474
 30
0.0
 11
-78.60880993
 21
164.62258494
 31
0.0
  0
LINE
  5
566
100
AcDbEntity
  8
SLD-0
  6
CONTINUOUS
 62
       3
100
AcDbLine
 10
-78.60880993
 20
164.62258494
 30
0.0
 11
-78.6243642
 21
164.65877257
 31
0.0
  0
LINE
  5
567
100
AcDbEntity
  8
SLD-0
  6
CONTINUOUS
 62
       3
100
AcDbLine
 10
-78.6243642
 20
164.65877257
 30
0.0
 11
-78.63921973
 21
164.69529379
 31
0.0
  0
LINE
  5
568
100
AcDbEntity
  8
SLD-0
  6
CONTINUOUS
 62
       3
100
AcDbLine
 10
-78.63921973
 20
164.69529379
 30
0.0
 11
-78.65336792
 21
164.73213211
 31
0.0
  0
LINE
  5
569
100
AcDbEntity
  8
SLD-0
  6
CONTINUOUS
 62
       3
100
AcDbLine
 10
-78.65336792
 20
164.73213211
 30
0.0
 11
-78.66680014
 21
164.76927102
 31
0.0
  0
LINE
  5
56A
100
AcDbEntity
  8
SLD-0
  6
CONTINUOUS
 62
       3
100
AcDbLine
 10
-78.66680014
 20
164.76927102
 30
0.0
 11
-78.67950779
 21
164.80669403
 31
0.0
  0
LINE
  5
56B
100
AcDbEntity
  8
SLD-0
  6
CONTINUOUS
 62
       3
100
AcDbLine
 10
-78.67950779
 20
164.80669403
 30
0.0
 11
-78.69148226
 21
164.84438462
 31
0.0
  0
LINE
  5
56C
100
AcDbEntity
  8
SLD-0
  6
CONTINUOUS
 62
       3
100
AcDbLine
 10
-78.69148226
 20
164.84438462
 30
0.0
 11
-78.70271495
 21
164.8823263
 31
0.0
  0
LINE
  5
56D
100
AcDbEntity
  8
SLD-0
  6
CONTINUOUS
 62
       3
100
AcDbLine
 10
-78.70271495
 20
164.8823263
 30
0.0
 11
-78.71319724
 21
164.92050257
 31
0.0
  0
LINE
  5
56E
100
AcDbEntity
  8
SLD-0
  6
CONTINUOUS
 62
       3
100
AcDbLine
 10
-78.71319724
 20
164.92050257
 30
0.0
 11
-78.72292092
 21
164.95888842
 31
0.0
  0
LINE
  5
56F
100
AcDbEntity
  8
SLD-0
  6
CONTINUOUS
 62
       3
100
AcDbLine
 10
-78.72292092
 20
164.95888842
 30
0.0
 11
-78.73188193
 21
164.99742274
 31
0.0
  0
LINE
  5
570
100
AcDbEntity
  8
SLD-0
  6
CONTINUOUS
 62
       3
100
AcDbLine
 10
-78.73188193
 20
164.99742274
 30
0.0
 11
-78.74007775
 21
165.03609698
 31
0.0
  0
LINE
  5
571
100
AcDbEntity
  8
SLD-0
  6
CONTINUOUS
 62
       3
100
AcDbLine
 10
-78.74007775
 20
165.03609698
 30
0.0
 11
-78.7475057
 21
165.07491178
 31
0.0
  0
LINE
  5
572
100
AcDbEntity
  8
SLD-0
  6
CONTINUOUS
 62
       3
100
AcDbLine
 10
-78.7475057
 20
165.07491178
 30
0.0
 11
-78.75416312
 21
165.1138678
 31
0.0
  0
LINE
  5
573
100
AcDbEntity
  8
SLD-0
  6
CONTINUOUS
 62
       3
100
AcDbLine
 10
-78.75416312
 20
165.1138678
 30
0.0
 11
-78.76004732
 21
165.15296568
 31
0.0
  0
LINE
  5
574
100
AcDbEntity
  8
SLD-0
  6
CONTINUOUS
 62
       3
100
AcDbLine
 10
-78.76004732
 20
165.15296568
 30
0.0
 11
-78.76515563
 21
165.19220607
 31
0.0
  0
LINE
  5
575
100
AcDbEntity
  8
SLD-0
  6
CONTINUOUS
 62
       3
100
AcDbLine
 10
-78.76515563
 20
165.19220607
 30
0.0
 11
-78.76948538
 21
165.23158963
 31
0.0
  0
LINE
  5
576
100
AcDbEntity
  8
SLD-0
  6
CONTINUOUS
 62
       3
100
AcDbLine
 10
-78.76948538
 20
165.23158963
 30
0.0
 11
-78.7730339
 21
165.27111701
 31
0.0
  0
LINE
  5
577
100
AcDbEntity
  8
SLD-0
  6
CONTINUOUS
 62
       3
100
AcDbLine
 10
-78.7730339
 20
165.27111701
 30
0.0
 11
-78.77579852
 21
165.31078886
 31
0.0
  0
LINE
  5
578
100
AcDbEntity
  8
SLD-0
  6
CONTINUOUS
 62
       3
100
AcDbLine
 10
-78.77579852
 20
165.31078886
 30
0.0
 11
-78.77777655
 21
165.35060583
 31
0.0
  0
LINE
  5
579
100
AcDbEntity
  8
SLD-0
  6
CONTINUOUS
 62
       3
100
AcDbLine
 10
-78.77777655
 20
165.35060583
 30
0.0
 11
-78.77896533
 21
165.39056858
 31
0.0
  0
LINE
  5
57A
100
AcDbEntity
  8
SLD-0
  6
CONTINUOUS
 62
       3
100
AcDbLine
 10
-78.77896533
 20
165.39056858
 30
0.0
 11
-78.77936219
 21
165.43067774
 31
0.0
  0
LINE
  5
57B
100
AcDbEntity
  8
SLD-0
  6
CONTINUOUS
 62
       3
100
AcDbLine
 10
-81.41333678
 20
165.43067774
 30
0.0
 11
-81.42550543
 21
165.41016754
 31
0.0
  0
LINE
  5
57C
100
AcDbEntity
  8
SLD-0
  6
CONTINUOUS
 62
       3
100
AcDbLine
 10
-81.42550543
 20
165.41016754
 30
0.0
 11
-81.43807594
 21
165.39008117
 31
0.0
  0
LINE
  5
57D
100
AcDbEntity
  8
SLD-0
  6
CONTINUOUS
 62
       3
100
AcDbLine
 10
-81.43807594
 20
165.39008117
 30
0.0
 11
-81.45103652
 21
165.37041947
 31
0.0
  0
LINE
  5
57E
100
AcDbEntity
  8
SLD-0
  6
CONTINUOUS
 62
       3
100
AcDbLine
 10
-81.45103652
 20
165.37041947
 30
0.0
 11
-81.46437535
 21
165.35118326
 31
0.0
  0
LINE
  5
57F
100
AcDbEntity
  8
SLD-0
  6
CONTINUOUS
 62
       3
100
AcDbLine
 10
-81.46437535
 20
165.35118326
 30
0.0
 11
-81.47808061
 21
165.33237337
 31
0.0
  0
LINE
  5
580
100
AcDbEntity
  8
SLD-0
  6
CONTINUOUS
 62
       3
100
AcDbLine
 10
-81.47808061
 20
165.33237337
 30
0.0
 11
-81.49214049
 21
165.31399063
 31
0.0
  0
LINE
  5
581
100
AcDbEntity
  8
SLD-0
  6
CONTINUOUS
 62
       3
100
AcDbLine
 10
-81.49214049
 20
165.31399063
 30
0.0
 11
-81.50654317
 21
165.29603585
 31
0.0
  0
LINE
  5
582
100
AcDbEntity
  8
SLD-0
  6
CONTINUOUS
 62
       3
100
AcDbLine
 10
-81.50654317
 20
165.29603585
 30
0.0
 11
-81.52127684
 21
165.27850987
 31
0.0
  0
LINE
  5
583
100
AcDbEntity
  8
SLD-0
  6
CONTINUOUS
 62
       3
100
AcDbLine
 10
-81.52127684
 20
165.27850987
 30
0.0
 11
-81.53632969
 21
165.2614135
 31
0.0
  0
LINE
  5
584
100
AcDbEntity
  8
SLD-0
  6
CONTINUOUS
 62
       3
100
AcDbLine
 10
-81.53632969
 20
165.2614135
 30
0.0
 11
-81.5516899
 21
165.24474759
 31
0.0
  0
LINE
  5
585
100
AcDbEntity
  8
SLD-0
  6
CONTINUOUS
 62
       3
100
AcDbLine
 10
-81.5516899
 20
165.24474759
 30
0.0
 11
-81.56734566
 21
165.22851294
 31
0.0
  0
LINE
  5
586
100
AcDbEntity
  8
SLD-0
  6
CONTINUOUS
 62
       3
100
AcDbLine
 10
-81.56734566
 20
165.22851294
 30
0.0
 11
-81.58328515
 21
165.21271038
 31
0.0
  0
LINE
  5
587
100
AcDbEntity
  8
SLD-0
  6
CONTINUOUS
 62
       3
100
AcDbLine
 10
-81.58328515
 20
165.21271038
 30
0.0
 11
-81.59948766
 21
165.19734787
 31
0.0
  0
LINE
  5
588
100
AcDbEntity
  8
SLD-0
  6
CONTINUOUS
 62
       3
100
AcDbLine
 10
-81.59948766
 20
165.19734787
 30
0.0
 11
-81.61589034
 21
165.18246613
 31
0.0
  0
LINE
  5
589
100
AcDbEntity
  8
SLD-0
  6
CONTINUOUS
 62
       3
100
AcDbLine
 10
-81.61589034
 20
165.18246613
 30
0.0
 11
-81.63247863
 21
165.16806586
 31
0.0
  0
LINE
  5
58A
100
AcDbEntity
  8
SLD-0
  6
CONTINUOUS
 62
       3
100
AcDbLine
 10
-81.63247863
 20
165.16806586
 30
0.0
 11
-81.64924717
 21
165.15414035
 31
0.0
  0
LINE
  5
58B
100
AcDbEntity
  8
SLD-0
  6
CONTINUOUS
 62
       3
100
AcDbLine
 10
-81.64924717
 20
165.15414035
 30
0.0
 11
-81.66619056
 21
165.14068288
 31
0.0
  0
LINE
  5
58C
100
AcDbEntity
  8
SLD-0
  6
CONTINUOUS
 62
       3
100
AcDbLine
 10
-81.66619056
 20
165.14068288
 30
0.0
 11
-81.68330344
 21
165.12768672
 31
0.0
  0
LINE
  5
58D
100
AcDbEntity
  8
SLD-0
  6
CONTINUOUS
 62
       3
100
AcDbLine
 10
-81.68330344
 20
165.12768672
 30
0.0
 11
-81.70058043
 21
165.11514515
 31
0.0
  0
LINE
  5
58E
100
AcDbEntity
  8
SLD-0
  6
CONTINUOUS
 62
       3
100
AcDbLine
 10
-81.70058043
 20
165.11514515
 30
0.0
 11
-81.71801615
 21
165.10305144
 31
0.0
  0
LINE
  5
58F
100
AcDbEntity
  8
SLD-0
  6
CONTINUOUS
 62
       3
100
AcDbLine
 10
-81.71801615
 20
165.10305144
 30
0.0
 11
-81.73560522
 21
165.09139889
 31
0.0
  0
LINE
  5
590
100
AcDbEntity
  8
SLD-0
  6
CONTINUOUS
 62
       3
100
AcDbLine
 10
-81.73560522
 20
165.09139889
 30
0.0
 11
-81.75334227
 21
165.08018075
 31
0.0
  0
LINE
  5
591
100
AcDbEntity
  8
SLD-0
  6
CONTINUOUS
 62
       3
100
AcDbLine
 10
-81.75334227
 20
165.08018075
 30
0.0
 11
-81.77122191
 21
165.06939032
 31
0.0
  0
LINE
  5
592
100
AcDbEntity
  8
SLD-0
  6
CONTINUOUS
 62
       3
100
AcDbLine
 10
-81.77122191
 20
165.06939032
 30
0.0
 11
-81.78923877
 21
165.05902086
 31
0.0
  0
LINE
  5
593
100
AcDbEntity
  8
SLD-0
  6
CONTINUOUS
 62
       3
100
AcDbLine
 10
-81.78923877
 20
165.05902086
 30
0.0
 11
-81.80738747
 21
165.04906566
 31
0.0
  0
LINE
  5
594
100
AcDbEntity
  8
SLD-0
  6
CONTINUOUS
 62
       3
100
AcDbLine
 10
-81.80738747
 20
165.04906566
 30
0.0
 11
-81.82562491
 21
165.03953722
 31
0.0
  0
LINE
  5
595
100
AcDbEntity
  8
SLD-0
  6
CONTINUOUS
 62
       3
100
AcDbLine
 10
-81.82562491
 20
165.03953722
 30
0.0
 11
-81.84391243
 21
165.03044824
 31
0.0
  0
LINE
  5
596
100
AcDbEntity
  8
SLD-0
  6
CONTINUOUS
 62
       3
100
AcDbLine
 10
-81.84391243
 20
165.03044824
 30
0.0
 11
-81.86225135
 21
165.02179227
 31
0.0
  0
LINE
  5
597
100
AcDbEntity
  8
SLD-0
  6
CONTINUOUS
 62
       3
100
AcDbLine
 10
-81.86225135
 20
165.02179227
 30
0.0
 11
-81.88064299
 21
165.01356285
 31
0.0
  0
LINE
  5
598
100
AcDbEntity
  8
SLD-0
  6
CONTINUOUS
 62
       3
100
AcDbLine
 10
-81.88064299
 20
165.01356285
 30
0.0
 11
-81.89908867
 21
165.00575354
 31
0.0
  0
LINE
  5
599
100
AcDbEntity
  8
SLD-0
  6
CONTINUOUS
 62
       3
100
AcDbLine
 10
-81.89908867
 20
165.00575354
 30
0.0
 11
-81.9175897
 21
164.99835788
 31
0.0
  0
LINE
  5
59A
100
AcDbEntity
  8
SLD-0
  6
CONTINUOUS
 62
       3
100
AcDbLine
 10
-81.9175897
 20
164.99835788
 30
0.0
 11
-81.93614741
 21
164.99136943
 31
0.0
  0
LINE
  5
59B
100
AcDbEntity
  8
SLD-0
  6
CONTINUOUS
 62
       3
100
AcDbLine
 10
-81.93614741
 20
164.99136943
 30
0.0
 11
-81.9547631
 21
164.98478174
 31
0.0
  0
LINE
  5
59C
100
AcDbEntity
  8
SLD-0
  6
CONTINUOUS
 62
       3
100
AcDbLine
 10
-81.9547631
 20
164.98478174
 30
0.0
 11
-81.9734381
 21
164.97858835
 31
0.0
  0
LINE
  5
59D
100
AcDbEntity
  8
SLD-0
  6
CONTINUOUS
 62
       3
100
AcDbLine
 10
-81.9734381
 20
164.97858835
 30
0.0
 11
-81.99217372
 21
164.97278282
 31
0.0
  0
LINE
  5
59E
100
AcDbEntity
  8
SLD-0
  6
CONTINUOUS
 62
       3
100
AcDbLine
 10
-81.99217372
 20
164.97278282
 30
0.0
 11
-82.01097128
 21
164.96735869
 31
0.0
  0
LINE
  5
59F
100
AcDbEntity
  8
SLD-0
  6
CONTINUOUS
 62
       3
100
AcDbLine
 10
-82.01097128
 20
164.96735869
 30
0.0
 11
-82.0298321
 21
164.96230953
 31
0.0
  0
LINE
  5
5A0
100
AcDbEntity
  8
SLD-0
  6
CONTINUOUS
 62
       3
100
AcDbLine
 10
-82.0298321
 20
164.96230953
 30
0.0
 11
-82.04876202
 21
164.95763017
 31
0.0
  0
LINE
  5
5A1
100
AcDbEntity
  8
SLD-0
  6
CONTINUOUS
 62
       3
100
AcDbLine
 10
-82.04876202
 20
164.95763017
 30
0.0
 11
-82.06778372
 21
164.95332445
 31
0.0
  0
LINE
  5
5A2
100
AcDbEntity
  8
SLD-0
  6
CONTINUOUS
 62
       3
100
AcDbLine
 10
-82.06778372
 20
164.95332445
 30
0.0
 11
-82.08688816
 21
164.94939334
 31
0.0
  0
LINE
  5
5A3
100
AcDbEntity
  8
SLD-0
  6
CONTINUOUS
 62
       3
100
AcDbLine
 10
-82.08688816
 20
164.94939334
 30
0.0
 11
-82.10606117
 21
164.94583683
 31
0.0
  0
LINE
  5
5A4
100
AcDbEntity
  8
SLD-0
  6
CONTINUOUS
 62
       3
100
AcDbLine
 10
-82.10606117
 20
164.94583683
 30
0.0
 11
-82.12528856
 21
164.94265485
 31
0.0
  0
LINE
  5
5A5
100
AcDbEntity
  8
SLD-0
  6
CONTINUOUS
 62
       3
100
AcDbLine
 10
-82.12528856
 20
164.94265485
 30
0.0
 11
-82.14455612
 21
164.93984739
 31
0.0
  0
LINE
  5
5A6
100
AcDbEntity
  8
SLD-0
  6
CONTINUOUS
 62
       3
100
AcDbLine
 10
-82.14455612
 20
164.93984739
 30
0.0
 11
-82.16384968
 21
164.93741438
 31
0.0
  0
LINE
  5
5A7
100
AcDbEntity
  8
SLD-0
  6
CONTINUOUS
 62
       3
100
AcDbLine
 10
-82.16384968
 20
164.93741438
 30
0.0
 11
-82.18315504
 21
164.93535579
 31
0.0
  0
LINE
  5
5A8
100
AcDbEntity
  8
SLD-0
  6
CONTINUOUS
 62
       3
100
AcDbLine
 10
-82.18315504
 20
164.93535579
 30
0.0
 11
-82.20245801
 21
164.93367159
 31
0.0
  0
LINE
  5
5A9
100
AcDbEntity
  8
SLD-0
  6
CONTINUOUS
 62
       3
100
AcDbLine
 10
-82.20245801
 20
164.93367159
 30
0.0
 11
-82.2217444
 21
164.93236172
 31
0.0
  0
LINE
  5
5AA
100
AcDbEntity
  8
SLD-0
  6
CONTINUOUS
 62
       3
100
AcDbLine
 10
-82.2217444
 20
164.93236172
 30
0.0
 11
-82.24100002
 21
164.93142615
 31
0.0
  0
LINE
  5
5AB
100
AcDbEntity
  8
SLD-0
  6
CONTINUOUS
 62
       3
100
AcDbLine
 10
-82.24100002
 20
164.93142615
 30
0.0
 11
-82.26021068
 21
164.93086484
 31
0.0
  0
LINE
  5
5AC
100
AcDbEntity
  8
SLD-0
  6
CONTINUOUS
 62
       3
100
AcDbLine
 10
-82.26021068
 20
164.93086484
 30
0.0
 11
-82.27936219
 21
164.93067774
 31
0.0
  0
LINE
  5
5AD
100
AcDbEntity
  8
SLD-0
  6
CONTINUOUS
 62
       3
100
AcDbLine
 10
-100.94538759
 20
165.43067774
 30
0.0
 11
-100.93321895
 21
165.41016754
 31
0.0
  0
LINE
  5
5AE
100
AcDbEntity
  8
SLD-0
  6
CONTINUOUS
 62
       3
100
AcDbLine
 10
-100.93321895
 20
165.41016754
 30
0.0
 11
-100.92064843
 21
165.39008117
 31
0.0
  0
LINE
  5
5AF
100
AcDbEntity
  8
SLD-0
  6
CONTINUOUS
 62
       3
100
AcDbLine
 10
-100.92064843
 20
165.39008117
 30
0.0
 11
-100.90768785
 21
165.37041947
 31
0.0
  0
LINE
  5
5B0
100
AcDbEntity
  8
SLD-0
  6
CONTINUOUS
 62
       3
100
AcDbLine
 10
-100.90768785
 20
165.37041947
 30
0.0
 11
-100.89434902
 21
165.35118326
 31
0.0
  0
LINE
  5
5B1
100
AcDbEntity
  8
SLD-0
  6
CONTINUOUS
 62
       3
100
AcDbLine
 10
-100.89434902
 20
165.35118326
 30
0.0
 11
-100.88064376
 21
165.33237337
 31
0.0
  0
LINE
  5
5B2
100
AcDbEntity
  8
SLD-0
  6
CONTINUOUS
 62
       3
100
AcDbLine
 10
-100.88064376
 20
165.33237337
 30
0.0
 11
-100.86658389
 21
165.31399063
 31
0.0
  0
LINE
  5
5B3
100
AcDbEntity
  8
SLD-0
  6
CONTINUOUS
 62
       3
100
AcDbLine
 10
-100.86658389
 20
165.31399063
 30
0.0
 11
-100.8521812
 21
165.29603585
 31
0.0
  0
LINE
  5
5B4
100
AcDbEntity
  8
SLD-0
  6
CONTINUOUS
 62
       3
100
AcDbLine
 10
-100.8521812
 20
165.29603585
 30
0.0
 11
-100.83744753
 21
165.27850987
 31
0.0
  0
LINE
  5
5B5
100
AcDbEntity
  8
SLD-0
  6
CONTINUOUS
 62
       3
100
AcDbLine
 10
-100.83744753
 20
165.27850987
 30
0.0
 11
-100.82239468
 21
165.2614135
 31
0.0
  0
LINE
  5
5B6
100
AcDbEntity
  8
SLD-0
  6
CONTINUOUS
 62
       3
100
AcDbLine
 10
-100.82239468
 20
165.2614135
 30
0.0
 11
-100.80703447
 21
165.24474759
 31
0.0
  0
LINE
  5
5B7
100
AcDbEntity
  8
SLD-0
  6
CONTINUOUS
 62
       3
100
AcDbLine
 10
-100.80703447
 20
165.24474759
 30
0.0
 11
-100.79137871
 21
165.22851294
 31
0.0
  0
LINE
  5
5B8
100
AcDbEntity
  8
SLD-0
  6
CONTINUOUS
 62
       3
100
AcDbLine
 10
-100.79137871
 20
165.22851294
 30
0.0
 11
-100.77543922
 21
165.21271038
 31
0.0
  0
LINE
  5
5B9
100
AcDbEntity
  8
SLD-0
  6
CONTINUOUS
 62
       3
100
AcDbLine
 10
-100.77543922
 20
165.21271038
 30
0.0
 11
-100.75923671
 21
165.19734787
 31
0.0
  0
LINE
  5
5BA
100
AcDbEntity
  8
SLD-0
  6
CONTINUOUS
 62
       3
100
AcDbLine
 10
-100.75923671
 20
165.19734787
 30
0.0
 11
-100.74283404
 21
165.18246613
 31
0.0
  0
LINE
  5
5BB
100
AcDbEntity
  8
SLD-0
  6
CONTINUOUS
 62
       3
100
AcDbLine
 10
-100.74283404
 20
165.18246613
 30
0.0
 11
-100.72624574
 21
165.16806586
 31
0.0
  0
LINE
  5
5BC
100
AcDbEntity
  8
SLD-0
  6
CONTINUOUS
 62
       3
100
AcDbLine
 10
-100.72624574
 20
165.16806586
 30
0.0
 11
-100.70947721
 21
165.15414035
 31
0.0
  0
LINE
  5
5BD
100
AcDbEntity
  8
SLD-0
  6
CONTINUOUS
 62
       3
100
AcDbLine
 10
-100.70947721
 20
165.15414035
 30
0.0
 11
-100.69253381
 21
165.14068288
 31
0.0
  0
LINE
  5
5BE
100
AcDbEntity
  8
SLD-0
  6
CONTINUOUS
 62
       3
100
AcDbLine
 10
-100.69253381
 20
165.14068288
 30
0.0
 11
-100.67542093
 21
165.12768672
 31
0.0
  0
LINE
  5
5BF
100
AcDbEntity
  8
SLD-0
  6
CONTINUOUS
 62
       3
100
AcDbLine
 10
-100.67542093
 20
165.12768672
 30
0.0
 11
-100.65814394
 21
165.11514515
 31
0.0
  0
LINE
  5
5C0
100
AcDbEntity
  8
SLD-0
  6
CONTINUOUS
 62
       3
100
AcDbLine
 10
-100.65814394
 20
165.11514515
 30
0.0
 11
-100.64070822
 21
165.10305144
 31
0.0
  0
LINE
  5
5C1
100
AcDbEntity
  8
SLD-0
  6
CONTINUOUS
 62
       3
100
AcDbLine
 10
-100.64070822
 20
165.10305144
 30
0.0
 11
-100.62311915
 21
165.09139889
 31
0.0
  0
LINE
  5
5C2
100
AcDbEntity
  8
SLD-0
  6
CONTINUOUS
 62
       3
100
AcDbLine
 10
-100.62311915
 20
165.09139889
 30
0.0
 11
-100.6053821
 21
165.08018075
 31
0.0
  0
LINE
  5
5C3
100
AcDbEntity
  8
SLD-0
  6
CONTINUOUS
 62
       3
100
AcDbLine
 10
-100.6053821
 20
165.08018075
 30
0.0
 11
-100.58750246
 21
165.06939032
 31
0.0
  0
LINE
  5
5C4
100
AcDbEntity
  8
SLD-0
  6
CONTINUOUS
 62
       3
100
AcDbLine
 10
-100.58750246
 20
165.06939032
 30
0.0
 11
-100.5694856
 21
165.05902086
 31
0.0
  0
LINE
  5
5C5
100
AcDbEntity
  8
SLD-0
  6
CONTINUOUS
 62
       3
100
AcDbLine
 10
-100.5694856
 20
165.05902086
 30
0.0
 11
-100.5513369
 21
165.04906566
 31
0.0
  0
LINE
  5
5C6
100
AcDbEntity
  8
SLD-0
  6
CONTINUOUS
 62
       3
100
AcDbLine
 10
-100.5513369
 20
165.04906566
 30
0.0
 11
-100.53309947
 21
165.03953722
 31
0.0
  0
LINE
  5
5C7
100
AcDbEntity
  8
SLD-0
  6
CONTINUOUS
 62
       3
100
AcDbLine
 10
-100.53309947
 20
165.03953722
 30
0.0
 11
-100.51481195
 21
165.03044824
 31
0.0
  0
LINE
  5
5C8
100
AcDbEntity
  8
SLD-0
  6
CONTINUOUS
 62
       3
100
AcDbLine
 10
-100.51481195
 20
165.03044824
 30
0.0
 11
-100.49647302
 21
165.02179227
 31
0.0
  0
LINE
  5
5C9
100
AcDbEntity
  8
SLD-0
  6
CONTINUOUS
 62
       3
100
AcDbLine
 10
-100.49647302
 20
165.02179227
 30
0.0
 11
-100.47808138
 21
165.01356285
 31
0.0
  0
LINE
  5
5CA
100
AcDbEntity
  8
SLD-0
  6
CONTINUOUS
 62
       3
100
AcDbLine
 10
-100.47808138
 20
165.01356285
 30
0.0
 11
-100.4596357
 21
165.00575354
 31
0.0
  0
LINE
  5
5CB
100
AcDbEntity
  8
SLD-0
  6
CONTINUOUS
 62
       3
100
AcDbLine
 10
-100.4596357
 20
165.00575354
 30
0.0
 11
-100.44113467
 21
164.99835788
 31
0.0
  0
LINE
  5
5CC
100
AcDbEntity
  8
SLD-0
  6
CONTINUOUS
 62
       3
100
AcDbLine
 10
-100.44113467
 20
164.99835788
 30
0.0
 11
-100.42257697
 21
164.99136943
 31
0.0
  0
LINE
  5
5CD
100
AcDbEntity
  8
SLD-0
  6
CONTINUOUS
 62
       3
100
AcDbLine
 10
-100.42257697
 20
164.99136943
 30
0.0
 11
-100.40396127
 21
164.98478174
 31
0.0
  0
LINE
  5
5CE
100
AcDbEntity
  8
SLD-0
  6
CONTINUOUS
 62
       3
100
AcDbLine
 10
-100.40396127
 20
164.98478174
 30
0.0
 11
-100.38528627
 21
164.97858835
 31
0.0
  0
LINE
  5
5CF
100
AcDbEntity
  8
SLD-0
  6
CONTINUOUS
 62
       3
100
AcDbLine
 10
-100.38528627
 20
164.97858835
 30
0.0
 11
-100.36655065
 21
164.97278282
 31
0.0
  0
LINE
  5
5D0
100
AcDbEntity
  8
SLD-0
  6
CONTINUOUS
 62
       3
100
AcDbLine
 10
-100.36655065
 20
164.97278282
 30
0.0
 11
-100.34775309
 21
164.96735869
 31
0.0
  0
LINE
  5
5D1
100
AcDbEntity
  8
SLD-0
  6
CONTINUOUS
 62
       3
100
AcDbLine
 10
-100.34775309
 20
164.96735869
 30
0.0
 11
-100.32889227
 21
164.96230953
 31
0.0
  0
LINE
  5
5D2
100
AcDbEntity
  8
SLD-0
  6
CONTINUOUS
 62
       3
100
AcDbLine
 10
-100.32889227
 20
164.96230953
 30
0.0
 11
-100.30996235
 21
164.95763017
 31
0.0
  0
LINE
  5
5D3
100
AcDbEntity
  8
SLD-0
  6
CONTINUOUS
 62
       3
100
AcDbLine
 10
-100.30996235
 20
164.95763017
 30
0.0
 11
-100.29094065
 21
164.95332445
 31
0.0
  0
LINE
  5
5D4
100
AcDbEntity
  8
SLD-0
  6
CONTINUOUS
 62
       3
100
AcDbLine
 10
-100.29094065
 20
164.95332445
 30
0.0
 11
-100.27183621
 21
164.94939334
 31
0.0
  0
LINE
  5
5D5
100
AcDbEntity
  8
SLD-0
  6
CONTINUOUS
 62
       3
100
AcDbLine
 10
-100.27183621
 20
164.94939334
 30
0.0
 11
-100.2526632
 21
164.94583683
 31
0.0
  0
LINE
  5
5D6
100
AcDbEntity
  8
SLD-0
  6
CONTINUOUS
 62
       3
100
AcDbLine
 10
-100.2526632
 20
164.94583683
 30
0.0
 11
-100.23343581
 21
164.94265485
 31
0.0
  0
LINE
  5
5D7
100
AcDbEntity
  8
SLD-0
  6
CONTINUOUS
 62
       3
100
AcDbLine
 10
-100.23343581
 20
164.94265485
 30
0.0
 11
-100.21416825
 21
164.93984739
 31
0.0
  0
LINE
  5
5D8
100
AcDbEntity
  8
SLD-0
  6
CONTINUOUS
 62
       3
100
AcDbLine
 10
-100.21416825
 20
164.93984739
 30
0.0
 11
-100.19487469
 21
164.93741438
 31
0.0
  0
LINE
  5
5D9
100
AcDbEntity
  8
SLD-0
  6
CONTINUOUS
 62
       3
100
AcDbLine
 10
-100.19487469
 20
164.93741438
 30
0.0
 11
-100.17556933
 21
164.93535579
 31
0.0
  0
LINE
  5
5DA
100
AcDbEntity
  8
SLD-0
  6
CONTINUOUS
 62
       3
100
AcDbLine
 10
-100.17556933
 20
164.93535579
 30
0.0
 11
-100.15626636
 21
164.93367159
 31
0.0
  0
LINE
  5
5DB
100
AcDbEntity
  8
SLD-0
  6
CONTINUOUS
 62
       3
100
AcDbLine
 10
-100.15626636
 20
164.93367159
 30
0.0
 11
-100.13697997
 21
164.93236172
 31
0.0
  0
LINE
  5
5DC
100
AcDbEntity
  8
SLD-0
  6
CONTINUOUS
 62
       3
100
AcDbLine
 10
-100.13697997
 20
164.93236172
 30
0.0
 11
-100.11772435
 21
164.93142615
 31
0.0
  0
LINE
  5
5DD
100
AcDbEntity
  8
SLD-0
  6
CONTINUOUS
 62
       3
100
AcDbLine
 10
-100.11772435
 20
164.93142615
 30
0.0
 11
-100.09851369
 21
164.93086484
 31
0.0
  0
LINE
  5
5DE
100
AcDbEntity
  8
SLD-0
  6
CONTINUOUS
 62
       3
100
AcDbLine
 10
-100.09851369
 20
164.93086484
 30
0.0
 11
-100.07936219
 21
164.93067774
 31
0.0
  0
CIRCLE
  5
5DF
100
AcDbEntity
  8
SLD-0
  6
CONTINUOUS
 62
       3
100
AcDbCircle
 10
-57.77936219
 20
150.93067774
 30
0.0
 40
2.8
  0
LINE
  5
5E0
100
AcDbEntity
  8
SLD-0
  6
CONTINUOUS
 62
       3
100
AcDbLine
 10
-59.75926117
 20
152.91057673
 30
0.0
 11
-55.7994632
 21
148.95077876
 31
0.0
  0
LINE
  5
5E1
100
AcDbEntity
  8
SLD-0
  6
CONTINUOUS
 62
       3
100
AcDbLine
 10
-77.14538759
 20
165.43067774
 30
0.0
 11
-77.13321895
 21
165.41016754
 31
0.0
  0
LINE
  5
5E2
100
AcDbEntity
  8
SLD-0
  6
CONTINUOUS
 62
       3
100
AcDbLine
 10
-77.13321895
 20
165.41016754
 30
0.0
 11
-77.12064843
 21
165.39008117
 31
0.0
  0
LINE
  5
5E3
100
AcDbEntity
  8
SLD-0
  6
CONTINUOUS
 62
       3
100
AcDbLine
 10
-77.12064843
 20
165.39008117
 30
0.0
 11
-77.10768785
 21
165.37041947
 31
0.0
  0
LINE
  5
5E4
100
AcDbEntity
  8
SLD-0
  6
CONTINUOUS
 62
       3
100
AcDbLine
 10
-77.10768785
 20
165.37041947
 30
0.0
 11
-77.09434902
 21
165.35118326
 31
0.0
  0
LINE
  5
5E5
100
AcDbEntity
  8
SLD-0
  6
CONTINUOUS
 62
       3
100
AcDbLine
 10
-77.09434902
 20
165.35118326
 30
0.0
 11
-77.08064376
 21
165.33237337
 31
0.0
  0
LINE
  5
5E6
100
AcDbEntity
  8
SLD-0
  6
CONTINUOUS
 62
       3
100
AcDbLine
 10
-77.08064376
 20
165.33237337
 30
0.0
 11
-77.06658389
 21
165.31399063
 31
0.0
  0
LINE
  5
5E7
100
AcDbEntity
  8
SLD-0
  6
CONTINUOUS
 62
       3
100
AcDbLine
 10
-77.06658389
 20
165.31399063
 30
0.0
 11
-77.0521812
 21
165.29603585
 31
0.0
  0
LINE
  5
5E8
100
AcDbEntity
  8
SLD-0
  6
CONTINUOUS
 62
       3
100
AcDbLine
 10
-77.0521812
 20
165.29603585
 30
0.0
 11
-77.03744753
 21
165.27850987
 31
0.0
  0
LINE
  5
5E9
100
AcDbEntity
  8
SLD-0
  6
CONTINUOUS
 62
       3
100
AcDbLine
 10
-77.03744753
 20
165.27850987
 30
0.0
 11
-77.02239468
 21
165.2614135
 31
0.0
  0
LINE
  5
5EA
100
AcDbEntity
  8
SLD-0
  6
CONTINUOUS
 62
       3
100
AcDbLine
 10
-77.02239468
 20
165.2614135
 30
0.0
 11
-77.00703447
 21
165.24474759
 31
0.0
  0
LINE
  5
5EB
100
AcDbEntity
  8
SLD-0
  6
CONTINUOUS
 62
       3
100
AcDbLine
 10
-77.00703447
 20
165.24474759
 30
0.0
 11
-76.99137871
 21
165.22851294
 31
0.0
  0
LINE
  5
5EC
100
AcDbEntity
  8
SLD-0
  6
CONTINUOUS
 62
       3
100
AcDbLine
 10
-76.99137871
 20
165.22851294
 30
0.0
 11
-76.97543922
 21
165.21271038
 31
0.0
  0
LINE
  5
5ED
100
AcDbEntity
  8
SLD-0
  6
CONTINUOUS
 62
       3
100
AcDbLine
 10
-76.97543922
 20
165.21271038
 30
0.0
 11
-76.95923671
 21
165.19734787
 31
0.0
  0
LINE
  5
5EE
100
AcDbEntity
  8
SLD-0
  6
CONTINUOUS
 62
       3
100
AcDbLine
 10
-76.95923671
 20
165.19734787
 30
0.0
 11
-76.94283404
 21
165.18246613
 31
0.0
  0
LINE
  5
5EF
100
AcDbEntity
  8
SLD-0
  6
CONTINUOUS
 62
       3
100
AcDbLine
 10
-76.94283404
 20
165.18246613
 30
0.0
 11
-76.92624574
 21
165.16806586
 31
0.0
  0
LINE
  5
5F0
100
AcDbEntity
  8
SLD-0
  6
CONTINUOUS
 62
       3
100
AcDbLine
 10
-76.92624574
 20
165.16806586
 30
0.0
 11
-76.90947721
 21
165.15414035
 31
0.0
  0
LINE
  5
5F1
100
AcDbEntity
  8
SLD-0
  6
CONTINUOUS
 62
       3
100
AcDbLine
 10
-76.90947721
 20
165.15414035
 30
0.0
 11
-76.89253381
 21
165.14068288
 31
0.0
  0
LINE
  5
5F2
100
AcDbEntity
  8
SLD-0
  6
CONTINUOUS
 62
       3
100
AcDbLine
 10
-76.89253381
 20
165.14068288
 30
0.0
 11
-76.87542093
 21
165.12768672
 31
0.0
  0
LINE
  5
5F3
100
AcDbEntity
  8
SLD-0
  6
CONTINUOUS
 62
       3
100
AcDbLine
 10
-76.87542093
 20
165.12768672
 30
0.0
 11
-76.85814394
 21
165.11514515
 31
0.0
  0
LINE
  5
5F4
100
AcDbEntity
  8
SLD-0
  6
CONTINUOUS
 62
       3
100
AcDbLine
 10
-76.85814394
 20
165.11514515
 30
0.0
 11
-76.84070822
 21
165.10305144
 31
0.0
  0
LINE
  5
5F5
100
AcDbEntity
  8
SLD-0
  6
CONTINUOUS
 62
       3
100
AcDbLine
 10
-76.84070822
 20
165.10305144
 30
0.0
 11
-76.82311915
 21
165.09139889
 31
0.0
  0
LINE
  5
5F6
100
AcDbEntity
  8
SLD-0
  6
CONTINUOUS
 62
       3
100
AcDbLine
 10
-76.82311915
 20
165.09139889
 30
0.0
 11
-76.8053821
 21
165.08018075
 31
0.0
  0
LINE
  5
5F7
100
AcDbEntity
  8
SLD-0
  6
CONTINUOUS
 62
       3
100
AcDbLine
 10
-76.8053821
 20
165.08018075
 30
0.0
 11
-76.78750246
 21
165.06939032
 31
0.0
  0
LINE
  5
5F8
100
AcDbEntity
  8
SLD-0
  6
CONTINUOUS
 62
       3
100
AcDbLine
 10
-76.78750246
 20
165.06939032
 30
0.0
 11
-76.7694856
 21
165.05902086
 31
0.0
  0
LINE
  5
5F9
100
AcDbEntity
  8
SLD-0
  6
CONTINUOUS
 62
       3
100
AcDbLine
 10
-76.7694856
 20
165.05902086
 30
0.0
 11
-76.7513369
 21
165.04906566
 31
0.0
  0
LINE
  5
5FA
100
AcDbEntity
  8
SLD-0
  6
CONTINUOUS
 62
       3
100
AcDbLine
 10
-76.7513369
 20
165.04906566
 30
0.0
 11
-76.73309947
 21
165.03953722
 31
0.0
  0
LINE
  5
5FB
100
AcDbEntity
  8
SLD-0
  6
CONTINUOUS
 62
       3
100
AcDbLine
 10
-76.73309947
 20
165.03953722
 30
0.0
 11
-76.71481195
 21
165.03044824
 31
0.0
  0
LINE
  5
5FC
100
AcDbEntity
  8
SLD-0
  6
CONTINUOUS
 62
       3
100
AcDbLine
 10
-76.71481195
 20
165.03044824
 30
0.0
 11
-76.69647302
 21
165.02179227
 31
0.0
  0
LINE
  5
5FD
100
AcDbEntity
  8
SLD-0
  6
CONTINUOUS
 62
       3
100
AcDbLine
 10
-76.69647302
 20
165.02179227
 30
0.0
 11
-76.67808138
 21
165.01356285
 31
0.0
  0
LINE
  5
5FE
100
AcDbEntity
  8
SLD-0
  6
CONTINUOUS
 62
       3
100
AcDbLine
 10
-76.67808138
 20
165.01356285
 30
0.0
 11
-76.6596357
 21
165.00575354
 31
0.0
  0
LINE
  5
5FF
100
AcDbEntity
  8
SLD-0
  6
CONTINUOUS
 62
       3
100
AcDbLine
 10
-76.6596357
 20
165.00575354
 30
0.0
 11
-76.64113467
 21
164.99835788
 31
0.0
  0
LINE
  5
600
100
AcDbEntity
  8
SLD-0
  6
CONTINUOUS
 62
       3
100
AcDbLine
 10
-76.64113467
 20
164.99835788
 30
0.0
 11
-76.62257697
 21
164.99136943
 31
0.0
  0
LINE
  5
601
100
AcDbEntity
  8
SLD-0
  6
CONTINUOUS
 62
       3
100
AcDbLine
 10
-76.62257697
 20
164.99136943
 30
0.0
 11
-76.60396127
 21
164.98478174
 31
0.0
  0
LINE
  5
602
100
AcDbEntity
  8
SLD-0
  6
CONTINUOUS
 62
       3
100
AcDbLine
 10
-76.60396127
 20
164.98478174
 30
0.0
 11
-76.58528627
 21
164.97858835
 31
0.0
  0
LINE
  5
603
100
AcDbEntity
  8
SLD-0
  6
CONTINUOUS
 62
       3
100
AcDbLine
 10
-76.58528627
 20
164.97858835
 30
0.0
 11
-76.56655065
 21
164.97278282
 31
0.0
  0
LINE
  5
604
100
AcDbEntity
  8
SLD-0
  6
CONTINUOUS
 62
       3
100
AcDbLine
 10
-76.56655065
 20
164.97278282
 30
0.0
 11
-76.54775309
 21
164.96735869
 31
0.0
  0
LINE
  5
605
100
AcDbEntity
  8
SLD-0
  6
CONTINUOUS
 62
       3
100
AcDbLine
 10
-76.54775309
 20
164.96735869
 30
0.0
 11
-76.52889227
 21
164.96230953
 31
0.0
  0
LINE
  5
606
100
AcDbEntity
  8
SLD-0
  6
CONTINUOUS
 62
       3
100
AcDbLine
 10
-76.52889227
 20
164.96230953
 30
0.0
 11
-76.50996235
 21
164.95763017
 31
0.0
  0
LINE
  5
607
100
AcDbEntity
  8
SLD-0
  6
CONTINUOUS
 62
       3
100
AcDbLine
 10
-76.50996235
 20
164.95763017
 30
0.0
 11
-76.49094065
 21
164.95332445
 31
0.0
  0
LINE
  5
608
100
AcDbEntity
  8
SLD-0
  6
CONTINUOUS
 62
       3
100
AcDbLine
 10
-76.49094065
 20
164.95332445
 30
0.0
 11
-76.47183621
 21
164.94939334
 31
0.0
  0
LINE
  5
609
100
AcDbEntity
  8
SLD-0
  6
CONTINUOUS
 62
       3
100
AcDbLine
 10
-76.47183621
 20
164.94939334
 30
0.0
 11
-76.4526632
 21
164.94583683
 31
0.0
  0
LINE
  5
60A
100
AcDbEntity
  8
SLD-0
  6
CONTINUOUS
 62
       3
100
AcDbLine
 10
-76.4526632
 20
164.94583683
 30
0.0
 11
-76.43343581
 21
164.94265485
 31
0.0
  0
LINE
  5
60B
100
AcDbEntity
  8
SLD-0
  6
CONTINUOUS
 62
       3
100
AcDbLine
 10
-76.43343581
 20
164.94265485
 30
0.0
 11
-76.41416825
 21
164.93984739
 31
0.0
  0
LINE
  5
60C
100
AcDbEntity
  8
SLD-0
  6
CONTINUOUS
 62
       3
100
AcDbLine
 10
-76.41416825
 20
164.93984739
 30
0.0
 11
-76.39487469
 21
164.93741438
 31
0.0
  0
LINE
  5
60D
100
AcDbEntity
  8
SLD-0
  6
CONTINUOUS
 62
       3
100
AcDbLine
 10
-76.39487469
 20
164.93741438
 30
0.0
 11
-76.37556933
 21
164.93535579
 31
0.0
  0
LINE
  5
60E
100
AcDbEntity
  8
SLD-0
  6
CONTINUOUS
 62
       3
100
AcDbLine
 10
-76.37556933
 20
164.93535579
 30
0.0
 11
-76.35626636
 21
164.93367159
 31
0.0
  0
LINE
  5
60F
100
AcDbEntity
  8
SLD-0
  6
CONTINUOUS
 62
       3
100
AcDbLine
 10
-76.35626636
 20
164.93367159
 30
0.0
 11
-76.33697997
 21
164.93236172
 31
0.0
  0
LINE
  5
610
100
AcDbEntity
  8
SLD-0
  6
CONTINUOUS
 62
       3
100
AcDbLine
 10
-76.33697997
 20
164.93236172
 30
0.0
 11
-76.31772435
 21
164.93142615
 31
0.0
  0
LINE
  5
611
100
AcDbEntity
  8
SLD-0
  6
CONTINUOUS
 62
       3
100
AcDbLine
 10
-76.31772435
 20
164.93142615
 30
0.0
 11
-76.29851369
 21
164.93086484
 31
0.0
  0
LINE
  5
612
100
AcDbEntity
  8
SLD-0
  6
CONTINUOUS
 62
       3
100
AcDbLine
 10
-76.29851369
 20
164.93086484
 30
0.0
 11
-76.27936219
 21
164.93067774
 31
0.0
  0
LINE
  5
613
100
AcDbEntity
  8
SLD-0
  6
CONTINUOUS
 62
       3
100
AcDbLine
 10
-57.61333678
 20
165.43067774
 30
0.0
 11
-57.62550543
 21
165.41016754
 31
0.0
  0
LINE
  5
614
100
AcDbEntity
  8
SLD-0
  6
CONTINUOUS
 62
       3
100
AcDbLine
 10
-57.62550543
 20
165.41016754
 30
0.0
 11
-57.63807594
 21
165.39008117
 31
0.0
  0
LINE
  5
615
100
AcDbEntity
  8
SLD-0
  6
CONTINUOUS
 62
       3
100
AcDbLine
 10
-57.63807594
 20
165.39008117
 30
0.0
 11
-57.65103652
 21
165.37041947
 31
0.0
  0
LINE
  5
616
100
AcDbEntity
  8
SLD-0
  6
CONTINUOUS
 62
       3
100
AcDbLine
 10
-57.65103652
 20
165.37041947
 30
0.0
 11
-57.66437535
 21
165.35118326
 31
0.0
  0
LINE
  5
617
100
AcDbEntity
  8
SLD-0
  6
CONTINUOUS
 62
       3
100
AcDbLine
 10
-57.66437535
 20
165.35118326
 30
0.0
 11
-57.67808061
 21
165.33237337
 31
0.0
  0
LINE
  5
618
100
AcDbEntity
  8
SLD-0
  6
CONTINUOUS
 62
       3
100
AcDbLine
 10
-57.67808061
 20
165.33237337
 30
0.0
 11
-57.69214049
 21
165.31399063
 31
0.0
  0
LINE
  5
619
100
AcDbEntity
  8
SLD-0
  6
CONTINUOUS
 62
       3
100
AcDbLine
 10
-57.69214049
 20
165.31399063
 30
0.0
 11
-57.70654317
 21
165.29603585
 31
0.0
  0
LINE
  5
61A
100
AcDbEntity
  8
SLD-0
  6
CONTINUOUS
 62
       3
100
AcDbLine
 10
-57.70654317
 20
165.29603585
 30
0.0
 11
-57.72127684
 21
165.27850987
 31
0.0
  0
LINE
  5
61B
100
AcDbEntity
  8
SLD-0
  6
CONTINUOUS
 62
       3
100
AcDbLine
 10
-57.72127684
 20
165.27850987
 30
0.0
 11
-57.73632969
 21
165.2614135
 31
0.0
  0
LINE
  5
61C
100
AcDbEntity
  8
SLD-0
  6
CONTINUOUS
 62
       3
100
AcDbLine
 10
-57.73632969
 20
165.2614135
 30
0.0
 11
-57.7516899
 21
165.24474759
 31
0.0
  0
LINE
  5
61D
100
AcDbEntity
  8
SLD-0
  6
CONTINUOUS
 62
       3
100
AcDbLine
 10
-57.7516899
 20
165.24474759
 30
0.0
 11
-57.76734566
 21
165.22851294
 31
0.0
  0
LINE
  5
61E
100
AcDbEntity
  8
SLD-0
  6
CONTINUOUS
 62
       3
100
AcDbLine
 10
-57.76734566
 20
165.22851294
 30
0.0
 11
-57.78328515
 21
165.21271038
 31
0.0
  0
LINE
  5
61F
100
AcDbEntity
  8
SLD-0
  6
CONTINUOUS
 62
       3
100
AcDbLine
 10
-57.78328515
 20
165.21271038
 30
0.0
 11
-57.79948766
 21
165.19734787
 31
0.0
  0
LINE
  5
620
100
AcDbEntity
  8
SLD-0
  6
CONTINUOUS
 62
       3
100
AcDbLine
 10
-57.79948766
 20
165.19734787
 30
0.0
 11
-57.81589034
 21
165.18246613
 31
0.0
  0
LINE
  5
621
100
AcDbEntity
  8
SLD-0
  6
CONTINUOUS
 62
       3
100
AcDbLine
 10
-57.81589034
 20
165.18246613
 30
0.0
 11
-57.83247863
 21
165.16806586
 31
0.0
  0
LINE
  5
622
100
AcDbEntity
  8
SLD-0
  6
CONTINUOUS
 62
       3
100
AcDbLine
 10
-57.83247863
 20
165.16806586
 30
0.0
 11
-57.84924717
 21
165.15414035
 31
0.0
  0
LINE
  5
623
100
AcDbEntity
  8
SLD-0
  6
CONTINUOUS
 62
       3
100
AcDbLine
 10
-57.84924717
 20
165.15414035
 30
0.0
 11
-57.86619056
 21
165.14068288
 31
0.0
  0
LINE
  5
624
100
AcDbEntity
  8
SLD-0
  6
CONTINUOUS
 62
       3
100
AcDbLine
 10
-57.86619056
 20
165.14068288
 30
0.0
 11
-57.88330344
 21
165.12768672
 31
0.0
  0
LINE
  5
625
100
AcDbEntity
  8
SLD-0
  6
CONTINUOUS
 62
       3
100
AcDbLine
 10
-57.88330344
 20
165.12768672
 30
0.0
 11
-57.90058043
 21
165.11514515
 31
0.0
  0
LINE
  5
626
100
AcDbEntity
  8
SLD-0
  6
CONTINUOUS
 62
       3
100
AcDbLine
 10
-57.90058043
 20
165.11514515
 30
0.0
 11
-57.91801615
 21
165.10305144
 31
0.0
  0
LINE
  5
627
100
AcDbEntity
  8
SLD-0
  6
CONTINUOUS
 62
       3
100
AcDbLine
 10
-57.91801615
 20
165.10305144
 30
0.0
 11
-57.93560522
 21
165.09139889
 31
0.0
  0
LINE
  5
628
100
AcDbEntity
  8
SLD-0
  6
CONTINUOUS
 62
       3
100
AcDbLine
 10
-57.93560522
 20
165.09139889
 30
0.0
 11
-57.95334227
 21
165.08018075
 31
0.0
  0
LINE
  5
629
100
AcDbEntity
  8
SLD-0
  6
CONTINUOUS
 62
       3
100
AcDbLine
 10
-57.95334227
 20
165.08018075
 30
0.0
 11
-57.97122191
 21
165.06939032
 31
0.0
  0
LINE
  5
62A
100
AcDbEntity
  8
SLD-0
  6
CONTINUOUS
 62
       3
100
AcDbLine
 10
-57.97122191
 20
165.06939032
 30
0.0
 11
-57.98923877
 21
165.05902086
 31
0.0
  0
LINE
  5
62B
100
AcDbEntity
  8
SLD-0
  6
CONTINUOUS
 62
       3
100
AcDbLine
 10
-57.98923877
 20
165.05902086
 30
0.0
 11
-58.00738747
 21
165.04906566
 31
0.0
  0
LINE
  5
62C
100
AcDbEntity
  8
SLD-0
  6
CONTINUOUS
 62
       3
100
AcDbLine
 10
-58.00738747
 20
165.04906566
 30
0.0
 11
-58.02562491
 21
165.03953722
 31
0.0
  0
LINE
  5
62D
100
AcDbEntity
  8
SLD-0
  6
CONTINUOUS
 62
       3
100
AcDbLine
 10
-58.02562491
 20
165.03953722
 30
0.0
 11
-58.04391243
 21
165.03044824
 31
0.0
  0
LINE
  5
62E
100
AcDbEntity
  8
SLD-0
  6
CONTINUOUS
 62
       3
100
AcDbLine
 10
-58.04391243
 20
165.03044824
 30
0.0
 11
-58.06225135
 21
165.02179227
 31
0.0
  0
LINE
  5
62F
100
AcDbEntity
  8
SLD-0
  6
CONTINUOUS
 62
       3
100
AcDbLine
 10
-58.06225135
 20
165.02179227
 30
0.0
 11
-58.08064299
 21
165.01356285
 31
0.0
  0
LINE
  5
630
100
AcDbEntity
  8
SLD-0
  6
CONTINUOUS
 62
       3
100
AcDbLine
 10
-58.08064299
 20
165.01356285
 30
0.0
 11
-58.09908867
 21
165.00575354
 31
0.0
  0
LINE
  5
631
100
AcDbEntity
  8
SLD-0
  6
CONTINUOUS
 62
       3
100
AcDbLine
 10
-58.09908867
 20
165.00575354
 30
0.0
 11
-58.1175897
 21
164.99835788
 31
0.0
  0
LINE
  5
632
100
AcDbEntity
  8
SLD-0
  6
CONTINUOUS
 62
       3
100
AcDbLine
 10
-58.1175897
 20
164.99835788
 30
0.0
 11
-58.13614741
 21
164.99136943
 31
0.0
  0
LINE
  5
633
100
AcDbEntity
  8
SLD-0
  6
CONTINUOUS
 62
       3
100
AcDbLine
 10
-58.13614741
 20
164.99136943
 30
0.0
 11
-58.1547631
 21
164.98478174
 31
0.0
  0
LINE
  5
634
100
AcDbEntity
  8
SLD-0
  6
CONTINUOUS
 62
       3
100
AcDbLine
 10
-58.1547631
 20
164.98478174
 30
0.0
 11
-58.1734381
 21
164.97858835
 31
0.0
  0
LINE
  5
635
100
AcDbEntity
  8
SLD-0
  6
CONTINUOUS
 62
       3
100
AcDbLine
 10
-58.1734381
 20
164.97858835
 30
0.0
 11
-58.19217372
 21
164.97278282
 31
0.0
  0
LINE
  5
636
100
AcDbEntity
  8
SLD-0
  6
CONTINUOUS
 62
       3
100
AcDbLine
 10
-58.19217372
 20
164.97278282
 30
0.0
 11
-58.21097128
 21
164.96735869
 31
0.0
  0
LINE
  5
637
100
AcDbEntity
  8
SLD-0
  6
CONTINUOUS
 62
       3
100
AcDbLine
 10
-58.21097128
 20
164.96735869
 30
0.0
 11
-58.2298321
 21
164.96230953
 31
0.0
  0
LINE
  5
638
100
AcDbEntity
  8
SLD-0
  6
CONTINUOUS
 62
       3
100
AcDbLine
 10
-58.2298321
 20
164.96230953
 30
0.0
 11
-58.24876202
 21
164.95763017
 31
0.0
  0
LINE
  5
639
100
AcDbEntity
  8
SLD-0
  6
CONTINUOUS
 62
       3
100
AcDbLine
 10
-58.24876202
 20
164.95763017
 30
0.0
 11
-58.26778372
 21
164.95332445
 31
0.0
  0
LINE
  5
63A
100
AcDbEntity
  8
SLD-0
  6
CONTINUOUS
 62
       3
100
AcDbLine
 10
-58.26778372
 20
164.95332445
 30
0.0
 11
-58.28688816
 21
164.94939334
 31
0.0
  0
LINE
  5
63B
100
AcDbEntity
  8
SLD-0
  6
CONTINUOUS
 62
       3
100
AcDbLine
 10
-58.28688816
 20
164.94939334
 30
0.0
 11
-58.30606117
 21
164.94583683
 31
0.0
  0
LINE
  5
63C
100
AcDbEntity
  8
SLD-0
  6
CONTINUOUS
 62
       3
100
AcDbLine
 10
-58.30606117
 20
164.94583683
 30
0.0
 11
-58.32528856
 21
164.94265485
 31
0.0
  0
LINE
  5
63D
100
AcDbEntity
  8
SLD-0
  6
CONTINUOUS
 62
       3
100
AcDbLine
 10
-58.32528856
 20
164.94265485
 30
0.0
 11
-58.34455612
 21
164.93984739
 31
0.0
  0
LINE
  5
63E
100
AcDbEntity
  8
SLD-0
  6
CONTINUOUS
 62
       3
100
AcDbLine
 10
-58.34455612
 20
164.93984739
 30
0.0
 11
-58.36384968
 21
164.93741438
 31
0.0
  0
LINE
  5
63F
100
AcDbEntity
  8
SLD-0
  6
CONTINUOUS
 62
       3
100
AcDbLine
 10
-58.36384968
 20
164.93741438
 30
0.0
 11
-58.38315504
 21
164.93535579
 31
0.0
  0
LINE
  5
640
100
AcDbEntity
  8
SLD-0
  6
CONTINUOUS
 62
       3
100
AcDbLine
 10
-58.38315504
 20
164.93535579
 30
0.0
 11
-58.40245801
 21
164.93367159
 31
0.0
  0
LINE
  5
641
100
AcDbEntity
  8
SLD-0
  6
CONTINUOUS
 62
       3
100
AcDbLine
 10
-58.40245801
 20
164.93367159
 30
0.0
 11
-58.4217444
 21
164.93236172
 31
0.0
  0
LINE
  5
642
100
AcDbEntity
  8
SLD-0
  6
CONTINUOUS
 62
       3
100
AcDbLine
 10
-58.4217444
 20
164.93236172
 30
0.0
 11
-58.44100002
 21
164.93142615
 31
0.0
  0
LINE
  5
643
100
AcDbEntity
  8
SLD-0
  6
CONTINUOUS
 62
       3
100
AcDbLine
 10
-58.44100002
 20
164.93142615
 30
0.0
 11
-58.46021068
 21
164.93086484
 31
0.0
  0
LINE
  5
644
100
AcDbEntity
  8
SLD-0
  6
CONTINUOUS
 62
       3
100
AcDbLine
 10
-58.46021068
 20
164.93086484
 30
0.0
 11
-58.47936219
 21
164.93067774
 31
0.0
  0
CIRCLE
  5
645
100
AcDbEntity
  8
SLD-0
  6
CONTINUOUS
 62
       3
100
AcDbCircle
 10
-100.77936219
 20
57.93067774
 30
0.0
 40
2.8
  0
LINE
  5
646
100
AcDbEntity
  8
SLD-0
  6
CONTINUOUS
 62
       3
100
AcDbLine
 10
-102.75926117
 20
59.91057673
 30
0.0
 11
-98.7994632
 21
55.95077876
 31
0.0
  0
CIRCLE
  5
647
100
AcDbEntity
  8
SLD-0
  6
CONTINUOUS
 62
       3
100
AcDbCircle
 10
-100.77936219
 20
150.93067774
 30
0.0
 40
2.8
  0
LINE
  5
648
100
AcDbEntity
  8
SLD-0
  6
CONTINUOUS
 62
       3
100
AcDbLine
 10
-102.75926117
 20
152.91057673
 30
0.0
 11
-98.7994632
 21
148.95077876
 31
0.0
  0
CIRCLE
  5
649
100
AcDbEntity
  8
SLD-0
  6
CONTINUOUS
 62
       3
100
AcDbCircle
 10
-57.77936219
 20
57.93067774
 30
0.0
 40
2.8
  0
LINE
  5
64A
100
AcDbEntity
  8
SLD-0
  6
CONTINUOUS
 62
       3
100
AcDbLine
 10
-59.75926117
 20
59.91057673
 30
0.0
 11
-55.7994632
 21
55.95077876
 31
0.0
  0
LINE
  5
64B
100
AcDbEntity
  8
SLD-0
  6
CENTER
 62
       3
100
AcDbLine
 10
-137.08066978
 20
-113.63614111
 30
0.0
 11
-71.03701468
 21
-113.63614111
 31
0.0
  0
LINE
  5
64C
100
AcDbEntity
  8
SLD-0
  6
CENTER
 62
       3
100
AcDbLine
 10
22.02754923
 20
-113.63614111
 30
0.0
 11
64.03284306
 21
-113.63614111
 31
0.0
  0
LINE
  5
64D
100
AcDbEntity
  8
SLD-0
  6
CENTER
 62
       3
100
AcDbLine
 10
-81.08066978
 20
-113.63614111
 30
0.0
 11
-15.03701468
 21
-113.63614111
 31
0.0
  0
LINE
  5
64E
100
AcDbEntity
  8
SLD-0
  6
CENTER
 62
       3
100
AcDbLine
 10
-77.46706147
 20
-38.04408905
 30
0.0
 11
-77.46706147
 21
-186.39962201
 31
0.0
  0
LINE
  5
64F
100
AcDbEntity
  8
SLD-0
  6
CENTER
 62
       3
100
AcDbLine
 10
-79.27936132
 20
174.94909227
 30
0.0
 11
-79.27936132
 21
34.33586359
 31
0.0
  0
LINE
  5
650
100
AcDbEntity
  8
SLD-0
  6
CENTER
 62
       3
100
AcDbLine
 10
-110.89296963
 20
106.93068251
 30
0.0
 11
-44.84931453
 21
106.93068251
 31
0.0
  0
LINE
  5
651
100
AcDbEntity
  8
SLD-0
  6
CENTER
 62
       3
100
AcDbLine
 10
9.44503142
 20
106.93068251
 30
0.0
 11
51.45032525
 21
106.93068251
 31
0.0
  0
TEXT
  5
652
100
AcDbEntity
  8
SLD-0
 62
       3
100
AcDbText
 10
136.62470291
 20
-184.57617936
 30
0.0
 40
5.0
  1
001
 72
       5
 11
151.62470291
 21
-184.57617936
 31
0.0
100
AcDbText
  0
TEXT
  5
653
100
AcDbEntity
  8
0
 62
       3
100
AcDbText
 10
-144.12470291
 20
181.39962201
 30
0.0
 40
5.0
  1
BS02
 41
0.8
 72
       5
 11
-128.12470291
 21
181.39962201
 31
0.0
100
AcDbText
  0
TEXT
  5
654
100
AcDbEntity
  8
0
 62
       3
100
AcDbText
 10
-139.82425042
 20
-33.62300243
 30
0.0
 40
5.0
  1
BS04
 41
0.8
 72
       5
 11
-123.82425042
 21
-33.62300243
 31
0.0
100
AcDbText
  0
TEXT
  5
655
100
AcDbEntity
  8
0
 62
       3
100
AcDbText
 10
-140.28054068
 20
-40.23554763
 30
0.0
 40
5.0
  1
BSW04
 41
0.8
 72
       5
 11
-120.28054068
 21
-40.23554763
 31
0.0
100
AcDbText
  0
ENDSEC
  0
SECTION
  2
OBJECTS
  0
DICTIONARY
  5
19
100
AcDbDictionary
  3
ACAD_GROUP
350
1A
  3
ACAD_MLINESTYLE
350
1B
  0
DICTIONARY
  5
1A
102
{ACAD_REACTORS
330
19
102
}
100
AcDbDictionary
  0
DICTIONARY
  5
1B
102
{ACAD_REACTORS
330
19
102
}
100
AcDbDictionary
  3
STANDARD
350
1C
  0
MLINESTYLE
  5
1C
102
{ACAD_REACTORS
330
1B
102
}
100
AcDbMlineStyle
  2
STANDARD
 70
       0
  3

 62
       0
 51
90.0
 52
90.0
 71
       2
 49
0.5
 62
     256
  6
BYLAYER
 49
-0.5
 62
     256
  6
BYLAYER
  0
ENDSEC
  0
EOF
