  0
SECTION
  2
HEADER
  9
$ACADVER
  1
AC1014
  9
$ACADMAINTVER
 70
     9
  9
$DWGCODEPAGE
  3
ANSI_932
  9
$INSBASE
 10
0.0
 20
0.0
 30
0.0
  9
$EXTMIN
 10
-334.779270765
 20
-252.6411232512
 30
0.0
  9
$EXTMAX
 10
328.719270765
 20
252.6411232512
 30
0.0
  9
$LIMMIN
 10
-148.625
 20
-105.125
  9
$LIMMAX
 10
148.625
 20
105.125
  9
$ORTHOMODE
 70
     0
  9
$REGENMODE
 70
     1
  9
$FILLMODE
 70
     1
  9
$QTEXTMODE
 70
     0
  9
$MIRRTEXT
 70
     1
  9
$DRAGMODE
 70
     2
  9
$LTSCALE
 40
0.0625
  9
$OSMODE
 70
    37
  9
$ATTMODE
 70
     1
  9
$TEXTSIZE
 40
0.2
  9
$TRACEWID
 40
0.05
  9
$TEXTSTYLE
  7
STANDARD
  9
$CLAYER
  8
0
  9
$CELTYPE
  6
BYLAYER
  9
$CECOLOR
 62
   256
  9
$CELTSCALE
 40
1.0
  9
$DELOBJ
 70
     1
  9
$DISPSILH
 70
     0
  9
$DIMSCALE
 40
1.0
  9
$DIMASZ
 40
0.7500004768371582
  9
$DIMEXO
 40
1.0
  9
$DIMDLI
 40
10.0
  9
$DIMRND
 40
0.0
  9
$DIMDLE
 40
0.0
  9
$DIMEXE
 40
1.0
  9
$DIMTP
 40
0.0
  9
$DIMTM
 40
0.0
  9
$DIMTXT
 40
0.875
  9
$DIMCEN
 40
0.0
  9
$DIMTSZ
 40
0.0
  9
$DIMTOL
 70
     0
  9
$DIMLIM
 70
     0
  9
$DIMTIH
 70
     0
  9
$DIMTOH
 70
     0
  9
$DIMSE1
 70
     0
  9
$DIMSE2
 70
     0
  9
$DIMTAD
 70
     1
  9
$DIMZIN
 70
     8
  9
$DIMBLK
  1

  9
$DIMASO
 70
     1
  9
$DIMSHO
 70
     1
  9
$DIMPOST
  1

  9
$DIMAPOST
  1

  9
$DIMALT
 70
     0
  9
$DIMALTD
 70
     2
  9
$DIMALTF
 40
25.4
  9
$DIMLFAC
 40
1.0
  9
$DIMTOFL
 70
     0
  9
$DIMTVP
 40
0.0
  9
$DIMTIX
 70
     0
  9
$DIMSOXD
 70
     0
  9
$DIMSAH
 70
     0
  9
$DIMBLK1
  1

  9
$DIMBLK2
  1

  9
$DIMSTYLE
  2
STANDARD
  9
$DIMCLRD
 70
     0
  9
$DIMCLRE
 70
     0
  9
$DIMCLRT
 70
     0
  9
$DIMTFAC
 40
0.65
  9
$DIMGAP
 40
0.09
  9
$DIMJUST
 70
     0
  9
$DIMSD1
 70
     0
  9
$DIMSD2
 70
     0
  9
$DIMTOLJ
 70
     0
  9
$DIMTZIN
 70
     0
  9
$DIMALTZ
 70
     0
  9
$DIMALTTZ
 70
     0
  9
$DIMFIT
 70
     3
  9
$DIMUPT
 70
     0
  9
$DIMUNIT
 70
     2
  9
$DIMDEC
 70
     2
  9
$DIMTDEC
 70
     2
  9
$DIMALTU
 70
     2
  9
$DIMALTTD
 70
     2
  9
$DIMTXSTY
  7
STANDARD
  9
$DIMAUNIT
 70
     0
  9
$LUNITS
 70
     2
  9
$LUPREC
 70
     4
  9
$SKETCHINC
 40
0.1
  9
$FILLETRAD
 40
0.5
  9
$AUNITS
 70
     0
  9
$AUPREC
 70
     0
  9
$MENU
  1
.
  9
$ELEVATION
 40
0.0
  9
$PELEVATION
 40
0.0
  9
$THICKNESS
 40
0.0
  9
$LIMCHECK
 70
     0
  9
$CHAMFERA
 40
0.0
  9
$CHAMFERB
 40
0.0
  9
$CHAMFERC
 40
0.0
  9
$CHAMFERD
 40
0.0
  9
$SKPOLY
 70
     0
  9
$TDCREATE
 40
2458092.583381458
  9
$TDUPDATE
 40
2458092.583381505
  9
$TDINDWG
 40
0.0000000116
  9
$TDUSRTIMER
 40
0.0000000116
  9
$USRTIMER
 70
     1
  9
$ANGBASE
 50
0.0
  9
$ANGDIR
 70
     0
  9
$PDMODE
 70
     0
  9
$PDSIZE
 40
1.0
  9
$PLINEWID
 40
0.0
  9
$COORDS
 70
     1
  9
$SPLFRAME
 70
     0
  9
$SPLINETYPE
 70
     6
  9
$SPLINESEGS
 70
     8
  9
$ATTDIA
 70
     0
  9
$ATTREQ
 70
     1
  9
$HANDLING
 70
     1
  9
$HANDSEED
  5
274
  9
$SURFTAB1
 70
     6
  9
$SURFTAB2
 70
     6
  9
$SURFTYPE
 70
     6
  9
$SURFU
 70
     6
  9
$SURFV
 70
     6
  9
$UCSNAME
  2

  9
$UCSORG
 10
0.0
 20
0.0
 30
0.0
  9
$UCSXDIR
 10
1.0
 20
0.0
 30
0.0
  9
$UCSYDIR
 10
0.0
 20
1.0
 30
0.0
  9
$PUCSNAME
  2

  9
$PUCSORG
 10
0.0
 20
0.0
 30
0.0
  9
$PUCSXDIR
 10
1.0
 20
0.0
 30
0.0
  9
$PUCSYDIR
 10
0.0
 20
1.0
 30
0.0
  9
$USERI1
 70
     0
  9
$USERI2
 70
     0
  9
$USERI3
 70
     0
  9
$USERI4
 70
     0
  9
$USERI5
 70
     0
  9
$USERR1
 40
0.0
  9
$USERR2
 40
0.0
  9
$USERR3
 40
0.0
  9
$USERR4
 40
0.0
  9
$USERR5
 40
0.0
  9
$WORLDVIEW
 70
     1
  9
$SHADEDGE
 70
     3
  9
$SHADEDIF
 70
    70
  9
$TILEMODE
 70
     1
  9
$MAXACTVP
 70
    64
  9
$PINSBASE
 10
0.0
 20
0.0
 30
0.0
  9
$PLIMCHECK
 70
     0
  9
$PEXTMIN
 10
1.000000000000000E+20
 20
1.000000000000000E+20
 30
1.000000000000000E+20
  9
$PEXTMAX
 10
-1.000000000000000E+20
 20
-1.000000000000000E+20
 30
-1.000000000000000E+20
  9
$PLIMMIN
 10
0.0
 20
0.0
  9
$PLIMMAX
 10
12.0
 20
9.0
  9
$UNITMODE
 70
     0
  9
$VISRETAIN
 70
     0
  9
$PLINEGEN
 70
     1
  9
$PSLTSCALE
 70
     0
  9
$TREEDEPTH
 70
  3020
  9
$PICKSTYLE
 70
     1
  9
$CMLSTYLE
  2
STANDARD
  9
$CMLJUST
 70
     0
  9
$CMLSCALE
 40
1.0
  9
$PROXYGRAPHICS
 70
     0
  9
$MEASUREMENT
 70
     1
  0
ENDSEC
  0
SECTION
  2
CLASSES
  0
CLASS
  1
ACDBDICTIONARYWDFLT
  2
AcDbDictionaryWithDefault
  3
ObjectDBX Classes
 90
        0
280
     0
281
     0
  0
CLASS
  1
VISUALSTYLE
  2
AcDbVisualStyle
  3
ObjectDBX Classes
 90
     4095
280
     0
281
     0
  0
CLASS
  1
MATERIAL
  2
AcDbMaterial
  3
ObjectDBX Classes
 90
     1153
280
     0
281
     0
  0
CLASS
  1
SCALE
  2
AcDbScale
  3
ObjectDBX Classes
 90
     1153
280
     0
281
     0
  0
CLASS
  1
SUN
  2
AcDbSun
  3
SCENEOE
 90
     1153
280
     0
281
     0
  0
CLASS
  1
DICTIONARYVAR
  2
AcDbDictionaryVar
  3
ObjectDBX Classes
 90
        0
280
     0
281
     0
  0
CLASS
  1
XRECORD
  2
AcDbXrecord
  3
ObjectDBX Classes
 90
        0
280
     0
281
     0
  0
CLASS
  1
LWPOLYLINE
  2
AcDbPolyline
  3
ObjectDBX Classes
 90
        0
280
     0
281
     1
  0
CLASS
  1
HATCH
  2
AcDbHatch
  3
ObjectDBX Classes
 90
        0
280
     0
281
     1
  0
CLASS
  1
ACDBPLACEHOLDER
  2
AcDbPlaceHolder
  3
ObjectDBX Classes
 90
        0
280
     0
281
     0
  0
CLASS
  1
LAYOUT
  2
AcDbLayout
  3
ObjectDBX Classes
 90
        0
280
     0
281
     0
  0
ENDSEC
  0
SECTION
  2
TABLES
  0
TABLE
  2
VPORT
  5
8
102
{ACAD_XDICTIONARY
360
26A
102
}
330
0
100
AcDbSymbolTable
 70
     1
  0
VPORT
  5
29
330
8
100
AcDbSymbolTableRecord
100
AcDbViewportTableRecord
  2
*ACTIVE
 70
     0
 10
0.0
 20
0.0
 11
1.0
 21
1.0
 12
0.0
 22
0.0
 13
0.0
 23
0.0
 14
0.5
 24
0.5
 15
0.5
 25
0.5
 16
0.0
 26
0.0
 36
1.0
 17
-0.0000000000000036
 27
0.0
 37
0.0
 40
171.795963810816
 41
1.349104478236922
 42
50.0
 43
0.0
 44
0.0
 50
0.0
 51
0.0
 71
     0
 72
  1000
 73
     1
 74
     1
 75
     0
 76
     0
 77
     0
 78
     0
  0
ENDTAB
  0
TABLE
  2
LTYPE
  5
5
330
0
100
AcDbSymbolTable
 70
    67
  0
LTYPE
  5
14
330
5
100
AcDbSymbolTableRecord
100
AcDbLinetypeTableRecord
  2
BYBLOCK
 70
     0
  3

 72
    65
 73
     0
 40
0.0
  0
LTYPE
  5
15
330
5
100
AcDbSymbolTableRecord
100
AcDbLinetypeTableRecord
  2
BYLAYER
 70
     0
  3

 72
    65
 73
     0
 40
0.0
  0
LTYPE
  5
16
330
5
100
AcDbSymbolTableRecord
100
AcDbLinetypeTableRecord
  2
CONTINUOUS
 70
     0
  3
Solid line
 72
    65
 73
     0
 40
0.0
  0
LTYPE
  5
6B
330
5
100
AcDbSymbolTableRecord
100
AcDbLinetypeTableRecord
  2
HIDDENX2
 70
     0
  3
Hidden (2x) ____ ____ ____ ____ ____ ____ ____ 
 72
    65
 73
     2
 40
19.05
 49
12.7
 74
     0
 49
-6.35
 74
     0
  0
LTYPE
  5
6C
330
5
100
AcDbSymbolTableRecord
100
AcDbLinetypeTableRecord
  2
HIDDEN
 70
     0
  3
Hidden __ __ __ __ __ __ __ __ __ __ __ __ __ __
 72
    65
 73
     2
 40
9.524999999999999
 49
6.35
 74
     0
 49
-3.175
 74
     0
  0
LTYPE
  5
6D
330
5
100
AcDbSymbolTableRecord
100
AcDbLinetypeTableRecord
  2
HIDDEN2
 70
     0
  3
Hidden (.5x) _ _ _ _ _ _ _ _ _ _ _ _ _ _ _ _ _ 
 72
    65
 73
     2
 40
4.762499999999999
 49
3.175
 74
     0
 49
-1.5875
 74
     0
  0
LTYPE
  5
6E
330
5
100
AcDbSymbolTableRecord
100
AcDbLinetypeTableRecord
  2
DASHED
 70
     0
  3
Dashed __ __ __ __ __ __ __ __ __ __ __ __ __ _
 72
    65
 73
     2
 40
19.05
 49
12.7
 74
     0
 49
-6.35
 74
     0
  0
LTYPE
  5
6F
330
5
100
AcDbSymbolTableRecord
100
AcDbLinetypeTableRecord
  2
DASHED2
 70
     0
  3
Dashed (.5x) _ _ _ _ _ _ _ _ _ _ _ _ _ _ _ _ _ 
 72
    65
 73
     2
 40
9.524999999999999
 49
6.35
 74
     0
 49
-3.175
 74
     0
  0
LTYPE
  5
70
330
5
100
AcDbSymbolTableRecord
100
AcDbLinetypeTableRecord
  2
DASHEDX2
 70
     0
  3
Dashed (2x) ____  ____  ____  ____  ____  ___
 72
    65
 73
     2
 40
38.09999999999999
 49
25.4
 74
     0
 49
-12.7
 74
     0
  0
LTYPE
  5
71
330
5
100
AcDbSymbolTableRecord
100
AcDbLinetypeTableRecord
  2
DOTX2
 70
     0
  3
Dot (2x) .  .  .  .  .  .  .  .  .  .  .  .  .  .
 72
    65
 73
     2
 40
12.7
 49
0.0
 74
     0
 49
-12.7
 74
     0
  0
LTYPE
  5
72
330
5
100
AcDbSymbolTableRecord
100
AcDbLinetypeTableRecord
  2
DOT
 70
     0
  3
Dot . . . . . . . . . . . . . . . . . . . . . . . .
 72
    65
 73
     2
 40
6.35
 49
0.0
 74
     0
 49
-6.35
 74
     0
  0
LTYPE
  5
73
330
5
100
AcDbSymbolTableRecord
100
AcDbLinetypeTableRecord
  2
DOT2
 70
     0
  3
Dot (.5x) ........................................
 72
    65
 73
     2
 40
3.175
 49
0.0
 74
     0
 49
-3.175
 74
     0
  0
LTYPE
  5
74
330
5
100
AcDbSymbolTableRecord
100
AcDbLinetypeTableRecord
  2
CENTERX2
 70
     0
  3
Center (2x) ________  __  ________  __  _____
 72
    65
 73
     4
 40
101.6
 49
63.5
 74
     0
 49
-12.7
 74
     0
 49
12.7
 74
     0
 49
-12.7
 74
     0
  0
LTYPE
  5
75
330
5
100
AcDbSymbolTableRecord
100
AcDbLinetypeTableRecord
  2
CENTER
 70
     0
  3
Center ____ _ ____ _ ____ _ ____ _ ____ _ ____
 72
    65
 73
     4
 40
50.8
 49
31.75
 74
     0
 49
-6.35
 74
     0
 49
6.35
 74
     0
 49
-6.35
 74
     0
  0
LTYPE
  5
76
330
5
100
AcDbSymbolTableRecord
100
AcDbLinetypeTableRecord
  2
CENTER2
 70
     0
  3
Center (.5x) ___ _ ___ _ ___ _ ___ _ ___ _ ___
 72
    65
 73
     4
 40
28.575
 49
19.05
 74
     0
 49
-3.175
 74
     0
 49
3.175
 74
     0
 49
-3.175
 74
     0
  0
LTYPE
  5
77
330
5
100
AcDbSymbolTableRecord
100
AcDbLinetypeTableRecord
  2
DASHDOTX2
 70
     0
  3
Dash dot (2x) ____  .  ____  .  ____  .  ___
 72
    65
 73
     4
 40
50.8
 49
25.4
 74
     0
 49
-12.7
 74
     0
 49
0.0
 74
     0
 49
-12.7
 74
     0
  0
LTYPE
  5
78
330
5
100
AcDbSymbolTableRecord
100
AcDbLinetypeTableRecord
  2
DASHDOT
 70
     0
  3
Dash dot __ . __ . __ . __ . __ . __ . __ . __
 72
    65
 73
     4
 40
25.4
 49
12.7
 74
     0
 49
-6.35
 74
     0
 49
0.0
 74
     0
 49
-6.35
 74
     0
  0
LTYPE
  5
79
330
5
100
AcDbSymbolTableRecord
100
AcDbLinetypeTableRecord
  2
DASHDOT2
 70
     0
  3
Dash dot (.5x) _._._._._._._._._._._._._._._.
 72
    65
 73
     4
 40
12.7
 49
6.35
 74
     0
 49
-3.175
 74
     0
 49
0.0
 74
     0
 49
-3.175
 74
     0
  0
LTYPE
  5
7A
330
5
100
AcDbSymbolTableRecord
100
AcDbLinetypeTableRecord
  2
DIVIDEX2
 70
     0
  3
Divide (2x) ________  .  .  ________  .  .  _
 72
    65
 73
     6
 40
63.5
 49
25.4
 74
     0
 49
-12.7
 74
     0
 49
0.0
 74
     0
 49
-12.7
 74
     0
 49
0.0
 74
     0
 49
-12.7
 74
     0
  0
LTYPE
  5
7B
330
5
100
AcDbSymbolTableRecord
100
AcDbLinetypeTableRecord
  2
DIVIDE
 70
     0
  3
Divide ____ . . ____ . . ____ . . ____ . . ____
 72
    65
 73
     6
 40
31.75
 49
12.7
 74
     0
 49
-6.35
 74
     0
 49
0.0
 74
     0
 49
-6.35
 74
     0
 49
0.0
 74
     0
 49
-6.35
 74
     0
  0
LTYPE
  5
7C
330
5
100
AcDbSymbolTableRecord
100
AcDbLinetypeTableRecord
  2
DIVIDE2
 70
     0
  3
Divide (.5x) __..__..__..__..__..__..__..__.._
 72
    65
 73
     6
 40
15.875
 49
6.35
 74
     0
 49
-3.175
 74
     0
 49
0.0
 74
     0
 49
-3.175
 74
     0
 49
0.0
 74
     0
 49
-3.175
 74
     0
  0
LTYPE
  5
7D
330
5
100
AcDbSymbolTableRecord
100
AcDbLinetypeTableRecord
  2
BORDERX2
 70
     0
  3
Border (2x) ____  ____  .  ____  ____  .  ___
 72
    65
 73
     6
 40
88.89999999999999
 49
25.4
 74
     0
 49
-12.7
 74
     0
 49
25.4
 74
     0
 49
-12.7
 74
     0
 49
0.0
 74
     0
 49
-12.7
 74
     0
  0
LTYPE
  5
7E
330
5
100
AcDbSymbolTableRecord
100
AcDbLinetypeTableRecord
  2
BORDER
 70
     0
  3
Border __ __ . __ __ . __ __ . __ __ . __ __ .
 72
    65
 73
     6
 40
44.45
 49
12.7
 74
     0
 49
-6.35
 74
     0
 49
12.7
 74
     0
 49
-6.35
 74
     0
 49
0.0
 74
     0
 49
-6.35
 74
     0
  0
LTYPE
  5
7F
330
5
100
AcDbSymbolTableRecord
100
AcDbLinetypeTableRecord
  2
BORDER2
 70
     0
  3
Border (.5x) __.__.__.__.__.__.__.__.__.__.__.
 72
    65
 73
     6
 40
22.225
 49
6.35
 74
     0
 49
-3.175
 74
     0
 49
6.35
 74
     0
 49
-3.175
 74
     0
 49
0.0
 74
     0
 49
-3.175
 74
     0
  0
LTYPE
  5
80
330
5
100
AcDbSymbolTableRecord
100
AcDbLinetypeTableRecord
  2
PHANTOMX2
 70
     0
  3
Phantom (2x) ____________    ____    ____   _
 72
    65
 73
     6
 40
127.0
 49
63.5
 74
     0
 49
-12.7
 74
     0
 49
12.7
 74
     0
 49
-12.7
 74
     0
 49
12.7
 74
     0
 49
-12.7
 74
     0
  0
LTYPE
  5
81
330
5
100
AcDbSymbolTableRecord
100
AcDbLinetypeTableRecord
  2
PHANTOM
 70
     0
  3
Phantom ______  __  __  ______  __  __  ______ 
 72
    65
 73
     6
 40
63.5
 49
31.75
 74
     0
 49
-6.35
 74
     0
 49
6.35
 74
     0
 49
-6.35
 74
     0
 49
6.35
 74
     0
 49
-6.35
 74
     0
  0
LTYPE
  5
82
330
5
100
AcDbSymbolTableRecord
100
AcDbLinetypeTableRecord
  2
PHANTOM2
 70
     0
  3
Phantom (.5x) ___ _ _ ___ _ _ ___ _ _ ___ _ _
 72
    65
 73
     6
 40
31.75
 49
15.875
 74
     0
 49
-3.175
 74
     0
 49
3.175
 74
     0
 49
-3.175
 74
     0
 49
3.175
 74
     0
 49
-3.175
 74
     0
  0
LTYPE
  5
83
330
5
100
AcDbSymbolTableRecord
100
AcDbLinetypeTableRecord
  2
ACAD_ISO06W100
 70
     0
  3
ISO long-dash triple-dot ____ ... ____ ... ____
 72
    65
 73
     8
 40
36.0
 49
24.0
 74
     0
 49
-3.0
 74
     0
 49
0.0
 74
     0
 49
-3.0
 74
     0
 49
0.0
 74
     0
 49
-3.0
 74
     0
 49
0.0
 74
     0
 49
-3.0
 74
     0
  0
LTYPE
  5
84
330
5
100
AcDbSymbolTableRecord
100
AcDbLinetypeTableRecord
  2
ACAD_ISO13W100
 70
     0
  3
ISO double-dash double-dot __ __ . . __ __ . . _
 72
    65
 73
     8
 40
36.0
 49
12.0
 74
     0
 49
-3.0
 74
     0
 49
12.0
 74
     0
 49
-3.0
 74
     0
 49
0.0
 74
     0
 49
-3.0
 74
     0
 49
0.0
 74
     0
 49
-3.0
 74
     0
  0
LTYPE
  5
85
330
5
100
AcDbSymbolTableRecord
100
AcDbLinetypeTableRecord
  2
ACAD_ISO14W100
 70
     0
  3
ISO dash triple-dot __ . . . __ . . . __ . . . _
 72
    65
 73
     8
 40
24.0
 49
12.0
 74
     0
 49
-3.0
 74
     0
 49
0.0
 74
     0
 49
-3.0
 74
     0
 49
0.0
 74
     0
 49
-3.0
 74
     0
 49
0.0
 74
     0
 49
-3.0
 74
     0
  0
LTYPE
  5
86
330
5
100
AcDbSymbolTableRecord
100
AcDbLinetypeTableRecord
  2
ACAD_ISO02W100
 70
     0
  3
ISO dash __ __ __ __ __ __ __ __ __ __ __ __ __
 72
    65
 73
     2
 40
15.0
 49
12.0
 74
     0
 49
-3.0
 74
     0
  0
LTYPE
  5
87
330
5
100
AcDbSymbolTableRecord
100
AcDbLinetypeTableRecord
  2
ACAD_ISO03W100
 70
     0
  3
ISO dash space __    __    __    __    __    __
 72
    65
 73
     2
 40
30.0
 49
12.0
 74
     0
 49
-18.0
 74
     0
  0
LTYPE
  5
88
330
5
100
AcDbSymbolTableRecord
100
AcDbLinetypeTableRecord
  2
ACAD_ISO04W100
 70
     0
  3
ISO long-dash dot ____ . ____ . ____ . ____ . _
 72
    65
 73
     4
 40
30.0
 49
24.0
 74
     0
 49
-3.0
 74
     0
 49
0.0
 74
     0
 49
-3.0
 74
     0
  0
LTYPE
  5
89
330
5
100
AcDbSymbolTableRecord
100
AcDbLinetypeTableRecord
  2
ACAD_ISO05W100
 70
     0
  3
ISO long-dash double-dot ____ .. ____ .. ____ . 
 72
    65
 73
     6
 40
33.0
 49
24.0
 74
     0
 49
-3.0
 74
     0
 49
0.0
 74
     0
 49
-3.0
 74
     0
 49
0.0
 74
     0
 49
-3.0
 74
     0
  0
LTYPE
  5
8A
330
5
100
AcDbSymbolTableRecord
100
AcDbLinetypeTableRecord
  2
ACAD_ISO07W100
 70
     0
  3
ISO dot . . . . . . . . . . . . . . . . . . . . 
 72
    65
 73
     2
 40
3.0
 49
0.0
 74
     0
 49
-3.0
 74
     0
  0
LTYPE
  5
8B
330
5
100
AcDbSymbolTableRecord
100
AcDbLinetypeTableRecord
  2
ACAD_ISO08W100
 70
     0
  3
ISO long-dash short-dash ____ __ ____ __ ____ _
 72
    65
 73
     4
 40
36.0
 49
24.0
 74
     0
 49
-3.0
 74
     0
 49
6.0
 74
     0
 49
-3.0
 74
     0
  0
LTYPE
  5
8C
330
5
100
AcDbSymbolTableRecord
100
AcDbLinetypeTableRecord
  2
ACAD_ISO09W100
 70
     0
  3
ISO long-dash double-short-dash ____ __ __ ____
 72
    65
 73
     6
 40
45.0
 49
24.0
 74
     0
 49
-3.0
 74
     0
 49
6.0
 74
     0
 49
-3.0
 74
     0
 49
6.0
 74
     0
 49
-3.0
 74
     0
  0
LTYPE
  5
8D
330
5
100
AcDbSymbolTableRecord
100
AcDbLinetypeTableRecord
  2
ACAD_ISO10W100
 70
     0
  3
ISO dash dot __ . __ . __ . __ . __ . __ . __ . 
 72
    65
 73
     4
 40
18.0
 49
12.0
 74
     0
 49
-3.0
 74
     0
 49
0.0
 74
     0
 49
-3.0
 74
     0
  0
LTYPE
  5
8E
330
5
100
AcDbSymbolTableRecord
100
AcDbLinetypeTableRecord
  2
ACAD_ISO11W100
 70
     0
  3
ISO double-dash dot __ __ . __ __ . __ __ . __ _
 72
    65
 73
     6
 40
33.0
 49
12.0
 74
     0
 49
-3.0
 74
     0
 49
12.0
 74
     0
 49
-3.0
 74
     0
 49
0.0
 74
     0
 49
-3.0
 74
     0
  0
LTYPE
  5
8F
330
5
100
AcDbSymbolTableRecord
100
AcDbLinetypeTableRecord
  2
ACAD_ISO12W100
 70
     0
  3
ISO dash double-dot __ . . __ . . __ . . __ . . 
 72
    65
 73
     6
 40
21.0
 49
12.0
 74
     0
 49
-3.0
 74
     0
 49
0.0
 74
     0
 49
-3.0
 74
     0
 49
0.0
 74
     0
 49
-3.0
 74
     0
  0
LTYPE
  5
90
330
5
100
AcDbSymbolTableRecord
100
AcDbLinetypeTableRecord
  2
ACAD_ISO15W100
 70
     0
  3
ISO double-dash triple-dot __ __ . . . __ __ . .
 72
    65
 73
    10
 40
39.0
 49
12.0
 74
     0
 49
-3.0
 74
     0
 49
12.0
 74
     0
 49
-3.0
 74
     0
 49
0.0
 74
     0
 49
-3.0
 74
     0
 49
0.0
 74
     0
 49
-3.0
 74
     0
 49
0.0
 74
     0
 49
-3.0
 74
     0
  0
LTYPE
  5
91
330
5
100
AcDbSymbolTableRecord
100
AcDbLinetypeTableRecord
  2
JIS_02_0_7
 70
     0
  3
HIDDEN0.75 _ _ _ _ _ _ _ _ _ _ _ _ _ _ _ _ _ 
 72
    65
 73
     2
 40
1.35
 49
0.75
 74
     0
 49
-0.6
 74
     0
  0
LTYPE
  5
92
330
5
100
AcDbSymbolTableRecord
100
AcDbLinetypeTableRecord
  2
JIS_02_1_0
 70
     0
  3
HIDDEN01 _ _ _ _ _ _ _ _ _ _ _ _ _ _ _ _ _ 
 72
    65
 73
     2
 40
2.0
 49
1.0
 74
     0
 49
-1.0
 74
     0
  0
LTYPE
  5
93
330
5
100
AcDbSymbolTableRecord
100
AcDbLinetypeTableRecord
  2
JIS_02_1_2
 70
     0
  3
HIDDEN01.25  _ _ _ _ _ _ _ _ _ _ _ _ _ _ _ _ _ 
 72
    65
 73
     2
 40
2.5
 49
1.25
 74
     0
 49
-1.25
 74
     0
  0
LTYPE
  5
94
330
5
100
AcDbSymbolTableRecord
100
AcDbLinetypeTableRecord
  2
JIS_02_2_0
 70
     0
  3
HIDDEN02 __ __ __ __ __ __ __ __ __ __ __ 
 72
    65
 73
     2
 40
3.0
 49
2.0
 74
     0
 49
-1.0
 74
     0
  0
LTYPE
  5
95
330
5
100
AcDbSymbolTableRecord
100
AcDbLinetypeTableRecord
  2
JIS_02_4_0
 70
     0
  3
HIDDEN04 ____ ____ ____ ____ ____ ____ ____ 
 72
    65
 73
     2
 40
5.5
 49
4.0
 74
     0
 49
-1.5
 74
     0
  0
LTYPE
  5
96
330
5
100
AcDbSymbolTableRecord
100
AcDbLinetypeTableRecord
  2
JIS_08_11
 70
     0
  3
1SASEN11 ___ _ ___ _ ___ _ ___ _ ___ _ ___
 72
    65
 73
     4
 40
12.8
 49
11.0
 74
     0
 49
-0.6
 74
     0
 49
0.6
 74
     0
 49
-0.6
 74
     0
  0
LTYPE
  5
97
330
5
100
AcDbSymbolTableRecord
100
AcDbLinetypeTableRecord
  2
JIS_08_15
 70
     0
  3
1SASEN15 ____ _ ____ _ ____ _ ____ _ ____ 
 72
    65
 73
     4
 40
17.25
 49
15.0
 74
     0
 49
-0.75
 74
     0
 49
0.75
 74
     0
 49
-0.75
 74
     0
  0
LTYPE
  5
98
330
5
100
AcDbSymbolTableRecord
100
AcDbLinetypeTableRecord
  2
JIS_08_25
 70
     0
  3
1SASEN25 ________  __  ________  __  _____
 72
    65
 73
     4
 40
28.0
 49
25.0
 74
     0
 49
-1.125
 74
     0
 49
0.75
 74
     0
 49
-1.125
 74
     0
  0
LTYPE
  5
99
330
5
100
AcDbSymbolTableRecord
100
AcDbLinetypeTableRecord
  2
JIS_08_37
 70
     0
  3
1SASEN37 ________  __  ________  __  _____
 72
    65
 73
     4
 40
40.5
 49
37.5
 74
     0
 49
-1.125
 74
     0
 49
0.75
 74
     0
 49
-1.125
 74
     0
  0
LTYPE
  5
9A
330
5
100
AcDbSymbolTableRecord
100
AcDbLinetypeTableRecord
  2
JIS_08_50
 70
     0
  3
1SASEN50 _______________  __  ____________
 72
    65
 73
     4
 40
53.0
 49
50.0
 74
     0
 49
-1.125
 74
     0
 49
0.75
 74
     0
 49
-1.125
 74
     0
  0
LTYPE
  5
9B
330
5
100
AcDbSymbolTableRecord
100
AcDbLinetypeTableRecord
  2
JIS_09_08
 70
     0
  3
2SASEN8 __ _ _ __ _ _ __ _ _ __ _ _ __ _ _ 
 72
    65
 73
     6
 40
10.75
 49
8.0
 74
     0
 49
-0.55
 74
     0
 49
0.55
 74
     0
 49
-0.55
 74
     0
 49
0.55
 74
     0
 49
-0.55
 74
     0
  0
LTYPE
  5
9C
330
5
100
AcDbSymbolTableRecord
100
AcDbLinetypeTableRecord
  2
JIS_09_15
 70
     0
  3
2SASEN15 ___ _ _ ___ _ _ ___ _ _ ___ _ _ ___ 
 72
    65
 73
     6
 40
18.9
 49
15.0
 74
     0
 49
-0.9
 74
     0
 49
0.6
 74
     0
 49
-0.9
 74
     0
 49
0.6
 74
     0
 49
-0.9
 74
     0
  0
LTYPE
  5
9D
330
5
100
AcDbSymbolTableRecord
100
AcDbLinetypeTableRecord
  2
JIS_09_29
 70
     0
  3
2SASEN29 ______　__  __  ______　__  __  ___
 72
    65
 73
     6
 40
34.0
 49
29.0
 74
     0
 49
-1.2
 74
     0
 49
0.7
 74
     0
 49
-1.2
 74
     0
 49
0.7
 74
     0
 49
-1.2
 74
     0
  0
LTYPE
  5
9E
330
5
100
AcDbSymbolTableRecord
100
AcDbLinetypeTableRecord
  2
JIS_09_50
 70
     0
  3
2SASEN50 ____________　__  __  _____________
 72
    65
 73
     6
 40
55.0
 49
50.0
 74
     0
 49
-1.2
 74
     0
 49
0.7
 74
     0
 49
-1.2
 74
     0
 49
0.7
 74
     0
 49
-1.2
 74
     0
  0
LTYPE
  5
9F
330
5
100
AcDbSymbolTableRecord
100
AcDbLinetypeTableRecord
  2
SXF_破線
 70
     0
  3
02 dashed -- -- -- -- -- --
 72
    65
 73
     2
 40
7.5
 49
6.0
 74
     0
 49
-1.5
 74
     0
  0
LTYPE
  5
A0
330
5
100
AcDbSymbolTableRecord
100
AcDbLinetypeTableRecord
  2
SXF_跳び破線
 70
     0
  3
03 dashed_spaced --  --  --  --
 72
    65
 73
     2
 40
12.0
 49
6.0
 74
     0
 49
-6.0
 74
     0
  0
LTYPE
  5
A1
330
5
100
AcDbSymbolTableRecord
100
AcDbLinetypeTableRecord
  2
SXF_一点長鎖線
 70
     0
  3
04 long_dashed_dotted ---- . ---- . ----
 72
    65
 73
     4
 40
15.25
 49
12.0
 74
     0
 49
-1.5
 74
     0
 49
0.25
 74
     0
 49
-1.5
 74
     0
  0
LTYPE
  5
A2
330
5
100
AcDbSymbolTableRecord
100
AcDbLinetypeTableRecord
  2
SXF_二点長鎖線
 70
     0
  3
05 long_dashed_double-dotted ---- . . ---- 
 72
    65
 73
     6
 40
17.0
 49
12.0
 74
     0
 49
-1.5
 74
     0
 49
0.25
 74
     0
 49
-1.5
 74
     0
 49
0.25
 74
     0
 49
-1.5
 74
     0
  0
LTYPE
  5
A3
330
5
100
AcDbSymbolTableRecord
100
AcDbLinetypeTableRecord
  2
SXF_三点長鎖線
 70
     0
  3
06 long_dashed_triplicate-dotted ---- ... ---- 
 72
    65
 73
     8
 40
18.75
 49
12.0
 74
     0
 49
-1.5
 74
     0
 49
0.25
 74
     0
 49
-1.5
 74
     0
 49
0.25
 74
     0
 49
-1.5
 74
     0
 49
0.25
 74
     0
 49
-1.5
 74
     0
  0
LTYPE
  5
A4
330
5
100
AcDbSymbolTableRecord
100
AcDbLinetypeTableRecord
  2
SXF_点線
 70
     0
  3
07 dotted . . . . . . . . . . . . 
 72
    65
 73
     2
 40
1.75
 49
0.25
 74
     0
 49
-1.5
 74
     0
  0
LTYPE
  5
A5
330
5
100
AcDbSymbolTableRecord
100
AcDbLinetypeTableRecord
  2
SXF_一点鎖線
 70
     0
  3
08 chain ---- - --- - --- - ---
 72
    65
 73
     4
 40
18.5
 49
12.0
 74
     0
 49
-1.5
 74
     0
 49
3.5
 74
     0
 49
-1.5
 74
     0
  0
LTYPE
  5
A6
330
5
100
AcDbSymbolTableRecord
100
AcDbLinetypeTableRecord
  2
SXF_二点鎖線
 70
     0
  3
09 chain_double_dash ---- - - ---- - - ----
 72
    65
 73
     6
 40
23.5
 49
12.0
 74
     0
 49
-1.5
 74
     0
 49
3.5
 74
     0
 49
-1.5
 74
     0
 49
3.5
 74
     0
 49
-1.5
 74
     0
  0
LTYPE
  5
A7
330
5
100
AcDbSymbolTableRecord
100
AcDbLinetypeTableRecord
  2
SXF_一点短鎖線
 70
     0
  3
10 dashed_dotted -- . -- . -- . --
 72
    65
 73
     4
 40
9.25
 49
6.0
 74
     0
 49
-1.5
 74
     0
 49
0.25
 74
     0
 49
-1.5
 74
     0
  0
LTYPE
  5
A8
330
5
100
AcDbSymbolTableRecord
100
AcDbLinetypeTableRecord
  2
SXF_一点二短鎖線
 70
     0
  3
11 double-dashed_dotted -- -- . -- --
 72
    65
 73
     6
 40
16.75
 49
6.0
 74
     0
 49
-1.5
 74
     0
 49
6.0
 74
     0
 49
-1.5
 74
     0
 49
0.25
 74
     0
 49
-1.5
 74
     0
  0
LTYPE
  5
A9
330
5
100
AcDbSymbolTableRecord
100
AcDbLinetypeTableRecord
  2
SXF_二点短鎖線
 70
     0
  3
12 dashed_double_dotted -- . . -- . . --
 72
    65
 73
     6
 40
11.0
 49
6.0
 74
     0
 49
-1.5
 74
     0
 49
0.25
 74
     0
 49
-1.5
 74
     0
 49
0.25
 74
     0
 49
-1.5
 74
     0
  0
LTYPE
  5
AA
330
5
100
AcDbSymbolTableRecord
100
AcDbLinetypeTableRecord
  2
SXF_二点二短鎖線
 70
     0
  3
13 double-dashed_double-dotted -- -- . . -- --
 72
    65
 73
     8
 40
18.5
 49
6.0
 74
     0
 49
-1.5
 74
     0
 49
6.0
 74
     0
 49
-1.5
 74
     0
 49
0.25
 74
     0
 49
-1.5
 74
     0
 49
0.25
 74
     0
 49
-1.5
 74
     0
  0
LTYPE
  5
AB
330
5
100
AcDbSymbolTableRecord
100
AcDbLinetypeTableRecord
  2
SXF_三点短鎖線
 70
     0
  3
14 dashed triplicate-dotted -- . . . -- . . . --
 72
    65
 73
     8
 40
12.75
 49
6.0
 74
     0
 49
-1.5
 74
     0
 49
0.25
 74
     0
 49
-1.5
 74
     0
 49
0.25
 74
     0
 49
-1.5
 74
     0
 49
0.25
 74
     0
 49
-1.5
 74
     0
  0
LTYPE
  5
AC
330
5
100
AcDbSymbolTableRecord
100
AcDbLinetypeTableRecord
  2
SXF_三点二短鎖線
 70
     0
  3
15 double-dashed triplicate-dotted -- -- . . . -- -- 
 72
    65
 73
    10
 40
20.25
 49
6.0
 74
     0
 49
-1.5
 74
     0
 49
6.0
 74
     0
 49
-1.5
 74
     0
 49
0.25
 74
     0
 49
-1.5
 74
     0
 49
0.25
 74
     0
 49
-1.5
 74
     0
 49
0.25
 74
     0
 49
-1.5
 74
     0
  0
ENDTAB
  0
TABLE
  2
LAYER
  5
2
330
0
100
AcDbSymbolTable
 70
     2
  0
LAYER
  5
10
330
2
100
AcDbSymbolTableRecord
100
AcDbLayerTableRecord
  2
0
 70
     0
 62
     7
  6
CONTINUOUS
  0
LAYER
  5
AD
330
2
100
AcDbSymbolTableRecord
100
AcDbLayerTableRecord
  2
LAYER0001
 70
     0
 62
     7
  6
CONTINUOUS
  0
ENDTAB
  0
TABLE
  2
STYLE
  5
3
330
0
100
AcDbSymbolTable
 70
     2
  0
STYLE
  5
11
330
3
100
AcDbSymbolTableRecord
100
AcDbTextStyleTableRecord
  2
STANDARD
 70
     0
 40
0.0
 41
1.0
 50
0.0
 71
     0
 42
0.2
  3
txt.shx
  4
bigfont.shx
  0
STYLE
  5
240
330
3
100
AcDbSymbolTableRecord
100
AcDbTextStyleTableRecord
  2
DCSTYLE0
 70
     0
 40
0.0
 41
1.01
 50
0.0
 71
     0
 42
0.2
  3
txt.shx
  4
bigfont
  0
ENDTAB
  0
TABLE
  2
VIEW
  5
6
330
0
100
AcDbSymbolTable
 70
     0
  0
ENDTAB
  0
TABLE
  2
UCS
  5
7
330
0
100
AcDbSymbolTable
 70
     0
  0
ENDTAB
  0
TABLE
  2
APPID
  5
9
330
0
100
AcDbSymbolTable
 70
     2
  0
APPID
  5
12
330
9
100
AcDbSymbolTableRecord
100
AcDbRegAppTableRecord
  2
ACAD
 70
     0
  0
APPID
  5
6A
330
9
100
AcDbSymbolTableRecord
100
AcDbRegAppTableRecord
  2
DAFUSIONOUT
 70
     0
  0
ENDTAB
  0
TABLE
  2
DIMSTYLE
  5
A
330
0
100
AcDbSymbolTable
 70
     1
  0
DIMSTYLE
105
27
330
A
100
AcDbSymbolTableRecord
100
AcDbDimStyleTableRecord
  2
STANDARD
 70
     0
  3

  4

  5

  6

  7

 40
1.0
 41
0.18
 42
0.0625
 43
0.38
 44
0.18
 45
0.0
 46
0.0
 47
0.0
 48
0.0
140
0.18
141
0.09
142
0.0
143
25.4
144
1.0
145
0.0
146
1.0
147
0.09
 71
     0
 72
     0
 73
     1
 74
     1
 75
     0
 76
     0
 77
     0
 78
     0
170
     0
171
     2
172
     0
173
     0
174
     0
175
     0
176
     0
177
     0
178
     0
270
     2
271
     4
272
     4
273
     2
274
     2
340
11
275
     0
280
     0
281
     0
282
     0
283
     1
284
     0
285
     0
286
     0
287
     3
288
     0
  0
ENDTAB
  0
TABLE
  2
BLOCK_RECORD
  5
1
330
0
100
AcDbSymbolTable
 70
     1
  0
BLOCK_RECORD
  5
1F
330
1
100
AcDbSymbolTableRecord
100
AcDbBlockTableRecord
  2
*MODEL_SPACE
  0
BLOCK_RECORD
  5
1B
330
1
100
AcDbSymbolTableRecord
100
AcDbBlockTableRecord
  2
*PAPER_SPACE
  0
ENDTAB
  0
ENDSEC
  0
SECTION
  2
BLOCKS
  0
BLOCK
  5
20
330
1F
100
AcDbEntity
  8
0
100
AcDbBlockBegin
  2
*MODEL_SPACE
 70
     0
 10
0.0
 20
0.0
 30
0.0
  3
*MODEL_SPACE
  1

  0
ENDBLK
  5
21
330
1F
100
AcDbEntity
  8
0
100
AcDbBlockEnd
  0
BLOCK
  5
1C
330
1B
100
AcDbEntity
 67
     1
  8
0
100
AcDbBlockBegin
  2
*PAPER_SPACE
 70
     0
 10
0.0
 20
0.0
 30
0.0
  3
*PAPER_SPACE
  1

  0
ENDBLK
  5
1D
330
1B
100
AcDbEntity
 67
     1
  8
0
100
AcDbBlockEnd
  0
ENDSEC
  0
SECTION
  2
ENTITIES
  0
LINE
  5
AF
330
1F
100
AcDbEntity
  8
LAYER0001
  6
CENTERX2
 62
     7
100
AcDbLine
 10
-113.613090255
 20
14.2278848804
 30
0.0
 11
-78.46338755500001
 21
14.2278848804
 31
0.0
  0
LINE
  5
B0
330
1F
100
AcDbEntity
  8
LAYER0001
  6
CENTERX2
 62
     7
100
AcDbLine
 10
-95.86349848500001
 20
84.2137077504
 30
0.0
 11
-95.86349848500001
 21
-55.2041997696
 31
0.0
  0
LINE
  5
B1
330
1F
100
AcDbEntity
  8
LAYER0001
  6
CENTERX2
 62
     7
100
AcDbLine
 10
-24.96659408500001
 20
14.2278848804
 30
0.0
 11
95.265231395
 21
14.2278848804
 31
0.0
  0
LINE
  5
B2
330
1F
100
AcDbEntity
  8
LAYER0001
  6
CONTINUOUS
 62
     7
100
AcDbLine
 10
83.15572076499998
 20
-48.2144707896
 30
0.0
 11
89.29722741499998
 21
-48.2144707896
 31
0.0
  0
LINE
  5
B3
330
1F
100
AcDbEntity
  8
LAYER0001
  6
CONTINUOUS
 62
     7
100
AcDbLine
 10
81.05765761499998
 20
70.67577441040001
 30
0.0
 11
74.331108675
 21
70.67577441040001
 31
0.0
  0
LINE
  5
B4
330
1F
100
AcDbEntity
  8
LAYER0001
  6
CONTINUOUS
 62
     7
100
AcDbLine
 10
88.550740295
 20
72.92412985039999
 30
0.0
 11
88.550740295
 21
67.0795253604
 31
0.0
  0
LINE
  5
B5
330
1F
100
AcDbEntity
  8
LAYER0001
  6
CONTINUOUS
 62
     7
100
AcDbLine
 10
82.55627415499998
 20
72.92412985039999
 30
0.0
 11
82.55627415499998
 21
72.1743909404
 31
0.0
  0
LINE
  5
B6
330
1F
100
AcDbEntity
  8
LAYER0001
  6
CONTINUOUS
 62
     7
100
AcDbLine
 10
88.550740295
 20
67.0795253604
 30
0.0
 11
85.05310710499998
 21
63.58232280039999
 31
0.0
  0
LINE
  5
B7
330
1F
100
AcDbEntity
  8
LAYER0001
  6
CONTINUOUS
 62
     7
100
AcDbLine
 10
85.05310710499998
 20
63.0931192404
 30
0.0
 11
85.05310710499998
 21
63.58232280039999
 31
0.0
  0
LINE
  5
B8
330
1F
100
AcDbEntity
  8
LAYER0001
  6
CONTINUOUS
 62
     7
100
AcDbLine
 10
81.05765761499998
 20
69.1775885104
 30
0.0
 11
75.054578735
 21
69.1775885104
 31
0.0
  0
LINE
  5
B9
330
1F
100
AcDbEntity
  8
LAYER0001
  6
CONTINUOUS
 62
     7
100
AcDbLine
 10
87.052123755
 20
72.92412985039999
 30
0.0
 11
87.052123755
 21
67.70007318040001
 31
0.0
  0
LINE
  5
BA
330
1F
100
AcDbEntity
  8
LAYER0001
  6
CONTINUOUS
 62
     7
100
AcDbLine
 10
87.052123755
 20
67.70007318040001
 30
0.0
 11
83.55535183999999
 21
64.2033012654
 31
0.0
  0
LINE
  5
BB
330
1F
100
AcDbEntity
  8
LAYER0001
  6
CONTINUOUS
 62
     7
100
AcDbLine
 10
83.55535183999999
 20
63.2490098154
 30
0.0
 11
83.55535183999999
 21
64.2033012654
 31
0.0
  0
LINE
  5
BC
330
1F
100
AcDbEntity
  8
LAYER0001
  6
CONTINUOUS
 62
     7
100
AcDbLine
 10
84.054029415
 20
72.92412985039999
 30
0.0
 11
84.054029415
 21
72.1743909404
 31
0.0
  0
LINE
  5
BD
330
1F
100
AcDbEntity
  8
LAYER0001
  6
CONTINUOUS
 62
     7
100
AcDbLine
 10
42.89030600499999
 20
66.0653753704
 30
0.0
 11
41.74136666499999
 21
66.0653753704
 31
0.0
  0
LINE
  5
BE
330
1F
100
AcDbEntity
  8
LAYER0001
  6
CONTINUOUS
 62
     7
100
AcDbLine
 10
45.03918431499999
 20
71.3699611504
 30
0.0
 11
43.889383695
 21
71.3699611504
 31
0.0
  0
LINE
  5
BF
330
1F
100
AcDbEntity
  8
LAYER0001
  6
CONTINUOUS
 62
     7
100
AcDbLine
 10
45.837585195
 20
65.2661132204
 30
0.0
 11
43.889383695
 21
65.2661132204
 31
0.0
  0
LINE
  5
C0
330
1F
100
AcDbEntity
  8
LAYER0001
  6
CONTINUOUS
 62
     7
100
AcDbLine
 10
45.837585195
 20
72.17008457040001
 30
0.0
 11
43.889383695
 21
72.17008457040001
 31
0.0
  0
LINE
  5
C1
330
1F
100
AcDbEntity
  8
LAYER0001
  6
CONTINUOUS
 62
     7
100
AcDbLine
 10
42.89030600499999
 20
72.17008457040001
 30
0.0
 11
42.89030600499999
 21
71.3699611504
 31
0.0
  0
LINE
  5
C2
330
1F
100
AcDbEntity
  8
LAYER0001
  6
CONTINUOUS
 62
     7
100
AcDbLine
 10
43.889383695
 20
72.17008457040001
 30
0.0
 11
43.889383695
 21
71.3699611504
 31
0.0
  0
LINE
  5
C3
330
1F
100
AcDbEntity
  8
LAYER0001
  6
CONTINUOUS
 62
     7
100
AcDbLine
 10
41.74136666499999
 20
71.3699611504
 30
0.0
 11
41.74136666499999
 21
66.0653753704
 31
0.0
  0
LINE
  5
C4
330
1F
100
AcDbEntity
  8
LAYER0001
  6
CONTINUOUS
 62
     7
100
AcDbLine
 10
45.03918431499999
 20
71.3699611504
 30
0.0
 11
45.03918431499999
 21
66.0653753704
 31
0.0
  0
LINE
  5
C5
330
1F
100
AcDbEntity
  8
LAYER0001
  6
CONTINUOUS
 62
     7
100
AcDbLine
 10
40.94210451499998
 20
72.17008457040001
 30
0.0
 11
40.94210451499998
 21
65.2661132204
 31
0.0
  0
LINE
  5
C6
330
1F
100
AcDbEntity
  8
LAYER0001
  6
CONTINUOUS
 62
     7
100
AcDbLine
 10
45.837585195
 20
72.17008457040001
 30
0.0
 11
45.837585195
 21
65.2661132204
 31
0.0
  0
LINE
  5
C7
330
1F
100
AcDbEntity
  8
LAYER0001
  6
CONTINUOUS
 62
     7
100
AcDbLine
 10
42.89030600499999
 20
72.17008457040001
 30
0.0
 11
40.94210451499998
 21
72.17008457040001
 31
0.0
  0
LINE
  5
C8
330
1F
100
AcDbEntity
  8
LAYER0001
  6
CONTINUOUS
 62
     7
100
AcDbLine
 10
42.89030600499999
 20
71.3699611504
 30
0.0
 11
41.74136666499999
 21
71.3699611504
 31
0.0
  0
LINE
  5
C9
330
1F
100
AcDbEntity
  8
LAYER0001
  6
CONTINUOUS
 62
     7
100
AcDbLine
 10
45.03918431499999
 20
66.0653753704
 30
0.0
 11
43.889383695
 21
66.0653753704
 31
0.0
  0
LINE
  5
CA
330
1F
100
AcDbEntity
  8
LAYER0001
  6
CONTINUOUS
 62
     7
100
AcDbLine
 10
43.889383695
 20
65.2661132204
 30
0.0
 11
43.889383695
 21
66.0653753704
 31
0.0
  0
LINE
  5
CB
330
1F
100
AcDbEntity
  8
LAYER0001
  6
CONTINUOUS
 62
     7
100
AcDbLine
 10
42.89030600499999
 20
65.2661132204
 30
0.0
 11
42.89030600499999
 21
66.0653753704
 31
0.0
  0
LINE
  5
CC
330
1F
100
AcDbEntity
  8
LAYER0001
  6
CONTINUOUS
 62
     7
100
AcDbLine
 10
42.89030600499999
 20
65.2661132204
 30
0.0
 11
40.94210451499998
 21
65.2661132204
 31
0.0
  0
LINE
  5
CD
330
1F
100
AcDbEntity
  8
LAYER0001
  6
CONTINUOUS
 62
     7
100
AcDbLine
 10
65.82000028499999
 20
71.3699611504
 30
0.0
 11
64.671922215
 21
71.3699611504
 31
0.0
  0
LINE
  5
CE
330
1F
100
AcDbEntity
  8
LAYER0001
  6
CONTINUOUS
 62
     7
100
AcDbLine
 10
65.82000028499999
 20
60.98945781040001
 30
0.0
 11
64.671922215
 21
60.98945781040001
 31
0.0
  0
LINE
  5
CF
330
1F
100
AcDbEntity
  8
LAYER0001
  6
CONTINUOUS
 62
     7
100
AcDbLine
 10
66.620123715
 20
60.1906263004
 30
0.0
 11
64.671922215
 21
60.1906263004
 31
0.0
  0
LINE
  5
D0
330
1F
100
AcDbEntity
  8
LAYER0001
  6
CONTINUOUS
 62
     7
100
AcDbLine
 10
66.620123715
 20
72.17008457040001
 30
0.0
 11
64.671922215
 21
72.17008457040001
 31
0.0
  0
LINE
  5
D1
330
1F
100
AcDbEntity
  8
LAYER0001
  6
CONTINUOUS
 62
     7
100
AcDbLine
 10
63.67198324500001
 20
72.17008457040001
 30
0.0
 11
63.67198324500001
 21
71.3699611504
 31
0.0
  0
LINE
  5
D2
330
1F
100
AcDbEntity
  8
LAYER0001
  6
CONTINUOUS
 62
     7
100
AcDbLine
 10
64.671922215
 20
72.17008457040001
 30
0.0
 11
64.671922215
 21
71.3699611504
 31
0.0
  0
LINE
  5
D3
330
1F
100
AcDbEntity
  8
LAYER0001
  6
CONTINUOUS
 62
     7
100
AcDbLine
 10
62.52304390499998
 20
71.3699611504
 30
0.0
 11
62.52304390499998
 21
60.98945781040001
 31
0.0
  0
LINE
  5
D4
330
1F
100
AcDbEntity
  8
LAYER0001
  6
CONTINUOUS
 62
     7
100
AcDbLine
 10
65.82000028499999
 20
71.3699611504
 30
0.0
 11
65.82000028499999
 21
60.98945781040001
 31
0.0
  0
LINE
  5
D5
330
1F
100
AcDbEntity
  8
LAYER0001
  6
CONTINUOUS
 62
     7
100
AcDbLine
 10
61.72464302500001
 20
72.17008457040001
 30
0.0
 11
61.72464302500001
 21
60.1906263004
 31
0.0
  0
LINE
  5
D6
330
1F
100
AcDbEntity
  8
LAYER0001
  6
CONTINUOUS
 62
     7
100
AcDbLine
 10
66.620123715
 20
72.17008457040001
 30
0.0
 11
66.620123715
 21
60.1906263004
 31
0.0
  0
LINE
  5
D7
330
1F
100
AcDbEntity
  8
LAYER0001
  6
CONTINUOUS
 62
     7
100
AcDbLine
 10
63.67198324500001
 20
72.17008457040001
 30
0.0
 11
61.72464302500001
 21
72.17008457040001
 31
0.0
  0
LINE
  5
D8
330
1F
100
AcDbEntity
  8
LAYER0001
  6
CONTINUOUS
 62
     7
100
AcDbLine
 10
63.67198324500001
 20
71.3699611504
 30
0.0
 11
62.52304390499998
 21
71.3699611504
 31
0.0
  0
LINE
  5
D9
330
1F
100
AcDbEntity
  8
LAYER0001
  6
CONTINUOUS
 62
     7
100
AcDbLine
 10
64.671922215
 20
60.98945781040001
 30
0.0
 11
64.671922215
 21
60.1906263004
 31
0.0
  0
LINE
  5
DA
330
1F
100
AcDbEntity
  8
LAYER0001
  6
CONTINUOUS
 62
     7
100
AcDbLine
 10
63.67198324500001
 20
60.98945781040001
 30
0.0
 11
63.67198324500001
 21
60.1906263004
 31
0.0
  0
LINE
  5
DB
330
1F
100
AcDbEntity
  8
LAYER0001
  6
CONTINUOUS
 62
     7
100
AcDbLine
 10
63.67198324500001
 20
60.98945781040001
 30
0.0
 11
62.52304390499998
 21
60.98945781040001
 31
0.0
  0
LINE
  5
DC
330
1F
100
AcDbEntity
  8
LAYER0001
  6
CONTINUOUS
 62
     7
100
AcDbLine
 10
63.67198324500001
 20
60.1906263004
 30
0.0
 11
61.72464302500001
 21
60.1906263004
 31
0.0
  0
LINE
  5
DD
330
1F
100
AcDbEntity
  8
LAYER0001
  6
CONTINUOUS
 62
     7
100
AcDbLine
 10
55.42873102499998
 20
71.3699611504
 30
0.0
 11
54.28065295499999
 21
71.3699611504
 31
0.0
  0
LINE
  5
DE
330
1F
100
AcDbEntity
  8
LAYER0001
  6
CONTINUOUS
 62
     7
100
AcDbLine
 10
55.42873102499998
 20
60.98945781040001
 30
0.0
 11
54.28065295499999
 21
60.98945781040001
 31
0.0
  0
LINE
  5
DF
330
1F
100
AcDbEntity
  8
LAYER0001
  6
CONTINUOUS
 62
     7
100
AcDbLine
 10
56.228854455
 20
60.1906263004
 30
0.0
 11
54.28065295499999
 21
60.1906263004
 31
0.0
  0
LINE
  5
E0
330
1F
100
AcDbEntity
  8
LAYER0001
  6
CONTINUOUS
 62
     7
100
AcDbLine
 10
56.228854455
 20
72.17008457040001
 30
0.0
 11
54.28065295499999
 21
72.17008457040001
 31
0.0
  0
LINE
  5
E1
330
1F
100
AcDbEntity
  8
LAYER0001
  6
CONTINUOUS
 62
     7
100
AcDbLine
 10
53.28157526499999
 20
72.17008457040001
 30
0.0
 11
53.28157526499999
 21
71.3699611504
 31
0.0
  0
LINE
  5
E2
330
1F
100
AcDbEntity
  8
LAYER0001
  6
CONTINUOUS
 62
     7
100
AcDbLine
 10
54.28065295499999
 20
72.17008457040001
 30
0.0
 11
54.28065295499999
 21
71.3699611504
 31
0.0
  0
LINE
  5
E3
330
1F
100
AcDbEntity
  8
LAYER0001
  6
CONTINUOUS
 62
     7
100
AcDbLine
 10
52.13263592499999
 20
71.3699611504
 30
0.0
 11
52.13263592499999
 21
60.98945781040001
 31
0.0
  0
LINE
  5
E4
330
1F
100
AcDbEntity
  8
LAYER0001
  6
CONTINUOUS
 62
     7
100
AcDbLine
 10
55.42873102499998
 20
71.3699611504
 30
0.0
 11
55.42873102499998
 21
60.98945781040001
 31
0.0
  0
LINE
  5
E5
330
1F
100
AcDbEntity
  8
LAYER0001
  6
CONTINUOUS
 62
     7
100
AcDbLine
 10
51.333373765
 20
72.17008457040001
 30
0.0
 11
51.333373765
 21
60.1906263004
 31
0.0
  0
LINE
  5
E6
330
1F
100
AcDbEntity
  8
LAYER0001
  6
CONTINUOUS
 62
     7
100
AcDbLine
 10
56.228854455
 20
72.17008457040001
 30
0.0
 11
56.228854455
 21
60.1906263004
 31
0.0
  0
LINE
  5
E7
330
1F
100
AcDbEntity
  8
LAYER0001
  6
CONTINUOUS
 62
     7
100
AcDbLine
 10
53.28157526499999
 20
72.17008457040001
 30
0.0
 11
51.333373765
 21
72.17008457040001
 31
0.0
  0
LINE
  5
E8
330
1F
100
AcDbEntity
  8
LAYER0001
  6
CONTINUOUS
 62
     7
100
AcDbLine
 10
53.28157526499999
 20
71.3699611504
 30
0.0
 11
52.13263592499999
 21
71.3699611504
 31
0.0
  0
LINE
  5
E9
330
1F
100
AcDbEntity
  8
LAYER0001
  6
CONTINUOUS
 62
     7
100
AcDbLine
 10
54.28065295499999
 20
60.98945781040001
 30
0.0
 11
54.28065295499999
 21
60.1906263004
 31
0.0
  0
LINE
  5
EA
330
1F
100
AcDbEntity
  8
LAYER0001
  6
CONTINUOUS
 62
     7
100
AcDbLine
 10
53.28157526499999
 20
60.98945781040001
 30
0.0
 11
53.28157526499999
 21
60.1906263004
 31
0.0
  0
LINE
  5
EB
330
1F
100
AcDbEntity
  8
LAYER0001
  6
CONTINUOUS
 62
     7
100
AcDbLine
 10
53.28157526499999
 20
60.98945781040001
 30
0.0
 11
52.13263592499999
 21
60.98945781040001
 31
0.0
  0
LINE
  5
EC
330
1F
100
AcDbEntity
  8
LAYER0001
  6
CONTINUOUS
 62
     7
100
AcDbLine
 10
53.28157526499999
 20
60.1906263004
 30
0.0
 11
51.333373765
 21
60.1906263004
 31
0.0
  0
LINE
  5
ED
330
1F
100
AcDbEntity
  8
LAYER0001
  6
CONTINUOUS
 62
     7
100
AcDbLine
 10
7.121602134999989
 20
-50.2121955296
 30
0.0
 11
6.122524444999982
 21
-50.2121955296
 31
0.0
  0
LINE
  5
EE
330
1F
100
AcDbEntity
  8
LAYER0001
  6
CONTINUOUS
 62
     7
100
AcDbLine
 10
88.45083252499998
 20
-48.2144707896
 30
0.0
 11
88.45083252499998
 21
-48.5141940996
 31
0.0
  0
LINE
  5
EF
330
1F
100
AcDbEntity
  8
LAYER0001
  6
CONTINUOUS
 62
     7
100
AcDbLine
 10
88.45083252499998
 20
-48.5141940996
 30
0.0
 11
86.452677145
 21
-49.7130873196
 31
0.0
  0
LINE
  5
F0
330
1F
100
AcDbEntity
  8
LAYER0001
  6
CONTINUOUS
 62
     7
100
AcDbLine
 10
86.452677145
 20
-49.7130873196
 30
0.0
 11
85.45273818499999
 21
-49.7130873196
 31
0.0
  0
LINE
  5
F1
330
1F
100
AcDbEntity
  8
LAYER0001
  6
CONTINUOUS
 62
     7
100
AcDbLine
 10
85.45273818499999
 20
-49.7130873196
 30
0.0
 11
85.45273818499999
 21
-48.7144402696
 31
0.0
  0
LINE
  5
F2
330
1F
100
AcDbEntity
  8
LAYER0001
  6
CONTINUOUS
 62
     7
100
AcDbLine
 10
85.45273818499999
 20
-48.7144402696
 30
0.0
 11
83.15572076499998
 21
-48.7144402696
 31
0.0
  0
LINE
  5
F3
330
1F
100
AcDbEntity
  8
LAYER0001
  6
CONTINUOUS
 62
     7
100
AcDbLine
 10
3.627414034999987
 20
-37.7245856696
 30
0.0
 11
1.228766304999994
 21
-37.7245856696
 31
0.0
  0
LINE
  5
F4
330
1F
100
AcDbEntity
  8
LAYER0001
  6
CONTINUOUS
 62
     7
100
AcDbLine
 10
3.627414034999987
 20
-27.73294748959999
 30
0.0
 11
1.228766304999994
 21
-27.73294748959999
 31
0.0
  0
LINE
  5
F5
330
1F
100
AcDbEntity
  8
LAYER0001
  6
CONTINUOUS
 62
     7
100
AcDbLine
 10
3.627414034999987
 20
71.1753132504
 30
0.0
 11
1.228766304999994
 21
71.1753132504
 31
0.0
  0
LINE
  5
F6
330
1F
100
AcDbEntity
  8
LAYER0001
  6
CONTINUOUS
 62
     7
100
AcDbLine
 10
3.627414034999987
 20
61.18453635040001
 30
0.0
 11
1.228766304999994
 21
61.18453635040001
 31
0.0
  0
LINE
  5
F7
330
1F
100
AcDbEntity
  8
LAYER0001
  6
CONTINUOUS
 62
     7
100
AcDbLine
 10
1.228766304999994
 20
71.1753132504
 30
0.0
 11
1.228766304999994
 21
61.18453635040001
 31
0.0
  0
LINE
  5
F8
330
1F
100
AcDbEntity
  8
LAYER0001
  6
CONTINUOUS
 62
     7
100
AcDbLine
 10
3.627414034999987
 20
71.1753132504
 30
0.0
 11
3.627414034999987
 21
61.18453635040001
 31
0.0
  0
LINE
  5
F9
330
1F
100
AcDbEntity
  8
LAYER0001
  6
CONTINUOUS
 62
     7
100
AcDbLine
 10
1.228766304999994
 20
-27.73294748959999
 30
0.0
 11
1.228766304999994
 21
-37.7245856696
 31
0.0
  0
LINE
  5
FA
330
1F
100
AcDbEntity
  8
LAYER0001
  6
CONTINUOUS
 62
     7
100
AcDbLine
 10
3.627414034999987
 20
-27.73294748959999
 30
0.0
 11
3.627414034999987
 21
-37.7245856696
 31
0.0
  0
LINE
  5
FB
330
1F
100
AcDbEntity
  8
LAYER0001
  6
CONTINUOUS
 62
     7
100
AcDbLine
 10
-102.712040415
 20
68.4683294804
 30
0.0
 11
-109.605553735
 21
68.4683294804
 31
0.0
  0
LINE
  5
FC
330
1F
100
AcDbEntity
  8
LAYER0001
  6
CONTINUOUS
 62
     7
100
AcDbLine
 10
-100.313700575
 20
73.17346863040001
 30
0.0
 11
-98.115729655
 21
73.17346863040001
 31
0.0
  0
LINE
  5
FD
330
1F
100
AcDbEntity
  8
LAYER0001
  6
CONTINUOUS
 62
     7
100
AcDbLine
 10
-98.115729655
 20
73.17346863040001
 30
0.0
 11
-98.115729655
 21
72.1743909404
 31
0.0
  0
LINE
  5
FE
330
1F
100
AcDbEntity
  8
LAYER0001
  6
CONTINUOUS
 62
     7
100
AcDbLine
 10
-98.115729655
 20
72.1743909404
 30
0.0
 11
-100.313700575
 21
72.1743909404
 31
0.0
  0
LINE
  5
FF
330
1F
100
AcDbEntity
  8
LAYER0001
  6
CONTINUOUS
 62
     7
100
AcDbLine
 10
-100.313700575
 20
72.1743909404
 30
0.0
 11
-100.313700575
 21
73.17346863040001
 31
0.0
  0
LINE
  5
100
330
1F
100
AcDbEntity
  8
LAYER0001
  6
CONTINUOUS
 62
     7
100
AcDbLine
 10
-102.712040415
 20
78.1688570904
 30
0.0
 11
-109.605553735
 21
78.1688570904
 31
0.0
  0
LINE
  5
101
330
1F
100
AcDbEntity
  8
LAYER0001
  6
CONTINUOUS
 62
     7
100
AcDbLine
 10
-96.316528535
 20
72.1743909404
 30
0.0
 11
-94.118988255
 21
72.1743909404
 31
0.0
  0
LINE
  5
102
330
1F
100
AcDbEntity
  8
LAYER0001
  6
CONTINUOUS
 62
     7
100
AcDbLine
 10
-94.118988255
 20
72.1743909404
 30
0.0
 11
-94.118988255
 21
73.17346863040001
 31
0.0
  0
LINE
  5
103
330
1F
100
AcDbEntity
  8
LAYER0001
  6
CONTINUOUS
 62
     7
100
AcDbLine
 10
-94.118988255
 20
73.17346863040001
 30
0.0
 11
-96.316528535
 21
73.17346863040001
 31
0.0
  0
LINE
  5
104
330
1F
100
AcDbEntity
  8
LAYER0001
  6
CONTINUOUS
 62
     7
100
AcDbLine
 10
-96.316528535
 20
73.17346863040001
 30
0.0
 11
-96.316528535
 21
72.1743909404
 31
0.0
  0
LINE
  5
105
330
1F
100
AcDbEntity
  8
LAYER0001
  6
CONTINUOUS
 62
     7
100
AcDbLine
 10
81.05765761499998
 20
70.67577441040001
 30
0.0
 11
81.18045373499999
 21
70.6807452004
 31
0.0
  0
LINE
  5
106
330
1F
100
AcDbEntity
  8
LAYER0001
  6
CONTINUOUS
 62
     7
100
AcDbLine
 10
81.18045373499999
 20
70.6807452004
 30
0.0
 11
81.30053684499998
 21
70.69539982040001
 31
0.0
  0
LINE
  5
107
330
1F
100
AcDbEntity
  8
LAYER0001
  6
CONTINUOUS
 62
     7
100
AcDbLine
 10
81.30053684499998
 20
70.69539982040001
 30
0.0
 11
81.41751937499998
 21
70.7193516904
 31
0.0
  0
LINE
  5
108
330
1F
100
AcDbEntity
  8
LAYER0001
  6
CONTINUOUS
 62
     7
100
AcDbLine
 10
81.41751937499998
 20
70.7193516904
 30
0.0
 11
81.53101373499999
 21
70.7522141904
 31
0.0
  0
LINE
  5
109
330
1F
100
AcDbEntity
  8
LAYER0001
  6
CONTINUOUS
 62
     7
100
AcDbLine
 10
81.53101373499999
 20
70.7522141904
 30
0.0
 11
81.64063236499999
 21
70.7936007104
 31
0.0
  0
LINE
  5
10A
330
1F
100
AcDbEntity
  8
LAYER0001
  6
CONTINUOUS
 62
     7
100
AcDbLine
 10
81.64063236499999
 20
70.7936007104
 30
0.0
 11
81.745987695
 21
70.84312466040001
 31
0.0
  0
LINE
  5
10B
330
1F
100
AcDbEntity
  8
LAYER0001
  6
CONTINUOUS
 62
     7
100
AcDbLine
 10
81.745987695
 20
70.84312466040001
 30
0.0
 11
81.84669214499999
 21
70.90039942039999
 31
0.0
  0
LINE
  5
10C
330
1F
100
AcDbEntity
  8
LAYER0001
  6
CONTINUOUS
 62
     7
100
AcDbLine
 10
81.84669214499999
 20
70.90039942039999
 30
0.0
 11
81.942358135
 21
70.9650384004
 31
0.0
  0
LINE
  5
10D
330
1F
100
AcDbEntity
  8
LAYER0001
  6
CONTINUOUS
 62
     7
100
AcDbLine
 10
81.942358135
 20
70.9650384004
 30
0.0
 11
82.032598105
 21
71.0366550004
 31
0.0
  0
LINE
  5
10E
330
1F
100
AcDbEntity
  8
LAYER0001
  6
CONTINUOUS
 62
     7
100
AcDbLine
 10
82.032598105
 20
71.0366550004
 30
0.0
 11
82.117024475
 21
71.11486259040001
 31
0.0
  0
LINE
  5
10F
330
1F
100
AcDbEntity
  8
LAYER0001
  6
CONTINUOUS
 62
     7
100
AcDbLine
 10
82.117024475
 20
71.11486259040001
 30
0.0
 11
82.19524967499999
 21
71.1992745904
 31
0.0
  0
LINE
  5
110
330
1F
100
AcDbEntity
  8
LAYER0001
  6
CONTINUOUS
 62
     7
100
AcDbLine
 10
82.19524967499999
 20
71.1992745904
 30
0.0
 11
82.266886135
 21
71.2895043904
 31
0.0
  0
LINE
  5
111
330
1F
100
AcDbEntity
  8
LAYER0001
  6
CONTINUOUS
 62
     7
100
AcDbLine
 10
82.266886135
 20
71.2895043904
 30
0.0
 11
82.33154626499999
 21
71.3851653804
 31
0.0
  0
LINE
  5
112
330
1F
100
AcDbEntity
  8
LAYER0001
  6
CONTINUOUS
 62
     7
100
AcDbLine
 10
82.33154626499999
 20
71.3851653804
 30
0.0
 11
82.388842515
 21
71.4858709504
 31
0.0
  0
LINE
  5
113
330
1F
100
AcDbEntity
  8
LAYER0001
  6
CONTINUOUS
 62
     7
100
AcDbLine
 10
82.388842515
 20
71.4858709504
 30
0.0
 11
82.438387285
 21
71.59123452040001
 31
0.0
  0
LINE
  5
114
330
1F
100
AcDbEntity
  8
LAYER0001
  6
CONTINUOUS
 62
     7
100
AcDbLine
 10
82.438387285
 20
71.59123452040001
 30
0.0
 11
82.479793035
 21
71.70086946040001
 31
0.0
  0
LINE
  5
115
330
1F
100
AcDbEntity
  8
LAYER0001
  6
CONTINUOUS
 62
     7
100
AcDbLine
 10
82.479793035
 20
71.70086946040001
 30
0.0
 11
82.512672165
 21
71.81438918040001
 31
0.0
  0
LINE
  5
116
330
1F
100
AcDbEntity
  8
LAYER0001
  6
CONTINUOUS
 62
     7
100
AcDbLine
 10
82.512672165
 20
71.81438918040001
 30
0.0
 11
82.53663710499998
 21
71.93140707040001
 31
0.0
  0
LINE
  5
117
330
1F
100
AcDbEntity
  8
LAYER0001
  6
CONTINUOUS
 62
     7
100
AcDbLine
 10
82.53663710499998
 20
71.93140707040001
 30
0.0
 11
82.551300295
 21
72.05153652039999
 31
0.0
  0
LINE
  5
118
330
1F
100
AcDbEntity
  8
LAYER0001
  6
CONTINUOUS
 62
     7
100
AcDbLine
 10
82.551300295
 20
72.05153652039999
 30
0.0
 11
82.55627415499998
 21
72.1743909404
 31
0.0
  0
LINE
  5
119
330
1F
100
AcDbEntity
  8
LAYER0001
  6
CONTINUOUS
 62
     7
100
AcDbLine
 10
88.550740295
 20
72.92412985039999
 30
0.0
 11
88.53778721499998
 21
73.2046402904
 31
0.0
  0
LINE
  5
11A
330
1F
100
AcDbEntity
  8
LAYER0001
  6
CONTINUOUS
 62
     7
100
AcDbLine
 10
88.53778721499998
 20
73.2046402904
 30
0.0
 11
88.49969486499998
 21
73.4778498604
 31
0.0
  0
LINE
  5
11B
330
1F
100
AcDbEntity
  8
LAYER0001
  6
CONTINUOUS
 62
     7
100
AcDbLine
 10
88.49969486499998
 20
73.4778498604
 30
0.0
 11
88.43761356499999
 21
73.74260824039999
 31
0.0
  0
LINE
  5
11C
330
1F
100
AcDbEntity
  8
LAYER0001
  6
CONTINUOUS
 62
     7
100
AcDbLine
 10
88.43761356499999
 20
73.74260824039999
 30
0.0
 11
88.352693625
 21
73.9977651104
 31
0.0
  0
LINE
  5
11D
330
1F
100
AcDbEntity
  8
LAYER0001
  6
CONTINUOUS
 62
     7
100
AcDbLine
 10
88.352693625
 20
73.9977651104
 30
0.0
 11
88.246085375
 21
74.2421701504
 31
0.0
  0
LINE
  5
11E
330
1F
100
AcDbEntity
  8
LAYER0001
  6
CONTINUOUS
 62
     7
100
AcDbLine
 10
88.246085375
 20
74.2421701504
 30
0.0
 11
88.118939135
 21
74.4746730304
 31
0.0
  0
LINE
  5
11F
330
1F
100
AcDbEntity
  8
LAYER0001
  6
CONTINUOUS
 62
     7
100
AcDbLine
 10
88.118939135
 20
74.4746730304
 30
0.0
 11
87.97240522499999
 21
74.69412345040001
 31
0.0
  0
LINE
  5
120
330
1F
100
AcDbEntity
  8
LAYER0001
  6
CONTINUOUS
 62
     7
100
AcDbLine
 10
87.97240522499999
 20
74.69412345040001
 30
0.0
 11
87.80763396500001
 21
74.89937107040001
 31
0.0
  0
LINE
  5
121
330
1F
100
AcDbEntity
  8
LAYER0001
  6
CONTINUOUS
 62
     7
100
AcDbLine
 10
87.80763396500001
 20
74.89937107040001
 30
0.0
 11
87.62577566499999
 21
75.08926557040002
 31
0.0
  0
LINE
  5
122
330
1F
100
AcDbEntity
  8
LAYER0001
  6
CONTINUOUS
 62
     7
100
AcDbLine
 10
87.62577566499999
 20
75.08926557040002
 30
0.0
 11
87.427980665
 21
75.2626566504
 31
0.0
  0
LINE
  5
123
330
1F
100
AcDbEntity
  8
LAYER0001
  6
CONTINUOUS
 62
     7
100
AcDbLine
 10
87.427980665
 20
75.2626566504
 30
0.0
 11
87.215399265
 21
75.41839397039999
 31
0.0
  0
LINE
  5
124
330
1F
100
AcDbEntity
  8
LAYER0001
  6
CONTINUOUS
 62
     7
100
AcDbLine
 10
87.215399265
 20
75.41839397039999
 30
0.0
 11
86.98918180499999
 21
75.55532721040001
 31
0.0
  0
LINE
  5
125
330
1F
100
AcDbEntity
  8
LAYER0001
  6
CONTINUOUS
 62
     7
100
AcDbLine
 10
86.98918180499999
 20
75.55532721040001
 30
0.0
 11
86.750478595
 21
75.67230606039999
 31
0.0
  0
LINE
  5
126
330
1F
100
AcDbEntity
  8
LAYER0001
  6
CONTINUOUS
 62
     7
100
AcDbLine
 10
86.750478595
 20
75.67230606039999
 30
0.0
 11
86.50043994499998
 21
75.76818019040002
 31
0.0
  0
LINE
  5
127
330
1F
100
AcDbEntity
  8
LAYER0001
  6
CONTINUOUS
 62
     7
100
AcDbLine
 10
86.50043994499998
 20
75.76818019040002
 30
0.0
 11
86.24021619499999
 21
75.84179929039999
 31
0.0
  0
LINE
  5
128
330
1F
100
AcDbEntity
  8
LAYER0001
  6
CONTINUOUS
 62
     7
100
AcDbLine
 10
86.24021619499999
 20
75.84179929039999
 30
0.0
 11
85.970957655
 21
75.8920130404
 31
0.0
  0
LINE
  5
129
330
1F
100
AcDbEntity
  8
LAYER0001
  6
CONTINUOUS
 62
     7
100
AcDbLine
 10
85.970957655
 20
75.8920130404
 30
0.0
 11
85.69381465499998
 21
75.91767110040001
 31
0.0
  0
LINE
  5
12A
330
1F
100
AcDbEntity
  8
LAYER0001
  6
CONTINUOUS
 62
     7
100
AcDbLine
 10
85.69381465499998
 20
75.91767110040001
 30
0.0
 11
85.41155104499998
 21
75.91767110040001
 31
0.0
  0
LINE
  5
12B
330
1F
100
AcDbEntity
  8
LAYER0001
  6
CONTINUOUS
 62
     7
100
AcDbLine
 10
85.41155104499998
 20
75.91767110040001
 30
0.0
 11
85.134555165
 21
75.8920130404
 31
0.0
  0
LINE
  5
12C
330
1F
100
AcDbEntity
  8
LAYER0001
  6
CONTINUOUS
 62
     7
100
AcDbLine
 10
85.134555165
 20
75.8920130404
 30
0.0
 11
84.86544230499999
 21
75.84179929039999
 31
0.0
  0
LINE
  5
12D
330
1F
100
AcDbEntity
  8
LAYER0001
  6
CONTINUOUS
 62
     7
100
AcDbLine
 10
84.86544230499999
 20
75.84179929039999
 30
0.0
 11
84.60536182499999
 21
75.76818019040002
 31
0.0
  0
LINE
  5
12E
330
1F
100
AcDbEntity
  8
LAYER0001
  6
CONTINUOUS
 62
     7
100
AcDbLine
 10
84.60536182499999
 20
75.76818019040002
 30
0.0
 11
84.35546307499999
 21
75.67230606039999
 31
0.0
  0
LINE
  5
12F
330
1F
100
AcDbEntity
  8
LAYER0001
  6
CONTINUOUS
 62
     7
100
AcDbLine
 10
84.35546307499999
 20
75.67230606039999
 30
0.0
 11
84.11689541499999
 21
75.55532721040001
 31
0.0
  0
LINE
  5
130
330
1F
100
AcDbEntity
  8
LAYER0001
  6
CONTINUOUS
 62
     7
100
AcDbLine
 10
84.11689541499999
 20
75.55532721040001
 30
0.0
 11
83.89080820499998
 21
75.41839397039999
 31
0.0
  0
LINE
  5
131
330
1F
100
AcDbEntity
  8
LAYER0001
  6
CONTINUOUS
 62
     7
100
AcDbLine
 10
83.89080820499998
 20
75.41839397039999
 30
0.0
 11
83.678350795
 21
75.2626566504
 31
0.0
  0
LINE
  5
132
330
1F
100
AcDbEntity
  8
LAYER0001
  6
CONTINUOUS
 62
     7
100
AcDbLine
 10
83.678350795
 20
75.2626566504
 30
0.0
 11
83.480672535
 21
75.08926557040002
 31
0.0
  0
LINE
  5
133
330
1F
100
AcDbEntity
  8
LAYER0001
  6
CONTINUOUS
 62
     7
100
AcDbLine
 10
83.480672535
 20
75.08926557040002
 30
0.0
 11
83.29892279499998
 21
74.89937107040001
 31
0.0
  0
LINE
  5
134
330
1F
100
AcDbEntity
  8
LAYER0001
  6
CONTINUOUS
 62
     7
100
AcDbLine
 10
83.29892279499998
 20
74.89937107040001
 30
0.0
 11
83.13425093499998
 21
74.69412345040001
 31
0.0
  0
LINE
  5
135
330
1F
100
AcDbEntity
  8
LAYER0001
  6
CONTINUOUS
 62
     7
100
AcDbLine
 10
83.13425093499998
 20
74.69412345040001
 30
0.0
 11
82.987806285
 21
74.4746730304
 31
0.0
  0
LINE
  5
136
330
1F
100
AcDbEntity
  8
LAYER0001
  6
CONTINUOUS
 62
     7
100
AcDbLine
 10
82.987806285
 20
74.4746730304
 30
0.0
 11
82.86073823499999
 21
74.2421701504
 31
0.0
  0
LINE
  5
137
330
1F
100
AcDbEntity
  8
LAYER0001
  6
CONTINUOUS
 62
     7
100
AcDbLine
 10
82.86073823499999
 20
74.2421701504
 30
0.0
 11
82.75419611499998
 21
73.9977651104
 31
0.0
  0
LINE
  5
138
330
1F
100
AcDbEntity
  8
LAYER0001
  6
CONTINUOUS
 62
     7
100
AcDbLine
 10
82.75419611499998
 20
73.9977651104
 30
0.0
 11
82.669329285
 21
73.74260824039999
 31
0.0
  0
LINE
  5
139
330
1F
100
AcDbEntity
  8
LAYER0001
  6
CONTINUOUS
 62
     7
100
AcDbLine
 10
82.669329285
 20
73.74260824039999
 30
0.0
 11
82.60728711499999
 21
73.4778498604
 31
0.0
  0
LINE
  5
13A
330
1F
100
AcDbEntity
  8
LAYER0001
  6
CONTINUOUS
 62
     7
100
AcDbLine
 10
82.60728711499999
 20
73.4778498604
 30
0.0
 11
82.569218955
 21
73.2046402904
 31
0.0
  0
LINE
  5
13B
330
1F
100
AcDbEntity
  8
LAYER0001
  6
CONTINUOUS
 62
     7
100
AcDbLine
 10
82.569218955
 20
73.2046402904
 30
0.0
 11
82.55627415499998
 21
72.92412985039999
 31
0.0
  0
LINE
  5
13C
330
1F
100
AcDbEntity
  8
LAYER0001
  6
CONTINUOUS
 62
     7
100
AcDbLine
 10
81.05765761499998
 20
69.1775885104
 30
0.0
 11
81.303476805
 21
69.18752083039999
 31
0.0
  0
LINE
  5
13D
330
1F
100
AcDbEntity
  8
LAYER0001
  6
CONTINUOUS
 62
     7
100
AcDbLine
 10
81.303476805
 20
69.18752083039999
 30
0.0
 11
81.54381054499999
 21
69.2168040304
 31
0.0
  0
LINE
  5
13E
330
1F
100
AcDbEntity
  8
LAYER0001
  6
CONTINUOUS
 62
     7
100
AcDbLine
 10
81.54381054499999
 20
69.2168040304
 30
0.0
 11
81.777888845
 21
69.26466750040001
 31
0.0
  0
LINE
  5
13F
330
1F
100
AcDbEntity
  8
LAYER0001
  6
CONTINUOUS
 62
     7
100
AcDbLine
 10
81.777888845
 20
69.26466750040001
 30
0.0
 11
82.004941745
 21
69.3303406004
 31
0.0
  0
LINE
  5
140
330
1F
100
AcDbEntity
  8
LAYER0001
  6
CONTINUOUS
 62
     7
100
AcDbLine
 10
82.004941745
 20
69.3303406004
 30
0.0
 11
82.224199245
 21
69.4130527104
 31
0.0
  0
LINE
  5
141
330
1F
100
AcDbEntity
  8
LAYER0001
  6
CONTINUOUS
 62
     7
100
AcDbLine
 10
82.224199245
 20
69.4130527104
 30
0.0
 11
82.434891375
 21
69.5120332104
 31
0.0
  0
LINE
  5
142
330
1F
100
AcDbEntity
  8
LAYER0001
  6
CONTINUOUS
 62
     7
100
AcDbLine
 10
82.434891375
 20
69.5120332104
 30
0.0
 11
82.63624816499998
 21
69.6265114704
 31
0.0
  0
LINE
  5
143
330
1F
100
AcDbEntity
  8
LAYER0001
  6
CONTINUOUS
 62
     7
100
AcDbLine
 10
82.63624816499998
 20
69.6265114704
 30
0.0
 11
82.827499625
 21
69.7557168704
 31
0.0
  0
LINE
  5
144
330
1F
100
AcDbEntity
  8
LAYER0001
  6
CONTINUOUS
 62
     7
100
AcDbLine
 10
82.827499625
 20
69.7557168704
 30
0.0
 11
83.00787578499998
 21
69.8988787804
 31
0.0
  0
LINE
  5
145
330
1F
100
AcDbEntity
  8
LAYER0001
  6
CONTINUOUS
 62
     7
100
AcDbLine
 10
83.00787578499998
 20
69.8988787804
 30
0.0
 11
83.176606655
 21
70.05522658039999
 31
0.0
  0
LINE
  5
146
330
1F
100
AcDbEntity
  8
LAYER0001
  6
CONTINUOUS
 62
     7
100
AcDbLine
 10
83.176606655
 20
70.05522658039999
 30
0.0
 11
83.33292226500001
 21
70.2239896504
 31
0.0
  0
LINE
  5
147
330
1F
100
AcDbEntity
  8
LAYER0001
  6
CONTINUOUS
 62
     7
100
AcDbLine
 10
83.33292226500001
 20
70.2239896504
 30
0.0
 11
83.476052635
 21
70.40439735039999
 31
0.0
  0
LINE
  5
148
330
1F
100
AcDbEntity
  8
LAYER0001
  6
CONTINUOUS
 62
     7
100
AcDbLine
 10
83.476052635
 20
70.40439735039999
 30
0.0
 11
83.60522778499998
 21
70.59567906040002
 31
0.0
  0
LINE
  5
149
330
1F
100
AcDbEntity
  8
LAYER0001
  6
CONTINUOUS
 62
     7
100
AcDbLine
 10
83.60522778499998
 20
70.59567906040002
 30
0.0
 11
83.719677725
 21
70.7970641604
 31
0.0
  0
LINE
  5
14A
330
1F
100
AcDbEntity
  8
LAYER0001
  6
CONTINUOUS
 62
     7
100
AcDbLine
 10
83.719677725
 20
70.7970641604
 30
0.0
 11
83.818632495
 21
71.0077820304
 31
0.0
  0
LINE
  5
14B
330
1F
100
AcDbEntity
  8
LAYER0001
  6
CONTINUOUS
 62
     7
100
AcDbLine
 10
83.818632495
 20
71.0077820304
 30
0.0
 11
83.901322115
 21
71.22706203039999
 31
0.0
  0
LINE
  5
14C
330
1F
100
AcDbEntity
  8
LAYER0001
  6
CONTINUOUS
 62
     7
100
AcDbLine
 10
83.901322115
 20
71.22706203039999
 30
0.0
 11
83.966976585
 21
71.4541335504
 31
0.0
  0
LINE
  5
14D
330
1F
100
AcDbEntity
  8
LAYER0001
  6
CONTINUOUS
 62
     7
100
AcDbLine
 10
83.966976585
 20
71.4541335504
 30
0.0
 11
84.01482594499998
 21
71.68822596039999
 31
0.0
  0
LINE
  5
14E
330
1F
100
AcDbEntity
  8
LAYER0001
  6
CONTINUOUS
 62
     7
100
AcDbLine
 10
84.01482594499998
 20
71.68822596039999
 30
0.0
 11
84.04410021499999
 21
71.92856863040001
 31
0.0
  0
LINE
  5
14F
330
1F
100
AcDbEntity
  8
LAYER0001
  6
CONTINUOUS
 62
     7
100
AcDbLine
 10
84.04410021499999
 20
71.92856863040001
 30
0.0
 11
84.054029415
 21
72.1743909404
 31
0.0
  0
LINE
  5
150
330
1F
100
AcDbEntity
  8
LAYER0001
  6
CONTINUOUS
 62
     7
100
AcDbLine
 10
87.052123755
 20
72.92412985039999
 30
0.0
 11
87.045647145
 21
73.06431741040001
 31
0.0
  0
LINE
  5
151
330
1F
100
AcDbEntity
  8
LAYER0001
  6
CONTINUOUS
 62
     7
100
AcDbLine
 10
87.045647145
 20
73.06431741040001
 30
0.0
 11
87.02660040499998
 21
73.20086623040001
 31
0.0
  0
LINE
  5
152
330
1F
100
AcDbEntity
  8
LAYER0001
  6
CONTINUOUS
 62
     7
100
AcDbLine
 10
87.02660040499998
 20
73.20086623040001
 30
0.0
 11
86.995558225
 21
73.33320018040001
 31
0.0
  0
LINE
  5
153
330
1F
100
AcDbEntity
  8
LAYER0001
  6
CONTINUOUS
 62
     7
100
AcDbLine
 10
86.995558225
 20
73.33320018040001
 30
0.0
 11
86.95309528499999
 21
73.46074314040001
 31
0.0
  0
LINE
  5
154
330
1F
100
AcDbEntity
  8
LAYER0001
  6
CONTINUOUS
 62
     7
100
AcDbLine
 10
86.95309528499999
 20
73.46074314040001
 30
0.0
 11
86.89978625499998
 21
73.5829189904
 31
0.0
  0
LINE
  5
155
330
1F
100
AcDbEntity
  8
LAYER0001
  6
CONTINUOUS
 62
     7
100
AcDbLine
 10
86.89978625499998
 20
73.5829189904
 30
0.0
 11
86.83620582500001
 21
73.69915159039999
 31
0.0
  0
LINE
  5
156
330
1F
100
AcDbEntity
  8
LAYER0001
  6
CONTINUOUS
 62
     7
100
AcDbLine
 10
86.83620582500001
 20
73.69915159039999
 30
0.0
 11
86.762928665
 21
73.8088648204
 31
0.0
  0
LINE
  5
157
330
1F
100
AcDbEntity
  8
LAYER0001
  6
CONTINUOUS
 62
     7
100
AcDbLine
 10
86.762928665
 20
73.8088648204
 30
0.0
 11
86.680529455
 21
73.9114825604
 31
0.0
  0
LINE
  5
158
330
1F
100
AcDbEntity
  8
LAYER0001
  6
CONTINUOUS
 62
     7
100
AcDbLine
 10
86.680529455
 20
73.9114825604
 30
0.0
 11
86.58958286499998
 21
74.00642869040001
 31
0.0
  0
LINE
  5
159
330
1F
100
AcDbEntity
  8
LAYER0001
  6
CONTINUOUS
 62
     7
100
AcDbLine
 10
86.58958286499998
 20
74.00642869040001
 30
0.0
 11
86.490663595
 21
74.0931270804
 31
0.0
  0
LINE
  5
15A
330
1F
100
AcDbEntity
  8
LAYER0001
  6
CONTINUOUS
 62
     7
100
AcDbLine
 10
86.490663595
 20
74.0931270804
 30
0.0
 11
86.384346295
 21
74.1710016104
 31
0.0
  0
LINE
  5
15B
330
1F
100
AcDbEntity
  8
LAYER0001
  6
CONTINUOUS
 62
     7
100
AcDbLine
 10
86.384346295
 20
74.1710016104
 30
0.0
 11
86.271205665
 21
74.2394761404
 31
0.0
  0
LINE
  5
15C
330
1F
100
AcDbEntity
  8
LAYER0001
  6
CONTINUOUS
 62
     7
100
AcDbLine
 10
86.271205665
 20
74.2394761404
 30
0.0
 11
86.15181637499998
 21
74.29797457040002
 31
0.0
  0
LINE
  5
15D
330
1F
100
AcDbEntity
  8
LAYER0001
  6
CONTINUOUS
 62
     7
100
AcDbLine
 10
86.15181637499998
 20
74.29797457040002
 30
0.0
 11
86.026753095
 21
74.34592076039999
 31
0.0
  0
LINE
  5
15E
330
1F
100
AcDbEntity
  8
LAYER0001
  6
CONTINUOUS
 62
     7
100
AcDbLine
 10
86.026753095
 20
74.34592076039999
 30
0.0
 11
85.896590525
 21
74.3827385804
 31
0.0
  0
LINE
  5
15F
330
1F
100
AcDbEntity
  8
LAYER0001
  6
CONTINUOUS
 62
     7
100
AcDbLine
 10
85.896590525
 20
74.3827385804
 30
0.0
 11
85.76190331499998
 21
74.40785192039999
 31
0.0
  0
LINE
  5
160
330
1F
100
AcDbEntity
  8
LAYER0001
  6
CONTINUOUS
 62
     7
100
AcDbLine
 10
85.76190331499998
 20
74.40785192039999
 30
0.0
 11
85.62326616499999
 21
74.4206846504
 31
0.0
  0
LINE
  5
161
330
1F
100
AcDbEntity
  8
LAYER0001
  6
CONTINUOUS
 62
     7
100
AcDbLine
 10
85.62326616499999
 20
74.4206846504
 30
0.0
 11
85.48216712499999
 21
74.4206846504
 31
0.0
  0
LINE
  5
162
330
1F
100
AcDbEntity
  8
LAYER0001
  6
CONTINUOUS
 62
     7
100
AcDbLine
 10
85.48216712499999
 20
74.4206846504
 30
0.0
 11
85.34377674499999
 21
74.40785192039999
 31
0.0
  0
LINE
  5
163
330
1F
100
AcDbEntity
  8
LAYER0001
  6
CONTINUOUS
 62
     7
100
AcDbLine
 10
85.34377674499999
 20
74.40785192039999
 30
0.0
 11
85.209291465
 21
74.3827385804
 31
0.0
  0
LINE
  5
164
330
1F
100
AcDbEntity
  8
LAYER0001
  6
CONTINUOUS
 62
     7
100
AcDbLine
 10
85.209291465
 20
74.3827385804
 30
0.0
 11
85.07928982499999
 21
74.34592076039999
 31
0.0
  0
LINE
  5
165
330
1F
100
AcDbEntity
  8
LAYER0001
  6
CONTINUOUS
 62
     7
100
AcDbLine
 10
85.07928982499999
 20
74.34592076039999
 30
0.0
 11
84.95435037499999
 21
74.29797457040002
 31
0.0
  0
LINE
  5
166
330
1F
100
AcDbEntity
  8
LAYER0001
  6
CONTINUOUS
 62
     7
100
AcDbLine
 10
84.95435037499999
 20
74.29797457040002
 30
0.0
 11
84.835051645
 21
74.2394761404
 31
0.0
  0
LINE
  5
167
330
1F
100
AcDbEntity
  8
LAYER0001
  6
CONTINUOUS
 62
     7
100
AcDbLine
 10
84.835051645
 20
74.2394761404
 30
0.0
 11
84.721972155
 21
74.1710016104
 31
0.0
  0
LINE
  5
168
330
1F
100
AcDbEntity
  8
LAYER0001
  6
CONTINUOUS
 62
     7
100
AcDbLine
 10
84.721972155
 20
74.1710016104
 30
0.0
 11
84.615690465
 21
74.0931270804
 31
0.0
  0
LINE
  5
169
330
1F
100
AcDbEntity
  8
LAYER0001
  6
CONTINUOUS
 62
     7
100
AcDbLine
 10
84.615690465
 20
74.0931270804
 30
0.0
 11
84.51678508499998
 21
74.00642869040001
 31
0.0
  0
LINE
  5
16A
330
1F
100
AcDbEntity
  8
LAYER0001
  6
CONTINUOUS
 62
     7
100
AcDbLine
 10
84.51678508499998
 20
74.00642869040001
 30
0.0
 11
84.425834565
 21
73.9114825604
 31
0.0
  0
LINE
  5
16B
330
1F
100
AcDbEntity
  8
LAYER0001
  6
CONTINUOUS
 62
     7
100
AcDbLine
 10
84.425834565
 20
73.9114825604
 30
0.0
 11
84.34341743499999
 21
73.8088648204
 31
0.0
  0
LINE
  5
16C
330
1F
100
AcDbEntity
  8
LAYER0001
  6
CONTINUOUS
 62
     7
100
AcDbLine
 10
84.34341743499999
 20
73.8088648204
 30
0.0
 11
84.270112235
 21
73.69915159039999
 31
0.0
  0
LINE
  5
16D
330
1F
100
AcDbEntity
  8
LAYER0001
  6
CONTINUOUS
 62
     7
100
AcDbLine
 10
84.270112235
 20
73.69915159039999
 30
0.0
 11
84.206497485
 21
73.5829189904
 31
0.0
  0
LINE
  5
16E
330
1F
100
AcDbEntity
  8
LAYER0001
  6
CONTINUOUS
 62
     7
100
AcDbLine
 10
84.206497485
 20
73.5829189904
 30
0.0
 11
84.153151745
 21
73.46074314040001
 31
0.0
  0
LINE
  5
16F
330
1F
100
AcDbEntity
  8
LAYER0001
  6
CONTINUOUS
 62
     7
100
AcDbLine
 10
84.153151745
 20
73.46074314040001
 30
0.0
 11
84.110653525
 21
73.33320018040001
 31
0.0
  0
LINE
  5
170
330
1F
100
AcDbEntity
  8
LAYER0001
  6
CONTINUOUS
 62
     7
100
AcDbLine
 10
84.110653525
 20
73.33320018040001
 30
0.0
 11
84.079581375
 21
73.20086623040001
 31
0.0
  0
LINE
  5
171
330
1F
100
AcDbEntity
  8
LAYER0001
  6
CONTINUOUS
 62
     7
100
AcDbLine
 10
84.079581375
 20
73.20086623040001
 30
0.0
 11
84.06051382499999
 21
73.06431741040001
 31
0.0
  0
LINE
  5
172
330
1F
100
AcDbEntity
  8
LAYER0001
  6
CONTINUOUS
 62
     7
100
AcDbLine
 10
84.06051382499999
 20
73.06431741040001
 30
0.0
 11
84.054029415
 21
72.92412985039999
 31
0.0
  0
LINE
  5
173
330
1F
100
AcDbEntity
  8
LAYER0001
  6
CONTINUOUS
 62
     7
100
AcDbLine
 10
7.121602134999989
 20
-50.7721151196
 30
0.0
 11
7.121602134999989
 21
79.22788488040001
 31
0.0
  0
LINE
  5
174
330
1F
100
AcDbEntity
  8
LAYER0001
  6
CONTINUOUS
 62
     7
100
AcDbLine
 10
73.46380589500001
 20
79.22788488040001
 30
0.0
 11
73.46380589500001
 21
77.07355863040002
 31
0.0
  0
LINE
  5
175
330
1F
100
AcDbEntity
  8
LAYER0001
  6
CONTINUOUS
 62
     7
100
AcDbLine
 10
73.46380589500001
 20
77.07355863040002
 30
0.0
 11
73.46380589500001
 21
76.69097737039999
 31
0.0
  0
LINE
  5
176
330
1F
100
AcDbEntity
  8
LAYER0001
  6
CONTINUOUS
 62
     7
100
AcDbLine
 10
73.46380589500001
 20
76.69097737039999
 30
0.0
 11
73.46380589500001
 21
76.3244935004
 31
0.0
  0
LINE
  5
177
330
1F
100
AcDbEntity
  8
LAYER0001
  6
CONTINUOUS
 62
     7
100
AcDbLine
 10
73.46380589500001
 20
76.3244935004
 30
0.0
 11
73.46380589500001
 21
75.98698493040001
 31
0.0
  0
LINE
  5
178
330
1F
100
AcDbEntity
  8
LAYER0001
  6
CONTINUOUS
 62
     7
100
AcDbLine
 10
73.46380589500001
 20
75.98698493040001
 30
0.0
 11
73.46380589500001
 21
75.6913295704
 31
0.0
  0
LINE
  5
179
330
1F
100
AcDbEntity
  8
LAYER0001
  6
CONTINUOUS
 62
     7
100
AcDbLine
 10
73.46380589500001
 20
75.6913295704
 30
0.0
 11
73.46380589500001
 21
75.4504053204
 31
0.0
  0
LINE
  5
17A
330
1F
100
AcDbEntity
  8
LAYER0001
  6
CONTINUOUS
 62
     7
100
AcDbLine
 10
73.46380589500001
 20
75.4504053204
 30
0.0
 11
73.46380589500001
 21
75.2770901104
 31
0.0
  0
LINE
  5
17B
330
1F
100
AcDbEntity
  8
LAYER0001
  6
CONTINUOUS
 62
     7
100
AcDbLine
 10
73.46380589500001
 20
75.2770901104
 30
0.0
 11
73.46380589500001
 21
75.18426184040001
 31
0.0
  0
LINE
  5
17C
330
1F
100
AcDbEntity
  8
LAYER0001
  6
CONTINUOUS
 62
     7
100
AcDbLine
 10
73.46380589500001
 20
75.18426184040001
 30
0.0
 11
73.480562325
 21
74.5299797404
 31
0.0
  0
LINE
  5
17D
330
1F
100
AcDbEntity
  8
LAYER0001
  6
CONTINUOUS
 62
     7
100
AcDbLine
 10
73.480562325
 20
74.5299797404
 30
0.0
 11
73.612107595
 21
73.27286849040001
 31
0.0
  0
LINE
  5
17E
330
1F
100
AcDbEntity
  8
LAYER0001
  6
CONTINUOUS
 62
     7
100
AcDbLine
 10
73.612107595
 20
73.27286849040001
 30
0.0
 11
73.86879339499998
 21
72.0573762704
 31
0.0
  0
LINE
  5
17F
330
1F
100
AcDbEntity
  8
LAYER0001
  6
CONTINUOUS
 62
     7
100
AcDbLine
 10
73.86879339499998
 20
72.0573762704
 30
0.0
 11
74.243936555
 21
70.8901842004
 31
0.0
  0
LINE
  5
180
330
1F
100
AcDbEntity
  8
LAYER0001
  6
CONTINUOUS
 62
     7
100
AcDbLine
 10
74.243936555
 20
70.8901842004
 30
0.0
 11
74.730853865
 21
69.7779733904
 31
0.0
  0
LINE
  5
181
330
1F
100
AcDbEntity
  8
LAYER0001
  6
CONTINUOUS
 62
     7
100
AcDbLine
 10
74.730853865
 20
69.7779733904
 30
0.0
 11
75.32286214499999
 21
68.72742493039999
 31
0.0
  0
LINE
  5
182
330
1F
100
AcDbEntity
  8
LAYER0001
  6
CONTINUOUS
 62
     7
100
AcDbLine
 10
75.32286214499999
 20
68.72742493039999
 30
0.0
 11
76.013278205
 21
67.74521995040001
 31
0.0
  0
LINE
  5
183
330
1F
100
AcDbEntity
  8
LAYER0001
  6
CONTINUOUS
 62
     7
100
AcDbLine
 10
76.013278205
 20
67.74521995040001
 30
0.0
 11
76.79541883499999
 21
66.8380395604
 31
0.0
  0
LINE
  5
184
330
1F
100
AcDbEntity
  8
LAYER0001
  6
CONTINUOUS
 62
     7
100
AcDbLine
 10
76.79541883499999
 20
66.8380395604
 30
0.0
 11
77.662600865
 21
66.0125648504
 31
0.0
  0
LINE
  5
185
330
1F
100
AcDbEntity
  8
LAYER0001
  6
CONTINUOUS
 62
     7
100
AcDbLine
 10
77.662600865
 20
66.0125648504
 30
0.0
 11
78.60814109500001
 21
65.27547695039999
 31
0.0
  0
LINE
  5
186
330
1F
100
AcDbEntity
  8
LAYER0001
  6
CONTINUOUS
 62
     7
100
AcDbLine
 10
78.60814109500001
 20
65.27547695039999
 30
0.0
 11
79.62535633499999
 21
64.6334569704
 31
0.0
  0
LINE
  5
187
330
1F
100
AcDbEntity
  8
LAYER0001
  6
CONTINUOUS
 62
     7
100
AcDbLine
 10
79.62535633499999
 20
64.6334569704
 30
0.0
 11
80.70756338499999
 21
64.09318601039999
 31
0.0
  0
LINE
  5
188
330
1F
100
AcDbEntity
  8
LAYER0001
  6
CONTINUOUS
 62
     7
100
AcDbLine
 10
80.70756338499999
 20
64.09318601039999
 30
0.0
 11
81.84807906500001
 21
63.66134518039999
 31
0.0
  0
LINE
  5
189
330
1F
100
AcDbEntity
  8
LAYER0001
  6
CONTINUOUS
 62
     7
100
AcDbLine
 10
81.84807906500001
 20
63.66134518039999
 30
0.0
 11
83.04022018499998
 21
63.3446155904
 31
0.0
  0
LINE
  5
18A
330
1F
100
AcDbEntity
  8
LAYER0001
  6
CONTINUOUS
 62
     7
100
AcDbLine
 10
83.04022018499998
 20
63.3446155904
 30
0.0
 11
84.277303545
 21
63.1496783604
 31
0.0
  0
LINE
  5
18B
330
1F
100
AcDbEntity
  8
LAYER0001
  6
CONTINUOUS
 62
     7
100
AcDbLine
 10
84.277303545
 20
63.1496783604
 30
0.0
 11
85.552645945
 21
63.08321459039999
 31
0.0
  0
LINE
  5
18C
330
1F
100
AcDbEntity
  8
LAYER0001
  6
CONTINUOUS
 62
     7
100
AcDbLine
 10
85.552645945
 20
63.08321459039999
 30
0.0
 11
85.59325878499999
 21
63.08321459039999
 31
0.0
  0
LINE
  5
18D
330
1F
100
AcDbEntity
  8
LAYER0001
  6
CONTINUOUS
 62
     7
100
AcDbLine
 10
85.59325878499999
 20
63.08321459039999
 30
0.0
 11
85.70779609499999
 21
63.08321459039999
 31
0.0
  0
LINE
  5
18E
330
1F
100
AcDbEntity
  8
LAYER0001
  6
CONTINUOUS
 62
     7
100
AcDbLine
 10
85.70779609499999
 20
63.08321459039999
 30
0.0
 11
85.88530610499998
 21
63.08321459039999
 31
0.0
  0
LINE
  5
18F
330
1F
100
AcDbEntity
  8
LAYER0001
  6
CONTINUOUS
 62
     7
100
AcDbLine
 10
85.88530610499998
 20
63.08321459039999
 30
0.0
 11
86.11483705499998
 21
63.08321459039999
 31
0.0
  0
LINE
  5
190
330
1F
100
AcDbEntity
  8
LAYER0001
  6
CONTINUOUS
 62
     7
100
AcDbLine
 10
86.11483705499998
 20
63.08321459039999
 30
0.0
 11
86.385437155
 21
63.08321459039999
 31
0.0
  0
LINE
  5
191
330
1F
100
AcDbEntity
  8
LAYER0001
  6
CONTINUOUS
 62
     7
100
AcDbLine
 10
86.385437155
 20
63.08321459039999
 30
0.0
 11
86.68615464499999
 21
63.08321459039999
 31
0.0
  0
LINE
  5
192
330
1F
100
AcDbEntity
  8
LAYER0001
  6
CONTINUOUS
 62
     7
100
AcDbLine
 10
86.68615464499999
 20
63.08321459039999
 30
0.0
 11
87.006037725
 21
63.08321459039999
 31
0.0
  0
LINE
  5
193
330
1F
100
AcDbEntity
  8
LAYER0001
  6
CONTINUOUS
 62
     7
100
AcDbLine
 10
87.006037725
 20
63.08321459039999
 30
0.0
 11
87.334134645
 21
63.08321459039999
 31
0.0
  0
LINE
  5
194
330
1F
100
AcDbEntity
  8
LAYER0001
  6
CONTINUOUS
 62
     7
100
AcDbLine
 10
87.334134645
 20
63.08321459039999
 30
0.0
 11
87.65949362499998
 21
63.08321459039999
 31
0.0
  0
LINE
  5
195
330
1F
100
AcDbEntity
  8
LAYER0001
  6
CONTINUOUS
 62
     7
100
AcDbLine
 10
87.65949362499998
 20
63.08321459039999
 30
0.0
 11
87.97116288499998
 21
63.08321459039999
 31
0.0
  0
LINE
  5
196
330
1F
100
AcDbEntity
  8
LAYER0001
  6
CONTINUOUS
 62
     7
100
AcDbLine
 10
87.97116288499998
 20
63.08321459039999
 30
0.0
 11
88.25819064499998
 21
63.08321459039999
 31
0.0
  0
LINE
  5
197
330
1F
100
AcDbEntity
  8
LAYER0001
  6
CONTINUOUS
 62
     7
100
AcDbLine
 10
88.25819064499998
 20
63.08321459039999
 30
0.0
 11
88.509625145
 21
63.08321459039999
 31
0.0
  0
LINE
  5
198
330
1F
100
AcDbEntity
  8
LAYER0001
  6
CONTINUOUS
 62
     7
100
AcDbLine
 10
88.509625145
 20
63.08321459039999
 30
0.0
 11
88.714514595
 21
63.08321459039999
 31
0.0
  0
LINE
  5
199
330
1F
100
AcDbEntity
  8
LAYER0001
  6
CONTINUOUS
 62
     7
100
AcDbLine
 10
88.714514595
 20
63.08321459039999
 30
0.0
 11
88.86190723499999
 21
63.08321459039999
 31
0.0
  0
LINE
  5
19A
330
1F
100
AcDbEntity
  8
LAYER0001
  6
CONTINUOUS
 62
     7
100
AcDbLine
 10
88.86190723499999
 20
63.08321459039999
 30
0.0
 11
89.29722741499998
 21
63.08321459039999
 31
0.0
  0
LINE
  5
19B
330
1F
100
AcDbEntity
  8
LAYER0001
  6
CONTINUOUS
 62
     7
100
AcDbLine
 10
89.29722741499998
 20
-45.5104325596
 30
0.0
 11
88.187302405
 21
-45.52999390959999
 31
0.0
  0
LINE
  5
19C
330
1F
100
AcDbEntity
  8
LAYER0001
  6
CONTINUOUS
 62
     7
100
AcDbLine
 10
88.187302405
 20
-45.52999390959999
 30
0.0
 11
87.81959897499999
 21
-45.5364743196
 31
0.0
  0
LINE
  5
19D
330
1F
100
AcDbEntity
  8
LAYER0001
  6
CONTINUOUS
 62
     7
100
AcDbLine
 10
87.81959897499999
 20
-45.5364743196
 30
0.0
 11
87.41097070499998
 21
-45.5436759996
 31
0.0
  0
LINE
  5
19E
330
1F
100
AcDbEntity
  8
LAYER0001
  6
CONTINUOUS
 62
     7
100
AcDbLine
 10
87.41097070499998
 20
-45.5436759996
 30
0.0
 11
86.97629936499999
 21
-45.5513366496
 31
0.0
  0
LINE
  5
19F
330
1F
100
AcDbEntity
  8
LAYER0001
  6
CONTINUOUS
 62
     7
100
AcDbLine
 10
86.97629936499999
 20
-45.5513366496
 30
0.0
 11
86.53046670499998
 21
-45.5591940196
 31
0.0
  0
LINE
  5
1A0
330
1F
100
AcDbEntity
  8
LAYER0001
  6
CONTINUOUS
 62
     7
100
AcDbLine
 10
86.53046670499998
 20
-45.5591940196
 30
0.0
 11
86.088354485
 21
-45.5669858096
 31
0.0
  0
LINE
  5
1A1
330
1F
100
AcDbEntity
  8
LAYER0001
  6
CONTINUOUS
 62
     7
100
AcDbLine
 10
86.088354485
 20
-45.5669858096
 30
0.0
 11
85.66484445500001
 21
-45.5744497596
 31
0.0
  0
LINE
  5
1A2
330
1F
100
AcDbEntity
  8
LAYER0001
  6
CONTINUOUS
 62
     7
100
AcDbLine
 10
85.66484445500001
 20
-45.5744497596
 30
0.0
 11
85.274818385
 21
-45.5813235896
 31
0.0
  0
LINE
  5
1A3
330
1F
100
AcDbEntity
  8
LAYER0001
  6
CONTINUOUS
 62
     7
100
AcDbLine
 10
85.274818385
 20
-45.5813235896
 30
0.0
 11
84.93315802499998
 21
-45.5873450196
 31
0.0
  0
LINE
  5
1A4
330
1F
100
AcDbEntity
  8
LAYER0001
  6
CONTINUOUS
 62
     7
100
AcDbLine
 10
84.93315802499998
 20
-45.5873450196
 30
0.0
 11
84.65474514499999
 21
-45.5922517696
 31
0.0
  0
LINE
  5
1A5
330
1F
100
AcDbEntity
  8
LAYER0001
  6
CONTINUOUS
 62
     7
100
AcDbLine
 10
84.65474514499999
 20
-45.5922517696
 30
0.0
 11
84.454461485
 21
-45.5957815796
 31
0.0
  0
LINE
  5
1A6
330
1F
100
AcDbEntity
  8
LAYER0001
  6
CONTINUOUS
 62
     7
100
AcDbLine
 10
84.454461485
 20
-45.5957815796
 30
0.0
 11
84.34718881499998
 21
-45.5976721496
 31
0.0
  0
LINE
  5
1A7
330
1F
100
AcDbEntity
  8
LAYER0001
  6
CONTINUOUS
 62
     7
100
AcDbLine
 10
84.34718881499998
 20
-45.5976721496
 30
0.0
 11
84.270239395
 21
-45.6006188896
 31
0.0
  0
LINE
  5
1A8
330
1F
100
AcDbEntity
  8
LAYER0001
  6
CONTINUOUS
 62
     7
100
AcDbLine
 10
84.270239395
 20
-45.6006188896
 30
0.0
 11
84.14730692499998
 21
-45.61546114959999
 31
0.0
  0
LINE
  5
1A9
330
1F
100
AcDbEntity
  8
LAYER0001
  6
CONTINUOUS
 62
     7
100
AcDbLine
 10
84.14730692499998
 20
-45.61546114959999
 30
0.0
 11
84.028573655
 21
-45.6423615396
 31
0.0
  0
LINE
  5
1AA
330
1F
100
AcDbEntity
  8
LAYER0001
  6
CONTINUOUS
 62
     7
100
AcDbLine
 10
84.028573655
 20
-45.6423615396
 30
0.0
 11
83.914673765
 21
-45.6806761596
 31
0.0
  0
LINE
  5
1AB
330
1F
100
AcDbEntity
  8
LAYER0001
  6
CONTINUOUS
 62
     7
100
AcDbLine
 10
83.914673765
 20
-45.6806761596
 30
0.0
 11
83.806241435
 21
-45.7297611096
 31
0.0
  0
LINE
  5
1AC
330
1F
100
AcDbEntity
  8
LAYER0001
  6
CONTINUOUS
 62
     7
100
AcDbLine
 10
83.806241435
 20
-45.7297611096
 30
0.0
 11
83.703910845
 21
-45.7889724996
 31
0.0
  0
LINE
  5
1AD
330
1F
100
AcDbEntity
  8
LAYER0001
  6
CONTINUOUS
 62
     7
100
AcDbLine
 10
83.703910845
 20
-45.7889724996
 30
0.0
 11
83.608316185
 21
-45.8576664196
 31
0.0
  0
LINE
  5
1AE
330
1F
100
AcDbEntity
  8
LAYER0001
  6
CONTINUOUS
 62
     7
100
AcDbLine
 10
83.608316185
 20
-45.8576664196
 30
0.0
 11
83.52009162499999
 21
-45.9351989996
 31
0.0
  0
LINE
  5
1AF
330
1F
100
AcDbEntity
  8
LAYER0001
  6
CONTINUOUS
 62
     7
100
AcDbLine
 10
83.52009162499999
 20
-45.9351989996
 30
0.0
 11
83.43987135500001
 21
-46.0209263196
 31
0.0
  0
LINE
  5
1B0
330
1F
100
AcDbEntity
  8
LAYER0001
  6
CONTINUOUS
 62
     7
100
AcDbLine
 10
83.43987135500001
 20
-46.0209263196
 30
0.0
 11
83.36828955499999
 21
-46.1142044996
 31
0.0
  0
LINE
  5
1B1
330
1F
100
AcDbEntity
  8
LAYER0001
  6
CONTINUOUS
 62
     7
100
AcDbLine
 10
83.36828955499999
 20
-46.1142044996
 30
0.0
 11
83.30598040499999
 21
-46.2143896296
 31
0.0
  0
LINE
  5
1B2
330
1F
100
AcDbEntity
  8
LAYER0001
  6
CONTINUOUS
 62
     7
100
AcDbLine
 10
83.30598040499999
 20
-46.2143896296
 30
0.0
 11
83.25357808499999
 21
-46.32083782959999
 31
0.0
  0
LINE
  5
1B3
330
1F
100
AcDbEntity
  8
LAYER0001
  6
CONTINUOUS
 62
     7
100
AcDbLine
 10
83.25357808499999
 20
-46.32083782959999
 30
0.0
 11
83.21171677499999
 21
-46.4329051996
 31
0.0
  0
LINE
  5
1B4
330
1F
100
AcDbEntity
  8
LAYER0001
  6
CONTINUOUS
 62
     7
100
AcDbLine
 10
83.21171677499999
 20
-46.4329051996
 30
0.0
 11
83.18103067499999
 21
-46.54994783959999
 31
0.0
  0
LINE
  5
1B5
330
1F
100
AcDbEntity
  8
LAYER0001
  6
CONTINUOUS
 62
     7
100
AcDbLine
 10
83.18103067499999
 20
-46.54994783959999
 30
0.0
 11
83.16215393499999
 21
-46.6713218596
 31
0.0
  0
LINE
  5
1B6
330
1F
100
AcDbEntity
  8
LAYER0001
  6
CONTINUOUS
 62
     7
100
AcDbLine
 10
83.16215393499999
 20
-46.6713218596
 30
0.0
 11
83.15572076499998
 21
-46.7963833596
 31
0.0
  0
LINE
  5
1B7
330
1F
100
AcDbEntity
  8
LAYER0001
  6
CONTINUOUS
 62
     7
100
AcDbLine
 10
83.15572076499998
 20
-46.7963833596
 30
0.0
 11
83.15572076499998
 21
-46.84317662959999
 31
0.0
  0
LINE
  5
1B8
330
1F
100
AcDbEntity
  8
LAYER0001
  6
CONTINUOUS
 62
     7
100
AcDbLine
 10
83.15572076499998
 20
-46.84317662959999
 30
0.0
 11
83.15572076499998
 21
-46.9751441596
 31
0.0
  0
LINE
  5
1B9
330
1F
100
AcDbEntity
  8
LAYER0001
  6
CONTINUOUS
 62
     7
100
AcDbLine
 10
83.15572076499998
 20
-46.9751441596
 30
0.0
 11
83.15572076499998
 21
-47.1796675496
 31
0.0
  0
LINE
  5
1BA
330
1F
100
AcDbEntity
  8
LAYER0001
  6
CONTINUOUS
 62
     7
100
AcDbLine
 10
83.15572076499998
 20
-47.1796675496
 30
0.0
 11
83.15572076499998
 21
-47.4441283796
 31
0.0
  0
LINE
  5
1BB
330
1F
100
AcDbEntity
  8
LAYER0001
  6
CONTINUOUS
 62
     7
100
AcDbLine
 10
83.15572076499998
 20
-47.4441283796
 30
0.0
 11
83.15572076499998
 21
-47.7559082496
 31
0.0
  0
LINE
  5
1BC
330
1F
100
AcDbEntity
  8
LAYER0001
  6
CONTINUOUS
 62
     7
100
AcDbLine
 10
83.15572076499998
 20
-47.7559082496
 30
0.0
 11
83.15572076499998
 21
-48.1023887496
 31
0.0
  0
LINE
  5
1BD
330
1F
100
AcDbEntity
  8
LAYER0001
  6
CONTINUOUS
 62
     7
100
AcDbLine
 10
83.15572076499998
 20
-48.1023887496
 30
0.0
 11
83.15572076499998
 21
-48.47095145959999
 31
0.0
  0
LINE
  5
1BE
330
1F
100
AcDbEntity
  8
LAYER0001
  6
CONTINUOUS
 62
     7
100
AcDbLine
 10
83.15572076499998
 20
-48.47095145959999
 30
0.0
 11
83.15572076499998
 21
-48.8489779796
 31
0.0
  0
LINE
  5
1BF
330
1F
100
AcDbEntity
  8
LAYER0001
  6
CONTINUOUS
 62
     7
100
AcDbLine
 10
83.15572076499998
 20
-48.8489779796
 30
0.0
 11
83.15572076499998
 21
-49.2238498996
 31
0.0
  0
LINE
  5
1C0
330
1F
100
AcDbEntity
  8
LAYER0001
  6
CONTINUOUS
 62
     7
100
AcDbLine
 10
83.15572076499998
 20
-49.2238498996
 30
0.0
 11
83.15572076499998
 21
-49.5829487996
 31
0.0
  0
LINE
  5
1C1
330
1F
100
AcDbEntity
  8
LAYER0001
  6
CONTINUOUS
 62
     7
100
AcDbLine
 10
83.15572076499998
 20
-49.5829487996
 30
0.0
 11
83.15572076499998
 21
-49.9136562896
 31
0.0
  0
LINE
  5
1C2
330
1F
100
AcDbEntity
  8
LAYER0001
  6
CONTINUOUS
 62
     7
100
AcDbLine
 10
83.15572076499998
 20
-49.9136562896
 30
0.0
 11
83.15572076499998
 21
-50.7721151196
 31
0.0
  0
LINE
  5
1C3
330
1F
100
AcDbEntity
  8
LAYER0001
  6
CONTINUOUS
 62
     7
100
AcDbLine
 10
6.074293104999981
 20
-50.7721151196
 30
0.0
 11
6.074293104999981
 21
79.22788488040001
 31
0.0
  0
LINE
  5
1C4
330
1F
100
AcDbEntity
  8
LAYER0001
  6
CONTINUOUS
 62
     7
100
AcDbLine
 10
-19.70277258500002
 20
77.1161058104
 30
0.0
 11
-19.70277258500002
 21
76.34834008039999
 31
0.0
  0
LINE
  5
1C5
330
1F
100
AcDbEntity
  8
LAYER0001
  6
CONTINUOUS
 62
     7
100
AcDbLine
 10
-19.70277258500002
 20
77.22788488040001
 30
0.0
 11
-19.70277258500002
 21
37.34492491040001
 31
0.0
  0
LINE
  5
1C6
330
1F
100
AcDbEntity
  8
LAYER0001
  6
CONTINUOUS
 62
     7
100
AcDbLine
 10
-102.112040415
 20
37.34492491040001
 30
0.0
 11
-102.112040415
 21
79.22788488040001
 31
0.0
  0
LINE
  5
1C7
330
1F
100
AcDbEntity
  8
LAYER0001
  6
CONTINUOUS
 62
     7
100
AcDbLine
 10
-12.70277258500002
 20
-50.7721151196
 30
0.0
 11
83.15572076499998
 21
-50.7721151196
 31
0.0
  0
LINE
  5
1C8
330
1F
100
AcDbEntity
  8
LAYER0001
  6
CONTINUOUS
 62
     7
100
AcDbLine
 10
-17.70277258500003
 20
79.22788488040001
 30
0.0
 11
73.46380589500001
 21
79.22788488040001
 31
0.0
  0
LINE
  5
1C9
330
1F
100
AcDbEntity
  8
LAYER0001
  6
CONTINUOUS
 62
     7
100
AcDbLine
 10
-109.613498485
 20
78.72788488040001
 30
0.0
 11
-109.613498485
 21
-50.2721151196
 31
0.0
  0
LINE
  5
1CA
330
1F
100
AcDbEntity
  8
LAYER0001
  6
CONTINUOUS
 62
     7
100
AcDbLine
 10
-82.11349848500001
 20
78.72788488040001
 30
0.0
 11
-82.11349848500001
 21
-50.2721151196
 31
0.0
  0
LINE
  5
1CB
330
1F
100
AcDbEntity
  8
LAYER0001
  6
CONTINUOUS
 62
     7
100
AcDbLine
 10
-109.113498485
 20
79.22788488040001
 30
0.0
 11
-82.61349848500001
 21
79.22788488040001
 31
0.0
  0
LINE
  5
1CC
330
1F
100
AcDbEntity
  8
LAYER0001
  6
CONTINUOUS
 62
     7
100
AcDbLine
 10
89.29722741499998
 20
63.08321459039999
 30
0.0
 11
89.29722741499998
 21
-48.2144707896
 31
0.0
  0
LINE
  5
1CD
330
1F
100
AcDbEntity
  8
LAYER0001
  6
CONTINUOUS
 62
     7
100
AcDbLine
 10
-109.113498485
 20
-50.7721151196
 30
0.0
 11
-82.61349848500001
 21
-50.7721151196
 31
0.0
  0
LINE
  5
1CE
330
1F
100
AcDbEntity
  8
LAYER0001
  6
CONTINUOUS
 62
     7
100
AcDbLine
 10
-98.414591685
 20
66.67989428039999
 30
0.0
 11
-96.01680522500001
 21
66.67989428039999
 31
0.0
  0
LINE
  5
1CF
330
1F
100
AcDbEntity
  8
LAYER0001
  6
CONTINUOUS
 62
     7
100
AcDbLine
 10
-96.01680522500001
 20
66.67989428039999
 30
0.0
 11
-96.01680522500001
 21
67.6789719704
 31
0.0
  0
LINE
  5
1D0
330
1F
100
AcDbEntity
  8
LAYER0001
  6
CONTINUOUS
 62
     7
100
AcDbLine
 10
-96.01680522500001
 20
67.6789719704
 30
0.0
 11
-98.414591685
 21
67.6789719704
 31
0.0
  0
LINE
  5
1D1
330
1F
100
AcDbEntity
  8
LAYER0001
  6
CONTINUOUS
 62
     7
100
AcDbLine
 10
-98.414591685
 20
67.6789719704
 30
0.0
 11
-98.414591685
 21
66.67989428039999
 31
0.0
  0
LINE
  5
1D2
330
1F
100
AcDbEntity
  8
LAYER0001
  6
CONTINUOUS
 62
     7
100
AcDbLine
 10
-98.414591685
 20
63.18312236040001
 30
0.0
 11
-96.01680522500001
 21
63.18312236040001
 31
0.0
  0
LINE
  5
1D3
330
1F
100
AcDbEntity
  8
LAYER0001
  6
CONTINUOUS
 62
     7
100
AcDbLine
 10
-96.01680522500001
 20
63.18312236040001
 30
0.0
 11
-96.01680522500001
 21
64.18220005040001
 31
0.0
  0
LINE
  5
1D4
330
1F
100
AcDbEntity
  8
LAYER0001
  6
CONTINUOUS
 62
     7
100
AcDbLine
 10
-96.01680522500001
 20
64.18220005040001
 30
0.0
 11
-98.414591685
 21
64.18220005040001
 31
0.0
  0
LINE
  5
1D5
330
1F
100
AcDbEntity
  8
LAYER0001
  6
CONTINUOUS
 62
     7
100
AcDbLine
 10
-98.414591685
 20
64.18220005040001
 30
0.0
 11
-98.414591685
 21
63.18312236040001
 31
0.0
  0
LINE
  5
1D6
330
1F
100
AcDbEntity
  8
LAYER0001
  6
CONTINUOUS
 62
     7
100
AcDbLine
 10
-98.414591685
 20
59.68591981040001
 30
0.0
 11
-96.01680522500001
 21
59.68591981040001
 31
0.0
  0
LINE
  5
1D7
330
1F
100
AcDbEntity
  8
LAYER0001
  6
CONTINUOUS
 62
     7
100
AcDbLine
 10
-96.01680522500001
 20
59.68591981040001
 30
0.0
 11
-96.01680522500001
 21
60.6854281304
 31
0.0
  0
LINE
  5
1D8
330
1F
100
AcDbEntity
  8
LAYER0001
  6
CONTINUOUS
 62
     7
100
AcDbLine
 10
-96.01680522500001
 20
60.6854281304
 30
0.0
 11
-98.414591685
 21
60.6854281304
 31
0.0
  0
LINE
  5
1D9
330
1F
100
AcDbEntity
  8
LAYER0001
  6
CONTINUOUS
 62
     7
100
AcDbLine
 10
-98.414591685
 20
60.6854281304
 30
0.0
 11
-98.414591685
 21
59.68591981040001
 31
0.0
  0
LINE
  5
1DA
330
1F
100
AcDbEntity
  8
LAYER0001
  6
CONTINUOUS
 62
     7
100
AcDbLine
 10
-98.414591685
 20
56.18914789039999
 30
0.0
 11
-96.01680522500001
 21
56.18914789039999
 31
0.0
  0
LINE
  5
1DB
330
1F
100
AcDbEntity
  8
LAYER0001
  6
CONTINUOUS
 62
     7
100
AcDbLine
 10
-96.01680522500001
 20
56.18914789039999
 30
0.0
 11
-96.01680522500001
 21
57.18865622039999
 31
0.0
  0
LINE
  5
1DC
330
1F
100
AcDbEntity
  8
LAYER0001
  6
CONTINUOUS
 62
     7
100
AcDbLine
 10
-96.01680522500001
 20
57.18865622039999
 30
0.0
 11
-98.414591685
 21
57.18865622039999
 31
0.0
  0
LINE
  5
1DD
330
1F
100
AcDbEntity
  8
LAYER0001
  6
CONTINUOUS
 62
     7
100
AcDbLine
 10
-98.414591685
 20
57.18865622039999
 30
0.0
 11
-98.414591685
 21
56.18914789039999
 31
0.0
  0
LINE
  5
1DE
330
1F
100
AcDbEntity
  8
LAYER0001
  6
CONTINUOUS
 62
     7
100
AcDbLine
 10
-98.414591685
 20
52.69237597040001
 30
0.0
 11
-96.01680522500001
 21
52.69237597040001
 31
0.0
  0
LINE
  5
1DF
330
1F
100
AcDbEntity
  8
LAYER0001
  6
CONTINUOUS
 62
     7
100
AcDbLine
 10
-96.01680522500001
 20
52.69237597040001
 30
0.0
 11
-96.01680522500001
 21
53.69145366040001
 31
0.0
  0
LINE
  5
1E0
330
1F
100
AcDbEntity
  8
LAYER0001
  6
CONTINUOUS
 62
     7
100
AcDbLine
 10
-96.01680522500001
 20
53.69145366040001
 30
0.0
 11
-98.414591685
 21
53.69145366040001
 31
0.0
  0
LINE
  5
1E1
330
1F
100
AcDbEntity
  8
LAYER0001
  6
CONTINUOUS
 62
     7
100
AcDbLine
 10
-98.414591685
 20
53.69145366040001
 30
0.0
 11
-98.414591685
 21
52.69237597040001
 31
0.0
  0
LINE
  5
1E2
330
1F
100
AcDbEntity
  8
LAYER0001
  6
CONTINUOUS
 62
     7
100
AcDbLine
 10
-98.414591685
 20
49.19517342040001
 30
0.0
 11
-96.01680522500001
 21
49.19517342040001
 31
0.0
  0
LINE
  5
1E3
330
1F
100
AcDbEntity
  8
LAYER0001
  6
CONTINUOUS
 62
     7
100
AcDbLine
 10
-96.01680522500001
 20
49.19517342040001
 30
0.0
 11
-96.01680522500001
 21
50.1946817404
 31
0.0
  0
LINE
  5
1E4
330
1F
100
AcDbEntity
  8
LAYER0001
  6
CONTINUOUS
 62
     7
100
AcDbLine
 10
-96.01680522500001
 20
50.1946817404
 30
0.0
 11
-98.414591685
 21
50.1946817404
 31
0.0
  0
LINE
  5
1E5
330
1F
100
AcDbEntity
  8
LAYER0001
  6
CONTINUOUS
 62
     7
100
AcDbLine
 10
-98.414591685
 20
50.1946817404
 30
0.0
 11
-98.414591685
 21
49.19517342040001
 31
0.0
  0
LINE
  5
1E6
330
1F
100
AcDbEntity
  8
LAYER0001
  6
CONTINUOUS
 62
     7
100
AcDbLine
 10
-98.414591685
 20
45.6984015004
 30
0.0
 11
-96.01680522500001
 21
45.6984015004
 31
0.0
  0
LINE
  5
1E7
330
1F
100
AcDbEntity
  8
LAYER0001
  6
CONTINUOUS
 62
     7
100
AcDbLine
 10
-96.01680522500001
 20
45.6984015004
 30
0.0
 11
-96.01680522500001
 21
46.6974791904
 31
0.0
  0
LINE
  5
1E8
330
1F
100
AcDbEntity
  8
LAYER0001
  6
CONTINUOUS
 62
     7
100
AcDbLine
 10
-96.01680522500001
 20
46.6974791904
 30
0.0
 11
-98.414591685
 21
46.6974791904
 31
0.0
  0
LINE
  5
1E9
330
1F
100
AcDbEntity
  8
LAYER0001
  6
CONTINUOUS
 62
     7
100
AcDbLine
 10
-98.414591685
 20
46.6974791904
 30
0.0
 11
-98.414591685
 21
45.6984015004
 31
0.0
  0
LINE
  5
1EA
330
1F
100
AcDbEntity
  8
LAYER0001
  6
CONTINUOUS
 62
     7
100
AcDbLine
 10
-98.414591685
 20
42.20162958040001
 30
0.0
 11
-96.01680522500001
 21
42.20162958040001
 31
0.0
  0
LINE
  5
1EB
330
1F
100
AcDbEntity
  8
LAYER0001
  6
CONTINUOUS
 62
     7
100
AcDbLine
 10
-96.01680522500001
 20
42.20162958040001
 30
0.0
 11
-96.01680522500001
 21
43.20070727040002
 31
0.0
  0
LINE
  5
1EC
330
1F
100
AcDbEntity
  8
LAYER0001
  6
CONTINUOUS
 62
     7
100
AcDbLine
 10
-96.01680522500001
 20
43.20070727040002
 30
0.0
 11
-98.414591685
 21
43.20070727040002
 31
0.0
  0
LINE
  5
1ED
330
1F
100
AcDbEntity
  8
LAYER0001
  6
CONTINUOUS
 62
     7
100
AcDbLine
 10
-98.414591685
 20
43.20070727040002
 30
0.0
 11
-98.414591685
 21
42.20162958040001
 31
0.0
  0
LINE
  5
1EE
330
1F
100
AcDbEntity
  8
LAYER0001
  6
CONTINUOUS
 62
     7
100
AcDbLine
 10
-92.42012553500001
 20
66.67989428039999
 30
0.0
 11
-90.022339085
 21
66.67989428039999
 31
0.0
  0
LINE
  5
1EF
330
1F
100
AcDbEntity
  8
LAYER0001
  6
CONTINUOUS
 62
     7
100
AcDbLine
 10
-90.022339085
 20
66.67989428039999
 30
0.0
 11
-90.022339085
 21
67.6789719704
 31
0.0
  0
LINE
  5
1F0
330
1F
100
AcDbEntity
  8
LAYER0001
  6
CONTINUOUS
 62
     7
100
AcDbLine
 10
-90.022339085
 20
67.6789719704
 30
0.0
 11
-92.42012553500001
 21
67.6789719704
 31
0.0
  0
LINE
  5
1F1
330
1F
100
AcDbEntity
  8
LAYER0001
  6
CONTINUOUS
 62
     7
100
AcDbLine
 10
-92.42012553500001
 20
67.6789719704
 30
0.0
 11
-92.42012553500001
 21
66.67989428039999
 31
0.0
  0
LINE
  5
1F2
330
1F
100
AcDbEntity
  8
LAYER0001
  6
CONTINUOUS
 62
     7
100
AcDbLine
 10
-92.42012553500001
 20
63.18312236040001
 30
0.0
 11
-90.022339085
 21
63.18312236040001
 31
0.0
  0
LINE
  5
1F3
330
1F
100
AcDbEntity
  8
LAYER0001
  6
CONTINUOUS
 62
     7
100
AcDbLine
 10
-90.022339085
 20
63.18312236040001
 30
0.0
 11
-90.022339085
 21
64.18220005040001
 31
0.0
  0
LINE
  5
1F4
330
1F
100
AcDbEntity
  8
LAYER0001
  6
CONTINUOUS
 62
     7
100
AcDbLine
 10
-90.022339085
 20
64.18220005040001
 30
0.0
 11
-92.42012553500001
 21
64.18220005040001
 31
0.0
  0
LINE
  5
1F5
330
1F
100
AcDbEntity
  8
LAYER0001
  6
CONTINUOUS
 62
     7
100
AcDbLine
 10
-92.42012553500001
 20
64.18220005040001
 30
0.0
 11
-92.42012553500001
 21
63.18312236040001
 31
0.0
  0
LINE
  5
1F6
330
1F
100
AcDbEntity
  8
LAYER0001
  6
CONTINUOUS
 62
     7
100
AcDbLine
 10
-92.42012553500001
 20
59.68591981040001
 30
0.0
 11
-90.022339085
 21
59.68591981040001
 31
0.0
  0
LINE
  5
1F7
330
1F
100
AcDbEntity
  8
LAYER0001
  6
CONTINUOUS
 62
     7
100
AcDbLine
 10
-90.022339085
 20
59.68591981040001
 30
0.0
 11
-90.022339085
 21
60.6854281304
 31
0.0
  0
LINE
  5
1F8
330
1F
100
AcDbEntity
  8
LAYER0001
  6
CONTINUOUS
 62
     7
100
AcDbLine
 10
-90.022339085
 20
60.6854281304
 30
0.0
 11
-92.42012553500001
 21
60.6854281304
 31
0.0
  0
LINE
  5
1F9
330
1F
100
AcDbEntity
  8
LAYER0001
  6
CONTINUOUS
 62
     7
100
AcDbLine
 10
-92.42012553500001
 20
60.6854281304
 30
0.0
 11
-92.42012553500001
 21
59.68591981040001
 31
0.0
  0
LINE
  5
1FA
330
1F
100
AcDbEntity
  8
LAYER0001
  6
CONTINUOUS
 62
     7
100
AcDbLine
 10
-92.42012553500001
 20
56.18914789039999
 30
0.0
 11
-90.022339085
 21
56.18914789039999
 31
0.0
  0
LINE
  5
1FB
330
1F
100
AcDbEntity
  8
LAYER0001
  6
CONTINUOUS
 62
     7
100
AcDbLine
 10
-90.022339085
 20
56.18914789039999
 30
0.0
 11
-90.022339085
 21
57.18865622039999
 31
0.0
  0
LINE
  5
1FC
330
1F
100
AcDbEntity
  8
LAYER0001
  6
CONTINUOUS
 62
     7
100
AcDbLine
 10
-90.022339085
 20
57.18865622039999
 30
0.0
 11
-92.42012553500001
 21
57.18865622039999
 31
0.0
  0
LINE
  5
1FD
330
1F
100
AcDbEntity
  8
LAYER0001
  6
CONTINUOUS
 62
     7
100
AcDbLine
 10
-92.42012553500001
 20
57.18865622039999
 30
0.0
 11
-92.42012553500001
 21
56.18914789039999
 31
0.0
  0
LINE
  5
1FE
330
1F
100
AcDbEntity
  8
LAYER0001
  6
CONTINUOUS
 62
     7
100
AcDbLine
 10
-92.42012553500001
 20
52.69237597040001
 30
0.0
 11
-90.022339085
 21
52.69237597040001
 31
0.0
  0
LINE
  5
1FF
330
1F
100
AcDbEntity
  8
LAYER0001
  6
CONTINUOUS
 62
     7
100
AcDbLine
 10
-90.022339085
 20
52.69237597040001
 30
0.0
 11
-90.022339085
 21
53.69145366040001
 31
0.0
  0
LINE
  5
200
330
1F
100
AcDbEntity
  8
LAYER0001
  6
CONTINUOUS
 62
     7
100
AcDbLine
 10
-90.022339085
 20
53.69145366040001
 30
0.0
 11
-92.42012553500001
 21
53.69145366040001
 31
0.0
  0
LINE
  5
201
330
1F
100
AcDbEntity
  8
LAYER0001
  6
CONTINUOUS
 62
     7
100
AcDbLine
 10
-92.42012553500001
 20
53.69145366040001
 30
0.0
 11
-92.42012553500001
 21
52.69237597040001
 31
0.0
  0
LINE
  5
202
330
1F
100
AcDbEntity
  8
LAYER0001
  6
CONTINUOUS
 62
     7
100
AcDbLine
 10
-92.42012553500001
 20
49.19517342040001
 30
0.0
 11
-90.022339085
 21
49.19517342040001
 31
0.0
  0
LINE
  5
203
330
1F
100
AcDbEntity
  8
LAYER0001
  6
CONTINUOUS
 62
     7
100
AcDbLine
 10
-90.022339085
 20
49.19517342040001
 30
0.0
 11
-90.022339085
 21
50.1946817404
 31
0.0
  0
LINE
  5
204
330
1F
100
AcDbEntity
  8
LAYER0001
  6
CONTINUOUS
 62
     7
100
AcDbLine
 10
-90.022339085
 20
50.1946817404
 30
0.0
 11
-92.42012553500001
 21
50.1946817404
 31
0.0
  0
LINE
  5
205
330
1F
100
AcDbEntity
  8
LAYER0001
  6
CONTINUOUS
 62
     7
100
AcDbLine
 10
-92.42012553500001
 20
50.1946817404
 30
0.0
 11
-92.42012553500001
 21
49.19517342040001
 31
0.0
  0
LINE
  5
206
330
1F
100
AcDbEntity
  8
LAYER0001
  6
CONTINUOUS
 62
     7
100
AcDbLine
 10
-92.42012553500001
 20
45.6984015004
 30
0.0
 11
-90.022339085
 21
45.6984015004
 31
0.0
  0
LINE
  5
207
330
1F
100
AcDbEntity
  8
LAYER0001
  6
CONTINUOUS
 62
     7
100
AcDbLine
 10
-90.022339085
 20
45.6984015004
 30
0.0
 11
-90.022339085
 21
46.6974791904
 31
0.0
  0
LINE
  5
208
330
1F
100
AcDbEntity
  8
LAYER0001
  6
CONTINUOUS
 62
     7
100
AcDbLine
 10
-90.022339085
 20
46.6974791904
 30
0.0
 11
-92.42012553500001
 21
46.6974791904
 31
0.0
  0
LINE
  5
209
330
1F
100
AcDbEntity
  8
LAYER0001
  6
CONTINUOUS
 62
     7
100
AcDbLine
 10
-92.42012553500001
 20
46.6974791904
 30
0.0
 11
-92.42012553500001
 21
45.6984015004
 31
0.0
  0
LINE
  5
20A
330
1F
100
AcDbEntity
  8
LAYER0001
  6
CONTINUOUS
 62
     7
100
AcDbLine
 10
-92.42012553500001
 20
42.20162958040001
 30
0.0
 11
-90.022339085
 21
42.20162958040001
 31
0.0
  0
LINE
  5
20B
330
1F
100
AcDbEntity
  8
LAYER0001
  6
CONTINUOUS
 62
     7
100
AcDbLine
 10
-90.022339085
 20
42.20162958040001
 30
0.0
 11
-90.022339085
 21
43.20070727040002
 31
0.0
  0
LINE
  5
20C
330
1F
100
AcDbEntity
  8
LAYER0001
  6
CONTINUOUS
 62
     7
100
AcDbLine
 10
-90.022339085
 20
43.20070727040002
 30
0.0
 11
-92.42012553500001
 21
43.20070727040002
 31
0.0
  0
LINE
  5
20D
330
1F
100
AcDbEntity
  8
LAYER0001
  6
CONTINUOUS
 62
     7
100
AcDbLine
 10
-92.42012553500001
 20
43.20070727040002
 30
0.0
 11
-92.42012553500001
 21
42.20162958040001
 31
0.0
  0
LINE
  5
20E
330
1F
100
AcDbEntity
  8
LAYER0001
  6
CONTINUOUS
 62
     7
100
AcDbLine
 10
-92.221662945
 20
69.77617384039999
 30
0.0
 11
-96.21612909500001
 21
69.77617384039999
 31
0.0
  0
LINE
  5
20F
330
1F
100
AcDbEntity
  8
LAYER0001
  6
CONTINUOUS
 62
     7
100
AcDbLine
 10
-97.21612909500001
 20
68.77617384039999
 30
0.0
 11
-97.21612909500001
 21
41.10442770040001
 31
0.0
  0
LINE
  5
210
330
1F
100
AcDbEntity
  8
LAYER0001
  6
CONTINUOUS
 62
     7
100
AcDbLine
 10
-96.21612909500001
 20
40.10442770040001
 30
0.0
 11
-92.221662945
 21
40.10442770040001
 31
0.0
  0
LINE
  5
211
330
1F
100
AcDbEntity
  8
LAYER0001
  6
CONTINUOUS
 62
     7
100
AcDbLine
 10
-91.221662945
 20
41.10442770040001
 30
0.0
 11
-91.221662945
 21
68.77617384039999
 31
0.0
  0
LINE
  5
212
330
1F
100
AcDbEntity
  8
LAYER0001
  6
CONTINUOUS
 62
     7
100
AcDbLine
 10
-14.70277258500002
 20
36.73490672040001
 30
0.0
 11
-14.70277258500002
 21
-48.7721151196
 31
0.0
  0
LINE
  5
213
330
1F
100
AcDbEntity
  8
LAYER0001
  6
CONTINUOUS
 62
     7
100
AcDbLine
 10
-82.11349848500001
 20
37.34492491040001
 30
0.0
 11
-102.112040415
 21
37.34492491040001
 31
0.0
  0
LINE
  5
214
330
1F
100
AcDbEntity
  8
LAYER0001
  6
CONTINUOUS
 62
     7
100
AcDbLine
 10
-82.11349848500001
 20
36.73490672040001
 30
0.0
 11
-102.712040415
 21
36.73490672040001
 31
0.0
  0
LINE
  5
215
330
1F
100
AcDbEntity
  8
LAYER0001
  6
CONTINUOUS
 62
     7
100
AcDbLine
 10
-102.712040415
 20
36.73490672040001
 30
0.0
 11
-102.712040415
 21
79.22788488040001
 31
0.0
  0
LINE
  5
216
330
1F
100
AcDbEntity
  8
LAYER0001
  6
CONTINUOUS
 62
     7
100
AcDbLine
 10
-19.70277258500002
 20
37.34492491040001
 30
0.0
 11
-14.70277258500002
 21
36.73490672040001
 31
0.0
  0
ARC
  5
217
330
1F
100
AcDbEntity
  8
LAYER0001
  6
CONTINUOUS
 62
     7
100
AcDbCircle
 10
-109.113498485
 20
78.72788488040001
 30
0.0
 40
0.5
100
AcDbArc
 50
90.0
 51
180.0
  0
ARC
  5
218
330
1F
100
AcDbEntity
  8
LAYER0001
  6
CONTINUOUS
 62
     7
100
AcDbCircle
 10
-82.61349848500001
 20
78.72788488040001
 30
0.0
 40
0.5
100
AcDbArc
 50
0.0
 51
90.0
  0
ARC
  5
219
330
1F
100
AcDbEntity
  8
LAYER0001
  6
CONTINUOUS
 62
     7
100
AcDbCircle
 10
-82.61349848500001
 20
-50.2721151196
 30
0.0
 40
0.5
100
AcDbArc
 50
270.0
 51
0.0
  0
ARC
  5
21A
330
1F
100
AcDbEntity
  8
LAYER0001
  6
CONTINUOUS
 62
     7
100
AcDbCircle
 10
-109.113498485
 20
-50.2721151196
 30
0.0
 40
0.5
100
AcDbArc
 50
180.0
 51
270.0
  0
ARC
  5
21B
330
1F
100
AcDbEntity
  8
LAYER0001
  6
CONTINUOUS
 62
     7
100
AcDbCircle
 10
-92.221662945
 20
41.10442770040001
 30
0.0
 40
1.0
100
AcDbArc
 50
270.0
 51
0.0
  0
ARC
  5
21C
330
1F
100
AcDbEntity
  8
LAYER0001
  6
CONTINUOUS
 62
     7
100
AcDbCircle
 10
-17.70277258500003
 20
77.22788488040001
 30
0.0
 40
2.000000000000028
100
AcDbArc
 50
90.0
 51
180.0
  0
ARC
  5
21D
330
1F
100
AcDbEntity
  8
LAYER0001
  6
CONTINUOUS
 62
     7
100
AcDbCircle
 10
-12.70277258500002
 20
-48.7721151196
 30
0.0
 40
2.0
100
AcDbArc
 50
180.0
 51
270.0
  0
ARC
  5
21E
330
1F
100
AcDbEntity
  8
LAYER0001
  6
CONTINUOUS
 62
     7
100
AcDbCircle
 10
-92.221662945
 20
68.77617384039999
 30
0.0
 40
1.0
100
AcDbArc
 50
0.0
 51
90.0
  0
ARC
  5
21F
330
1F
100
AcDbEntity
  8
LAYER0001
  6
CONTINUOUS
 62
     7
100
AcDbCircle
 10
-96.21612909500001
 20
68.77617384039999
 30
0.0
 40
1.0
100
AcDbArc
 50
90.0
 51
180.0
  0
ARC
  5
220
330
1F
100
AcDbEntity
  8
LAYER0001
  6
CONTINUOUS
 62
     7
100
AcDbCircle
 10
-96.21612909500001
 20
41.10442770040001
 30
0.0
 40
1.0
100
AcDbArc
 50
180.0
 51
270.0
  0
LINE
  5
221
330
1F
100
AcDbEntity
  8
LAYER0001
  6
PHANTOM
 62
     7
100
AcDbLine
 10
-17.20277258500003
 20
23.82788488040001
 30
0.0
 11
-14.70277258500002
 21
23.82788488040001
 31
0.0
  0
LINE
  5
222
330
1F
100
AcDbEntity
  8
LAYER0001
  6
PHANTOM
 62
     7
100
AcDbLine
 10
-17.20277258500003
 20
-45.4522229296
 30
0.0
 11
-14.70277258500002
 21
-45.4522229296
 31
0.0
  0
LINE
  5
223
330
1F
100
AcDbEntity
  8
LAYER0001
  6
PHANTOM
 62
     7
100
AcDbLine
 10
-17.20277258500003
 20
23.82788488040001
 30
0.0
 11
-17.20277258500003
 21
-45.4522229296
 31
0.0
  0
LINE
  5
224
330
1F
100
AcDbEntity
  8
LAYER0001
  6
PHANTOM
 62
     7
100
AcDbLine
 10
-14.69569180390001
 20
31.01985958099999
 30
0.0
 11
-19.36443956389999
 21
28.755848891
 31
0.0
  0
LINE
  5
225
330
1F
100
AcDbEntity
  8
LAYER0001
  6
PHANTOM
 62
     7
100
AcDbLine
 10
-14.69569180499999
 20
29.8129716704
 30
0.0
 11
-18.63356655500002
 21
27.5103959404
 31
0.0
  0
LINE
  5
226
330
1F
100
AcDbEntity
  8
LAYER0001
  6
PHANTOM
 62
     7
100
AcDbLine
 10
-88.2738922458
 20
-36.4199649749
 30
0.0
 11
-88.2738922458
 21
14.8121575551
 31
0.0
  0
LINE
  5
227
330
1F
100
AcDbEntity
  8
LAYER0001
  6
PHANTOM
 62
     7
100
AcDbLine
 10
-95.11349848500001
 20
-45.4522229296
 30
0.0
 11
-87.11349848500001
 21
-45.4522229296
 31
0.0
  0
LINE
  5
228
330
1F
100
AcDbEntity
  8
LAYER0001
  6
PHANTOM
 62
     7
100
AcDbLine
 10
-89.48858004300001
 20
15.78884027880001
 30
0.0
 11
-93.268280073
 21
14.95801214880001
 31
0.0
  0
LINE
  5
229
330
1F
100
AcDbEntity
  8
LAYER0001
  6
PHANTOM
 62
     7
100
AcDbLine
 10
-95.11349848500001
 20
-39.9475209296
 30
0.0
 11
-87.11349848500001
 21
-39.9475209296
 31
0.0
  0
LINE
  5
22A
330
1F
100
AcDbEntity
  8
LAYER0001
  6
PHANTOM
 62
     7
100
AcDbLine
 10
-87.11349848500001
 20
23.82788488040001
 30
0.0
 11
-87.11349848500001
 21
-45.4522229296
 31
0.0
  0
LINE
  5
22B
330
1F
100
AcDbEntity
  8
LAYER0001
  6
PHANTOM
 62
     7
100
AcDbLine
 10
-93.2793375332
 20
-36.5182928782
 30
0.0
 11
-89.4996375032
 21
-37.3941513382
 31
0.0
  0
LINE
  5
22C
330
1F
100
AcDbEntity
  8
LAYER0001
  6
PHANTOM
 62
     7
100
AcDbLine
 10
-87.11349848500001
 20
18.3231828804
 30
0.0
 11
-95.11349848500001
 21
18.3231828804
 31
0.0
  0
LINE
  5
22D
330
1F
100
AcDbEntity
  8
LAYER0001
  6
PHANTOM
 62
     7
100
AcDbLine
 10
-87.11349848500001
 20
23.82788488040001
 30
0.0
 11
-95.11349848500001
 21
23.82788488040001
 31
0.0
  0
LINE
  5
22E
330
1F
100
AcDbEntity
  8
LAYER0001
  6
PHANTOM
 62
     7
100
AcDbLine
 10
-94.053592275
 20
13.9813294204
 30
0.0
 11
-94.053592275
 21
-35.5441065096
 31
0.0
  0
LINE
  5
22F
330
1F
100
AcDbEntity
  8
LAYER0001
  6
PHANTOM
 62
     7
100
AcDbLine
 10
-95.11349848500001
 20
23.82788488040001
 30
0.0
 11
-95.11349848500001
 21
-45.4522229296
 31
0.0
  0
LINE
  5
230
330
1F
100
AcDbEntity
  8
LAYER0001
  6
PHANTOM
 62
     7
100
AcDbLine
 10
-92.59666737500001
 20
31.3169867604
 30
0.0
 11
-92.59666737500001
 21
30.3169867604
 31
0.0
  0
LINE
  5
231
330
1F
100
AcDbEntity
  8
LAYER0001
  6
PHANTOM
 62
     7
100
AcDbLine
 10
-90.373236545
 20
30.6737203799
 30
0.0
 11
-90.24211073500001
 21
28.1475591999
 31
0.0
  0
LINE
  5
232
330
1F
100
AcDbEntity
  8
LAYER0001
  6
PHANTOM
 62
     7
100
AcDbLine
 10
-91.82009819500001
 20
30.6737203804
 30
0.0
 11
-91.951224005
 21
28.1475592004
 31
0.0
  0
LINE
  5
233
330
1F
100
AcDbEntity
  8
LAYER0001
  6
PHANTOM
 62
     7
100
AcDbLine
 10
-89.59666737500001
 20
31.3169867604
 30
0.0
 11
-89.59666737500001
 21
30.3169867604
 31
0.0
  0
ARC
  5
234
330
1F
100
AcDbEntity
  8
LAYER0001
  6
PHANTOM
 62
     7
100
AcDbCircle
 10
-19.04840653050001
 20
28.10413082389999
 30
0.0
 40
0.7243019516549949
100
AcDbArc
 50
115.8698101465993
 51
304.9418322633004
  0
CIRCLE
  5
235
330
1F
100
AcDbEntity
  8
LAYER0001
  6
PHANTOM
 62
     7
100
AcDbCircle
 10
-91.09666737500001
 20
21.0760633204
 30
0.0
 40
1.507456910000002
  0
ARC
  5
236
330
1F
100
AcDbEntity
  8
LAYER0001
  6
PHANTOM
 62
     7
100
AcDbCircle
 10
-93.0535922734
 20
13.9813294204
 30
0.0
 40
1.000000001612992
100
AcDbArc
 50
102.3972118238003
 51
180.0
  0
ARC
  5
237
330
1F
100
AcDbEntity
  8
LAYER0001
  6
PHANTOM
 62
     7
100
AcDbCircle
 10
-93.05359227350002
 20
-35.5441065096
 30
0.0
 40
1.000000001510756
100
AcDbArc
 50
180.0
 51
256.9532940467995
  0
CIRCLE
  5
238
330
1F
100
AcDbEntity
  8
LAYER0001
  6
PHANTOM
 62
     7
100
AcDbCircle
 10
-91.09666931500001
 20
-42.6995807596
 30
0.0
 40
1.506979710000003
  0
ARC
  5
239
330
1F
100
AcDbEntity
  8
LAYER0001
  6
PHANTOM
 62
     7
100
AcDbCircle
 10
-89.2738922474
 20
14.8121575495
 30
0.0
 40
1.000000001662393
100
AcDbArc
 50
0.0000003236996545
 51
102.3972115850005
  0
ARC
  5
23A
330
1F
100
AcDbEntity
  8
LAYER0001
  6
PHANTOM
 62
     7
100
AcDbCircle
 10
-89.2738922424
 20
-36.4199649749
 30
0.0
 40
0.9999999966033286
100
AcDbArc
 50
256.9532939168
 51
0.0
  0
ARC
  5
23B
330
1F
100
AcDbEntity
  8
LAYER0001
  6
PHANTOM
 62
     7
100
AcDbCircle
 10
-91.09666737
 20
30.63616915010002
 30
0.0
 40
0.7244047580175427
100
AcDbArc
 50
2.971393674299803
 51
177.0286062861006
  0
ARC
  5
23C
330
1F
100
AcDbEntity
  8
LAYER0001
  6
PHANTOM
 62
     7
100
AcDbCircle
 10
-91.09666737500001
 20
30.3169867604
 30
0.0
 40
1.500000000000001
100
AcDbArc
 50
302.5730422699998
 51
0.0
  0
ARC
  5
23D
330
1F
100
AcDbEntity
  8
LAYER0001
  6
PHANTOM
 62
     7
100
AcDbCircle
 10
-91.09666737500001
 20
31.3169867604
 30
0.0
 40
1.5
100
AcDbArc
 50
0.0
 51
180.0
  0
ARC
  5
23E
330
1F
100
AcDbEntity
  8
LAYER0001
  6
PHANTOM
 62
     7
100
AcDbCircle
 10
-91.09666737500001
 20
30.3169867604
 30
0.0
 40
1.500000000000001
100
AcDbArc
 50
180.0
 51
237.4269577300001
  0
ARC
  5
23F
330
1F
100
AcDbEntity
  8
LAYER0001
  6
PHANTOM
 62
     7
100
AcDbCircle
 10
-91.09666737500001
 20
28.1475592004
 30
0.0
 40
0.854556640000009
100
AcDbArc
 50
174.05721282
 51
5.942787179999945
  0
TEXT
  5
241
330
1F
100
AcDbEntity
  8
LAYER0001
 62
     7
100
AcDbText
 10
106.038090255
 20
-84.2137077504
 30
0.0
 40
5.0
  1
000
 41
0.5581578947368423
  7
DCSTYLE0
 72
     5
 11
113.613090255
 21
-84.2137077504
 31
0.0
100
AcDbText
  0
VIEWPORT
  5
AE
330
1B
100
AcDbEntity
 67
     1
  8
0
100
AcDbViewport
 10
-3.029999999999973
 20
0.0
 30
0.0
 40
663.49854153
 41
505.2822465024
 68
     1
 69
     1
1001
ACAD
1000
MVIEW
1002
{
1070
    16
1010
0.0
1020
0.0
1030
0.0
1010
0.0
1020
0.0
1030
1.0
1040
0.0
1040
505.2822465024
1040
-3.029999999999973
1040
0.0
1040
50.0
1040
0.0
1040
0.0
1070
     0
1070
   100
1070
     0
1070
     3
1070
     0
1070
     0
1070
     0
1070
     0
1040
0.0
1040
0.0
1040
0.0
1040
0.5
1040
0.5
1040
0.0
1040
0.0
1070
     0
1002
{
1002
}
1002
}
  0
ENDSEC
  0
SECTION
  2
OBJECTS
  0
DICTIONARY
  5
C
330
0
100
AcDbDictionary
  3
ACAD_GROUP
350
D
  3
ACAD_LAYOUT
350
1A
  3
ACAD_MATERIAL
350
43
  3
ACAD_MLEADERSTYLE
350
265
  3
ACAD_MLINESTYLE
350
17
  3
ACAD_PLOTSETTINGS
350
19
  3
ACAD_SCALELIST
350
47
  3
ACAD_VISUALSTYLE
350
2A
  3
ACDBHEADERROUNDTRIPXREC
350
242
  3
ACDBVARIABLEDICTIONARY
350
263
  0
DICTIONARY
  5
26A
330
8
100
AcDbDictionary
280
     1
  3
ACAD_XREC_ROUNDTRIP
360
26B
  0
DICTIONARY
  5
D
102
{ACAD_REACTORS
330
C
102
}
330
C
100
AcDbDictionary
  0
DICTIONARY
  5
1A
102
{ACAD_REACTORS
330
C
102
}
330
C
100
AcDbDictionary
  0
DICTIONARY
  5
43
102
{ACAD_REACTORS
330
C
102
}
330
C
100
AcDbDictionary
  3
BYBLOCK
350
45
  3
BYLAYER
350
44
  3
GLOBAL
350
46
  0
DICTIONARY
  5
265
102
{ACAD_REACTORS
330
C
102
}
330
C
100
AcDbDictionary
  0
DICTIONARY
  5
17
102
{ACAD_REACTORS
330
C
102
}
330
C
100
AcDbDictionary
  3
STANDARD
350
18
  0
DICTIONARY
  5
19
102
{ACAD_REACTORS
330
C
102
}
330
C
100
AcDbDictionary
  0
DICTIONARY
  5
47
102
{ACAD_REACTORS
330
C
102
}
330
C
100
AcDbDictionary
  3
A0
350
48
  3
A1
350
49
  3
A2
350
4A
  3
A3
350
4B
  3
A4
350
4C
  3
A5
350
4D
  3
A6
350
4E
  3
A7
350
4F
  3
A8
350
50
  3
A9
350
51
  3
B0
350
52
  3
B1
350
53
  3
B2
350
54
  3
B3
350
55
  3
B4
350
56
  3
B5
350
57
  3
B6
350
58
  3
B7
350
59
  3
B8
350
5A
  3
B9
350
5B
  3
C0
350
5C
  3
C1
350
5D
  3
C2
350
5E
  3
C3
350
5F
  3
C4
350
60
  3
C5
350
61
  3
C6
350
62
  3
C7
350
63
  3
C8
350
64
  3
C9
350
65
  3
D0
350
66
  3
D1
350
67
  3
D2
350
68
  0
DICTIONARY
  5
2A
102
{ACAD_REACTORS
330
C
102
}
330
C
100
AcDbDictionary
  3
2DWIREFRAME
350
2F
  3
BASIC
350
32
  3
BRIGHTEN
350
36
  3
COLORCHANGE
350
3A
  3
CONCEPTUAL
350
34
  3
DIM
350
35
  3
EDGECOLOROFF
350
3D
  3
FACEPATTERN
350
39
  3
FLAT
350
2B
  3
FLATWITHEDGES
350
2C
  3
GOURAUD
350
2D
  3
GOURAUDWITHEDGES
350
2E
  3
HIDDEN
350
31
  3
JITTEROFF
350
3B
  3
LINEPATTERN
350
38
  3
OVERHANGOFF
350
3C
  3
REALISTIC
350
33
  3
SHADED
350
42
  3
SHADED_WITH_EDGES
350
41
  3
SHADES_OF_GRAY
350
3E
  3
SKETCHY
350
3F
  3
THICKEN
350
37
  3
WIREFRAME
350
30
  3
X-RAY
350
40
  0
DICTIONARY
  5
242
102
{ACAD_REACTORS
330
C
102
}
330
C
100
AcDbDictionary
  3
CEPSNID
350
24C
  3
CEPSNTYPE
350
24B
  3
DIMSTYLEDATA
350
262
  3
FINGERPRINTGUID
350
24D
  3
HYPERLINKBASE
350
245
  3
INSUNITS
350
24A
  3
LAYOUTDICT
350
247
  3
LWETCUNION
350
249
  3
PLOTSETDICT
350
248
  3
PSVPSCALE
350
24F
  3
PUCSBASE
350
252
  3
PUCSORGBACK
350
258
  3
PUCSORGBOTTOM
350
254
  3
PUCSORGFRONT
350
257
  3
PUCSORGLEFT
350
255
  3
PUCSORGRIGHT
350
256
  3
PUCSORGTOP
350
253
  3
PUCSORTHOREF
350
250
  3
PUCSORTHOVIEW
350
251
  3
STYLESHEET
350
246
  3
TSTACKALIGN
350
243
  3
TSTACKSIZE
350
244
  3
UCSBASE
350
25B
  3
UCSORGBACK
350
261
  3
UCSORGBOTTOM
350
25D
  3
UCSORGFRONT
350
260
  3
UCSORGLEFT
350
25E
  3
UCSORGRIGHT
350
25F
  3
UCSORGTOP
350
25C
  3
UCSORTHOREF
350
259
  3
UCSORTHOVIEW
350
25A
  3
VERSIONGUID
350
24E
  0
DICTIONARY
  5
263
102
{ACAD_REACTORS
330
C
102
}
330
C
100
AcDbDictionary
  3
CANNOSCALE
350
26C
  3
DIMASSOC
350
268
  3
HIDETEXT
350
269
  3
MSLTSCALE
350
26D
  0
XRECORD
  5
26B
102
{ACAD_REACTORS
330
26A
102
}
330
26A
100
AcDbXrecord
102
VTR_0.000_0.000_1.000_1.000_GRIDDISPLAY
 70
     3
102
VTR_0.000_0.000_1.000_1.000_GRIDMAJOR
 70
     5
102
VTR_0.000_0.000_1.000_1.000_DEFAULTLIGHTING
280
     1
102
VTR_0.000_0.000_1.000_1.000_DEFAULTLIGHTINGTYPE
 70
     1
102
VTR_0.000_0.000_1.000_1.000_BRIGHTNESS
141
0.0
102
VTR_0.000_0.000_1.000_1.000_CONTRAST
142
0.0
  0
MATERIAL
  5
45
102
{ACAD_REACTORS
330
43
102
}
102
{ACAD_XDICTIONARY
360
270
102
}
330
43
100
AcDbMaterial
  1
BYBLOCK
  0
MATERIAL
  5
44
102
{ACAD_REACTORS
330
43
102
}
102
{ACAD_XDICTIONARY
360
26E
102
}
330
43
100
AcDbMaterial
  1
BYLAYER
  0
MATERIAL
  5
46
102
{ACAD_REACTORS
330
43
102
}
102
{ACAD_XDICTIONARY
360
272
102
}
330
43
100
AcDbMaterial
  1
GLOBAL
  0
MLINESTYLE
  5
18
102
{ACAD_REACTORS
330
17
102
}
330
17
100
AcDbMlineStyle
  2
Standard
 70
     0
  3

 62
   256
 51
90.0
 52
90.0
 71
     2
 49
0.5
 62
   256
  6
BYLAYER
 49
-0.5
 62
   256
  6
BYLAYER
  0
ACAD_PROXY_OBJECT
  5
48
102
{ACAD_REACTORS
330
47
102
}
330
47
100
AcDbProxyObject
 90
      499
 91
      503
 93
       41
310
903313A31580
  0
ACAD_PROXY_OBJECT
  5
49
102
{ACAD_REACTORS
330
47
102
}
330
47
100
AcDbProxyObject
 90
      499
 91
      503
 93
      105
310
903313A324000000000000004000
  0
ACAD_PROXY_OBJECT
  5
4A
102
{ACAD_REACTORS
330
47
102
}
330
47
100
AcDbProxyObject
 90
      499
 91
      503
 93
      105
310
903313A344000000000000104000
  0
ACAD_PROXY_OBJECT
  5
4B
102
{ACAD_REACTORS
330
47
102
}
330
47
100
AcDbProxyObject
 90
      499
 91
      503
 93
      105
310
903313A354000000000000144000
  0
ACAD_PROXY_OBJECT
  5
4C
102
{ACAD_REACTORS
330
47
102
}
330
47
100
AcDbProxyObject
 90
      499
 91
      503
 93
      105
310
903313A384000000000000204000
  0
ACAD_PROXY_OBJECT
  5
4D
102
{ACAD_REACTORS
330
47
102
}
330
47
100
AcDbProxyObject
 90
      499
 91
      503
 93
      113
310
904313A31304000000000000244000
  0
ACAD_PROXY_OBJECT
  5
4E
102
{ACAD_REACTORS
330
47
102
}
330
47
100
AcDbProxyObject
 90
      499
 91
      503
 93
      113
310
904313A31364000000000000304000
  0
ACAD_PROXY_OBJECT
  5
4F
102
{ACAD_REACTORS
330
47
102
}
330
47
100
AcDbProxyObject
 90
      499
 91
      503
 93
      113
310
904313A32304000000000000344000
  0
ACAD_PROXY_OBJECT
  5
50
102
{ACAD_REACTORS
330
47
102
}
330
47
100
AcDbProxyObject
 90
      499
 91
      503
 93
      113
310
904313A333040000000000003E4000
  0
ACAD_PROXY_OBJECT
  5
51
102
{ACAD_REACTORS
330
47
102
}
330
47
100
AcDbProxyObject
 90
      499
 91
      503
 93
      113
310
904313A34304000000000000444000
  0
ACAD_PROXY_OBJECT
  5
52
102
{ACAD_REACTORS
330
47
102
}
330
47
100
AcDbProxyObject
 90
      499
 91
      503
 93
      113
310
904313A35304000000000000494000
  0
ACAD_PROXY_OBJECT
  5
53
102
{ACAD_REACTORS
330
47
102
}
330
47
100
AcDbProxyObject
 90
      499
 91
      503
 93
      121
310
905313A3130304000000000000594000
  0
ACAD_PROXY_OBJECT
  5
54
102
{ACAD_REACTORS
330
47
102
}
330
47
100
AcDbProxyObject
 90
      499
 91
      503
 93
      105
310
903323A310000000000000010100
  0
ACAD_PROXY_OBJECT
  5
55
102
{ACAD_REACTORS
330
47
102
}
330
47
100
AcDbProxyObject
 90
      499
 91
      503
 93
      105
310
903343A310000000000000410100
  0
ACAD_PROXY_OBJECT
  5
56
102
{ACAD_REACTORS
330
47
102
}
330
47
100
AcDbProxyObject
 90
      499
 91
      503
 93
      105
310
903383A310000000000000810100
  0
ACAD_PROXY_OBJECT
  5
57
102
{ACAD_REACTORS
330
47
102
}
330
47
100
AcDbProxyObject
 90
      499
 91
      503
 93
      113
310
90431303A310000000000000910100
  0
ACAD_PROXY_OBJECT
  5
58
102
{ACAD_REACTORS
330
47
102
}
330
47
100
AcDbProxyObject
 90
      499
 91
      503
 93
      121
310
9053130303A310000000000001650100
  0
ACAD_PROXY_OBJECT
  5
59
102
{ACAD_REACTORS
330
47
102
}
330
47
100
AcDbProxyObject
 90
      499
 91
      503
 93
      257
310
90E312F31323822203D2031272D3022000000000000200FC000000000000284000
  0
ACAD_PROXY_OBJECT
  5
5A
102
{ACAD_REACTORS
330
47
102
}
330
47
100
AcDbProxyObject
 90
      499
 91
      503
 93
      249
310
90D312F363422203D2031272D3022000000000000240FC000000000000284000
  0
ACAD_PROXY_OBJECT
  5
5B
102
{ACAD_REACTORS
330
47
102
}
330
47
100
AcDbProxyObject
 90
      499
 91
      503
 93
      249
310
90D312F333222203D2031272D3022000000000000280FC000000000000284000
  0
ACAD_PROXY_OBJECT
  5
5C
102
{ACAD_REACTORS
330
47
102
}
330
47
100
AcDbProxyObject
 90
      499
 91
      503
 93
      249
310
90D312F313622203D2031272D30220000000000002C0FC000000000000284000
  0
ACAD_PROXY_OBJECT
  5
5D
102
{ACAD_REACTORS
330
47
102
}
330
47
100
AcDbProxyObject
 90
      499
 91
      503
 93
      249
310
90D332F333222203D2031272D30220000000000002E0FC000000000000284000
  0
ACAD_PROXY_OBJECT
  5
5E
102
{ACAD_REACTORS
330
47
102
}
330
47
100
AcDbProxyObject
 90
      499
 91
      503
 93
      241
310
90C312F3822203D2031272D3022000000000000300FC000000000000284000
  0
ACAD_PROXY_OBJECT
  5
5F
102
{ACAD_REACTORS
330
47
102
}
330
47
100
AcDbProxyObject
 90
      499
 91
      503
 93
      249
310
90D332F313622203D2031272D3022000000000000320FC000000000000284000
  0
ACAD_PROXY_OBJECT
  5
60
102
{ACAD_REACTORS
330
47
102
}
330
47
100
AcDbProxyObject
 90
      499
 91
      503
 93
      241
310
90C312F3422203D2031272D3022000000000000340FC000000000000284000
  0
ACAD_PROXY_OBJECT
  5
61
102
{ACAD_REACTORS
330
47
102
}
330
47
100
AcDbProxyObject
 90
      499
 91
      503
 93
      241
310
90C332F3822203D2031272D3022000000000000360FC000000000000284000
  0
ACAD_PROXY_OBJECT
  5
62
102
{ACAD_REACTORS
330
47
102
}
330
47
100
AcDbProxyObject
 90
      499
 91
      503
 93
      241
310
90C312F3222203D2031272D3022000000000000380FC000000000000284000
  0
ACAD_PROXY_OBJECT
  5
63
102
{ACAD_REACTORS
330
47
102
}
330
47
100
AcDbProxyObject
 90
      499
 91
      503
 93
      241
310
90C332F3422203D2031272D30220000000000003A0FC000000000000284000
  0
ACAD_PROXY_OBJECT
  5
64
102
{ACAD_REACTORS
330
47
102
}
330
47
100
AcDbProxyObject
 90
      499
 91
      503
 93
      161
310
90A3122203D2031272D30224000000000000284000
  0
ACAD_PROXY_OBJECT
  5
65
102
{ACAD_REACTORS
330
47
102
}
330
47
100
AcDbProxyObject
 90
      499
 91
      503
 93
      257
310
90E312D312F3222203D2031272D30220000000000003E0FC000000000000284000
  0
ACAD_PROXY_OBJECT
  5
66
102
{ACAD_REACTORS
330
47
102
}
330
47
100
AcDbProxyObject
 90
      499
 91
      503
 93
      225
310
90A3322203D2031272D302200000000000002100000000000000284000
  0
ACAD_PROXY_OBJECT
  5
67
102
{ACAD_REACTORS
330
47
102
}
330
47
100
AcDbProxyObject
 90
      499
 91
      503
 93
      225
310
90A3622203D2031272D302200000000000006100000000000000284000
  0
ACAD_PROXY_OBJECT
  5
68
102
{ACAD_REACTORS
330
47
102
}
330
47
100
AcDbProxyObject
 90
      499
 91
      503
 93
      249
310
90D31272D3022203D2031272D30220000000000000A100000000000000284000
  0
ACAD_PROXY_OBJECT
  5
2F
102
{ACAD_REACTORS
330
2A
102
}
330
2A
100
AcDbProxyObject
 90
      499
 91
      501
 93
      436
310
42CC9915DA5C99599C985B595049028333333333333E33F0000000000000F90107901411070040501600405405064090741402480A0340
1001
ACAD
1000
AcDbSavedByObjectVersion
1070
     0
  0
ACAD_PROXY_OBJECT
  5
32
102
{ACAD_REACTORS
330
2A
102
}
330
2A
100
AcDbProxyObject
 90
      499
 91
      501
 93
      388
310
4150985CDA58D07406404333333333333E33F0000000000000F90107A41107004050150841D405064090741402480A0350
1001
ACAD
1000
AcDbSavedByObjectVersion
1070
     0
  0
ACAD_PROXY_OBJECT
  5
36
102
{ACAD_REACTORS
330
2A
102
}
330
2A
100
AcDbProxyObject
 90
      499
 91
      501
 93
      428
310
42109C9A59DA1D195B90C409028333333333333E33F0000000000000F9010790141107004050150841D405064090741402480A029950
1001
ACAD
1000
AcDbSavedByObjectVersion
1070
     0
  0
ACAD_PROXY_OBJECT
  5
3A
102
{ACAD_REACTORS
330
2A
102
}
330
2A
100
AcDbProxyObject
 90
      499
 91
      501
 93
      452
310
42D0DBDB1BDC90DA185B99D95104090240C333333333333E33F0000000000000F90108901411070040501508421405064090741402480A0350
1001
ACAD
1000
AcDbSavedByObjectVersion
1070
     0
  0
ACAD_PROXY_OBJECT
  5
34
102
{ACAD_REACTORS
330
2A
102
}
330
2A
100
AcDbProxyObject
 90
      499
 91
      501
 93
      500
310
4290DBDB98D95C1D1D585B10940D028333333333333E33F0000000000000F90107902409070040501000000000018199010841D405064090740C02480A0340
1001
ACAD
1000
AcDbSavedByObjectVersion
1070
     0
  0
ACAD_PROXY_OBJECT
  5
35
102
{ACAD_REACTORS
330
2A
102
}
330
2A
100
AcDbProxyObject
 90
      499
 91
      501
 93
      412
310
40D11A5B50B409028333333333333E33F0000000000000F9010790141107004050150841D405064090741402480A02677FFFFFD0
1001
ACAD
1000
AcDbSavedByObjectVersion
1070
     0
  0
ACAD_PROXY_OBJECT
  5
3D
102
{ACAD_REACTORS
330
2A
102
}
330
2A
100
AcDbProxyObject
 90
      499
 91
      501
 93
      452
310
43115919D950DBDB1BDC93D999916409028333333333333E33F0000000000000F9010790141107004050150841D405064090741402480A0350
1001
ACAD
1000
AcDbSavedByObjectVersion
1070
     0
  0
ACAD_PROXY_OBJECT
  5
39
102
{ACAD_REACTORS
330
2A
102
}
330
2A
100
AcDbProxyObject
 90
      499
 91
      501
 93
      444
310
42D19858D95C185D1D195C9B90F409028333333333333E33F0000000000000F9010790141107004050150841D405064090741402480A0350
1001
ACAD
1000
AcDbSavedByObjectVersion
1070
     0
  0
ACAD_PROXY_OBJECT
  5
2B
102
{ACAD_REACTORS
330
2A
102
}
330
2A
100
AcDbProxyObject
 90
      499
 91
      501
 93
      380
310
41119B185D240901404333333333333E33F0000000000000F9010740A907004050150841D405064090741402480A1B50
1001
ACAD
1000
AcDbSavedByObjectVersion
1070
     0
  0
ACAD_PROXY_OBJECT
  5
2C
102
{ACAD_REACTORS
330
2A
102
}
330
2A
100
AcDbProxyObject
 90
      499
 91
      501
 93
      468
310
43519B185D15DA5D1A115919D95CD0140901404333333333333E33F0000000000000F90107409019070040501600405405064090741402480A1B50
1001
ACAD
1000
AcDbSavedByObjectVersion
1070
     0
  0
ACAD_PROXY_OBJECT
  5
2D
102
{ACAD_REACTORS
330
2A
102
}
330
2A
100
AcDbProxyObject
 90
      499
 91
      501
 93
      404
310
41D1DBDD5C985D5910240902404333333333333E33F0000000000000F9010740A9070040501641D405064090741402480A1B50
1001
ACAD
1000
AcDbSavedByObjectVersion
1070
     0
  0
ACAD_PROXY_OBJECT
  5
2E
102
{ACAD_REACTORS
330
2A
102
}
330
2A
100
AcDbProxyObject
 90
      499
 91
      501
 93
      492
310
4411DBDD5C985D5915DA5D1A115919D95CD0340902404333333333333E33F0000000000000F90107409019070040501600405405064090741402480A1B50
1001
ACAD
1000
AcDbSavedByObjectVersion
1070
     0
  0
ACAD_PROXY_OBJECT
  5
31
102
{ACAD_REACTORS
330
2A
102
}
330
2A
100
AcDbProxyObject
 90
      499
 91
      501
 93
      476
310
41921A5919195B90640502408333333333333E33F0000000000000F901079024090700405020000000000001110200405405064090740C02480A0340
1001
ACAD
1000
AcDbSavedByObjectVersion
1070
     0
  0
ACAD_PROXY_OBJECT
  5
3B
102
{ACAD_REACTORS
330
2A
102
}
330
2A
100
AcDbProxyObject
 90
      499
 91
      501
 93
      428
310
42529A5D1D195C93D999914409028333333333333E33F0000000000000F9010790141107004050150A41D405064090741402480A0350
1001
ACAD
1000
AcDbSavedByObjectVersion
1070
     0
  0
ACAD_PROXY_OBJECT
  5
38
102
{ACAD_REACTORS
330
2A
102
}
330
2A
100
AcDbProxyObject
 90
      499
 91
      501
 93
      444
310
42D31A5B995C185D1D195C9B90E409028333333333333E33F0000000000000F9010790141107004050750841D405064090741402483A0350
1001
ACAD
1000
AcDbSavedByObjectVersion
1070
     0
  0
ACAD_PROXY_OBJECT
  5
3C
102
{ACAD_REACTORS
330
2A
102
}
330
2A
100
AcDbProxyObject
 90
      499
 91
      501
 93
      444
310
42D3DD995C9A185B99D3D999915409028333333333333E33F0000000000000F9010790141107004050150941D405064090741402480A0350
1001
ACAD
1000
AcDbSavedByObjectVersion
1070
     0
  0
ACAD_PROXY_OBJECT
  5
33
102
{ACAD_REACTORS
330
2A
102
}
330
2A
100
AcDbProxyObject
 90
      499
 91
      501
 93
      428
310
425499585B1A5CDD1A58D08409038333333333333E33F0000000000000F9010740A907004050150800405405064090740C02480A1B40
1001
ACAD
1000
AcDbSavedByObjectVersion
1070
     0
  0
ACAD_PROXY_OBJECT
  5
42
102
{ACAD_REACTORS
330
2A
102
}
330
2A
100
AcDbProxyObject
 90
      499
 91
      501
 93
      420
310
4194DA1859195911B40902404333333333333E33F0000000000000F9010740A41107004050150800405405064090840C02480A0B40
1001
ACAD
1000
AcDbSavedByObjectVersion
1070
     0
  0
ACAD_PROXY_OBJECT
  5
41
102
{ACAD_REACTORS
330
2A
102
}
330
2A
100
AcDbProxyObject
 90
      499
 91
      501
 93
      516
310
4454DA18591959081DDA5D1A08195919D95CD1A40902404333333333333E33F0000000000000F901074090142907004050250800405405064090740C02480A0B40
1001
ACAD
1000
AcDbSavedByObjectVersion
1070
     0
  0
ACAD_PROXY_OBJECT
  5
3E
102
{ACAD_REACTORS
330
2A
102
}
330
2A
100
AcDbProxyObject
 90
      499
 91
      501
 93
      532
310
4394DA1859195CC81BD98811DC985E5174090240C333333333333E33F0000000000000F901079024090741D01000000000000111010841D405064090740C02480A0340
1001
ACAD
1000
AcDbSavedByObjectVersion
1070
     0
  0
ACAD_PROXY_OBJECT
  5
3F
102
{ACAD_REACTORS
330
2A
102
}
330
2A
100
AcDbProxyObject
 90
      499
 91
      501
 93
      476
310
41D4DAD95D18DA1E51840502408333333333333E33F0000000000000F901079024090741D01000000000000111010B41D405064090741802480A0340
1001
ACAD
1000
AcDbSavedByObjectVersion
1070
     0
  0
ACAD_PROXY_OBJECT
  5
37
102
{ACAD_REACTORS
330
2A
102
}
330
2A
100
AcDbProxyObject
 90
      499
 91
      501
 93
      412
310
41D51A1A58DAD95B90D409028333333333333E33F0000000000000F9010790141107004050150C41D405064090741402480A0350
1001
ACAD
1000
AcDbSavedByObjectVersion
1070
     0
  0
ACAD_PROXY_OBJECT
  5
30
102
{ACAD_REACTORS
330
2A
102
}
330
2A
100
AcDbProxyObject
 90
      499
 91
      501
 93
      420
310
4255DA5C99599C985B595059028333333333333E33F0000000000000F90107901411070040501600405405064090740C02480A0340
1001
ACAD
1000
AcDbSavedByObjectVersion
1070
     0
  0
ACAD_PROXY_OBJECT
  5
40
102
{ACAD_REACTORS
330
2A
102
}
330
2A
100
AcDbProxyObject
 90
      499
 91
      501
 93
      404
310
41560B54985E51940902404000000000000E03F0000000000000F9010740501907004050150841D405064090740C02480A1B40
1001
ACAD
1000
AcDbSavedByObjectVersion
1070
     0
  0
XRECORD
  5
24C
102
{ACAD_REACTORS
330
242
102
}
330
242
100
AcDbXrecord
340
0
  0
XRECORD
  5
24B
102
{ACAD_REACTORS
330
242
102
}
330
242
100
AcDbXrecord
 90
        0
  0
XRECORD
  5
262
102
{ACAD_REACTORS
330
242
102
}
330
242
100
AcDbXrecord
1000
DSTYLE
1002
{
1070
   179
 70
     2
1070
   171
 70
     2
1070
   143
 40
25.4
1070
   274
 70
     2
1070
    41
 40
0.7500004768371582
1070
    79
 70
     2
1070
   141
 40
0.0
1070
    43
 40
10.0
1070
   278
 70
    46
1070
    44
 40
1.0
1070
    42
 40
1.0
1070
   147
 40
0.09
1070
   146
 40
0.65
1070
   172
 70
     0
1070
   340
340
11
1070
   140
 40
0.875
1070
   284
 70
     0
1070
    90
 70
     1
1002
}
  0
XRECORD
  5
24D
102
{ACAD_REACTORS
330
242
102
}
330
242
100
AcDbXrecord
  1
{E8D47DF3-B3D2-4C43-B112-9E8660DE3819}
  0
XRECORD
  5
245
102
{ACAD_REACTORS
330
242
102
}
330
242
100
AcDbXrecord
  1

  0
XRECORD
  5
24A
102
{ACAD_REACTORS
330
242
102
}
330
242
100
AcDbXrecord
 90
        4
  0
XRECORD
  5
247
102
{ACAD_REACTORS
330
242
102
}
330
242
100
AcDbXrecord
340
1A
  0
XRECORD
  5
249
102
{ACAD_REACTORS
330
242
102
}
330
242
100
AcDbXrecord
 90
    10781
  0
XRECORD
  5
248
102
{ACAD_REACTORS
330
242
102
}
330
242
100
AcDbXrecord
340
19
  0
XRECORD
  5
24F
102
{ACAD_REACTORS
330
242
102
}
330
242
100
AcDbXrecord
 40
0.0
  0
XRECORD
  5
252
102
{ACAD_REACTORS
330
242
102
}
330
242
100
AcDbXrecord
340
0
  0
XRECORD
  5
258
102
{ACAD_REACTORS
330
242
102
}
330
242
100
AcDbXrecord
 10
0.0
 20
0.0
 30
0.0
  0
XRECORD
  5
254
102
{ACAD_REACTORS
330
242
102
}
330
242
100
AcDbXrecord
 10
0.0
 20
0.0
 30
0.0
  0
XRECORD
  5
257
102
{ACAD_REACTORS
330
242
102
}
330
242
100
AcDbXrecord
 10
0.0
 20
0.0
 30
0.0
  0
XRECORD
  5
255
102
{ACAD_REACTORS
330
242
102
}
330
242
100
AcDbXrecord
 10
0.0
 20
0.0
 30
0.0
  0
XRECORD
  5
256
102
{ACAD_REACTORS
330
242
102
}
330
242
100
AcDbXrecord
 10
0.0
 20
0.0
 30
0.0
  0
XRECORD
  5
253
102
{ACAD_REACTORS
330
242
102
}
330
242
100
AcDbXrecord
 10
0.0
 20
0.0
 30
0.0
  0
XRECORD
  5
250
102
{ACAD_REACTORS
330
242
102
}
330
242
100
AcDbXrecord
340
0
  0
XRECORD
  5
251
102
{ACAD_REACTORS
330
242
102
}
330
242
100
AcDbXrecord
 70
     0
  0
XRECORD
  5
246
102
{ACAD_REACTORS
330
242
102
}
330
242
100
AcDbXrecord
  1

  0
XRECORD
  5
243
102
{ACAD_REACTORS
330
242
102
}
330
242
100
AcDbXrecord
 90
        1
  0
XRECORD
  5
244
102
{ACAD_REACTORS
330
242
102
}
330
242
100
AcDbXrecord
 90
       70
  0
XRECORD
  5
25B
102
{ACAD_REACTORS
330
242
102
}
330
242
100
AcDbXrecord
340
0
  0
XRECORD
  5
261
102
{ACAD_REACTORS
330
242
102
}
330
242
100
AcDbXrecord
 10
0.0
 20
0.0
 30
0.0
  0
XRECORD
  5
25D
102
{ACAD_REACTORS
330
242
102
}
330
242
100
AcDbXrecord
 10
0.0
 20
0.0
 30
0.0
  0
XRECORD
  5
260
102
{ACAD_REACTORS
330
242
102
}
330
242
100
AcDbXrecord
 10
0.0
 20
0.0
 30
0.0
  0
XRECORD
  5
25E
102
{ACAD_REACTORS
330
242
102
}
330
242
100
AcDbXrecord
 10
0.0
 20
0.0
 30
0.0
  0
XRECORD
  5
25F
102
{ACAD_REACTORS
330
242
102
}
330
242
100
AcDbXrecord
 10
0.0
 20
0.0
 30
0.0
  0
XRECORD
  5
25C
102
{ACAD_REACTORS
330
242
102
}
330
242
100
AcDbXrecord
 10
0.0
 20
0.0
 30
0.0
  0
XRECORD
  5
259
102
{ACAD_REACTORS
330
242
102
}
330
242
100
AcDbXrecord
340
0
  0
XRECORD
  5
25A
102
{ACAD_REACTORS
330
242
102
}
330
242
100
AcDbXrecord
 70
     0
  0
XRECORD
  5
24E
102
{ACAD_REACTORS
330
242
102
}
330
242
100
AcDbXrecord
  1
{FAEB1C32-E019-11D5-929B-00C0DF256EC4}
  0
DICTIONARYVAR
  5
26C
102
{ACAD_REACTORS
330
263
102
}
330
263
100
DictionaryVariables
280
     0
  1
1:1
  0
DICTIONARYVAR
  5
268
102
{ACAD_REACTORS
330
263
102
}
330
263
100
DictionaryVariables
280
     0
  1
2
  0
DICTIONARYVAR
  5
269
102
{ACAD_REACTORS
330
263
102
}
330
263
100
DictionaryVariables
280
     0
  1
1
  0
DICTIONARYVAR
  5
26D
102
{ACAD_REACTORS
330
263
102
}
330
263
100
DictionaryVariables
280
     0
  1
1
  0
DICTIONARY
  5
270
330
45
100
AcDbDictionary
280
     1
  3
ACAD_XREC_ROUNDTRIP
360
271
  0
DICTIONARY
  5
26E
330
44
100
AcDbDictionary
280
     1
  3
ACAD_XREC_ROUNDTRIP
360
26F
  0
DICTIONARY
  5
272
330
46
100
AcDbDictionary
280
     1
  3
ACAD_XREC_ROUNDTRIP
360
273
  0
XRECORD
  5
271
102
{ACAD_REACTORS
330
270
102
}
330
270
100
AcDbXrecord
102
MATERIAL
148
0.0
149
0.0
149
0.0
 93
        0
 94
      127
282
     0
 72
     1
 77
     1
171
     1
175
     1
179
     1
273
     0
  0
XRECORD
  5
26F
102
{ACAD_REACTORS
330
26E
102
}
330
26E
100
AcDbXrecord
102
MATERIAL
148
0.0
149
0.0
149
0.0
 93
        0
 94
      127
282
     0
 72
     1
 77
     1
171
     1
175
     1
179
     1
273
     0
  0
XRECORD
  5
273
102
{ACAD_REACTORS
330
272
102
}
330
272
100
AcDbXrecord
102
MATERIAL
148
0.0
149
0.0
149
0.0
 93
        0
 94
      127
282
     0
 72
     1
 77
     1
171
     1
175
     1
179
     1
273
     0
  0
ENDSEC
  0
EOF
