  0
SECTION
  2
HEADER
  9
$ACADVER
  1
AC1009
  9
$INSBASE
 10
0.0
 20
0.0
 30
0.0
  9
$EXTMIN
 10
-120.0066714499999989
 20
-88.2422746900000021
 30
0.0
  9
$EXTMAX
 10
120.0066714499999989
 20
70.050633739999995
 30
0.0
  9
$LIMMIN
 10
-132.6073719499999868
 20
-96.5526523799999978
  9
$LIMMAX
 10
132.6073719499999868
 20
78.3610114300000049
  9
$ORTHOMODE
 70
     0
  9
$REGENMODE
 70
     1
  9
$FILLMODE
 70
     1
  9
$QTEXTMODE
 70
     0
  9
$MIRRTEXT
 70
     1
  9
$DRAGMODE
 70
     2
  9
$LTSCALE
 40
1.0
  9
$OSMODE
 70
  1079
  9
$ATTMODE
 70
     1
  9
$TEXTSIZE
 40
5.0
  9
$TRACEWID
 40
0.05
  9
$TEXTSTYLE
  7
STANDARD
  9
$CLAYER
  8
0
  9
$CELTYPE
  6
CONTINUOUS
  9
$CECOLOR
 62
   256
  9
$DIMSCALE
 40
1.0
  9
$DIMASZ
 40
0.18
  9
$DIMEXO
 40
0.0625
  9
$DIMDLI
 40
0.38
  9
$DIMRND
 40
0.0
  9
$DIMDLE
 40
0.0
  9
$DIMEXE
 40
0.18
  9
$DIMTP
 40
0.0
  9
$DIMTM
 40
0.0
  9
$DIMTXT
 40
0.18
  9
$DIMCEN
 40
0.09
  9
$DIMTSZ
 40
0.0
  9
$DIMTOL
 70
     0
  9
$DIMLIM
 70
     0
  9
$DIMTIH
 70
     1
  9
$DIMTOH
 70
     1
  9
$DIMSE1
 70
     0
  9
$DIMSE2
 70
     0
  9
$DIMTAD
 70
     0
  9
$DIMZIN
 70
     0
  9
$DIMBLK
  1

  9
$DIMASO
 70
     1
  9
$DIMSHO
 70
     1
  9
$DIMPOST
  1

  9
$DIMAPOST
  1

  9
$DIMALT
 70
     0
  9
$DIMALTD
 70
     2
  9
$DIMALTF
 40
25.3999999999999986
  9
$DIMLFAC
 40
1.0
  9
$DIMTOFL
 70
     0
  9
$DIMTVP
 40
0.0
  9
$DIMTIX
 70
     0
  9
$DIMSOXD
 70
     0
  9
$DIMSAH
 70
     0
  9
$DIMBLK1
  1

  9
$DIMBLK2
  1

  9
$DIMSTYLE
  2
STANDARD
  9
$DIMCLRD
 70
     0
  9
$DIMCLRE
 70
     0
  9
$DIMCLRT
 70
     0
  9
$DIMTFAC
 40
1.0
  9
$DIMGAP
 40
0.09
  9
$LUNITS
 70
     2
  9
$LUPREC
 70
     4
  9
$SKETCHINC
 40
0.1
  9
$FILLETRAD
 40
0.0
  9
$AUNITS
 70
     0
  9
$AUPREC
 70
     0
  9
$MENU
  1
acad
  9
$ELEVATION
 40
0.0
  9
$PELEVATION
 40
0.0
  9
$THICKNESS
 40
0.0
  9
$LIMCHECK
 70
     0
  9
$BLIPMODE
 70
     0
  9
$CHAMFERA
 40
0.0
  9
$CHAMFERB
 40
0.0
  9
$SKPOLY
 70
     0
  9
$TDCREATE
 40
2440588.749988425988704
  9
$TDUPDATE
 40
2458683.4078819439746439
  9
$TDINDWG
 40
0.0020717593
  9
$TDUSRTIMER
 40
0.0020717593
  9
$USRTIMER
 70
     1
  9
$ANGBASE
 50
0.0
  9
$ANGDIR
 70
     0
  9
$PDMODE
 70
     0
  9
$PDSIZE
 40
1.0
  9
$PLINEWID
 40
0.0
  9
$COORDS
 70
     1
  9
$SPLFRAME
 70
     0
  9
$SPLINETYPE
 70
     6
  9
$SPLINESEGS
 70
     8
  9
$ATTDIA
 70
     1
  9
$ATTREQ
 70
     1
  9
$HANDLING
 70
     1
  9
$HANDSEED
  5
5C8
  9
$SURFTAB1
 70
     6
  9
$SURFTAB2
 70
     6
  9
$SURFTYPE
 70
     6
  9
$SURFU
 70
     6
  9
$SURFV
 70
     6
  9
$UCSNAME
  2

  9
$UCSORG
 10
0.0
 20
0.0
 30
0.0
  9
$UCSXDIR
 10
1.0
 20
0.0
 30
0.0
  9
$UCSYDIR
 10
0.0
 20
1.0
 30
0.0
  9
$PUCSNAME
  2

  9
$PUCSORG
 10
0.0
 20
0.0
 30
0.0
  9
$PUCSXDIR
 10
1.0
 20
0.0
 30
0.0
  9
$PUCSYDIR
 10
0.0
 20
1.0
 30
0.0
  9
$USERI1
 70
     0
  9
$USERI2
 70
     0
  9
$USERI3
 70
     0
  9
$USERI4
 70
     0
  9
$USERI5
 70
     0
  9
$USERR1
 40
0.0
  9
$USERR2
 40
0.0
  9
$USERR3
 40
0.0
  9
$USERR4
 40
0.0
  9
$USERR5
 40
0.0
  9
$WORLDVIEW
 70
     1
  9
$SHADEDGE
 70
     3
  9
$SHADEDIF
 70
    70
  9
$TILEMODE
 70
     1
  9
$MAXACTVP
 70
    16
  9
$PLIMCHECK
 70
     0
  9
$PEXTMIN
 10
1.0000000000000000E+20
 20
1.0000000000000000E+20
 30
1.0000000000000000E+20
  9
$PEXTMAX
 10
-1.0000000000000000E+20
 20
-1.0000000000000000E+20
 30
-1.0000000000000000E+20
  9
$PLIMMIN
 10
0.0
 20
0.0
  9
$PLIMMAX
 10
12.0
 20
9.0
  9
$UNITMODE
 70
     0
  9
$VISRETAIN
 70
     0
  9
$PLINEGEN
 70
     1
  9
$PSLTSCALE
 70
     0
  0
ENDSEC
  0
SECTION
  2
TABLES
  0
TABLE
  2
VPORT
 70
     1
  0
VPORT
  2
*ACTIVE
 70
     0
 10
0.0
 20
0.0
 11
1.0
 21
1.0
 12
-20.4732109863461496
 22
-11.3980494156441203
 13
0.0
 23
0.0
 14
1.0
 24
1.0
 15
0.0
 25
0.0
 16
0.0
 26
0.0
 36
1.0
 17
0.0
 27
0.0
 37
0.0
 40
226.0159480421494038
 41
2.2158693115519248
 42
50.0
 43
0.0
 44
0.0
 50
0.0
 51
0.0
 71
     0
 72
   100
 73
     1
 74
     1
 75
     0
 76
     0
 77
     0
 78
     0
  0
ENDTAB
  0
TABLE
  2
LTYPE
 70
    29
  0
LTYPE
  2
CONTINUOUS
 70
     0
  3
Solid line
 72
    65
 73
     0
 40
0.0
  0
LTYPE
  2
HIDDENX2
 70
     0
  3
CADPAC LINETYPE
 72
    65
 73
     2
 40
9.9845550599999982
 49
7.488416299999999
 49
-2.4961387699999991
  0
LTYPE
  2
HIDDEN
 70
     0
  3
CADPAC LINETYPE
 72
    65
 73
     2
 40
7.488416299999999
 49
4.9922775299999991
 49
-2.4961387699999991
  0
LTYPE
  2
HIDDEN2
 70
     0
  3
CADPAC LINETYPE
 72
    65
 73
     2
 40
6.2403469200000004
 49
3.7442081499999991
 49
-2.4961387699999991
  0
LTYPE
  2
DASHED
 70
     0
  3
CADPAC LINETYPE
 72
    65
 73
     2
 40
7.488416299999999
 49
4.9922775299999991
 49
-2.4961387699999991
  0
LTYPE
  2
DASHED2
 70
     0
  3
CADPAC LINETYPE
 72
    65
 73
     2
 40
5.6163122200000002
 49
3.7442081499999991
 49
-1.8721040699999989
  0
LTYPE
  2
DASHEDX2
 70
     0
  3
CADPAC LINETYPE
 72
    65
 73
     2
 40
11.2326244499999994
 49
7.488416299999999
 49
-3.7442081499999991
  0
LTYPE
  2
DOTX2
 70
     0
  3
CADPAC LINETYPE
 72
    65
 73
     2
 40
3.1201734600000002
 49
0.0
 49
-3.1201734600000002
  0
LTYPE
  2
DOT
 70
     0
  3
CADPAC LINETYPE
 72
    65
 73
     2
 40
2.4961387699999991
 49
0.0
 49
-2.4961387699999991
  0
LTYPE
  2
DOT2
 70
     0
  3
CADPAC LINETYPE
 72
    65
 73
     2
 40
1.8721040699999989
 49
0.0
 49
-1.8721040699999989
  0
LTYPE
  2
CENTERX2
 70
     0
  3
CADPAC LINETYPE
 72
    65
 73
     4
 40
14.9768325999999998
 49
6.2403469200000004
 49
-3.1201734600000002
 49
2.4961387699999991
 49
-3.1201734600000002
  0
LTYPE
  2
CENTER
 70
     0
  3
CADPAC LINETYPE
 72
    65
 73
     4
 40
11.4822383200000004
 49
4.9922775299999991
 49
-2.4961387699999991
 49
1.4976832600000001
 49
-2.4961387699999991
  0
LTYPE
  2
CENTER2
 70
     0
  3
CADPAC LINETYPE
 72
    65
 73
     4
 40
7.9876440500000001
 49
3.7442081499999991
 49
-1.8721040699999989
 49
0.4992277500000001
 49
-1.8721040699999989
  0
LTYPE
  2
DASHDOTX2
 70
     0
  3
CADPAC LINETYPE
 72
    65
 73
     4
 40
12.4806938299999999
 49
6.2403469200000004
 49
-3.1201734600000002
 49
0.0
 49
-3.1201734600000002
  0
LTYPE
  2
DASHDOT
 70
     0
  3
CADPAC LINETYPE
 72
    65
 73
     4
 40
9.9845550599999982
 49
4.9922775299999991
 49
-2.4961387699999991
 49
0.0
 49
-2.4961387699999991
  0
LTYPE
  2
DASHDOT2
 70
     0
  3
CADPAC LINETYPE
 72
    65
 73
     4
 40
7.488416299999999
 49
3.7442081499999991
 49
-1.8721040699999989
 49
0.0
 49
-1.8721040699999989
  0
LTYPE
  2
DIVIDEX2
 70
     0
  3
CADPAC LINETYPE
 72
    65
 73
     6
 40
15.6008672900000001
 49
6.2403469200000004
 49
-3.1201734600000002
 49
0.0
 49
-3.1201734600000002
 49
0.0
 49
-3.1201734600000002
  0
LTYPE
  2
DIVIDE
 70
     0
  3
CADPAC LINETYPE
 72
    65
 73
     6
 40
12.4806938299999999
 49
4.9922775299999991
 49
-2.4961387699999991
 49
0.0
 49
-2.4961387699999991
 49
0.0
 49
-2.4961387699999991
  0
LTYPE
  2
DIVIDE2
 70
     0
  3
CADPAC LINETYPE
 72
    65
 73
     6
 40
9.3605203699999997
 49
3.7442081499999991
 49
-1.8721040699999989
 49
0.0
 49
-1.8721040699999989
 49
0.0
 49
-1.8721040699999989
  0
LTYPE
  2
BORDERX2
 70
     0
  3
CADPAC LINETYPE
 72
    65
 73
     6
 40
21.8412141999999996
 49
6.2403469200000004
 49
-3.1201734600000002
 49
6.2403469200000004
 49
-3.1201734600000002
 49
0.0
 49
-3.1201734600000002
  0
LTYPE
  2
BORDER
 70
     0
  3
CADPAC LINETYPE
 72
    65
 73
     6
 40
17.472971359999999
 49
4.9922775299999991
 49
-2.4961387699999991
 49
4.9922775299999991
 49
-2.4961387699999991
 49
0.0
 49
-2.4961387699999991
  0
LTYPE
  2
BORDER2
 70
     0
  3
CADPAC LINETYPE
 72
    65
 73
     6
 40
13.1047285200000001
 49
3.7442081499999991
 49
-1.8721040699999989
 49
3.7442081499999991
 49
-1.8721040699999989
 49
0.0
 49
-1.8721040699999989
  0
LTYPE
  2
PHANTOMX2
 70
     0
  3
CADPAC LINETYPE
 72
    65
 73
     6
 40
18.7210407500000002
 49
6.2403469200000004
 49
-2.4961387699999991
 49
2.4961387699999991
 49
-2.4961387699999991
 49
2.4961387699999991
 49
-2.4961387699999991
  0
LTYPE
  2
PHANTOM
 70
     0
  3
CADPAC LINETYPE
 72
    65
 73
     6
 40
15.4760603499999991
 49
4.9922775299999991
 49
-2.4961387699999991
 49
1.4976832600000001
 49
-2.4961387699999991
 49
1.4976832600000001
 49
-2.4961387699999991
  0
LTYPE
  2
PHANTOM2
 70
     0
  3
CADPAC LINETYPE
 72
    65
 73
     6
 40
13.2295354599999992
 49
3.7442081499999991
 49
-2.4961387699999991
 49
0.9984555099999999
 49
-2.4961387699999991
 49
0.9984555099999999
 49
-2.4961387699999991
  0
LTYPE
  2
ACAD_ISO06W100
 70
     0
  3
CADPAC LINETYPE
 72
    65
 73
     8
 40
16.8489366700000005
 49
6.2403469200000004
 49
-3.1201734600000002
 49
0.0
 49
-2.4961387699999991
 49
0.0
 49
-2.4961387699999991
 49
0.0
 49
-2.4961387699999991
  0
LTYPE
  2
ACAD_ISO13W100
 70
     0
  3
CADPAC LINETYPE
 72
    65
 73
     8
 40
19.9691101300000007
 49
4.9922775299999991
 49
-2.4961387699999991
 49
4.9922775299999991
 49
-2.4961387699999991
 49
0.0
 49
-2.4961387699999991
 49
0.0
 49
-2.4961387699999991
  0
LTYPE
  2
ACAD_ISO14W100
 70
     0
  3
CADPAC LINETYPE
 72
    65
 73
     8
 40
14.9768325999999998
 49
4.9922775299999991
 49
-2.4961387699999991
 49
0.0
 49
-2.4961387699999991
 49
0.0
 49
-2.4961387699999991
 49
0.0
 49
-2.4961387699999991
  0
ENDTAB
  0
TABLE
  2
LAYER
 70
     2
  0
LAYER
  2
0
 70
     0
 62
     7
  6
CONTINUOUS
  0
LAYER
  2
レイヤー_1
 70
     0
 62
     7
  6
CONTINUOUS
  0
ENDTAB
  0
TABLE
  2
STYLE
 70
     1
  0
STYLE
  2
STANDARD
 70
     0
 40
0.0
 41
0.8
 50
0.0
 71
     0
 42
5.0
  3
txt.shx
  4
bigfont.shx
  0
ENDTAB
  0
TABLE
  2
VIEW
 70
     1
  0
VIEW
  2
QQQQ
 70
     0
 40
174.9136638200000107
 10
0.0
 20
-9.0958204800000004
 41
265.2147438999999736
 11
0.0
 21
0.0
 31
1.0
 12
100.0
 22
100.0
 32
0.0
 42
50.0
 43
0.0
 44
0.0
 50
0.0
 71
     0
  0
ENDTAB
  0
TABLE
  2
UCS
 70
     0
  0
ENDTAB
  0
TABLE
  2
APPID
 70
     3
  0
APPID
  2
ACAD
 70
     0
  0
APPID
  2
ACAD_NAV_VCDISPLAY
 70
     0
  0
APPID
  2
ACAD_MLEADERVER
 70
     0
  0
ENDTAB
  0
TABLE
  2
DIMSTYLE
 70
     2
  0
DIMSTYLE
  2
STANDARD
 70
     0
  3

  4

  5

  6

  7

 40
1.0
 41
0.18
 42
0.0625
 43
0.38
 44
0.18
 45
0.0
 46
0.0
 47
0.0
 48
0.0
140
0.18
141
0.09
142
0.0
143
25.3999999999999986
144
1.0
145
0.0
146
1.0
147
0.09
 71
     0
 72
     0
 73
     1
 74
     1
 75
     0
 76
     0
 77
     0
 78
     0
170
     0
171
     2
172
     0
173
     0
174
     0
175
     0
176
     0
177
     0
178
     0
  0
ENDTAB
  0
ENDSEC
  0
SECTION
  2
BLOCKS
  0
BLOCK
  8
0
  2
$MODEL_SPACE
 70
     0
 10
0.0
 20
0.0
 30
0.0
  3
$MODEL_SPACE
  1

  0
ENDBLK
  5
E
  8
0
  0
BLOCK
 67
     1
  8
0
  2
$PAPER_SPACE
 70
     0
 10
0.0
 20
0.0
 30
0.0
  3
$PAPER_SPACE
  1

  0
ENDBLK
  5
10
 67
     1
  8
0
  0
ENDSEC
  0
SECTION
  2
ENTITIES
  0
LINE
  5
3A
  8
レイヤー_1
  6
CONTINUOUS
 62
     3
 10
105.8008202299999994
 20
56.5101165600000002
 30
0.0
 11
105.9237267000000031
 21
56.5150842899999901
 31
0.0
  0
LINE
  5
3B
  8
レイヤー_1
  6
CONTINUOUS
 62
     3
 10
105.9237267000000031
 20
56.5150842899999901
 30
0.0
 11
106.0438846299999938
 21
56.5297303600000021
 31
0.0
  0
LINE
  5
3C
  8
レイヤー_1
  6
CONTINUOUS
 62
     3
 10
106.0438846299999938
 20
56.5297303600000021
 30
0.0
 11
106.1609096800000032
 21
56.5536691399999967
 31
0.0
  0
LINE
  5
3D
  8
レイヤー_1
  6
CONTINUOUS
 62
     3
 10
106.1609096800000032
 20
56.5536691399999967
 30
0.0
 11
106.2744174999999984
 21
56.5865150099999994
 31
0.0
  0
LINE
  5
3E
  8
レイヤー_1
  6
CONTINUOUS
 62
     3
 10
106.2744174999999984
 20
56.5865150099999994
 30
0.0
 11
106.3840237499999972
 21
56.6278823099999968
 31
0.0
  0
LINE
  5
3F
  8
レイヤー_1
  6
CONTINUOUS
 62
     3
 10
106.3840237499999972
 20
56.6278823099999968
 30
0.0
 11
106.4893440799999951
 21
56.6773854099999994
 31
0.0
  0
LINE
  5
40
  8
レイヤー_1
  6
CONTINUOUS
 62
     3
 10
106.4893440799999951
 20
56.6773854099999994
 30
0.0
 11
106.589994180000005
 21
56.7346387099999987
 31
0.0
  0
LINE
  5
41
  8
レイヤー_1
  6
CONTINUOUS
 62
     3
 10
106.589994180000005
 20
56.7346387099999987
 30
0.0
 11
106.6855896499999972
 21
56.7992565400000018
 31
0.0
  0
LINE
  5
42
  8
レイヤー_1
  6
CONTINUOUS
 62
     3
 10
106.6855896499999972
 20
56.7992565400000018
 30
0.0
 11
106.7757461799999987
 21
56.870853259999997
 31
0.0
  0
LINE
  5
43
  8
レイヤー_1
  6
CONTINUOUS
 62
     3
 10
106.7757461799999987
 20
56.870853259999997
 30
0.0
 11
106.860079429999999
 21
56.9490432600000034
 31
0.0
  0
LINE
  5
44
  8
レイヤー_1
  6
CONTINUOUS
 62
     3
 10
106.860079429999999
 20
56.9490432600000034
 30
0.0
 11
106.938205030000006
 21
57.0334408900000014
 31
0.0
  0
LINE
  5
45
  8
レイヤー_1
  6
CONTINUOUS
 62
     3
 10
106.938205030000006
 20
57.0334408900000014
 30
0.0
 11
107.0097386799999981
 21
57.1236605100000006
 31
0.0
  0
LINE
  5
46
  8
レイヤー_1
  6
CONTINUOUS
 62
     3
 10
107.0097386799999981
 20
57.1236605100000006
 30
0.0
 11
107.0742960000000039
 21
57.2193164899999971
 31
0.0
  0
LINE
  5
47
  8
レイヤー_1
  6
CONTINUOUS
 62
     3
 10
107.0742960000000039
 20
57.2193164899999971
 30
0.0
 11
107.1314926499999984
 21
57.3200232100000022
 31
0.0
  0
LINE
  5
48
  8
レイヤー_1
  6
CONTINUOUS
 62
     3
 10
107.1314926499999984
 20
57.3200232100000022
 30
0.0
 11
107.1809442999999931
 21
57.4253949900000009
 31
0.0
  0
LINE
  5
49
  8
レイヤー_1
  6
CONTINUOUS
 62
     3
 10
107.1809442999999931
 20
57.4253949900000009
 30
0.0
 11
107.2222666299999929
 21
57.5350462600000014
 31
0.0
  0
LINE
  5
4A
  8
レイヤー_1
  6
CONTINUOUS
 62
     3
 10
107.2222666299999929
 20
57.5350462600000014
 30
0.0
 11
107.2550752300000028
 21
57.6485913100000005
 31
0.0
  0
LINE
  5
4B
  8
レイヤー_1
  6
CONTINUOUS
 62
     3
 10
107.2550752300000028
 20
57.6485913100000005
 30
0.0
 11
107.2789858000000009
 21
57.7656445900000008
 31
0.0
  0
LINE
  5
4C
  8
レイヤー_1
  6
CONTINUOUS
 62
     3
 10
107.2789858000000009
 20
57.7656445900000008
 30
0.0
 11
107.2936140000000051
 21
57.8858203899999992
 31
0.0
  0
LINE
  5
4D
  8
レイヤー_1
  6
CONTINUOUS
 62
     3
 10
107.2936140000000051
 20
57.8858203899999992
 30
0.0
 11
107.2985754799999967
 21
58.0087330899999927
 31
0.0
  0
LINE
  5
4E
  8
レイヤー_1
  6
CONTINUOUS
 62
     3
 10
113.2921803499999953
 20
58.75804136
 30
0.0
 11
113.2792354000000046
 21
59.0387033599999995
 31
0.0
  0
LINE
  5
4F
  8
レイヤー_1
  6
CONTINUOUS
 62
     3
 10
113.2792354000000046
 20
59.0387033599999995
 30
0.0
 11
113.2411661000000009
 21
59.3120709900000023
 31
0.0
  0
LINE
  5
50
  8
レイヤー_1
  6
CONTINUOUS
 62
     3
 10
113.2411661000000009
 20
59.3120709900000023
 30
0.0
 11
113.1791208799999993
 21
59.5769919900000033
 31
0.0
  0
LINE
  5
51
  8
レイヤー_1
  6
CONTINUOUS
 62
     3
 10
113.1791208799999993
 20
59.5769919900000033
 30
0.0
 11
113.0942481000000015
 21
59.8323141400000011
 31
0.0
  0
LINE
  5
52
  8
レイヤー_1
  6
CONTINUOUS
 62
     3
 10
113.0942481000000015
 20
59.8323141400000011
 30
0.0
 11
112.9876961800000004
 21
60.0768851899999987
 31
0.0
  0
LINE
  5
53
  8
レイヤー_1
  6
CONTINUOUS
 62
     3
 10
112.9876961800000004
 20
60.0768851899999987
 30
0.0
 11
112.8606134999999995
 21
60.3095528899999991
 31
0.0
  0
LINE
  5
54
  8
レイヤー_1
  6
CONTINUOUS
 62
     3
 10
112.8606134999999995
 20
60.3095528899999991
 30
0.0
 11
112.7141484499999962
 21
60.5291649600000028
 31
0.0
  0
LINE
  5
55
  8
レイヤー_1
  6
CONTINUOUS
 62
     3
 10
112.7141484499999962
 20
60.5291649600000028
 30
0.0
 11
112.5494494299999957
 21
60.734569190000002
 31
0.0
  0
LINE
  5
56
  8
レイヤー_1
  6
CONTINUOUS
 62
     3
 10
112.5494494299999957
 20
60.734569190000002
 30
0.0
 11
112.3676648299999954
 21
60.9246133099999909
 31
0.0
  0
LINE
  5
57
  8
レイヤー_1
  6
CONTINUOUS
 62
     3
 10
112.3676648299999954
 20
60.9246133099999909
 30
0.0
 11
112.1699430000000035
 21
61.0981450900000027
 31
0.0
  0
LINE
  5
58
  8
レイヤー_1
  6
CONTINUOUS
 62
     3
 10
112.1699430000000035
 20
61.0981450900000027
 30
0.0
 11
111.9574324000000018
 21
61.2540122400000016
 31
0.0
  0
LINE
  5
59
  8
レイヤー_1
  6
CONTINUOUS
 62
     3
 10
111.9574324000000018
 20
61.2540122400000016
 30
0.0
 11
111.7312814000000003
 21
61.3910625600000017
 31
0.0
  0
LINE
  5
5A
  8
レイヤー_1
  6
CONTINUOUS
 62
     3
 10
111.7312814000000003
 20
61.3910625600000017
 30
0.0
 11
111.4926383499999929
 21
61.5081437899999912
 31
0.0
  0
LINE
  5
5B
  8
レイヤー_1
  6
CONTINUOUS
 62
     3
 10
111.4926383499999929
 20
61.5081437899999912
 30
0.0
 11
111.2426516999999961
 21
61.6041036599999998
 31
0.0
  0
LINE
  5
5C
  8
レイヤー_1
  6
CONTINUOUS
 62
     3
 10
111.2426516999999961
 20
61.6041036599999998
 30
0.0
 11
110.9824698299999994
 21
61.6777899100000013
 31
0.0
  0
LINE
  5
5D
  8
レイヤー_1
  6
CONTINUOUS
 62
     3
 10
110.9824698299999994
 20
61.6777899100000013
 30
0.0
 11
110.7132411000000047
 21
61.7280503599999903
 31
0.0
  0
LINE
  5
5E
  8
レイヤー_1
  6
CONTINUOUS
 62
     3
 10
110.7132411000000047
 20
61.7280503599999903
 30
0.0
 11
110.4361139300000048
 21
61.7537326899999996
 31
0.0
  0
LINE
  5
5F
  8
レイヤー_1
  6
CONTINUOUS
 62
     3
 10
110.4361139300000048
 20
61.7537326899999996
 30
0.0
 11
110.1539917000000059
 21
61.7537326899999996
 31
0.0
  0
LINE
  5
60
  8
レイヤー_1
  6
CONTINUOUS
 62
     3
 10
110.1539917000000059
 20
61.7537326899999996
 30
0.0
 11
109.8772267500000055
 21
61.7280503599999903
 31
0.0
  0
LINE
  5
61
  8
レイヤー_1
  6
CONTINUOUS
 62
     3
 10
109.8772267500000055
 20
61.7280503599999903
 30
0.0
 11
109.6082860300000021
 21
61.6777899100000013
 31
0.0
  0
LINE
  5
62
  8
レイヤー_1
  6
CONTINUOUS
 62
     3
 10
109.6082860300000021
 20
61.6777899100000013
 30
0.0
 11
109.3483246299999934
 21
61.6041036599999998
 31
0.0
  0
LINE
  5
63
  8
レイヤー_1
  6
CONTINUOUS
 62
     3
 10
109.3483246299999934
 20
61.6041036599999998
 30
0.0
 11
109.0984976999999958
 21
61.5081437899999912
 31
0.0
  0
LINE
  5
64
  8
レイヤー_1
  6
CONTINUOUS
 62
     3
 10
109.0984976999999958
 20
61.5081437899999912
 30
0.0
 11
108.8599604000000056
 21
61.3910625600000017
 31
0.0
  0
LINE
  5
65
  8
レイヤー_1
  6
CONTINUOUS
 62
     3
 10
108.8599604000000056
 20
61.3910625600000017
 30
0.0
 11
108.6338678999999985
 21
61.2540122400000016
 31
0.0
  0
LINE
  5
66
  8
レイヤー_1
  6
CONTINUOUS
 62
     3
 10
108.6338678999999985
 20
61.2540122400000016
 30
0.0
 11
108.421375299999994
 21
61.0981450900000027
 31
0.0
  0
LINE
  5
67
  8
レイヤー_1
  6
CONTINUOUS
 62
     3
 10
108.421375299999994
 20
61.0981450900000027
 30
0.0
 11
108.223637729999993
 21
60.9246133099999909
 31
0.0
  0
LINE
  5
68
  8
レイヤー_1
  6
CONTINUOUS
 62
     3
 10
108.223637729999993
 20
60.9246133099999909
 30
0.0
 11
108.0418103800000011
 21
60.734569190000002
 31
0.0
  0
LINE
  5
69
  8
レイヤー_1
  6
CONTINUOUS
 62
     3
 10
108.0418103800000011
 20
60.734569190000002
 30
0.0
 11
107.8770483499999955
 21
60.5291649600000028
 31
0.0
  0
LINE
  5
6A
  8
レイヤー_1
  6
CONTINUOUS
 62
     3
 10
107.8770483499999955
 20
60.5291649600000028
 30
0.0
 11
107.7305068000000006
 21
60.3095528899999991
 31
0.0
  0
LINE
  5
6B
  8
レイヤー_1
  6
CONTINUOUS
 62
     3
 10
107.7305068000000006
 20
60.3095528899999991
 30
0.0
 11
107.6033408800000046
 21
60.0768851899999987
 31
0.0
  0
LINE
  5
6C
  8
レイヤー_1
  6
CONTINUOUS
 62
     3
 10
107.6033408800000046
 20
60.0768851899999987
 30
0.0
 11
107.4967057300000022
 21
59.8323141400000011
 31
0.0
  0
LINE
  5
6D
  8
レイヤー_1
  6
CONTINUOUS
 62
     3
 10
107.4967057300000022
 20
59.8323141400000011
 30
0.0
 11
107.4117564499999986
 21
59.5769919900000033
 31
0.0
  0
LINE
  5
6E
  8
レイヤー_1
  6
CONTINUOUS
 62
     3
 10
107.4117564499999986
 20
59.5769919900000033
 30
0.0
 11
107.3496482299999997
 21
59.3120709900000023
 31
0.0
  0
LINE
  5
6F
  8
レイヤー_1
  6
CONTINUOUS
 62
     3
 10
107.3496482299999997
 20
59.3120709900000023
 30
0.0
 11
107.3115362000000061
 21
59.0387033599999995
 31
0.0
  0
LINE
  5
70
  8
レイヤー_1
  6
CONTINUOUS
 62
     3
 10
107.3115362000000061
 20
59.0387033599999995
 30
0.0
 11
107.2985754799999967
 21
58.75804136
 31
0.0
  0
LINE
  5
71
  8
レイヤー_1
  6
CONTINUOUS
 62
     3
 10
105.8008202299999994
 20
55.0115000400000014
 30
0.0
 11
106.0465228300000007
 21
55.0214354599999993
 31
0.0
  0
LINE
  5
72
  8
レイヤー_1
  6
CONTINUOUS
 62
     3
 10
106.0465228300000007
 20
55.0214354599999993
 30
0.0
 11
106.2867638499999998
 21
55.0507276100000027
 31
0.0
  0
LINE
  5
73
  8
レイヤー_1
  6
CONTINUOUS
 62
     3
 10
106.2867638499999998
 20
55.0507276100000027
 30
0.0
 11
106.5207714299999964
 21
55.0986051900000007
 31
0.0
  0
LINE
  5
74
  8
レイヤー_1
  6
CONTINUOUS
 62
     3
 10
106.5207714299999964
 20
55.0986051900000007
 30
0.0
 11
106.7477736299999975
 21
55.1642969099999902
 31
0.0
  0
LINE
  5
75
  8
レイヤー_1
  6
CONTINUOUS
 62
     3
 10
106.7477736299999975
 20
55.1642969099999902
 30
0.0
 11
106.9669985000000025
 21
55.2470315099999993
 31
0.0
  0
LINE
  5
76
  8
レイヤー_1
  6
CONTINUOUS
 62
     3
 10
106.9669985000000025
 20
55.2470315099999993
 30
0.0
 11
107.1776741500000014
 21
55.3460377399999999
 31
0.0
  0
LINE
  5
77
  8
レイヤー_1
  6
CONTINUOUS
 62
     3
 10
107.1776741500000014
 20
55.3460377399999999
 30
0.0
 11
107.3790287000000063
 21
55.4605443100000031
 31
0.0
  0
LINE
  5
78
  8
レイヤー_1
  6
CONTINUOUS
 62
     3
 10
107.3790287000000063
 20
55.4605443100000031
 30
0.0
 11
107.5702901800000006
 21
55.5897799899999896
 31
0.0
  0
LINE
  5
79
  8
レイヤー_1
  6
CONTINUOUS
 62
     3
 10
107.5702901800000006
 20
55.5897799899999896
 30
0.0
 11
107.7506866800000012
 21
55.7329734400000021
 31
0.0
  0
LINE
  5
7A
  8
レイヤー_1
  6
CONTINUOUS
 62
     3
 10
107.7506866800000012
 20
55.7329734400000021
 30
0.0
 11
107.9194462800000025
 21
55.8893534099999982
 31
0.0
  0
LINE
  5
7B
  8
レイヤー_1
  6
CONTINUOUS
 62
     3
 10
107.9194462800000025
 20
55.8893534099999982
 30
0.0
 11
108.0757971000000026
 21
56.0581486600000005
 31
0.0
  0
LINE
  5
7C
  8
レイヤー_1
  6
CONTINUOUS
 62
     3
 10
108.0757971000000026
 20
56.0581486600000005
 30
0.0
 11
108.2189671999999945
 21
56.2385879099999926
 31
0.0
  0
LINE
  5
7D
  8
レイヤー_1
  6
CONTINUOUS
 62
     3
 10
108.2189671999999945
 20
56.2385879099999926
 30
0.0
 11
108.3481846499999932
 21
56.4298998900000015
 31
0.0
  0
LINE
  5
7E
  8
レイヤー_1
  6
CONTINUOUS
 62
     3
 10
108.3481846499999932
 20
56.4298998900000015
 30
0.0
 11
108.4626775499999951
 21
56.631313310000003
 31
0.0
  0
LINE
  5
7F
  8
レイヤー_1
  6
CONTINUOUS
 62
     3
 10
108.4626775499999951
 20
56.631313310000003
 30
0.0
 11
108.5616739799999948
 21
56.8420568900000021
 31
0.0
  0
LINE
  5
80
  8
レイヤー_1
  6
CONTINUOUS
 62
     3
 10
108.5616739799999948
 20
56.8420568900000021
 30
0.0
 11
108.6444020299999949
 21
57.0613594100000014
 31
0.0
  0
LINE
  5
81
  8
レイヤー_1
  6
CONTINUOUS
 62
     3
 10
108.6444020299999949
 20
57.0613594100000014
 30
0.0
 11
108.7100897800000041
 21
57.288449540000002
 31
0.0
  0
LINE
  5
82
  8
レイヤー_1
  6
CONTINUOUS
 62
     3
 10
108.7100897800000041
 20
57.288449540000002
 30
0.0
 11
108.7579652999999951
 21
57.5225560599999994
 31
0.0
  0
LINE
  5
83
  8
レイヤー_1
  6
CONTINUOUS
 62
     3
 10
108.7579652999999951
 20
57.5225560599999994
 30
0.0
 11
108.7872566799999987
 21
57.7629076600000033
 31
0.0
  0
LINE
  5
84
  8
レイヤー_1
  6
CONTINUOUS
 62
     3
 10
108.7872566799999987
 20
57.7629076600000033
 30
0.0
 11
108.797192030000005
 21
58.0087330899999927
 31
0.0
  0
LINE
  5
85
  8
レイヤー_1
  6
CONTINUOUS
 62
     3
 10
111.794425099999998
 20
58.75804136
 30
0.0
 11
111.7879484799999972
 21
58.8984379899999979
 31
0.0
  0
LINE
  5
86
  8
レイヤー_1
  6
CONTINUOUS
 62
     3
 10
111.7879484799999972
 20
58.8984379899999979
 30
0.0
 11
111.7689017299999961
 21
59.035171990000002
 31
0.0
  0
LINE
  5
87
  8
レイヤー_1
  6
CONTINUOUS
 62
     3
 10
111.7689017299999961
 20
59.035171990000002
 30
0.0
 11
111.737859549999996
 21
59.1676687400000034
 31
0.0
  0
LINE
  5
88
  8
レイヤー_1
  6
CONTINUOUS
 62
     3
 10
111.737859549999996
 20
59.1676687400000034
 30
0.0
 11
111.6953966300000047
 21
59.2953534899999966
 31
0.0
  0
LINE
  5
89
  8
レイヤー_1
  6
CONTINUOUS
 62
     3
 10
111.6953966300000047
 20
59.2953534899999966
 30
0.0
 11
111.6420875999999964
 21
59.4176516100000001
 31
0.0
  0
LINE
  5
8A
  8
レイヤー_1
  6
CONTINUOUS
 62
     3
 10
111.6420875999999964
 20
59.4176516100000001
 30
0.0
 11
111.578507149999993
 21
59.5339883899999975
 31
0.0
  0
LINE
  5
8B
  8
レイヤー_1
  6
CONTINUOUS
 62
     3
 10
111.578507149999993
 20
59.5339883899999975
 30
0.0
 11
111.5052299999999974
 21
59.6437891899999997
 31
0.0
  0
LINE
  5
8C
  8
レイヤー_1
  6
CONTINUOUS
 62
     3
 10
111.5052299999999974
 20
59.6437891899999997
 30
0.0
 11
111.4228307799999982
 21
59.7464793099999909
 31
0.0
  0
LINE
  5
8D
  8
レイヤー_1
  6
CONTINUOUS
 62
     3
 10
111.4228307799999982
 20
59.7464793099999909
 30
0.0
 11
111.3318842000000046
 21
59.8414840900000016
 31
0.0
  0
LINE
  5
8E
  8
レイヤー_1
  6
CONTINUOUS
 62
     3
 10
111.3318842000000046
 20
59.8414840900000016
 30
0.0
 11
111.2329649299999943
 21
59.9282288100000002
 31
0.0
  0
LINE
  5
8F
  8
レイヤー_1
  6
CONTINUOUS
 62
     3
 10
111.2329649299999943
 20
59.9282288100000002
 30
0.0
 11
111.1266476299999937
 21
60.0061388399999913
 31
0.0
  0
LINE
  5
90
  8
レイヤー_1
  6
CONTINUOUS
 62
     3
 10
111.1266476299999937
 20
60.0061388399999913
 30
0.0
 11
111.0135070000000042
 21
60.0746394600000002
 31
0.0
  0
LINE
  5
91
  8
レイヤー_1
  6
CONTINUOUS
 62
     3
 10
111.0135070000000042
 20
60.0746394600000002
 30
0.0
 11
110.8941176999999954
 21
60.1331560400000029
 31
0.0
  0
LINE
  5
92
  8
レイヤー_1
  6
CONTINUOUS
 62
     3
 10
110.8941176999999954
 20
60.1331560400000029
 30
0.0
 11
110.7690544299999971
 21
60.1811138600000106
 31
0.0
  0
LINE
  5
93
  8
レイヤー_1
  6
CONTINUOUS
 62
     3
 10
110.7690544299999971
 20
60.1811138600000106
 30
0.0
 11
110.6388918499999932
 21
60.2179382400000023
 31
0.0
  0
LINE
  5
94
  8
レイヤー_1
  6
CONTINUOUS
 62
     3
 10
110.6388918499999932
 20
60.2179382400000023
 30
0.0
 11
110.5042046500000055
 21
60.2430545400000028
 31
0.0
  0
LINE
  5
95
  8
レイヤー_1
  6
CONTINUOUS
 62
     3
 10
110.5042046500000055
 20
60.2430545400000028
 30
0.0
 11
110.3655674999999974
 21
60.2558880599999966
 31
0.0
  0
LINE
  5
96
  8
レイヤー_1
  6
CONTINUOUS
 62
     3
 10
110.3655674999999974
 20
60.2558880599999966
 30
0.0
 11
110.2244705300000049
 21
60.2558880599999966
 31
0.0
  0
LINE
  5
97
  8
レイヤー_1
  6
CONTINUOUS
 62
     3
 10
110.2244705300000049
 20
60.2558880599999966
 30
0.0
 11
110.0860959799999961
 21
60.2430545400000028
 31
0.0
  0
LINE
  5
98
  8
レイヤー_1
  6
CONTINUOUS
 62
     3
 10
110.0860959799999961
 20
60.2430545400000028
 30
0.0
 11
109.9516404999999963
 21
60.2179382400000023
 31
0.0
  0
LINE
  5
99
  8
レイヤー_1
  6
CONTINUOUS
 62
     3
 10
109.9516404999999963
 20
60.2179382400000023
 30
0.0
 11
109.8216807299999971
 21
60.1811138600000106
 31
0.0
  0
LINE
  5
9A
  8
レイヤー_1
  6
CONTINUOUS
 62
     3
 10
109.8216807299999971
 20
60.1811138600000106
 30
0.0
 11
109.6967932799999943
 21
60.1331560400000029
 31
0.0
  0
LINE
  5
9B
  8
レイヤー_1
  6
CONTINUOUS
 62
     3
 10
109.6967932799999943
 20
60.1331560400000029
 30
0.0
 11
109.5775547300000028
 21
60.0746394600000002
 31
0.0
  0
LINE
  5
9C
  8
レイヤー_1
  6
CONTINUOUS
 62
     3
 10
109.5775547300000028
 20
60.0746394600000002
 30
0.0
 11
109.4645416799999964
 21
60.0061388399999913
 31
0.0
  0
LINE
  5
9D
  8
レイヤー_1
  6
CONTINUOUS
 62
     3
 10
109.4645416799999964
 20
60.0061388399999913
 30
0.0
 11
109.3583307800000028
 21
59.9282288100000002
 31
0.0
  0
LINE
  5
9E
  8
レイヤー_1
  6
CONTINUOUS
 62
     3
 10
109.3583307800000028
 20
59.9282288100000002
 30
0.0
 11
109.2594986000000006
 21
59.8414840900000016
 31
0.0
  0
LINE
  5
9F
  8
レイヤー_1
  6
CONTINUOUS
 62
     3
 10
109.2594986000000006
 20
59.8414840900000016
 30
0.0
 11
109.1686217799999952
 21
59.7464793099999909
 31
0.0
  0
LINE
  5
A0
  8
レイヤー_1
  6
CONTINUOUS
 62
     3
 10
109.1686217799999952
 20
59.7464793099999909
 30
0.0
 11
109.0862768799999998
 21
59.6437891899999997
 31
0.0
  0
LINE
  5
A1
  8
レイヤー_1
  6
CONTINUOUS
 62
     3
 10
109.0862768799999998
 20
59.6437891899999997
 30
0.0
 11
109.0130405299999978
 21
59.5339883899999975
 31
0.0
  0
LINE
  5
A2
  8
レイヤー_1
  6
CONTINUOUS
 62
     3
 10
109.0130405299999978
 20
59.5339883899999975
 30
0.0
 11
108.9494893499999932
 21
59.4176516100000001
 31
0.0
  0
LINE
  5
A3
  8
レイヤー_1
  6
CONTINUOUS
 62
     3
 10
108.9494893499999932
 20
59.4176516100000001
 30
0.0
 11
108.8961999299999945
 21
59.2953534899999966
 31
0.0
  0
LINE
  5
A4
  8
レイヤー_1
  6
CONTINUOUS
 62
     3
 10
108.8961999299999945
 20
59.2953534899999966
 30
0.0
 11
108.8537488799999977
 21
59.1676687400000034
 31
0.0
  0
LINE
  5
A5
  8
レイヤー_1
  6
CONTINUOUS
 62
     3
 10
108.8537488799999977
 20
59.1676687400000034
 30
0.0
 11
108.822712800000005
 21
59.035171990000002
 31
0.0
  0
LINE
  5
A6
  8
レイヤー_1
  6
CONTINUOUS
 62
     3
 10
108.822712800000005
 20
59.035171990000002
 30
0.0
 11
108.8036683299999936
 21
58.8984379899999979
 31
0.0
  0
LINE
  5
A7
  8
レイヤー_1
  6
CONTINUOUS
 62
     3
 10
108.8036683299999936
 20
58.8984379899999979
 30
0.0
 11
108.797192030000005
 21
58.75804136
 31
0.0
  0
LINE
  5
A8
  8
レイヤー_1
  6
CONTINUOUS
 62
     3
 10
31.8699323800000016
 20
-64.9494001599999962
 30
0.0
 11
31.8699323800000016
 21
-58.9723762899999997
 31
0.0
  0
LINE
  5
A9
  8
レイヤー_1
  6
CONTINUOUS
 62
     3
 10
31.8699323800000016
 20
-58.9723762899999997
 30
0.0
 11
31.8699323800000016
 21
-52.1872740900000025
 31
0.0
  0
LINE
  5
AA
  8
レイヤー_1
  6
CONTINUOUS
 62
     3
 10
31.8699323800000016
 20
-52.1872740900000025
 30
0.0
 11
31.8699323800000016
 21
-43.4137357600000016
 31
0.0
  0
LINE
  5
AB
  8
レイヤー_1
  6
CONTINUOUS
 62
     3
 10
31.8699323800000016
 20
-43.4137357600000016
 30
0.0
 11
31.8699323800000016
 21
-33.0703794400000106
 31
0.0
  0
LINE
  5
AC
  8
レイヤー_1
  6
CONTINUOUS
 62
     3
 10
31.8699323800000016
 20
-33.0703794400000106
 30
0.0
 11
31.8699323800000016
 21
-21.5758232899999989
 31
0.0
  0
LINE
  5
AD
  8
レイヤー_1
  6
CONTINUOUS
 62
     3
 10
31.8699323800000016
 20
-21.5758232899999989
 30
0.0
 11
31.8699323800000016
 21
-9.3486853599999993
 31
0.0
  0
LINE
  5
AE
  8
レイヤー_1
  6
CONTINUOUS
 62
     3
 10
31.8699323800000016
 20
-9.3486853599999993
 30
0.0
 11
31.8699323800000016
 21
3.192416109999999
 31
0.0
  0
LINE
  5
AF
  8
レイヤー_1
  6
CONTINUOUS
 62
     3
 10
31.8699323800000016
 20
3.192416109999999
 30
0.0
 11
31.8699323800000016
 21
15.6288630899999994
 31
0.0
  0
LINE
  5
B0
  8
レイヤー_1
  6
CONTINUOUS
 62
     3
 10
31.8699323800000016
 20
15.6288630899999994
 30
0.0
 11
31.8699323800000016
 21
27.5420373900000008
 31
0.0
  0
LINE
  5
B1
  8
レイヤー_1
  6
CONTINUOUS
 62
     3
 10
31.8699323800000016
 20
27.5420373900000008
 30
0.0
 11
31.8699323800000016
 21
38.5133209099999974
 31
0.0
  0
LINE
  5
B2
  8
レイヤー_1
  6
CONTINUOUS
 62
     3
 10
31.8699323800000016
 20
38.5133209099999974
 30
0.0
 11
31.8699323800000016
 21
48.124095490000002
 31
0.0
  0
LINE
  5
B3
  8
レイヤー_1
  6
CONTINUOUS
 62
     3
 10
31.8699323800000016
 20
48.124095490000002
 30
0.0
 11
31.8699323800000016
 21
55.9557430099999991
 31
0.0
  0
LINE
  5
B4
  8
レイヤー_1
  6
CONTINUOUS
 62
     3
 10
31.8699323800000016
 20
55.9557430099999991
 30
0.0
 11
31.8699323800000016
 21
61.5896453599999987
 31
0.0
  0
LINE
  5
B5
  8
レイヤー_1
  6
CONTINUOUS
 62
     3
 10
31.8699323800000016
 20
61.5896453599999987
 30
0.0
 11
31.8699323800000016
 21
65.0505998400000038
 31
0.0
  0
LINE
  5
B6
  8
レイヤー_1
  6
CONTINUOUS
 62
     3
 10
98.2069685000000021
 20
65.0505998400000038
 30
0.0
 11
98.2069685000000021
 21
63.6709921100000003
 31
0.0
  0
LINE
  5
B7
  8
レイヤー_1
  6
CONTINUOUS
 62
     3
 10
98.2069685000000021
 20
63.6709921100000003
 30
0.0
 11
98.2069685000000021
 21
63.2948092900000034
 31
0.0
  0
LINE
  5
B8
  8
レイヤー_1
  6
CONTINUOUS
 62
     3
 10
98.2069685000000021
 20
63.2948092900000034
 30
0.0
 11
98.2069685000000021
 21
62.9089669600000008
 31
0.0
  0
LINE
  5
B9
  8
レイヤー_1
  6
CONTINUOUS
 62
     3
 10
98.2069685000000021
 20
62.9089669600000008
 30
0.0
 11
98.2069685000000021
 21
62.5263444899999996
 31
0.0
  0
LINE
  5
BA
  8
レイヤー_1
  6
CONTINUOUS
 62
     3
 10
98.2069685000000021
 20
62.5263444899999996
 30
0.0
 11
98.2069685000000021
 21
62.1598211100000029
 31
0.0
  0
LINE
  5
BB
  8
レイヤー_1
  6
CONTINUOUS
 62
     3
 10
98.2069685000000021
 20
62.1598211100000029
 30
0.0
 11
98.2069685000000021
 21
61.8222761899999895
 31
0.0
  0
LINE
  5
BC
  8
レイヤー_1
  6
CONTINUOUS
 62
     3
 10
98.2069685000000021
 20
61.8222761899999895
 30
0.0
 11
98.2069685000000021
 21
61.526588959999998
 31
0.0
  0
LINE
  5
BD
  8
レイヤー_1
  6
CONTINUOUS
 62
     3
 10
98.2069685000000021
 20
61.526588959999998
 30
0.0
 11
98.2069685000000021
 21
61.2856387400000102
 31
0.0
  0
LINE
  5
BE
  8
レイヤー_1
  6
CONTINUOUS
 62
     3
 10
98.2069685000000021
 20
61.2856387400000102
 30
0.0
 11
98.2069685000000021
 21
61.1123048600000018
 31
0.0
  0
LINE
  5
BF
  8
レイヤー_1
  6
CONTINUOUS
 62
     3
 10
98.2069685000000021
 20
61.1123048600000018
 30
0.0
 11
98.2069685000000021
 21
61.0194665900000004
 31
0.0
  0
LINE
  5
C0
  8
レイヤー_1
  6
CONTINUOUS
 62
     3
 10
98.2069685000000021
 20
61.0194665900000004
 30
0.0
 11
98.2237249000000077
 21
60.3650581899999992
 31
0.0
  0
LINE
  5
C1
  8
レイヤー_1
  6
CONTINUOUS
 62
     3
 10
98.2237249000000077
 20
60.3650581899999992
 30
0.0
 11
98.355269430000007
 21
59.10769801
 31
0.0
  0
LINE
  5
C2
  8
レイヤー_1
  6
CONTINUOUS
 62
     3
 10
98.355269430000007
 20
59.10769801
 30
0.0
 11
98.6119524000000069
 21
57.8919600099999982
 31
0.0
  0
LINE
  5
C3
  8
レイヤー_1
  6
CONTINUOUS
 62
     3
 10
98.6119524000000069
 20
57.8919600099999982
 30
0.0
 11
98.987089250000011
 21
56.7245273400000016
 31
0.0
  0
LINE
  5
C4
  8
レイヤー_1
  6
CONTINUOUS
 62
     3
 10
98.987089250000011
 20
56.7245273400000016
 30
0.0
 11
99.4739954000000068
 21
55.6120832100000015
 31
0.0
  0
LINE
  5
C5
  8
レイヤー_1
  6
CONTINUOUS
 62
     3
 10
99.4739954000000068
 20
55.6120832100000015
 30
0.0
 11
100.0659862800000042
 21
54.5613108100000019
 31
0.0
  0
LINE
  5
C6
  8
レイヤー_1
  6
CONTINUOUS
 62
     3
 10
100.0659862800000042
 20
54.5613108100000019
 30
0.0
 11
100.7563772999999969
 21
53.5788933400000005
 31
0.0
  0
LINE
  5
C7
  8
レイヤー_1
  6
CONTINUOUS
 62
     3
 10
100.7563772999999969
 20
53.5788933400000005
 30
0.0
 11
101.5384838800000011
 21
52.6715139900000011
 31
0.0
  0
LINE
  5
C8
  8
レイヤー_1
  6
CONTINUOUS
 62
     3
 10
101.5384838800000011
 20
52.6715139900000011
 30
0.0
 11
102.4056214299999965
 21
51.8458559399999999
 31
0.0
  0
LINE
  5
C9
  8
レイヤー_1
  6
CONTINUOUS
 62
     3
 10
102.4056214299999965
 20
51.8458559399999999
 30
0.0
 11
103.3511053999999945
 21
51.1086023900000015
 31
0.0
  0
LINE
  5
CA
  8
レイヤー_1
  6
CONTINUOUS
 62
     3
 10
103.3511053999999945
 20
51.1086023900000015
 30
0.0
 11
104.3682512000000031
 21
50.4664365100000012
 31
0.0
  0
LINE
  5
CB
  8
レイヤー_1
  6
CONTINUOUS
 62
     3
 10
104.3682512000000031
 20
50.4664365100000012
 30
0.0
 11
105.4503742499999959
 21
49.9260415399999999
 31
0.0
  0
LINE
  5
CC
  8
レイヤー_1
  6
CONTINUOUS
 62
     3
 10
105.4503742499999959
 20
49.9260415399999999
 30
0.0
 11
106.5907899500000013
 21
49.4941006099999967
 31
0.0
  0
LINE
  5
CD
  8
レイヤー_1
  6
CONTINUOUS
 62
     3
 10
106.5907899500000013
 20
49.4941006099999967
 30
0.0
 11
107.7828137500000025
 21
49.1772969599999996
 31
0.0
  0
LINE
  5
CE
  8
レイヤー_1
  6
CONTINUOUS
 62
     3
 10
107.7828137500000025
 20
49.1772969599999996
 30
0.0
 11
109.0197610499999996
 21
48.9823137599999967
 31
0.0
  0
LINE
  5
CF
  8
レイヤー_1
  6
CONTINUOUS
 62
     3
 10
109.0197610499999996
 20
48.9823137599999967
 30
0.0
 11
110.2949472800000024
 21
48.9158342099999928
 31
0.0
  0
LINE
  5
D0
  8
レイヤー_1
  6
CONTINUOUS
 62
     3
 10
110.2949472800000024
 20
48.9158342099999928
 30
0.0
 11
110.335549830000005
 21
48.9158342099999928
 31
0.0
  0
LINE
  5
D1
  8
レイヤー_1
  6
CONTINUOUS
 62
     3
 10
110.335549830000005
 20
48.9158342099999928
 30
0.0
 11
110.4500581000000068
 21
48.9158342099999928
 31
0.0
  0
LINE
  5
D2
  8
レイヤー_1
  6
CONTINUOUS
 62
     3
 10
110.4500581000000068
 20
48.9158342099999928
 30
0.0
 11
110.6275231300000002
 21
48.9158342099999928
 31
0.0
  0
LINE
  5
D3
  8
レイヤー_1
  6
CONTINUOUS
 62
     3
 10
110.6275231300000002
 20
48.9158342099999928
 30
0.0
 11
113.6926727000000028
 21
48.9158342099999928
 31
0.0
  0
LINE
  5
D4
  8
レイヤー_1
  6
CONTINUOUS
 62
     3
 10
113.6926727000000028
 20
48.9158342099999928
 30
0.0
 11
113.6926727000000028
 21
-62.4042443100000028
 31
0.0
  0
LINE
  5
D5
  8
レイヤー_1
  6
CONTINUOUS
 62
     3
 10
113.6926727000000028
 20
-59.7063038900000009
 30
0.0
 11
112.5614611299999979
 21
-59.725931260000003
 31
0.0
  0
LINE
  5
D6
  8
レイヤー_1
  6
CONTINUOUS
 62
     3
 10
112.5614611299999979
 20
-59.725931260000003
 30
0.0
 11
112.1529852799999958
 21
-59.733018610000002
 31
0.0
  0
LINE
  5
D7
  8
レイヤー_1
  6
CONTINUOUS
 62
     3
 10
112.1529852799999958
 20
-59.733018610000002
 30
0.0
 11
111.7184760800000021
 21
-59.7405576900000028
 31
0.0
  0
LINE
  5
D8
  8
レイヤー_1
  6
CONTINUOUS
 62
     3
 10
111.7184760800000021
 20
-59.7405576900000028
 30
0.0
 11
111.2728096999999963
 21
-59.7482903399999898
 31
0.0
  0
LINE
  5
D9
  8
レイヤー_1
  6
CONTINUOUS
 62
     3
 10
111.2728096999999963
 20
-59.7482903399999898
 30
0.0
 11
110.8308623799999992
 21
-59.7559584400000006
 31
0.0
  0
LINE
  5
DA
  8
レイヤー_1
  6
CONTINUOUS
 62
     3
 10
110.8308623799999992
 20
-59.7559584400000006
 30
0.0
 11
110.4075103299999938
 21
-59.7633039099999976
 31
0.0
  0
LINE
  5
DB
  8
レイヤー_1
  6
CONTINUOUS
 62
     3
 10
110.4075103299999938
 20
-59.7633039099999976
 30
0.0
 11
110.0176297299999959
 21
-59.770068639999991
 31
0.0
  0
LINE
  5
DC
  8
レイヤー_1
  6
CONTINUOUS
 62
     3
 10
110.0176297299999959
 20
-59.770068639999991
 30
0.0
 11
109.6760967999999963
 21
-59.7759944900000022
 31
0.0
  0
LINE
  5
DD
  8
レイヤー_1
  6
CONTINUOUS
 62
     3
 10
109.6760967999999963
 20
-59.7759944900000022
 30
0.0
 11
109.3977877800000016
 21
-59.7808233599999923
 31
0.0
  0
LINE
  5
DE
  8
レイヤー_1
  6
CONTINUOUS
 62
     3
 10
109.3977877800000016
 20
-59.7808233599999923
 30
0.0
 11
109.1975788299999977
 21
-59.7842971399999996
 31
0.0
  0
LINE
  5
DF
  8
レイヤー_1
  6
CONTINUOUS
 62
     3
 10
109.1975788299999977
 20
-59.7842971399999996
 30
0.0
 11
109.090346150000002
 21
-59.7861576900000102
 31
0.0
  0
LINE
  5
E0
  8
レイヤー_1
  6
CONTINUOUS
 62
     3
 10
109.090346150000002
 20
-59.7861576900000102
 30
0.0
 11
109.0134019999999992
 21
-59.7891408600000034
 31
0.0
  0
LINE
  5
E1
  8
レイヤー_1
  6
CONTINUOUS
 62
     3
 10
109.0134019999999992
 20
-59.7891408600000034
 30
0.0
 11
108.8904695300000043
 21
-59.8040568400000012
 31
0.0
  0
LINE
  5
E2
  8
レイヤー_1
  6
CONTINUOUS
 62
     3
 10
108.8904695300000043
 20
-59.8040568400000012
 30
0.0
 11
108.7717362500000036
 21
-59.8310233400000016
 31
0.0
  0
LINE
  5
E3
  8
レイヤー_1
  6
CONTINUOUS
 62
     3
 10
108.7717362500000036
 20
-59.8310233400000016
 30
0.0
 11
108.6578363800000062
 21
-59.8693984900000018
 31
0.0
  0
LINE
  5
E4
  8
レイヤー_1
  6
CONTINUOUS
 62
     3
 10
108.6578363800000062
 20
-59.8693984900000018
 30
0.0
 11
108.5494040300000052
 21
-59.9185405099999997
 31
0.0
  0
LINE
  5
E5
  8
レイヤー_1
  6
CONTINUOUS
 62
     3
 10
108.5494040300000052
 20
-59.9185405099999997
 30
0.0
 11
108.4470734500000049
 21
-59.9778075600000022
 31
0.0
  0
LINE
  5
E6
  8
レイヤー_1
  6
CONTINUOUS
 62
     3
 10
108.4470734500000049
 20
-59.9778075600000022
 30
0.0
 11
108.3514787799999937
 21
-60.0465578600000001
 31
0.0
  0
LINE
  5
E7
  8
レイヤー_1
  6
CONTINUOUS
 62
     3
 10
108.3514787799999937
 20
-60.0465578600000001
 30
0.0
 11
108.2632542300000011
 21
-60.1241495900000018
 31
0.0
  0
LINE
  5
E8
  8
レイヤー_1
  6
CONTINUOUS
 62
     3
 10
108.2632542300000011
 20
-60.1241495900000018
 30
0.0
 11
108.1830339499999951
 21
-60.2099409400000027
 31
0.0
  0
LINE
  5
E9
  8
レイヤー_1
  6
CONTINUOUS
 62
     3
 10
108.1830339499999951
 20
-60.2099409400000027
 30
0.0
 11
108.1114521500000052
 21
-60.3032900600000019
 31
0.0
  0
LINE
  5
EA
  8
レイヤー_1
  6
CONTINUOUS
 62
     3
 10
108.1114521500000052
 20
-60.3032900600000019
 30
0.0
 11
108.0491430000000008
 21
-60.4035551600000034
 31
0.0
  0
LINE
  5
EB
  8
レイヤー_1
  6
CONTINUOUS
 62
     3
 10
108.0491430000000008
 20
-60.4035551600000034
 30
0.0
 11
107.9967407000000037
 21
-60.5100944100000007
 31
0.0
  0
LINE
  5
EC
  8
レイヤー_1
  6
CONTINUOUS
 62
     3
 10
107.9967407000000037
 20
-60.5100944100000007
 30
0.0
 11
107.9548793799999942
 21
-60.6222660399999995
 31
0.0
  0
LINE
  5
ED
  8
レイヤー_1
  6
CONTINUOUS
 62
     3
 10
107.9548793799999942
 20
-60.6222660399999995
 30
0.0
 11
107.9241932799999972
 21
-60.7394282099999998
 31
0.0
  0
LINE
  5
EE
  8
レイヤー_1
  6
CONTINUOUS
 62
     3
 10
107.9241932799999972
 20
-60.7394282099999998
 30
0.0
 11
107.9053165499999949
 21
-60.8609390900000022
 31
0.0
  0
LINE
  5
EF
  8
レイヤー_1
  6
CONTINUOUS
 62
     3
 10
107.9053165499999949
 20
-60.8609390900000022
 30
0.0
 11
107.8988833800000009
 21
-60.9861568600000012
 31
0.0
  0
LINE
  5
F0
  8
レイヤー_1
  6
CONTINUOUS
 62
     3
 10
107.8988833800000009
 20
-60.9861568600000012
 30
0.0
 11
107.8988833800000009
 21
-61.0329604399999965
 31
0.0
  0
LINE
  5
F1
  8
レイヤー_1
  6
CONTINUOUS
 62
     3
 10
107.8988833800000009
 20
-61.0329604399999965
 30
0.0
 11
107.8988833800000009
 21
-61.1649569900000003
 31
0.0
  0
LINE
  5
F2
  8
レイヤー_1
  6
CONTINUOUS
 62
     3
 10
107.8988833800000009
 20
-61.1649569900000003
 30
0.0
 11
107.8988833800000009
 21
-61.3695253599999901
 31
0.0
  0
LINE
  5
F3
  8
レイヤー_1
  6
CONTINUOUS
 62
     3
 10
107.8988833800000009
 20
-61.3695253599999901
 30
0.0
 11
107.8988833800000009
 21
-61.6340443599999972
 31
0.0
  0
LINE
  5
F4
  8
レイヤー_1
  6
CONTINUOUS
 62
     3
 10
107.8988833800000009
 20
-61.6340443599999972
 30
0.0
 11
107.8988833800000009
 21
-61.9458928099999895
 31
0.0
  0
LINE
  5
F5
  8
レイヤー_1
  6
CONTINUOUS
 62
     3
 10
107.8988833800000009
 20
-61.9458928099999895
 30
0.0
 11
107.8988833800000009
 21
-62.2924495099999973
 31
0.0
  0
LINE
  5
F6
  8
レイヤー_1
  6
CONTINUOUS
 62
     3
 10
107.8988833800000009
 20
-62.2924495099999973
 30
0.0
 11
107.8988833800000009
 21
-62.6610932899999895
 31
0.0
  0
LINE
  5
F7
  8
レイヤー_1
  6
CONTINUOUS
 62
     3
 10
107.8988833800000009
 20
-62.6610932899999895
 30
0.0
 11
107.8988833800000009
 21
-63.0392029599999972
 31
0.0
  0
LINE
  5
F8
  8
レイヤー_1
  6
CONTINUOUS
 62
     3
 10
107.8988833800000009
 20
-63.0392029599999972
 30
0.0
 11
107.8988833800000009
 21
-63.4141573400000027
 31
0.0
  0
LINE
  5
F9
  8
レイヤー_1
  6
CONTINUOUS
 62
     3
 10
107.8988833800000009
 20
-63.4141573400000027
 30
0.0
 11
107.8988833800000009
 21
-63.7733352099999991
 31
0.0
  0
LINE
  5
FA
  8
レイヤー_1
  6
CONTINUOUS
 62
     3
 10
107.8988833800000009
 20
-63.7733352099999991
 30
0.0
 11
107.8988833800000009
 21
-64.9494001599999962
 31
0.0
  0
LINE
  5
FB
  8
レイヤー_1
  6
CONTINUOUS
 62
     3
 10
30.8234846299999994
 20
-64.9494001599999962
 30
0.0
 11
30.8234846299999994
 21
-59.0126816100000013
 31
0.0
  0
LINE
  5
FC
  8
レイヤー_1
  6
CONTINUOUS
 62
     3
 10
30.8234846299999994
 20
-59.0126816100000013
 30
0.0
 11
30.8234846299999994
 21
-52.2712572599999987
 31
0.0
  0
LINE
  5
FD
  8
レイヤー_1
  6
CONTINUOUS
 62
     3
 10
30.8234846299999994
 20
-52.2712572599999987
 30
0.0
 11
30.8234846299999994
 21
-43.5511213400000017
 31
0.0
  0
LINE
  5
FE
  8
レイヤー_1
  6
CONTINUOUS
 62
     3
 10
30.8234846299999994
 20
-43.5511213400000017
 30
0.0
 11
30.8234846299999994
 21
-33.2664227599999975
 31
0.0
  0
LINE
  5
FF
  8
レイヤー_1
  6
CONTINUOUS
 62
     3
 10
30.8234846299999994
 20
-33.2664227599999975
 30
0.0
 11
30.8234846299999994
 21
-21.831310460000001
 31
0.0
  0
LINE
  5
100
  8
レイヤー_1
  6
CONTINUOUS
 62
     3
 10
30.8234846299999994
 20
-21.831310460000001
 30
0.0
 11
30.8234846299999994
 21
-9.6599334100000007
 31
0.0
  0
LINE
  5
101
  8
レイヤー_1
  6
CONTINUOUS
 62
     3
 10
30.8234846299999994
 20
-9.6599334100000007
 30
0.0
 11
30.8234846299999994
 21
2.833559489999999
 31
0.0
  0
LINE
  5
102
  8
レイヤー_1
  6
CONTINUOUS
 62
     3
 10
30.8234846299999994
 20
2.833559489999999
 30
0.0
 11
30.8234846299999994
 21
15.2350192900000003
 31
0.0
  0
LINE
  5
103
  8
レイヤー_1
  6
CONTINUOUS
 62
     3
 10
30.8234846299999994
 20
15.2350192900000003
 30
0.0
 11
30.8234846299999994
 21
27.1302970600000002
 31
0.0
  0
LINE
  5
104
  8
レイヤー_1
  6
CONTINUOUS
 62
     3
 10
30.8234846299999994
 20
27.1302970600000002
 30
0.0
 11
30.8234846299999994
 21
38.1052438600000016
 31
0.0
  0
LINE
  5
105
  8
レイヤー_1
  6
CONTINUOUS
 62
     3
 10
30.8234846299999994
 20
38.1052438600000016
 30
0.0
 11
30.8234846299999994
 21
47.7457107599999873
 31
0.0
  0
LINE
  5
106
  8
レイヤー_1
  6
CONTINUOUS
 62
     3
 10
30.8234846299999994
 20
47.7457107599999873
 30
0.0
 11
30.8234846299999994
 21
55.6375488099999984
 31
0.0
  0
LINE
  5
107
  8
レイヤー_1
  6
CONTINUOUS
 62
     3
 10
30.8234846299999994
 20
55.6375488099999984
 30
0.0
 11
30.8234846299999994
 21
61.3666091099999917
 31
0.0
  0
LINE
  5
108
  8
レイヤー_1
  6
CONTINUOUS
 62
     3
 10
30.8234846299999994
 20
61.3666091099999917
 30
0.0
 11
30.8234846299999994
 21
65.0505998400000038
 31
0.0
  0
LINE
  5
109
  8
レイヤー_1
  6
CONTINUOUS
 62
     3
 10
4.6926727000000001
 20
56.6605295199999972
 30
0.0
 11
6.3453354300000004
 21
56.6028303100000016
 31
0.0
  0
LINE
  5
10A
  8
レイヤー_1
  6
CONTINUOUS
 62
     3
 10
6.3453354300000004
 20
56.6028303100000016
 30
0.0
 11
7.3560719800000003
 21
56.5675425599999997
 31
0.0
  0
LINE
  5
10B
  8
レイヤー_1
  6
CONTINUOUS
 62
     3
 10
7.3560719800000003
 20
56.5675425599999997
 30
0.0
 11
8.6310393000000012
 21
56.52302976
 31
0.0
  0
LINE
  5
10C
  8
レイヤー_1
  6
CONTINUOUS
 62
     3
 10
8.6310393000000012
 20
56.52302976
 30
0.0
 11
10.1122355499999994
 21
56.4713169099999988
 31
0.0
  0
LINE
  5
10D
  8
レイヤー_1
  6
CONTINUOUS
 62
     3
 10
10.1122355499999994
 20
56.4713169099999988
 30
0.0
 11
11.7416588500000003
 21
56.4144290400000017
 31
0.0
  0
LINE
  5
10E
  8
レイヤー_1
  6
CONTINUOUS
 62
     3
 10
11.7416588500000003
 20
56.4144290400000017
 30
0.0
 11
13.4613072799999998
 21
56.3543911399999971
 31
0.0
  0
LINE
  5
10F
  8
レイヤー_1
  6
CONTINUOUS
 62
     3
 10
13.4613072799999998
 20
56.3543911399999971
 30
0.0
 11
15.2131790000000002
 21
56.2932282100000023
 31
0.0
  0
LINE
  5
110
  8
レイヤー_1
  6
CONTINUOUS
 62
     3
 10
15.2131790000000002
 20
56.2932282100000023
 30
0.0
 11
16.9392720799999985
 21
56.2329653099999973
 31
0.0
  0
LINE
  5
111
  8
レイヤー_1
  6
CONTINUOUS
 62
     3
 10
16.9392720799999985
 20
56.2329653099999973
 30
0.0
 11
18.5815846799999989
 21
56.175627409999997
 31
0.0
  0
LINE
  5
112
  8
レイヤー_1
  6
CONTINUOUS
 62
     3
 10
18.5815846799999989
 20
56.175627409999997
 30
0.0
 11
20.0821149000000005
 21
56.1232395600000018
 31
0.0
  0
LINE
  5
113
  8
レイヤー_1
  6
CONTINUOUS
 62
     3
 10
20.0821149000000005
 20
56.1232395600000018
 30
0.0
 11
21.3828608500000001
 21
56.0778267600000007
 31
0.0
  0
LINE
  5
114
  8
レイヤー_1
  6
CONTINUOUS
 62
     3
 10
21.3828608500000001
 20
56.0778267600000007
 30
0.0
 11
22.4258206499999986
 21
56.0414140099999898
 31
0.0
  0
LINE
  5
115
  8
レイヤー_1
  6
CONTINUOUS
 62
     3
 10
22.4258206499999986
 20
56.0414140099999898
 30
0.0
 11
23.1529923999999987
 21
56.0160263400000034
 31
0.0
  0
LINE
  5
116
  8
レイヤー_1
  6
CONTINUOUS
 62
     3
 10
23.1529923999999987
 20
56.0160263400000034
 30
0.0
 11
23.5063742500000004
 21
56.0036887600000028
 31
0.0
  0
LINE
  5
117
  8
レイヤー_1
  6
CONTINUOUS
 62
     3
 10
23.5063742500000004
 20
56.0036887600000028
 30
0.0
 11
23.5310787499999989
 21
55.3663442599999911
 31
0.0
  0
LINE
  5
118
  8
レイヤー_1
  6
CONTINUOUS
 62
     3
 10
23.5310787499999989
 20
55.3663442599999911
 30
0.0
 11
23.5310787499999989
 21
52.2003143100000031
 31
0.0
  0
LINE
  5
119
  8
レイヤー_1
  6
CONTINUOUS
 62
     3
 10
23.5310787499999989
 20
52.2003143100000031
 30
0.0
 11
23.5310787499999989
 21
46.7176770900000022
 31
0.0
  0
LINE
  5
11A
  8
レイヤー_1
  6
CONTINUOUS
 62
     3
 10
23.5310787499999989
 20
46.7176770900000022
 30
0.0
 11
23.5310787499999989
 21
39.2975137899999964
 31
0.0
  0
LINE
  5
11B
  8
レイヤー_1
  6
CONTINUOUS
 62
     3
 10
23.5310787499999989
 20
39.2975137899999964
 30
0.0
 11
23.5310787499999989
 21
30.3189056100000016
 31
0.0
  0
LINE
  5
11C
  8
レイヤー_1
  6
CONTINUOUS
 62
     3
 10
23.5310787499999989
 20
30.3189056100000016
 30
0.0
 11
23.5310787499999989
 21
20.1609337099999983
 31
0.0
  0
LINE
  5
11D
  8
レイヤー_1
  6
CONTINUOUS
 62
     3
 10
23.5310787499999989
 20
20.1609337099999983
 30
0.0
 11
23.5310787499999989
 21
9.2026793100000006
 31
0.0
  0
LINE
  5
11E
  8
レイヤー_1
  6
CONTINUOUS
 62
     3
 10
23.5310787499999989
 20
9.2026793100000006
 30
0.0
 11
23.5310787499999989
 21
-2.1767764399999989
 31
0.0
  0
LINE
  5
11F
  8
レイヤー_1
  6
CONTINUOUS
 62
     3
 10
23.5310787499999989
 20
-2.1767764399999989
 30
0.0
 11
23.5310787499999989
 21
-13.5983522899999993
 31
0.0
  0
LINE
  5
120
  8
レイヤー_1
  6
CONTINUOUS
 62
     3
 10
23.5310787499999989
 20
-13.5983522899999993
 30
0.0
 11
23.5310787499999989
 21
-24.6829671099999999
 31
0.0
  0
LINE
  5
121
  8
レイヤー_1
  6
CONTINUOUS
 62
     3
 10
23.5310787499999989
 20
-24.6829671099999999
 30
0.0
 11
23.5310787499999989
 21
-35.0515396600000031
 31
0.0
  0
LINE
  5
122
  8
レイヤー_1
  6
CONTINUOUS
 62
     3
 10
23.5310787499999989
 20
-35.0515396600000031
 30
0.0
 11
23.5310787499999989
 21
-44.3249887899999919
 31
0.0
  0
LINE
  5
123
  8
レイヤー_1
  6
CONTINUOUS
 62
     3
 10
23.5310787499999989
 20
-44.3249887899999919
 30
0.0
 11
23.5310787499999989
 21
-52.1242332599999898
 31
0.0
  0
LINE
  5
124
  8
レイヤー_1
  6
CONTINUOUS
 62
     3
 10
23.5310787499999989
 20
-52.1242332599999898
 30
0.0
 11
23.5310787499999989
 21
-58.0701919400000008
 31
0.0
  0
LINE
  5
125
  8
レイヤー_1
  6
CONTINUOUS
 62
     3
 10
23.5310787499999989
 20
-58.0701919400000008
 30
0.0
 11
23.5310787499999989
 21
-63.4494001600000033
 31
0.0
  0
LINE
  5
126
  8
レイヤー_1
  6
CONTINUOUS
 62
     3
 10
-62.8405263499999975
 20
56.1010114600000023
 30
0.0
 11
-63.1769318999999925
 21
56.1010114600000023
 31
0.0
  0
LINE
  5
127
  8
レイヤー_1
  6
CONTINUOUS
 62
     3
 10
-63.1769318999999925
 20
56.1010114600000023
 30
0.0
 11
-63.8104672500000021
 21
56.1010114600000023
 31
0.0
  0
LINE
  5
128
  8
レイヤー_1
  6
CONTINUOUS
 62
     3
 10
-63.8104672500000021
 20
56.1010114600000023
 30
0.0
 11
-64.7001489499999991
 21
56.1010114600000023
 31
0.0
  0
LINE
  5
129
  8
レイヤー_1
  6
CONTINUOUS
 62
     3
 10
-64.7001489499999991
 20
56.1010114600000023
 30
0.0
 11
-65.8049936000000031
 21
56.1010114600000023
 31
0.0
  0
LINE
  5
12A
  8
レイヤー_1
  6
CONTINUOUS
 62
     3
 10
-65.8049936000000031
 20
56.1010114600000023
 30
0.0
 11
-67.0840177700000027
 21
56.1010114600000023
 31
0.0
  0
LINE
  5
12B
  8
レイヤー_1
  6
CONTINUOUS
 62
     3
 10
-67.0840177700000027
 20
56.1010114600000023
 30
0.0
 11
-68.496238070000004
 21
56.1010114600000023
 31
0.0
  0
LINE
  5
12C
  8
レイヤー_1
  6
CONTINUOUS
 62
     3
 10
-68.496238070000004
 20
56.1010114600000023
 30
0.0
 11
-70.000671049999994
 21
56.1010114600000023
 31
0.0
  0
LINE
  5
12D
  8
レイヤー_1
  6
CONTINUOUS
 62
     3
 10
-70.000671049999994
 20
56.1010114600000023
 30
0.0
 11
-71.5563332999999915
 21
56.1010114600000023
 31
0.0
  0
LINE
  5
12E
  8
レイヤー_1
  6
CONTINUOUS
 62
     3
 10
-71.5563332999999915
 20
56.1010114600000023
 30
0.0
 11
-73.1222414199999946
 21
56.1010114600000023
 31
0.0
  0
LINE
  5
12F
  8
レイヤー_1
  6
CONTINUOUS
 62
     3
 10
-73.1222414199999946
 20
56.1010114600000023
 30
0.0
 11
-74.6574119699999841
 21
56.1010114600000023
 31
0.0
  0
LINE
  5
130
  8
レイヤー_1
  6
CONTINUOUS
 62
     3
 10
-74.6574119699999841
 20
56.1010114600000023
 30
0.0
 11
-76.1208615200000054
 21
56.1010114600000023
 31
0.0
  0
LINE
  5
131
  8
レイヤー_1
  6
CONTINUOUS
 62
     3
 10
-76.1208615200000054
 20
56.1010114600000023
 30
0.0
 11
-77.4716067000000095
 21
56.1010114600000023
 31
0.0
  0
LINE
  5
132
  8
レイヤー_1
  6
CONTINUOUS
 62
     3
 10
-77.4716067000000095
 20
56.1010114600000023
 30
0.0
 11
-78.6686640500000038
 21
56.1010114600000023
 31
0.0
  0
LINE
  5
133
  8
レイヤー_1
  6
CONTINUOUS
 62
     3
 10
-78.6686640500000038
 20
56.1010114600000023
 30
0.0
 11
-79.6710501499999992
 21
56.1010114600000023
 31
0.0
  0
LINE
  5
134
  8
レイヤー_1
  6
CONTINUOUS
 62
     3
 10
-79.6710501499999992
 20
56.1010114600000023
 30
0.0
 11
-80.4377815999999939
 21
56.1010114600000023
 31
0.0
  0
LINE
  5
135
  8
レイヤー_1
  6
CONTINUOUS
 62
     3
 10
-80.4377815999999939
 20
56.1010114600000023
 30
0.0
 11
-80.9278749700000049
 21
56.1010114600000023
 31
0.0
  0
LINE
  5
136
  8
レイヤー_1
  6
CONTINUOUS
 62
     3
 10
-80.9278749700000049
 20
56.1010114600000023
 30
0.0
 11
-81.100346849999994
 21
56.1010114600000023
 31
0.0
  0
LINE
  5
137
  8
レイヤー_1
  6
CONTINUOUS
 62
     3
 10
-62.8178494499999971
 20
56.7465362399999975
 30
0.0
 11
-63.1234599200000019
 21
56.7465362399999975
 31
0.0
  0
LINE
  5
138
  8
レイヤー_1
  6
CONTINUOUS
 62
     3
 10
-63.1234599200000019
 20
56.7465362399999975
 30
0.0
 11
-63.7554002700000026
 21
56.7465362399999975
 31
0.0
  0
LINE
  5
139
  8
レイヤー_1
  6
CONTINUOUS
 62
     3
 10
-63.7554002700000026
 20
56.7465362399999975
 30
0.0
 11
-64.6670519200000058
 21
56.7465362399999975
 31
0.0
  0
LINE
  5
13A
  8
レイヤー_1
  6
CONTINUOUS
 62
     3
 10
-64.6670519200000058
 20
56.7465362399999975
 30
0.0
 11
-65.8117962999999975
 21
56.7465362399999975
 31
0.0
  0
LINE
  5
13B
  8
レイヤー_1
  6
CONTINUOUS
 62
     3
 10
-65.8117962999999975
 20
56.7465362399999975
 30
0.0
 11
-67.1430149000000114
 21
56.7465362399999975
 31
0.0
  0
LINE
  5
13C
  8
レイヤー_1
  6
CONTINUOUS
 62
     3
 10
-67.1430149000000114
 20
56.7465362399999975
 30
0.0
 11
-68.6140891200000027
 21
56.7465362399999975
 31
0.0
  0
LINE
  5
13D
  8
レイヤー_1
  6
CONTINUOUS
 62
     3
 10
-68.6140891200000027
 20
56.7465362399999975
 30
0.0
 11
-70.1784004699999855
 21
56.7465362399999975
 31
0.0
  0
LINE
  5
13E
  8
レイヤー_1
  6
CONTINUOUS
 62
     3
 10
-70.1784004699999855
 20
56.7465362399999975
 30
0.0
 11
-71.7893303500000002
 21
56.7465362399999975
 31
0.0
  0
LINE
  5
13F
  8
レイヤー_1
  6
CONTINUOUS
 62
     3
 10
-71.7893303500000002
 20
56.7465362399999975
 30
0.0
 11
-73.4002602500000023
 21
56.7465362399999975
 31
0.0
  0
LINE
  5
140
  8
レイヤー_1
  6
CONTINUOUS
 62
     3
 10
-73.4002602500000023
 20
56.7465362399999975
 30
0.0
 11
-74.9645715999999851
 21
56.7465362399999975
 31
0.0
  0
LINE
  5
141
  8
レイヤー_1
  6
CONTINUOUS
 62
     3
 10
-74.9645715999999851
 20
56.7465362399999975
 30
0.0
 11
-76.4356458200000048
 21
56.7465362399999975
 31
0.0
  0
LINE
  5
142
  8
レイヤー_1
  6
CONTINUOUS
 62
     3
 10
-76.4356458200000048
 20
56.7465362399999975
 30
0.0
 11
-77.7668644000000029
 21
56.7465362399999975
 31
0.0
  0
LINE
  5
143
  8
レイヤー_1
  6
CONTINUOUS
 62
     3
 10
-77.7668644000000029
 20
56.7465362399999975
 30
0.0
 11
-78.9116087999999962
 21
56.7465362399999975
 31
0.0
  0
LINE
  5
144
  8
レイヤー_1
  6
CONTINUOUS
 62
     3
 10
-78.9116087999999962
 20
56.7465362399999975
 30
0.0
 11
-79.8232604500000065
 21
56.7465362399999975
 31
0.0
  0
LINE
  5
145
  8
レイヤー_1
  6
CONTINUOUS
 62
     3
 10
-79.8232604500000065
 20
56.7465362399999975
 30
0.0
 11
-80.4552007700000047
 21
56.7465362399999975
 31
0.0
  0
LINE
  5
146
  8
レイヤー_1
  6
CONTINUOUS
 62
     3
 10
-80.4552007700000047
 20
56.7465362399999975
 30
0.0
 11
-80.7608112700000049
 21
56.7465362399999975
 31
0.0
  0
LINE
  5
147
  8
レイヤー_1
  6
CONTINUOUS
 62
     3
 10
-80.7608112700000049
 20
56.7465362399999975
 30
0.0
 11
-80.8018421000000018
 21
56.7471725099999986
 31
0.0
  0
LINE
  5
148
  8
レイヤー_1
  6
CONTINUOUS
 62
     3
 10
-80.8018421000000018
 20
56.7471725099999986
 30
0.0
 11
-80.8307866499999932
 21
56.7504511599999901
 31
0.0
  0
LINE
  5
149
  8
レイヤー_1
  6
CONTINUOUS
 62
     3
 10
-80.8307866499999932
 20
56.7504511599999901
 30
0.0
 11
-80.8588224199999956
 21
56.756400339999999
 31
0.0
  0
LINE
  5
14A
  8
レイヤー_1
  6
CONTINUOUS
 62
     3
 10
-80.8588224199999956
 20
56.756400339999999
 30
0.0
 11
-80.8858171699999957
 21
56.7648866899999973
 31
0.0
  0
LINE
  5
14B
  8
レイヤー_1
  6
CONTINUOUS
 62
     3
 10
-80.8858171699999957
 20
56.7648866899999973
 30
0.0
 11
-80.9116385500000064
 21
56.7757767900000019
 31
0.0
  0
LINE
  5
14C
  8
レイヤー_1
  6
CONTINUOUS
 62
     3
 10
-80.9116385500000064
 20
56.7757767900000019
 30
0.0
 11
-80.936154369999997
 21
56.7889372400000028
 31
0.0
  0
LINE
  5
14D
  8
レイヤー_1
  6
CONTINUOUS
 62
     3
 10
-80.936154369999997
 20
56.7889372400000028
 30
0.0
 11
-80.9592322999999965
 21
56.80423471000001
 31
0.0
  0
LINE
  5
14E
  8
レイヤー_1
  6
CONTINUOUS
 62
     3
 10
-80.9592322999999965
 20
56.80423471000001
 30
0.0
 11
-80.9807400999999913
 21
56.8215357600000104
 31
0.0
  0
LINE
  5
14F
  8
レイヤー_1
  6
CONTINUOUS
 62
     3
 10
-80.9807400999999913
 20
56.8215357600000104
 30
0.0
 11
-81.0005455000000154
 21
56.8407070100000027
 31
0.0
  0
LINE
  5
150
  8
レイヤー_1
  6
CONTINUOUS
 62
     3
 10
-81.0005455000000154
 20
56.8407070100000027
 30
0.0
 11
-81.0185162199999951
 21
56.8616151100000025
 31
0.0
  0
LINE
  5
151
  8
レイヤー_1
  6
CONTINUOUS
 62
     3
 10
-81.0185162199999951
 20
56.8616151100000025
 30
0.0
 11
-81.0345200000000006
 21
56.8841266399999981
 31
0.0
  0
LINE
  5
152
  8
レイヤー_1
  6
CONTINUOUS
 62
     3
 10
-81.0345200000000006
 20
56.8841266399999981
 30
0.0
 11
-81.0484245199999833
 21
56.9081082100000017
 31
0.0
  0
LINE
  5
153
  8
レイヤー_1
  6
CONTINUOUS
 62
     3
 10
-81.0484245199999833
 20
56.9081082100000017
 30
0.0
 11
-81.0600975999999918
 21
56.9334264399999981
 31
0.0
  0
LINE
  5
154
  8
レイヤー_1
  6
CONTINUOUS
 62
     3
 10
-81.0600975999999918
 20
56.9334264399999981
 30
0.0
 11
-81.0694068699999946
 21
56.9599479600000009
 31
0.0
  0
LINE
  5
155
  8
レイヤー_1
  6
CONTINUOUS
 62
     3
 10
-81.0694068699999946
 20
56.9599479600000009
 30
0.0
 11
-81.0762201499999975
 21
56.9875393599999995
 31
0.0
  0
LINE
  5
156
  8
レイヤー_1
  6
CONTINUOUS
 62
     3
 10
-81.0762201499999975
 20
56.9875393599999995
 30
0.0
 11
-81.080405099999993
 21
57.0160672599999998
 31
0.0
  0
LINE
  5
157
  8
レイヤー_1
  6
CONTINUOUS
 62
     3
 10
-81.080405099999993
 20
57.0160672599999998
 30
0.0
 11
-81.0818294700000166
 21
57.0453982599999989
 31
0.0
  0
LINE
  5
158
  8
レイヤー_1
  6
CONTINUOUS
 62
     3
 10
-90.7754669000000121
 20
55.1643761400000017
 30
0.0
 11
-90.8139119500000049
 21
55.2123845899999992
 31
0.0
  0
LINE
  5
159
  8
レイヤー_1
  6
CONTINUOUS
 62
     3
 10
-90.8139119500000049
 20
55.2123845899999992
 30
0.0
 11
-90.8549971999999855
 21
55.2576659400000025
 31
0.0
  0
LINE
  5
15A
  8
レイヤー_1
  6
CONTINUOUS
 62
     3
 10
-90.8549971999999855
 20
55.2576659400000025
 30
0.0
 11
-90.8985678500000063
 21
55.3001439599999998
 31
0.0
  0
LINE
  5
15B
  8
レイヤー_1
  6
CONTINUOUS
 62
     3
 10
-90.8985678500000063
 20
55.3001439599999998
 30
0.0
 11
-90.9444691000000063
 21
55.3397422899999967
 31
0.0
  0
LINE
  5
15C
  8
レイヤー_1
  6
CONTINUOUS
 62
     3
 10
-90.9444691000000063
 20
55.3397422899999967
 30
0.0
 11
-90.9925461699999829
 21
55.3763846599999994
 31
0.0
  0
LINE
  5
15D
  8
レイヤー_1
  6
CONTINUOUS
 62
     3
 10
-90.9925461699999829
 20
55.3763846599999994
 30
0.0
 11
-91.0426443199999937
 21
55.4099947899999918
 31
0.0
  0
LINE
  5
15E
  8
レイヤー_1
  6
CONTINUOUS
 62
     3
 10
-91.0426443199999937
 20
55.4099947899999918
 30
0.0
 11
-91.0946088000000032
 21
55.4404963400000028
 31
0.0
  0
LINE
  5
15F
  8
レイヤー_1
  6
CONTINUOUS
 62
     3
 10
-91.0946088000000032
 20
55.4404963400000028
 30
0.0
 11
-91.1482847000000049
 21
55.4678130400000029
 31
0.0
  0
LINE
  5
160
  8
レイヤー_1
  6
CONTINUOUS
 62
     3
 10
-91.1482847000000049
 20
55.4678130400000029
 30
0.0
 11
-91.2035174000000239
 21
55.4918685600000003
 31
0.0
  0
LINE
  5
161
  8
レイヤー_1
  6
CONTINUOUS
 62
     3
 10
-91.2035174000000239
 20
55.4918685600000003
 30
0.0
 11
-91.260152000000005
 21
55.5125866599999895
 31
0.0
  0
LINE
  5
162
  8
レイヤー_1
  6
CONTINUOUS
 62
     3
 10
-91.260152000000005
 20
55.5125866599999895
 30
0.0
 11
-91.3180337999999949
 21
55.5298909600000101
 31
0.0
  0
LINE
  5
163
  8
レイヤー_1
  6
CONTINUOUS
 62
     3
 10
-91.3180337999999949
 20
55.5298909600000101
 30
0.0
 11
-91.3770079999999894
 21
55.5437052400000013
 31
0.0
  0
LINE
  5
164
  8
レイヤー_1
  6
CONTINUOUS
 62
     3
 10
-91.3770079999999894
 20
55.5437052400000013
 30
0.0
 11
-91.4369197999999841
 21
55.5539531399999973
 31
0.0
  0
LINE
  5
165
  8
レイヤー_1
  6
CONTINUOUS
 62
     3
 10
-91.4369197999999841
 20
55.5539531399999973
 30
0.0
 11
-91.4976144500000146
 21
55.56055838999999
 31
0.0
  0
LINE
  5
166
  8
レイヤー_1
  6
CONTINUOUS
 62
     3
 10
-91.4976144500000146
 20
55.56055838999999
 30
0.0
 11
-91.5589371500000055
 21
55.5634447099999988
 31
0.0
  0
LINE
  5
167
  8
レイヤー_1
  6
CONTINUOUS
 62
     3
 10
-91.5589371500000055
 20
55.5634447099999988
 30
0.0
 11
-91.6597115000000002
 21
55.5635765899999896
 31
0.0
  0
LINE
  5
168
  8
レイヤー_1
  6
CONTINUOUS
 62
     3
 10
-91.6597115000000002
 20
55.5635765899999896
 30
0.0
 11
-92.0237384999999932
 21
55.5635765899999896
 31
0.0
  0
LINE
  5
169
  8
レイヤー_1
  6
CONTINUOUS
 62
     3
 10
-92.0237384999999932
 20
55.5635765899999896
 30
0.0
 11
-92.6363426700000048
 21
55.5635765899999896
 31
0.0
  0
LINE
  5
16A
  8
レイヤー_1
  6
CONTINUOUS
 62
     3
 10
-92.6363426700000048
 20
55.5635765899999896
 30
0.0
 11
-93.4553547499999979
 21
55.5635765899999896
 31
0.0
  0
LINE
  5
16B
  8
レイヤー_1
  6
CONTINUOUS
 62
     3
 10
-93.4553547499999979
 20
55.5635765899999896
 30
0.0
 11
-94.4386053000000061
 21
55.5635765899999896
 31
0.0
  0
LINE
  5
16C
  8
レイヤー_1
  6
CONTINUOUS
 62
     3
 10
-94.4386053000000061
 20
55.5635765899999896
 30
0.0
 11
-95.5439249700000062
 21
55.5635765899999896
 31
0.0
  0
LINE
  5
16D
  8
レイヤー_1
  6
CONTINUOUS
 62
     3
 10
-95.5439249700000062
 20
55.5635765899999896
 30
0.0
 11
-96.7291445200000055
 21
55.5635765899999896
 31
0.0
  0
LINE
  5
16E
  8
レイヤー_1
  6
CONTINUOUS
 62
     3
 10
-96.7291445200000055
 20
55.5635765899999896
 30
0.0
 11
-97.9520945000000154
 21
55.5635765899999896
 31
0.0
  0
LINE
  5
16F
  8
レイヤー_1
  6
CONTINUOUS
 62
     3
 10
-97.9520945000000154
 20
55.5635765899999896
 30
0.0
 11
-99.1706056200000035
 21
55.5635765899999896
 31
0.0
  0
LINE
  5
170
  8
レイヤー_1
  6
CONTINUOUS
 62
     3
 10
-99.1706056200000035
 20
55.5635765899999896
 30
0.0
 11
-100.3425085199999955
 21
55.5635765899999896
 31
0.0
  0
LINE
  5
171
  8
レイヤー_1
  6
CONTINUOUS
 62
     3
 10
-100.3425085199999955
 20
55.5635765899999896
 30
0.0
 11
-101.4256338200000016
 21
55.5635765899999896
 31
0.0
  0
LINE
  5
172
  8
レイヤー_1
  6
CONTINUOUS
 62
     3
 10
-101.4256338200000016
 20
55.5635765899999896
 30
0.0
 11
-102.3778122199999956
 21
55.5635765899999896
 31
0.0
  0
LINE
  5
173
  8
レイヤー_1
  6
CONTINUOUS
 62
     3
 10
-102.3778122199999956
 20
55.5635765899999896
 30
0.0
 11
-103.156874369999997
 21
55.5635765899999896
 31
0.0
  0
LINE
  5
174
  8
レイヤー_1
  6
CONTINUOUS
 62
     3
 10
-103.156874369999997
 20
55.5635765899999896
 30
0.0
 11
-103.7206508999999954
 21
55.5635765899999896
 31
0.0
  0
LINE
  5
175
  8
レイヤー_1
  6
CONTINUOUS
 62
     3
 10
-103.7206508999999954
 20
55.5635765899999896
 30
0.0
 11
-104.0269724500000024
 21
55.5635765899999896
 31
0.0
  0
LINE
  5
176
  8
レイヤー_1
  6
CONTINUOUS
 62
     3
 10
-104.0269724500000024
 20
55.5635765899999896
 30
0.0
 11
-104.0710729999999984
 21
55.5635254099999898
 31
0.0
  0
LINE
  5
177
  8
レイヤー_1
  6
CONTINUOUS
 62
     3
 10
-104.075625549999998
 20
55.5631033100000025
 30
0.0
 11
-104.0842321199999958
 21
55.5623053400000018
 31
0.0
  0
LINE
  5
178
  8
レイヤー_1
  6
CONTINUOUS
 62
     3
 10
-104.0842321199999958
 20
55.5623053400000018
 30
0.0
 11
-104.0962344200000018
 21
55.5611925600000021
 31
0.0
  0
LINE
  5
179
  8
レイヤー_1
  6
CONTINUOUS
 62
     3
 10
-104.0962344200000018
 20
55.5611925600000021
 30
0.0
 11
-104.1109740699999975
 21
55.5598259599999906
 31
0.0
  0
LINE
  5
17A
  8
レイヤー_1
  6
CONTINUOUS
 62
     3
 10
-104.1109740699999975
 20
55.5598259599999906
 30
0.0
 11
-104.1277927200000022
 21
55.5582666099999969
 31
0.0
  0
LINE
  5
17B
  8
レイヤー_1
  6
CONTINUOUS
 62
     3
 10
-104.1277927200000022
 20
55.5582666099999969
 30
0.0
 11
-104.1460320200000069
 21
55.5565755599999918
 31
0.0
  0
LINE
  5
17C
  8
レイヤー_1
  6
CONTINUOUS
 62
     3
 10
-104.1460320200000069
 20
55.5565755599999918
 30
0.0
 11
-104.1650336200000027
 21
55.5548138099999917
 31
0.0
  0
LINE
  5
17D
  8
レイヤー_1
  6
CONTINUOUS
 62
     3
 10
-104.1650336200000027
 20
55.5548138099999917
 30
0.0
 11
-104.1841391699999946
 21
55.5530424399999987
 31
0.0
  0
LINE
  5
17E
  8
レイヤー_1
  6
CONTINUOUS
 62
     3
 10
-104.1841391699999946
 20
55.5530424399999987
 30
0.0
 11
-104.2026903200000021
 21
55.5513224600000015
 31
0.0
  0
LINE
  5
17F
  8
レイヤー_1
  6
CONTINUOUS
 62
     3
 10
-104.2026903200000021
 20
55.5513224600000015
 30
0.0
 11
-104.220028720000002
 21
55.5497149400000012
 31
0.0
  0
LINE
  5
180
  8
レイヤー_1
  6
CONTINUOUS
 62
     3
 10
-104.220028720000002
 20
55.5497149400000012
 30
0.0
 11
-104.2354960199999994
 21
55.5482808900000009
 31
0.0
  0
LINE
  5
181
  8
レイヤー_1
  6
CONTINUOUS
 62
     3
 10
-104.2354960199999994
 20
55.5482808900000009
 30
0.0
 11
-104.2484338699999995
 21
55.5470813399999983
 31
0.0
  0
LINE
  5
182
  8
レイヤー_1
  6
CONTINUOUS
 62
     3
 10
-104.2484338699999995
 20
55.5470813399999983
 30
0.0
 11
-104.2581839500000029
 21
55.5461773600000015
 31
0.0
  0
LINE
  5
183
  8
レイヤー_1
  6
CONTINUOUS
 62
     3
 10
-104.2581839500000029
 20
55.5461773600000015
 30
0.0
 11
-104.2640877999999987
 21
55.5456299900000019
 31
0.0
  0
LINE
  5
184
  8
レイヤー_1
  6
CONTINUOUS
 62
     3
 10
-104.268939869999997
 20
55.5444584899999967
 30
0.0
 11
-104.2762245199999995
 21
55.5422093099999898
 31
0.0
  0
LINE
  5
185
  8
レイヤー_1
  6
CONTINUOUS
 62
     3
 10
-104.2762245199999995
 20
55.5422093099999898
 30
0.0
 11
-104.2869284199999953
 21
55.5389044100000007
 31
0.0
  0
LINE
  5
186
  8
レイヤー_1
  6
CONTINUOUS
 62
     3
 10
-104.2869284199999953
 20
55.5389044100000007
 30
0.0
 11
-104.3004208699999964
 21
55.5347385399999922
 31
0.0
  0
LINE
  5
187
  8
レイヤー_1
  6
CONTINUOUS
 62
     3
 10
-104.3004208699999964
 20
55.5347385399999922
 30
0.0
 11
-104.316071100000002
 21
55.5299064399999978
 31
0.0
  0
LINE
  5
188
  8
レイヤー_1
  6
CONTINUOUS
 62
     3
 10
-104.316071100000002
 20
55.5299064399999978
 30
0.0
 11
-104.3332483700000068
 21
55.5246028600000017
 31
0.0
  0
LINE
  5
189
  8
レイヤー_1
  6
CONTINUOUS
 62
     3
 10
-104.3332483700000068
 20
55.5246028600000017
 30
0.0
 11
-104.3513219499999991
 21
55.5190225400000017
 31
0.0
  0
LINE
  5
18A
  8
レイヤー_1
  6
CONTINUOUS
 62
     3
 10
-104.3513219499999991
 20
55.5190225400000017
 30
0.0
 11
-104.3696611200000035
 21
55.5133602100000019
 31
0.0
  0
LINE
  5
18B
  8
レイヤー_1
  6
CONTINUOUS
 62
     3
 10
-104.3696611200000035
 20
55.5133602100000019
 30
0.0
 11
-104.3876351199999988
 21
55.5078106400000024
 31
0.0
  0
LINE
  5
18C
  8
レイヤー_1
  6
CONTINUOUS
 62
     3
 10
-104.3876351199999988
 20
55.5078106400000024
 30
0.0
 11
-104.4046132
 21
55.5025685600000003
 31
0.0
  0
LINE
  5
18D
  8
レイヤー_1
  6
CONTINUOUS
 62
     3
 10
-104.4046132
 20
55.5025685600000003
 30
0.0
 11
-104.4199646699999988
 21
55.4978287100000003
 31
0.0
  0
LINE
  5
18E
  8
レイヤー_1
  6
CONTINUOUS
 62
     3
 10
-104.4199646699999988
 20
55.4978287100000003
 30
0.0
 11
-104.4330587700000024
 21
55.493785840000001
 31
0.0
  0
LINE
  5
18F
  8
レイヤー_1
  6
CONTINUOUS
 62
     3
 10
-104.4330587700000024
 20
55.493785840000001
 30
0.0
 11
-104.4432647200000019
 21
55.4906346900000003
 31
0.0
  0
LINE
  5
190
  8
レイヤー_1
  6
CONTINUOUS
 62
     3
 10
-104.4432647200000019
 20
55.4906346900000003
 30
0.0
 11
-104.4499517999999938
 21
55.4885700099999966
 31
0.0
  0
LINE
  5
191
  8
レイヤー_1
  6
CONTINUOUS
 62
     3
 10
-104.4544187700000037
 20
55.486768210000001
 30
0.0
 11
-104.4602502000000044
 21
55.4836860899999991
 31
0.0
  0
LINE
  5
192
  8
レイヤー_1
  6
CONTINUOUS
 62
     3
 10
-104.4602502000000044
 20
55.4836860899999991
 30
0.0
 11
-104.4694108000000057
 21
55.478844389999999
 31
0.0
  0
LINE
  5
193
  8
レイヤー_1
  6
CONTINUOUS
 62
     3
 10
-104.4694108000000057
 20
55.478844389999999
 30
0.0
 11
-104.4813148700000056
 21
55.4725526599999981
 31
0.0
  0
LINE
  5
194
  8
レイヤー_1
  6
CONTINUOUS
 62
     3
 10
-104.4813148700000056
 20
55.4725526599999981
 30
0.0
 11
-104.4953767500000055
 21
55.4651204600000014
 31
0.0
  0
LINE
  5
195
  8
レイヤー_1
  6
CONTINUOUS
 62
     3
 10
-104.4953767500000055
 20
55.4651204600000014
 30
0.0
 11
-104.5110106700000046
 21
55.4568573399999991
 31
0.0
  0
LINE
  5
196
  8
レイヤー_1
  6
CONTINUOUS
 62
     3
 10
-104.5110106700000046
 20
55.4568573399999991
 30
0.0
 11
-104.5276310499999965
 21
55.4480728899999988
 31
0.0
  0
LINE
  5
197
  8
レイヤー_1
  6
CONTINUOUS
 62
     3
 10
-104.5276310499999965
 20
55.4480728899999988
 30
0.0
 11
-104.5446521700000062
 21
55.4390766100000008
 31
0.0
  0
LINE
  5
198
  8
レイヤー_1
  6
CONTINUOUS
 62
     3
 10
-104.5446521700000062
 20
55.4390766100000008
 30
0.0
 11
-104.5614883199999952
 21
55.4301780899999983
 31
0.0
  0
LINE
  5
199
  8
レイヤー_1
  6
CONTINUOUS
 62
     3
 10
-104.5614883199999952
 20
55.4301780899999983
 30
0.0
 11
-104.577553850000001
 21
55.4216868899999966
 31
0.0
  0
LINE
  5
19A
  8
レイヤー_1
  6
CONTINUOUS
 62
     3
 10
-104.577553850000001
 20
55.4216868899999966
 30
0.0
 11
-104.5922630499999997
 21
55.41391256
 31
0.0
  0
LINE
  5
19B
  8
レイヤー_1
  6
CONTINUOUS
 62
     3
 10
-104.5922630499999997
 20
55.41391256
 30
0.0
 11
-104.6050302200000033
 21
55.4071646399999906
 31
0.0
  0
LINE
  5
19C
  8
レイヤー_1
  6
CONTINUOUS
 62
     3
 10
-104.6050302200000033
 20
55.4071646399999906
 30
0.0
 11
-104.6152696999999989
 21
55.4017527099999896
 31
0.0
  0
LINE
  5
19D
  8
レイヤー_1
  6
CONTINUOUS
 62
     3
 10
-104.6152696999999989
 20
55.4017527099999896
 30
0.0
 11
-104.6223958199999942
 21
55.3979862899999915
 31
0.0
  0
LINE
  5
19E
  8
レイヤー_1
  6
CONTINUOUS
 62
     3
 10
-104.6269266500000015
 20
55.3953284400000001
 30
0.0
 11
-104.6311578199999985
 21
55.3918326100000016
 31
0.0
  0
LINE
  5
19F
  8
レイヤー_1
  6
CONTINUOUS
 62
     3
 10
-104.6311578199999985
 20
55.3918326100000016
 30
0.0
 11
-104.6384228000000007
 21
55.3858301900000001
 31
0.0
  0
LINE
  5
1A0
  8
レイヤー_1
  6
CONTINUOUS
 62
     3
 10
-104.6384228000000007
 20
55.3858301900000001
 30
0.0
 11
-104.6482115200000038
 21
55.3777426600000027
 31
0.0
  0
LINE
  5
1A1
  8
レイヤー_1
  6
CONTINUOUS
 62
     3
 10
-104.6482115200000038
 20
55.3777426600000027
 30
0.0
 11
-104.6600138499999986
 21
55.3679914599999918
 31
0.0
  0
LINE
  5
1A2
  8
レイヤー_1
  6
CONTINUOUS
 62
     3
 10
-104.6600138499999986
 20
55.3679914599999918
 30
0.0
 11
-104.6733196200000009
 21
55.3569980600000022
 31
0.0
  0
LINE
  5
1A3
  8
レイヤー_1
  6
CONTINUOUS
 62
     3
 10
-104.6733196200000009
 20
55.3569980600000022
 30
0.0
 11
-104.6876187999999956
 21
55.3451839399999983
 31
0.0
  0
LINE
  5
1A4
  8
レイヤー_1
  6
CONTINUOUS
 62
     3
 10
-104.6876187999999956
 20
55.3451839399999983
 30
0.0
 11
-104.7024012699999957
 21
55.3329705100000027
 31
0.0
  0
LINE
  5
1A5
  8
レイヤー_1
  6
CONTINUOUS
 62
     3
 10
-104.7024012699999957
 20
55.3329705100000027
 30
0.0
 11
-104.717156849999995
 21
55.3207792899999902
 31
0.0
  0
LINE
  5
1A6
  8
レイヤー_1
  6
CONTINUOUS
 62
     3
 10
-104.717156849999995
 20
55.3207792899999902
 30
0.0
 11
-104.7313754999999986
 21
55.3090316899999976
 31
0.0
  0
LINE
  5
1A7
  8
レイヤー_1
  6
CONTINUOUS
 62
     3
 10
-104.7313754999999986
 20
55.3090316899999976
 30
0.0
 11
-104.7445470499999942
 21
55.2981491899999895
 31
0.0
  0
LINE
  5
1A8
  8
レイヤー_1
  6
CONTINUOUS
 62
     3
 10
-104.7445470499999942
 20
55.2981491899999895
 30
0.0
 11
-104.756161419999998
 21
55.288553290000003
 31
0.0
  0
LINE
  5
1A9
  8
レイヤー_1
  6
CONTINUOUS
 62
     3
 10
-104.756161419999998
 20
55.288553290000003
 30
0.0
 11
-104.7657085000000023
 21
55.28066539000001
 31
0.0
  0
LINE
  5
1AA
  8
レイヤー_1
  6
CONTINUOUS
 62
     3
 10
-104.7657085000000023
 20
55.28066539000001
 30
0.0
 11
-104.7726781500000044
 21
55.2749069600000027
 31
0.0
  0
LINE
  5
1AB
  8
レイヤー_1
  6
CONTINUOUS
 62
     3
 10
-104.7726781500000044
 20
55.2749069600000027
 30
0.0
 11
-104.7765602999999999
 21
55.2716995099999977
 31
0.0
  0
LINE
  5
1AC
  8
レイヤー_1
  6
CONTINUOUS
 62
     3
 10
-104.7802212200000014
 20
55.2674663600000002
 30
0.0
 11
-104.7855677499999985
 21
55.2609131600000012
 31
0.0
  0
LINE
  5
1AD
  8
レイヤー_1
  6
CONTINUOUS
 62
     3
 10
-104.7855677499999985
 20
55.2609131600000012
 30
0.0
 11
-104.7930951499999992
 21
55.2516868599999995
 31
0.0
  0
LINE
  5
1AE
  8
レイヤー_1
  6
CONTINUOUS
 62
     3
 10
-104.7930951499999992
 20
55.2516868599999995
 30
0.0
 11
-104.802384900000007
 21
55.2403004600000003
 31
0.0
  0
LINE
  5
1AF
  8
レイヤー_1
  6
CONTINUOUS
 62
     3
 10
-104.802384900000007
 20
55.2403004600000003
 30
0.0
 11
-104.8130184200000059
 21
55.2272670099999914
 31
0.0
  0
LINE
  5
1B0
  8
レイヤー_1
  6
CONTINUOUS
 62
     3
 10
-104.8130184200000059
 20
55.2272670099999914
 30
0.0
 11
-104.8245771699999977
 21
55.2130995400000018
 31
0.0
  0
LINE
  5
1B1
  8
レイヤー_1
  6
CONTINUOUS
 62
     3
 10
-104.8245771699999977
 20
55.2130995400000018
 30
0.0
 11
-104.8366426000000047
 21
55.1983110099999976
 31
0.0
  0
LINE
  5
1B2
  8
レイヤー_1
  6
CONTINUOUS
 62
     3
 10
-104.8366426000000047
 20
55.1983110099999976
 30
0.0
 11
-104.8487961200000029
 21
55.183414489999997
 31
0.0
  0
LINE
  5
1B3
  8
レイヤー_1
  6
CONTINUOUS
 62
     3
 10
-104.8487961200000029
 20
55.183414489999997
 30
0.0
 11
-104.8606192200000038
 21
55.1689229899999987
 31
0.0
  0
LINE
  5
1B4
  8
レイヤー_1
  6
CONTINUOUS
 62
     3
 10
-104.8606192200000038
 20
55.1689229899999987
 30
0.0
 11
-104.8716933200000057
 21
55.1553495400000031
 31
0.0
  0
LINE
  5
1B5
  8
レイヤー_1
  6
CONTINUOUS
 62
     3
 10
-104.8716933200000057
 20
55.1553495400000031
 30
0.0
 11
-104.8815998700000023
 21
55.1432071099999916
 31
0.0
  0
LINE
  5
1B6
  8
レイヤー_1
  6
CONTINUOUS
 62
     3
 10
-104.8815998700000023
 20
55.1432071099999916
 30
0.0
 11
-104.889920349999997
 21
55.1330087600000027
 31
0.0
  0
LINE
  5
1B7
  8
レイヤー_1
  6
CONTINUOUS
 62
     3
 10
-104.889920349999997
 20
55.1330087600000027
 30
0.0
 11
-104.8962361499999929
 21
55.125267540000003
 31
0.0
  0
LINE
  5
1B8
  8
レイヤー_1
  6
CONTINUOUS
 62
     3
 10
-104.8962361499999929
 20
55.125267540000003
 30
0.0
 11
-104.9001287199999979
 21
55.1204963899999996
 31
0.0
  0
LINE
  5
1B9
  8
レイヤー_1
  6
CONTINUOUS
 62
     3
 10
-104.9027373499999953
 20
55.1163427099999979
 30
0.0
 11
-104.9062483000000014
 21
55.1098270600000006
 31
0.0
  0
LINE
  5
1BA
  8
レイヤー_1
  6
CONTINUOUS
 62
     3
 10
-104.9062483000000014
 20
55.1098270600000006
 30
0.0
 11
-104.9114695500000067
 21
55.100137359999998
 31
0.0
  0
LINE
  5
1BB
  8
レイヤー_1
  6
CONTINUOUS
 62
     3
 10
-104.9114695500000067
 20
55.100137359999998
 30
0.0
 11
-104.918088670000003
 21
55.0878534900000005
 31
0.0
  0
LINE
  5
1BC
  8
レイヤー_1
  6
CONTINUOUS
 62
     3
 10
-104.918088670000003
 20
55.0878534900000005
 30
0.0
 11
-104.9257932000000011
 21
55.0735553399999986
 31
0.0
  0
LINE
  5
1BD
  8
レイヤー_1
  6
CONTINUOUS
 62
     3
 10
-104.9257932000000011
 20
55.0735553399999986
 30
0.0
 11
-104.934270650000002
 21
55.0578227600000005
 31
0.0
  0
LINE
  5
1BE
  8
レイヤー_1
  6
CONTINUOUS
 62
     3
 10
-104.934270650000002
 20
55.0578227600000005
 30
0.0
 11
-104.9432086000000055
 21
55.0412356399999965
 31
0.0
  0
LINE
  5
1BF
  8
レイヤー_1
  6
CONTINUOUS
 62
     3
 10
-104.9432086000000055
 20
55.0412356399999965
 30
0.0
 11
-104.9522945199999953
 21
55.0243738400000026
 31
0.0
  0
LINE
  5
1C0
  8
レイヤー_1
  6
CONTINUOUS
 62
     3
 10
-104.9522945199999953
 20
55.0243738400000026
 30
0.0
 11
-104.9612159999999932
 21
55.0078172099999989
 31
0.0
  0
LINE
  5
1C1
  8
レイヤー_1
  6
CONTINUOUS
 62
     3
 10
-104.9612159999999932
 20
55.0078172099999989
 30
0.0
 11
-104.9696605500000004
 21
54.992145690000001
 31
0.0
  0
LINE
  5
1C2
  8
レイヤー_1
  6
CONTINUOUS
 62
     3
 10
-104.9696605500000004
 20
54.992145690000001
 30
0.0
 11
-104.9773157500000025
 21
54.9779390899999996
 31
0.0
  0
LINE
  5
1C3
  8
レイヤー_1
  6
CONTINUOUS
 62
     3
 10
-104.9773157500000025
 20
54.9779390899999996
 30
0.0
 11
-104.9838691000000068
 21
54.9657772899999983
 31
0.0
  0
LINE
  5
1C4
  8
レイヤー_1
  6
CONTINUOUS
 62
     3
 10
-104.9838691000000068
 20
54.9657772899999983
 30
0.0
 11
-104.9890081199999941
 21
54.9562401900000026
 31
0.0
  0
LINE
  5
1C5
  8
レイヤー_1
  6
CONTINUOUS
 62
     3
 10
-104.9890081199999941
 20
54.9562401900000026
 30
0.0
 11
-104.9924204000000003
 21
54.9499076399999993
 31
0.0
  0
LINE
  5
1C6
  8
レイヤー_1
  6
CONTINUOUS
 62
     3
 10
-104.9943696999999929
 20
54.9454666099999969
 30
0.0
 11
-104.9962170499999985
 21
54.9393367899999987
 31
0.0
  0
LINE
  5
1C7
  8
レイヤー_1
  6
CONTINUOUS
 62
     3
 10
-104.9962170499999985
 20
54.9393367899999987
 30
0.0
 11
-104.9991649499999937
 21
54.9295551900000021
 31
0.0
  0
LINE
  5
1C8
  8
レイヤー_1
  6
CONTINUOUS
 62
     3
 10
-104.9991649499999937
 20
54.9295551900000021
 30
0.0
 11
-105.0030215200000043
 21
54.9167583099999987
 31
0.0
  0
LINE
  5
1C9
  8
レイヤー_1
  6
CONTINUOUS
 62
     3
 10
-105.0030215200000043
 20
54.9167583099999987
 30
0.0
 11
-105.0075949699999995
 21
54.9015827899999991
 31
0.0
  0
LINE
  5
1CA
  8
レイヤー_1
  6
CONTINUOUS
 62
     3
 10
-105.0075949699999995
 20
54.9015827899999991
 30
0.0
 11
-105.0126934500000004
 21
54.8846650899999986
 31
0.0
  0
LINE
  5
1CB
  8
レイヤー_1
  6
CONTINUOUS
 62
     3
 10
-105.0126934500000004
 20
54.8846650899999986
 30
0.0
 11
-105.0181251199999934
 21
54.8666418099999973
 31
0.0
  0
LINE
  5
1CC
  8
レイヤー_1
  6
CONTINUOUS
 62
     3
 10
-105.0181251199999934
 20
54.8666418099999973
 30
0.0
 11
-105.0236981500000013
 21
54.8481494899999973
 31
0.0
  0
LINE
  5
1CD
  8
レイヤー_1
  6
CONTINUOUS
 62
     3
 10
-105.0236981500000013
 20
54.8481494899999973
 30
0.0
 11
-105.0292206999999962
 21
54.8298246900000024
 31
0.0
  0
LINE
  5
1CE
  8
レイヤー_1
  6
CONTINUOUS
 62
     3
 10
-105.0292206999999962
 20
54.8298246900000024
 30
0.0
 11
-105.0345009199999993
 21
54.8123039600000013
 31
0.0
  0
LINE
  5
1CF
  8
レイヤー_1
  6
CONTINUOUS
 62
     3
 10
-105.0345009199999993
 20
54.8123039600000013
 30
0.0
 11
-105.0393470000000065
 21
54.7962238400000032
 31
0.0
  0
LINE
  5
1D0
  8
レイヤー_1
  6
CONTINUOUS
 62
     3
 10
-105.0393470000000065
 20
54.7962238400000032
 30
0.0
 11
-105.0435670499999929
 21
54.7822208899999907
 31
0.0
  0
LINE
  5
1D1
  8
レイヤー_1
  6
CONTINUOUS
 62
     3
 10
-105.0435670499999929
 20
54.7822208899999907
 30
0.0
 11
-105.0469693000000007
 21
54.7709316400000006
 31
0.0
  0
LINE
  5
1D2
  8
レイヤー_1
  6
CONTINUOUS
 62
     3
 10
-105.0469693000000007
 20
54.7709316400000006
 30
0.0
 11
-105.0493618699999985
 21
54.7629926899999973
 31
0.0
  0
LINE
  5
1D3
  8
レイヤー_1
  6
CONTINUOUS
 62
     3
 10
-105.0507474700000046
 20
54.7577460099999982
 30
0.0
 11
-105.0512676700000014
 21
54.7525327399999924
 31
0.0
  0
LINE
  5
1D4
  8
レイヤー_1
  6
CONTINUOUS
 62
     3
 10
-105.0512676700000014
 20
54.7525327399999924
 30
0.0
 11
-105.0521802199999968
 21
54.7433867599999999
 31
0.0
  0
LINE
  5
1D5
  8
レイヤー_1
  6
CONTINUOUS
 62
     3
 10
-105.0521802199999968
 20
54.7433867599999999
 30
0.0
 11
-105.053419770000005
 21
54.7309635900000018
 31
0.0
  0
LINE
  5
1D6
  8
レイヤー_1
  6
CONTINUOUS
 62
     3
 10
-105.053419770000005
 20
54.7309635900000018
 30
0.0
 11
-105.0549209499999961
 21
54.7159186100000028
 31
0.0
  0
LINE
  5
1D7
  8
レイヤー_1
  6
CONTINUOUS
 62
     3
 10
-105.0549209499999961
 20
54.7159186100000028
 30
0.0
 11
-105.0566182999999967
 21
54.698907339999991
 31
0.0
  0
LINE
  5
1D8
  8
レイヤー_1
  6
CONTINUOUS
 62
     3
 10
-105.0566182999999967
 20
54.698907339999991
 30
0.0
 11
-105.0584464500000053
 21
54.6805851399999909
 31
0.0
  0
LINE
  5
1D9
  8
レイヤー_1
  6
CONTINUOUS
 62
     3
 10
-105.0584464500000053
 20
54.6805851399999909
 30
0.0
 11
-105.0603399999999965
 21
54.6616075100000032
 31
0.0
  0
LINE
  5
1DA
  8
レイヤー_1
  6
CONTINUOUS
 62
     3
 10
-105.0603399999999965
 20
54.6616075100000032
 30
0.0
 11
-105.062233550000002
 21
54.642629890000002
 31
0.0
  0
LINE
  5
1DB
  8
レイヤー_1
  6
CONTINUOUS
 62
     3
 10
-105.062233550000002
 20
54.642629890000002
 30
0.0
 11
-105.064061719999998
 21
54.6243077099999965
 31
0.0
  0
LINE
  5
1DC
  8
レイヤー_1
  6
CONTINUOUS
 62
     3
 10
-105.064061719999998
 20
54.6243077099999965
 30
0.0
 11
-105.0657590699999986
 21
54.6072964099999965
 31
0.0
  0
LINE
  5
1DD
  8
レイヤー_1
  6
CONTINUOUS
 62
     3
 10
-105.0657590699999986
 20
54.6072964099999965
 30
0.0
 11
-105.0672602199999943
 21
54.59225146
 31
0.0
  0
LINE
  5
1DE
  8
レイヤー_1
  6
CONTINUOUS
 62
     3
 10
-105.0672602199999943
 20
54.59225146
 30
0.0
 11
-105.0684997999999979
 21
54.5798282599999993
 31
0.0
  0
LINE
  5
1DF
  8
レイヤー_1
  6
CONTINUOUS
 62
     3
 10
-105.0684997999999979
 20
54.5798282599999993
 30
0.0
 11
-105.0694123699999949
 21
54.5706823100000022
 31
0.0
  0
LINE
  5
1E0
  8
レイヤー_1
  6
CONTINUOUS
 62
     3
 10
-105.0694123699999949
 20
54.5706823100000022
 30
0.0
 11
-105.0699325500000043
 21
54.565469010000001
 31
0.0
  0
LINE
  5
1E1
  8
レイヤー_1
  6
CONTINUOUS
 62
     3
 10
-105.0699325500000043
 20
54.565469010000001
 30
0.0
 11
-105.0700293200000033
 21
54.365038939999998
 31
0.0
  0
LINE
  5
1E2
  8
レイヤー_1
  6
CONTINUOUS
 62
     3
 10
-105.0700293200000033
 20
54.365038939999998
 30
0.0
 11
-105.0700293200000033
 21
51.9349219099999999
 31
0.0
  0
LINE
  5
1E3
  8
レイヤー_1
  6
CONTINUOUS
 62
     3
 10
-105.0700293200000033
 20
51.9349219099999999
 30
0.0
 11
-105.0700293200000033
 21
47.0533647399999992
 31
0.0
  0
LINE
  5
1E4
  8
レイヤー_1
  6
CONTINUOUS
 62
     3
 10
-105.0700293200000033
 20
47.0533647399999992
 30
0.0
 11
-105.0700293200000033
 21
40.1117738100000025
 31
0.0
  0
LINE
  5
1E5
  8
レイヤー_1
  6
CONTINUOUS
 62
     3
 10
-105.0700293200000033
 20
40.1117738100000025
 30
0.0
 11
-105.0700293200000033
 21
31.5015555399999982
 31
0.0
  0
LINE
  5
1E6
  8
レイヤー_1
  6
CONTINUOUS
 62
     3
 10
-105.0700293200000033
 20
31.5015555399999982
 30
0.0
 11
-105.0700293200000033
 21
21.6141163399999989
 31
0.0
  0
LINE
  5
1E7
  8
レイヤー_1
  6
CONTINUOUS
 62
     3
 10
-105.0700293200000033
 20
21.6141163399999989
 30
0.0
 11
-105.0700293200000033
 21
10.8408626100000003
 31
0.0
  0
LINE
  5
1E8
  8
レイヤー_1
  6
CONTINUOUS
 62
     3
 10
-105.0700293200000033
 20
10.8408626100000003
 30
0.0
 11
-105.0700293200000033
 21
-0.42679921
 31
0.0
  0
LINE
  5
1E9
  8
レイヤー_1
  6
CONTINUOUS
 62
     3
 10
-105.0700293200000033
 20
-0.42679921
 30
0.0
 11
-105.0700293200000033
 21
-11.7974627099999996
 31
0.0
  0
LINE
  5
1EA
  8
レイヤー_1
  6
CONTINUOUS
 62
     3
 10
-105.0700293200000033
 20
-11.7974627099999996
 30
0.0
 11
-105.0700293200000033
 21
-22.8797214900000014
 31
0.0
  0
LINE
  5
1EB
  8
レイヤー_1
  6
CONTINUOUS
 62
     3
 10
-105.0700293200000033
 20
-22.8797214900000014
 30
0.0
 11
-105.0700293200000033
 21
-33.2821691400000006
 31
0.0
  0
LINE
  5
1EC
  8
レイヤー_1
  6
CONTINUOUS
 62
     3
 10
-105.0700293200000033
 20
-33.2821691400000006
 30
0.0
 11
-105.0700293200000033
 21
-42.6133992099999972
 31
0.0
  0
LINE
  5
1ED
  8
レイヤー_1
  6
CONTINUOUS
 62
     3
 10
-105.0700293200000033
 20
-42.6133992099999972
 30
0.0
 11
-105.0700293200000033
 21
-50.4820053400000006
 31
0.0
  0
LINE
  5
1EE
  8
レイヤー_1
  6
CONTINUOUS
 62
     3
 10
-105.0700293200000033
 20
-50.4820053400000006
 30
0.0
 11
-105.0700293200000033
 21
-56.4965810899999994
 31
0.0
  0
LINE
  5
1EF
  8
レイヤー_1
  6
CONTINUOUS
 62
     3
 10
-105.0700293200000033
 20
-56.4965810899999994
 30
0.0
 11
-105.0700293200000033
 21
-60.2657200399999979
 31
0.0
  0
LINE
  5
1F0
  8
レイヤー_1
  6
CONTINUOUS
 62
     3
 10
-105.0700293200000033
 20
-60.2657200399999979
 30
0.0
 11
-105.070026569999996
 21
-61.4146684600000015
 31
0.0
  0
LINE
  5
1F1
  8
レイヤー_1
  6
CONTINUOUS
 62
     3
 10
-105.0697392200000024
 20
-61.4175742099999979
 30
0.0
 11
-105.0690249999999963
 21
-61.4247955100000027
 31
0.0
  0
LINE
  5
1F2
  8
レイヤー_1
  6
CONTINUOUS
 62
     3
 10
-105.0690249999999963
 20
-61.4247955100000027
 30
0.0
 11
-105.0679494000000034
 21
-61.4356711599999912
 31
0.0
  0
LINE
  5
1F3
  8
レイヤー_1
  6
CONTINUOUS
 62
     3
 10
-105.0679494000000034
 20
-61.4356711599999912
 30
0.0
 11
-105.066577769999995
 21
-61.4495398600000016
 31
0.0
  0
LINE
  5
1F4
  8
レイヤー_1
  6
CONTINUOUS
 62
     3
 10
-105.066577769999995
 20
-61.4495398600000016
 30
0.0
 11
-105.0649755200000044
 21
-61.4657403900000006
 31
0.0
  0
LINE
  5
1F5
  8
レイヤー_1
  6
CONTINUOUS
 62
     3
 10
-105.0649755200000044
 20
-61.4657403900000006
 30
0.0
 11
-105.0632080500000001
 21
-61.48361143999999
 31
0.0
  0
LINE
  5
1F6
  8
レイヤー_1
  6
CONTINUOUS
 62
     3
 10
-105.0632080500000001
 20
-61.48361143999999
 30
0.0
 11
-105.0613407499999994
 21
-61.5024917900000005
 31
0.0
  0
LINE
  5
1F7
  8
レイヤー_1
  6
CONTINUOUS
 62
     3
 10
-105.0613407499999994
 20
-61.5024917900000005
 30
0.0
 11
-105.0594390499999946
 21
-61.5217201399999993
 31
0.0
  0
LINE
  5
1F8
  8
レイヤー_1
  6
CONTINUOUS
 62
     3
 10
-105.0594390499999946
 20
-61.5217201399999993
 30
0.0
 11
-105.0575683200000014
 21
-61.5406352899999973
 31
0.0
  0
LINE
  5
1F9
  8
レイヤー_1
  6
CONTINUOUS
 62
     3
 10
-105.0575683200000014
 20
-61.5406352899999973
 30
0.0
 11
-105.0557940000000059
 21
-61.5585759599999989
 31
0.0
  0
LINE
  5
1FA
  8
レイヤー_1
  6
CONTINUOUS
 62
     3
 10
-105.0557940000000059
 20
-61.5585759599999989
 30
0.0
 11
-105.0541814000000045
 21
-61.5748808600000004
 31
0.0
  0
LINE
  5
1FB
  8
レイヤー_1
  6
CONTINUOUS
 62
     3
 10
-105.0541814000000045
 20
-61.5748808600000004
 30
0.0
 11
-105.0527960000000007
 21
-61.5888887899999986
 31
0.0
  0
LINE
  5
1FC
  8
レイヤー_1
  6
CONTINUOUS
 62
     3
 10
-105.0527960000000007
 20
-61.5888887899999986
 30
0.0
 11
-105.0517031699999961
 21
-61.5999384400000025
 31
0.0
  0
LINE
  5
1FD
  8
レイヤー_1
  6
CONTINUOUS
 62
     3
 10
-105.0517031699999961
 20
-61.5999384400000025
 30
0.0
 11
-105.0509683199999955
 21
-61.6073685900000001
 31
0.0
  0
LINE
  5
1FE
  8
レイヤー_1
  6
CONTINUOUS
 62
     3
 10
-105.0501506699999936
 20
-61.6122243900000015
 30
0.0
 11
-105.0483665699999989
 21
-61.6180903099999995
 31
0.0
  0
LINE
  5
1FF
  8
レイヤー_1
  6
CONTINUOUS
 62
     3
 10
-105.0483665699999989
 20
-61.6180903099999995
 30
0.0
 11
-105.045471820000003
 21
-61.6276078599999906
 31
0.0
  0
LINE
  5
200
  8
レイヤー_1
  6
CONTINUOUS
 62
     3
 10
-105.045471820000003
 20
-61.6276078599999906
 30
0.0
 11
-105.0416582699999992
 21
-61.6401463400000011
 31
0.0
  0
LINE
  5
201
  8
レイヤー_1
  6
CONTINUOUS
 62
     3
 10
-105.0416582699999992
 20
-61.6401463400000011
 30
0.0
 11
-105.0371177699999947
 21
-61.6550749600000003
 31
0.0
  0
LINE
  5
202
  8
レイヤー_1
  6
CONTINUOUS
 62
     3
 10
-105.0371177699999947
 20
-61.6550749600000003
 30
0.0
 11
-105.0320421499999952
 21
-61.6717630400000019
 31
0.0
  0
LINE
  5
203
  8
レイヤー_1
  6
CONTINUOUS
 62
     3
 10
-105.0320421499999952
 20
-61.6717630400000019
 30
0.0
 11
-105.0266232200000047
 21
-61.6895797900000034
 31
0.0
  0
LINE
  5
204
  8
レイヤー_1
  6
CONTINUOUS
 62
     3
 10
-105.0266232200000047
 20
-61.6895797900000034
 30
0.0
 11
-105.0210528500000038
 21
-61.707894490000001
 31
0.0
  0
LINE
  5
205
  8
レイヤー_1
  6
CONTINUOUS
 62
     3
 10
-105.0210528500000038
 20
-61.707894490000001
 30
0.0
 11
-105.0155228699999981
 21
-61.7260763900000029
 31
0.0
  0
LINE
  5
206
  8
レイヤー_1
  6
CONTINUOUS
 62
     3
 10
-105.0155228699999981
 20
-61.7260763900000029
 30
0.0
 11
-105.0102250999999995
 21
-61.7434947899999926
 31
0.0
  0
LINE
  5
207
  8
レイヤー_1
  6
CONTINUOUS
 62
     3
 10
-105.0102250999999995
 20
-61.7434947899999926
 30
0.0
 11
-105.005351399999995
 21
-61.759518909999997
 31
0.0
  0
LINE
  5
208
  8
レイヤー_1
  6
CONTINUOUS
 62
     3
 10
-105.005351399999995
 20
-61.759518909999997
 30
0.0
 11
-105.0010936500000014
 21
-61.773518039999999
 31
0.0
  0
LINE
  5
209
  8
レイヤー_1
  6
CONTINUOUS
 62
     3
 10
-105.0010936500000014
 20
-61.773518039999999
 30
0.0
 11
-104.9976435699999939
 21
-61.7848614099999978
 31
0.0
  0
LINE
  5
20A
  8
レイヤー_1
  6
CONTINUOUS
 62
     3
 10
-104.9976435699999939
 20
-61.7848614099999978
 30
0.0
 11
-104.9951930999999945
 21
-61.7929183399999999
 31
0.0
  0
LINE
  5
20B
  8
レイヤー_1
  6
CONTINUOUS
 62
     3
 10
-104.9939339999999959
 20
-61.7970580100000006
 30
0.0
 11
-104.9934170700000067
 21
-61.7982033600000022
 31
0.0
  0
LINE
  5
20C
  8
レイヤー_1
  6
CONTINUOUS
 62
     3
 10
-104.9910391199999964
 20
-61.8026385100000013
 30
0.0
 11
-104.9867699499999958
 21
-61.8106010099999921
 31
0.0
  0
LINE
  5
20D
  8
レイヤー_1
  6
CONTINUOUS
 62
     3
 10
-104.9867699499999958
 20
-61.8106010099999921
 30
0.0
 11
-104.9809220500000038
 21
-61.8215080599999993
 31
0.0
  0
LINE
  5
20E
  8
レイヤー_1
  6
CONTINUOUS
 62
     3
 10
-104.9809220500000038
 20
-61.8215080599999993
 30
0.0
 11
-104.9738078200000047
 21
-61.8347769100000022
 31
0.0
  0
LINE
  5
20F
  8
レイヤー_1
  6
CONTINUOUS
 62
     3
 10
-104.9738078200000047
 20
-61.8347769100000022
 30
0.0
 11
-104.965739769999999
 21
-61.8498247599999971
 31
0.0
  0
LINE
  5
210
  8
レイヤー_1
  6
CONTINUOUS
 62
     3
 10
-104.965739769999999
 20
-61.8498247599999971
 30
0.0
 11
-104.9570303699999982
 21
-61.8660688399999898
 31
0.0
  0
LINE
  5
211
  8
レイヤー_1
  6
CONTINUOUS
 62
     3
 10
-104.9570303699999982
 20
-61.8660688399999898
 30
0.0
 11
-104.9479920200000009
 21
-61.8829263900000015
 31
0.0
  0
LINE
  5
212
  8
レイヤー_1
  6
CONTINUOUS
 62
     3
 10
-104.9479920200000009
 20
-61.8829263900000015
 30
0.0
 11
-104.9389372499999951
 21
-61.8998145899999983
 31
0.0
  0
LINE
  5
213
  8
レイヤー_1
  6
CONTINUOUS
 62
     3
 10
-104.9389372499999951
 20
-61.8998145899999983
 30
0.0
 11
-104.9301784999999967
 21
-61.916150690000002
 31
0.0
  0
LINE
  5
214
  8
レイヤー_1
  6
CONTINUOUS
 62
     3
 10
-104.9301784999999967
 20
-61.916150690000002
 30
0.0
 11
-104.9220281999999997
 21
-61.9313519099999894
 31
0.0
  0
LINE
  5
215
  8
レイヤー_1
  6
CONTINUOUS
 62
     3
 10
-104.9220281999999997
 20
-61.9313519099999894
 30
0.0
 11
-104.9147988699999985
 21
-61.9448354600000002
 31
0.0
  0
LINE
  5
216
  8
レイヤー_1
  6
CONTINUOUS
 62
     3
 10
-104.9147988699999985
 20
-61.9448354600000002
 30
0.0
 11
-104.9088029499999948
 21
-61.9560185599999897
 31
0.0
  0
LINE
  5
217
  8
レイヤー_1
  6
CONTINUOUS
 62
     3
 10
-104.9088029499999948
 20
-61.9560185599999897
 30
0.0
 11
-104.9043528699999968
 21
-61.9643184600000012
 31
0.0
  0
LINE
  5
218
  8
レイヤー_1
  6
CONTINUOUS
 62
     3
 10
-104.8986134700000008
 20
-61.9733566399999987
 30
0.0
 11
-104.8935208700000032
 21
-61.9795986099999965
 31
0.0
  0
LINE
  5
219
  8
レイヤー_1
  6
CONTINUOUS
 62
     3
 10
-104.8935208700000032
 20
-61.9795986099999965
 30
0.0
 11
-104.8862033500000024
 21
-61.988567709999991
 31
0.0
  0
LINE
  5
21A
  8
レイヤー_1
  6
CONTINUOUS
 62
     3
 10
-104.8862033500000024
 20
-61.988567709999991
 30
0.0
 11
-104.8770793700000041
 21
-61.9997508599999989
 31
0.0
  0
LINE
  5
21B
  8
レイヤー_1
  6
CONTINUOUS
 62
     3
 10
-104.8770793700000041
 20
-61.9997508599999989
 30
0.0
 11
-104.8665675999999962
 21
-62.0126350900000034
 31
0.0
  0
LINE
  5
21C
  8
レイヤー_1
  6
CONTINUOUS
 62
     3
 10
-104.8665675999999962
 20
-62.0126350900000034
 30
0.0
 11
-104.8550865499999958
 21
-62.0267073899999986
 31
0.0
  0
LINE
  5
21D
  8
レイヤー_1
  6
CONTINUOUS
 62
     3
 10
-104.8550865499999958
 20
-62.0267073899999986
 30
0.0
 11
-104.8430547499999932
 21
-62.0414546900000019
 31
0.0
  0
LINE
  5
21E
  8
レイヤー_1
  6
CONTINUOUS
 62
     3
 10
-104.8430547499999932
 20
-62.0414546900000019
 30
0.0
 11
-104.8308907699999963
 21
-62.0563639900000013
 31
0.0
  0
LINE
  5
21F
  8
レイヤー_1
  6
CONTINUOUS
 62
     3
 10
-104.8308907699999963
 20
-62.0563639900000013
 30
0.0
 11
-104.8190131700000052
 21
-62.0709222899999986
 31
0.0
  0
LINE
  5
220
  8
レイヤー_1
  6
CONTINUOUS
 62
     3
 10
-104.8190131700000052
 20
-62.0709222899999986
 30
0.0
 11
-104.8078405199999992
 21
-62.084616539999999
 31
0.0
  0
LINE
  5
221
  8
レイヤー_1
  6
CONTINUOUS
 62
     3
 10
-104.8078405199999992
 20
-62.084616539999999
 30
0.0
 11
-104.7977913699999988
 21
-62.0969337599999989
 31
0.0
  0
LINE
  5
222
  8
レイヤー_1
  6
CONTINUOUS
 62
     3
 10
-104.7977913699999988
 20
-62.0969337599999989
 30
0.0
 11
-104.789284219999999
 21
-62.1073608900000025
 31
0.0
  0
LINE
  5
223
  8
レイヤー_1
  6
CONTINUOUS
 62
     3
 10
-104.789284219999999
 20
-62.1073608900000025
 30
0.0
 11
-104.7827376999999984
 21
-62.1153849399999984
 31
0.0
  0
LINE
  5
224
  8
レイヤー_1
  6
CONTINUOUS
 62
     3
 10
-104.7827376999999984
 20
-62.1153849399999984
 30
0.0
 11
-104.77857032
 21
-62.1204928599999988
 31
0.0
  0
LINE
  5
225
  8
レイヤー_1
  6
CONTINUOUS
 62
     3
 10
-104.775138620000007
 20
-62.1238654100000005
 30
0.0
 11
-104.7697303700000049
 21
-62.1283029399999904
 31
0.0
  0
LINE
  5
226
  8
レイヤー_1
  6
CONTINUOUS
 62
     3
 10
-104.7697303700000049
 20
-62.1283029399999904
 30
0.0
 11
-104.7614762500000012
 21
-62.1350755400000025
 31
0.0
  0
LINE
  5
227
  8
レイヤー_1
  6
CONTINUOUS
 62
     3
 10
-104.7614762500000012
 20
-62.1350755400000025
 30
0.0
 11
-104.7508863500000018
 21
-62.1437647099999992
 31
0.0
  0
LINE
  5
228
  8
レイヤー_1
  6
CONTINUOUS
 62
     3
 10
-104.7508863500000018
 20
-62.1437647099999992
 30
0.0
 11
-104.7384707700000064
 21
-62.1539518399999977
 31
0.0
  0
LINE
  5
229
  8
レイヤー_1
  6
CONTINUOUS
 62
     3
 10
-104.7384707700000064
 20
-62.1539518399999977
 30
0.0
 11
-104.724739619999994
 21
-62.1652184100000014
 31
0.0
  0
LINE
  5
22A
  8
レイヤー_1
  6
CONTINUOUS
 62
     3
 10
-104.724739619999994
 20
-62.1652184100000014
 30
0.0
 11
-104.7102030500000041
 21
-62.1771458600000031
 31
0.0
  0
LINE
  5
22B
  8
レイヤー_1
  6
CONTINUOUS
 62
     3
 10
-104.7102030500000041
 20
-62.1771458600000031
 30
0.0
 11
-104.6953711499999997
 21
-62.1893156100000013
 31
0.0
  0
LINE
  5
22C
  8
レイヤー_1
  6
CONTINUOUS
 62
     3
 10
-104.6953711499999997
 20
-62.1893156100000013
 30
0.0
 11
-104.6807540199999949
 21
-62.201309160000001
 31
0.0
  0
LINE
  5
22D
  8
レイヤー_1
  6
CONTINUOUS
 62
     3
 10
-104.6807540199999949
 20
-62.201309160000001
 30
0.0
 11
-104.6668618199999941
 21
-62.2127079099999989
 31
0.0
  0
LINE
  5
22E
  8
レイヤー_1
  6
CONTINUOUS
 62
     3
 10
-104.6668618199999941
 20
-62.2127079099999989
 30
0.0
 11
-104.6542045999999999
 21
-62.223093310000003
 31
0.0
  0
LINE
  5
22F
  8
レイヤー_1
  6
CONTINUOUS
 62
     3
 10
-104.6542045999999999
 20
-62.223093310000003
 30
0.0
 11
-104.6432925200000028
 21
-62.2320468099999999
 31
0.0
  0
LINE
  5
230
  8
レイヤー_1
  6
CONTINUOUS
 62
     3
 10
-104.6432925200000028
 20
-62.2320468099999999
 30
0.0
 11
-104.6346356699999944
 21
-62.2391498599999977
 31
0.0
  0
LINE
  5
231
  8
レイヤー_1
  6
CONTINUOUS
 62
     3
 10
-104.6346356699999944
 20
-62.2391498599999977
 30
0.0
 11
-104.6287441700000045
 21
-62.2439839099999972
 31
0.0
  0
LINE
  5
232
  8
レイヤー_1
  6
CONTINUOUS
 62
     3
 10
-104.6246977699999974
 20
-62.24691803999999
 30
0.0
 11
-104.6194455199999993
 21
-62.2497201099999984
 31
0.0
  0
LINE
  5
233
  8
レイヤー_1
  6
CONTINUOUS
 62
     3
 10
-104.6194455199999993
 20
-62.2497201099999984
 30
0.0
 11
-104.6107716500000038
 21
-62.2543476100000035
 31
0.0
  0
LINE
  5
234
  8
レイヤー_1
  6
CONTINUOUS
 62
     3
 10
-104.6107716500000038
 20
-62.2543476100000035
 30
0.0
 11
-104.5992618199999953
 21
-62.2604880900000026
 31
0.0
  0
LINE
  5
235
  8
レイヤー_1
  6
CONTINUOUS
 62
     3
 10
-104.5992618199999953
 20
-62.2604880900000026
 30
0.0
 11
-104.5855017500000059
 21
-62.2678290599999968
 31
0.0
  0
LINE
  5
236
  8
レイヤー_1
  6
CONTINUOUS
 62
     3
 10
-104.5855017500000059
 20
-62.2678290599999968
 30
0.0
 11
-104.5700770699999964
 21
-62.276058110000001
 31
0.0
  0
LINE
  5
237
  8
レイヤー_1
  6
CONTINUOUS
 62
     3
 10
-104.5700770699999964
 20
-62.276058110000001
 30
0.0
 11
-104.5535734999999988
 21
-62.2848627400000012
 31
0.0
  0
LINE
  5
238
  8
レイヤー_1
  6
CONTINUOUS
 62
     3
 10
-104.5535734999999988
 20
-62.2848627400000012
 30
0.0
 11
-104.5365767199999993
 21
-62.2939305100000027
 31
0.0
  0
LINE
  5
239
  8
レイヤー_1
  6
CONTINUOUS
 62
     3
 10
-104.5365767199999993
 20
-62.2939305100000027
 30
0.0
 11
-104.5196724200000062
 21
-62.3029489400000003
 31
0.0
  0
LINE
  5
23A
  8
レイヤー_1
  6
CONTINUOUS
 62
     3
 10
-104.5196724200000062
 20
-62.3029489400000003
 30
0.0
 11
-104.5034463199999948
 21
-62.3116055400000022
 31
0.0
  0
LINE
  5
23B
  8
レイヤー_1
  6
CONTINUOUS
 62
     3
 10
-104.5034463199999948
 20
-62.3116055400000022
 30
0.0
 11
-104.4884840200000014
 21
-62.3195879100000028
 31
0.0
  0
LINE
  5
23C
  8
レイヤー_1
  6
CONTINUOUS
 62
     3
 10
-104.4884840200000014
 20
-62.3195879100000028
 30
0.0
 11
-104.4753712499999949
 21
-62.3265835400000014
 31
0.0
  0
LINE
  5
23D
  8
レイヤー_1
  6
CONTINUOUS
 62
     3
 10
-104.4753712499999949
 20
-62.3265835400000014
 30
0.0
 11
-104.4646937199999996
 21
-62.3322800099999981
 31
0.0
  0
LINE
  5
23E
  8
レイヤー_1
  6
CONTINUOUS
 62
     3
 10
-104.4646937199999996
 20
-62.3322800099999981
 30
0.0
 11
-104.4570371199999954
 21
-62.3363648099999992
 31
0.0
  0
LINE
  5
23F
  8
レイヤー_1
  6
CONTINUOUS
 62
     3
 10
-104.4529870500000044
 20
-62.3385254900000021
 30
0.0
 11
-104.4518446200000028
 21
-62.3389840899999967
 31
0.0
  0
LINE
  5
240
  8
レイヤー_1
  6
CONTINUOUS
 62
     3
 10
-104.4472628999999984
 20
-62.3403670599999984
 30
0.0
 11
-104.4388303199999939
 21
-62.3429123599999997
 31
0.0
  0
LINE
  5
241
  8
レイヤー_1
  6
CONTINUOUS
 62
     3
 10
-104.4388303199999939
 20
-62.3429123599999997
 30
0.0
 11
-104.4271776700000061
 21
-62.3464296399999895
 31
0.0
  0
LINE
  5
242
  8
レイヤー_1
  6
CONTINUOUS
 62
     3
 10
-104.4271776700000061
 20
-62.3464296399999895
 30
0.0
 11
-104.4129357000000056
 21
-62.3507284900000016
 31
0.0
  0
LINE
  5
243
  8
レイヤー_1
  6
CONTINUOUS
 62
     3
 10
-104.4129357000000056
 20
-62.3507284900000016
 30
0.0
 11
-104.3967351000000008
 21
-62.3556185400000018
 31
0.0
  0
LINE
  5
244
  8
レイヤー_1
  6
CONTINUOUS
 62
     3
 10
-104.3967351000000008
 20
-62.3556185400000018
 30
0.0
 11
-104.3792066700000021
 21
-62.3609093900000033
 31
0.0
  0
LINE
  5
245
  8
レイヤー_1
  6
CONTINUOUS
 62
     3
 10
-104.3792066700000021
 20
-62.3609093900000033
 30
0.0
 11
-104.3609810500000066
 21
-62.3664106599999997
 31
0.0
  0
LINE
  5
246
  8
レイヤー_1
  6
CONTINUOUS
 62
     3
 10
-104.3609810500000066
 20
-62.3664106599999997
 30
0.0
 11
-104.3426890500000042
 21
-62.3719319599999906
 31
0.0
  0
LINE
  5
247
  8
レイヤー_1
  6
CONTINUOUS
 62
     3
 10
-104.3426890500000042
 20
-62.3719319599999906
 30
0.0
 11
-104.324961419999994
 21
-62.3772829400000006
 31
0.0
  0
LINE
  5
248
  8
レイヤー_1
  6
CONTINUOUS
 62
     3
 10
-104.324961419999994
 20
-62.3772829400000006
 30
0.0
 11
-104.3084288499999985
 21
-62.3822731899999923
 31
0.0
  0
LINE
  5
249
  8
レイヤー_1
  6
CONTINUOUS
 62
     3
 10
-104.3084288499999985
 20
-62.3822731899999923
 30
0.0
 11
-104.2937221199999982
 21
-62.3867123100000001
 31
0.0
  0
LINE
  5
24A
  8
レイヤー_1
  6
CONTINUOUS
 62
     3
 10
-104.2937221199999982
 20
-62.3867123100000001
 30
0.0
 11
-104.2814719200000013
 21
-62.3904099399999907
 31
0.0
  0
LINE
  5
24B
  8
レイヤー_1
  6
CONTINUOUS
 62
     3
 10
-104.2814719200000013
 20
-62.3904099399999907
 30
0.0
 11
-104.2723090700000057
 21
-62.3931757100000013
 31
0.0
  0
LINE
  5
24C
  8
レイヤー_1
  6
CONTINUOUS
 62
     3
 10
-104.2723090700000057
 20
-62.3931757100000013
 30
0.0
 11
-104.2668642000000006
 21
-62.3948191899999998
 31
0.0
  0
LINE
  5
24D
  8
レイヤー_1
  6
CONTINUOUS
 62
     3
 10
-104.2618124199999983
 20
-62.3955771400000003
 30
0.0
 11
-104.2540046000000018
 21
-62.3963527399999975
 31
0.0
  0
LINE
  5
24E
  8
レイヤー_1
  6
CONTINUOUS
 62
     3
 10
-104.2540046000000018
 20
-62.3963527399999975
 30
0.0
 11
-104.2426624699999991
 21
-62.3974794399999979
 31
0.0
  0
LINE
  5
24F
  8
レイヤー_1
  6
CONTINUOUS
 62
     3
 10
-104.2426624699999991
 20
-62.3974794399999979
 30
0.0
 11
-104.2284444000000008
 21
-62.3988918399999903
 31
0.0
  0
LINE
  5
250
  8
レイヤー_1
  6
CONTINUOUS
 62
     3
 10
-104.2284444000000008
 20
-62.3988918399999903
 30
0.0
 11
-104.2120087499999954
 21
-62.4005245099999968
 31
0.0
  0
LINE
  5
251
  8
レイヤー_1
  6
CONTINUOUS
 62
     3
 10
-104.2120087499999954
 20
-62.4005245099999968
 30
0.0
 11
-104.194013819999995
 21
-62.4023120900000023
 31
0.0
  0
LINE
  5
252
  8
レイヤー_1
  6
CONTINUOUS
 62
     3
 10
-104.194013819999995
 20
-62.4023120900000023
 30
0.0
 11
-104.1751179700000023
 21
-62.4041891600000014
 31
0.0
  0
LINE
  5
253
  8
レイヤー_1
  6
CONTINUOUS
 62
     3
 10
-104.1751179700000023
 20
-62.4041891600000014
 30
0.0
 11
-104.1559795999999949
 21
-62.4060903100000033
 31
0.0
  0
LINE
  5
254
  8
レイヤー_1
  6
CONTINUOUS
 62
     3
 10
-104.1559795999999949
 20
-62.4060903100000033
 30
0.0
 11
-104.1372570200000069
 21
-62.4079501900000011
 31
0.0
  0
LINE
  5
255
  8
レイヤー_1
  6
CONTINUOUS
 62
     3
 10
-104.1372570200000069
 20
-62.4079501900000011
 30
0.0
 11
-104.1196086000000065
 21
-62.4097033400000001
 31
0.0
  0
LINE
  5
256
  8
レイヤー_1
  6
CONTINUOUS
 62
     3
 10
-104.1196086000000065
 20
-62.4097033400000001
 30
0.0
 11
-104.1036926700000009
 21
-62.4112843899999987
 31
0.0
  0
LINE
  5
257
  8
レイヤー_1
  6
CONTINUOUS
 62
     3
 10
-104.1036926700000009
 20
-62.4112843899999987
 30
0.0
 11
-104.0901676200000026
 21
-62.4126279400000001
 31
0.0
  0
LINE
  5
258
  8
レイヤー_1
  6
CONTINUOUS
 62
     3
 10
-104.0901676200000026
 20
-62.4126279400000001
 30
0.0
 11
-104.0796917199999996
 21
-62.4136685900000003
 31
0.0
  0
LINE
  5
259
  8
レイヤー_1
  6
CONTINUOUS
 62
     3
 10
-104.0796917199999996
 20
-62.4136685900000003
 30
0.0
 11
-104.0729234199999951
 21
-62.4143409400000024
 31
0.0
  0
LINE
  5
25A
  8
レイヤー_1
  6
CONTINUOUS
 62
     3
 10
-91.575159670000005
 20
-62.4145795900000024
 30
0.0
 11
-91.5282069700000136
 21
-62.4134740900000011
 31
0.0
  0
LINE
  5
25B
  8
レイヤー_1
  6
CONTINUOUS
 62
     3
 10
-91.5282069700000136
 20
-62.4134740900000011
 30
0.0
 11
-91.4815749499999953
 21
-62.4101797599999983
 31
0.0
  0
LINE
  5
25C
  8
レイヤー_1
  6
CONTINUOUS
 62
     3
 10
-91.4815749499999953
 20
-62.4101797599999983
 30
0.0
 11
-91.4353324700000059
 21
-62.4047298899999987
 31
0.0
  0
LINE
  5
25D
  8
レイヤー_1
  6
CONTINUOUS
 62
     3
 10
-91.4353324700000059
 20
-62.4047298899999987
 30
0.0
 11
-91.3895482700000059
 21
-62.3971577399999973
 31
0.0
  0
LINE
  5
25E
  8
レイヤー_1
  6
CONTINUOUS
 62
     3
 10
-91.3895482700000059
 20
-62.3971577399999973
 30
0.0
 11
-91.3442911700000053
 21
-62.3874965600000024
 31
0.0
  0
LINE
  5
25F
  8
レイヤー_1
  6
CONTINUOUS
 62
     3
 10
-91.3442911700000053
 20
-62.3874965600000024
 30
0.0
 11
-91.2996300199999951
 21
-62.3757796399999904
 31
0.0
  0
LINE
  5
260
  8
レイヤー_1
  6
CONTINUOUS
 62
     3
 10
-91.2996300199999951
 20
-62.3757796399999904
 30
0.0
 11
-91.2556335000000018
 21
-62.3620402100000035
 31
0.0
  0
LINE
  5
261
  8
レイヤー_1
  6
CONTINUOUS
 62
     3
 10
-91.2556335000000018
 20
-62.3620402100000035
 30
0.0
 11
-91.2123704499999945
 21
-62.3463115899999991
 31
0.0
  0
LINE
  5
262
  8
レイヤー_1
  6
CONTINUOUS
 62
     3
 10
-91.2123704499999945
 20
-62.3463115899999991
 30
0.0
 11
-91.1699097000000052
 21
-62.3286269899999965
 31
0.0
  0
LINE
  5
263
  8
レイヤー_1
  6
CONTINUOUS
 62
     3
 10
-91.1699097000000052
 20
-62.3286269899999965
 30
0.0
 11
-91.1283200200000039
 21
-62.3090197100000012
 31
0.0
  0
LINE
  5
264
  8
レイヤー_1
  6
CONTINUOUS
 62
     3
 10
-91.1283200200000039
 20
-62.3090197100000012
 30
0.0
 11
-91.0876702200000068
 21
-62.287523010000001
 31
0.0
  0
LINE
  5
265
  8
レイヤー_1
  6
CONTINUOUS
 62
     3
 10
-91.0876702200000068
 20
-62.287523010000001
 30
0.0
 11
-91.0480290699999841
 21
-62.264170159999999
 31
0.0
  0
LINE
  5
266
  8
レイヤー_1
  6
CONTINUOUS
 62
     3
 10
-91.0480290699999841
 20
-62.264170159999999
 30
0.0
 11
-91.0094653700000009
 21
-62.238994439999999
 31
0.0
  0
LINE
  5
267
  8
レイヤー_1
  6
CONTINUOUS
 62
     3
 10
-91.0094653700000009
 20
-62.238994439999999
 30
0.0
 11
-90.9720479199999943
 21
-62.212029059999999
 31
0.0
  0
LINE
  5
268
  8
レイヤー_1
  6
CONTINUOUS
 62
     3
 10
-90.9720479199999943
 20
-62.212029059999999
 30
0.0
 11
-90.9358454999999992
 21
-62.1833073600000006
 31
0.0
  0
LINE
  5
269
  8
レイヤー_1
  6
CONTINUOUS
 62
     3
 10
-90.9358454999999992
 20
-62.1833073600000006
 30
0.0
 11
-90.9009269200000034
 21
-62.1528625600000026
 31
0.0
  0
LINE
  5
26A
  8
レイヤー_1
  6
CONTINUOUS
 62
     3
 10
-90.9009269200000034
 20
-62.1528625600000026
 30
0.0
 11
-90.8673610000000167
 21
-62.1207279600000106
 31
0.0
  0
LINE
  5
26B
  8
レイヤー_1
  6
CONTINUOUS
 62
     3
 10
-90.8673610000000167
 20
-62.1207279600000106
 30
0.0
 11
-90.835216470000006
 21
-62.0869367900000029
 31
0.0
  0
LINE
  5
26C
  8
レイヤー_1
  6
CONTINUOUS
 62
     3
 10
-90.835216470000006
 20
-62.0869367900000029
 30
0.0
 11
-90.8045622000000066
 21
-62.0515223399999911
 31
0.0
  0
LINE
  5
26D
  8
レイヤー_1
  6
CONTINUOUS
 62
     3
 10
-90.8045622000000066
 20
-62.0515223399999911
 30
0.0
 11
-90.7754669000000121
 21
-62.0145178599999909
 31
0.0
  0
LINE
  5
384
  8
レイヤー_1
  6
CONTINUOUS
 62
     3
 10
107.8988833800000009
 20
-62.4042443100000028
 30
0.0
 11
113.6926727000000028
 21
-62.4042443100000028
 31
0.0
  0
LINE
  5
385
  8
レイヤー_1
  6
CONTINUOUS
 62
     3
 10
105.8008202299999994
 20
56.5101165600000002
 30
0.0
 11
99.0734099999999955
 21
56.5101165600000002
 31
0.0
  0
LINE
  5
386
  8
レイヤー_1
  6
CONTINUOUS
 62
     3
 10
113.2921803499999953
 20
58.75804136
 30
0.0
 11
113.2921803499999953
 21
52.9125756099999975
 31
0.0
  0
LINE
  5
387
  8
レイヤー_1
  6
CONTINUOUS
 62
     3
 10
107.2985754799999967
 20
58.75804136
 30
0.0
 11
107.2985754799999967
 21
58.0087330899999927
 31
0.0
  0
LINE
  5
388
  8
レイヤー_1
  6
CONTINUOUS
 62
     3
 10
113.2921803499999953
 20
52.9125756099999975
 30
0.0
 11
109.7954084299999948
 21
49.4149424100000019
 31
0.0
  0
LINE
  5
389
  8
レイヤー_1
  6
CONTINUOUS
 62
     3
 10
109.7954084299999948
 20
48.9253082099999972
 30
0.0
 11
109.7954084299999948
 21
49.4149424100000019
 31
0.0
  0
LINE
  5
38A
  8
レイヤー_1
  6
CONTINUOUS
 62
     3
 10
105.8008202299999994
 20
55.0115000400000014
 30
0.0
 11
99.7977413299999938
 21
55.0115000400000014
 31
0.0
  0
LINE
  5
38B
  8
レイヤー_1
  6
CONTINUOUS
 62
     3
 10
111.794425099999998
 20
58.75804136
 30
0.0
 11
111.794425099999998
 21
53.5335540600000002
 31
0.0
  0
LINE
  5
38C
  8
レイヤー_1
  6
CONTINUOUS
 62
     3
 10
111.794425099999998
 20
53.5335540600000002
 30
0.0
 11
108.2976531799999975
 21
50.0359208599999974
 31
0.0
  0
LINE
  5
38D
  8
レイヤー_1
  6
CONTINUOUS
 62
     3
 10
108.2976531799999975
 20
49.0816294099999979
 30
0.0
 11
108.2976531799999975
 21
50.0359208599999974
 31
0.0
  0
LINE
  5
38E
  8
レイヤー_1
  6
CONTINUOUS
 62
     3
 10
108.797192030000005
 20
58.75804136
 30
0.0
 11
108.797192030000005
 21
58.0087330899999927
 31
0.0
  0
LINE
  5
38F
  8
レイヤー_1
  6
CONTINUOUS
 62
     3
 10
113.1939951300000047
 20
-62.4042443100000028
 30
0.0
 11
113.1939951300000047
 21
-62.7039676099999994
 31
0.0
  0
LINE
  5
390
  8
レイヤー_1
  6
CONTINUOUS
 62
     3
 10
113.1939951300000047
 20
-62.7039676099999994
 30
0.0
 11
111.1949784800000032
 21
-63.9037221099999897
 31
0.0
  0
LINE
  5
391
  8
レイヤー_1
  6
CONTINUOUS
 62
     3
 10
111.1949784800000032
 20
-63.9037221099999897
 30
0.0
 11
110.1959007800000023
 21
-63.9037221099999897
 31
0.0
  0
LINE
  5
392
  8
レイヤー_1
  6
CONTINUOUS
 62
     3
 10
110.1959007800000023
 20
-63.9037221099999897
 30
0.0
 11
110.1959007800000023
 21
-62.90421379
 31
0.0
  0
LINE
  5
393
  8
レイヤー_1
  6
CONTINUOUS
 62
     3
 10
110.1959007800000023
 20
-62.90421379
 30
0.0
 11
107.8988833800000009
 21
-62.90421379
 31
0.0
  0
LINE
  5
394
  8
レイヤー_1
  6
CONTINUOUS
 62
     3
 10
23.5784488299999992
 20
-62.6466928899999971
 30
0.0
 11
5.2944657999999993
 21
-62.6466928899999971
 31
0.0
  0
LINE
  5
395
  8
レイヤー_1
  6
CONTINUOUS
 62
     3
 10
5.2944657999999993
 20
-62.6466928899999971
 30
0.0
 11
5.2944657999999993
 21
55.2604081899999997
 31
0.0
  0
LINE
  5
396
  8
レイヤー_1
  6
CONTINUOUS
 62
     3
 10
5.2944657999999993
 20
55.2604081899999997
 30
0.0
 11
23.5284949300000008
 21
55.2604081899999997
 31
0.0
  0
LINE
  5
397
  8
レイヤー_1
  6
CONTINUOUS
 62
     3
 10
-75.2876095000000021
 20
58.1064876900000016
 30
0.0
 11
-73.0896385700000053
 21
58.1064876900000016
 31
0.0
  0
LINE
  5
398
  8
レイヤー_1
  6
CONTINUOUS
 62
     3
 10
-73.0896385700000053
 20
58.1064876900000016
 30
0.0
 11
-73.0896385700000053
 21
59.1055653599999999
 31
0.0
  0
LINE
  5
399
  8
レイヤー_1
  6
CONTINUOUS
 62
     3
 10
-73.0896385700000053
 20
59.1055653599999999
 30
0.0
 11
-75.2876095000000021
 21
59.1055653599999999
 31
0.0
  0
LINE
  5
39A
  8
レイヤー_1
  6
CONTINUOUS
 62
     3
 10
-75.2876095000000021
 20
59.1055653599999999
 30
0.0
 11
-75.2876095000000021
 21
58.1064876900000016
 31
0.0
  0
LINE
  5
39B
  8
レイヤー_1
  6
CONTINUOUS
 62
     3
 10
-81.100346849999994
 20
64.1026763899999992
 30
0.0
 11
-88.574912150000003
 21
64.1026763899999992
 31
0.0
  0
LINE
  5
39C
  8
レイヤー_1
  6
CONTINUOUS
 62
     3
 10
-92.5746680000000168
 20
-53.7876298600000027
 30
0.0
 11
-93.5746069700000049
 21
-54.3875071100000014
 31
0.0
  0
LINE
  5
39D
  8
レイヤー_1
  6
CONTINUOUS
 62
     3
 10
-103.6015573699999948
 20
-60.4155629400000009
 30
0.0
 11
-93.5746069700000049
 21
-54.3875071100000014
 31
0.0
  0
LINE
  5
39E
  8
レイヤー_1
  6
CONTINUOUS
 62
     3
 10
-105.0700293200000033
 20
-50.595748890000003
 30
0.0
 11
-104.0705209999999994
 21
-49.9941490900000005
 31
0.0
  0
LINE
  5
39F
  8
レイヤー_1
  6
CONTINUOUS
 62
     3
 10
-92.5746680000000168
 20
-43.0871632899999994
 30
0.0
 11
-93.5746069700000049
 21
-43.6866098899999997
 31
0.0
  0
LINE
  5
3A0
  8
レイヤー_1
  6
CONTINUOUS
 62
     3
 10
-92.5746680000000168
 20
-43.0871632899999994
 30
0.0
 11
-92.5746680000000168
 21
-44.569415609999993
 31
0.0
  0
LINE
  5
3A1
  8
レイヤー_1
  6
CONTINUOUS
 62
     3
 10
-104.0705209999999994
 20
-49.9941490900000005
 30
0.0
 11
-93.5746069700000049
 21
-43.6866098899999997
 31
0.0
  0
LINE
  5
3A2
  8
レイヤー_1
  6
CONTINUOUS
 62
     3
 10
-104.0705209999999994
 20
-49.9941490900000005
 30
0.0
 11
-104.0705209999999994
 21
-51.4776933400000019
 31
0.0
  0
LINE
  5
3A3
  8
レイヤー_1
  6
CONTINUOUS
 62
     3
 10
-93.5746069700000049
 20
-43.6866098899999997
 30
0.0
 11
-93.5746069700000049
 21
-45.1701541400000011
 31
0.0
  0
LINE
  5
3A4
  8
レイヤー_1
  6
CONTINUOUS
 62
     3
 10
-105.0700293200000033
 20
-39.8944210399999974
 30
0.0
 11
-104.0705209999999994
 21
-39.2936825099999965
 31
0.0
  0
LINE
  5
3A5
  8
レイヤー_1
  6
CONTINUOUS
 62
     3
 10
-92.5746680000000168
 20
-32.3854047900000026
 30
0.0
 11
-93.5746069700000049
 21
-32.9861433100000028
 31
0.0
  0
LINE
  5
3A6
  8
レイヤー_1
  6
CONTINUOUS
 62
     3
 10
-92.5746680000000168
 20
-32.3854047900000026
 30
0.0
 11
-92.5746680000000168
 21
-33.8680877600000017
 31
0.0
  0
LINE
  5
3A7
  8
レイヤー_1
  6
CONTINUOUS
 62
     3
 10
-104.0705209999999994
 20
-39.2936825099999965
 30
0.0
 11
-93.5746069700000049
 21
-32.9861433100000028
 31
0.0
  0
LINE
  5
3A8
  8
レイヤー_1
  6
CONTINUOUS
 62
     3
 10
-104.0705209999999994
 20
-39.2936825099999965
 30
0.0
 11
-104.0705209999999994
 21
-40.7772267599999907
 31
0.0
  0
LINE
  5
3A9
  8
レイヤー_1
  6
CONTINUOUS
 62
     3
 10
-93.5746069700000049
 20
-32.9861433100000028
 30
0.0
 11
-93.5746069700000049
 21
-34.469687559999997
 31
0.0
  0
LINE
  5
3AA
  8
レイヤー_1
  6
CONTINUOUS
 62
     3
 10
-105.0700293200000033
 20
-29.1935238099999985
 30
0.0
 11
-104.0705209999999994
 21
-28.5932159400000003
 31
0.0
  0
LINE
  5
3AB
  8
レイヤー_1
  6
CONTINUOUS
 62
     3
 10
-92.5746680000000168
 20
-21.6840769400000006
 30
0.0
 11
-93.5746069700000049
 21
-22.2843848400000013
 31
0.0
  0
LINE
  5
3AC
  8
レイヤー_1
  6
CONTINUOUS
 62
     3
 10
-92.5746680000000168
 20
-21.6840769400000006
 30
0.0
 11
-92.5746680000000168
 21
-23.1663292600000013
 31
0.0
  0
LINE
  5
3AD
  8
レイヤー_1
  6
CONTINUOUS
 62
     3
 10
-104.0705209999999994
 20
-28.5932159400000003
 30
0.0
 11
-93.5746069700000049
 21
-22.2843848400000013
 31
0.0
  0
LINE
  5
3AE
  8
レイヤー_1
  6
CONTINUOUS
 62
     3
 10
-104.0705209999999994
 20
-28.5932159400000003
 30
0.0
 11
-104.0705209999999994
 21
-30.0763295399999997
 31
0.0
  0
LINE
  5
3AF
  8
レイヤー_1
  6
CONTINUOUS
 62
     3
 10
-93.5746069700000049
 20
-22.2843848400000013
 30
0.0
 11
-93.5746069700000049
 21
-23.7679290600000002
 31
0.0
  0
LINE
  5
3B0
  8
レイヤー_1
  6
CONTINUOUS
 62
     3
 10
-105.0700293200000033
 20
-18.4930572399999988
 30
0.0
 11
-104.0705209999999994
 21
-17.8914574399999999
 31
0.0
  0
LINE
  5
3B1
  8
レイヤー_1
  6
CONTINUOUS
 62
     3
 10
-92.5746680000000168
 20
-10.9823184600000001
 30
0.0
 11
-93.5746069700000049
 21
-11.5839182600000008
 31
0.0
  0
LINE
  5
3B2
  8
レイヤー_1
  6
CONTINUOUS
 62
     3
 10
-92.5746680000000168
 20
-10.9823184600000001
 30
0.0
 11
-92.5746680000000168
 21
-12.4658626899999998
 31
0.0
  0
LINE
  5
3B3
  8
レイヤー_1
  6
CONTINUOUS
 62
     3
 10
-104.0705209999999994
 20
-17.8914574399999999
 30
0.0
 11
-93.5746069700000049
 21
-11.5839182600000008
 31
0.0
  0
LINE
  5
3B4
  8
レイヤー_1
  6
CONTINUOUS
 62
     3
 10
-104.0705209999999994
 20
-17.8914574399999999
 30
0.0
 11
-104.0705209999999994
 21
-19.3750016900000013
 31
0.0
  0
LINE
  5
3B5
  8
レイヤー_1
  6
CONTINUOUS
 62
     3
 10
-93.5746069700000049
 20
-11.5839182600000008
 30
0.0
 11
-93.5746069700000049
 21
-13.0674624900000005
 31
0.0
  0
LINE
  5
3B6
  8
レイヤー_1
  6
CONTINUOUS
 62
     3
 10
-105.0700293200000033
 20
-7.7917293900000004
 30
0.0
 11
-104.0705209999999994
 21
-7.1909908600000003
 31
0.0
  0
LINE
  5
3B7
  8
レイヤー_1
  6
CONTINUOUS
 62
     3
 10
-92.5746680000000168
 20
-0.28185186
 30
0.0
 11
-93.5746069700000049
 21
-0.8825903899999999
 31
0.0
  0
LINE
  5
3B8
  8
レイヤー_1
  6
CONTINUOUS
 62
     3
 10
-92.5746680000000168
 20
-0.28185186
 30
0.0
 11
-92.5746680000000168
 21
-1.76539611
 31
0.0
  0
LINE
  5
3B9
  8
レイヤー_1
  6
CONTINUOUS
 62
     3
 10
-104.0705209999999994
 20
-7.1909908600000003
 30
0.0
 11
-93.5746069700000049
 21
-0.8825903899999999
 31
0.0
  0
LINE
  5
3BA
  8
レイヤー_1
  6
CONTINUOUS
 62
     3
 10
-104.0705209999999994
 20
-7.1909908600000003
 30
0.0
 11
-104.0705209999999994
 21
-8.6736738399999993
 31
0.0
  0
LINE
  5
3BB
  8
レイヤー_1
  6
CONTINUOUS
 62
     3
 10
-93.5746069700000049
 20
-0.8825903899999999
 30
0.0
 11
-93.5746069700000049
 21
-2.3657040099999991
 31
0.0
  0
LINE
  5
3BC
  8
レイヤー_1
  6
CONTINUOUS
 62
     3
 10
-105.0700293200000033
 20
2.9100290900000001
 30
0.0
 11
-104.0705209999999994
 21
3.5107676099999989
 31
0.0
  0
LINE
  5
3BD
  8
レイヤー_1
  6
CONTINUOUS
 62
     3
 10
-92.5746680000000168
 20
10.41990661
 30
0.0
 11
-93.5746069700000049
 21
9.8183068099999993
 31
0.0
  0
LINE
  5
3BE
  8
レイヤー_1
  6
CONTINUOUS
 62
     3
 10
-92.5746680000000168
 20
10.41990661
 30
0.0
 11
-92.5746680000000168
 21
8.9363623600000004
 31
0.0
  0
LINE
  5
3BF
  8
レイヤー_1
  6
CONTINUOUS
 62
     3
 10
-104.0705209999999994
 20
3.5107676099999989
 30
0.0
 11
-93.5746069700000049
 21
9.8183068099999993
 31
0.0
  0
LINE
  5
3C0
  8
レイヤー_1
  6
CONTINUOUS
 62
     3
 10
-104.0705209999999994
 20
3.5107676099999989
 30
0.0
 11
-104.0705209999999994
 21
2.0272233900000001
 31
0.0
  0
LINE
  5
3C1
  8
レイヤー_1
  6
CONTINUOUS
 62
     3
 10
-93.5746069700000049
 20
9.8183068099999993
 30
0.0
 11
-93.5746069700000049
 21
8.3356238400000002
 31
0.0
  0
LINE
  5
3C2
  8
レイヤー_1
  6
CONTINUOUS
 62
     3
 10
-105.0700293200000033
 20
13.6104956599999998
 30
0.0
 11
-104.0705209999999994
 21
14.2112341900000008
 31
0.0
  0
LINE
  5
3C3
  8
レイヤー_1
  6
CONTINUOUS
 62
     3
 10
-92.5746680000000168
 20
21.1203731899999987
 30
0.0
 11
-93.5746069700000049
 21
20.5196346600000012
 31
0.0
  0
LINE
  5
3C4
  8
レイヤー_1
  6
CONTINUOUS
 62
     3
 10
-92.5746680000000168
 20
21.1203731899999987
 30
0.0
 11
-92.5746680000000168
 21
19.6368289400000009
 31
0.0
  0
LINE
  5
3C5
  8
レイヤー_1
  6
CONTINUOUS
 62
     3
 10
-104.0705209999999994
 20
14.2112341900000008
 30
0.0
 11
-93.5746069700000049
 21
20.5196346600000012
 31
0.0
  0
LINE
  5
3C6
  8
レイヤー_1
  6
CONTINUOUS
 62
     3
 10
-104.0705209999999994
 20
14.2112341900000008
 30
0.0
 11
-104.0705209999999994
 21
12.7285512399999998
 31
0.0
  0
LINE
  5
3C7
  8
レイヤー_1
  6
CONTINUOUS
 62
     3
 10
-93.5746069700000049
 20
20.5196346600000012
 30
0.0
 11
-93.5746069700000049
 21
19.0360904099999999
 31
0.0
  0
LINE
  5
3C8
  8
レイヤー_1
  6
CONTINUOUS
 62
     3
 10
-105.0700293200000033
 20
24.3122541599999984
 30
0.0
 11
-104.0705209999999994
 21
24.912562040000001
 31
0.0
  0
LINE
  5
3C9
  8
レイヤー_1
  6
CONTINUOUS
 62
     3
 10
-92.5746680000000168
 20
31.8208397599999984
 30
0.0
 11
-93.5746069700000049
 21
31.2213931600000016
 31
0.0
  0
LINE
  5
3CA
  8
レイヤー_1
  6
CONTINUOUS
 62
     3
 10
-92.5746680000000168
 20
31.8208397599999984
 30
0.0
 11
-92.5746680000000168
 21
30.3385874400000013
 31
0.0
  0
LINE
  5
3CB
  8
レイヤー_1
  6
CONTINUOUS
 62
     3
 10
-104.0705209999999994
 20
24.912562040000001
 30
0.0
 11
-93.5746069700000049
 21
31.2213931600000016
 31
0.0
  0
LINE
  5
3CC
  8
レイヤー_1
  6
CONTINUOUS
 62
     3
 10
-104.0705209999999994
 20
24.912562040000001
 30
0.0
 11
-104.0705209999999994
 21
23.4294484400000016
 31
0.0
  0
LINE
  5
3CD
  8
レイヤー_1
  6
CONTINUOUS
 62
     3
 10
-93.5746069700000049
 20
31.2213931600000016
 30
0.0
 11
-93.5746069700000049
 21
29.7378489100000003
 31
0.0
  0
LINE
  5
3CE
  8
レイヤー_1
  6
CONTINUOUS
 62
     3
 10
-105.0700293200000033
 20
35.0127207399999989
 30
0.0
 11
-104.0705209999999994
 21
35.6143205400000014
 31
0.0
  0
LINE
  5
3CF
  8
レイヤー_1
  6
CONTINUOUS
 62
     3
 10
-92.5746680000000168
 20
42.5225982600000023
 30
0.0
 11
-93.5746069700000049
 21
41.9218597400000021
 31
0.0
  0
LINE
  5
3D0
  8
レイヤー_1
  6
CONTINUOUS
 62
     3
 10
-92.5746680000000168
 20
42.5225982600000023
 30
0.0
 11
-92.5746680000000168
 21
41.0399152900000033
 31
0.0
  0
LINE
  5
3D1
  8
レイヤー_1
  6
CONTINUOUS
 62
     3
 10
-104.0705209999999994
 20
35.6143205400000014
 30
0.0
 11
-93.5746069700000049
 21
41.9218597400000021
 31
0.0
  0
LINE
  5
3D2
  8
レイヤー_1
  6
CONTINUOUS
 62
     3
 10
-104.0705209999999994
 20
35.6143205400000014
 30
0.0
 11
-104.0705209999999994
 21
34.13077629
 31
0.0
  0
LINE
  5
3D3
  8
レイヤー_1
  6
CONTINUOUS
 62
     3
 10
-93.5746069700000049
 20
41.9218597400000021
 30
0.0
 11
-93.5746069700000049
 21
40.4383154900000008
 31
0.0
  0
LINE
  5
3D4
  8
レイヤー_1
  6
CONTINUOUS
 62
     3
 10
-81.100346849999994
 20
65.1021847100000031
 30
0.0
 11
-81.100346849999994
 21
54.400426209999992
 31
0.0
  0
LINE
  5
3D5
  8
レイヤー_1
  6
CONTINUOUS
 62
     3
 10
-81.100346849999994
 20
54.400426209999992
 30
0.0
 11
-88.574912150000003
 21
54.400426209999992
 31
0.0
  0
LINE
  5
3D6
  8
レイヤー_1
  6
CONTINUOUS
 62
     3
 10
-88.574912150000003
 20
54.400426209999992
 30
0.0
 11
-88.574912150000003
 21
65.1142425400000064
 31
0.0
  0
LINE
  5
3D7
  8
レイヤー_1
  6
CONTINUOUS
 62
     3
 10
-79.2834896199999974
 20
59.1064266400000022
 30
0.0
 11
-77.085949350000007
 21
59.1064266400000022
 31
0.0
  0
LINE
  5
3D8
  8
レイヤー_1
  6
CONTINUOUS
 62
     3
 10
-77.085949350000007
 20
59.1064266400000022
 30
0.0
 11
-77.085949350000007
 21
58.107348960000003
 31
0.0
  0
LINE
  5
3D9
  8
レイヤー_1
  6
CONTINUOUS
 62
     3
 10
-77.085949350000007
 20
58.107348960000003
 30
0.0
 11
-79.2834896199999974
 21
58.107348960000003
 31
0.0
  0
LINE
  5
3DA
  8
レイヤー_1
  6
CONTINUOUS
 62
     3
 10
-79.2834896199999974
 20
58.107348960000003
 30
0.0
 11
-79.2834896199999974
 21
59.1064266400000022
 31
0.0
  0
LINE
  5
3DB
  8
レイヤー_1
  6
CONTINUOUS
 62
     3
 10
-90.5760819999999995
 20
53.5645599099999998
 30
0.0
 11
-90.5760819999999995
 21
-61.4146406099999993
 31
0.0
  0
LINE
  5
3DC
  8
レイヤー_1
  6
CONTINUOUS
 62
     3
 10
-105.0700293200000033
 20
-60.4155629400000009
 30
0.0
 11
-90.5760819999999995
 21
-60.4155629400000009
 31
0.0
  0
LINE
  5
3DD
  8
レイヤー_1
  6
CONTINUOUS
 62
     3
 10
-90.5760819999999995
 20
-61.4146406099999993
 30
0.0
 11
-90.5760819999999995
 21
-61.4206695399999987
 31
0.0
  0
LINE
  5
3DE
  8
レイヤー_1
  6
CONTINUOUS
 62
     3
 10
-90.5760819999999995
 20
-61.4206695399999987
 30
0.0
 11
-90.5902930200000043
 21
-61.5812971100000013
 31
0.0
  0
LINE
  5
3DF
  8
レイヤー_1
  6
CONTINUOUS
 62
     3
 10
-90.5902930200000043
 20
-61.5812971100000013
 30
0.0
 11
-90.6781429499999945
 21
-61.8564741100000006
 31
0.0
  0
LINE
  5
3E0
  8
レイヤー_1
  6
CONTINUOUS
 62
     3
 10
-90.6781429499999945
 20
-61.8564741100000006
 30
0.0
 11
-90.7754669000000121
 21
-62.0145178599999909
 31
0.0
  0
LINE
  5
3E1
  8
レイヤー_1
  6
CONTINUOUS
 62
     3
 10
-90.7754669000000121
 20
55.1643761400000017
 30
0.0
 11
-90.6781429499999945
 21
55.005471110000002
 31
0.0
  0
LINE
  5
3E2
  8
レイヤー_1
  6
CONTINUOUS
 62
     3
 10
-90.6781429499999945
 20
55.005471110000002
 30
0.0
 11
-90.5902930200000043
 21
54.7311553899999979
 31
0.0
  0
LINE
  5
3E3
  8
レイヤー_1
  6
CONTINUOUS
 62
     3
 10
-90.5902930200000043
 20
54.7311553899999979
 30
0.0
 11
-90.5760819999999995
 21
54.5696665400000001
 31
0.0
  0
LINE
  5
3E4
  8
レイヤー_1
  6
CONTINUOUS
 62
     3
 10
-90.5760819999999995
 20
54.5696665400000001
 30
0.0
 11
-90.5760819999999995
 21
54.564498890000003
 31
0.0
  0
LINE
  5
3E5
  8
レイヤー_1
  6
CONTINUOUS
 62
     3
 10
-90.5760819999999995
 20
54.564498890000003
 30
0.0
 11
-90.5760819999999995
 21
53.5645599099999998
 31
0.0
  0
LINE
  5
3E6
  8
レイヤー_1
  6
CONTINUOUS
 62
     3
 10
-91.575159670000005
 20
-62.4145795900000024
 30
0.0
 11
-104.0705209999999994
 21
-62.4145795900000024
 31
0.0
  0
LINE
  5
3E7
  8
レイヤー_1
  6
CONTINUOUS
 62
     3
 10
-90.5760819999999995
 20
53.5645599099999998
 30
0.0
 11
-105.048497519999998
 21
53.5645599099999998
 31
0.0
  0
LINE
  5
3E8
  8
レイヤー_1
  6
CONTINUOUS
 62
     3
 10
-102.5129072200000024
 20
45.7644331099999988
 30
0.0
 11
-98.5062611700000019
 21
39.0951588900000004
 31
0.0
  0
LINE
  5
3E9
  8
レイヤー_1
  6
CONTINUOUS
 62
     3
 10
-98.5062611700000019
 20
39.0951588900000004
 30
0.0
 11
-91.8240678199999962
 21
43.1117095899999967
 31
0.0
  0
LINE
  5
3EA
  8
レイヤー_1
  6
CONTINUOUS
 62
     3
 10
-91.8240678199999962
 20
43.1117095899999967
 30
0.0
 11
-95.8298525999999953
 21
49.7809838100000022
 31
0.0
  0
LINE
  5
3EB
  8
レイヤー_1
  6
CONTINUOUS
 62
     3
 10
-99.7154896699999966
 20
38.2317318400000019
 30
0.0
 11
-103.7824248999999952
 21
45.0017750900000024
 31
0.0
  0
LINE
  5
3EC
  8
レイヤー_1
  6
CONTINUOUS
 62
     3
 10
-92.5746680000000168
 20
42.5225982600000023
 30
0.0
 11
-91.575159670000005
 21
43.1233367900000033
 31
0.0
  0
LINE
  5
3ED
  8
レイヤー_1
  6
CONTINUOUS
 62
     3
 10
-91.575159670000005
 20
43.1233367900000033
 30
0.0
 11
-92.5746680000000168
 21
51.736936759999999
 31
0.0
  0
LINE
  5
3EE
  8
レイヤー_1
  6
CONTINUOUS
 62
     3
 10
-92.5746680000000168
 20
51.736936759999999
 30
0.0
 11
-105.0700293200000033
 21
44.2274898900000011
 31
0.0
  0
LINE
  5
3EF
  8
レイヤー_1
  6
CONTINUOUS
 62
     3
 10
-102.5129072200000024
 20
35.0631052600000004
 30
0.0
 11
-98.5062611700000019
 21
28.3938310399999985
 31
0.0
  0
LINE
  5
3F0
  8
レイヤー_1
  6
CONTINUOUS
 62
     3
 10
-98.5062611700000019
 20
28.3938310399999985
 30
0.0
 11
-91.8240678199999962
 21
32.4099510899999999
 31
0.0
  0
LINE
  5
3F1
  8
レイヤー_1
  6
CONTINUOUS
 62
     3
 10
-91.8240678199999962
 20
32.4099510899999999
 30
0.0
 11
-95.8298525999999953
 21
39.0800865900000005
 31
0.0
  0
LINE
  5
3F2
  8
レイヤー_1
  6
CONTINUOUS
 62
     3
 10
-99.7154896699999966
 20
27.5304039899999999
 30
0.0
 11
-103.7824248999999952
 21
34.3000166100000001
 31
0.0
  0
LINE
  5
3F3
  8
レイヤー_1
  6
CONTINUOUS
 62
     3
 10
-92.5746680000000168
 20
31.8208397599999984
 30
0.0
 11
-91.575159670000005
 21
32.4215782899999994
 31
0.0
  0
LINE
  5
3F4
  8
レイヤー_1
  6
CONTINUOUS
 62
     3
 10
-91.575159670000005
 20
32.4215782899999994
 30
0.0
 11
-92.5746680000000168
 21
41.0364701900000028
 31
0.0
  0
LINE
  5
3F5
  8
レイヤー_1
  6
CONTINUOUS
 62
     3
 10
-92.5746680000000168
 20
41.0364701900000028
 30
0.0
 11
-105.0700293200000033
 21
33.5265926599999986
 31
0.0
  0
LINE
  5
3F6
  8
レイヤー_1
  6
CONTINUOUS
 62
     3
 10
-102.5129072200000024
 20
24.3622080399999987
 30
0.0
 11
-98.5062611700000019
 21
17.6929338099999995
 31
0.0
  0
LINE
  5
3F7
  8
レイヤー_1
  6
CONTINUOUS
 62
     3
 10
-98.5062611700000019
 20
17.6929338099999995
 30
0.0
 11
-91.8240678199999962
 21
21.7094845099999993
 31
0.0
  0
LINE
  5
3F8
  8
レイヤー_1
  6
CONTINUOUS
 62
     3
 10
-91.8240678199999962
 20
21.7094845099999993
 30
0.0
 11
-95.8298525999999953
 21
28.3787587399999985
 31
0.0
  0
LINE
  5
3F9
  8
レイヤー_1
  6
CONTINUOUS
 62
     3
 10
-99.7154896699999966
 20
16.8286454899999995
 30
0.0
 11
-103.7824248999999952
 21
23.5995500400000005
 31
0.0
  0
LINE
  5
3FA
  8
レイヤー_1
  6
CONTINUOUS
 62
     3
 10
-92.5746680000000168
 20
21.1203731899999987
 30
0.0
 11
-91.575159670000005
 21
21.7211117099999989
 31
0.0
  0
LINE
  5
3FB
  8
レイヤー_1
  6
CONTINUOUS
 62
     3
 10
-91.575159670000005
 20
21.7211117099999989
 30
0.0
 11
-92.5746680000000168
 21
30.3351423400000009
 31
0.0
  0
LINE
  5
3FC
  8
レイヤー_1
  6
CONTINUOUS
 62
     3
 10
-92.5746680000000168
 20
30.3351423400000009
 30
0.0
 11
-105.0700293200000033
 21
22.8261260899999989
 31
0.0
  0
LINE
  5
3FD
  8
レイヤー_1
  6
CONTINUOUS
 62
     3
 10
-102.5129072200000024
 20
13.6608801900000003
 30
0.0
 11
-98.5062611700000019
 21
6.9916059600000002
 31
0.0
  0
LINE
  5
3FE
  8
レイヤー_1
  6
CONTINUOUS
 62
     3
 10
-98.5062611700000019
 20
6.9916059600000002
 30
0.0
 11
-91.8240678199999962
 21
11.0081566599999991
 31
0.0
  0
LINE
  5
3FF
  8
レイヤー_1
  6
CONTINUOUS
 62
     3
 10
-91.8240678199999962
 20
11.0081566599999991
 30
0.0
 11
-95.8298525999999953
 21
17.6770002599999998
 31
0.0
  0
LINE
  5
400
  8
レイヤー_1
  6
CONTINUOUS
 62
     3
 10
-99.7154896699999966
 20
6.128178909999999
 30
0.0
 11
-103.7824248999999952
 21
12.8986528099999997
 31
0.0
  0
LINE
  5
401
  8
レイヤー_1
  6
CONTINUOUS
 62
     3
 10
-92.5746680000000168
 20
10.41990661
 30
0.0
 11
-91.575159670000005
 21
11.0193532399999992
 31
0.0
  0
LINE
  5
402
  8
レイヤー_1
  6
CONTINUOUS
 62
     3
 10
-91.575159670000005
 20
11.0193532399999992
 30
0.0
 11
-92.5746680000000168
 21
19.6333838599999986
 31
0.0
  0
LINE
  5
403
  8
レイヤー_1
  6
CONTINUOUS
 62
     3
 10
-92.5746680000000168
 20
19.6333838599999986
 30
0.0
 11
-105.0700293200000033
 21
12.1243676100000002
 31
0.0
  0
LINE
  5
404
  8
レイヤー_1
  6
CONTINUOUS
 62
     3
 10
-102.5129072200000024
 20
2.9604136099999989
 30
0.0
 11
-98.5062611700000019
 21
-3.7097218899999991
 31
0.0
  0
LINE
  5
405
  8
レイヤー_1
  6
CONTINUOUS
 62
     3
 10
-98.5062611700000019
 20
-3.7097218899999991
 30
0.0
 11
-91.8240678199999962
 21
0.30725946
 31
0.0
  0
LINE
  5
406
  8
レイヤー_1
  6
CONTINUOUS
 62
     3
 10
-91.8240678199999962
 20
0.30725946
 30
0.0
 11
-95.8298525999999953
 21
6.9765336900000001
 31
0.0
  0
LINE
  5
407
  8
レイヤー_1
  6
CONTINUOUS
 62
     3
 10
-99.7154896699999966
 20
-4.5731489400000003
 30
0.0
 11
-103.7824248999999952
 21
2.1973249599999991
 31
0.0
  0
LINE
  5
408
  8
レイヤー_1
  6
CONTINUOUS
 62
     3
 10
-92.5746680000000168
 20
-0.28185186
 30
0.0
 11
-91.575159670000005
 21
0.31888666
 31
0.0
  0
LINE
  5
409
  8
レイヤー_1
  6
CONTINUOUS
 62
     3
 10
-91.575159670000005
 20
0.31888666
 30
0.0
 11
-92.5746680000000168
 21
8.9329172900000007
 31
0.0
  0
LINE
  5
40A
  8
レイヤー_1
  6
CONTINUOUS
 62
     3
 10
-92.5746680000000168
 20
8.9329172900000007
 30
0.0
 11
-105.0700293200000033
 21
1.4230397599999991
 31
0.0
  0
LINE
  5
40B
  8
レイヤー_1
  6
CONTINUOUS
 62
     3
 10
-102.5129072200000024
 20
-7.741344859999999
 30
0.0
 11
-98.5062611700000019
 21
-14.4106190900000009
 31
0.0
  0
LINE
  5
40C
  8
レイヤー_1
  6
CONTINUOUS
 62
     3
 10
-98.5062611700000019
 20
-14.4106190900000009
 30
0.0
 11
-91.8240678199999962
 21
-10.3940683899999993
 31
0.0
  0
LINE
  5
40D
  8
レイヤー_1
  6
CONTINUOUS
 62
     3
 10
-91.8240678199999962
 20
-10.3940683899999993
 30
0.0
 11
-95.8298525999999953
 21
-3.7247941600000001
 31
0.0
  0
LINE
  5
40E
  8
レイヤー_1
  6
CONTINUOUS
 62
     3
 10
-99.7154896699999966
 20
-15.2740461599999993
 30
0.0
 11
-103.7824248999999952
 21
-8.5040028900000006
 31
0.0
  0
LINE
  5
40F
  8
レイヤー_1
  6
CONTINUOUS
 62
     3
 10
-92.5746680000000168
 20
-10.9823184600000001
 30
0.0
 11
-91.575159670000005
 21
-10.38287184
 31
0.0
  0
LINE
  5
410
  8
レイヤー_1
  6
CONTINUOUS
 62
     3
 10
-91.575159670000005
 20
-10.38287184
 30
0.0
 11
-92.5746680000000168
 21
-1.7688412099999991
 31
0.0
  0
LINE
  5
411
  8
レイヤー_1
  6
CONTINUOUS
 62
     3
 10
-92.5746680000000168
 20
-1.7688412099999991
 30
0.0
 11
-105.0700293200000033
 21
-9.2774268099999997
 31
0.0
  0
LINE
  5
412
  8
レイヤー_1
  6
CONTINUOUS
 62
     3
 10
-102.5129072200000024
 20
-18.4418114600000003
 30
0.0
 11
-98.5062611700000019
 21
-25.1119469399999993
 31
0.0
  0
LINE
  5
413
  8
レイヤー_1
  6
CONTINUOUS
 62
     3
 10
-98.5062611700000019
 20
-25.1119469399999993
 30
0.0
 11
-91.8240678199999962
 21
-21.0958268900000014
 31
0.0
  0
LINE
  5
414
  8
レイヤー_1
  6
CONTINUOUS
 62
     3
 10
-91.8240678199999962
 20
-21.0958268900000014
 30
0.0
 11
-95.8298525999999953
 21
-14.4256913900000008
 31
0.0
  0
LINE
  5
415
  8
レイヤー_1
  6
CONTINUOUS
 62
     3
 10
-99.7154896699999966
 20
-25.9745127400000015
 30
0.0
 11
-103.7824248999999952
 21
-19.2049001100000005
 31
0.0
  0
LINE
  5
416
  8
レイヤー_1
  6
CONTINUOUS
 62
     3
 10
-92.5746680000000168
 20
-21.6840769400000006
 30
0.0
 11
-91.575159670000005
 21
-21.0841996899999984
 31
0.0
  0
LINE
  5
417
  8
レイヤー_1
  6
CONTINUOUS
 62
     3
 10
-91.575159670000005
 20
-21.0841996899999984
 30
0.0
 11
-92.5746680000000168
 21
-12.4693077900000002
 31
0.0
  0
LINE
  5
418
  8
レイヤー_1
  6
CONTINUOUS
 62
     3
 10
-92.5746680000000168
 20
-12.4693077900000002
 30
0.0
 11
-105.0700293200000033
 21
-19.9791853099999983
 31
0.0
  0
LINE
  5
419
  8
レイヤー_1
  6
CONTINUOUS
 62
     3
 10
-102.5129072200000024
 20
-29.1427086600000003
 30
0.0
 11
-98.5062611700000019
 21
-35.8137054399999997
 31
0.0
  0
LINE
  5
41A
  8
レイヤー_1
  6
CONTINUOUS
 62
     3
 10
-98.5062611700000019
 20
-35.8137054399999997
 30
0.0
 11
-91.8240678199999962
 21
-31.7962934600000011
 31
0.0
  0
LINE
  5
41B
  8
レイヤー_1
  6
CONTINUOUS
 62
     3
 10
-91.8240678199999962
 20
-31.7962934600000011
 30
0.0
 11
-95.8298525999999953
 21
-25.1270192399999992
 31
0.0
  0
LINE
  5
41C
  8
レイヤー_1
  6
CONTINUOUS
 62
     3
 10
-99.7154896699999966
 20
-36.6762712100000101
 30
0.0
 11
-103.7824248999999952
 21
-29.9062279599999989
 31
0.0
  0
LINE
  5
41D
  8
レイヤー_1
  6
CONTINUOUS
 62
     3
 10
-92.5746680000000168
 20
-32.3854047900000026
 30
0.0
 11
-91.575159670000005
 21
-31.7846662600000016
 31
0.0
  0
LINE
  5
41E
  8
レイヤー_1
  6
CONTINUOUS
 62
     3
 10
-91.575159670000005
 20
-31.7846662600000016
 30
0.0
 11
-92.5746680000000168
 21
-23.1702050100000001
 31
0.0
  0
LINE
  5
41F
  8
レイヤー_1
  6
CONTINUOUS
 62
     3
 10
-92.5746680000000168
 20
-23.1702050100000001
 30
0.0
 11
-105.0700293200000033
 21
-30.6796518899999988
 31
0.0
  0
LINE
  5
420
  8
レイヤー_1
  6
CONTINUOUS
 62
     3
 10
-102.5129072200000024
 20
-39.8440365100000022
 30
0.0
 11
-98.5062611700000019
 21
-46.5141720100000029
 31
0.0
  0
LINE
  5
421
  8
レイヤー_1
  6
CONTINUOUS
 62
     3
 10
-98.5062611700000019
 20
-46.5141720100000029
 30
0.0
 11
-91.8240678199999962
 21
-42.4976213099999924
 31
0.0
  0
LINE
  5
422
  8
レイヤー_1
  6
CONTINUOUS
 62
     3
 10
-91.8240678199999962
 20
-42.4976213099999924
 30
0.0
 11
-95.8298525999999953
 21
-35.8279164599999973
 31
0.0
  0
LINE
  5
423
  8
レイヤー_1
  6
CONTINUOUS
 62
     3
 10
-99.7154896699999966
 20
-47.3775990599999872
 30
0.0
 11
-103.7824248999999952
 21
-40.6079864399999977
 31
0.0
  0
LINE
  5
424
  8
レイヤー_1
  6
CONTINUOUS
 62
     3
 10
-92.5746680000000168
 20
-43.0871632899999994
 30
0.0
 11
-91.575159670000005
 21
-42.485563489999997
 31
0.0
  0
LINE
  5
425
  8
レイヤー_1
  6
CONTINUOUS
 62
     3
 10
-91.575159670000005
 20
-42.485563489999997
 30
0.0
 11
-92.5746680000000168
 21
-33.8715328600000021
 31
0.0
  0
LINE
  5
426
  8
レイヤー_1
  6
CONTINUOUS
 62
     3
 10
-92.5746680000000168
 20
-33.8715328600000021
 30
0.0
 11
-105.0700293200000033
 21
-41.3814103899999921
 31
0.0
  0
LINE
  5
427
  8
レイヤー_1
  6
CONTINUOUS
 62
     3
 10
-102.5129072200000024
 20
-50.5453643600000007
 30
0.0
 11
-98.5062611700000019
 21
-57.2150692399999912
 31
0.0
  0
LINE
  5
428
  8
レイヤー_1
  6
CONTINUOUS
 62
     3
 10
-98.5062611700000019
 20
-57.2150692399999912
 30
0.0
 11
-91.8240678199999962
 21
-53.1993798100000035
 31
0.0
  0
LINE
  5
429
  8
レイヤー_1
  6
CONTINUOUS
 62
     3
 10
-91.8240678199999962
 20
-53.1993798100000035
 30
0.0
 11
-95.8298525999999953
 21
-46.5283830400000014
 31
0.0
  0
LINE
  5
42A
  8
レイヤー_1
  6
CONTINUOUS
 62
     3
 10
-99.7154896699999966
 20
-58.0780656399999913
 30
0.0
 11
-103.7824248999999952
 21
-51.3084530100000009
 31
0.0
  0
LINE
  5
42B
  8
レイヤー_1
  6
CONTINUOUS
 62
     3
 10
-92.5746680000000168
 20
-53.7876298600000027
 30
0.0
 11
-91.575159670000005
 21
-53.1868913400000025
 31
0.0
  0
LINE
  5
42C
  8
レイヤー_1
  6
CONTINUOUS
 62
     3
 10
-91.575159670000005
 20
-53.1868913400000025
 30
0.0
 11
-92.5746680000000168
 21
-44.5728607100000005
 31
0.0
  0
LINE
  5
42D
  8
レイヤー_1
  6
CONTINUOUS
 62
     3
 10
-92.5746680000000168
 20
-44.5728607100000005
 30
0.0
 11
-105.0700293200000033
 21
-52.0827382399999905
 31
0.0
  0
LINE
  5
4B9
  8
レイヤー_1
  6
CONTINUOUS
 62
     3
 10
25.0310787499999989
 20
-64.9494001599999962
 30
0.0
 11
107.8988833800000009
 21
-64.9494001599999962
 31
0.0
  0
LINE
  5
4BA
  8
レイヤー_1
  6
CONTINUOUS
 62
     3
 10
6.1926727000000001
 20
65.0505998400000038
 30
0.0
 11
98.2069685000000021
 21
65.0505998400000038
 31
0.0
  0
LINE
  5
4BB
  8
レイヤー_1
  6
CONTINUOUS
 62
     3
 10
4.6926727000000001
 20
63.5505998399999967
 30
0.0
 11
4.6926727000000001
 21
56.6605295199999972
 31
0.0
  0
LINE
  5
4BC
  8
レイヤー_1
  6
CONTINUOUS
 62
     3
 10
-113.8520422699999983
 20
-64.9494001599999962
 30
0.0
 11
-63.3520422699999983
 21
-64.9494001599999962
 31
0.0
  0
LINE
  5
4BD
  8
レイヤー_1
  6
CONTINUOUS
 62
     3
 10
-113.8520422699999983
 20
65.0505998400000038
 30
0.0
 11
-63.3520422699999983
 21
65.0505998400000038
 31
0.0
  0
LINE
  5
4BE
  8
レイヤー_1
  6
CONTINUOUS
 62
     3
 10
-114.8520422699999983
 20
64.0505998400000038
 30
0.0
 11
-114.8520422699999983
 21
-63.9494001600000033
 31
0.0
  0
LINE
  5
4BF
  8
レイヤー_1
  6
CONTINUOUS
 62
     3
 10
-62.3520422699999983
 20
64.0505998400000038
 30
0.0
 11
-62.3520422699999983
 21
-63.9494001600000033
 31
0.0
  0
ARC
  5
4C0
  8
レイヤー_1
  6
CONTINUOUS
 62
     3
 10
-113.8520422699999983
 20
-63.9494001600000033
 30
0.0
 40
1.0
 50
180.0
 51
270.0
  0
ARC
  5
4C1
  8
レイヤー_1
  6
CONTINUOUS
 62
     3
 10
-63.3520422699999983
 20
-63.9494001600000033
 30
0.0
 40
1.0
 50
270.0
 51
360.0
  0
ARC
  5
4C2
  8
レイヤー_1
  6
CONTINUOUS
 62
     3
 10
-63.3520422699999983
 20
64.0505998400000038
 30
0.0
 40
1.0
 50
0.0
 51
90.0
  0
ARC
  5
4C3
  8
レイヤー_1
  6
CONTINUOUS
 62
     3
 10
-113.8520422699999983
 20
64.0505998400000038
 30
0.0
 40
1.0
 50
90.0
 51
180.0
  0
ARC
  5
4C4
  8
レイヤー_1
  6
CONTINUOUS
 62
     3
 10
6.1926727000000001
 20
63.5505998399999967
 30
0.0
 40
1.5
 50
90.0
 51
180.0
  0
ARC
  5
4C5
  8
レイヤー_1
  6
CONTINUOUS
 62
     3
 10
25.0310787499999989
 20
-63.4494001600000033
 30
0.0
 40
1.5
 50
180.0
 51
270.0
  0
LINE
  5
4C6
  8
レイヤー_1
  6
CENTERX2
 62
     3
 10
0.02260845
 20
0.05059984
 30
0.0
 11
120.0066714499999989
 21
0.05059984
 31
0.0
  0
LINE
  5
4C7
  8
レイヤー_1
  6
CENTERX2
 62
     3
 10
-88.6020422699999983
 20
70.050633739999995
 30
0.0
 11
-88.6020422699999983
 21
-70.050633739999995
 31
0.0
  0
LINE
  5
4C8
  8
レイヤー_1
  6
CENTERX2
 62
     3
 10
-120.0066714499999989
 20
0.05059984
 30
0.0
 11
-57.516515069999997
 21
0.05059984
 31
0.0
  0
TEXT
  5
4C9
  8
0
 62
     7
 10
80.9833255799999989
 20
-88.2422746900000021
 30
0.0
 40
5.0
  1
000
 41
1.1076923076923071
 72
     5
 11
92.9833255799999989
 21
-88.2422746900000021
 31
0.0
  0
ENDSEC
  0
EOF
