  0
SECTION
  2
HEADER
  9
$ACADVER
  1
AC1014
  9
$ACADMAINTVER
 70
       0
  9
$DWGCODEPAGE
  3
ANSI_932
  9
$INSBASE
 10
0.0
 20
0.0
 30
0.0
  9
$EXTMIN
 10
-124.80693831
 20
-91.40813286
 30
0.0
  9
$EXTMAX
 10
124.80693831
 20
73.21649191
 30
0.0
  9
$LIMMIN
 10
-132.60737195
 20
-96.55265238
  9
$LIMMAX
 10
132.60737195
 20
78.36101143
  9
$ORTHOMODE
 70
       0
  9
$REGENMODE
 70
       1
  9
$FILLMODE
 70
       1
  9
$QTEXTMODE
 70
       0
  9
$MIRRTEXT
 70
       1
  9
$DRAGMODE
 70
       2
  9
$LTSCALE
 40
1.0
  9
$OSMODE
 70
       0
  9
$ATTMODE
 70
       1
  9
$TEXTSIZE
 40
0.2
  9
$TRACEWID
 40
0.05
  9
$TEXTSTYLE
  7
STANDARD
  9
$CLAYER
  8
0
  9
$CELTYPE
  6
CONTINUOUS
  9
$CECOLOR
 62
     256
  9
$CELTSCALE
 40
1.0
  9
$DELOBJ
 70
       1
  9
$DISPSILH
 70
       0
  9
$DIMSCALE
 40
1.0
  9
$DIMASZ
 40
0.18
  9
$DIMEXO
 40
0.0625
  9
$DIMDLI
 40
0.38
  9
$DIMRND
 40
0.0
  9
$DIMDLE
 40
0.0
  9
$DIMEXE
 40
0.18
  9
$DIMTP
 40
0.0
  9
$DIMTM
 40
0.0
  9
$DIMTXT
 40
0.18
  9
$DIMCEN
 40
0.09
  9
$DIMTSZ
 40
0.0
  9
$DIMTOL
 70
       0
  9
$DIMLIM
 70
       0
  9
$DIMTIH
 70
       1
  9
$DIMTOH
 70
       1
  9
$DIMSE1
 70
       0
  9
$DIMSE2
 70
       0
  9
$DIMTAD
 70
       0
  9
$DIMZIN
 70
       0
  9
$DIMBLK
  1

  9
$DIMASO
 70
       1
  9
$DIMSHO
 70
       1
  9
$DIMPOST
  1

  9
$DIMAPOST
  1

  9
$DIMALT
 70
       0
  9
$DIMALTD
 70
       2
  9
$DIMALTF
 40
25.4
  9
$DIMLFAC
 40
1.0
  9
$DIMTOFL
 70
       0
  9
$DIMTVP
 40
0.0
  9
$DIMTIX
 70
       0
  9
$DIMSOXD
 70
       0
  9
$DIMSAH
 70
       0
  9
$DIMBLK1
  1

  9
$DIMBLK2
  1

  9
$DIMSTYLE
  2
STANDARD
  9
$DIMCLRD
 70
       0
  9
$DIMCLRE
 70
       0
  9
$DIMCLRT
 70
       0
  9
$DIMTFAC
 40
1.0
  9
$DIMGAP
 40
0.09
  9
$DIMJUST
 70
       0
  9
$DIMSD1
 70
       0
  9
$DIMSD2
 70
       0
  9
$DIMTOLJ
 70
       1
  9
$DIMTZIN
 70
       0
  9
$DIMALTZ
 70
       0
  9
$DIMALTTZ
 70
       0
  9
$DIMFIT
 70
       3
  9
$DIMUPT
 70
       0
  9
$DIMUNIT
 70
       2
  9
$DIMDEC
 70
       4
  9
$DIMTDEC
 70
       4
  9
$DIMALTU
 70
       2
  9
$DIMALTTD
 70
       2
  9
$DIMTXSTY
  7
STANDARD
  9
$DIMAUNIT
 70
       0
  9
$LUNITS
 70
       2
  9
$LUPREC
 70
       4
  9
$SKETCHINC
 40
0.1
  9
$FILLETRAD
 40
0.0
  9
$AUNITS
 70
       0
  9
$AUPREC
 70
       0
  9
$MENU
  1
acad
  9
$ELEVATION
 40
0.0
  9
$PELEVATION
 40
0.0
  9
$THICKNESS
 40
0.0
  9
$LIMCHECK
 70
       0
  9
$BLIPMODE
 70
       1
  9
$CHAMFERA
 40
0.0
  9
$CHAMFERB
 40
0.0
  9
$CHAMFERC
 40
0.0
  9
$CHAMFERD
 40
0.0
  9
$SKPOLY
 70
       0
  9
$TDCREATE
 40
0.000000000
  9
$TDUPDATE
 40
0.000000000
  9
$TDINDWG
 40
0.0000000000
  9
$TDUSRTIMER
 40
0.0000000000
  9
$USRTIMER
 70
       1
  9
$ANGBASE
 50
0.0
  9
$ANGDIR
 70
       0
  9
$PDMODE
 70
       0
  9
$PDSIZE
 40
1.0
  9
$PLINEWID
 40
0.0
  9
$COORDS
 70
       1
  9
$SPLFRAME
 70
       0
  9
$SPLINETYPE
 70
       6
  9
$SPLINESEGS
 70
       8
  9
$ATTDIA
 70
       0
  9
$ATTREQ
 70
       1
  9
$HANDLING
 70
       1
  9
$HANDSEED
  5
4CA
  9
$SURFTAB1
 70
       6
  9
$SURFTAB2
 70
       6
  9
$SURFTYPE
 70
       6
  9
$SURFU
 70
       6
  9
$SURFV
 70
       6
  9
$UCSNAME
  2

  9
$UCSORG
 10
0.0
 20
0.0
 30
0.0
  9
$UCSXDIR
 10
1.0
 20
0.0
 30
0.0
  9
$UCSYDIR
 10
0.0
 20
1.0
 30
0.0
  9
$PUCSNAME
  2

  9
$PUCSORG
 10
0.0
 20
0.0
 30
0.0
  9
$PUCSXDIR
 10
1.0
 20
0.0
 30
0.0
  9
$PUCSYDIR
 10
0.0
 20
1.0
 30
0.0
  9
$USERI1
 70
       0
  9
$USERI2
 70
       0
  9
$USERI3
 70
       0
  9
$USERI4
 70
       0
  9
$USERI5
 70
       0
  9
$USERR1
 40
0.0
  9
$USERR2
 40
0.0
  9
$USERR3
 40
0.0
  9
$USERR4
 40
0.0
  9
$USERR5
 40
0.0
  9
$WORLDVIEW
 70
       1
  9
$SHADEDGE
 70
       3
  9
$SHADEDIF
 70
      70
  9
$TILEMODE
 70
       1
  9
$MAXACTVP
 70
      16
  9
$PINSBASE
 10
0.0
 20
0.0
 30
0.0
  9
$PLIMCHECK
 70
       0
  9
$PEXTMIN
 10
1.00000000E+20
 20
1.00000000E+20
 30
1.00000000E+20
  9
$PEXTMAX
 10
-1.00000000E+20
 20
-1.00000000E+20
 30
-1.00000000E+20
  9
$PLIMMIN
 10
0.0
 20
0.0
  9
$PLIMMAX
 10
12.0
 20
9.0
  9
$UNITMODE
 70
       0
  9
$VISRETAIN
 70
       0
  9
$PLINEGEN
 70
       1
  9
$PSLTSCALE
 70
       0
  9
$TREEDEPTH
 70
    3020
  9
$PICKSTYLE
 70
       1
  9
$CMLSTYLE
  2
STANDARD
  9
$CMLJUST
 70
       0
  9
$CMLSCALE
 40
1.0
  9
$PROXYGRAPHICS
 70
       0
  9
$MEASUREMENT
 70
       0
  0
ENDSEC
  0
SECTION
  2
CLASSES
  0
CLASS
  1
LWPOLYLINE
  2
AcDbPolyline
  3
"AutoCAD"
 90
        0
280
       0
281
       1
  0
CLASS
  1
IMAGE
  2
AcDbRasterImage
  3
ISM
 90
      127
280
       0
281
       1
  0
CLASS
  1
OLE2FRAME
  2
AcDbOle2Frame
  3
""
 90
        0
280
       0
281
       1
  0
CLASS
  1
HATCH
  2
AcDbHatch
  3
"ACAD_SEDONA"
 90
        0
280
       0
281
       1
  0
CLASS
  1
DICTIONARYVAR
  2
AcDbDictionaryVar
  3
"AutoCAD"
 90
        0
280
       0
281
       0
  0
CLASS
  1
RASTERVARIABLES
  2
AcDbRasterVariables
  3
ISM
 90
        0
280
       0
281
       0
  0
CLASS
  1
IMAGEDEF
  2
AcDbRasterImageDef
  3
ISM
 90
        0
280
       0
281
       0
  0
CLASS
  1
IMAGEDEF_REACTOR
  2
AcDbRasterImageDefReactor
  3
ISM
 90
        1
280
       0
281
       0
  0
CLASS
  1
IDBUFFER
  2
AcDbIdBuffer
  3
"Acad"
 90
        0
280
       0
281
       0
  0
CLASS
  1
SPATIAL_FILTER
  2
AcDbSpatialFilter
  3
"Acad"
 90
        0
280
       0
281
       0
  0
CLASS
  1
XRECORD
  2
AcDbXrecord
  3
"<Built In>"
 90
        0
280
       0
281
       0
  0
CLASS
  1
SORTENTSTABLE
  2
AcDbSortentsTable
  3
"AutoCAD"
 90
        0
280
       0
281
       0
  0
CLASS
  1
LAYER_INDEX
  2
AcDbLayerIndex
  3
"Acad"
 90
        0
280
       0
281
       0
  0
CLASS
  1
SPATIAL_INDEX
  2
AcDbSpatialIndex
  3
"Acad"
 90
        0
280
       0
281
       0
  0
CLASS
  1
OBJECT_PTR
  2
CAseDLPNTableRecord
  3
"ASE-LPNTableRecord"
 90
        1
280
       0
281
       0
  0
CLASS
  1
LAYOUT
  2
AcDbLayout
  3
"AutoCAD 2000"
 90
        1
280
       0
281
       0
  0
CLASS
  1
PLOTSETTINGS
  2
AcDbPlotSettings
  3
"AutoCAD 2000"
 90
        1
280
       0
281
       0
  0
CLASS
  1
ACDBDICTIONARYWDFLT
  2
AcDbDictionaryWithDefault
  3
"AutoCAD 2000"
 90
        1
280
       0
281
       0
  0
CLASS
  1
ACDBPLACEHOLDER
  2
AcDbPlaceHolder
  3
"AutoCAD 2000"
 90
        1
280
       0
281
       0
  0
CLASS
  1
VBA_PROJECT
  2
AcDbVbaProject
  3
"acadvba"
 90
        1
280
       0
281
       0
  0
CLASS
  1
WIPEOUT
  2
AcDbWipeout
  3
WipeOut|AutoCAD Express Tool|expresstools@autodesk.com
 90
      127
280
       0
281
       1
  0
CLASS
  1
WIPEOUTVARIABLES
  2
AcDbWipeoutVariables
  3
WipeOut|AutoCAD Express Tool|expresstools@autodesk.com
 90
        0
280
       0
281
       0
  0
CLASS
  1
RTEXT
  2
RText
  3
RText|AutoCAD Express Tool|expresstools@autodesk.com
 90
        0
280
       0
281
       1
  0
CLASS
  1
ARCALIGNEDTEXT
  2
AcDbArcAlignedText
  3
ATEXT|AutoCAD Express Tool|expresstools@autodesk.com
 90
        0
280
       0
281
       1
  0
ENDSEC
  0
SECTION
  2
TABLES
  0
TABLE
  2
VPORT
  5
7
100
AcDbSymbolTable
 70
       1
  0
VPORT
  5
15
100
AcDbSymbolTableRecord
100
AcDbViewportTableRecord
  2
*ACTIVE
 70
       0
 10
0.0
 20
0.0
 11
1.0
 21
1.0
 12
0.0
 22
-9.09582048
 13
0.0
 23
0.0
 14
1.0
 24
1.0
 15
0.0
 25
0.0
 16
0.0
 26
0.0
 36
1.0
 17
0.0
 27
0.0
 37
0.0
 40
174.91366382
 41
1.51626087
 42
50.0
 43
0.0
 44
0.0
 50
0.0
 51
0.0
 71
       0
 72
     100
 73
       1
 74
       1
 75
       0
 76
       0
 77
       0
 78
       0
  0
ENDTAB
  0
TABLE
  2
LTYPE
  5
4
100
AcDbSymbolTable
 70
      30
  0
LTYPE
  5
11
100
AcDbSymbolTableRecord
100
AcDbLinetypeTableRecord
  2
BYBLOCK
 70
      64
  3

 72
      65
 73
       0
 40
0.0
  0
LTYPE
  5
12
100
AcDbSymbolTableRecord
100
AcDbLinetypeTableRecord
  2
BYLAYER
 70
      64
  3

 72
      65
 73
       0
 40
0.0
  0
LTYPE
  5
13
100
AcDbSymbolTableRecord
100
AcDbLinetypeTableRecord
  2
CONTINUOUS
 70
      64
  3
Solid line
 72
      65
 73
       0
 40
0.0
  0
LTYPE
  5
1D
100
AcDbSymbolTableRecord
100
AcDbLinetypeTableRecord
  2
HIDDENX2
 70
      64
  3
CADPAC LINETYPE
 72
      65
 73
       2
 40
9.98455506
 49
7.4884163
 74
       0
 49
-2.49613877
 74
       0
  0
LTYPE
  5
1E
100
AcDbSymbolTableRecord
100
AcDbLinetypeTableRecord
  2
HIDDEN
 70
      64
  3
CADPAC LINETYPE
 72
      65
 73
       2
 40
7.4884163
 49
4.99227753
 74
       0
 49
-2.49613877
 74
       0
  0
LTYPE
  5
1F
100
AcDbSymbolTableRecord
100
AcDbLinetypeTableRecord
  2
HIDDEN2
 70
      64
  3
CADPAC LINETYPE
 72
      65
 73
       2
 40
6.24034692
 49
3.74420815
 74
       0
 49
-2.49613877
 74
       0
  0
LTYPE
  5
20
100
AcDbSymbolTableRecord
100
AcDbLinetypeTableRecord
  2
DASHED
 70
      64
  3
CADPAC LINETYPE
 72
      65
 73
       2
 40
7.4884163
 49
4.99227753
 74
       0
 49
-2.49613877
 74
       0
  0
LTYPE
  5
21
100
AcDbSymbolTableRecord
100
AcDbLinetypeTableRecord
  2
DASHED2
 70
      64
  3
CADPAC LINETYPE
 72
      65
 73
       2
 40
5.61631222
 49
3.74420815
 74
       0
 49
-1.87210407
 74
       0
  0
LTYPE
  5
22
100
AcDbSymbolTableRecord
100
AcDbLinetypeTableRecord
  2
DASHEDX2
 70
      64
  3
CADPAC LINETYPE
 72
      65
 73
       2
 40
11.23262445
 49
7.4884163
 74
       0
 49
-3.74420815
 74
       0
  0
LTYPE
  5
23
100
AcDbSymbolTableRecord
100
AcDbLinetypeTableRecord
  2
DOTX2
 70
      64
  3
CADPAC LINETYPE
 72
      65
 73
       2
 40
3.12017346
 49
0.0
 74
       0
 49
-3.12017346
 74
       0
  0
LTYPE
  5
24
100
AcDbSymbolTableRecord
100
AcDbLinetypeTableRecord
  2
DOT
 70
      64
  3
CADPAC LINETYPE
 72
      65
 73
       2
 40
2.49613877
 49
0.0
 74
       0
 49
-2.49613877
 74
       0
  0
LTYPE
  5
25
100
AcDbSymbolTableRecord
100
AcDbLinetypeTableRecord
  2
DOT2
 70
      64
  3
CADPAC LINETYPE
 72
      65
 73
       2
 40
1.87210407
 49
0.0
 74
       0
 49
-1.87210407
 74
       0
  0
LTYPE
  5
26
100
AcDbSymbolTableRecord
100
AcDbLinetypeTableRecord
  2
CENTERX2
 70
      64
  3
CADPAC LINETYPE
 72
      65
 73
       4
 40
14.9768326
 49
6.24034692
 74
       0
 49
-3.12017346
 74
       0
 49
2.49613877
 74
       0
 49
-3.12017346
 74
       0
  0
LTYPE
  5
27
100
AcDbSymbolTableRecord
100
AcDbLinetypeTableRecord
  2
CENTER
 70
      64
  3
CADPAC LINETYPE
 72
      65
 73
       4
 40
11.48223832
 49
4.99227753
 74
       0
 49
-2.49613877
 74
       0
 49
1.49768326
 74
       0
 49
-2.49613877
 74
       0
  0
LTYPE
  5
28
100
AcDbSymbolTableRecord
100
AcDbLinetypeTableRecord
  2
CENTER2
 70
      64
  3
CADPAC LINETYPE
 72
      65
 73
       4
 40
7.98764405
 49
3.74420815
 74
       0
 49
-1.87210407
 74
       0
 49
0.49922775
 74
       0
 49
-1.87210407
 74
       0
  0
LTYPE
  5
29
100
AcDbSymbolTableRecord
100
AcDbLinetypeTableRecord
  2
DASHDOTX2
 70
      64
  3
CADPAC LINETYPE
 72
      65
 73
       4
 40
12.48069383
 49
6.24034692
 74
       0
 49
-3.12017346
 74
       0
 49
0.0
 74
       0
 49
-3.12017346
 74
       0
  0
LTYPE
  5
2A
100
AcDbSymbolTableRecord
100
AcDbLinetypeTableRecord
  2
DASHDOT
 70
      64
  3
CADPAC LINETYPE
 72
      65
 73
       4
 40
9.98455506
 49
4.99227753
 74
       0
 49
-2.49613877
 74
       0
 49
0.0
 74
       0
 49
-2.49613877
 74
       0
  0
LTYPE
  5
2B
100
AcDbSymbolTableRecord
100
AcDbLinetypeTableRecord
  2
DASHDOT2
 70
      64
  3
CADPAC LINETYPE
 72
      65
 73
       4
 40
7.4884163
 49
3.74420815
 74
       0
 49
-1.87210407
 74
       0
 49
0.0
 74
       0
 49
-1.87210407
 74
       0
  0
LTYPE
  5
2C
100
AcDbSymbolTableRecord
100
AcDbLinetypeTableRecord
  2
DIVIDEX2
 70
      64
  3
CADPAC LINETYPE
 72
      65
 73
       6
 40
15.60086729
 49
6.24034692
 74
       0
 49
-3.12017346
 74
       0
 49
0.0
 74
       0
 49
-3.12017346
 74
       0
 49
0.0
 74
       0
 49
-3.12017346
 74
       0
  0
LTYPE
  5
2D
100
AcDbSymbolTableRecord
100
AcDbLinetypeTableRecord
  2
DIVIDE
 70
      64
  3
CADPAC LINETYPE
 72
      65
 73
       6
 40
12.48069383
 49
4.99227753
 74
       0
 49
-2.49613877
 74
       0
 49
0.0
 74
       0
 49
-2.49613877
 74
       0
 49
0.0
 74
       0
 49
-2.49613877
 74
       0
  0
LTYPE
  5
2E
100
AcDbSymbolTableRecord
100
AcDbLinetypeTableRecord
  2
DIVIDE2
 70
      64
  3
CADPAC LINETYPE
 72
      65
 73
       6
 40
9.36052037
 49
3.74420815
 74
       0
 49
-1.87210407
 74
       0
 49
0.0
 74
       0
 49
-1.87210407
 74
       0
 49
0.0
 74
       0
 49
-1.87210407
 74
       0
  0
LTYPE
  5
2F
100
AcDbSymbolTableRecord
100
AcDbLinetypeTableRecord
  2
BORDERX2
 70
      64
  3
CADPAC LINETYPE
 72
      65
 73
       6
 40
21.8412142
 49
6.24034692
 74
       0
 49
-3.12017346
 74
       0
 49
6.24034692
 74
       0
 49
-3.12017346
 74
       0
 49
0.0
 74
       0
 49
-3.12017346
 74
       0
  0
LTYPE
  5
30
100
AcDbSymbolTableRecord
100
AcDbLinetypeTableRecord
  2
BORDER
 70
      64
  3
CADPAC LINETYPE
 72
      65
 73
       6
 40
17.47297136
 49
4.99227753
 74
       0
 49
-2.49613877
 74
       0
 49
4.99227753
 74
       0
 49
-2.49613877
 74
       0
 49
0.0
 74
       0
 49
-2.49613877
 74
       0
  0
LTYPE
  5
31
100
AcDbSymbolTableRecord
100
AcDbLinetypeTableRecord
  2
BORDER2
 70
      64
  3
CADPAC LINETYPE
 72
      65
 73
       6
 40
13.10472852
 49
3.74420815
 74
       0
 49
-1.87210407
 74
       0
 49
3.74420815
 74
       0
 49
-1.87210407
 74
       0
 49
0.0
 74
       0
 49
-1.87210407
 74
       0
  0
LTYPE
  5
32
100
AcDbSymbolTableRecord
100
AcDbLinetypeTableRecord
  2
PHANTOMX2
 70
      64
  3
CADPAC LINETYPE
 72
      65
 73
       6
 40
18.72104075
 49
6.24034692
 74
       0
 49
-2.49613877
 74
       0
 49
2.49613877
 74
       0
 49
-2.49613877
 74
       0
 49
2.49613877
 74
       0
 49
-2.49613877
 74
       0
  0
LTYPE
  5
33
100
AcDbSymbolTableRecord
100
AcDbLinetypeTableRecord
  2
PHANTOM
 70
      64
  3
CADPAC LINETYPE
 72
      65
 73
       6
 40
15.47606035
 49
4.99227753
 74
       0
 49
-2.49613877
 74
       0
 49
1.49768326
 74
       0
 49
-2.49613877
 74
       0
 49
1.49768326
 74
       0
 49
-2.49613877
 74
       0
  0
LTYPE
  5
34
100
AcDbSymbolTableRecord
100
AcDbLinetypeTableRecord
  2
PHANTOM2
 70
      64
  3
CADPAC LINETYPE
 72
      65
 73
       6
 40
13.22953546
 49
3.74420815
 74
       0
 49
-2.49613877
 74
       0
 49
0.99845551
 74
       0
 49
-2.49613877
 74
       0
 49
0.99845551
 74
       0
 49
-2.49613877
 74
       0
  0
LTYPE
  5
35
100
AcDbSymbolTableRecord
100
AcDbLinetypeTableRecord
  2
ACAD_ISO06W100
 70
      64
  3
CADPAC LINETYPE
 72
      65
 73
       8
 40
16.84893667
 49
6.24034692
 74
       0
 49
-3.12017346
 74
       0
 49
0.0
 74
       0
 49
-2.49613877
 74
       0
 49
0.0
 74
       0
 49
-2.49613877
 74
       0
 49
0.0
 74
       0
 49
-2.49613877
 74
       0
  0
LTYPE
  5
36
100
AcDbSymbolTableRecord
100
AcDbLinetypeTableRecord
  2
ACAD_ISO13W100
 70
      64
  3
CADPAC LINETYPE
 72
      65
 73
       8
 40
19.96911013
 49
4.99227753
 74
       0
 49
-2.49613877
 74
       0
 49
4.99227753
 74
       0
 49
-2.49613877
 74
       0
 49
0.0
 74
       0
 49
-2.49613877
 74
       0
 49
0.0
 74
       0
 49
-2.49613877
 74
       0
  0
LTYPE
  5
37
100
AcDbSymbolTableRecord
100
AcDbLinetypeTableRecord
  2
ACAD_ISO14W100
 70
      64
  3
CADPAC LINETYPE
 72
      65
 73
       8
 40
14.9768326
 49
4.99227753
 74
       0
 49
-2.49613877
 74
       0
 49
0.0
 74
       0
 49
-2.49613877
 74
       0
 49
0.0
 74
       0
 49
-2.49613877
 74
       0
 49
0.0
 74
       0
 49
-2.49613877
 74
       0
  0
ENDTAB
  0
TABLE
  2
LAYER
  5
2
100
AcDbSymbolTable
 70
       2
  0
LAYER
  5
14
100
AcDbSymbolTableRecord
100
AcDbLayerTableRecord
  2
0
 70
       0
 62
       7
  6
CONTINUOUS
  0
LAYER
  5
38
100
AcDbSymbolTableRecord
100
AcDbLayerTableRecord
  2
レイヤー_1
 70
       0
 62
       7
  6
CONTINUOUS
  0
ENDTAB
  0
TABLE
  2
STYLE
  5
3
100
AcDbSymbolTable
 70
       1
  0
STYLE
  5
17
100
AcDbSymbolTableRecord
100
AcDbTextStyleTableRecord
  2
STANDARD
 70
       0
 40
0.0
 41
0.8
 50
0.0
 71
       0
 42
5.0
  3
txt.shx
  4
bigfont.shx
  0
ENDTAB
  0
TABLE
  2
VIEW
  5
5
100
AcDbSymbolTable
 70
       1
  0
VIEW
  5
39
100
AcDbSymbolTableRecord
100
AcDbViewTableRecord
  2
QQQQ
 70
       0
 40
174.91366382
 10
0.0
 20
-9.09582048
 41
265.2147439
 11
0.0
 21
0.0
 31
1.0
 12
100.0
 22
100.0
 32
0.0
 42
50.0
 43
0.0
 44
0.0
 50
0.0
 71
       0
  0
ENDTAB
  0
TABLE
  2
UCS
  5
6
100
AcDbSymbolTable
 70
       0
  0
ENDTAB
  0
TABLE
  2
APPID
  5
8
100
AcDbSymbolTable
 70
       1
  0
APPID
  5
16
100
AcDbSymbolTableRecord
100
AcDbRegAppTableRecord
  2
ACAD
 70
       0
  0
ENDTAB
  0
TABLE
  2
DIMSTYLE
  5
9
100
AcDbSymbolTable
 70
       1
  0
DIMSTYLE
105
18
100
AcDbSymbolTableRecord
100
AcDbDimStyleTableRecord
  2
STANDARD
 70
       0
  3

  4

  5

  6

  7

 40
1.0
 41
0.18
 42
0.0625
 43
0.38
 44
0.18
 45
0.0
 46
0.0
 47
0.0
 48
0.0
 71
       0
 72
       0
 73
       1
 74
       1
 75
       0
 76
       0
 77
       0
 78
       0
140
0.18
141
0.09
142
0.0
143
25.4
144
1.0
145
0.0
146
1.0
147
0.09
170
       0
171
       2
172
       0
173
       0
174
       0
175
       0
176
       0
177
       0
178
       0
270
       2
271
       4
272
       4
273
       2
274
       2
275
       0
280
       0
281
       0
282
       0
283
       1
284
       0
285
       0
286
       0
287
       0
288
       0
340
17
  0
ENDTAB
  0
TABLE
  2
BLOCK_RECORD
  5
1
100
AcDbSymbolTable
 70
       0
  0
BLOCK_RECORD
  5
A
100
AcDbSymbolTableRecord
100
AcDbBlockTableRecord
  2
*MODEL_SPACE
  0
BLOCK_RECORD
  5
B
100
AcDbSymbolTableRecord
100
AcDbBlockTableRecord
  2
*PAPER_SPACE
  0
ENDTAB
  0
ENDSEC
  0
SECTION
  2
BLOCKS
  0
BLOCK
  5
D
100
AcDbEntity
  8
0
100
AcDbBlockBegin
  2
*MODEL_SPACE
 70
       0
 10
0.0
 20
0.0
 30
0.0
  3
*MODEL_SPACE
  1

  0
ENDBLK
  5
E
100
AcDbEntity
  8
0
100
AcDbBlockEnd
  0
BLOCK
  5
F
100
AcDbEntity
 67
       1
  8
0
100
AcDbBlockBegin
  2
*PAPER_SPACE
 70
       0
 10
0.0
 20
0.0
 30
0.0
  3
*PAPER_SPACE
  1

  0
ENDBLK
  5
10
100
AcDbEntity
 67
       1
  8
0
100
AcDbBlockEnd
  0
ENDSEC
  0
SECTION
  2
ENTITIES
  0
LINE
  5
3A
100
AcDbEntity
  8
レイヤー_1
  6
CONTINUOUS
 62
       3
100
AcDbLine
 10
105.80082023
 20
56.51011656
 30
0.0
 11
105.9237267
 21
56.51508429
 31
0.0
  0
LINE
  5
3B
100
AcDbEntity
  8
レイヤー_1
  6
CONTINUOUS
 62
       3
100
AcDbLine
 10
105.9237267
 20
56.51508429
 30
0.0
 11
106.04388463
 21
56.52973036
 31
0.0
  0
LINE
  5
3C
100
AcDbEntity
  8
レイヤー_1
  6
CONTINUOUS
 62
       3
100
AcDbLine
 10
106.04388463
 20
56.52973036
 30
0.0
 11
106.16090968
 21
56.55366914
 31
0.0
  0
LINE
  5
3D
100
AcDbEntity
  8
レイヤー_1
  6
CONTINUOUS
 62
       3
100
AcDbLine
 10
106.16090968
 20
56.55366914
 30
0.0
 11
106.2744175
 21
56.58651501
 31
0.0
  0
LINE
  5
3E
100
AcDbEntity
  8
レイヤー_1
  6
CONTINUOUS
 62
       3
100
AcDbLine
 10
106.2744175
 20
56.58651501
 30
0.0
 11
106.38402375
 21
56.62788231
 31
0.0
  0
LINE
  5
3F
100
AcDbEntity
  8
レイヤー_1
  6
CONTINUOUS
 62
       3
100
AcDbLine
 10
106.38402375
 20
56.62788231
 30
0.0
 11
106.48934408
 21
56.67738541
 31
0.0
  0
LINE
  5
40
100
AcDbEntity
  8
レイヤー_1
  6
CONTINUOUS
 62
       3
100
AcDbLine
 10
106.48934408
 20
56.67738541
 30
0.0
 11
106.58999418
 21
56.73463871
 31
0.0
  0
LINE
  5
41
100
AcDbEntity
  8
レイヤー_1
  6
CONTINUOUS
 62
       3
100
AcDbLine
 10
106.58999418
 20
56.73463871
 30
0.0
 11
106.68558965
 21
56.79925654
 31
0.0
  0
LINE
  5
42
100
AcDbEntity
  8
レイヤー_1
  6
CONTINUOUS
 62
       3
100
AcDbLine
 10
106.68558965
 20
56.79925654
 30
0.0
 11
106.77574618
 21
56.87085326
 31
0.0
  0
LINE
  5
43
100
AcDbEntity
  8
レイヤー_1
  6
CONTINUOUS
 62
       3
100
AcDbLine
 10
106.77574618
 20
56.87085326
 30
0.0
 11
106.86007943
 21
56.94904326
 31
0.0
  0
LINE
  5
44
100
AcDbEntity
  8
レイヤー_1
  6
CONTINUOUS
 62
       3
100
AcDbLine
 10
106.86007943
 20
56.94904326
 30
0.0
 11
106.93820503
 21
57.03344089
 31
0.0
  0
LINE
  5
45
100
AcDbEntity
  8
レイヤー_1
  6
CONTINUOUS
 62
       3
100
AcDbLine
 10
106.93820503
 20
57.03344089
 30
0.0
 11
107.00973868
 21
57.12366051
 31
0.0
  0
LINE
  5
46
100
AcDbEntity
  8
レイヤー_1
  6
CONTINUOUS
 62
       3
100
AcDbLine
 10
107.00973868
 20
57.12366051
 30
0.0
 11
107.074296
 21
57.21931649
 31
0.0
  0
LINE
  5
47
100
AcDbEntity
  8
レイヤー_1
  6
CONTINUOUS
 62
       3
100
AcDbLine
 10
107.074296
 20
57.21931649
 30
0.0
 11
107.13149265
 21
57.32002321
 31
0.0
  0
LINE
  5
48
100
AcDbEntity
  8
レイヤー_1
  6
CONTINUOUS
 62
       3
100
AcDbLine
 10
107.13149265
 20
57.32002321
 30
0.0
 11
107.1809443
 21
57.42539499
 31
0.0
  0
LINE
  5
49
100
AcDbEntity
  8
レイヤー_1
  6
CONTINUOUS
 62
       3
100
AcDbLine
 10
107.1809443
 20
57.42539499
 30
0.0
 11
107.22226663
 21
57.53504626
 31
0.0
  0
LINE
  5
4A
100
AcDbEntity
  8
レイヤー_1
  6
CONTINUOUS
 62
       3
100
AcDbLine
 10
107.22226663
 20
57.53504626
 30
0.0
 11
107.25507523
 21
57.64859131
 31
0.0
  0
LINE
  5
4B
100
AcDbEntity
  8
レイヤー_1
  6
CONTINUOUS
 62
       3
100
AcDbLine
 10
107.25507523
 20
57.64859131
 30
0.0
 11
107.2789858
 21
57.76564459
 31
0.0
  0
LINE
  5
4C
100
AcDbEntity
  8
レイヤー_1
  6
CONTINUOUS
 62
       3
100
AcDbLine
 10
107.2789858
 20
57.76564459
 30
0.0
 11
107.293614
 21
57.88582039
 31
0.0
  0
LINE
  5
4D
100
AcDbEntity
  8
レイヤー_1
  6
CONTINUOUS
 62
       3
100
AcDbLine
 10
107.293614
 20
57.88582039
 30
0.0
 11
107.29857548
 21
58.00873309
 31
0.0
  0
LINE
  5
4E
100
AcDbEntity
  8
レイヤー_1
  6
CONTINUOUS
 62
       3
100
AcDbLine
 10
113.29218035
 20
58.75804136
 30
0.0
 11
113.2792354
 21
59.03870336
 31
0.0
  0
LINE
  5
4F
100
AcDbEntity
  8
レイヤー_1
  6
CONTINUOUS
 62
       3
100
AcDbLine
 10
113.2792354
 20
59.03870336
 30
0.0
 11
113.2411661
 21
59.31207099
 31
0.0
  0
LINE
  5
50
100
AcDbEntity
  8
レイヤー_1
  6
CONTINUOUS
 62
       3
100
AcDbLine
 10
113.2411661
 20
59.31207099
 30
0.0
 11
113.17912088
 21
59.57699199
 31
0.0
  0
LINE
  5
51
100
AcDbEntity
  8
レイヤー_1
  6
CONTINUOUS
 62
       3
100
AcDbLine
 10
113.17912088
 20
59.57699199
 30
0.0
 11
113.0942481
 21
59.83231414
 31
0.0
  0
LINE
  5
52
100
AcDbEntity
  8
レイヤー_1
  6
CONTINUOUS
 62
       3
100
AcDbLine
 10
113.0942481
 20
59.83231414
 30
0.0
 11
112.98769618
 21
60.07688519
 31
0.0
  0
LINE
  5
53
100
AcDbEntity
  8
レイヤー_1
  6
CONTINUOUS
 62
       3
100
AcDbLine
 10
112.98769618
 20
60.07688519
 30
0.0
 11
112.8606135
 21
60.30955289
 31
0.0
  0
LINE
  5
54
100
AcDbEntity
  8
レイヤー_1
  6
CONTINUOUS
 62
       3
100
AcDbLine
 10
112.8606135
 20
60.30955289
 30
0.0
 11
112.71414845
 21
60.52916496
 31
0.0
  0
LINE
  5
55
100
AcDbEntity
  8
レイヤー_1
  6
CONTINUOUS
 62
       3
100
AcDbLine
 10
112.71414845
 20
60.52916496
 30
0.0
 11
112.54944943
 21
60.73456919
 31
0.0
  0
LINE
  5
56
100
AcDbEntity
  8
レイヤー_1
  6
CONTINUOUS
 62
       3
100
AcDbLine
 10
112.54944943
 20
60.73456919
 30
0.0
 11
112.36766483
 21
60.92461331
 31
0.0
  0
LINE
  5
57
100
AcDbEntity
  8
レイヤー_1
  6
CONTINUOUS
 62
       3
100
AcDbLine
 10
112.36766483
 20
60.92461331
 30
0.0
 11
112.169943
 21
61.09814509
 31
0.0
  0
LINE
  5
58
100
AcDbEntity
  8
レイヤー_1
  6
CONTINUOUS
 62
       3
100
AcDbLine
 10
112.169943
 20
61.09814509
 30
0.0
 11
111.9574324
 21
61.25401224
 31
0.0
  0
LINE
  5
59
100
AcDbEntity
  8
レイヤー_1
  6
CONTINUOUS
 62
       3
100
AcDbLine
 10
111.9574324
 20
61.25401224
 30
0.0
 11
111.7312814
 21
61.39106256
 31
0.0
  0
LINE
  5
5A
100
AcDbEntity
  8
レイヤー_1
  6
CONTINUOUS
 62
       3
100
AcDbLine
 10
111.7312814
 20
61.39106256
 30
0.0
 11
111.49263835
 21
61.50814379
 31
0.0
  0
LINE
  5
5B
100
AcDbEntity
  8
レイヤー_1
  6
CONTINUOUS
 62
       3
100
AcDbLine
 10
111.49263835
 20
61.50814379
 30
0.0
 11
111.2426517
 21
61.60410366
 31
0.0
  0
LINE
  5
5C
100
AcDbEntity
  8
レイヤー_1
  6
CONTINUOUS
 62
       3
100
AcDbLine
 10
111.2426517
 20
61.60410366
 30
0.0
 11
110.98246983
 21
61.67778991
 31
0.0
  0
LINE
  5
5D
100
AcDbEntity
  8
レイヤー_1
  6
CONTINUOUS
 62
       3
100
AcDbLine
 10
110.98246983
 20
61.67778991
 30
0.0
 11
110.7132411
 21
61.72805036
 31
0.0
  0
LINE
  5
5E
100
AcDbEntity
  8
レイヤー_1
  6
CONTINUOUS
 62
       3
100
AcDbLine
 10
110.7132411
 20
61.72805036
 30
0.0
 11
110.43611393
 21
61.75373269
 31
0.0
  0
LINE
  5
5F
100
AcDbEntity
  8
レイヤー_1
  6
CONTINUOUS
 62
       3
100
AcDbLine
 10
110.43611393
 20
61.75373269
 30
0.0
 11
110.1539917
 21
61.75373269
 31
0.0
  0
LINE
  5
60
100
AcDbEntity
  8
レイヤー_1
  6
CONTINUOUS
 62
       3
100
AcDbLine
 10
110.1539917
 20
61.75373269
 30
0.0
 11
109.87722675
 21
61.72805036
 31
0.0
  0
LINE
  5
61
100
AcDbEntity
  8
レイヤー_1
  6
CONTINUOUS
 62
       3
100
AcDbLine
 10
109.87722675
 20
61.72805036
 30
0.0
 11
109.60828603
 21
61.67778991
 31
0.0
  0
LINE
  5
62
100
AcDbEntity
  8
レイヤー_1
  6
CONTINUOUS
 62
       3
100
AcDbLine
 10
109.60828603
 20
61.67778991
 30
0.0
 11
109.34832463
 21
61.60410366
 31
0.0
  0
LINE
  5
63
100
AcDbEntity
  8
レイヤー_1
  6
CONTINUOUS
 62
       3
100
AcDbLine
 10
109.34832463
 20
61.60410366
 30
0.0
 11
109.0984977
 21
61.50814379
 31
0.0
  0
LINE
  5
64
100
AcDbEntity
  8
レイヤー_1
  6
CONTINUOUS
 62
       3
100
AcDbLine
 10
109.0984977
 20
61.50814379
 30
0.0
 11
108.8599604
 21
61.39106256
 31
0.0
  0
LINE
  5
65
100
AcDbEntity
  8
レイヤー_1
  6
CONTINUOUS
 62
       3
100
AcDbLine
 10
108.8599604
 20
61.39106256
 30
0.0
 11
108.6338679
 21
61.25401224
 31
0.0
  0
LINE
  5
66
100
AcDbEntity
  8
レイヤー_1
  6
CONTINUOUS
 62
       3
100
AcDbLine
 10
108.6338679
 20
61.25401224
 30
0.0
 11
108.4213753
 21
61.09814509
 31
0.0
  0
LINE
  5
67
100
AcDbEntity
  8
レイヤー_1
  6
CONTINUOUS
 62
       3
100
AcDbLine
 10
108.4213753
 20
61.09814509
 30
0.0
 11
108.22363773
 21
60.92461331
 31
0.0
  0
LINE
  5
68
100
AcDbEntity
  8
レイヤー_1
  6
CONTINUOUS
 62
       3
100
AcDbLine
 10
108.22363773
 20
60.92461331
 30
0.0
 11
108.04181038
 21
60.73456919
 31
0.0
  0
LINE
  5
69
100
AcDbEntity
  8
レイヤー_1
  6
CONTINUOUS
 62
       3
100
AcDbLine
 10
108.04181038
 20
60.73456919
 30
0.0
 11
107.87704835
 21
60.52916496
 31
0.0
  0
LINE
  5
6A
100
AcDbEntity
  8
レイヤー_1
  6
CONTINUOUS
 62
       3
100
AcDbLine
 10
107.87704835
 20
60.52916496
 30
0.0
 11
107.7305068
 21
60.30955289
 31
0.0
  0
LINE
  5
6B
100
AcDbEntity
  8
レイヤー_1
  6
CONTINUOUS
 62
       3
100
AcDbLine
 10
107.7305068
 20
60.30955289
 30
0.0
 11
107.60334088
 21
60.07688519
 31
0.0
  0
LINE
  5
6C
100
AcDbEntity
  8
レイヤー_1
  6
CONTINUOUS
 62
       3
100
AcDbLine
 10
107.60334088
 20
60.07688519
 30
0.0
 11
107.49670573
 21
59.83231414
 31
0.0
  0
LINE
  5
6D
100
AcDbEntity
  8
レイヤー_1
  6
CONTINUOUS
 62
       3
100
AcDbLine
 10
107.49670573
 20
59.83231414
 30
0.0
 11
107.41175645
 21
59.57699199
 31
0.0
  0
LINE
  5
6E
100
AcDbEntity
  8
レイヤー_1
  6
CONTINUOUS
 62
       3
100
AcDbLine
 10
107.41175645
 20
59.57699199
 30
0.0
 11
107.34964823
 21
59.31207099
 31
0.0
  0
LINE
  5
6F
100
AcDbEntity
  8
レイヤー_1
  6
CONTINUOUS
 62
       3
100
AcDbLine
 10
107.34964823
 20
59.31207099
 30
0.0
 11
107.3115362
 21
59.03870336
 31
0.0
  0
LINE
  5
70
100
AcDbEntity
  8
レイヤー_1
  6
CONTINUOUS
 62
       3
100
AcDbLine
 10
107.3115362
 20
59.03870336
 30
0.0
 11
107.29857548
 21
58.75804136
 31
0.0
  0
LINE
  5
71
100
AcDbEntity
  8
レイヤー_1
  6
CONTINUOUS
 62
       3
100
AcDbLine
 10
105.80082023
 20
55.01150004
 30
0.0
 11
106.04652283
 21
55.02143546
 31
0.0
  0
LINE
  5
72
100
AcDbEntity
  8
レイヤー_1
  6
CONTINUOUS
 62
       3
100
AcDbLine
 10
106.04652283
 20
55.02143546
 30
0.0
 11
106.28676385
 21
55.05072761
 31
0.0
  0
LINE
  5
73
100
AcDbEntity
  8
レイヤー_1
  6
CONTINUOUS
 62
       3
100
AcDbLine
 10
106.28676385
 20
55.05072761
 30
0.0
 11
106.52077143
 21
55.09860519
 31
0.0
  0
LINE
  5
74
100
AcDbEntity
  8
レイヤー_1
  6
CONTINUOUS
 62
       3
100
AcDbLine
 10
106.52077143
 20
55.09860519
 30
0.0
 11
106.74777363
 21
55.16429691
 31
0.0
  0
LINE
  5
75
100
AcDbEntity
  8
レイヤー_1
  6
CONTINUOUS
 62
       3
100
AcDbLine
 10
106.74777363
 20
55.16429691
 30
0.0
 11
106.9669985
 21
55.24703151
 31
0.0
  0
LINE
  5
76
100
AcDbEntity
  8
レイヤー_1
  6
CONTINUOUS
 62
       3
100
AcDbLine
 10
106.9669985
 20
55.24703151
 30
0.0
 11
107.17767415
 21
55.34603774
 31
0.0
  0
LINE
  5
77
100
AcDbEntity
  8
レイヤー_1
  6
CONTINUOUS
 62
       3
100
AcDbLine
 10
107.17767415
 20
55.34603774
 30
0.0
 11
107.3790287
 21
55.46054431
 31
0.0
  0
LINE
  5
78
100
AcDbEntity
  8
レイヤー_1
  6
CONTINUOUS
 62
       3
100
AcDbLine
 10
107.3790287
 20
55.46054431
 30
0.0
 11
107.57029018
 21
55.58977999
 31
0.0
  0
LINE
  5
79
100
AcDbEntity
  8
レイヤー_1
  6
CONTINUOUS
 62
       3
100
AcDbLine
 10
107.57029018
 20
55.58977999
 30
0.0
 11
107.75068668
 21
55.73297344
 31
0.0
  0
LINE
  5
7A
100
AcDbEntity
  8
レイヤー_1
  6
CONTINUOUS
 62
       3
100
AcDbLine
 10
107.75068668
 20
55.73297344
 30
0.0
 11
107.91944628
 21
55.88935341
 31
0.0
  0
LINE
  5
7B
100
AcDbEntity
  8
レイヤー_1
  6
CONTINUOUS
 62
       3
100
AcDbLine
 10
107.91944628
 20
55.88935341
 30
0.0
 11
108.0757971
 21
56.05814866
 31
0.0
  0
LINE
  5
7C
100
AcDbEntity
  8
レイヤー_1
  6
CONTINUOUS
 62
       3
100
AcDbLine
 10
108.0757971
 20
56.05814866
 30
0.0
 11
108.2189672
 21
56.23858791
 31
0.0
  0
LINE
  5
7D
100
AcDbEntity
  8
レイヤー_1
  6
CONTINUOUS
 62
       3
100
AcDbLine
 10
108.2189672
 20
56.23858791
 30
0.0
 11
108.34818465
 21
56.42989989
 31
0.0
  0
LINE
  5
7E
100
AcDbEntity
  8
レイヤー_1
  6
CONTINUOUS
 62
       3
100
AcDbLine
 10
108.34818465
 20
56.42989989
 30
0.0
 11
108.46267755
 21
56.63131331
 31
0.0
  0
LINE
  5
7F
100
AcDbEntity
  8
レイヤー_1
  6
CONTINUOUS
 62
       3
100
AcDbLine
 10
108.46267755
 20
56.63131331
 30
0.0
 11
108.56167398
 21
56.84205689
 31
0.0
  0
LINE
  5
80
100
AcDbEntity
  8
レイヤー_1
  6
CONTINUOUS
 62
       3
100
AcDbLine
 10
108.56167398
 20
56.84205689
 30
0.0
 11
108.64440203
 21
57.06135941
 31
0.0
  0
LINE
  5
81
100
AcDbEntity
  8
レイヤー_1
  6
CONTINUOUS
 62
       3
100
AcDbLine
 10
108.64440203
 20
57.06135941
 30
0.0
 11
108.71008978
 21
57.28844954
 31
0.0
  0
LINE
  5
82
100
AcDbEntity
  8
レイヤー_1
  6
CONTINUOUS
 62
       3
100
AcDbLine
 10
108.71008978
 20
57.28844954
 30
0.0
 11
108.7579653
 21
57.52255606
 31
0.0
  0
LINE
  5
83
100
AcDbEntity
  8
レイヤー_1
  6
CONTINUOUS
 62
       3
100
AcDbLine
 10
108.7579653
 20
57.52255606
 30
0.0
 11
108.78725668
 21
57.76290766
 31
0.0
  0
LINE
  5
84
100
AcDbEntity
  8
レイヤー_1
  6
CONTINUOUS
 62
       3
100
AcDbLine
 10
108.78725668
 20
57.76290766
 30
0.0
 11
108.79719203
 21
58.00873309
 31
0.0
  0
LINE
  5
85
100
AcDbEntity
  8
レイヤー_1
  6
CONTINUOUS
 62
       3
100
AcDbLine
 10
111.7944251
 20
58.75804136
 30
0.0
 11
111.78794848
 21
58.89843799
 31
0.0
  0
LINE
  5
86
100
AcDbEntity
  8
レイヤー_1
  6
CONTINUOUS
 62
       3
100
AcDbLine
 10
111.78794848
 20
58.89843799
 30
0.0
 11
111.76890173
 21
59.03517199
 31
0.0
  0
LINE
  5
87
100
AcDbEntity
  8
レイヤー_1
  6
CONTINUOUS
 62
       3
100
AcDbLine
 10
111.76890173
 20
59.03517199
 30
0.0
 11
111.73785955
 21
59.16766874
 31
0.0
  0
LINE
  5
88
100
AcDbEntity
  8
レイヤー_1
  6
CONTINUOUS
 62
       3
100
AcDbLine
 10
111.73785955
 20
59.16766874
 30
0.0
 11
111.69539663
 21
59.29535349
 31
0.0
  0
LINE
  5
89
100
AcDbEntity
  8
レイヤー_1
  6
CONTINUOUS
 62
       3
100
AcDbLine
 10
111.69539663
 20
59.29535349
 30
0.0
 11
111.6420876
 21
59.41765161
 31
0.0
  0
LINE
  5
8A
100
AcDbEntity
  8
レイヤー_1
  6
CONTINUOUS
 62
       3
100
AcDbLine
 10
111.6420876
 20
59.41765161
 30
0.0
 11
111.57850715
 21
59.53398839
 31
0.0
  0
LINE
  5
8B
100
AcDbEntity
  8
レイヤー_1
  6
CONTINUOUS
 62
       3
100
AcDbLine
 10
111.57850715
 20
59.53398839
 30
0.0
 11
111.50523
 21
59.64378919
 31
0.0
  0
LINE
  5
8C
100
AcDbEntity
  8
レイヤー_1
  6
CONTINUOUS
 62
       3
100
AcDbLine
 10
111.50523
 20
59.64378919
 30
0.0
 11
111.42283078
 21
59.74647931
 31
0.0
  0
LINE
  5
8D
100
AcDbEntity
  8
レイヤー_1
  6
CONTINUOUS
 62
       3
100
AcDbLine
 10
111.42283078
 20
59.74647931
 30
0.0
 11
111.3318842
 21
59.84148409
 31
0.0
  0
LINE
  5
8E
100
AcDbEntity
  8
レイヤー_1
  6
CONTINUOUS
 62
       3
100
AcDbLine
 10
111.3318842
 20
59.84148409
 30
0.0
 11
111.23296493
 21
59.92822881
 31
0.0
  0
LINE
  5
8F
100
AcDbEntity
  8
レイヤー_1
  6
CONTINUOUS
 62
       3
100
AcDbLine
 10
111.23296493
 20
59.92822881
 30
0.0
 11
111.12664763
 21
60.00613884
 31
0.0
  0
LINE
  5
90
100
AcDbEntity
  8
レイヤー_1
  6
CONTINUOUS
 62
       3
100
AcDbLine
 10
111.12664763
 20
60.00613884
 30
0.0
 11
111.013507
 21
60.07463946
 31
0.0
  0
LINE
  5
91
100
AcDbEntity
  8
レイヤー_1
  6
CONTINUOUS
 62
       3
100
AcDbLine
 10
111.013507
 20
60.07463946
 30
0.0
 11
110.8941177
 21
60.13315604
 31
0.0
  0
LINE
  5
92
100
AcDbEntity
  8
レイヤー_1
  6
CONTINUOUS
 62
       3
100
AcDbLine
 10
110.8941177
 20
60.13315604
 30
0.0
 11
110.76905443
 21
60.18111386
 31
0.0
  0
LINE
  5
93
100
AcDbEntity
  8
レイヤー_1
  6
CONTINUOUS
 62
       3
100
AcDbLine
 10
110.76905443
 20
60.18111386
 30
0.0
 11
110.63889185
 21
60.21793824
 31
0.0
  0
LINE
  5
94
100
AcDbEntity
  8
レイヤー_1
  6
CONTINUOUS
 62
       3
100
AcDbLine
 10
110.63889185
 20
60.21793824
 30
0.0
 11
110.50420465
 21
60.24305454
 31
0.0
  0
LINE
  5
95
100
AcDbEntity
  8
レイヤー_1
  6
CONTINUOUS
 62
       3
100
AcDbLine
 10
110.50420465
 20
60.24305454
 30
0.0
 11
110.3655675
 21
60.25588806
 31
0.0
  0
LINE
  5
96
100
AcDbEntity
  8
レイヤー_1
  6
CONTINUOUS
 62
       3
100
AcDbLine
 10
110.3655675
 20
60.25588806
 30
0.0
 11
110.22447053
 21
60.25588806
 31
0.0
  0
LINE
  5
97
100
AcDbEntity
  8
レイヤー_1
  6
CONTINUOUS
 62
       3
100
AcDbLine
 10
110.22447053
 20
60.25588806
 30
0.0
 11
110.08609598
 21
60.24305454
 31
0.0
  0
LINE
  5
98
100
AcDbEntity
  8
レイヤー_1
  6
CONTINUOUS
 62
       3
100
AcDbLine
 10
110.08609598
 20
60.24305454
 30
0.0
 11
109.9516405
 21
60.21793824
 31
0.0
  0
LINE
  5
99
100
AcDbEntity
  8
レイヤー_1
  6
CONTINUOUS
 62
       3
100
AcDbLine
 10
109.9516405
 20
60.21793824
 30
0.0
 11
109.82168073
 21
60.18111386
 31
0.0
  0
LINE
  5
9A
100
AcDbEntity
  8
レイヤー_1
  6
CONTINUOUS
 62
       3
100
AcDbLine
 10
109.82168073
 20
60.18111386
 30
0.0
 11
109.69679328
 21
60.13315604
 31
0.0
  0
LINE
  5
9B
100
AcDbEntity
  8
レイヤー_1
  6
CONTINUOUS
 62
       3
100
AcDbLine
 10
109.69679328
 20
60.13315604
 30
0.0
 11
109.57755473
 21
60.07463946
 31
0.0
  0
LINE
  5
9C
100
AcDbEntity
  8
レイヤー_1
  6
CONTINUOUS
 62
       3
100
AcDbLine
 10
109.57755473
 20
60.07463946
 30
0.0
 11
109.46454168
 21
60.00613884
 31
0.0
  0
LINE
  5
9D
100
AcDbEntity
  8
レイヤー_1
  6
CONTINUOUS
 62
       3
100
AcDbLine
 10
109.46454168
 20
60.00613884
 30
0.0
 11
109.35833078
 21
59.92822881
 31
0.0
  0
LINE
  5
9E
100
AcDbEntity
  8
レイヤー_1
  6
CONTINUOUS
 62
       3
100
AcDbLine
 10
109.35833078
 20
59.92822881
 30
0.0
 11
109.2594986
 21
59.84148409
 31
0.0
  0
LINE
  5
9F
100
AcDbEntity
  8
レイヤー_1
  6
CONTINUOUS
 62
       3
100
AcDbLine
 10
109.2594986
 20
59.84148409
 30
0.0
 11
109.16862178
 21
59.74647931
 31
0.0
  0
LINE
  5
A0
100
AcDbEntity
  8
レイヤー_1
  6
CONTINUOUS
 62
       3
100
AcDbLine
 10
109.16862178
 20
59.74647931
 30
0.0
 11
109.08627688
 21
59.64378919
 31
0.0
  0
LINE
  5
A1
100
AcDbEntity
  8
レイヤー_1
  6
CONTINUOUS
 62
       3
100
AcDbLine
 10
109.08627688
 20
59.64378919
 30
0.0
 11
109.01304053
 21
59.53398839
 31
0.0
  0
LINE
  5
A2
100
AcDbEntity
  8
レイヤー_1
  6
CONTINUOUS
 62
       3
100
AcDbLine
 10
109.01304053
 20
59.53398839
 30
0.0
 11
108.94948935
 21
59.41765161
 31
0.0
  0
LINE
  5
A3
100
AcDbEntity
  8
レイヤー_1
  6
CONTINUOUS
 62
       3
100
AcDbLine
 10
108.94948935
 20
59.41765161
 30
0.0
 11
108.89619993
 21
59.29535349
 31
0.0
  0
LINE
  5
A4
100
AcDbEntity
  8
レイヤー_1
  6
CONTINUOUS
 62
       3
100
AcDbLine
 10
108.89619993
 20
59.29535349
 30
0.0
 11
108.85374888
 21
59.16766874
 31
0.0
  0
LINE
  5
A5
100
AcDbEntity
  8
レイヤー_1
  6
CONTINUOUS
 62
       3
100
AcDbLine
 10
108.85374888
 20
59.16766874
 30
0.0
 11
108.8227128
 21
59.03517199
 31
0.0
  0
LINE
  5
A6
100
AcDbEntity
  8
レイヤー_1
  6
CONTINUOUS
 62
       3
100
AcDbLine
 10
108.8227128
 20
59.03517199
 30
0.0
 11
108.80366833
 21
58.89843799
 31
0.0
  0
LINE
  5
A7
100
AcDbEntity
  8
レイヤー_1
  6
CONTINUOUS
 62
       3
100
AcDbLine
 10
108.80366833
 20
58.89843799
 30
0.0
 11
108.79719203
 21
58.75804136
 31
0.0
  0
LINE
  5
A8
100
AcDbEntity
  8
レイヤー_1
  6
CONTINUOUS
 62
       3
100
AcDbLine
 10
31.86993238
 20
-64.94940016
 30
0.0
 11
31.86993238
 21
-58.97237629
 31
0.0
  0
LINE
  5
A9
100
AcDbEntity
  8
レイヤー_1
  6
CONTINUOUS
 62
       3
100
AcDbLine
 10
31.86993238
 20
-58.97237629
 30
0.0
 11
31.86993238
 21
-52.18727409
 31
0.0
  0
LINE
  5
AA
100
AcDbEntity
  8
レイヤー_1
  6
CONTINUOUS
 62
       3
100
AcDbLine
 10
31.86993238
 20
-52.18727409
 30
0.0
 11
31.86993238
 21
-43.41373576
 31
0.0
  0
LINE
  5
AB
100
AcDbEntity
  8
レイヤー_1
  6
CONTINUOUS
 62
       3
100
AcDbLine
 10
31.86993238
 20
-43.41373576
 30
0.0
 11
31.86993238
 21
-33.07037944
 31
0.0
  0
LINE
  5
AC
100
AcDbEntity
  8
レイヤー_1
  6
CONTINUOUS
 62
       3
100
AcDbLine
 10
31.86993238
 20
-33.07037944
 30
0.0
 11
31.86993238
 21
-21.57582329
 31
0.0
  0
LINE
  5
AD
100
AcDbEntity
  8
レイヤー_1
  6
CONTINUOUS
 62
       3
100
AcDbLine
 10
31.86993238
 20
-21.57582329
 30
0.0
 11
31.86993238
 21
-9.34868536
 31
0.0
  0
LINE
  5
AE
100
AcDbEntity
  8
レイヤー_1
  6
CONTINUOUS
 62
       3
100
AcDbLine
 10
31.86993238
 20
-9.34868536
 30
0.0
 11
31.86993238
 21
3.19241611
 31
0.0
  0
LINE
  5
AF
100
AcDbEntity
  8
レイヤー_1
  6
CONTINUOUS
 62
       3
100
AcDbLine
 10
31.86993238
 20
3.19241611
 30
0.0
 11
31.86993238
 21
15.62886309
 31
0.0
  0
LINE
  5
B0
100
AcDbEntity
  8
レイヤー_1
  6
CONTINUOUS
 62
       3
100
AcDbLine
 10
31.86993238
 20
15.62886309
 30
0.0
 11
31.86993238
 21
27.54203739
 31
0.0
  0
LINE
  5
B1
100
AcDbEntity
  8
レイヤー_1
  6
CONTINUOUS
 62
       3
100
AcDbLine
 10
31.86993238
 20
27.54203739
 30
0.0
 11
31.86993238
 21
38.51332091
 31
0.0
  0
LINE
  5
B2
100
AcDbEntity
  8
レイヤー_1
  6
CONTINUOUS
 62
       3
100
AcDbLine
 10
31.86993238
 20
38.51332091
 30
0.0
 11
31.86993238
 21
48.12409549
 31
0.0
  0
LINE
  5
B3
100
AcDbEntity
  8
レイヤー_1
  6
CONTINUOUS
 62
       3
100
AcDbLine
 10
31.86993238
 20
48.12409549
 30
0.0
 11
31.86993238
 21
55.95574301
 31
0.0
  0
LINE
  5
B4
100
AcDbEntity
  8
レイヤー_1
  6
CONTINUOUS
 62
       3
100
AcDbLine
 10
31.86993238
 20
55.95574301
 30
0.0
 11
31.86993238
 21
61.58964536
 31
0.0
  0
LINE
  5
B5
100
AcDbEntity
  8
レイヤー_1
  6
CONTINUOUS
 62
       3
100
AcDbLine
 10
31.86993238
 20
61.58964536
 30
0.0
 11
31.86993238
 21
65.05059984
 31
0.0
  0
LINE
  5
B6
100
AcDbEntity
  8
レイヤー_1
  6
CONTINUOUS
 62
       3
100
AcDbLine
 10
98.2069685
 20
65.05059984
 30
0.0
 11
98.2069685
 21
63.67099211
 31
0.0
  0
LINE
  5
B7
100
AcDbEntity
  8
レイヤー_1
  6
CONTINUOUS
 62
       3
100
AcDbLine
 10
98.2069685
 20
63.67099211
 30
0.0
 11
98.2069685
 21
63.29480929
 31
0.0
  0
LINE
  5
B8
100
AcDbEntity
  8
レイヤー_1
  6
CONTINUOUS
 62
       3
100
AcDbLine
 10
98.2069685
 20
63.29480929
 30
0.0
 11
98.2069685
 21
62.90896696
 31
0.0
  0
LINE
  5
B9
100
AcDbEntity
  8
レイヤー_1
  6
CONTINUOUS
 62
       3
100
AcDbLine
 10
98.2069685
 20
62.90896696
 30
0.0
 11
98.2069685
 21
62.52634449
 31
0.0
  0
LINE
  5
BA
100
AcDbEntity
  8
レイヤー_1
  6
CONTINUOUS
 62
       3
100
AcDbLine
 10
98.2069685
 20
62.52634449
 30
0.0
 11
98.2069685
 21
62.15982111
 31
0.0
  0
LINE
  5
BB
100
AcDbEntity
  8
レイヤー_1
  6
CONTINUOUS
 62
       3
100
AcDbLine
 10
98.2069685
 20
62.15982111
 30
0.0
 11
98.2069685
 21
61.82227619
 31
0.0
  0
LINE
  5
BC
100
AcDbEntity
  8
レイヤー_1
  6
CONTINUOUS
 62
       3
100
AcDbLine
 10
98.2069685
 20
61.82227619
 30
0.0
 11
98.2069685
 21
61.52658896
 31
0.0
  0
LINE
  5
BD
100
AcDbEntity
  8
レイヤー_1
  6
CONTINUOUS
 62
       3
100
AcDbLine
 10
98.2069685
 20
61.52658896
 30
0.0
 11
98.2069685
 21
61.28563874
 31
0.0
  0
LINE
  5
BE
100
AcDbEntity
  8
レイヤー_1
  6
CONTINUOUS
 62
       3
100
AcDbLine
 10
98.2069685
 20
61.28563874
 30
0.0
 11
98.2069685
 21
61.11230486
 31
0.0
  0
LINE
  5
BF
100
AcDbEntity
  8
レイヤー_1
  6
CONTINUOUS
 62
       3
100
AcDbLine
 10
98.2069685
 20
61.11230486
 30
0.0
 11
98.2069685
 21
61.01946659
 31
0.0
  0
LINE
  5
C0
100
AcDbEntity
  8
レイヤー_1
  6
CONTINUOUS
 62
       3
100
AcDbLine
 10
98.2069685
 20
61.01946659
 30
0.0
 11
98.2237249
 21
60.36505819
 31
0.0
  0
LINE
  5
C1
100
AcDbEntity
  8
レイヤー_1
  6
CONTINUOUS
 62
       3
100
AcDbLine
 10
98.2237249
 20
60.36505819
 30
0.0
 11
98.35526943
 21
59.10769801
 31
0.0
  0
LINE
  5
C2
100
AcDbEntity
  8
レイヤー_1
  6
CONTINUOUS
 62
       3
100
AcDbLine
 10
98.35526943
 20
59.10769801
 30
0.0
 11
98.6119524
 21
57.89196001
 31
0.0
  0
LINE
  5
C3
100
AcDbEntity
  8
レイヤー_1
  6
CONTINUOUS
 62
       3
100
AcDbLine
 10
98.6119524
 20
57.89196001
 30
0.0
 11
98.98708925
 21
56.72452734
 31
0.0
  0
LINE
  5
C4
100
AcDbEntity
  8
レイヤー_1
  6
CONTINUOUS
 62
       3
100
AcDbLine
 10
98.98708925
 20
56.72452734
 30
0.0
 11
99.4739954
 21
55.61208321
 31
0.0
  0
LINE
  5
C5
100
AcDbEntity
  8
レイヤー_1
  6
CONTINUOUS
 62
       3
100
AcDbLine
 10
99.4739954
 20
55.61208321
 30
0.0
 11
100.06598628
 21
54.56131081
 31
0.0
  0
LINE
  5
C6
100
AcDbEntity
  8
レイヤー_1
  6
CONTINUOUS
 62
       3
100
AcDbLine
 10
100.06598628
 20
54.56131081
 30
0.0
 11
100.7563773
 21
53.57889334
 31
0.0
  0
LINE
  5
C7
100
AcDbEntity
  8
レイヤー_1
  6
CONTINUOUS
 62
       3
100
AcDbLine
 10
100.7563773
 20
53.57889334
 30
0.0
 11
101.53848388
 21
52.67151399
 31
0.0
  0
LINE
  5
C8
100
AcDbEntity
  8
レイヤー_1
  6
CONTINUOUS
 62
       3
100
AcDbLine
 10
101.53848388
 20
52.67151399
 30
0.0
 11
102.40562143
 21
51.84585594
 31
0.0
  0
LINE
  5
C9
100
AcDbEntity
  8
レイヤー_1
  6
CONTINUOUS
 62
       3
100
AcDbLine
 10
102.40562143
 20
51.84585594
 30
0.0
 11
103.3511054
 21
51.10860239
 31
0.0
  0
LINE
  5
CA
100
AcDbEntity
  8
レイヤー_1
  6
CONTINUOUS
 62
       3
100
AcDbLine
 10
103.3511054
 20
51.10860239
 30
0.0
 11
104.3682512
 21
50.46643651
 31
0.0
  0
LINE
  5
CB
100
AcDbEntity
  8
レイヤー_1
  6
CONTINUOUS
 62
       3
100
AcDbLine
 10
104.3682512
 20
50.46643651
 30
0.0
 11
105.45037425
 21
49.92604154
 31
0.0
  0
LINE
  5
CC
100
AcDbEntity
  8
レイヤー_1
  6
CONTINUOUS
 62
       3
100
AcDbLine
 10
105.45037425
 20
49.92604154
 30
0.0
 11
106.59078995
 21
49.49410061
 31
0.0
  0
LINE
  5
CD
100
AcDbEntity
  8
レイヤー_1
  6
CONTINUOUS
 62
       3
100
AcDbLine
 10
106.59078995
 20
49.49410061
 30
0.0
 11
107.78281375
 21
49.17729696
 31
0.0
  0
LINE
  5
CE
100
AcDbEntity
  8
レイヤー_1
  6
CONTINUOUS
 62
       3
100
AcDbLine
 10
107.78281375
 20
49.17729696
 30
0.0
 11
109.01976105
 21
48.98231376
 31
0.0
  0
LINE
  5
CF
100
AcDbEntity
  8
レイヤー_1
  6
CONTINUOUS
 62
       3
100
AcDbLine
 10
109.01976105
 20
48.98231376
 30
0.0
 11
110.29494728
 21
48.91583421
 31
0.0
  0
LINE
  5
D0
100
AcDbEntity
  8
レイヤー_1
  6
CONTINUOUS
 62
       3
100
AcDbLine
 10
110.29494728
 20
48.91583421
 30
0.0
 11
110.33554983
 21
48.91583421
 31
0.0
  0
LINE
  5
D1
100
AcDbEntity
  8
レイヤー_1
  6
CONTINUOUS
 62
       3
100
AcDbLine
 10
110.33554983
 20
48.91583421
 30
0.0
 11
110.4500581
 21
48.91583421
 31
0.0
  0
LINE
  5
D2
100
AcDbEntity
  8
レイヤー_1
  6
CONTINUOUS
 62
       3
100
AcDbLine
 10
110.4500581
 20
48.91583421
 30
0.0
 11
110.62752313
 21
48.91583421
 31
0.0
  0
LINE
  5
D3
100
AcDbEntity
  8
レイヤー_1
  6
CONTINUOUS
 62
       3
100
AcDbLine
 10
110.62752313
 20
48.91583421
 30
0.0
 11
113.6926727
 21
48.91583421
 31
0.0
  0
LINE
  5
D4
100
AcDbEntity
  8
レイヤー_1
  6
CONTINUOUS
 62
       3
100
AcDbLine
 10
113.6926727
 20
48.91583421
 30
0.0
 11
113.6926727
 21
-62.40424431
 31
0.0
  0
LINE
  5
D5
100
AcDbEntity
  8
レイヤー_1
  6
CONTINUOUS
 62
       3
100
AcDbLine
 10
113.6926727
 20
-59.70630389
 30
0.0
 11
112.56146113
 21
-59.72593126
 31
0.0
  0
LINE
  5
D6
100
AcDbEntity
  8
レイヤー_1
  6
CONTINUOUS
 62
       3
100
AcDbLine
 10
112.56146113
 20
-59.72593126
 30
0.0
 11
112.15298528
 21
-59.73301861
 31
0.0
  0
LINE
  5
D7
100
AcDbEntity
  8
レイヤー_1
  6
CONTINUOUS
 62
       3
100
AcDbLine
 10
112.15298528
 20
-59.73301861
 30
0.0
 11
111.71847608
 21
-59.74055769
 31
0.0
  0
LINE
  5
D8
100
AcDbEntity
  8
レイヤー_1
  6
CONTINUOUS
 62
       3
100
AcDbLine
 10
111.71847608
 20
-59.74055769
 30
0.0
 11
111.2728097
 21
-59.74829034
 31
0.0
  0
LINE
  5
D9
100
AcDbEntity
  8
レイヤー_1
  6
CONTINUOUS
 62
       3
100
AcDbLine
 10
111.2728097
 20
-59.74829034
 30
0.0
 11
110.83086238
 21
-59.75595844
 31
0.0
  0
LINE
  5
DA
100
AcDbEntity
  8
レイヤー_1
  6
CONTINUOUS
 62
       3
100
AcDbLine
 10
110.83086238
 20
-59.75595844
 30
0.0
 11
110.40751033
 21
-59.76330391
 31
0.0
  0
LINE
  5
DB
100
AcDbEntity
  8
レイヤー_1
  6
CONTINUOUS
 62
       3
100
AcDbLine
 10
110.40751033
 20
-59.76330391
 30
0.0
 11
110.01762973
 21
-59.77006864
 31
0.0
  0
LINE
  5
DC
100
AcDbEntity
  8
レイヤー_1
  6
CONTINUOUS
 62
       3
100
AcDbLine
 10
110.01762973
 20
-59.77006864
 30
0.0
 11
109.6760968
 21
-59.77599449
 31
0.0
  0
LINE
  5
DD
100
AcDbEntity
  8
レイヤー_1
  6
CONTINUOUS
 62
       3
100
AcDbLine
 10
109.6760968
 20
-59.77599449
 30
0.0
 11
109.39778778
 21
-59.78082336
 31
0.0
  0
LINE
  5
DE
100
AcDbEntity
  8
レイヤー_1
  6
CONTINUOUS
 62
       3
100
AcDbLine
 10
109.39778778
 20
-59.78082336
 30
0.0
 11
109.19757883
 21
-59.78429714
 31
0.0
  0
LINE
  5
DF
100
AcDbEntity
  8
レイヤー_1
  6
CONTINUOUS
 62
       3
100
AcDbLine
 10
109.19757883
 20
-59.78429714
 30
0.0
 11
109.09034615
 21
-59.78615769
 31
0.0
  0
LINE
  5
E0
100
AcDbEntity
  8
レイヤー_1
  6
CONTINUOUS
 62
       3
100
AcDbLine
 10
109.09034615
 20
-59.78615769
 30
0.0
 11
109.013402
 21
-59.78914086
 31
0.0
  0
LINE
  5
E1
100
AcDbEntity
  8
レイヤー_1
  6
CONTINUOUS
 62
       3
100
AcDbLine
 10
109.013402
 20
-59.78914086
 30
0.0
 11
108.89046953
 21
-59.80405684
 31
0.0
  0
LINE
  5
E2
100
AcDbEntity
  8
レイヤー_1
  6
CONTINUOUS
 62
       3
100
AcDbLine
 10
108.89046953
 20
-59.80405684
 30
0.0
 11
108.77173625
 21
-59.83102334
 31
0.0
  0
LINE
  5
E3
100
AcDbEntity
  8
レイヤー_1
  6
CONTINUOUS
 62
       3
100
AcDbLine
 10
108.77173625
 20
-59.83102334
 30
0.0
 11
108.65783638
 21
-59.86939849
 31
0.0
  0
LINE
  5
E4
100
AcDbEntity
  8
レイヤー_1
  6
CONTINUOUS
 62
       3
100
AcDbLine
 10
108.65783638
 20
-59.86939849
 30
0.0
 11
108.54940403
 21
-59.91854051
 31
0.0
  0
LINE
  5
E5
100
AcDbEntity
  8
レイヤー_1
  6
CONTINUOUS
 62
       3
100
AcDbLine
 10
108.54940403
 20
-59.91854051
 30
0.0
 11
108.44707345
 21
-59.97780756
 31
0.0
  0
LINE
  5
E6
100
AcDbEntity
  8
レイヤー_1
  6
CONTINUOUS
 62
       3
100
AcDbLine
 10
108.44707345
 20
-59.97780756
 30
0.0
 11
108.35147878
 21
-60.04655786
 31
0.0
  0
LINE
  5
E7
100
AcDbEntity
  8
レイヤー_1
  6
CONTINUOUS
 62
       3
100
AcDbLine
 10
108.35147878
 20
-60.04655786
 30
0.0
 11
108.26325423
 21
-60.12414959
 31
0.0
  0
LINE
  5
E8
100
AcDbEntity
  8
レイヤー_1
  6
CONTINUOUS
 62
       3
100
AcDbLine
 10
108.26325423
 20
-60.12414959
 30
0.0
 11
108.18303395
 21
-60.20994094
 31
0.0
  0
LINE
  5
E9
100
AcDbEntity
  8
レイヤー_1
  6
CONTINUOUS
 62
       3
100
AcDbLine
 10
108.18303395
 20
-60.20994094
 30
0.0
 11
108.11145215
 21
-60.30329006
 31
0.0
  0
LINE
  5
EA
100
AcDbEntity
  8
レイヤー_1
  6
CONTINUOUS
 62
       3
100
AcDbLine
 10
108.11145215
 20
-60.30329006
 30
0.0
 11
108.049143
 21
-60.40355516
 31
0.0
  0
LINE
  5
EB
100
AcDbEntity
  8
レイヤー_1
  6
CONTINUOUS
 62
       3
100
AcDbLine
 10
108.049143
 20
-60.40355516
 30
0.0
 11
107.9967407
 21
-60.51009441
 31
0.0
  0
LINE
  5
EC
100
AcDbEntity
  8
レイヤー_1
  6
CONTINUOUS
 62
       3
100
AcDbLine
 10
107.9967407
 20
-60.51009441
 30
0.0
 11
107.95487938
 21
-60.62226604
 31
0.0
  0
LINE
  5
ED
100
AcDbEntity
  8
レイヤー_1
  6
CONTINUOUS
 62
       3
100
AcDbLine
 10
107.95487938
 20
-60.62226604
 30
0.0
 11
107.92419328
 21
-60.73942821
 31
0.0
  0
LINE
  5
EE
100
AcDbEntity
  8
レイヤー_1
  6
CONTINUOUS
 62
       3
100
AcDbLine
 10
107.92419328
 20
-60.73942821
 30
0.0
 11
107.90531655
 21
-60.86093909
 31
0.0
  0
LINE
  5
EF
100
AcDbEntity
  8
レイヤー_1
  6
CONTINUOUS
 62
       3
100
AcDbLine
 10
107.90531655
 20
-60.86093909
 30
0.0
 11
107.89888338
 21
-60.98615686
 31
0.0
  0
LINE
  5
F0
100
AcDbEntity
  8
レイヤー_1
  6
CONTINUOUS
 62
       3
100
AcDbLine
 10
107.89888338
 20
-60.98615686
 30
0.0
 11
107.89888338
 21
-61.03296044
 31
0.0
  0
LINE
  5
F1
100
AcDbEntity
  8
レイヤー_1
  6
CONTINUOUS
 62
       3
100
AcDbLine
 10
107.89888338
 20
-61.03296044
 30
0.0
 11
107.89888338
 21
-61.16495699
 31
0.0
  0
LINE
  5
F2
100
AcDbEntity
  8
レイヤー_1
  6
CONTINUOUS
 62
       3
100
AcDbLine
 10
107.89888338
 20
-61.16495699
 30
0.0
 11
107.89888338
 21
-61.36952536
 31
0.0
  0
LINE
  5
F3
100
AcDbEntity
  8
レイヤー_1
  6
CONTINUOUS
 62
       3
100
AcDbLine
 10
107.89888338
 20
-61.36952536
 30
0.0
 11
107.89888338
 21
-61.63404436
 31
0.0
  0
LINE
  5
F4
100
AcDbEntity
  8
レイヤー_1
  6
CONTINUOUS
 62
       3
100
AcDbLine
 10
107.89888338
 20
-61.63404436
 30
0.0
 11
107.89888338
 21
-61.94589281
 31
0.0
  0
LINE
  5
F5
100
AcDbEntity
  8
レイヤー_1
  6
CONTINUOUS
 62
       3
100
AcDbLine
 10
107.89888338
 20
-61.94589281
 30
0.0
 11
107.89888338
 21
-62.29244951
 31
0.0
  0
LINE
  5
F6
100
AcDbEntity
  8
レイヤー_1
  6
CONTINUOUS
 62
       3
100
AcDbLine
 10
107.89888338
 20
-62.29244951
 30
0.0
 11
107.89888338
 21
-62.66109329
 31
0.0
  0
LINE
  5
F7
100
AcDbEntity
  8
レイヤー_1
  6
CONTINUOUS
 62
       3
100
AcDbLine
 10
107.89888338
 20
-62.66109329
 30
0.0
 11
107.89888338
 21
-63.03920296
 31
0.0
  0
LINE
  5
F8
100
AcDbEntity
  8
レイヤー_1
  6
CONTINUOUS
 62
       3
100
AcDbLine
 10
107.89888338
 20
-63.03920296
 30
0.0
 11
107.89888338
 21
-63.41415734
 31
0.0
  0
LINE
  5
F9
100
AcDbEntity
  8
レイヤー_1
  6
CONTINUOUS
 62
       3
100
AcDbLine
 10
107.89888338
 20
-63.41415734
 30
0.0
 11
107.89888338
 21
-63.77333521
 31
0.0
  0
LINE
  5
FA
100
AcDbEntity
  8
レイヤー_1
  6
CONTINUOUS
 62
       3
100
AcDbLine
 10
107.89888338
 20
-63.77333521
 30
0.0
 11
107.89888338
 21
-64.94940016
 31
0.0
  0
LINE
  5
FB
100
AcDbEntity
  8
レイヤー_1
  6
CONTINUOUS
 62
       3
100
AcDbLine
 10
30.82348463
 20
-64.94940016
 30
0.0
 11
30.82348463
 21
-59.01268161
 31
0.0
  0
LINE
  5
FC
100
AcDbEntity
  8
レイヤー_1
  6
CONTINUOUS
 62
       3
100
AcDbLine
 10
30.82348463
 20
-59.01268161
 30
0.0
 11
30.82348463
 21
-52.27125726
 31
0.0
  0
LINE
  5
FD
100
AcDbEntity
  8
レイヤー_1
  6
CONTINUOUS
 62
       3
100
AcDbLine
 10
30.82348463
 20
-52.27125726
 30
0.0
 11
30.82348463
 21
-43.55112134
 31
0.0
  0
LINE
  5
FE
100
AcDbEntity
  8
レイヤー_1
  6
CONTINUOUS
 62
       3
100
AcDbLine
 10
30.82348463
 20
-43.55112134
 30
0.0
 11
30.82348463
 21
-33.26642276
 31
0.0
  0
LINE
  5
FF
100
AcDbEntity
  8
レイヤー_1
  6
CONTINUOUS
 62
       3
100
AcDbLine
 10
30.82348463
 20
-33.26642276
 30
0.0
 11
30.82348463
 21
-21.83131046
 31
0.0
  0
LINE
  5
100
100
AcDbEntity
  8
レイヤー_1
  6
CONTINUOUS
 62
       3
100
AcDbLine
 10
30.82348463
 20
-21.83131046
 30
0.0
 11
30.82348463
 21
-9.65993341
 31
0.0
  0
LINE
  5
101
100
AcDbEntity
  8
レイヤー_1
  6
CONTINUOUS
 62
       3
100
AcDbLine
 10
30.82348463
 20
-9.65993341
 30
0.0
 11
30.82348463
 21
2.83355949
 31
0.0
  0
LINE
  5
102
100
AcDbEntity
  8
レイヤー_1
  6
CONTINUOUS
 62
       3
100
AcDbLine
 10
30.82348463
 20
2.83355949
 30
0.0
 11
30.82348463
 21
15.23501929
 31
0.0
  0
LINE
  5
103
100
AcDbEntity
  8
レイヤー_1
  6
CONTINUOUS
 62
       3
100
AcDbLine
 10
30.82348463
 20
15.23501929
 30
0.0
 11
30.82348463
 21
27.13029706
 31
0.0
  0
LINE
  5
104
100
AcDbEntity
  8
レイヤー_1
  6
CONTINUOUS
 62
       3
100
AcDbLine
 10
30.82348463
 20
27.13029706
 30
0.0
 11
30.82348463
 21
38.10524386
 31
0.0
  0
LINE
  5
105
100
AcDbEntity
  8
レイヤー_1
  6
CONTINUOUS
 62
       3
100
AcDbLine
 10
30.82348463
 20
38.10524386
 30
0.0
 11
30.82348463
 21
47.74571076
 31
0.0
  0
LINE
  5
106
100
AcDbEntity
  8
レイヤー_1
  6
CONTINUOUS
 62
       3
100
AcDbLine
 10
30.82348463
 20
47.74571076
 30
0.0
 11
30.82348463
 21
55.63754881
 31
0.0
  0
LINE
  5
107
100
AcDbEntity
  8
レイヤー_1
  6
CONTINUOUS
 62
       3
100
AcDbLine
 10
30.82348463
 20
55.63754881
 30
0.0
 11
30.82348463
 21
61.36660911
 31
0.0
  0
LINE
  5
108
100
AcDbEntity
  8
レイヤー_1
  6
CONTINUOUS
 62
       3
100
AcDbLine
 10
30.82348463
 20
61.36660911
 30
0.0
 11
30.82348463
 21
65.05059984
 31
0.0
  0
LINE
  5
109
100
AcDbEntity
  8
レイヤー_1
  6
CONTINUOUS
 62
       3
100
AcDbLine
 10
4.6926727
 20
56.66052952
 30
0.0
 11
6.34533543
 21
56.60283031
 31
0.0
  0
LINE
  5
10A
100
AcDbEntity
  8
レイヤー_1
  6
CONTINUOUS
 62
       3
100
AcDbLine
 10
6.34533543
 20
56.60283031
 30
0.0
 11
7.35607198
 21
56.56754256
 31
0.0
  0
LINE
  5
10B
100
AcDbEntity
  8
レイヤー_1
  6
CONTINUOUS
 62
       3
100
AcDbLine
 10
7.35607198
 20
56.56754256
 30
0.0
 11
8.6310393
 21
56.52302976
 31
0.0
  0
LINE
  5
10C
100
AcDbEntity
  8
レイヤー_1
  6
CONTINUOUS
 62
       3
100
AcDbLine
 10
8.6310393
 20
56.52302976
 30
0.0
 11
10.11223555
 21
56.47131691
 31
0.0
  0
LINE
  5
10D
100
AcDbEntity
  8
レイヤー_1
  6
CONTINUOUS
 62
       3
100
AcDbLine
 10
10.11223555
 20
56.47131691
 30
0.0
 11
11.74165885
 21
56.41442904
 31
0.0
  0
LINE
  5
10E
100
AcDbEntity
  8
レイヤー_1
  6
CONTINUOUS
 62
       3
100
AcDbLine
 10
11.74165885
 20
56.41442904
 30
0.0
 11
13.46130728
 21
56.35439114
 31
0.0
  0
LINE
  5
10F
100
AcDbEntity
  8
レイヤー_1
  6
CONTINUOUS
 62
       3
100
AcDbLine
 10
13.46130728
 20
56.35439114
 30
0.0
 11
15.213179
 21
56.29322821
 31
0.0
  0
LINE
  5
110
100
AcDbEntity
  8
レイヤー_1
  6
CONTINUOUS
 62
       3
100
AcDbLine
 10
15.213179
 20
56.29322821
 30
0.0
 11
16.93927208
 21
56.23296531
 31
0.0
  0
LINE
  5
111
100
AcDbEntity
  8
レイヤー_1
  6
CONTINUOUS
 62
       3
100
AcDbLine
 10
16.93927208
 20
56.23296531
 30
0.0
 11
18.58158468
 21
56.17562741
 31
0.0
  0
LINE
  5
112
100
AcDbEntity
  8
レイヤー_1
  6
CONTINUOUS
 62
       3
100
AcDbLine
 10
18.58158468
 20
56.17562741
 30
0.0
 11
20.0821149
 21
56.12323956
 31
0.0
  0
LINE
  5
113
100
AcDbEntity
  8
レイヤー_1
  6
CONTINUOUS
 62
       3
100
AcDbLine
 10
20.0821149
 20
56.12323956
 30
0.0
 11
21.38286085
 21
56.07782676
 31
0.0
  0
LINE
  5
114
100
AcDbEntity
  8
レイヤー_1
  6
CONTINUOUS
 62
       3
100
AcDbLine
 10
21.38286085
 20
56.07782676
 30
0.0
 11
22.42582065
 21
56.04141401
 31
0.0
  0
LINE
  5
115
100
AcDbEntity
  8
レイヤー_1
  6
CONTINUOUS
 62
       3
100
AcDbLine
 10
22.42582065
 20
56.04141401
 30
0.0
 11
23.1529924
 21
56.01602634
 31
0.0
  0
LINE
  5
116
100
AcDbEntity
  8
レイヤー_1
  6
CONTINUOUS
 62
       3
100
AcDbLine
 10
23.1529924
 20
56.01602634
 30
0.0
 11
23.50637425
 21
56.00368876
 31
0.0
  0
LINE
  5
117
100
AcDbEntity
  8
レイヤー_1
  6
CONTINUOUS
 62
       3
100
AcDbLine
 10
23.50637425
 20
56.00368876
 30
0.0
 11
23.53107875
 21
55.36634426
 31
0.0
  0
LINE
  5
118
100
AcDbEntity
  8
レイヤー_1
  6
CONTINUOUS
 62
       3
100
AcDbLine
 10
23.53107875
 20
55.36634426
 30
0.0
 11
23.53107875
 21
52.20031431
 31
0.0
  0
LINE
  5
119
100
AcDbEntity
  8
レイヤー_1
  6
CONTINUOUS
 62
       3
100
AcDbLine
 10
23.53107875
 20
52.20031431
 30
0.0
 11
23.53107875
 21
46.71767709
 31
0.0
  0
LINE
  5
11A
100
AcDbEntity
  8
レイヤー_1
  6
CONTINUOUS
 62
       3
100
AcDbLine
 10
23.53107875
 20
46.71767709
 30
0.0
 11
23.53107875
 21
39.29751379
 31
0.0
  0
LINE
  5
11B
100
AcDbEntity
  8
レイヤー_1
  6
CONTINUOUS
 62
       3
100
AcDbLine
 10
23.53107875
 20
39.29751379
 30
0.0
 11
23.53107875
 21
30.31890561
 31
0.0
  0
LINE
  5
11C
100
AcDbEntity
  8
レイヤー_1
  6
CONTINUOUS
 62
       3
100
AcDbLine
 10
23.53107875
 20
30.31890561
 30
0.0
 11
23.53107875
 21
20.16093371
 31
0.0
  0
LINE
  5
11D
100
AcDbEntity
  8
レイヤー_1
  6
CONTINUOUS
 62
       3
100
AcDbLine
 10
23.53107875
 20
20.16093371
 30
0.0
 11
23.53107875
 21
9.20267931
 31
0.0
  0
LINE
  5
11E
100
AcDbEntity
  8
レイヤー_1
  6
CONTINUOUS
 62
       3
100
AcDbLine
 10
23.53107875
 20
9.20267931
 30
0.0
 11
23.53107875
 21
-2.17677644
 31
0.0
  0
LINE
  5
11F
100
AcDbEntity
  8
レイヤー_1
  6
CONTINUOUS
 62
       3
100
AcDbLine
 10
23.53107875
 20
-2.17677644
 30
0.0
 11
23.53107875
 21
-13.59835229
 31
0.0
  0
LINE
  5
120
100
AcDbEntity
  8
レイヤー_1
  6
CONTINUOUS
 62
       3
100
AcDbLine
 10
23.53107875
 20
-13.59835229
 30
0.0
 11
23.53107875
 21
-24.68296711
 31
0.0
  0
LINE
  5
121
100
AcDbEntity
  8
レイヤー_1
  6
CONTINUOUS
 62
       3
100
AcDbLine
 10
23.53107875
 20
-24.68296711
 30
0.0
 11
23.53107875
 21
-35.05153966
 31
0.0
  0
LINE
  5
122
100
AcDbEntity
  8
レイヤー_1
  6
CONTINUOUS
 62
       3
100
AcDbLine
 10
23.53107875
 20
-35.05153966
 30
0.0
 11
23.53107875
 21
-44.32498879
 31
0.0
  0
LINE
  5
123
100
AcDbEntity
  8
レイヤー_1
  6
CONTINUOUS
 62
       3
100
AcDbLine
 10
23.53107875
 20
-44.32498879
 30
0.0
 11
23.53107875
 21
-52.12423326
 31
0.0
  0
LINE
  5
124
100
AcDbEntity
  8
レイヤー_1
  6
CONTINUOUS
 62
       3
100
AcDbLine
 10
23.53107875
 20
-52.12423326
 30
0.0
 11
23.53107875
 21
-58.07019194
 31
0.0
  0
LINE
  5
125
100
AcDbEntity
  8
レイヤー_1
  6
CONTINUOUS
 62
       3
100
AcDbLine
 10
23.53107875
 20
-58.07019194
 30
0.0
 11
23.53107875
 21
-63.44940016
 31
0.0
  0
LINE
  5
126
100
AcDbEntity
  8
レイヤー_1
  6
CONTINUOUS
 62
       3
100
AcDbLine
 10
-62.84052635
 20
56.10101146
 30
0.0
 11
-63.1769319
 21
56.10101146
 31
0.0
  0
LINE
  5
127
100
AcDbEntity
  8
レイヤー_1
  6
CONTINUOUS
 62
       3
100
AcDbLine
 10
-63.1769319
 20
56.10101146
 30
0.0
 11
-63.81046725
 21
56.10101146
 31
0.0
  0
LINE
  5
128
100
AcDbEntity
  8
レイヤー_1
  6
CONTINUOUS
 62
       3
100
AcDbLine
 10
-63.81046725
 20
56.10101146
 30
0.0
 11
-64.70014895
 21
56.10101146
 31
0.0
  0
LINE
  5
129
100
AcDbEntity
  8
レイヤー_1
  6
CONTINUOUS
 62
       3
100
AcDbLine
 10
-64.70014895
 20
56.10101146
 30
0.0
 11
-65.8049936
 21
56.10101146
 31
0.0
  0
LINE
  5
12A
100
AcDbEntity
  8
レイヤー_1
  6
CONTINUOUS
 62
       3
100
AcDbLine
 10
-65.8049936
 20
56.10101146
 30
0.0
 11
-67.08401777
 21
56.10101146
 31
0.0
  0
LINE
  5
12B
100
AcDbEntity
  8
レイヤー_1
  6
CONTINUOUS
 62
       3
100
AcDbLine
 10
-67.08401777
 20
56.10101146
 30
0.0
 11
-68.49623807
 21
56.10101146
 31
0.0
  0
LINE
  5
12C
100
AcDbEntity
  8
レイヤー_1
  6
CONTINUOUS
 62
       3
100
AcDbLine
 10
-68.49623807
 20
56.10101146
 30
0.0
 11
-70.00067105
 21
56.10101146
 31
0.0
  0
LINE
  5
12D
100
AcDbEntity
  8
レイヤー_1
  6
CONTINUOUS
 62
       3
100
AcDbLine
 10
-70.00067105
 20
56.10101146
 30
0.0
 11
-71.5563333
 21
56.10101146
 31
0.0
  0
LINE
  5
12E
100
AcDbEntity
  8
レイヤー_1
  6
CONTINUOUS
 62
       3
100
AcDbLine
 10
-71.5563333
 20
56.10101146
 30
0.0
 11
-73.12224142
 21
56.10101146
 31
0.0
  0
LINE
  5
12F
100
AcDbEntity
  8
レイヤー_1
  6
CONTINUOUS
 62
       3
100
AcDbLine
 10
-73.12224142
 20
56.10101146
 30
0.0
 11
-74.65741197
 21
56.10101146
 31
0.0
  0
LINE
  5
130
100
AcDbEntity
  8
レイヤー_1
  6
CONTINUOUS
 62
       3
100
AcDbLine
 10
-74.65741197
 20
56.10101146
 30
0.0
 11
-76.12086152
 21
56.10101146
 31
0.0
  0
LINE
  5
131
100
AcDbEntity
  8
レイヤー_1
  6
CONTINUOUS
 62
       3
100
AcDbLine
 10
-76.12086152
 20
56.10101146
 30
0.0
 11
-77.4716067
 21
56.10101146
 31
0.0
  0
LINE
  5
132
100
AcDbEntity
  8
レイヤー_1
  6
CONTINUOUS
 62
       3
100
AcDbLine
 10
-77.4716067
 20
56.10101146
 30
0.0
 11
-78.66866405
 21
56.10101146
 31
0.0
  0
LINE
  5
133
100
AcDbEntity
  8
レイヤー_1
  6
CONTINUOUS
 62
       3
100
AcDbLine
 10
-78.66866405
 20
56.10101146
 30
0.0
 11
-79.67105015
 21
56.10101146
 31
0.0
  0
LINE
  5
134
100
AcDbEntity
  8
レイヤー_1
  6
CONTINUOUS
 62
       3
100
AcDbLine
 10
-79.67105015
 20
56.10101146
 30
0.0
 11
-80.4377816
 21
56.10101146
 31
0.0
  0
LINE
  5
135
100
AcDbEntity
  8
レイヤー_1
  6
CONTINUOUS
 62
       3
100
AcDbLine
 10
-80.4377816
 20
56.10101146
 30
0.0
 11
-80.92787497
 21
56.10101146
 31
0.0
  0
LINE
  5
136
100
AcDbEntity
  8
レイヤー_1
  6
CONTINUOUS
 62
       3
100
AcDbLine
 10
-80.92787497
 20
56.10101146
 30
0.0
 11
-81.10034685
 21
56.10101146
 31
0.0
  0
LINE
  5
137
100
AcDbEntity
  8
レイヤー_1
  6
CONTINUOUS
 62
       3
100
AcDbLine
 10
-62.81784945
 20
56.74653624
 30
0.0
 11
-63.12345992
 21
56.74653624
 31
0.0
  0
LINE
  5
138
100
AcDbEntity
  8
レイヤー_1
  6
CONTINUOUS
 62
       3
100
AcDbLine
 10
-63.12345992
 20
56.74653624
 30
0.0
 11
-63.75540027
 21
56.74653624
 31
0.0
  0
LINE
  5
139
100
AcDbEntity
  8
レイヤー_1
  6
CONTINUOUS
 62
       3
100
AcDbLine
 10
-63.75540027
 20
56.74653624
 30
0.0
 11
-64.66705192
 21
56.74653624
 31
0.0
  0
LINE
  5
13A
100
AcDbEntity
  8
レイヤー_1
  6
CONTINUOUS
 62
       3
100
AcDbLine
 10
-64.66705192
 20
56.74653624
 30
0.0
 11
-65.8117963
 21
56.74653624
 31
0.0
  0
LINE
  5
13B
100
AcDbEntity
  8
レイヤー_1
  6
CONTINUOUS
 62
       3
100
AcDbLine
 10
-65.8117963
 20
56.74653624
 30
0.0
 11
-67.1430149
 21
56.74653624
 31
0.0
  0
LINE
  5
13C
100
AcDbEntity
  8
レイヤー_1
  6
CONTINUOUS
 62
       3
100
AcDbLine
 10
-67.1430149
 20
56.74653624
 30
0.0
 11
-68.61408912
 21
56.74653624
 31
0.0
  0
LINE
  5
13D
100
AcDbEntity
  8
レイヤー_1
  6
CONTINUOUS
 62
       3
100
AcDbLine
 10
-68.61408912
 20
56.74653624
 30
0.0
 11
-70.17840047
 21
56.74653624
 31
0.0
  0
LINE
  5
13E
100
AcDbEntity
  8
レイヤー_1
  6
CONTINUOUS
 62
       3
100
AcDbLine
 10
-70.17840047
 20
56.74653624
 30
0.0
 11
-71.78933035
 21
56.74653624
 31
0.0
  0
LINE
  5
13F
100
AcDbEntity
  8
レイヤー_1
  6
CONTINUOUS
 62
       3
100
AcDbLine
 10
-71.78933035
 20
56.74653624
 30
0.0
 11
-73.40026025
 21
56.74653624
 31
0.0
  0
LINE
  5
140
100
AcDbEntity
  8
レイヤー_1
  6
CONTINUOUS
 62
       3
100
AcDbLine
 10
-73.40026025
 20
56.74653624
 30
0.0
 11
-74.9645716
 21
56.74653624
 31
0.0
  0
LINE
  5
141
100
AcDbEntity
  8
レイヤー_1
  6
CONTINUOUS
 62
       3
100
AcDbLine
 10
-74.9645716
 20
56.74653624
 30
0.0
 11
-76.43564582
 21
56.74653624
 31
0.0
  0
LINE
  5
142
100
AcDbEntity
  8
レイヤー_1
  6
CONTINUOUS
 62
       3
100
AcDbLine
 10
-76.43564582
 20
56.74653624
 30
0.0
 11
-77.7668644
 21
56.74653624
 31
0.0
  0
LINE
  5
143
100
AcDbEntity
  8
レイヤー_1
  6
CONTINUOUS
 62
       3
100
AcDbLine
 10
-77.7668644
 20
56.74653624
 30
0.0
 11
-78.9116088
 21
56.74653624
 31
0.0
  0
LINE
  5
144
100
AcDbEntity
  8
レイヤー_1
  6
CONTINUOUS
 62
       3
100
AcDbLine
 10
-78.9116088
 20
56.74653624
 30
0.0
 11
-79.82326045
 21
56.74653624
 31
0.0
  0
LINE
  5
145
100
AcDbEntity
  8
レイヤー_1
  6
CONTINUOUS
 62
       3
100
AcDbLine
 10
-79.82326045
 20
56.74653624
 30
0.0
 11
-80.45520077
 21
56.74653624
 31
0.0
  0
LINE
  5
146
100
AcDbEntity
  8
レイヤー_1
  6
CONTINUOUS
 62
       3
100
AcDbLine
 10
-80.45520077
 20
56.74653624
 30
0.0
 11
-80.76081127
 21
56.74653624
 31
0.0
  0
LINE
  5
147
100
AcDbEntity
  8
レイヤー_1
  6
CONTINUOUS
 62
       3
100
AcDbLine
 10
-80.76081127
 20
56.74653624
 30
0.0
 11
-80.8018421
 21
56.74717251
 31
0.0
  0
LINE
  5
148
100
AcDbEntity
  8
レイヤー_1
  6
CONTINUOUS
 62
       3
100
AcDbLine
 10
-80.8018421
 20
56.74717251
 30
0.0
 11
-80.83078665
 21
56.75045116
 31
0.0
  0
LINE
  5
149
100
AcDbEntity
  8
レイヤー_1
  6
CONTINUOUS
 62
       3
100
AcDbLine
 10
-80.83078665
 20
56.75045116
 30
0.0
 11
-80.85882242
 21
56.75640034
 31
0.0
  0
LINE
  5
14A
100
AcDbEntity
  8
レイヤー_1
  6
CONTINUOUS
 62
       3
100
AcDbLine
 10
-80.85882242
 20
56.75640034
 30
0.0
 11
-80.88581717
 21
56.76488669
 31
0.0
  0
LINE
  5
14B
100
AcDbEntity
  8
レイヤー_1
  6
CONTINUOUS
 62
       3
100
AcDbLine
 10
-80.88581717
 20
56.76488669
 30
0.0
 11
-80.91163855
 21
56.77577679
 31
0.0
  0
LINE
  5
14C
100
AcDbEntity
  8
レイヤー_1
  6
CONTINUOUS
 62
       3
100
AcDbLine
 10
-80.91163855
 20
56.77577679
 30
0.0
 11
-80.93615437
 21
56.78893724
 31
0.0
  0
LINE
  5
14D
100
AcDbEntity
  8
レイヤー_1
  6
CONTINUOUS
 62
       3
100
AcDbLine
 10
-80.93615437
 20
56.78893724
 30
0.0
 11
-80.9592323
 21
56.80423471
 31
0.0
  0
LINE
  5
14E
100
AcDbEntity
  8
レイヤー_1
  6
CONTINUOUS
 62
       3
100
AcDbLine
 10
-80.9592323
 20
56.80423471
 30
0.0
 11
-80.9807401
 21
56.82153576
 31
0.0
  0
LINE
  5
14F
100
AcDbEntity
  8
レイヤー_1
  6
CONTINUOUS
 62
       3
100
AcDbLine
 10
-80.9807401
 20
56.82153576
 30
0.0
 11
-81.0005455
 21
56.84070701
 31
0.0
  0
LINE
  5
150
100
AcDbEntity
  8
レイヤー_1
  6
CONTINUOUS
 62
       3
100
AcDbLine
 10
-81.0005455
 20
56.84070701
 30
0.0
 11
-81.01851622
 21
56.86161511
 31
0.0
  0
LINE
  5
151
100
AcDbEntity
  8
レイヤー_1
  6
CONTINUOUS
 62
       3
100
AcDbLine
 10
-81.01851622
 20
56.86161511
 30
0.0
 11
-81.03452
 21
56.88412664
 31
0.0
  0
LINE
  5
152
100
AcDbEntity
  8
レイヤー_1
  6
CONTINUOUS
 62
       3
100
AcDbLine
 10
-81.03452
 20
56.88412664
 30
0.0
 11
-81.04842452
 21
56.90810821
 31
0.0
  0
LINE
  5
153
100
AcDbEntity
  8
レイヤー_1
  6
CONTINUOUS
 62
       3
100
AcDbLine
 10
-81.04842452
 20
56.90810821
 30
0.0
 11
-81.0600976
 21
56.93342644
 31
0.0
  0
LINE
  5
154
100
AcDbEntity
  8
レイヤー_1
  6
CONTINUOUS
 62
       3
100
AcDbLine
 10
-81.0600976
 20
56.93342644
 30
0.0
 11
-81.06940687
 21
56.95994796
 31
0.0
  0
LINE
  5
155
100
AcDbEntity
  8
レイヤー_1
  6
CONTINUOUS
 62
       3
100
AcDbLine
 10
-81.06940687
 20
56.95994796
 30
0.0
 11
-81.07622015
 21
56.98753936
 31
0.0
  0
LINE
  5
156
100
AcDbEntity
  8
レイヤー_1
  6
CONTINUOUS
 62
       3
100
AcDbLine
 10
-81.07622015
 20
56.98753936
 30
0.0
 11
-81.0804051
 21
57.01606726
 31
0.0
  0
LINE
  5
157
100
AcDbEntity
  8
レイヤー_1
  6
CONTINUOUS
 62
       3
100
AcDbLine
 10
-81.0804051
 20
57.01606726
 30
0.0
 11
-81.08182947
 21
57.04539826
 31
0.0
  0
LINE
  5
158
100
AcDbEntity
  8
レイヤー_1
  6
CONTINUOUS
 62
       3
100
AcDbLine
 10
-90.7754669
 20
55.16437614
 30
0.0
 11
-90.81391195
 21
55.21238459
 31
0.0
  0
LINE
  5
159
100
AcDbEntity
  8
レイヤー_1
  6
CONTINUOUS
 62
       3
100
AcDbLine
 10
-90.81391195
 20
55.21238459
 30
0.0
 11
-90.8549972
 21
55.25766594
 31
0.0
  0
LINE
  5
15A
100
AcDbEntity
  8
レイヤー_1
  6
CONTINUOUS
 62
       3
100
AcDbLine
 10
-90.8549972
 20
55.25766594
 30
0.0
 11
-90.89856785
 21
55.30014396
 31
0.0
  0
LINE
  5
15B
100
AcDbEntity
  8
レイヤー_1
  6
CONTINUOUS
 62
       3
100
AcDbLine
 10
-90.89856785
 20
55.30014396
 30
0.0
 11
-90.9444691
 21
55.33974229
 31
0.0
  0
LINE
  5
15C
100
AcDbEntity
  8
レイヤー_1
  6
CONTINUOUS
 62
       3
100
AcDbLine
 10
-90.9444691
 20
55.33974229
 30
0.0
 11
-90.99254617
 21
55.37638466
 31
0.0
  0
LINE
  5
15D
100
AcDbEntity
  8
レイヤー_1
  6
CONTINUOUS
 62
       3
100
AcDbLine
 10
-90.99254617
 20
55.37638466
 30
0.0
 11
-91.04264432
 21
55.40999479
 31
0.0
  0
LINE
  5
15E
100
AcDbEntity
  8
レイヤー_1
  6
CONTINUOUS
 62
       3
100
AcDbLine
 10
-91.04264432
 20
55.40999479
 30
0.0
 11
-91.0946088
 21
55.44049634
 31
0.0
  0
LINE
  5
15F
100
AcDbEntity
  8
レイヤー_1
  6
CONTINUOUS
 62
       3
100
AcDbLine
 10
-91.0946088
 20
55.44049634
 30
0.0
 11
-91.1482847
 21
55.46781304
 31
0.0
  0
LINE
  5
160
100
AcDbEntity
  8
レイヤー_1
  6
CONTINUOUS
 62
       3
100
AcDbLine
 10
-91.1482847
 20
55.46781304
 30
0.0
 11
-91.2035174
 21
55.49186856
 31
0.0
  0
LINE
  5
161
100
AcDbEntity
  8
レイヤー_1
  6
CONTINUOUS
 62
       3
100
AcDbLine
 10
-91.2035174
 20
55.49186856
 30
0.0
 11
-91.260152
 21
55.51258666
 31
0.0
  0
LINE
  5
162
100
AcDbEntity
  8
レイヤー_1
  6
CONTINUOUS
 62
       3
100
AcDbLine
 10
-91.260152
 20
55.51258666
 30
0.0
 11
-91.3180338
 21
55.52989096
 31
0.0
  0
LINE
  5
163
100
AcDbEntity
  8
レイヤー_1
  6
CONTINUOUS
 62
       3
100
AcDbLine
 10
-91.3180338
 20
55.52989096
 30
0.0
 11
-91.377008
 21
55.54370524
 31
0.0
  0
LINE
  5
164
100
AcDbEntity
  8
レイヤー_1
  6
CONTINUOUS
 62
       3
100
AcDbLine
 10
-91.377008
 20
55.54370524
 30
0.0
 11
-91.4369198
 21
55.55395314
 31
0.0
  0
LINE
  5
165
100
AcDbEntity
  8
レイヤー_1
  6
CONTINUOUS
 62
       3
100
AcDbLine
 10
-91.4369198
 20
55.55395314
 30
0.0
 11
-91.49761445
 21
55.56055839
 31
0.0
  0
LINE
  5
166
100
AcDbEntity
  8
レイヤー_1
  6
CONTINUOUS
 62
       3
100
AcDbLine
 10
-91.49761445
 20
55.56055839
 30
0.0
 11
-91.55893715
 21
55.56344471
 31
0.0
  0
LINE
  5
167
100
AcDbEntity
  8
レイヤー_1
  6
CONTINUOUS
 62
       3
100
AcDbLine
 10
-91.55893715
 20
55.56344471
 30
0.0
 11
-91.6597115
 21
55.56357659
 31
0.0
  0
LINE
  5
168
100
AcDbEntity
  8
レイヤー_1
  6
CONTINUOUS
 62
       3
100
AcDbLine
 10
-91.6597115
 20
55.56357659
 30
0.0
 11
-92.0237385
 21
55.56357659
 31
0.0
  0
LINE
  5
169
100
AcDbEntity
  8
レイヤー_1
  6
CONTINUOUS
 62
       3
100
AcDbLine
 10
-92.0237385
 20
55.56357659
 30
0.0
 11
-92.63634267
 21
55.56357659
 31
0.0
  0
LINE
  5
16A
100
AcDbEntity
  8
レイヤー_1
  6
CONTINUOUS
 62
       3
100
AcDbLine
 10
-92.63634267
 20
55.56357659
 30
0.0
 11
-93.45535475
 21
55.56357659
 31
0.0
  0
LINE
  5
16B
100
AcDbEntity
  8
レイヤー_1
  6
CONTINUOUS
 62
       3
100
AcDbLine
 10
-93.45535475
 20
55.56357659
 30
0.0
 11
-94.4386053
 21
55.56357659
 31
0.0
  0
LINE
  5
16C
100
AcDbEntity
  8
レイヤー_1
  6
CONTINUOUS
 62
       3
100
AcDbLine
 10
-94.4386053
 20
55.56357659
 30
0.0
 11
-95.54392497
 21
55.56357659
 31
0.0
  0
LINE
  5
16D
100
AcDbEntity
  8
レイヤー_1
  6
CONTINUOUS
 62
       3
100
AcDbLine
 10
-95.54392497
 20
55.56357659
 30
0.0
 11
-96.72914452
 21
55.56357659
 31
0.0
  0
LINE
  5
16E
100
AcDbEntity
  8
レイヤー_1
  6
CONTINUOUS
 62
       3
100
AcDbLine
 10
-96.72914452
 20
55.56357659
 30
0.0
 11
-97.9520945
 21
55.56357659
 31
0.0
  0
LINE
  5
16F
100
AcDbEntity
  8
レイヤー_1
  6
CONTINUOUS
 62
       3
100
AcDbLine
 10
-97.9520945
 20
55.56357659
 30
0.0
 11
-99.17060562
 21
55.56357659
 31
0.0
  0
LINE
  5
170
100
AcDbEntity
  8
レイヤー_1
  6
CONTINUOUS
 62
       3
100
AcDbLine
 10
-99.17060562
 20
55.56357659
 30
0.0
 11
-100.34250852
 21
55.56357659
 31
0.0
  0
LINE
  5
171
100
AcDbEntity
  8
レイヤー_1
  6
CONTINUOUS
 62
       3
100
AcDbLine
 10
-100.34250852
 20
55.56357659
 30
0.0
 11
-101.42563382
 21
55.56357659
 31
0.0
  0
LINE
  5
172
100
AcDbEntity
  8
レイヤー_1
  6
CONTINUOUS
 62
       3
100
AcDbLine
 10
-101.42563382
 20
55.56357659
 30
0.0
 11
-102.37781222
 21
55.56357659
 31
0.0
  0
LINE
  5
173
100
AcDbEntity
  8
レイヤー_1
  6
CONTINUOUS
 62
       3
100
AcDbLine
 10
-102.37781222
 20
55.56357659
 30
0.0
 11
-103.15687437
 21
55.56357659
 31
0.0
  0
LINE
  5
174
100
AcDbEntity
  8
レイヤー_1
  6
CONTINUOUS
 62
       3
100
AcDbLine
 10
-103.15687437
 20
55.56357659
 30
0.0
 11
-103.7206509
 21
55.56357659
 31
0.0
  0
LINE
  5
175
100
AcDbEntity
  8
レイヤー_1
  6
CONTINUOUS
 62
       3
100
AcDbLine
 10
-103.7206509
 20
55.56357659
 30
0.0
 11
-104.02697245
 21
55.56357659
 31
0.0
  0
LINE
  5
176
100
AcDbEntity
  8
レイヤー_1
  6
CONTINUOUS
 62
       3
100
AcDbLine
 10
-104.02697245
 20
55.56357659
 30
0.0
 11
-104.071073
 21
55.56352541
 31
0.0
  0
LINE
  5
177
100
AcDbEntity
  8
レイヤー_1
  6
CONTINUOUS
 62
       3
100
AcDbLine
 10
-104.07562555
 20
55.56310331
 30
0.0
 11
-104.08423212
 21
55.56230534
 31
0.0
  0
LINE
  5
178
100
AcDbEntity
  8
レイヤー_1
  6
CONTINUOUS
 62
       3
100
AcDbLine
 10
-104.08423212
 20
55.56230534
 30
0.0
 11
-104.09623442
 21
55.56119256
 31
0.0
  0
LINE
  5
179
100
AcDbEntity
  8
レイヤー_1
  6
CONTINUOUS
 62
       3
100
AcDbLine
 10
-104.09623442
 20
55.56119256
 30
0.0
 11
-104.11097407
 21
55.55982596
 31
0.0
  0
LINE
  5
17A
100
AcDbEntity
  8
レイヤー_1
  6
CONTINUOUS
 62
       3
100
AcDbLine
 10
-104.11097407
 20
55.55982596
 30
0.0
 11
-104.12779272
 21
55.55826661
 31
0.0
  0
LINE
  5
17B
100
AcDbEntity
  8
レイヤー_1
  6
CONTINUOUS
 62
       3
100
AcDbLine
 10
-104.12779272
 20
55.55826661
 30
0.0
 11
-104.14603202
 21
55.55657556
 31
0.0
  0
LINE
  5
17C
100
AcDbEntity
  8
レイヤー_1
  6
CONTINUOUS
 62
       3
100
AcDbLine
 10
-104.14603202
 20
55.55657556
 30
0.0
 11
-104.16503362
 21
55.55481381
 31
0.0
  0
LINE
  5
17D
100
AcDbEntity
  8
レイヤー_1
  6
CONTINUOUS
 62
       3
100
AcDbLine
 10
-104.16503362
 20
55.55481381
 30
0.0
 11
-104.18413917
 21
55.55304244
 31
0.0
  0
LINE
  5
17E
100
AcDbEntity
  8
レイヤー_1
  6
CONTINUOUS
 62
       3
100
AcDbLine
 10
-104.18413917
 20
55.55304244
 30
0.0
 11
-104.20269032
 21
55.55132246
 31
0.0
  0
LINE
  5
17F
100
AcDbEntity
  8
レイヤー_1
  6
CONTINUOUS
 62
       3
100
AcDbLine
 10
-104.20269032
 20
55.55132246
 30
0.0
 11
-104.22002872
 21
55.54971494
 31
0.0
  0
LINE
  5
180
100
AcDbEntity
  8
レイヤー_1
  6
CONTINUOUS
 62
       3
100
AcDbLine
 10
-104.22002872
 20
55.54971494
 30
0.0
 11
-104.23549602
 21
55.54828089
 31
0.0
  0
LINE
  5
181
100
AcDbEntity
  8
レイヤー_1
  6
CONTINUOUS
 62
       3
100
AcDbLine
 10
-104.23549602
 20
55.54828089
 30
0.0
 11
-104.24843387
 21
55.54708134
 31
0.0
  0
LINE
  5
182
100
AcDbEntity
  8
レイヤー_1
  6
CONTINUOUS
 62
       3
100
AcDbLine
 10
-104.24843387
 20
55.54708134
 30
0.0
 11
-104.25818395
 21
55.54617736
 31
0.0
  0
LINE
  5
183
100
AcDbEntity
  8
レイヤー_1
  6
CONTINUOUS
 62
       3
100
AcDbLine
 10
-104.25818395
 20
55.54617736
 30
0.0
 11
-104.2640878
 21
55.54562999
 31
0.0
  0
LINE
  5
184
100
AcDbEntity
  8
レイヤー_1
  6
CONTINUOUS
 62
       3
100
AcDbLine
 10
-104.26893987
 20
55.54445849
 30
0.0
 11
-104.27622452
 21
55.54220931
 31
0.0
  0
LINE
  5
185
100
AcDbEntity
  8
レイヤー_1
  6
CONTINUOUS
 62
       3
100
AcDbLine
 10
-104.27622452
 20
55.54220931
 30
0.0
 11
-104.28692842
 21
55.53890441
 31
0.0
  0
LINE
  5
186
100
AcDbEntity
  8
レイヤー_1
  6
CONTINUOUS
 62
       3
100
AcDbLine
 10
-104.28692842
 20
55.53890441
 30
0.0
 11
-104.30042087
 21
55.53473854
 31
0.0
  0
LINE
  5
187
100
AcDbEntity
  8
レイヤー_1
  6
CONTINUOUS
 62
       3
100
AcDbLine
 10
-104.30042087
 20
55.53473854
 30
0.0
 11
-104.3160711
 21
55.52990644
 31
0.0
  0
LINE
  5
188
100
AcDbEntity
  8
レイヤー_1
  6
CONTINUOUS
 62
       3
100
AcDbLine
 10
-104.3160711
 20
55.52990644
 30
0.0
 11
-104.33324837
 21
55.52460286
 31
0.0
  0
LINE
  5
189
100
AcDbEntity
  8
レイヤー_1
  6
CONTINUOUS
 62
       3
100
AcDbLine
 10
-104.33324837
 20
55.52460286
 30
0.0
 11
-104.35132195
 21
55.51902254
 31
0.0
  0
LINE
  5
18A
100
AcDbEntity
  8
レイヤー_1
  6
CONTINUOUS
 62
       3
100
AcDbLine
 10
-104.35132195
 20
55.51902254
 30
0.0
 11
-104.36966112
 21
55.51336021
 31
0.0
  0
LINE
  5
18B
100
AcDbEntity
  8
レイヤー_1
  6
CONTINUOUS
 62
       3
100
AcDbLine
 10
-104.36966112
 20
55.51336021
 30
0.0
 11
-104.38763512
 21
55.50781064
 31
0.0
  0
LINE
  5
18C
100
AcDbEntity
  8
レイヤー_1
  6
CONTINUOUS
 62
       3
100
AcDbLine
 10
-104.38763512
 20
55.50781064
 30
0.0
 11
-104.4046132
 21
55.50256856
 31
0.0
  0
LINE
  5
18D
100
AcDbEntity
  8
レイヤー_1
  6
CONTINUOUS
 62
       3
100
AcDbLine
 10
-104.4046132
 20
55.50256856
 30
0.0
 11
-104.41996467
 21
55.49782871
 31
0.0
  0
LINE
  5
18E
100
AcDbEntity
  8
レイヤー_1
  6
CONTINUOUS
 62
       3
100
AcDbLine
 10
-104.41996467
 20
55.49782871
 30
0.0
 11
-104.43305877
 21
55.49378584
 31
0.0
  0
LINE
  5
18F
100
AcDbEntity
  8
レイヤー_1
  6
CONTINUOUS
 62
       3
100
AcDbLine
 10
-104.43305877
 20
55.49378584
 30
0.0
 11
-104.44326472
 21
55.49063469
 31
0.0
  0
LINE
  5
190
100
AcDbEntity
  8
レイヤー_1
  6
CONTINUOUS
 62
       3
100
AcDbLine
 10
-104.44326472
 20
55.49063469
 30
0.0
 11
-104.4499518
 21
55.48857001
 31
0.0
  0
LINE
  5
191
100
AcDbEntity
  8
レイヤー_1
  6
CONTINUOUS
 62
       3
100
AcDbLine
 10
-104.45441877
 20
55.48676821
 30
0.0
 11
-104.4602502
 21
55.48368609
 31
0.0
  0
LINE
  5
192
100
AcDbEntity
  8
レイヤー_1
  6
CONTINUOUS
 62
       3
100
AcDbLine
 10
-104.4602502
 20
55.48368609
 30
0.0
 11
-104.4694108
 21
55.47884439
 31
0.0
  0
LINE
  5
193
100
AcDbEntity
  8
レイヤー_1
  6
CONTINUOUS
 62
       3
100
AcDbLine
 10
-104.4694108
 20
55.47884439
 30
0.0
 11
-104.48131487
 21
55.47255266
 31
0.0
  0
LINE
  5
194
100
AcDbEntity
  8
レイヤー_1
  6
CONTINUOUS
 62
       3
100
AcDbLine
 10
-104.48131487
 20
55.47255266
 30
0.0
 11
-104.49537675
 21
55.46512046
 31
0.0
  0
LINE
  5
195
100
AcDbEntity
  8
レイヤー_1
  6
CONTINUOUS
 62
       3
100
AcDbLine
 10
-104.49537675
 20
55.46512046
 30
0.0
 11
-104.51101067
 21
55.45685734
 31
0.0
  0
LINE
  5
196
100
AcDbEntity
  8
レイヤー_1
  6
CONTINUOUS
 62
       3
100
AcDbLine
 10
-104.51101067
 20
55.45685734
 30
0.0
 11
-104.52763105
 21
55.44807289
 31
0.0
  0
LINE
  5
197
100
AcDbEntity
  8
レイヤー_1
  6
CONTINUOUS
 62
       3
100
AcDbLine
 10
-104.52763105
 20
55.44807289
 30
0.0
 11
-104.54465217
 21
55.43907661
 31
0.0
  0
LINE
  5
198
100
AcDbEntity
  8
レイヤー_1
  6
CONTINUOUS
 62
       3
100
AcDbLine
 10
-104.54465217
 20
55.43907661
 30
0.0
 11
-104.56148832
 21
55.43017809
 31
0.0
  0
LINE
  5
199
100
AcDbEntity
  8
レイヤー_1
  6
CONTINUOUS
 62
       3
100
AcDbLine
 10
-104.56148832
 20
55.43017809
 30
0.0
 11
-104.57755385
 21
55.42168689
 31
0.0
  0
LINE
  5
19A
100
AcDbEntity
  8
レイヤー_1
  6
CONTINUOUS
 62
       3
100
AcDbLine
 10
-104.57755385
 20
55.42168689
 30
0.0
 11
-104.59226305
 21
55.41391256
 31
0.0
  0
LINE
  5
19B
100
AcDbEntity
  8
レイヤー_1
  6
CONTINUOUS
 62
       3
100
AcDbLine
 10
-104.59226305
 20
55.41391256
 30
0.0
 11
-104.60503022
 21
55.40716464
 31
0.0
  0
LINE
  5
19C
100
AcDbEntity
  8
レイヤー_1
  6
CONTINUOUS
 62
       3
100
AcDbLine
 10
-104.60503022
 20
55.40716464
 30
0.0
 11
-104.6152697
 21
55.40175271
 31
0.0
  0
LINE
  5
19D
100
AcDbEntity
  8
レイヤー_1
  6
CONTINUOUS
 62
       3
100
AcDbLine
 10
-104.6152697
 20
55.40175271
 30
0.0
 11
-104.62239582
 21
55.39798629
 31
0.0
  0
LINE
  5
19E
100
AcDbEntity
  8
レイヤー_1
  6
CONTINUOUS
 62
       3
100
AcDbLine
 10
-104.62692665
 20
55.39532844
 30
0.0
 11
-104.63115782
 21
55.39183261
 31
0.0
  0
LINE
  5
19F
100
AcDbEntity
  8
レイヤー_1
  6
CONTINUOUS
 62
       3
100
AcDbLine
 10
-104.63115782
 20
55.39183261
 30
0.0
 11
-104.6384228
 21
55.38583019
 31
0.0
  0
LINE
  5
1A0
100
AcDbEntity
  8
レイヤー_1
  6
CONTINUOUS
 62
       3
100
AcDbLine
 10
-104.6384228
 20
55.38583019
 30
0.0
 11
-104.64821152
 21
55.37774266
 31
0.0
  0
LINE
  5
1A1
100
AcDbEntity
  8
レイヤー_1
  6
CONTINUOUS
 62
       3
100
AcDbLine
 10
-104.64821152
 20
55.37774266
 30
0.0
 11
-104.66001385
 21
55.36799146
 31
0.0
  0
LINE
  5
1A2
100
AcDbEntity
  8
レイヤー_1
  6
CONTINUOUS
 62
       3
100
AcDbLine
 10
-104.66001385
 20
55.36799146
 30
0.0
 11
-104.67331962
 21
55.35699806
 31
0.0
  0
LINE
  5
1A3
100
AcDbEntity
  8
レイヤー_1
  6
CONTINUOUS
 62
       3
100
AcDbLine
 10
-104.67331962
 20
55.35699806
 30
0.0
 11
-104.6876188
 21
55.34518394
 31
0.0
  0
LINE
  5
1A4
100
AcDbEntity
  8
レイヤー_1
  6
CONTINUOUS
 62
       3
100
AcDbLine
 10
-104.6876188
 20
55.34518394
 30
0.0
 11
-104.70240127
 21
55.33297051
 31
0.0
  0
LINE
  5
1A5
100
AcDbEntity
  8
レイヤー_1
  6
CONTINUOUS
 62
       3
100
AcDbLine
 10
-104.70240127
 20
55.33297051
 30
0.0
 11
-104.71715685
 21
55.32077929
 31
0.0
  0
LINE
  5
1A6
100
AcDbEntity
  8
レイヤー_1
  6
CONTINUOUS
 62
       3
100
AcDbLine
 10
-104.71715685
 20
55.32077929
 30
0.0
 11
-104.7313755
 21
55.30903169
 31
0.0
  0
LINE
  5
1A7
100
AcDbEntity
  8
レイヤー_1
  6
CONTINUOUS
 62
       3
100
AcDbLine
 10
-104.7313755
 20
55.30903169
 30
0.0
 11
-104.74454705
 21
55.29814919
 31
0.0
  0
LINE
  5
1A8
100
AcDbEntity
  8
レイヤー_1
  6
CONTINUOUS
 62
       3
100
AcDbLine
 10
-104.74454705
 20
55.29814919
 30
0.0
 11
-104.75616142
 21
55.28855329
 31
0.0
  0
LINE
  5
1A9
100
AcDbEntity
  8
レイヤー_1
  6
CONTINUOUS
 62
       3
100
AcDbLine
 10
-104.75616142
 20
55.28855329
 30
0.0
 11
-104.7657085
 21
55.28066539
 31
0.0
  0
LINE
  5
1AA
100
AcDbEntity
  8
レイヤー_1
  6
CONTINUOUS
 62
       3
100
AcDbLine
 10
-104.7657085
 20
55.28066539
 30
0.0
 11
-104.77267815
 21
55.27490696
 31
0.0
  0
LINE
  5
1AB
100
AcDbEntity
  8
レイヤー_1
  6
CONTINUOUS
 62
       3
100
AcDbLine
 10
-104.77267815
 20
55.27490696
 30
0.0
 11
-104.7765603
 21
55.27169951
 31
0.0
  0
LINE
  5
1AC
100
AcDbEntity
  8
レイヤー_1
  6
CONTINUOUS
 62
       3
100
AcDbLine
 10
-104.78022122
 20
55.26746636
 30
0.0
 11
-104.78556775
 21
55.26091316
 31
0.0
  0
LINE
  5
1AD
100
AcDbEntity
  8
レイヤー_1
  6
CONTINUOUS
 62
       3
100
AcDbLine
 10
-104.78556775
 20
55.26091316
 30
0.0
 11
-104.79309515
 21
55.25168686
 31
0.0
  0
LINE
  5
1AE
100
AcDbEntity
  8
レイヤー_1
  6
CONTINUOUS
 62
       3
100
AcDbLine
 10
-104.79309515
 20
55.25168686
 30
0.0
 11
-104.8023849
 21
55.24030046
 31
0.0
  0
LINE
  5
1AF
100
AcDbEntity
  8
レイヤー_1
  6
CONTINUOUS
 62
       3
100
AcDbLine
 10
-104.8023849
 20
55.24030046
 30
0.0
 11
-104.81301842
 21
55.22726701
 31
0.0
  0
LINE
  5
1B0
100
AcDbEntity
  8
レイヤー_1
  6
CONTINUOUS
 62
       3
100
AcDbLine
 10
-104.81301842
 20
55.22726701
 30
0.0
 11
-104.82457717
 21
55.21309954
 31
0.0
  0
LINE
  5
1B1
100
AcDbEntity
  8
レイヤー_1
  6
CONTINUOUS
 62
       3
100
AcDbLine
 10
-104.82457717
 20
55.21309954
 30
0.0
 11
-104.8366426
 21
55.19831101
 31
0.0
  0
LINE
  5
1B2
100
AcDbEntity
  8
レイヤー_1
  6
CONTINUOUS
 62
       3
100
AcDbLine
 10
-104.8366426
 20
55.19831101
 30
0.0
 11
-104.84879612
 21
55.18341449
 31
0.0
  0
LINE
  5
1B3
100
AcDbEntity
  8
レイヤー_1
  6
CONTINUOUS
 62
       3
100
AcDbLine
 10
-104.84879612
 20
55.18341449
 30
0.0
 11
-104.86061922
 21
55.16892299
 31
0.0
  0
LINE
  5
1B4
100
AcDbEntity
  8
レイヤー_1
  6
CONTINUOUS
 62
       3
100
AcDbLine
 10
-104.86061922
 20
55.16892299
 30
0.0
 11
-104.87169332
 21
55.15534954
 31
0.0
  0
LINE
  5
1B5
100
AcDbEntity
  8
レイヤー_1
  6
CONTINUOUS
 62
       3
100
AcDbLine
 10
-104.87169332
 20
55.15534954
 30
0.0
 11
-104.88159987
 21
55.14320711
 31
0.0
  0
LINE
  5
1B6
100
AcDbEntity
  8
レイヤー_1
  6
CONTINUOUS
 62
       3
100
AcDbLine
 10
-104.88159987
 20
55.14320711
 30
0.0
 11
-104.88992035
 21
55.13300876
 31
0.0
  0
LINE
  5
1B7
100
AcDbEntity
  8
レイヤー_1
  6
CONTINUOUS
 62
       3
100
AcDbLine
 10
-104.88992035
 20
55.13300876
 30
0.0
 11
-104.89623615
 21
55.12526754
 31
0.0
  0
LINE
  5
1B8
100
AcDbEntity
  8
レイヤー_1
  6
CONTINUOUS
 62
       3
100
AcDbLine
 10
-104.89623615
 20
55.12526754
 30
0.0
 11
-104.90012872
 21
55.12049639
 31
0.0
  0
LINE
  5
1B9
100
AcDbEntity
  8
レイヤー_1
  6
CONTINUOUS
 62
       3
100
AcDbLine
 10
-104.90273735
 20
55.11634271
 30
0.0
 11
-104.9062483
 21
55.10982706
 31
0.0
  0
LINE
  5
1BA
100
AcDbEntity
  8
レイヤー_1
  6
CONTINUOUS
 62
       3
100
AcDbLine
 10
-104.9062483
 20
55.10982706
 30
0.0
 11
-104.91146955
 21
55.10013736
 31
0.0
  0
LINE
  5
1BB
100
AcDbEntity
  8
レイヤー_1
  6
CONTINUOUS
 62
       3
100
AcDbLine
 10
-104.91146955
 20
55.10013736
 30
0.0
 11
-104.91808867
 21
55.08785349
 31
0.0
  0
LINE
  5
1BC
100
AcDbEntity
  8
レイヤー_1
  6
CONTINUOUS
 62
       3
100
AcDbLine
 10
-104.91808867
 20
55.08785349
 30
0.0
 11
-104.9257932
 21
55.07355534
 31
0.0
  0
LINE
  5
1BD
100
AcDbEntity
  8
レイヤー_1
  6
CONTINUOUS
 62
       3
100
AcDbLine
 10
-104.9257932
 20
55.07355534
 30
0.0
 11
-104.93427065
 21
55.05782276
 31
0.0
  0
LINE
  5
1BE
100
AcDbEntity
  8
レイヤー_1
  6
CONTINUOUS
 62
       3
100
AcDbLine
 10
-104.93427065
 20
55.05782276
 30
0.0
 11
-104.9432086
 21
55.04123564
 31
0.0
  0
LINE
  5
1BF
100
AcDbEntity
  8
レイヤー_1
  6
CONTINUOUS
 62
       3
100
AcDbLine
 10
-104.9432086
 20
55.04123564
 30
0.0
 11
-104.95229452
 21
55.02437384
 31
0.0
  0
LINE
  5
1C0
100
AcDbEntity
  8
レイヤー_1
  6
CONTINUOUS
 62
       3
100
AcDbLine
 10
-104.95229452
 20
55.02437384
 30
0.0
 11
-104.961216
 21
55.00781721
 31
0.0
  0
LINE
  5
1C1
100
AcDbEntity
  8
レイヤー_1
  6
CONTINUOUS
 62
       3
100
AcDbLine
 10
-104.961216
 20
55.00781721
 30
0.0
 11
-104.96966055
 21
54.99214569
 31
0.0
  0
LINE
  5
1C2
100
AcDbEntity
  8
レイヤー_1
  6
CONTINUOUS
 62
       3
100
AcDbLine
 10
-104.96966055
 20
54.99214569
 30
0.0
 11
-104.97731575
 21
54.97793909
 31
0.0
  0
LINE
  5
1C3
100
AcDbEntity
  8
レイヤー_1
  6
CONTINUOUS
 62
       3
100
AcDbLine
 10
-104.97731575
 20
54.97793909
 30
0.0
 11
-104.9838691
 21
54.96577729
 31
0.0
  0
LINE
  5
1C4
100
AcDbEntity
  8
レイヤー_1
  6
CONTINUOUS
 62
       3
100
AcDbLine
 10
-104.9838691
 20
54.96577729
 30
0.0
 11
-104.98900812
 21
54.95624019
 31
0.0
  0
LINE
  5
1C5
100
AcDbEntity
  8
レイヤー_1
  6
CONTINUOUS
 62
       3
100
AcDbLine
 10
-104.98900812
 20
54.95624019
 30
0.0
 11
-104.9924204
 21
54.94990764
 31
0.0
  0
LINE
  5
1C6
100
AcDbEntity
  8
レイヤー_1
  6
CONTINUOUS
 62
       3
100
AcDbLine
 10
-104.9943697
 20
54.94546661
 30
0.0
 11
-104.99621705
 21
54.93933679
 31
0.0
  0
LINE
  5
1C7
100
AcDbEntity
  8
レイヤー_1
  6
CONTINUOUS
 62
       3
100
AcDbLine
 10
-104.99621705
 20
54.93933679
 30
0.0
 11
-104.99916495
 21
54.92955519
 31
0.0
  0
LINE
  5
1C8
100
AcDbEntity
  8
レイヤー_1
  6
CONTINUOUS
 62
       3
100
AcDbLine
 10
-104.99916495
 20
54.92955519
 30
0.0
 11
-105.00302152
 21
54.91675831
 31
0.0
  0
LINE
  5
1C9
100
AcDbEntity
  8
レイヤー_1
  6
CONTINUOUS
 62
       3
100
AcDbLine
 10
-105.00302152
 20
54.91675831
 30
0.0
 11
-105.00759497
 21
54.90158279
 31
0.0
  0
LINE
  5
1CA
100
AcDbEntity
  8
レイヤー_1
  6
CONTINUOUS
 62
       3
100
AcDbLine
 10
-105.00759497
 20
54.90158279
 30
0.0
 11
-105.01269345
 21
54.88466509
 31
0.0
  0
LINE
  5
1CB
100
AcDbEntity
  8
レイヤー_1
  6
CONTINUOUS
 62
       3
100
AcDbLine
 10
-105.01269345
 20
54.88466509
 30
0.0
 11
-105.01812512
 21
54.86664181
 31
0.0
  0
LINE
  5
1CC
100
AcDbEntity
  8
レイヤー_1
  6
CONTINUOUS
 62
       3
100
AcDbLine
 10
-105.01812512
 20
54.86664181
 30
0.0
 11
-105.02369815
 21
54.84814949
 31
0.0
  0
LINE
  5
1CD
100
AcDbEntity
  8
レイヤー_1
  6
CONTINUOUS
 62
       3
100
AcDbLine
 10
-105.02369815
 20
54.84814949
 30
0.0
 11
-105.0292207
 21
54.82982469
 31
0.0
  0
LINE
  5
1CE
100
AcDbEntity
  8
レイヤー_1
  6
CONTINUOUS
 62
       3
100
AcDbLine
 10
-105.0292207
 20
54.82982469
 30
0.0
 11
-105.03450092
 21
54.81230396
 31
0.0
  0
LINE
  5
1CF
100
AcDbEntity
  8
レイヤー_1
  6
CONTINUOUS
 62
       3
100
AcDbLine
 10
-105.03450092
 20
54.81230396
 30
0.0
 11
-105.039347
 21
54.79622384
 31
0.0
  0
LINE
  5
1D0
100
AcDbEntity
  8
レイヤー_1
  6
CONTINUOUS
 62
       3
100
AcDbLine
 10
-105.039347
 20
54.79622384
 30
0.0
 11
-105.04356705
 21
54.78222089
 31
0.0
  0
LINE
  5
1D1
100
AcDbEntity
  8
レイヤー_1
  6
CONTINUOUS
 62
       3
100
AcDbLine
 10
-105.04356705
 20
54.78222089
 30
0.0
 11
-105.0469693
 21
54.77093164
 31
0.0
  0
LINE
  5
1D2
100
AcDbEntity
  8
レイヤー_1
  6
CONTINUOUS
 62
       3
100
AcDbLine
 10
-105.0469693
 20
54.77093164
 30
0.0
 11
-105.04936187
 21
54.76299269
 31
0.0
  0
LINE
  5
1D3
100
AcDbEntity
  8
レイヤー_1
  6
CONTINUOUS
 62
       3
100
AcDbLine
 10
-105.05074747
 20
54.75774601
 30
0.0
 11
-105.05126767
 21
54.75253274
 31
0.0
  0
LINE
  5
1D4
100
AcDbEntity
  8
レイヤー_1
  6
CONTINUOUS
 62
       3
100
AcDbLine
 10
-105.05126767
 20
54.75253274
 30
0.0
 11
-105.05218022
 21
54.74338676
 31
0.0
  0
LINE
  5
1D5
100
AcDbEntity
  8
レイヤー_1
  6
CONTINUOUS
 62
       3
100
AcDbLine
 10
-105.05218022
 20
54.74338676
 30
0.0
 11
-105.05341977
 21
54.73096359
 31
0.0
  0
LINE
  5
1D6
100
AcDbEntity
  8
レイヤー_1
  6
CONTINUOUS
 62
       3
100
AcDbLine
 10
-105.05341977
 20
54.73096359
 30
0.0
 11
-105.05492095
 21
54.71591861
 31
0.0
  0
LINE
  5
1D7
100
AcDbEntity
  8
レイヤー_1
  6
CONTINUOUS
 62
       3
100
AcDbLine
 10
-105.05492095
 20
54.71591861
 30
0.0
 11
-105.0566183
 21
54.69890734
 31
0.0
  0
LINE
  5
1D8
100
AcDbEntity
  8
レイヤー_1
  6
CONTINUOUS
 62
       3
100
AcDbLine
 10
-105.0566183
 20
54.69890734
 30
0.0
 11
-105.05844645
 21
54.68058514
 31
0.0
  0
LINE
  5
1D9
100
AcDbEntity
  8
レイヤー_1
  6
CONTINUOUS
 62
       3
100
AcDbLine
 10
-105.05844645
 20
54.68058514
 30
0.0
 11
-105.06034
 21
54.66160751
 31
0.0
  0
LINE
  5
1DA
100
AcDbEntity
  8
レイヤー_1
  6
CONTINUOUS
 62
       3
100
AcDbLine
 10
-105.06034
 20
54.66160751
 30
0.0
 11
-105.06223355
 21
54.64262989
 31
0.0
  0
LINE
  5
1DB
100
AcDbEntity
  8
レイヤー_1
  6
CONTINUOUS
 62
       3
100
AcDbLine
 10
-105.06223355
 20
54.64262989
 30
0.0
 11
-105.06406172
 21
54.62430771
 31
0.0
  0
LINE
  5
1DC
100
AcDbEntity
  8
レイヤー_1
  6
CONTINUOUS
 62
       3
100
AcDbLine
 10
-105.06406172
 20
54.62430771
 30
0.0
 11
-105.06575907
 21
54.60729641
 31
0.0
  0
LINE
  5
1DD
100
AcDbEntity
  8
レイヤー_1
  6
CONTINUOUS
 62
       3
100
AcDbLine
 10
-105.06575907
 20
54.60729641
 30
0.0
 11
-105.06726022
 21
54.59225146
 31
0.0
  0
LINE
  5
1DE
100
AcDbEntity
  8
レイヤー_1
  6
CONTINUOUS
 62
       3
100
AcDbLine
 10
-105.06726022
 20
54.59225146
 30
0.0
 11
-105.0684998
 21
54.57982826
 31
0.0
  0
LINE
  5
1DF
100
AcDbEntity
  8
レイヤー_1
  6
CONTINUOUS
 62
       3
100
AcDbLine
 10
-105.0684998
 20
54.57982826
 30
0.0
 11
-105.06941237
 21
54.57068231
 31
0.0
  0
LINE
  5
1E0
100
AcDbEntity
  8
レイヤー_1
  6
CONTINUOUS
 62
       3
100
AcDbLine
 10
-105.06941237
 20
54.57068231
 30
0.0
 11
-105.06993255
 21
54.56546901
 31
0.0
  0
LINE
  5
1E1
100
AcDbEntity
  8
レイヤー_1
  6
CONTINUOUS
 62
       3
100
AcDbLine
 10
-105.06993255
 20
54.56546901
 30
0.0
 11
-105.07002932
 21
54.36503894
 31
0.0
  0
LINE
  5
1E2
100
AcDbEntity
  8
レイヤー_1
  6
CONTINUOUS
 62
       3
100
AcDbLine
 10
-105.07002932
 20
54.36503894
 30
0.0
 11
-105.07002932
 21
51.93492191
 31
0.0
  0
LINE
  5
1E3
100
AcDbEntity
  8
レイヤー_1
  6
CONTINUOUS
 62
       3
100
AcDbLine
 10
-105.07002932
 20
51.93492191
 30
0.0
 11
-105.07002932
 21
47.05336474
 31
0.0
  0
LINE
  5
1E4
100
AcDbEntity
  8
レイヤー_1
  6
CONTINUOUS
 62
       3
100
AcDbLine
 10
-105.07002932
 20
47.05336474
 30
0.0
 11
-105.07002932
 21
40.11177381
 31
0.0
  0
LINE
  5
1E5
100
AcDbEntity
  8
レイヤー_1
  6
CONTINUOUS
 62
       3
100
AcDbLine
 10
-105.07002932
 20
40.11177381
 30
0.0
 11
-105.07002932
 21
31.50155554
 31
0.0
  0
LINE
  5
1E6
100
AcDbEntity
  8
レイヤー_1
  6
CONTINUOUS
 62
       3
100
AcDbLine
 10
-105.07002932
 20
31.50155554
 30
0.0
 11
-105.07002932
 21
21.61411634
 31
0.0
  0
LINE
  5
1E7
100
AcDbEntity
  8
レイヤー_1
  6
CONTINUOUS
 62
       3
100
AcDbLine
 10
-105.07002932
 20
21.61411634
 30
0.0
 11
-105.07002932
 21
10.84086261
 31
0.0
  0
LINE
  5
1E8
100
AcDbEntity
  8
レイヤー_1
  6
CONTINUOUS
 62
       3
100
AcDbLine
 10
-105.07002932
 20
10.84086261
 30
0.0
 11
-105.07002932
 21
-0.42679921
 31
0.0
  0
LINE
  5
1E9
100
AcDbEntity
  8
レイヤー_1
  6
CONTINUOUS
 62
       3
100
AcDbLine
 10
-105.07002932
 20
-0.42679921
 30
0.0
 11
-105.07002932
 21
-11.79746271
 31
0.0
  0
LINE
  5
1EA
100
AcDbEntity
  8
レイヤー_1
  6
CONTINUOUS
 62
       3
100
AcDbLine
 10
-105.07002932
 20
-11.79746271
 30
0.0
 11
-105.07002932
 21
-22.87972149
 31
0.0
  0
LINE
  5
1EB
100
AcDbEntity
  8
レイヤー_1
  6
CONTINUOUS
 62
       3
100
AcDbLine
 10
-105.07002932
 20
-22.87972149
 30
0.0
 11
-105.07002932
 21
-33.28216914
 31
0.0
  0
LINE
  5
1EC
100
AcDbEntity
  8
レイヤー_1
  6
CONTINUOUS
 62
       3
100
AcDbLine
 10
-105.07002932
 20
-33.28216914
 30
0.0
 11
-105.07002932
 21
-42.61339921
 31
0.0
  0
LINE
  5
1ED
100
AcDbEntity
  8
レイヤー_1
  6
CONTINUOUS
 62
       3
100
AcDbLine
 10
-105.07002932
 20
-42.61339921
 30
0.0
 11
-105.07002932
 21
-50.48200534
 31
0.0
  0
LINE
  5
1EE
100
AcDbEntity
  8
レイヤー_1
  6
CONTINUOUS
 62
       3
100
AcDbLine
 10
-105.07002932
 20
-50.48200534
 30
0.0
 11
-105.07002932
 21
-56.49658109
 31
0.0
  0
LINE
  5
1EF
100
AcDbEntity
  8
レイヤー_1
  6
CONTINUOUS
 62
       3
100
AcDbLine
 10
-105.07002932
 20
-56.49658109
 30
0.0
 11
-105.07002932
 21
-60.26572004
 31
0.0
  0
LINE
  5
1F0
100
AcDbEntity
  8
レイヤー_1
  6
CONTINUOUS
 62
       3
100
AcDbLine
 10
-105.07002932
 20
-60.26572004
 30
0.0
 11
-105.07002657
 21
-61.41466846
 31
0.0
  0
LINE
  5
1F1
100
AcDbEntity
  8
レイヤー_1
  6
CONTINUOUS
 62
       3
100
AcDbLine
 10
-105.06973922
 20
-61.41757421
 30
0.0
 11
-105.069025
 21
-61.42479551
 31
0.0
  0
LINE
  5
1F2
100
AcDbEntity
  8
レイヤー_1
  6
CONTINUOUS
 62
       3
100
AcDbLine
 10
-105.069025
 20
-61.42479551
 30
0.0
 11
-105.0679494
 21
-61.43567116
 31
0.0
  0
LINE
  5
1F3
100
AcDbEntity
  8
レイヤー_1
  6
CONTINUOUS
 62
       3
100
AcDbLine
 10
-105.0679494
 20
-61.43567116
 30
0.0
 11
-105.06657777
 21
-61.44953986
 31
0.0
  0
LINE
  5
1F4
100
AcDbEntity
  8
レイヤー_1
  6
CONTINUOUS
 62
       3
100
AcDbLine
 10
-105.06657777
 20
-61.44953986
 30
0.0
 11
-105.06497552
 21
-61.46574039
 31
0.0
  0
LINE
  5
1F5
100
AcDbEntity
  8
レイヤー_1
  6
CONTINUOUS
 62
       3
100
AcDbLine
 10
-105.06497552
 20
-61.46574039
 30
0.0
 11
-105.06320805
 21
-61.48361144
 31
0.0
  0
LINE
  5
1F6
100
AcDbEntity
  8
レイヤー_1
  6
CONTINUOUS
 62
       3
100
AcDbLine
 10
-105.06320805
 20
-61.48361144
 30
0.0
 11
-105.06134075
 21
-61.50249179
 31
0.0
  0
LINE
  5
1F7
100
AcDbEntity
  8
レイヤー_1
  6
CONTINUOUS
 62
       3
100
AcDbLine
 10
-105.06134075
 20
-61.50249179
 30
0.0
 11
-105.05943905
 21
-61.52172014
 31
0.0
  0
LINE
  5
1F8
100
AcDbEntity
  8
レイヤー_1
  6
CONTINUOUS
 62
       3
100
AcDbLine
 10
-105.05943905
 20
-61.52172014
 30
0.0
 11
-105.05756832
 21
-61.54063529
 31
0.0
  0
LINE
  5
1F9
100
AcDbEntity
  8
レイヤー_1
  6
CONTINUOUS
 62
       3
100
AcDbLine
 10
-105.05756832
 20
-61.54063529
 30
0.0
 11
-105.055794
 21
-61.55857596
 31
0.0
  0
LINE
  5
1FA
100
AcDbEntity
  8
レイヤー_1
  6
CONTINUOUS
 62
       3
100
AcDbLine
 10
-105.055794
 20
-61.55857596
 30
0.0
 11
-105.0541814
 21
-61.57488086
 31
0.0
  0
LINE
  5
1FB
100
AcDbEntity
  8
レイヤー_1
  6
CONTINUOUS
 62
       3
100
AcDbLine
 10
-105.0541814
 20
-61.57488086
 30
0.0
 11
-105.052796
 21
-61.58888879
 31
0.0
  0
LINE
  5
1FC
100
AcDbEntity
  8
レイヤー_1
  6
CONTINUOUS
 62
       3
100
AcDbLine
 10
-105.052796
 20
-61.58888879
 30
0.0
 11
-105.05170317
 21
-61.59993844
 31
0.0
  0
LINE
  5
1FD
100
AcDbEntity
  8
レイヤー_1
  6
CONTINUOUS
 62
       3
100
AcDbLine
 10
-105.05170317
 20
-61.59993844
 30
0.0
 11
-105.05096832
 21
-61.60736859
 31
0.0
  0
LINE
  5
1FE
100
AcDbEntity
  8
レイヤー_1
  6
CONTINUOUS
 62
       3
100
AcDbLine
 10
-105.05015067
 20
-61.61222439
 30
0.0
 11
-105.04836657
 21
-61.61809031
 31
0.0
  0
LINE
  5
1FF
100
AcDbEntity
  8
レイヤー_1
  6
CONTINUOUS
 62
       3
100
AcDbLine
 10
-105.04836657
 20
-61.61809031
 30
0.0
 11
-105.04547182
 21
-61.62760786
 31
0.0
  0
LINE
  5
200
100
AcDbEntity
  8
レイヤー_1
  6
CONTINUOUS
 62
       3
100
AcDbLine
 10
-105.04547182
 20
-61.62760786
 30
0.0
 11
-105.04165827
 21
-61.64014634
 31
0.0
  0
LINE
  5
201
100
AcDbEntity
  8
レイヤー_1
  6
CONTINUOUS
 62
       3
100
AcDbLine
 10
-105.04165827
 20
-61.64014634
 30
0.0
 11
-105.03711777
 21
-61.65507496
 31
0.0
  0
LINE
  5
202
100
AcDbEntity
  8
レイヤー_1
  6
CONTINUOUS
 62
       3
100
AcDbLine
 10
-105.03711777
 20
-61.65507496
 30
0.0
 11
-105.03204215
 21
-61.67176304
 31
0.0
  0
LINE
  5
203
100
AcDbEntity
  8
レイヤー_1
  6
CONTINUOUS
 62
       3
100
AcDbLine
 10
-105.03204215
 20
-61.67176304
 30
0.0
 11
-105.02662322
 21
-61.68957979
 31
0.0
  0
LINE
  5
204
100
AcDbEntity
  8
レイヤー_1
  6
CONTINUOUS
 62
       3
100
AcDbLine
 10
-105.02662322
 20
-61.68957979
 30
0.0
 11
-105.02105285
 21
-61.70789449
 31
0.0
  0
LINE
  5
205
100
AcDbEntity
  8
レイヤー_1
  6
CONTINUOUS
 62
       3
100
AcDbLine
 10
-105.02105285
 20
-61.70789449
 30
0.0
 11
-105.01552287
 21
-61.72607639
 31
0.0
  0
LINE
  5
206
100
AcDbEntity
  8
レイヤー_1
  6
CONTINUOUS
 62
       3
100
AcDbLine
 10
-105.01552287
 20
-61.72607639
 30
0.0
 11
-105.0102251
 21
-61.74349479
 31
0.0
  0
LINE
  5
207
100
AcDbEntity
  8
レイヤー_1
  6
CONTINUOUS
 62
       3
100
AcDbLine
 10
-105.0102251
 20
-61.74349479
 30
0.0
 11
-105.0053514
 21
-61.75951891
 31
0.0
  0
LINE
  5
208
100
AcDbEntity
  8
レイヤー_1
  6
CONTINUOUS
 62
       3
100
AcDbLine
 10
-105.0053514
 20
-61.75951891
 30
0.0
 11
-105.00109365
 21
-61.77351804
 31
0.0
  0
LINE
  5
209
100
AcDbEntity
  8
レイヤー_1
  6
CONTINUOUS
 62
       3
100
AcDbLine
 10
-105.00109365
 20
-61.77351804
 30
0.0
 11
-104.99764357
 21
-61.78486141
 31
0.0
  0
LINE
  5
20A
100
AcDbEntity
  8
レイヤー_1
  6
CONTINUOUS
 62
       3
100
AcDbLine
 10
-104.99764357
 20
-61.78486141
 30
0.0
 11
-104.9951931
 21
-61.79291834
 31
0.0
  0
LINE
  5
20B
100
AcDbEntity
  8
レイヤー_1
  6
CONTINUOUS
 62
       3
100
AcDbLine
 10
-104.993934
 20
-61.79705801
 30
0.0
 11
-104.99341707
 21
-61.79820336
 31
0.0
  0
LINE
  5
20C
100
AcDbEntity
  8
レイヤー_1
  6
CONTINUOUS
 62
       3
100
AcDbLine
 10
-104.99103912
 20
-61.80263851
 30
0.0
 11
-104.98676995
 21
-61.81060101
 31
0.0
  0
LINE
  5
20D
100
AcDbEntity
  8
レイヤー_1
  6
CONTINUOUS
 62
       3
100
AcDbLine
 10
-104.98676995
 20
-61.81060101
 30
0.0
 11
-104.98092205
 21
-61.82150806
 31
0.0
  0
LINE
  5
20E
100
AcDbEntity
  8
レイヤー_1
  6
CONTINUOUS
 62
       3
100
AcDbLine
 10
-104.98092205
 20
-61.82150806
 30
0.0
 11
-104.97380782
 21
-61.83477691
 31
0.0
  0
LINE
  5
20F
100
AcDbEntity
  8
レイヤー_1
  6
CONTINUOUS
 62
       3
100
AcDbLine
 10
-104.97380782
 20
-61.83477691
 30
0.0
 11
-104.96573977
 21
-61.84982476
 31
0.0
  0
LINE
  5
210
100
AcDbEntity
  8
レイヤー_1
  6
CONTINUOUS
 62
       3
100
AcDbLine
 10
-104.96573977
 20
-61.84982476
 30
0.0
 11
-104.95703037
 21
-61.86606884
 31
0.0
  0
LINE
  5
211
100
AcDbEntity
  8
レイヤー_1
  6
CONTINUOUS
 62
       3
100
AcDbLine
 10
-104.95703037
 20
-61.86606884
 30
0.0
 11
-104.94799202
 21
-61.88292639
 31
0.0
  0
LINE
  5
212
100
AcDbEntity
  8
レイヤー_1
  6
CONTINUOUS
 62
       3
100
AcDbLine
 10
-104.94799202
 20
-61.88292639
 30
0.0
 11
-104.93893725
 21
-61.89981459
 31
0.0
  0
LINE
  5
213
100
AcDbEntity
  8
レイヤー_1
  6
CONTINUOUS
 62
       3
100
AcDbLine
 10
-104.93893725
 20
-61.89981459
 30
0.0
 11
-104.9301785
 21
-61.91615069
 31
0.0
  0
LINE
  5
214
100
AcDbEntity
  8
レイヤー_1
  6
CONTINUOUS
 62
       3
100
AcDbLine
 10
-104.9301785
 20
-61.91615069
 30
0.0
 11
-104.9220282
 21
-61.93135191
 31
0.0
  0
LINE
  5
215
100
AcDbEntity
  8
レイヤー_1
  6
CONTINUOUS
 62
       3
100
AcDbLine
 10
-104.9220282
 20
-61.93135191
 30
0.0
 11
-104.91479887
 21
-61.94483546
 31
0.0
  0
LINE
  5
216
100
AcDbEntity
  8
レイヤー_1
  6
CONTINUOUS
 62
       3
100
AcDbLine
 10
-104.91479887
 20
-61.94483546
 30
0.0
 11
-104.90880295
 21
-61.95601856
 31
0.0
  0
LINE
  5
217
100
AcDbEntity
  8
レイヤー_1
  6
CONTINUOUS
 62
       3
100
AcDbLine
 10
-104.90880295
 20
-61.95601856
 30
0.0
 11
-104.90435287
 21
-61.96431846
 31
0.0
  0
LINE
  5
218
100
AcDbEntity
  8
レイヤー_1
  6
CONTINUOUS
 62
       3
100
AcDbLine
 10
-104.89861347
 20
-61.97335664
 30
0.0
 11
-104.89352087
 21
-61.97959861
 31
0.0
  0
LINE
  5
219
100
AcDbEntity
  8
レイヤー_1
  6
CONTINUOUS
 62
       3
100
AcDbLine
 10
-104.89352087
 20
-61.97959861
 30
0.0
 11
-104.88620335
 21
-61.98856771
 31
0.0
  0
LINE
  5
21A
100
AcDbEntity
  8
レイヤー_1
  6
CONTINUOUS
 62
       3
100
AcDbLine
 10
-104.88620335
 20
-61.98856771
 30
0.0
 11
-104.87707937
 21
-61.99975086
 31
0.0
  0
LINE
  5
21B
100
AcDbEntity
  8
レイヤー_1
  6
CONTINUOUS
 62
       3
100
AcDbLine
 10
-104.87707937
 20
-61.99975086
 30
0.0
 11
-104.8665676
 21
-62.01263509
 31
0.0
  0
LINE
  5
21C
100
AcDbEntity
  8
レイヤー_1
  6
CONTINUOUS
 62
       3
100
AcDbLine
 10
-104.8665676
 20
-62.01263509
 30
0.0
 11
-104.85508655
 21
-62.02670739
 31
0.0
  0
LINE
  5
21D
100
AcDbEntity
  8
レイヤー_1
  6
CONTINUOUS
 62
       3
100
AcDbLine
 10
-104.85508655
 20
-62.02670739
 30
0.0
 11
-104.84305475
 21
-62.04145469
 31
0.0
  0
LINE
  5
21E
100
AcDbEntity
  8
レイヤー_1
  6
CONTINUOUS
 62
       3
100
AcDbLine
 10
-104.84305475
 20
-62.04145469
 30
0.0
 11
-104.83089077
 21
-62.05636399
 31
0.0
  0
LINE
  5
21F
100
AcDbEntity
  8
レイヤー_1
  6
CONTINUOUS
 62
       3
100
AcDbLine
 10
-104.83089077
 20
-62.05636399
 30
0.0
 11
-104.81901317
 21
-62.07092229
 31
0.0
  0
LINE
  5
220
100
AcDbEntity
  8
レイヤー_1
  6
CONTINUOUS
 62
       3
100
AcDbLine
 10
-104.81901317
 20
-62.07092229
 30
0.0
 11
-104.80784052
 21
-62.08461654
 31
0.0
  0
LINE
  5
221
100
AcDbEntity
  8
レイヤー_1
  6
CONTINUOUS
 62
       3
100
AcDbLine
 10
-104.80784052
 20
-62.08461654
 30
0.0
 11
-104.79779137
 21
-62.09693376
 31
0.0
  0
LINE
  5
222
100
AcDbEntity
  8
レイヤー_1
  6
CONTINUOUS
 62
       3
100
AcDbLine
 10
-104.79779137
 20
-62.09693376
 30
0.0
 11
-104.78928422
 21
-62.10736089
 31
0.0
  0
LINE
  5
223
100
AcDbEntity
  8
レイヤー_1
  6
CONTINUOUS
 62
       3
100
AcDbLine
 10
-104.78928422
 20
-62.10736089
 30
0.0
 11
-104.7827377
 21
-62.11538494
 31
0.0
  0
LINE
  5
224
100
AcDbEntity
  8
レイヤー_1
  6
CONTINUOUS
 62
       3
100
AcDbLine
 10
-104.7827377
 20
-62.11538494
 30
0.0
 11
-104.77857032
 21
-62.12049286
 31
0.0
  0
LINE
  5
225
100
AcDbEntity
  8
レイヤー_1
  6
CONTINUOUS
 62
       3
100
AcDbLine
 10
-104.77513862
 20
-62.12386541
 30
0.0
 11
-104.76973037
 21
-62.12830294
 31
0.0
  0
LINE
  5
226
100
AcDbEntity
  8
レイヤー_1
  6
CONTINUOUS
 62
       3
100
AcDbLine
 10
-104.76973037
 20
-62.12830294
 30
0.0
 11
-104.76147625
 21
-62.13507554
 31
0.0
  0
LINE
  5
227
100
AcDbEntity
  8
レイヤー_1
  6
CONTINUOUS
 62
       3
100
AcDbLine
 10
-104.76147625
 20
-62.13507554
 30
0.0
 11
-104.75088635
 21
-62.14376471
 31
0.0
  0
LINE
  5
228
100
AcDbEntity
  8
レイヤー_1
  6
CONTINUOUS
 62
       3
100
AcDbLine
 10
-104.75088635
 20
-62.14376471
 30
0.0
 11
-104.73847077
 21
-62.15395184
 31
0.0
  0
LINE
  5
229
100
AcDbEntity
  8
レイヤー_1
  6
CONTINUOUS
 62
       3
100
AcDbLine
 10
-104.73847077
 20
-62.15395184
 30
0.0
 11
-104.72473962
 21
-62.16521841
 31
0.0
  0
LINE
  5
22A
100
AcDbEntity
  8
レイヤー_1
  6
CONTINUOUS
 62
       3
100
AcDbLine
 10
-104.72473962
 20
-62.16521841
 30
0.0
 11
-104.71020305
 21
-62.17714586
 31
0.0
  0
LINE
  5
22B
100
AcDbEntity
  8
レイヤー_1
  6
CONTINUOUS
 62
       3
100
AcDbLine
 10
-104.71020305
 20
-62.17714586
 30
0.0
 11
-104.69537115
 21
-62.18931561
 31
0.0
  0
LINE
  5
22C
100
AcDbEntity
  8
レイヤー_1
  6
CONTINUOUS
 62
       3
100
AcDbLine
 10
-104.69537115
 20
-62.18931561
 30
0.0
 11
-104.68075402
 21
-62.20130916
 31
0.0
  0
LINE
  5
22D
100
AcDbEntity
  8
レイヤー_1
  6
CONTINUOUS
 62
       3
100
AcDbLine
 10
-104.68075402
 20
-62.20130916
 30
0.0
 11
-104.66686182
 21
-62.21270791
 31
0.0
  0
LINE
  5
22E
100
AcDbEntity
  8
レイヤー_1
  6
CONTINUOUS
 62
       3
100
AcDbLine
 10
-104.66686182
 20
-62.21270791
 30
0.0
 11
-104.6542046
 21
-62.22309331
 31
0.0
  0
LINE
  5
22F
100
AcDbEntity
  8
レイヤー_1
  6
CONTINUOUS
 62
       3
100
AcDbLine
 10
-104.6542046
 20
-62.22309331
 30
0.0
 11
-104.64329252
 21
-62.23204681
 31
0.0
  0
LINE
  5
230
100
AcDbEntity
  8
レイヤー_1
  6
CONTINUOUS
 62
       3
100
AcDbLine
 10
-104.64329252
 20
-62.23204681
 30
0.0
 11
-104.63463567
 21
-62.23914986
 31
0.0
  0
LINE
  5
231
100
AcDbEntity
  8
レイヤー_1
  6
CONTINUOUS
 62
       3
100
AcDbLine
 10
-104.63463567
 20
-62.23914986
 30
0.0
 11
-104.62874417
 21
-62.24398391
 31
0.0
  0
LINE
  5
232
100
AcDbEntity
  8
レイヤー_1
  6
CONTINUOUS
 62
       3
100
AcDbLine
 10
-104.62469777
 20
-62.24691804
 30
0.0
 11
-104.61944552
 21
-62.24972011
 31
0.0
  0
LINE
  5
233
100
AcDbEntity
  8
レイヤー_1
  6
CONTINUOUS
 62
       3
100
AcDbLine
 10
-104.61944552
 20
-62.24972011
 30
0.0
 11
-104.61077165
 21
-62.25434761
 31
0.0
  0
LINE
  5
234
100
AcDbEntity
  8
レイヤー_1
  6
CONTINUOUS
 62
       3
100
AcDbLine
 10
-104.61077165
 20
-62.25434761
 30
0.0
 11
-104.59926182
 21
-62.26048809
 31
0.0
  0
LINE
  5
235
100
AcDbEntity
  8
レイヤー_1
  6
CONTINUOUS
 62
       3
100
AcDbLine
 10
-104.59926182
 20
-62.26048809
 30
0.0
 11
-104.58550175
 21
-62.26782906
 31
0.0
  0
LINE
  5
236
100
AcDbEntity
  8
レイヤー_1
  6
CONTINUOUS
 62
       3
100
AcDbLine
 10
-104.58550175
 20
-62.26782906
 30
0.0
 11
-104.57007707
 21
-62.27605811
 31
0.0
  0
LINE
  5
237
100
AcDbEntity
  8
レイヤー_1
  6
CONTINUOUS
 62
       3
100
AcDbLine
 10
-104.57007707
 20
-62.27605811
 30
0.0
 11
-104.5535735
 21
-62.28486274
 31
0.0
  0
LINE
  5
238
100
AcDbEntity
  8
レイヤー_1
  6
CONTINUOUS
 62
       3
100
AcDbLine
 10
-104.5535735
 20
-62.28486274
 30
0.0
 11
-104.53657672
 21
-62.29393051
 31
0.0
  0
LINE
  5
239
100
AcDbEntity
  8
レイヤー_1
  6
CONTINUOUS
 62
       3
100
AcDbLine
 10
-104.53657672
 20
-62.29393051
 30
0.0
 11
-104.51967242
 21
-62.30294894
 31
0.0
  0
LINE
  5
23A
100
AcDbEntity
  8
レイヤー_1
  6
CONTINUOUS
 62
       3
100
AcDbLine
 10
-104.51967242
 20
-62.30294894
 30
0.0
 11
-104.50344632
 21
-62.31160554
 31
0.0
  0
LINE
  5
23B
100
AcDbEntity
  8
レイヤー_1
  6
CONTINUOUS
 62
       3
100
AcDbLine
 10
-104.50344632
 20
-62.31160554
 30
0.0
 11
-104.48848402
 21
-62.31958791
 31
0.0
  0
LINE
  5
23C
100
AcDbEntity
  8
レイヤー_1
  6
CONTINUOUS
 62
       3
100
AcDbLine
 10
-104.48848402
 20
-62.31958791
 30
0.0
 11
-104.47537125
 21
-62.32658354
 31
0.0
  0
LINE
  5
23D
100
AcDbEntity
  8
レイヤー_1
  6
CONTINUOUS
 62
       3
100
AcDbLine
 10
-104.47537125
 20
-62.32658354
 30
0.0
 11
-104.46469372
 21
-62.33228001
 31
0.0
  0
LINE
  5
23E
100
AcDbEntity
  8
レイヤー_1
  6
CONTINUOUS
 62
       3
100
AcDbLine
 10
-104.46469372
 20
-62.33228001
 30
0.0
 11
-104.45703712
 21
-62.33636481
 31
0.0
  0
LINE
  5
23F
100
AcDbEntity
  8
レイヤー_1
  6
CONTINUOUS
 62
       3
100
AcDbLine
 10
-104.45298705
 20
-62.33852549
 30
0.0
 11
-104.45184462
 21
-62.33898409
 31
0.0
  0
LINE
  5
240
100
AcDbEntity
  8
レイヤー_1
  6
CONTINUOUS
 62
       3
100
AcDbLine
 10
-104.4472629
 20
-62.34036706
 30
0.0
 11
-104.43883032
 21
-62.34291236
 31
0.0
  0
LINE
  5
241
100
AcDbEntity
  8
レイヤー_1
  6
CONTINUOUS
 62
       3
100
AcDbLine
 10
-104.43883032
 20
-62.34291236
 30
0.0
 11
-104.42717767
 21
-62.34642964
 31
0.0
  0
LINE
  5
242
100
AcDbEntity
  8
レイヤー_1
  6
CONTINUOUS
 62
       3
100
AcDbLine
 10
-104.42717767
 20
-62.34642964
 30
0.0
 11
-104.4129357
 21
-62.35072849
 31
0.0
  0
LINE
  5
243
100
AcDbEntity
  8
レイヤー_1
  6
CONTINUOUS
 62
       3
100
AcDbLine
 10
-104.4129357
 20
-62.35072849
 30
0.0
 11
-104.3967351
 21
-62.35561854
 31
0.0
  0
LINE
  5
244
100
AcDbEntity
  8
レイヤー_1
  6
CONTINUOUS
 62
       3
100
AcDbLine
 10
-104.3967351
 20
-62.35561854
 30
0.0
 11
-104.37920667
 21
-62.36090939
 31
0.0
  0
LINE
  5
245
100
AcDbEntity
  8
レイヤー_1
  6
CONTINUOUS
 62
       3
100
AcDbLine
 10
-104.37920667
 20
-62.36090939
 30
0.0
 11
-104.36098105
 21
-62.36641066
 31
0.0
  0
LINE
  5
246
100
AcDbEntity
  8
レイヤー_1
  6
CONTINUOUS
 62
       3
100
AcDbLine
 10
-104.36098105
 20
-62.36641066
 30
0.0
 11
-104.34268905
 21
-62.37193196
 31
0.0
  0
LINE
  5
247
100
AcDbEntity
  8
レイヤー_1
  6
CONTINUOUS
 62
       3
100
AcDbLine
 10
-104.34268905
 20
-62.37193196
 30
0.0
 11
-104.32496142
 21
-62.37728294
 31
0.0
  0
LINE
  5
248
100
AcDbEntity
  8
レイヤー_1
  6
CONTINUOUS
 62
       3
100
AcDbLine
 10
-104.32496142
 20
-62.37728294
 30
0.0
 11
-104.30842885
 21
-62.38227319
 31
0.0
  0
LINE
  5
249
100
AcDbEntity
  8
レイヤー_1
  6
CONTINUOUS
 62
       3
100
AcDbLine
 10
-104.30842885
 20
-62.38227319
 30
0.0
 11
-104.29372212
 21
-62.38671231
 31
0.0
  0
LINE
  5
24A
100
AcDbEntity
  8
レイヤー_1
  6
CONTINUOUS
 62
       3
100
AcDbLine
 10
-104.29372212
 20
-62.38671231
 30
0.0
 11
-104.28147192
 21
-62.39040994
 31
0.0
  0
LINE
  5
24B
100
AcDbEntity
  8
レイヤー_1
  6
CONTINUOUS
 62
       3
100
AcDbLine
 10
-104.28147192
 20
-62.39040994
 30
0.0
 11
-104.27230907
 21
-62.39317571
 31
0.0
  0
LINE
  5
24C
100
AcDbEntity
  8
レイヤー_1
  6
CONTINUOUS
 62
       3
100
AcDbLine
 10
-104.27230907
 20
-62.39317571
 30
0.0
 11
-104.2668642
 21
-62.39481919
 31
0.0
  0
LINE
  5
24D
100
AcDbEntity
  8
レイヤー_1
  6
CONTINUOUS
 62
       3
100
AcDbLine
 10
-104.26181242
 20
-62.39557714
 30
0.0
 11
-104.2540046
 21
-62.39635274
 31
0.0
  0
LINE
  5
24E
100
AcDbEntity
  8
レイヤー_1
  6
CONTINUOUS
 62
       3
100
AcDbLine
 10
-104.2540046
 20
-62.39635274
 30
0.0
 11
-104.24266247
 21
-62.39747944
 31
0.0
  0
LINE
  5
24F
100
AcDbEntity
  8
レイヤー_1
  6
CONTINUOUS
 62
       3
100
AcDbLine
 10
-104.24266247
 20
-62.39747944
 30
0.0
 11
-104.2284444
 21
-62.39889184
 31
0.0
  0
LINE
  5
250
100
AcDbEntity
  8
レイヤー_1
  6
CONTINUOUS
 62
       3
100
AcDbLine
 10
-104.2284444
 20
-62.39889184
 30
0.0
 11
-104.21200875
 21
-62.40052451
 31
0.0
  0
LINE
  5
251
100
AcDbEntity
  8
レイヤー_1
  6
CONTINUOUS
 62
       3
100
AcDbLine
 10
-104.21200875
 20
-62.40052451
 30
0.0
 11
-104.19401382
 21
-62.40231209
 31
0.0
  0
LINE
  5
252
100
AcDbEntity
  8
レイヤー_1
  6
CONTINUOUS
 62
       3
100
AcDbLine
 10
-104.19401382
 20
-62.40231209
 30
0.0
 11
-104.17511797
 21
-62.40418916
 31
0.0
  0
LINE
  5
253
100
AcDbEntity
  8
レイヤー_1
  6
CONTINUOUS
 62
       3
100
AcDbLine
 10
-104.17511797
 20
-62.40418916
 30
0.0
 11
-104.1559796
 21
-62.40609031
 31
0.0
  0
LINE
  5
254
100
AcDbEntity
  8
レイヤー_1
  6
CONTINUOUS
 62
       3
100
AcDbLine
 10
-104.1559796
 20
-62.40609031
 30
0.0
 11
-104.13725702
 21
-62.40795019
 31
0.0
  0
LINE
  5
255
100
AcDbEntity
  8
レイヤー_1
  6
CONTINUOUS
 62
       3
100
AcDbLine
 10
-104.13725702
 20
-62.40795019
 30
0.0
 11
-104.1196086
 21
-62.40970334
 31
0.0
  0
LINE
  5
256
100
AcDbEntity
  8
レイヤー_1
  6
CONTINUOUS
 62
       3
100
AcDbLine
 10
-104.1196086
 20
-62.40970334
 30
0.0
 11
-104.10369267
 21
-62.41128439
 31
0.0
  0
LINE
  5
257
100
AcDbEntity
  8
レイヤー_1
  6
CONTINUOUS
 62
       3
100
AcDbLine
 10
-104.10369267
 20
-62.41128439
 30
0.0
 11
-104.09016762
 21
-62.41262794
 31
0.0
  0
LINE
  5
258
100
AcDbEntity
  8
レイヤー_1
  6
CONTINUOUS
 62
       3
100
AcDbLine
 10
-104.09016762
 20
-62.41262794
 30
0.0
 11
-104.07969172
 21
-62.41366859
 31
0.0
  0
LINE
  5
259
100
AcDbEntity
  8
レイヤー_1
  6
CONTINUOUS
 62
       3
100
AcDbLine
 10
-104.07969172
 20
-62.41366859
 30
0.0
 11
-104.07292342
 21
-62.41434094
 31
0.0
  0
LINE
  5
25A
100
AcDbEntity
  8
レイヤー_1
  6
CONTINUOUS
 62
       3
100
AcDbLine
 10
-91.57515967
 20
-62.41457959
 30
0.0
 11
-91.52820697
 21
-62.41347409
 31
0.0
  0
LINE
  5
25B
100
AcDbEntity
  8
レイヤー_1
  6
CONTINUOUS
 62
       3
100
AcDbLine
 10
-91.52820697
 20
-62.41347409
 30
0.0
 11
-91.48157495
 21
-62.41017976
 31
0.0
  0
LINE
  5
25C
100
AcDbEntity
  8
レイヤー_1
  6
CONTINUOUS
 62
       3
100
AcDbLine
 10
-91.48157495
 20
-62.41017976
 30
0.0
 11
-91.43533247
 21
-62.40472989
 31
0.0
  0
LINE
  5
25D
100
AcDbEntity
  8
レイヤー_1
  6
CONTINUOUS
 62
       3
100
AcDbLine
 10
-91.43533247
 20
-62.40472989
 30
0.0
 11
-91.38954827
 21
-62.39715774
 31
0.0
  0
LINE
  5
25E
100
AcDbEntity
  8
レイヤー_1
  6
CONTINUOUS
 62
       3
100
AcDbLine
 10
-91.38954827
 20
-62.39715774
 30
0.0
 11
-91.34429117
 21
-62.38749656
 31
0.0
  0
LINE
  5
25F
100
AcDbEntity
  8
レイヤー_1
  6
CONTINUOUS
 62
       3
100
AcDbLine
 10
-91.34429117
 20
-62.38749656
 30
0.0
 11
-91.29963002
 21
-62.37577964
 31
0.0
  0
LINE
  5
260
100
AcDbEntity
  8
レイヤー_1
  6
CONTINUOUS
 62
       3
100
AcDbLine
 10
-91.29963002
 20
-62.37577964
 30
0.0
 11
-91.2556335
 21
-62.36204021
 31
0.0
  0
LINE
  5
261
100
AcDbEntity
  8
レイヤー_1
  6
CONTINUOUS
 62
       3
100
AcDbLine
 10
-91.2556335
 20
-62.36204021
 30
0.0
 11
-91.21237045
 21
-62.34631159
 31
0.0
  0
LINE
  5
262
100
AcDbEntity
  8
レイヤー_1
  6
CONTINUOUS
 62
       3
100
AcDbLine
 10
-91.21237045
 20
-62.34631159
 30
0.0
 11
-91.1699097
 21
-62.32862699
 31
0.0
  0
LINE
  5
263
100
AcDbEntity
  8
レイヤー_1
  6
CONTINUOUS
 62
       3
100
AcDbLine
 10
-91.1699097
 20
-62.32862699
 30
0.0
 11
-91.12832002
 21
-62.30901971
 31
0.0
  0
LINE
  5
264
100
AcDbEntity
  8
レイヤー_1
  6
CONTINUOUS
 62
       3
100
AcDbLine
 10
-91.12832002
 20
-62.30901971
 30
0.0
 11
-91.08767022
 21
-62.28752301
 31
0.0
  0
LINE
  5
265
100
AcDbEntity
  8
レイヤー_1
  6
CONTINUOUS
 62
       3
100
AcDbLine
 10
-91.08767022
 20
-62.28752301
 30
0.0
 11
-91.04802907
 21
-62.26417016
 31
0.0
  0
LINE
  5
266
100
AcDbEntity
  8
レイヤー_1
  6
CONTINUOUS
 62
       3
100
AcDbLine
 10
-91.04802907
 20
-62.26417016
 30
0.0
 11
-91.00946537
 21
-62.23899444
 31
0.0
  0
LINE
  5
267
100
AcDbEntity
  8
レイヤー_1
  6
CONTINUOUS
 62
       3
100
AcDbLine
 10
-91.00946537
 20
-62.23899444
 30
0.0
 11
-90.97204792
 21
-62.21202906
 31
0.0
  0
LINE
  5
268
100
AcDbEntity
  8
レイヤー_1
  6
CONTINUOUS
 62
       3
100
AcDbLine
 10
-90.97204792
 20
-62.21202906
 30
0.0
 11
-90.9358455
 21
-62.18330736
 31
0.0
  0
LINE
  5
269
100
AcDbEntity
  8
レイヤー_1
  6
CONTINUOUS
 62
       3
100
AcDbLine
 10
-90.9358455
 20
-62.18330736
 30
0.0
 11
-90.90092692
 21
-62.15286256
 31
0.0
  0
LINE
  5
26A
100
AcDbEntity
  8
レイヤー_1
  6
CONTINUOUS
 62
       3
100
AcDbLine
 10
-90.90092692
 20
-62.15286256
 30
0.0
 11
-90.867361
 21
-62.12072796
 31
0.0
  0
LINE
  5
26B
100
AcDbEntity
  8
レイヤー_1
  6
CONTINUOUS
 62
       3
100
AcDbLine
 10
-90.867361
 20
-62.12072796
 30
0.0
 11
-90.83521647
 21
-62.08693679
 31
0.0
  0
LINE
  5
26C
100
AcDbEntity
  8
レイヤー_1
  6
CONTINUOUS
 62
       3
100
AcDbLine
 10
-90.83521647
 20
-62.08693679
 30
0.0
 11
-90.8045622
 21
-62.05152234
 31
0.0
  0
LINE
  5
26D
100
AcDbEntity
  8
レイヤー_1
  6
CONTINUOUS
 62
       3
100
AcDbLine
 10
-90.8045622
 20
-62.05152234
 30
0.0
 11
-90.7754669
 21
-62.01451786
 31
0.0
  0
LINE
  5
26E
100
AcDbEntity
  8
レイヤー_1
  6
CONTINUOUS
 62
       3
100
AcDbLine
 10
-66.72008767
 20
-62.41457959
 30
0.0
 11
-66.67313495
 21
-62.41347409
 31
0.0
  0
LINE
  5
26F
100
AcDbEntity
  8
レイヤー_1
  6
CONTINUOUS
 62
       3
100
AcDbLine
 10
-66.67313495
 20
-62.41347409
 30
0.0
 11
-66.62650295
 21
-62.41017976
 31
0.0
  0
LINE
  5
270
100
AcDbEntity
  8
レイヤー_1
  6
CONTINUOUS
 62
       3
100
AcDbLine
 10
-66.62650295
 20
-62.41017976
 30
0.0
 11
-66.58026045
 21
-62.40472989
 31
0.0
  0
LINE
  5
271
100
AcDbEntity
  8
レイヤー_1
  6
CONTINUOUS
 62
       3
100
AcDbLine
 10
-66.58026045
 20
-62.40472989
 30
0.0
 11
-66.53447625
 21
-62.39715774
 31
0.0
  0
LINE
  5
272
100
AcDbEntity
  8
レイヤー_1
  6
CONTINUOUS
 62
       3
100
AcDbLine
 10
-66.53447625
 20
-62.39715774
 30
0.0
 11
-66.48921917
 21
-62.38749656
 31
0.0
  0
LINE
  5
273
100
AcDbEntity
  8
レイヤー_1
  6
CONTINUOUS
 62
       3
100
AcDbLine
 10
-66.48921917
 20
-62.38749656
 30
0.0
 11
-66.44455797
 21
-62.37577964
 31
0.0
  0
LINE
  5
274
100
AcDbEntity
  8
レイヤー_1
  6
CONTINUOUS
 62
       3
100
AcDbLine
 10
-66.44455797
 20
-62.37577964
 30
0.0
 11
-66.40056147
 21
-62.36204021
 31
0.0
  0
LINE
  5
275
100
AcDbEntity
  8
レイヤー_1
  6
CONTINUOUS
 62
       3
100
AcDbLine
 10
-66.40056147
 20
-62.36204021
 30
0.0
 11
-66.35729845
 21
-62.34631159
 31
0.0
  0
LINE
  5
276
100
AcDbEntity
  8
レイヤー_1
  6
CONTINUOUS
 62
       3
100
AcDbLine
 10
-66.35729845
 20
-62.34631159
 30
0.0
 11
-66.3148377
 21
-62.32862699
 31
0.0
  0
LINE
  5
277
100
AcDbEntity
  8
レイヤー_1
  6
CONTINUOUS
 62
       3
100
AcDbLine
 10
-66.3148377
 20
-62.32862699
 30
0.0
 11
-66.27324802
 21
-62.30901971
 31
0.0
  0
LINE
  5
278
100
AcDbEntity
  8
レイヤー_1
  6
CONTINUOUS
 62
       3
100
AcDbLine
 10
-66.27324802
 20
-62.30901971
 30
0.0
 11
-66.2325982
 21
-62.28752301
 31
0.0
  0
LINE
  5
279
100
AcDbEntity
  8
レイヤー_1
  6
CONTINUOUS
 62
       3
100
AcDbLine
 10
-66.2325982
 20
-62.28752301
 30
0.0
 11
-66.19295705
 21
-62.26417016
 31
0.0
  0
LINE
  5
27A
100
AcDbEntity
  8
レイヤー_1
  6
CONTINUOUS
 62
       3
100
AcDbLine
 10
-66.19295705
 20
-62.26417016
 30
0.0
 11
-66.15439335
 21
-62.23899444
 31
0.0
  0
LINE
  5
27B
100
AcDbEntity
  8
レイヤー_1
  6
CONTINUOUS
 62
       3
100
AcDbLine
 10
-66.15439335
 20
-62.23899444
 30
0.0
 11
-66.1169759
 21
-62.21202906
 31
0.0
  0
LINE
  5
27C
100
AcDbEntity
  8
レイヤー_1
  6
CONTINUOUS
 62
       3
100
AcDbLine
 10
-66.1169759
 20
-62.21202906
 30
0.0
 11
-66.0807735
 21
-62.18330736
 31
0.0
  0
LINE
  5
27D
100
AcDbEntity
  8
レイヤー_1
  6
CONTINUOUS
 62
       3
100
AcDbLine
 10
-66.0807735
 20
-62.18330736
 30
0.0
 11
-66.04585492
 21
-62.15286256
 31
0.0
  0
LINE
  5
27E
100
AcDbEntity
  8
レイヤー_1
  6
CONTINUOUS
 62
       3
100
AcDbLine
 10
-66.04585492
 20
-62.15286256
 30
0.0
 11
-66.01228897
 21
-62.12072796
 31
0.0
  0
LINE
  5
27F
100
AcDbEntity
  8
レイヤー_1
  6
CONTINUOUS
 62
       3
100
AcDbLine
 10
-66.01228897
 20
-62.12072796
 30
0.0
 11
-65.98014447
 21
-62.08693679
 31
0.0
  0
LINE
  5
280
100
AcDbEntity
  8
レイヤー_1
  6
CONTINUOUS
 62
       3
100
AcDbLine
 10
-65.98014447
 20
-62.08693679
 30
0.0
 11
-65.94949017
 21
-62.05152234
 31
0.0
  0
LINE
  5
281
100
AcDbEntity
  8
レイヤー_1
  6
CONTINUOUS
 62
       3
100
AcDbLine
 10
-65.94949017
 20
-62.05152234
 30
0.0
 11
-65.92039487
 21
-62.01451786
 31
0.0
  0
LINE
  5
282
100
AcDbEntity
  8
レイヤー_1
  6
CONTINUOUS
 62
       3
100
AcDbLine
 10
-65.92039487
 20
55.16437614
 30
0.0
 11
-65.95883995
 21
55.21238459
 31
0.0
  0
LINE
  5
283
100
AcDbEntity
  8
レイヤー_1
  6
CONTINUOUS
 62
       3
100
AcDbLine
 10
-65.95883995
 20
55.21238459
 30
0.0
 11
-65.99992517
 21
55.25766594
 31
0.0
  0
LINE
  5
284
100
AcDbEntity
  8
レイヤー_1
  6
CONTINUOUS
 62
       3
100
AcDbLine
 10
-65.99992517
 20
55.25766594
 30
0.0
 11
-66.04349582
 21
55.30014396
 31
0.0
  0
LINE
  5
285
100
AcDbEntity
  8
レイヤー_1
  6
CONTINUOUS
 62
       3
100
AcDbLine
 10
-66.04349582
 20
55.30014396
 30
0.0
 11
-66.08939707
 21
55.33974229
 31
0.0
  0
LINE
  5
286
100
AcDbEntity
  8
レイヤー_1
  6
CONTINUOUS
 62
       3
100
AcDbLine
 10
-66.08939707
 20
55.33974229
 30
0.0
 11
-66.13747415
 21
55.37638466
 31
0.0
  0
LINE
  5
287
100
AcDbEntity
  8
レイヤー_1
  6
CONTINUOUS
 62
       3
100
AcDbLine
 10
-66.13747415
 20
55.37638466
 30
0.0
 11
-66.18757232
 21
55.40999479
 31
0.0
  0
LINE
  5
288
100
AcDbEntity
  8
レイヤー_1
  6
CONTINUOUS
 62
       3
100
AcDbLine
 10
-66.18757232
 20
55.40999479
 30
0.0
 11
-66.23953675
 21
55.44049634
 31
0.0
  0
LINE
  5
289
100
AcDbEntity
  8
レイヤー_1
  6
CONTINUOUS
 62
       3
100
AcDbLine
 10
-66.23953675
 20
55.44049634
 30
0.0
 11
-66.2932127
 21
55.46781304
 31
0.0
  0
LINE
  5
28A
100
AcDbEntity
  8
レイヤー_1
  6
CONTINUOUS
 62
       3
100
AcDbLine
 10
-66.2932127
 20
55.46781304
 30
0.0
 11
-66.34844537
 21
55.49186856
 31
0.0
  0
LINE
  5
28B
100
AcDbEntity
  8
レイヤー_1
  6
CONTINUOUS
 62
       3
100
AcDbLine
 10
-66.34844537
 20
55.49186856
 30
0.0
 11
-66.40508
 21
55.51258666
 31
0.0
  0
LINE
  5
28C
100
AcDbEntity
  8
レイヤー_1
  6
CONTINUOUS
 62
       3
100
AcDbLine
 10
-66.40508
 20
55.51258666
 30
0.0
 11
-66.46296177
 21
55.52989096
 31
0.0
  0
LINE
  5
28D
100
AcDbEntity
  8
レイヤー_1
  6
CONTINUOUS
 62
       3
100
AcDbLine
 10
-66.46296177
 20
55.52989096
 30
0.0
 11
-66.52193597
 21
55.54370524
 31
0.0
  0
LINE
  5
28E
100
AcDbEntity
  8
レイヤー_1
  6
CONTINUOUS
 62
       3
100
AcDbLine
 10
-66.52193597
 20
55.54370524
 30
0.0
 11
-66.58184777
 21
55.55395314
 31
0.0
  0
LINE
  5
28F
100
AcDbEntity
  8
レイヤー_1
  6
CONTINUOUS
 62
       3
100
AcDbLine
 10
-66.58184777
 20
55.55395314
 30
0.0
 11
-66.64254242
 21
55.56055839
 31
0.0
  0
LINE
  5
290
100
AcDbEntity
  8
レイヤー_1
  6
CONTINUOUS
 62
       3
100
AcDbLine
 10
-66.64254242
 20
55.56055839
 30
0.0
 11
-66.70386512
 21
55.56344471
 31
0.0
  0
LINE
  5
291
100
AcDbEntity
  8
レイヤー_1
  6
CONTINUOUS
 62
       3
100
AcDbLine
 10
-66.70386512
 20
55.56344471
 30
0.0
 11
-66.8046395
 21
55.56357659
 31
0.0
  0
LINE
  5
292
100
AcDbEntity
  8
レイヤー_1
  6
CONTINUOUS
 62
       3
100
AcDbLine
 10
-66.8046395
 20
55.56357659
 30
0.0
 11
-67.16866647
 21
55.56357659
 31
0.0
  0
LINE
  5
293
100
AcDbEntity
  8
レイヤー_1
  6
CONTINUOUS
 62
       3
100
AcDbLine
 10
-67.16866647
 20
55.56357659
 30
0.0
 11
-67.78127067
 21
55.56357659
 31
0.0
  0
LINE
  5
294
100
AcDbEntity
  8
レイヤー_1
  6
CONTINUOUS
 62
       3
100
AcDbLine
 10
-67.78127067
 20
55.56357659
 30
0.0
 11
-68.6002827
 21
55.56357659
 31
0.0
  0
LINE
  5
295
100
AcDbEntity
  8
レイヤー_1
  6
CONTINUOUS
 62
       3
100
AcDbLine
 10
-68.6002827
 20
55.56357659
 30
0.0
 11
-69.58353325
 21
55.56357659
 31
0.0
  0
LINE
  5
296
100
AcDbEntity
  8
レイヤー_1
  6
CONTINUOUS
 62
       3
100
AcDbLine
 10
-69.58353325
 20
55.56357659
 30
0.0
 11
-70.68885297
 21
55.56357659
 31
0.0
  0
LINE
  5
297
100
AcDbEntity
  8
レイヤー_1
  6
CONTINUOUS
 62
       3
100
AcDbLine
 10
-70.68885297
 20
55.56357659
 30
0.0
 11
-71.8740725
 21
55.56357659
 31
0.0
  0
LINE
  5
298
100
AcDbEntity
  8
レイヤー_1
  6
CONTINUOUS
 62
       3
100
AcDbLine
 10
-71.8740725
 20
55.56357659
 30
0.0
 11
-73.0970225
 21
55.56357659
 31
0.0
  0
LINE
  5
299
100
AcDbEntity
  8
レイヤー_1
  6
CONTINUOUS
 62
       3
100
AcDbLine
 10
-73.0970225
 20
55.56357659
 30
0.0
 11
-74.3155336
 21
55.56357659
 31
0.0
  0
LINE
  5
29A
100
AcDbEntity
  8
レイヤー_1
  6
CONTINUOUS
 62
       3
100
AcDbLine
 10
-74.3155336
 20
55.56357659
 30
0.0
 11
-75.4874365
 21
55.56357659
 31
0.0
  0
LINE
  5
29B
100
AcDbEntity
  8
レイヤー_1
  6
CONTINUOUS
 62
       3
100
AcDbLine
 10
-75.4874365
 20
55.56357659
 30
0.0
 11
-76.57056182
 21
55.56357659
 31
0.0
  0
LINE
  5
29C
100
AcDbEntity
  8
レイヤー_1
  6
CONTINUOUS
 62
       3
100
AcDbLine
 10
-76.57056182
 20
55.56357659
 30
0.0
 11
-77.52274025
 21
55.56357659
 31
0.0
  0
LINE
  5
29D
100
AcDbEntity
  8
レイヤー_1
  6
CONTINUOUS
 62
       3
100
AcDbLine
 10
-77.52274025
 20
55.56357659
 30
0.0
 11
-78.30180235
 21
55.56357659
 31
0.0
  0
LINE
  5
29E
100
AcDbEntity
  8
レイヤー_1
  6
CONTINUOUS
 62
       3
100
AcDbLine
 10
-78.30180235
 20
55.56357659
 30
0.0
 11
-78.86557887
 21
55.56357659
 31
0.0
  0
LINE
  5
29F
100
AcDbEntity
  8
レイヤー_1
  6
CONTINUOUS
 62
       3
100
AcDbLine
 10
-78.86557887
 20
55.56357659
 30
0.0
 11
-79.17190045
 21
55.56357659
 31
0.0
  0
LINE
  5
2A0
100
AcDbEntity
  8
レイヤー_1
  6
CONTINUOUS
 62
       3
100
AcDbLine
 10
-79.17190045
 20
55.56357659
 30
0.0
 11
-79.216001
 21
55.56352541
 31
0.0
  0
LINE
  5
2A1
100
AcDbEntity
  8
レイヤー_1
  6
CONTINUOUS
 62
       3
100
AcDbLine
 10
-79.22055352
 20
55.56310331
 30
0.0
 11
-79.22916015
 21
55.56230534
 31
0.0
  0
LINE
  5
2A2
100
AcDbEntity
  8
レイヤー_1
  6
CONTINUOUS
 62
       3
100
AcDbLine
 10
-79.22916015
 20
55.56230534
 30
0.0
 11
-79.24116242
 21
55.56119256
 31
0.0
  0
LINE
  5
2A3
100
AcDbEntity
  8
レイヤー_1
  6
CONTINUOUS
 62
       3
100
AcDbLine
 10
-79.24116242
 20
55.56119256
 30
0.0
 11
-79.25590205
 21
55.55982596
 31
0.0
  0
LINE
  5
2A4
100
AcDbEntity
  8
レイヤー_1
  6
CONTINUOUS
 62
       3
100
AcDbLine
 10
-79.25590205
 20
55.55982596
 30
0.0
 11
-79.2727207
 21
55.55826661
 31
0.0
  0
LINE
  5
2A5
100
AcDbEntity
  8
レイヤー_1
  6
CONTINUOUS
 62
       3
100
AcDbLine
 10
-79.2727207
 20
55.55826661
 30
0.0
 11
-79.29096
 21
55.55657556
 31
0.0
  0
LINE
  5
2A6
100
AcDbEntity
  8
レイヤー_1
  6
CONTINUOUS
 62
       3
100
AcDbLine
 10
-79.29096
 20
55.55657556
 30
0.0
 11
-79.3099616
 21
55.55481381
 31
0.0
  0
LINE
  5
2A7
100
AcDbEntity
  8
レイヤー_1
  6
CONTINUOUS
 62
       3
100
AcDbLine
 10
-79.3099616
 20
55.55481381
 30
0.0
 11
-79.32906717
 21
55.55304244
 31
0.0
  0
LINE
  5
2A8
100
AcDbEntity
  8
レイヤー_1
  6
CONTINUOUS
 62
       3
100
AcDbLine
 10
-79.32906717
 20
55.55304244
 30
0.0
 11
-79.34761832
 21
55.55132246
 31
0.0
  0
LINE
  5
2A9
100
AcDbEntity
  8
レイヤー_1
  6
CONTINUOUS
 62
       3
100
AcDbLine
 10
-79.34761832
 20
55.55132246
 30
0.0
 11
-79.36495672
 21
55.54971494
 31
0.0
  0
LINE
  5
2AA
100
AcDbEntity
  8
レイヤー_1
  6
CONTINUOUS
 62
       3
100
AcDbLine
 10
-79.36495672
 20
55.54971494
 30
0.0
 11
-79.38042402
 21
55.54828089
 31
0.0
  0
LINE
  5
2AB
100
AcDbEntity
  8
レイヤー_1
  6
CONTINUOUS
 62
       3
100
AcDbLine
 10
-79.38042402
 20
55.54828089
 30
0.0
 11
-79.39336187
 21
55.54708134
 31
0.0
  0
LINE
  5
2AC
100
AcDbEntity
  8
レイヤー_1
  6
CONTINUOUS
 62
       3
100
AcDbLine
 10
-79.39336187
 20
55.54708134
 30
0.0
 11
-79.4031119
 21
55.54617736
 31
0.0
  0
LINE
  5
2AD
100
AcDbEntity
  8
レイヤー_1
  6
CONTINUOUS
 62
       3
100
AcDbLine
 10
-79.4031119
 20
55.54617736
 30
0.0
 11
-79.4090158
 21
55.54562999
 31
0.0
  0
LINE
  5
2AE
100
AcDbEntity
  8
レイヤー_1
  6
CONTINUOUS
 62
       3
100
AcDbLine
 10
-79.41386785
 20
55.54445849
 30
0.0
 11
-79.4211525
 21
55.54220931
 31
0.0
  0
LINE
  5
2AF
100
AcDbEntity
  8
レイヤー_1
  6
CONTINUOUS
 62
       3
100
AcDbLine
 10
-79.4211525
 20
55.54220931
 30
0.0
 11
-79.43185642
 21
55.53890441
 31
0.0
  0
LINE
  5
2B0
100
AcDbEntity
  8
レイヤー_1
  6
CONTINUOUS
 62
       3
100
AcDbLine
 10
-79.43185642
 20
55.53890441
 30
0.0
 11
-79.44534885
 21
55.53473854
 31
0.0
  0
LINE
  5
2B1
100
AcDbEntity
  8
レイヤー_1
  6
CONTINUOUS
 62
       3
100
AcDbLine
 10
-79.44534885
 20
55.53473854
 30
0.0
 11
-79.46099907
 21
55.52990644
 31
0.0
  0
LINE
  5
2B2
100
AcDbEntity
  8
レイヤー_1
  6
CONTINUOUS
 62
       3
100
AcDbLine
 10
-79.46099907
 20
55.52990644
 30
0.0
 11
-79.47817635
 21
55.52460286
 31
0.0
  0
LINE
  5
2B3
100
AcDbEntity
  8
レイヤー_1
  6
CONTINUOUS
 62
       3
100
AcDbLine
 10
-79.47817635
 20
55.52460286
 30
0.0
 11
-79.49624995
 21
55.51902254
 31
0.0
  0
LINE
  5
2B4
100
AcDbEntity
  8
レイヤー_1
  6
CONTINUOUS
 62
       3
100
AcDbLine
 10
-79.49624995
 20
55.51902254
 30
0.0
 11
-79.5145891
 21
55.51336021
 31
0.0
  0
LINE
  5
2B5
100
AcDbEntity
  8
レイヤー_1
  6
CONTINUOUS
 62
       3
100
AcDbLine
 10
-79.5145891
 20
55.51336021
 30
0.0
 11
-79.5325631
 21
55.50781064
 31
0.0
  0
LINE
  5
2B6
100
AcDbEntity
  8
レイヤー_1
  6
CONTINUOUS
 62
       3
100
AcDbLine
 10
-79.5325631
 20
55.50781064
 30
0.0
 11
-79.54954122
 21
55.50256856
 31
0.0
  0
LINE
  5
2B7
100
AcDbEntity
  8
レイヤー_1
  6
CONTINUOUS
 62
       3
100
AcDbLine
 10
-79.54954122
 20
55.50256856
 30
0.0
 11
-79.56489267
 21
55.49782871
 31
0.0
  0
LINE
  5
2B8
100
AcDbEntity
  8
レイヤー_1
  6
CONTINUOUS
 62
       3
100
AcDbLine
 10
-79.56489267
 20
55.49782871
 30
0.0
 11
-79.57798672
 21
55.49378584
 31
0.0
  0
LINE
  5
2B9
100
AcDbEntity
  8
レイヤー_1
  6
CONTINUOUS
 62
       3
100
AcDbLine
 10
-79.57798672
 20
55.49378584
 30
0.0
 11
-79.58819267
 21
55.49063469
 31
0.0
  0
LINE
  5
2BA
100
AcDbEntity
  8
レイヤー_1
  6
CONTINUOUS
 62
       3
100
AcDbLine
 10
-79.58819267
 20
55.49063469
 30
0.0
 11
-79.5948798
 21
55.48857001
 31
0.0
  0
LINE
  5
2BB
100
AcDbEntity
  8
レイヤー_1
  6
CONTINUOUS
 62
       3
100
AcDbLine
 10
-79.59935155
 20
55.48676821
 30
0.0
 11
-79.60519742
 21
55.48368609
 31
0.0
  0
LINE
  5
2BC
100
AcDbEntity
  8
レイヤー_1
  6
CONTINUOUS
 62
       3
100
AcDbLine
 10
-79.60519742
 20
55.48368609
 30
0.0
 11
-79.61438075
 21
55.47884439
 31
0.0
  0
LINE
  5
2BD
100
AcDbEntity
  8
レイヤー_1
  6
CONTINUOUS
 62
       3
100
AcDbLine
 10
-79.61438075
 20
55.47884439
 30
0.0
 11
-79.62631437
 21
55.47255266
 31
0.0
  0
LINE
  5
2BE
100
AcDbEntity
  8
レイヤー_1
  6
CONTINUOUS
 62
       3
100
AcDbLine
 10
-79.62631437
 20
55.47255266
 30
0.0
 11
-79.64041112
 21
55.46512046
 31
0.0
  0
LINE
  5
2BF
100
AcDbEntity
  8
レイヤー_1
  6
CONTINUOUS
 62
       3
100
AcDbLine
 10
-79.64041112
 20
55.46512046
 30
0.0
 11
-79.65608387
 21
55.45685734
 31
0.0
  0
LINE
  5
2C0
100
AcDbEntity
  8
レイヤー_1
  6
CONTINUOUS
 62
       3
100
AcDbLine
 10
-79.65608387
 20
55.45685734
 30
0.0
 11
-79.67274547
 21
55.44807289
 31
0.0
  0
LINE
  5
2C1
100
AcDbEntity
  8
レイヤー_1
  6
CONTINUOUS
 62
       3
100
AcDbLine
 10
-79.67274547
 20
55.44807289
 30
0.0
 11
-79.68980882
 21
55.43907661
 31
0.0
  0
LINE
  5
2C2
100
AcDbEntity
  8
レイヤー_1
  6
CONTINUOUS
 62
       3
100
AcDbLine
 10
-79.68980882
 20
55.43907661
 30
0.0
 11
-79.70668677
 21
55.43017809
 31
0.0
  0
LINE
  5
2C3
100
AcDbEntity
  8
レイヤー_1
  6
CONTINUOUS
 62
       3
100
AcDbLine
 10
-79.70668677
 20
55.43017809
 30
0.0
 11
-79.72279215
 21
55.42168689
 31
0.0
  0
LINE
  5
2C4
100
AcDbEntity
  8
レイヤー_1
  6
CONTINUOUS
 62
       3
100
AcDbLine
 10
-79.72279215
 20
55.42168689
 30
0.0
 11
-79.73753785
 21
55.41391256
 31
0.0
  0
LINE
  5
2C5
100
AcDbEntity
  8
レイヤー_1
  6
CONTINUOUS
 62
       3
100
AcDbLine
 10
-79.73753785
 20
55.41391256
 30
0.0
 11
-79.7503367
 21
55.40716464
 31
0.0
  0
LINE
  5
2C6
100
AcDbEntity
  8
レイヤー_1
  6
CONTINUOUS
 62
       3
100
AcDbLine
 10
-79.7503367
 20
55.40716464
 30
0.0
 11
-79.7606016
 21
55.40175271
 31
0.0
  0
LINE
  5
2C7
100
AcDbEntity
  8
レイヤー_1
  6
CONTINUOUS
 62
       3
100
AcDbLine
 10
-79.7606016
 20
55.40175271
 30
0.0
 11
-79.7677454
 21
55.39798629
 31
0.0
  0
LINE
  5
2C8
100
AcDbEntity
  8
レイヤー_1
  6
CONTINUOUS
 62
       3
100
AcDbLine
 10
-79.77228275
 20
55.39532844
 30
0.0
 11
-79.7765019
 21
55.39183261
 31
0.0
  0
LINE
  5
2C9
100
AcDbEntity
  8
レイヤー_1
  6
CONTINUOUS
 62
       3
100
AcDbLine
 10
-79.7765019
 20
55.39183261
 30
0.0
 11
-79.78374615
 21
55.38583019
 31
0.0
  0
LINE
  5
2CA
100
AcDbEntity
  8
レイヤー_1
  6
CONTINUOUS
 62
       3
100
AcDbLine
 10
-79.78374615
 20
55.38583019
 30
0.0
 11
-79.79350697
 21
55.37774266
 31
0.0
  0
LINE
  5
2CB
100
AcDbEntity
  8
レイヤー_1
  6
CONTINUOUS
 62
       3
100
AcDbLine
 10
-79.79350697
 20
55.37774266
 30
0.0
 11
-79.80527567
 21
55.36799146
 31
0.0
  0
LINE
  5
2CC
100
AcDbEntity
  8
レイヤー_1
  6
CONTINUOUS
 62
       3
100
AcDbLine
 10
-79.80527567
 20
55.36799146
 30
0.0
 11
-79.81854355
 21
55.35699806
 31
0.0
  0
LINE
  5
2CD
100
AcDbEntity
  8
レイヤー_1
  6
CONTINUOUS
 62
       3
100
AcDbLine
 10
-79.81854355
 20
55.35699806
 30
0.0
 11
-79.832802
 21
55.34518394
 31
0.0
  0
LINE
  5
2CE
100
AcDbEntity
  8
レイヤー_1
  6
CONTINUOUS
 62
       3
100
AcDbLine
 10
-79.832802
 20
55.34518394
 30
0.0
 11
-79.84754232
 21
55.33297051
 31
0.0
  0
LINE
  5
2CF
100
AcDbEntity
  8
レイヤー_1
  6
CONTINUOUS
 62
       3
100
AcDbLine
 10
-79.84754232
 20
55.33297051
 30
0.0
 11
-79.86225592
 21
55.32077929
 31
0.0
  0
LINE
  5
2D0
100
AcDbEntity
  8
レイヤー_1
  6
CONTINUOUS
 62
       3
100
AcDbLine
 10
-79.86225592
 20
55.32077929
 30
0.0
 11
-79.87643402
 21
55.30903169
 31
0.0
  0
LINE
  5
2D1
100
AcDbEntity
  8
レイヤー_1
  6
CONTINUOUS
 62
       3
100
AcDbLine
 10
-79.87643402
 20
55.30903169
 30
0.0
 11
-79.88956805
 21
55.29814919
 31
0.0
  0
LINE
  5
2D2
100
AcDbEntity
  8
レイヤー_1
  6
CONTINUOUS
 62
       3
100
AcDbLine
 10
-79.88956805
 20
55.29814919
 30
0.0
 11
-79.90114935
 21
55.28855329
 31
0.0
  0
LINE
  5
2D3
100
AcDbEntity
  8
レイヤー_1
  6
CONTINUOUS
 62
       3
100
AcDbLine
 10
-79.90114935
 20
55.28855329
 30
0.0
 11
-79.91066925
 21
55.28066539
 31
0.0
  0
LINE
  5
2D4
100
AcDbEntity
  8
レイヤー_1
  6
CONTINUOUS
 62
       3
100
AcDbLine
 10
-79.91066925
 20
55.28066539
 30
0.0
 11
-79.91761902
 21
55.27490696
 31
0.0
  0
LINE
  5
2D5
100
AcDbEntity
  8
レイヤー_1
  6
CONTINUOUS
 62
       3
100
AcDbLine
 10
-79.91761902
 20
55.27490696
 30
0.0
 11
-79.9214901
 21
55.27169951
 31
0.0
  0
LINE
  5
2D6
100
AcDbEntity
  8
レイヤー_1
  6
CONTINUOUS
 62
       3
100
AcDbLine
 10
-79.92515972
 20
55.26746636
 30
0.0
 11
-79.9305248
 21
55.26091316
 31
0.0
  0
LINE
  5
2D7
100
AcDbEntity
  8
レイヤー_1
  6
CONTINUOUS
 62
       3
100
AcDbLine
 10
-79.9305248
 20
55.26091316
 30
0.0
 11
-79.93807835
 21
55.25168686
 31
0.0
  0
LINE
  5
2D8
100
AcDbEntity
  8
レイヤー_1
  6
CONTINUOUS
 62
       3
100
AcDbLine
 10
-79.93807835
 20
55.25168686
 30
0.0
 11
-79.94740035
 21
55.24030046
 31
0.0
  0
LINE
  5
2D9
100
AcDbEntity
  8
レイヤー_1
  6
CONTINUOUS
 62
       3
100
AcDbLine
 10
-79.94740035
 20
55.24030046
 30
0.0
 11
-79.9580708
 21
55.22726701
 31
0.0
  0
LINE
  5
2DA
100
AcDbEntity
  8
レイヤー_1
  6
CONTINUOUS
 62
       3
100
AcDbLine
 10
-79.9580708
 20
55.22726701
 30
0.0
 11
-79.96966967
 21
55.21309954
 31
0.0
  0
LINE
  5
2DB
100
AcDbEntity
  8
レイヤー_1
  6
CONTINUOUS
 62
       3
100
AcDbLine
 10
-79.96966967
 20
55.21309954
 30
0.0
 11
-79.98177697
 21
55.19831101
 31
0.0
  0
LINE
  5
2DC
100
AcDbEntity
  8
レイヤー_1
  6
CONTINUOUS
 62
       3
100
AcDbLine
 10
-79.98177697
 20
55.19831101
 30
0.0
 11
-79.99397272
 21
55.18341449
 31
0.0
  0
LINE
  5
2DD
100
AcDbEntity
  8
レイヤー_1
  6
CONTINUOUS
 62
       3
100
AcDbLine
 10
-79.99397272
 20
55.18341449
 30
0.0
 11
-80.00583687
 21
55.16892299
 31
0.0
  0
LINE
  5
2DE
100
AcDbEntity
  8
レイヤー_1
  6
CONTINUOUS
 62
       3
100
AcDbLine
 10
-80.00583687
 20
55.16892299
 30
0.0
 11
-80.01694942
 21
55.15534954
 31
0.0
  0
LINE
  5
2DF
100
AcDbEntity
  8
レイヤー_1
  6
CONTINUOUS
 62
       3
100
AcDbLine
 10
-80.01694942
 20
55.15534954
 30
0.0
 11
-80.02689037
 21
55.14320711
 31
0.0
  0
LINE
  5
2E0
100
AcDbEntity
  8
レイヤー_1
  6
CONTINUOUS
 62
       3
100
AcDbLine
 10
-80.02689037
 20
55.14320711
 30
0.0
 11
-80.03523975
 21
55.13300876
 31
0.0
  0
LINE
  5
2E1
100
AcDbEntity
  8
レイヤー_1
  6
CONTINUOUS
 62
       3
100
AcDbLine
 10
-80.03523975
 20
55.13300876
 30
0.0
 11
-80.04157745
 21
55.12526754
 31
0.0
  0
LINE
  5
2E2
100
AcDbEntity
  8
レイヤー_1
  6
CONTINUOUS
 62
       3
100
AcDbLine
 10
-80.04157745
 20
55.12526754
 30
0.0
 11
-80.04548357
 21
55.12049639
 31
0.0
  0
LINE
  5
2E3
100
AcDbEntity
  8
レイヤー_1
  6
CONTINUOUS
 62
       3
100
AcDbLine
 10
-80.04809597
 20
55.11634271
 30
0.0
 11
-80.0516069
 21
55.10982706
 31
0.0
  0
LINE
  5
2E4
100
AcDbEntity
  8
レイヤー_1
  6
CONTINUOUS
 62
       3
100
AcDbLine
 10
-80.0516069
 20
55.10982706
 30
0.0
 11
-80.05682817
 21
55.10013736
 31
0.0
  0
LINE
  5
2E5
100
AcDbEntity
  8
レイヤー_1
  6
CONTINUOUS
 62
       3
100
AcDbLine
 10
-80.05682817
 20
55.10013736
 30
0.0
 11
-80.0634473
 21
55.08785349
 31
0.0
  0
LINE
  5
2E6
100
AcDbEntity
  8
レイヤー_1
  6
CONTINUOUS
 62
       3
100
AcDbLine
 10
-80.0634473
 20
55.08785349
 30
0.0
 11
-80.07115182
 21
55.07355534
 31
0.0
  0
LINE
  5
2E7
100
AcDbEntity
  8
レイヤー_1
  6
CONTINUOUS
 62
       3
100
AcDbLine
 10
-80.07115182
 20
55.07355534
 30
0.0
 11
-80.07962927
 21
55.05782276
 31
0.0
  0
LINE
  5
2E8
100
AcDbEntity
  8
レイヤー_1
  6
CONTINUOUS
 62
       3
100
AcDbLine
 10
-80.07962927
 20
55.05782276
 30
0.0
 11
-80.0885672
 21
55.04123564
 31
0.0
  0
LINE
  5
2E9
100
AcDbEntity
  8
レイヤー_1
  6
CONTINUOUS
 62
       3
100
AcDbLine
 10
-80.0885672
 20
55.04123564
 30
0.0
 11
-80.09765315
 21
55.02437384
 31
0.0
  0
LINE
  5
2EA
100
AcDbEntity
  8
レイヤー_1
  6
CONTINUOUS
 62
       3
100
AcDbLine
 10
-80.09765315
 20
55.02437384
 30
0.0
 11
-80.10657462
 21
55.00781721
 31
0.0
  0
LINE
  5
2EB
100
AcDbEntity
  8
レイヤー_1
  6
CONTINUOUS
 62
       3
100
AcDbLine
 10
-80.10657462
 20
55.00781721
 30
0.0
 11
-80.11501917
 21
54.99214569
 31
0.0
  0
LINE
  5
2EC
100
AcDbEntity
  8
レイヤー_1
  6
CONTINUOUS
 62
       3
100
AcDbLine
 10
-80.11501917
 20
54.99214569
 30
0.0
 11
-80.12267437
 21
54.97793909
 31
0.0
  0
LINE
  5
2ED
100
AcDbEntity
  8
レイヤー_1
  6
CONTINUOUS
 62
       3
100
AcDbLine
 10
-80.12267437
 20
54.97793909
 30
0.0
 11
-80.1292277
 21
54.96577729
 31
0.0
  0
LINE
  5
2EE
100
AcDbEntity
  8
レイヤー_1
  6
CONTINUOUS
 62
       3
100
AcDbLine
 10
-80.1292277
 20
54.96577729
 30
0.0
 11
-80.13436675
 21
54.95624019
 31
0.0
  0
LINE
  5
2EF
100
AcDbEntity
  8
レイヤー_1
  6
CONTINUOUS
 62
       3
100
AcDbLine
 10
-80.13436675
 20
54.95624019
 30
0.0
 11
-80.13777902
 21
54.94990764
 31
0.0
  0
LINE
  5
2F0
100
AcDbEntity
  8
レイヤー_1
  6
CONTINUOUS
 62
       3
100
AcDbLine
 10
-80.13972407
 20
54.94546661
 30
0.0
 11
-80.14155742
 21
54.93933679
 31
0.0
  0
LINE
  5
2F1
100
AcDbEntity
  8
レイヤー_1
  6
CONTINUOUS
 62
       3
100
AcDbLine
 10
-80.14155742
 20
54.93933679
 30
0.0
 11
-80.14448297
 21
54.92955519
 31
0.0
  0
LINE
  5
2F2
100
AcDbEntity
  8
レイヤー_1
  6
CONTINUOUS
 62
       3
100
AcDbLine
 10
-80.14448297
 20
54.92955519
 30
0.0
 11
-80.14831035
 21
54.91675831
 31
0.0
  0
LINE
  5
2F3
100
AcDbEntity
  8
レイヤー_1
  6
CONTINUOUS
 62
       3
100
AcDbLine
 10
-80.14831035
 20
54.91675831
 30
0.0
 11
-80.15284915
 21
54.90158279
 31
0.0
  0
LINE
  5
2F4
100
AcDbEntity
  8
レイヤー_1
  6
CONTINUOUS
 62
       3
100
AcDbLine
 10
-80.15284915
 20
54.90158279
 30
0.0
 11
-80.157909
 21
54.88466509
 31
0.0
  0
LINE
  5
2F5
100
AcDbEntity
  8
レイヤー_1
  6
CONTINUOUS
 62
       3
100
AcDbLine
 10
-80.157909
 20
54.88466509
 30
0.0
 11
-80.16329952
 21
54.86664181
 31
0.0
  0
LINE
  5
2F6
100
AcDbEntity
  8
レイヤー_1
  6
CONTINUOUS
 62
       3
100
AcDbLine
 10
-80.16329952
 20
54.86664181
 30
0.0
 11
-80.16883032
 21
54.84814949
 31
0.0
  0
LINE
  5
2F7
100
AcDbEntity
  8
レイヤー_1
  6
CONTINUOUS
 62
       3
100
AcDbLine
 10
-80.16883032
 20
54.84814949
 30
0.0
 11
-80.17431102
 21
54.82982469
 31
0.0
  0
LINE
  5
2F8
100
AcDbEntity
  8
レイヤー_1
  6
CONTINUOUS
 62
       3
100
AcDbLine
 10
-80.17431102
 20
54.82982469
 30
0.0
 11
-80.17955125
 21
54.81230396
 31
0.0
  0
LINE
  5
2F9
100
AcDbEntity
  8
レイヤー_1
  6
CONTINUOUS
 62
       3
100
AcDbLine
 10
-80.17955125
 20
54.81230396
 30
0.0
 11
-80.1843606
 21
54.79622384
 31
0.0
  0
LINE
  5
2FA
100
AcDbEntity
  8
レイヤー_1
  6
CONTINUOUS
 62
       3
100
AcDbLine
 10
-80.1843606
 20
54.79622384
 30
0.0
 11
-80.1885487
 21
54.78222089
 31
0.0
  0
LINE
  5
2FB
100
AcDbEntity
  8
レイヤー_1
  6
CONTINUOUS
 62
       3
100
AcDbLine
 10
-80.1885487
 20
54.78222089
 30
0.0
 11
-80.19192517
 21
54.77093164
 31
0.0
  0
LINE
  5
2FC
100
AcDbEntity
  8
レイヤー_1
  6
CONTINUOUS
 62
       3
100
AcDbLine
 10
-80.19192517
 20
54.77093164
 30
0.0
 11
-80.19429962
 21
54.76299269
 31
0.0
  0
LINE
  5
2FD
100
AcDbEntity
  8
レイヤー_1
  6
CONTINUOUS
 62
       3
100
AcDbLine
 10
-80.19567545
 20
54.75774601
 30
0.0
 11
-80.19619562
 21
54.75253274
 31
0.0
  0
LINE
  5
2FE
100
AcDbEntity
  8
レイヤー_1
  6
CONTINUOUS
 62
       3
100
AcDbLine
 10
-80.19619562
 20
54.75253274
 30
0.0
 11
-80.1971082
 21
54.74338676
 31
0.0
  0
LINE
  5
2FF
100
AcDbEntity
  8
レイヤー_1
  6
CONTINUOUS
 62
       3
100
AcDbLine
 10
-80.1971082
 20
54.74338676
 30
0.0
 11
-80.19834777
 21
54.73096359
 31
0.0
  0
LINE
  5
300
100
AcDbEntity
  8
レイヤー_1
  6
CONTINUOUS
 62
       3
100
AcDbLine
 10
-80.19834777
 20
54.73096359
 30
0.0
 11
-80.19984895
 21
54.71591861
 31
0.0
  0
LINE
  5
301
100
AcDbEntity
  8
レイヤー_1
  6
CONTINUOUS
 62
       3
100
AcDbLine
 10
-80.19984895
 20
54.71591861
 30
0.0
 11
-80.20154627
 21
54.69890734
 31
0.0
  0
LINE
  5
302
100
AcDbEntity
  8
レイヤー_1
  6
CONTINUOUS
 62
       3
100
AcDbLine
 10
-80.20154627
 20
54.69890734
 30
0.0
 11
-80.20337442
 21
54.68058514
 31
0.0
  0
LINE
  5
303
100
AcDbEntity
  8
レイヤー_1
  6
CONTINUOUS
 62
       3
100
AcDbLine
 10
-80.20337442
 20
54.68058514
 30
0.0
 11
-80.205268
 21
54.66160751
 31
0.0
  0
LINE
  5
304
100
AcDbEntity
  8
レイヤー_1
  6
CONTINUOUS
 62
       3
100
AcDbLine
 10
-80.205268
 20
54.66160751
 30
0.0
 11
-80.20716155
 21
54.64262989
 31
0.0
  0
LINE
  5
305
100
AcDbEntity
  8
レイヤー_1
  6
CONTINUOUS
 62
       3
100
AcDbLine
 10
-80.20716155
 20
54.64262989
 30
0.0
 11
-80.2089897
 21
54.62430771
 31
0.0
  0
LINE
  5
306
100
AcDbEntity
  8
レイヤー_1
  6
CONTINUOUS
 62
       3
100
AcDbLine
 10
-80.2089897
 20
54.62430771
 30
0.0
 11
-80.21068705
 21
54.60729641
 31
0.0
  0
LINE
  5
307
100
AcDbEntity
  8
レイヤー_1
  6
CONTINUOUS
 62
       3
100
AcDbLine
 10
-80.21068705
 20
54.60729641
 30
0.0
 11
-80.21218822
 21
54.59225146
 31
0.0
  0
LINE
  5
308
100
AcDbEntity
  8
レイヤー_1
  6
CONTINUOUS
 62
       3
100
AcDbLine
 10
-80.21218822
 20
54.59225146
 30
0.0
 11
-80.21342777
 21
54.57982826
 31
0.0
  0
LINE
  5
309
100
AcDbEntity
  8
レイヤー_1
  6
CONTINUOUS
 62
       3
100
AcDbLine
 10
-80.21342777
 20
54.57982826
 30
0.0
 11
-80.21434035
 21
54.57068231
 31
0.0
  0
LINE
  5
30A
100
AcDbEntity
  8
レイヤー_1
  6
CONTINUOUS
 62
       3
100
AcDbLine
 10
-80.21434035
 20
54.57068231
 30
0.0
 11
-80.21486052
 21
54.56546901
 31
0.0
  0
LINE
  5
30B
100
AcDbEntity
  8
レイヤー_1
  6
CONTINUOUS
 62
       3
100
AcDbLine
 10
-80.21486052
 20
54.56546901
 30
0.0
 11
-80.21495735
 21
54.36503894
 31
0.0
  0
LINE
  5
30C
100
AcDbEntity
  8
レイヤー_1
  6
CONTINUOUS
 62
       3
100
AcDbLine
 10
-80.21495735
 20
54.36503894
 30
0.0
 11
-80.21495735
 21
51.93492191
 31
0.0
  0
LINE
  5
30D
100
AcDbEntity
  8
レイヤー_1
  6
CONTINUOUS
 62
       3
100
AcDbLine
 10
-80.21495735
 20
51.93492191
 30
0.0
 11
-80.21495735
 21
47.05336474
 31
0.0
  0
LINE
  5
30E
100
AcDbEntity
  8
レイヤー_1
  6
CONTINUOUS
 62
       3
100
AcDbLine
 10
-80.21495735
 20
47.05336474
 30
0.0
 11
-80.21495735
 21
40.11177381
 31
0.0
  0
LINE
  5
30F
100
AcDbEntity
  8
レイヤー_1
  6
CONTINUOUS
 62
       3
100
AcDbLine
 10
-80.21495735
 20
40.11177381
 30
0.0
 11
-80.21495735
 21
31.50155554
 31
0.0
  0
LINE
  5
310
100
AcDbEntity
  8
レイヤー_1
  6
CONTINUOUS
 62
       3
100
AcDbLine
 10
-80.21495735
 20
31.50155554
 30
0.0
 11
-80.21495735
 21
21.61411634
 31
0.0
  0
LINE
  5
311
100
AcDbEntity
  8
レイヤー_1
  6
CONTINUOUS
 62
       3
100
AcDbLine
 10
-80.21495735
 20
21.61411634
 30
0.0
 11
-80.21495735
 21
10.84086261
 31
0.0
  0
LINE
  5
312
100
AcDbEntity
  8
レイヤー_1
  6
CONTINUOUS
 62
       3
100
AcDbLine
 10
-80.21495735
 20
10.84086261
 30
0.0
 11
-80.21495735
 21
-0.42679921
 31
0.0
  0
LINE
  5
313
100
AcDbEntity
  8
レイヤー_1
  6
CONTINUOUS
 62
       3
100
AcDbLine
 10
-80.21495735
 20
-0.42679921
 30
0.0
 11
-80.21495735
 21
-11.79746271
 31
0.0
  0
LINE
  5
314
100
AcDbEntity
  8
レイヤー_1
  6
CONTINUOUS
 62
       3
100
AcDbLine
 10
-80.21495735
 20
-11.79746271
 30
0.0
 11
-80.21495735
 21
-22.87972149
 31
0.0
  0
LINE
  5
315
100
AcDbEntity
  8
レイヤー_1
  6
CONTINUOUS
 62
       3
100
AcDbLine
 10
-80.21495735
 20
-22.87972149
 30
0.0
 11
-80.21495735
 21
-33.28216914
 31
0.0
  0
LINE
  5
316
100
AcDbEntity
  8
レイヤー_1
  6
CONTINUOUS
 62
       3
100
AcDbLine
 10
-80.21495735
 20
-33.28216914
 30
0.0
 11
-80.21495735
 21
-42.61339921
 31
0.0
  0
LINE
  5
317
100
AcDbEntity
  8
レイヤー_1
  6
CONTINUOUS
 62
       3
100
AcDbLine
 10
-80.21495735
 20
-42.61339921
 30
0.0
 11
-80.21495735
 21
-50.48200534
 31
0.0
  0
LINE
  5
318
100
AcDbEntity
  8
レイヤー_1
  6
CONTINUOUS
 62
       3
100
AcDbLine
 10
-80.21495735
 20
-50.48200534
 30
0.0
 11
-80.21495735
 21
-56.49658109
 31
0.0
  0
LINE
  5
319
100
AcDbEntity
  8
レイヤー_1
  6
CONTINUOUS
 62
       3
100
AcDbLine
 10
-80.21495735
 20
-56.49658109
 30
0.0
 11
-80.21495735
 21
-60.26572004
 31
0.0
  0
LINE
  5
31A
100
AcDbEntity
  8
レイヤー_1
  6
CONTINUOUS
 62
       3
100
AcDbLine
 10
-80.21495735
 20
-60.26572004
 30
0.0
 11
-80.21495457
 21
-61.41466846
 31
0.0
  0
LINE
  5
31B
100
AcDbEntity
  8
レイヤー_1
  6
CONTINUOUS
 62
       3
100
AcDbLine
 10
-80.2146672
 20
-61.41757421
 30
0.0
 11
-80.21395302
 21
-61.42479551
 31
0.0
  0
LINE
  5
31C
100
AcDbEntity
  8
レイヤー_1
  6
CONTINUOUS
 62
       3
100
AcDbLine
 10
-80.21395302
 20
-61.42479551
 30
0.0
 11
-80.21287737
 21
-61.43567116
 31
0.0
  0
LINE
  5
31D
100
AcDbEntity
  8
レイヤー_1
  6
CONTINUOUS
 62
       3
100
AcDbLine
 10
-80.21287737
 20
-61.43567116
 30
0.0
 11
-80.21150577
 21
-61.44953986
 31
0.0
  0
LINE
  5
31E
100
AcDbEntity
  8
レイヤー_1
  6
CONTINUOUS
 62
       3
100
AcDbLine
 10
-80.21150577
 20
-61.44953986
 30
0.0
 11
-80.20990352
 21
-61.46574039
 31
0.0
  0
LINE
  5
31F
100
AcDbEntity
  8
レイヤー_1
  6
CONTINUOUS
 62
       3
100
AcDbLine
 10
-80.20990352
 20
-61.46574039
 30
0.0
 11
-80.20813602
 21
-61.48361144
 31
0.0
  0
LINE
  5
320
100
AcDbEntity
  8
レイヤー_1
  6
CONTINUOUS
 62
       3
100
AcDbLine
 10
-80.20813602
 20
-61.48361144
 30
0.0
 11
-80.20626875
 21
-61.50249179
 31
0.0
  0
LINE
  5
321
100
AcDbEntity
  8
レイヤー_1
  6
CONTINUOUS
 62
       3
100
AcDbLine
 10
-80.20626875
 20
-61.50249179
 30
0.0
 11
-80.20436705
 21
-61.52172014
 31
0.0
  0
LINE
  5
322
100
AcDbEntity
  8
レイヤー_1
  6
CONTINUOUS
 62
       3
100
AcDbLine
 10
-80.20436705
 20
-61.52172014
 30
0.0
 11
-80.2024963
 21
-61.54063529
 31
0.0
  0
LINE
  5
323
100
AcDbEntity
  8
レイヤー_1
  6
CONTINUOUS
 62
       3
100
AcDbLine
 10
-80.2024963
 20
-61.54063529
 30
0.0
 11
-80.20072195
 21
-61.55857596
 31
0.0
  0
LINE
  5
324
100
AcDbEntity
  8
レイヤー_1
  6
CONTINUOUS
 62
       3
100
AcDbLine
 10
-80.20072195
 20
-61.55857596
 30
0.0
 11
-80.19910937
 21
-61.57488086
 31
0.0
  0
LINE
  5
325
100
AcDbEntity
  8
レイヤー_1
  6
CONTINUOUS
 62
       3
100
AcDbLine
 10
-80.19910937
 20
-61.57488086
 30
0.0
 11
-80.19772397
 21
-61.58888879
 31
0.0
  0
LINE
  5
326
100
AcDbEntity
  8
レイヤー_1
  6
CONTINUOUS
 62
       3
100
AcDbLine
 10
-80.19772397
 20
-61.58888879
 30
0.0
 11
-80.19663117
 21
-61.59993844
 31
0.0
  0
LINE
  5
327
100
AcDbEntity
  8
レイヤー_1
  6
CONTINUOUS
 62
       3
100
AcDbLine
 10
-80.19663117
 20
-61.59993844
 30
0.0
 11
-80.19589632
 21
-61.60736859
 31
0.0
  0
LINE
  5
328
100
AcDbEntity
  8
レイヤー_1
  6
CONTINUOUS
 62
       3
100
AcDbLine
 10
-80.19508245
 20
-61.61222439
 30
0.0
 11
-80.19331185
 21
-61.61809031
 31
0.0
  0
LINE
  5
329
100
AcDbEntity
  8
レイヤー_1
  6
CONTINUOUS
 62
       3
100
AcDbLine
 10
-80.19331185
 20
-61.61809031
 30
0.0
 11
-80.19043905
 21
-61.62760786
 31
0.0
  0
LINE
  5
32A
100
AcDbEntity
  8
レイヤー_1
  6
CONTINUOUS
 62
       3
100
AcDbLine
 10
-80.19043905
 20
-61.62760786
 30
0.0
 11
-80.18665437
 21
-61.64014634
 31
0.0
  0
LINE
  5
32B
100
AcDbEntity
  8
レイヤー_1
  6
CONTINUOUS
 62
       3
100
AcDbLine
 10
-80.18665437
 20
-61.64014634
 30
0.0
 11
-80.18214827
 21
-61.65507496
 31
0.0
  0
LINE
  5
32C
100
AcDbEntity
  8
レイヤー_1
  6
CONTINUOUS
 62
       3
100
AcDbLine
 10
-80.18214827
 20
-61.65507496
 30
0.0
 11
-80.1771111
 21
-61.67176304
 31
0.0
  0
LINE
  5
32D
100
AcDbEntity
  8
レイヤー_1
  6
CONTINUOUS
 62
       3
100
AcDbLine
 10
-80.1771111
 20
-61.67176304
 30
0.0
 11
-80.17173322
 21
-61.68957979
 31
0.0
  0
LINE
  5
32E
100
AcDbEntity
  8
レイヤー_1
  6
CONTINUOUS
 62
       3
100
AcDbLine
 10
-80.17173322
 20
-61.68957979
 30
0.0
 11
-80.16620505
 21
-61.70789449
 31
0.0
  0
LINE
  5
32F
100
AcDbEntity
  8
レイヤー_1
  6
CONTINUOUS
 62
       3
100
AcDbLine
 10
-80.16620505
 20
-61.70789449
 30
0.0
 11
-80.16071697
 21
-61.72607639
 31
0.0
  0
LINE
  5
330
100
AcDbEntity
  8
レイヤー_1
  6
CONTINUOUS
 62
       3
100
AcDbLine
 10
-80.16071697
 20
-61.72607639
 30
0.0
 11
-80.15545935
 21
-61.74349479
 31
0.0
  0
LINE
  5
331
100
AcDbEntity
  8
レイヤー_1
  6
CONTINUOUS
 62
       3
100
AcDbLine
 10
-80.15545935
 20
-61.74349479
 30
0.0
 11
-80.15062257
 21
-61.75951891
 31
0.0
  0
LINE
  5
332
100
AcDbEntity
  8
レイヤー_1
  6
CONTINUOUS
 62
       3
100
AcDbLine
 10
-80.15062257
 20
-61.75951891
 30
0.0
 11
-80.14639702
 21
-61.77351804
 31
0.0
  0
LINE
  5
333
100
AcDbEntity
  8
レイヤー_1
  6
CONTINUOUS
 62
       3
100
AcDbLine
 10
-80.14639702
 20
-61.77351804
 30
0.0
 11
-80.1429731
 21
-61.78486141
 31
0.0
  0
LINE
  5
334
100
AcDbEntity
  8
レイヤー_1
  6
CONTINUOUS
 62
       3
100
AcDbLine
 10
-80.1429731
 20
-61.78486141
 30
0.0
 11
-80.14054117
 21
-61.79291834
 31
0.0
  0
LINE
  5
335
100
AcDbEntity
  8
レイヤー_1
  6
CONTINUOUS
 62
       3
100
AcDbLine
 10
-80.13929165
 20
-61.79705801
 30
0.0
 11
-80.13877572
 21
-61.79820336
 31
0.0
  0
LINE
  5
336
100
AcDbEntity
  8
レイヤー_1
  6
CONTINUOUS
 62
       3
100
AcDbLine
 10
-80.13639775
 20
-61.80263851
 30
0.0
 11
-80.13212857
 21
-61.81060101
 31
0.0
  0
LINE
  5
337
100
AcDbEntity
  8
レイヤー_1
  6
CONTINUOUS
 62
       3
100
AcDbLine
 10
-80.13212857
 20
-61.81060101
 30
0.0
 11
-80.12628065
 21
-61.82150806
 31
0.0
  0
LINE
  5
338
100
AcDbEntity
  8
レイヤー_1
  6
CONTINUOUS
 62
       3
100
AcDbLine
 10
-80.12628065
 20
-61.82150806
 30
0.0
 11
-80.11916645
 21
-61.83477691
 31
0.0
  0
LINE
  5
339
100
AcDbEntity
  8
レイヤー_1
  6
CONTINUOUS
 62
       3
100
AcDbLine
 10
-80.11916645
 20
-61.83477691
 30
0.0
 11
-80.1110984
 21
-61.84982476
 31
0.0
  0
LINE
  5
33A
100
AcDbEntity
  8
レイヤー_1
  6
CONTINUOUS
 62
       3
100
AcDbLine
 10
-80.1110984
 20
-61.84982476
 30
0.0
 11
-80.10238897
 21
-61.86606884
 31
0.0
  0
LINE
  5
33B
100
AcDbEntity
  8
レイヤー_1
  6
CONTINUOUS
 62
       3
100
AcDbLine
 10
-80.10238897
 20
-61.86606884
 30
0.0
 11
-80.09335065
 21
-61.88292639
 31
0.0
  0
LINE
  5
33C
100
AcDbEntity
  8
レイヤー_1
  6
CONTINUOUS
 62
       3
100
AcDbLine
 10
-80.09335065
 20
-61.88292639
 30
0.0
 11
-80.08429587
 21
-61.89981459
 31
0.0
  0
LINE
  5
33D
100
AcDbEntity
  8
レイヤー_1
  6
CONTINUOUS
 62
       3
100
AcDbLine
 10
-80.08429587
 20
-61.89981459
 30
0.0
 11
-80.0755371
 21
-61.91615069
 31
0.0
  0
LINE
  5
33E
100
AcDbEntity
  8
レイヤー_1
  6
CONTINUOUS
 62
       3
100
AcDbLine
 10
-80.0755371
 20
-61.91615069
 30
0.0
 11
-80.06738685
 21
-61.93135191
 31
0.0
  0
LINE
  5
33F
100
AcDbEntity
  8
レイヤー_1
  6
CONTINUOUS
 62
       3
100
AcDbLine
 10
-80.06738685
 20
-61.93135191
 30
0.0
 11
-80.0601575
 21
-61.94483546
 31
0.0
  0
LINE
  5
340
100
AcDbEntity
  8
レイヤー_1
  6
CONTINUOUS
 62
       3
100
AcDbLine
 10
-80.0601575
 20
-61.94483546
 30
0.0
 11
-80.05416157
 21
-61.95601856
 31
0.0
  0
LINE
  5
341
100
AcDbEntity
  8
レイヤー_1
  6
CONTINUOUS
 62
       3
100
AcDbLine
 10
-80.05416157
 20
-61.95601856
 30
0.0
 11
-80.0497115
 21
-61.96431846
 31
0.0
  0
LINE
  5
342
100
AcDbEntity
  8
レイヤー_1
  6
CONTINUOUS
 62
       3
100
AcDbLine
 10
-80.04396305
 20
-61.97335664
 30
0.0
 11
-80.03885277
 21
-61.97959861
 31
0.0
  0
LINE
  5
343
100
AcDbEntity
  8
レイヤー_1
  6
CONTINUOUS
 62
       3
100
AcDbLine
 10
-80.03885277
 20
-61.97959861
 30
0.0
 11
-80.0315098
 21
-61.98856771
 31
0.0
  0
LINE
  5
344
100
AcDbEntity
  8
レイヤー_1
  6
CONTINUOUS
 62
       3
100
AcDbLine
 10
-80.0315098
 20
-61.98856771
 30
0.0
 11
-80.02235417
 21
-61.99975086
 31
0.0
  0
LINE
  5
345
100
AcDbEntity
  8
レイヤー_1
  6
CONTINUOUS
 62
       3
100
AcDbLine
 10
-80.02235417
 20
-61.99975086
 30
0.0
 11
-80.0118059
 21
-62.01263509
 31
0.0
  0
LINE
  5
346
100
AcDbEntity
  8
レイヤー_1
  6
CONTINUOUS
 62
       3
100
AcDbLine
 10
-80.0118059
 20
-62.01263509
 30
0.0
 11
-80.00028497
 21
-62.02670739
 31
0.0
  0
LINE
  5
347
100
AcDbEntity
  8
レイヤー_1
  6
CONTINUOUS
 62
       3
100
AcDbLine
 10
-80.00028497
 20
-62.02670739
 30
0.0
 11
-79.9882114
 21
-62.04145469
 31
0.0
  0
LINE
  5
348
100
AcDbEntity
  8
レイヤー_1
  6
CONTINUOUS
 62
       3
100
AcDbLine
 10
-79.9882114
 20
-62.04145469
 30
0.0
 11
-79.9760052
 21
-62.05636399
 31
0.0
  0
LINE
  5
349
100
AcDbEntity
  8
レイヤー_1
  6
CONTINUOUS
 62
       3
100
AcDbLine
 10
-79.9760052
 20
-62.05636399
 30
0.0
 11
-79.9640864
 21
-62.07092229
 31
0.0
  0
LINE
  5
34A
100
AcDbEntity
  8
レイヤー_1
  6
CONTINUOUS
 62
       3
100
AcDbLine
 10
-79.9640864
 20
-62.07092229
 30
0.0
 11
-79.95287492
 21
-62.08461654
 31
0.0
  0
LINE
  5
34B
100
AcDbEntity
  8
レイヤー_1
  6
CONTINUOUS
 62
       3
100
AcDbLine
 10
-79.95287492
 20
-62.08461654
 30
0.0
 11
-79.94279085
 21
-62.09693376
 31
0.0
  0
LINE
  5
34C
100
AcDbEntity
  8
レイヤー_1
  6
CONTINUOUS
 62
       3
100
AcDbLine
 10
-79.94279085
 20
-62.09693376
 30
0.0
 11
-79.9342542
 21
-62.10736089
 31
0.0
  0
LINE
  5
34D
100
AcDbEntity
  8
レイヤー_1
  6
CONTINUOUS
 62
       3
100
AcDbLine
 10
-79.9342542
 20
-62.10736089
 30
0.0
 11
-79.92768492
 21
-62.11538494
 31
0.0
  0
LINE
  5
34E
100
AcDbEntity
  8
レイヤー_1
  6
CONTINUOUS
 62
       3
100
AcDbLine
 10
-79.92768492
 20
-62.11538494
 30
0.0
 11
-79.92350307
 21
-62.12049286
 31
0.0
  0
LINE
  5
34F
100
AcDbEntity
  8
レイヤー_1
  6
CONTINUOUS
 62
       3
100
AcDbLine
 10
-79.92007247
 20
-62.12386541
 30
0.0
 11
-79.91467962
 21
-62.12830294
 31
0.0
  0
LINE
  5
350
100
AcDbEntity
  8
レイヤー_1
  6
CONTINUOUS
 62
       3
100
AcDbLine
 10
-79.91467962
 20
-62.12830294
 30
0.0
 11
-79.90644902
 21
-62.13507554
 31
0.0
  0
LINE
  5
351
100
AcDbEntity
  8
レイヤー_1
  6
CONTINUOUS
 62
       3
100
AcDbLine
 10
-79.90644902
 20
-62.13507554
 30
0.0
 11
-79.89588927
 21
-62.14376471
 31
0.0
  0
LINE
  5
352
100
AcDbEntity
  8
レイヤー_1
  6
CONTINUOUS
 62
       3
100
AcDbLine
 10
-79.89588927
 20
-62.14376471
 30
0.0
 11
-79.88350907
 21
-62.15395184
 31
0.0
  0
LINE
  5
353
100
AcDbEntity
  8
レイヤー_1
  6
CONTINUOUS
 62
       3
100
AcDbLine
 10
-79.88350907
 20
-62.15395184
 30
0.0
 11
-79.8698171
 21
-62.16521841
 31
0.0
  0
LINE
  5
354
100
AcDbEntity
  8
レイヤー_1
  6
CONTINUOUS
 62
       3
100
AcDbLine
 10
-79.8698171
 20
-62.16521841
 30
0.0
 11
-79.8553219
 21
-62.17714586
 31
0.0
  0
LINE
  5
355
100
AcDbEntity
  8
レイヤー_1
  6
CONTINUOUS
 62
       3
100
AcDbLine
 10
-79.8553219
 20
-62.17714586
 30
0.0
 11
-79.84053225
 21
-62.18931561
 31
0.0
  0
LINE
  5
356
100
AcDbEntity
  8
レイヤー_1
  6
CONTINUOUS
 62
       3
100
AcDbLine
 10
-79.84053225
 20
-62.18931561
 30
0.0
 11
-79.82595677
 21
-62.20130916
 31
0.0
  0
LINE
  5
357
100
AcDbEntity
  8
レイヤー_1
  6
CONTINUOUS
 62
       3
100
AcDbLine
 10
-79.82595677
 20
-62.20130916
 30
0.0
 11
-79.81210415
 21
-62.21270791
 31
0.0
  0
LINE
  5
358
100
AcDbEntity
  8
レイヤー_1
  6
CONTINUOUS
 62
       3
100
AcDbLine
 10
-79.81210415
 20
-62.21270791
 30
0.0
 11
-79.799483
 21
-62.22309331
 31
0.0
  0
LINE
  5
359
100
AcDbEntity
  8
レイヤー_1
  6
CONTINUOUS
 62
       3
100
AcDbLine
 10
-79.799483
 20
-62.22309331
 30
0.0
 11
-79.788602
 21
-62.23204681
 31
0.0
  0
LINE
  5
35A
100
AcDbEntity
  8
レイヤー_1
  6
CONTINUOUS
 62
       3
100
AcDbLine
 10
-79.788602
 20
-62.23204681
 30
0.0
 11
-79.7799698
 21
-62.23914986
 31
0.0
  0
LINE
  5
35B
100
AcDbEntity
  8
レイヤー_1
  6
CONTINUOUS
 62
       3
100
AcDbLine
 10
-79.7799698
 20
-62.23914986
 30
0.0
 11
-79.7740951
 21
-62.24398391
 31
0.0
  0
LINE
  5
35C
100
AcDbEntity
  8
レイヤー_1
  6
CONTINUOUS
 62
       3
100
AcDbLine
 10
-79.77005305
 20
-62.24691804
 30
0.0
 11
-79.76478777
 21
-62.24972011
 31
0.0
  0
LINE
  5
35D
100
AcDbEntity
  8
レイヤー_1
  6
CONTINUOUS
 62
       3
100
AcDbLine
 10
-79.76478777
 20
-62.24972011
 30
0.0
 11
-79.75609237
 21
-62.25434761
 31
0.0
  0
LINE
  5
35E
100
AcDbEntity
  8
レイヤー_1
  6
CONTINUOUS
 62
       3
100
AcDbLine
 10
-79.75609237
 20
-62.25434761
 30
0.0
 11
-79.74455402
 21
-62.26048809
 31
0.0
  0
LINE
  5
35F
100
AcDbEntity
  8
レイヤー_1
  6
CONTINUOUS
 62
       3
100
AcDbLine
 10
-79.74455402
 20
-62.26048809
 30
0.0
 11
-79.73075977
 21
-62.26782906
 31
0.0
  0
LINE
  5
360
100
AcDbEntity
  8
レイヤー_1
  6
CONTINUOUS
 62
       3
100
AcDbLine
 10
-79.73075977
 20
-62.26782906
 30
0.0
 11
-79.71529685
 21
-62.27605811
 31
0.0
  0
LINE
  5
361
100
AcDbEntity
  8
レイヤー_1
  6
CONTINUOUS
 62
       3
100
AcDbLine
 10
-79.71529685
 20
-62.27605811
 30
0.0
 11
-79.6987523
 21
-62.28486274
 31
0.0
  0
LINE
  5
362
100
AcDbEntity
  8
レイヤー_1
  6
CONTINUOUS
 62
       3
100
AcDbLine
 10
-79.6987523
 20
-62.28486274
 30
0.0
 11
-79.68171335
 21
-62.29393051
 31
0.0
  0
LINE
  5
363
100
AcDbEntity
  8
レイヤー_1
  6
CONTINUOUS
 62
       3
100
AcDbLine
 10
-79.68171335
 20
-62.29393051
 30
0.0
 11
-79.6647671
 21
-62.30294894
 31
0.0
  0
LINE
  5
364
100
AcDbEntity
  8
レイヤー_1
  6
CONTINUOUS
 62
       3
100
AcDbLine
 10
-79.6647671
 20
-62.30294894
 30
0.0
 11
-79.64850072
 21
-62.31160554
 31
0.0
  0
LINE
  5
365
100
AcDbEntity
  8
レイヤー_1
  6
CONTINUOUS
 62
       3
100
AcDbLine
 10
-79.64850072
 20
-62.31160554
 30
0.0
 11
-79.6335013
 21
-62.31958791
 31
0.0
  0
LINE
  5
366
100
AcDbEntity
  8
レイヤー_1
  6
CONTINUOUS
 62
       3
100
AcDbLine
 10
-79.6335013
 20
-62.31958791
 30
0.0
 11
-79.62035602
 21
-62.32658354
 31
0.0
  0
LINE
  5
367
100
AcDbEntity
  8
レイヤー_1
  6
CONTINUOUS
 62
       3
100
AcDbLine
 10
-79.62035602
 20
-62.32658354
 30
0.0
 11
-79.60965197
 21
-62.33228001
 31
0.0
  0
LINE
  5
368
100
AcDbEntity
  8
レイヤー_1
  6
CONTINUOUS
 62
       3
100
AcDbLine
 10
-79.60965197
 20
-62.33228001
 30
0.0
 11
-79.60197637
 21
-62.33636481
 31
0.0
  0
LINE
  5
369
100
AcDbEntity
  8
レイヤー_1
  6
CONTINUOUS
 62
       3
100
AcDbLine
 10
-79.59791625
 20
-62.33852549
 30
0.0
 11
-79.5967726
 21
-62.33898409
 31
0.0
  0
LINE
  5
36A
100
AcDbEntity
  8
レイヤー_1
  6
CONTINUOUS
 62
       3
100
AcDbLine
 10
-79.59219085
 20
-62.34036706
 30
0.0
 11
-79.5837583
 21
-62.34291236
 31
0.0
  0
LINE
  5
36B
100
AcDbEntity
  8
レイヤー_1
  6
CONTINUOUS
 62
       3
100
AcDbLine
 10
-79.5837583
 20
-62.34291236
 30
0.0
 11
-79.57210567
 21
-62.34642964
 31
0.0
  0
LINE
  5
36C
100
AcDbEntity
  8
レイヤー_1
  6
CONTINUOUS
 62
       3
100
AcDbLine
 10
-79.57210567
 20
-62.34642964
 30
0.0
 11
-79.5578637
 21
-62.35072849
 31
0.0
  0
LINE
  5
36D
100
AcDbEntity
  8
レイヤー_1
  6
CONTINUOUS
 62
       3
100
AcDbLine
 10
-79.5578637
 20
-62.35072849
 30
0.0
 11
-79.54166307
 21
-62.35561854
 31
0.0
  0
LINE
  5
36E
100
AcDbEntity
  8
レイヤー_1
  6
CONTINUOUS
 62
       3
100
AcDbLine
 10
-79.54166307
 20
-62.35561854
 30
0.0
 11
-79.52413462
 21
-62.36090939
 31
0.0
  0
LINE
  5
36F
100
AcDbEntity
  8
レイヤー_1
  6
CONTINUOUS
 62
       3
100
AcDbLine
 10
-79.52413462
 20
-62.36090939
 30
0.0
 11
-79.50590905
 21
-62.36641066
 31
0.0
  0
LINE
  5
370
100
AcDbEntity
  8
レイヤー_1
  6
CONTINUOUS
 62
       3
100
AcDbLine
 10
-79.50590905
 20
-62.36641066
 30
0.0
 11
-79.48761705
 21
-62.37193196
 31
0.0
  0
LINE
  5
371
100
AcDbEntity
  8
レイヤー_1
  6
CONTINUOUS
 62
       3
100
AcDbLine
 10
-79.48761705
 20
-62.37193196
 30
0.0
 11
-79.4698894
 21
-62.37728294
 31
0.0
  0
LINE
  5
372
100
AcDbEntity
  8
レイヤー_1
  6
CONTINUOUS
 62
       3
100
AcDbLine
 10
-79.4698894
 20
-62.37728294
 30
0.0
 11
-79.45335685
 21
-62.38227319
 31
0.0
  0
LINE
  5
373
100
AcDbEntity
  8
レイヤー_1
  6
CONTINUOUS
 62
       3
100
AcDbLine
 10
-79.45335685
 20
-62.38227319
 30
0.0
 11
-79.4386501
 21
-62.38671231
 31
0.0
  0
LINE
  5
374
100
AcDbEntity
  8
レイヤー_1
  6
CONTINUOUS
 62
       3
100
AcDbLine
 10
-79.4386501
 20
-62.38671231
 30
0.0
 11
-79.42639992
 21
-62.39040994
 31
0.0
  0
LINE
  5
375
100
AcDbEntity
  8
レイヤー_1
  6
CONTINUOUS
 62
       3
100
AcDbLine
 10
-79.42639992
 20
-62.39040994
 30
0.0
 11
-79.41723705
 21
-62.39317571
 31
0.0
  0
LINE
  5
376
100
AcDbEntity
  8
レイヤー_1
  6
CONTINUOUS
 62
       3
100
AcDbLine
 10
-79.41723705
 20
-62.39317571
 30
0.0
 11
-79.4117922
 21
-62.39481919
 31
0.0
  0
LINE
  5
377
100
AcDbEntity
  8
レイヤー_1
  6
CONTINUOUS
 62
       3
100
AcDbLine
 10
-79.4067404
 20
-62.39557714
 30
0.0
 11
-79.39893257
 21
-62.39635274
 31
0.0
  0
LINE
  5
378
100
AcDbEntity
  8
レイヤー_1
  6
CONTINUOUS
 62
       3
100
AcDbLine
 10
-79.39893257
 20
-62.39635274
 30
0.0
 11
-79.38759047
 21
-62.39747944
 31
0.0
  0
LINE
  5
379
100
AcDbEntity
  8
レイヤー_1
  6
CONTINUOUS
 62
       3
100
AcDbLine
 10
-79.38759047
 20
-62.39747944
 30
0.0
 11
-79.3733724
 21
-62.39889184
 31
0.0
  0
LINE
  5
37A
100
AcDbEntity
  8
レイヤー_1
  6
CONTINUOUS
 62
       3
100
AcDbLine
 10
-79.3733724
 20
-62.39889184
 30
0.0
 11
-79.35693672
 21
-62.40052451
 31
0.0
  0
LINE
  5
37B
100
AcDbEntity
  8
レイヤー_1
  6
CONTINUOUS
 62
       3
100
AcDbLine
 10
-79.35693672
 20
-62.40052451
 30
0.0
 11
-79.3389418
 21
-62.40231209
 31
0.0
  0
LINE
  5
37C
100
AcDbEntity
  8
レイヤー_1
  6
CONTINUOUS
 62
       3
100
AcDbLine
 10
-79.3389418
 20
-62.40231209
 30
0.0
 11
-79.32004595
 21
-62.40418916
 31
0.0
  0
LINE
  5
37D
100
AcDbEntity
  8
レイヤー_1
  6
CONTINUOUS
 62
       3
100
AcDbLine
 10
-79.32004595
 20
-62.40418916
 30
0.0
 11
-79.30090757
 21
-62.40609031
 31
0.0
  0
LINE
  5
37E
100
AcDbEntity
  8
レイヤー_1
  6
CONTINUOUS
 62
       3
100
AcDbLine
 10
-79.30090757
 20
-62.40609031
 30
0.0
 11
-79.282185
 21
-62.40795019
 31
0.0
  0
LINE
  5
37F
100
AcDbEntity
  8
レイヤー_1
  6
CONTINUOUS
 62
       3
100
AcDbLine
 10
-79.282185
 20
-62.40795019
 30
0.0
 11
-79.26453657
 21
-62.40970334
 31
0.0
  0
LINE
  5
380
100
AcDbEntity
  8
レイヤー_1
  6
CONTINUOUS
 62
       3
100
AcDbLine
 10
-79.26453657
 20
-62.40970334
 30
0.0
 11
-79.24862065
 21
-62.41128439
 31
0.0
  0
LINE
  5
381
100
AcDbEntity
  8
レイヤー_1
  6
CONTINUOUS
 62
       3
100
AcDbLine
 10
-79.24862065
 20
-62.41128439
 30
0.0
 11
-79.23509557
 21
-62.41262794
 31
0.0
  0
LINE
  5
382
100
AcDbEntity
  8
レイヤー_1
  6
CONTINUOUS
 62
       3
100
AcDbLine
 10
-79.23509557
 20
-62.41262794
 30
0.0
 11
-79.2246197
 21
-62.41366859
 31
0.0
  0
LINE
  5
383
100
AcDbEntity
  8
レイヤー_1
  6
CONTINUOUS
 62
       3
100
AcDbLine
 10
-79.2246197
 20
-62.41366859
 30
0.0
 11
-79.2178514
 21
-62.41434094
 31
0.0
  0
LINE
  5
384
100
AcDbEntity
  8
レイヤー_1
  6
CONTINUOUS
 62
       3
100
AcDbLine
 10
107.89888338
 20
-62.40424431
 30
0.0
 11
113.6926727
 21
-62.40424431
 31
0.0
  0
LINE
  5
385
100
AcDbEntity
  8
レイヤー_1
  6
CONTINUOUS
 62
       3
100
AcDbLine
 10
105.80082023
 20
56.51011656
 30
0.0
 11
99.07341
 21
56.51011656
 31
0.0
  0
LINE
  5
386
100
AcDbEntity
  8
レイヤー_1
  6
CONTINUOUS
 62
       3
100
AcDbLine
 10
113.29218035
 20
58.75804136
 30
0.0
 11
113.29218035
 21
52.91257561
 31
0.0
  0
LINE
  5
387
100
AcDbEntity
  8
レイヤー_1
  6
CONTINUOUS
 62
       3
100
AcDbLine
 10
107.29857548
 20
58.75804136
 30
0.0
 11
107.29857548
 21
58.00873309
 31
0.0
  0
LINE
  5
388
100
AcDbEntity
  8
レイヤー_1
  6
CONTINUOUS
 62
       3
100
AcDbLine
 10
113.29218035
 20
52.91257561
 30
0.0
 11
109.79540843
 21
49.41494241
 31
0.0
  0
LINE
  5
389
100
AcDbEntity
  8
レイヤー_1
  6
CONTINUOUS
 62
       3
100
AcDbLine
 10
109.79540843
 20
48.92530821
 30
0.0
 11
109.79540843
 21
49.41494241
 31
0.0
  0
LINE
  5
38A
100
AcDbEntity
  8
レイヤー_1
  6
CONTINUOUS
 62
       3
100
AcDbLine
 10
105.80082023
 20
55.01150004
 30
0.0
 11
99.79774133
 21
55.01150004
 31
0.0
  0
LINE
  5
38B
100
AcDbEntity
  8
レイヤー_1
  6
CONTINUOUS
 62
       3
100
AcDbLine
 10
111.7944251
 20
58.75804136
 30
0.0
 11
111.7944251
 21
53.53355406
 31
0.0
  0
LINE
  5
38C
100
AcDbEntity
  8
レイヤー_1
  6
CONTINUOUS
 62
       3
100
AcDbLine
 10
111.7944251
 20
53.53355406
 30
0.0
 11
108.29765318
 21
50.03592086
 31
0.0
  0
LINE
  5
38D
100
AcDbEntity
  8
レイヤー_1
  6
CONTINUOUS
 62
       3
100
AcDbLine
 10
108.29765318
 20
49.08162941
 30
0.0
 11
108.29765318
 21
50.03592086
 31
0.0
  0
LINE
  5
38E
100
AcDbEntity
  8
レイヤー_1
  6
CONTINUOUS
 62
       3
100
AcDbLine
 10
108.79719203
 20
58.75804136
 30
0.0
 11
108.79719203
 21
58.00873309
 31
0.0
  0
LINE
  5
38F
100
AcDbEntity
  8
レイヤー_1
  6
CONTINUOUS
 62
       3
100
AcDbLine
 10
113.19399513
 20
-62.40424431
 30
0.0
 11
113.19399513
 21
-62.70396761
 31
0.0
  0
LINE
  5
390
100
AcDbEntity
  8
レイヤー_1
  6
CONTINUOUS
 62
       3
100
AcDbLine
 10
113.19399513
 20
-62.70396761
 30
0.0
 11
111.19497848
 21
-63.90372211
 31
0.0
  0
LINE
  5
391
100
AcDbEntity
  8
レイヤー_1
  6
CONTINUOUS
 62
       3
100
AcDbLine
 10
111.19497848
 20
-63.90372211
 30
0.0
 11
110.19590078
 21
-63.90372211
 31
0.0
  0
LINE
  5
392
100
AcDbEntity
  8
レイヤー_1
  6
CONTINUOUS
 62
       3
100
AcDbLine
 10
110.19590078
 20
-63.90372211
 30
0.0
 11
110.19590078
 21
-62.90421379
 31
0.0
  0
LINE
  5
393
100
AcDbEntity
  8
レイヤー_1
  6
CONTINUOUS
 62
       3
100
AcDbLine
 10
110.19590078
 20
-62.90421379
 30
0.0
 11
107.89888338
 21
-62.90421379
 31
0.0
  0
LINE
  5
394
100
AcDbEntity
  8
レイヤー_1
  6
CONTINUOUS
 62
       3
100
AcDbLine
 10
23.57844883
 20
-62.64669289
 30
0.0
 11
5.2944658
 21
-62.64669289
 31
0.0
  0
LINE
  5
395
100
AcDbEntity
  8
レイヤー_1
  6
CONTINUOUS
 62
       3
100
AcDbLine
 10
5.2944658
 20
-62.64669289
 30
0.0
 11
5.2944658
 21
55.26040819
 31
0.0
  0
LINE
  5
396
100
AcDbEntity
  8
レイヤー_1
  6
CONTINUOUS
 62
       3
100
AcDbLine
 10
5.2944658
 20
55.26040819
 30
0.0
 11
23.52849493
 21
55.26040819
 31
0.0
  0
LINE
  5
397
100
AcDbEntity
  8
レイヤー_1
  6
CONTINUOUS
 62
       3
100
AcDbLine
 10
-75.2876095
 20
58.10648769
 30
0.0
 11
-73.08963857
 21
58.10648769
 31
0.0
  0
LINE
  5
398
100
AcDbEntity
  8
レイヤー_1
  6
CONTINUOUS
 62
       3
100
AcDbLine
 10
-73.08963857
 20
58.10648769
 30
0.0
 11
-73.08963857
 21
59.10556536
 31
0.0
  0
LINE
  5
399
100
AcDbEntity
  8
レイヤー_1
  6
CONTINUOUS
 62
       3
100
AcDbLine
 10
-73.08963857
 20
59.10556536
 30
0.0
 11
-75.2876095
 21
59.10556536
 31
0.0
  0
LINE
  5
39A
100
AcDbEntity
  8
レイヤー_1
  6
CONTINUOUS
 62
       3
100
AcDbLine
 10
-75.2876095
 20
59.10556536
 30
0.0
 11
-75.2876095
 21
58.10648769
 31
0.0
  0
LINE
  5
39B
100
AcDbEntity
  8
レイヤー_1
  6
CONTINUOUS
 62
       3
100
AcDbLine
 10
-81.10034685
 20
64.10267639
 30
0.0
 11
-88.57491215
 21
64.10267639
 31
0.0
  0
LINE
  5
39C
100
AcDbEntity
  8
レイヤー_1
  6
CONTINUOUS
 62
       3
100
AcDbLine
 10
-92.574668
 20
-53.78762986
 30
0.0
 11
-93.57460697
 21
-54.38750711
 31
0.0
  0
LINE
  5
39D
100
AcDbEntity
  8
レイヤー_1
  6
CONTINUOUS
 62
       3
100
AcDbLine
 10
-103.60155737
 20
-60.41556294
 30
0.0
 11
-93.57460697
 21
-54.38750711
 31
0.0
  0
LINE
  5
39E
100
AcDbEntity
  8
レイヤー_1
  6
CONTINUOUS
 62
       3
100
AcDbLine
 10
-105.07002932
 20
-50.59574889
 30
0.0
 11
-104.070521
 21
-49.99414909
 31
0.0
  0
LINE
  5
39F
100
AcDbEntity
  8
レイヤー_1
  6
CONTINUOUS
 62
       3
100
AcDbLine
 10
-92.574668
 20
-43.08716329
 30
0.0
 11
-93.57460697
 21
-43.68660989
 31
0.0
  0
LINE
  5
3A0
100
AcDbEntity
  8
レイヤー_1
  6
CONTINUOUS
 62
       3
100
AcDbLine
 10
-92.574668
 20
-43.08716329
 30
0.0
 11
-92.574668
 21
-44.56941561
 31
0.0
  0
LINE
  5
3A1
100
AcDbEntity
  8
レイヤー_1
  6
CONTINUOUS
 62
       3
100
AcDbLine
 10
-104.070521
 20
-49.99414909
 30
0.0
 11
-93.57460697
 21
-43.68660989
 31
0.0
  0
LINE
  5
3A2
100
AcDbEntity
  8
レイヤー_1
  6
CONTINUOUS
 62
       3
100
AcDbLine
 10
-104.070521
 20
-49.99414909
 30
0.0
 11
-104.070521
 21
-51.47769334
 31
0.0
  0
LINE
  5
3A3
100
AcDbEntity
  8
レイヤー_1
  6
CONTINUOUS
 62
       3
100
AcDbLine
 10
-93.57460697
 20
-43.68660989
 30
0.0
 11
-93.57460697
 21
-45.17015414
 31
0.0
  0
LINE
  5
3A4
100
AcDbEntity
  8
レイヤー_1
  6
CONTINUOUS
 62
       3
100
AcDbLine
 10
-105.07002932
 20
-39.89442104
 30
0.0
 11
-104.070521
 21
-39.29368251
 31
0.0
  0
LINE
  5
3A5
100
AcDbEntity
  8
レイヤー_1
  6
CONTINUOUS
 62
       3
100
AcDbLine
 10
-92.574668
 20
-32.38540479
 30
0.0
 11
-93.57460697
 21
-32.98614331
 31
0.0
  0
LINE
  5
3A6
100
AcDbEntity
  8
レイヤー_1
  6
CONTINUOUS
 62
       3
100
AcDbLine
 10
-92.574668
 20
-32.38540479
 30
0.0
 11
-92.574668
 21
-33.86808776
 31
0.0
  0
LINE
  5
3A7
100
AcDbEntity
  8
レイヤー_1
  6
CONTINUOUS
 62
       3
100
AcDbLine
 10
-104.070521
 20
-39.29368251
 30
0.0
 11
-93.57460697
 21
-32.98614331
 31
0.0
  0
LINE
  5
3A8
100
AcDbEntity
  8
レイヤー_1
  6
CONTINUOUS
 62
       3
100
AcDbLine
 10
-104.070521
 20
-39.29368251
 30
0.0
 11
-104.070521
 21
-40.77722676
 31
0.0
  0
LINE
  5
3A9
100
AcDbEntity
  8
レイヤー_1
  6
CONTINUOUS
 62
       3
100
AcDbLine
 10
-93.57460697
 20
-32.98614331
 30
0.0
 11
-93.57460697
 21
-34.46968756
 31
0.0
  0
LINE
  5
3AA
100
AcDbEntity
  8
レイヤー_1
  6
CONTINUOUS
 62
       3
100
AcDbLine
 10
-105.07002932
 20
-29.19352381
 30
0.0
 11
-104.070521
 21
-28.59321594
 31
0.0
  0
LINE
  5
3AB
100
AcDbEntity
  8
レイヤー_1
  6
CONTINUOUS
 62
       3
100
AcDbLine
 10
-92.574668
 20
-21.68407694
 30
0.0
 11
-93.57460697
 21
-22.28438484
 31
0.0
  0
LINE
  5
3AC
100
AcDbEntity
  8
レイヤー_1
  6
CONTINUOUS
 62
       3
100
AcDbLine
 10
-92.574668
 20
-21.68407694
 30
0.0
 11
-92.574668
 21
-23.16632926
 31
0.0
  0
LINE
  5
3AD
100
AcDbEntity
  8
レイヤー_1
  6
CONTINUOUS
 62
       3
100
AcDbLine
 10
-104.070521
 20
-28.59321594
 30
0.0
 11
-93.57460697
 21
-22.28438484
 31
0.0
  0
LINE
  5
3AE
100
AcDbEntity
  8
レイヤー_1
  6
CONTINUOUS
 62
       3
100
AcDbLine
 10
-104.070521
 20
-28.59321594
 30
0.0
 11
-104.070521
 21
-30.07632954
 31
0.0
  0
LINE
  5
3AF
100
AcDbEntity
  8
レイヤー_1
  6
CONTINUOUS
 62
       3
100
AcDbLine
 10
-93.57460697
 20
-22.28438484
 30
0.0
 11
-93.57460697
 21
-23.76792906
 31
0.0
  0
LINE
  5
3B0
100
AcDbEntity
  8
レイヤー_1
  6
CONTINUOUS
 62
       3
100
AcDbLine
 10
-105.07002932
 20
-18.49305724
 30
0.0
 11
-104.070521
 21
-17.89145744
 31
0.0
  0
LINE
  5
3B1
100
AcDbEntity
  8
レイヤー_1
  6
CONTINUOUS
 62
       3
100
AcDbLine
 10
-92.574668
 20
-10.98231846
 30
0.0
 11
-93.57460697
 21
-11.58391826
 31
0.0
  0
LINE
  5
3B2
100
AcDbEntity
  8
レイヤー_1
  6
CONTINUOUS
 62
       3
100
AcDbLine
 10
-92.574668
 20
-10.98231846
 30
0.0
 11
-92.574668
 21
-12.46586269
 31
0.0
  0
LINE
  5
3B3
100
AcDbEntity
  8
レイヤー_1
  6
CONTINUOUS
 62
       3
100
AcDbLine
 10
-104.070521
 20
-17.89145744
 30
0.0
 11
-93.57460697
 21
-11.58391826
 31
0.0
  0
LINE
  5
3B4
100
AcDbEntity
  8
レイヤー_1
  6
CONTINUOUS
 62
       3
100
AcDbLine
 10
-104.070521
 20
-17.89145744
 30
0.0
 11
-104.070521
 21
-19.37500169
 31
0.0
  0
LINE
  5
3B5
100
AcDbEntity
  8
レイヤー_1
  6
CONTINUOUS
 62
       3
100
AcDbLine
 10
-93.57460697
 20
-11.58391826
 30
0.0
 11
-93.57460697
 21
-13.06746249
 31
0.0
  0
LINE
  5
3B6
100
AcDbEntity
  8
レイヤー_1
  6
CONTINUOUS
 62
       3
100
AcDbLine
 10
-105.07002932
 20
-7.79172939
 30
0.0
 11
-104.070521
 21
-7.19099086
 31
0.0
  0
LINE
  5
3B7
100
AcDbEntity
  8
レイヤー_1
  6
CONTINUOUS
 62
       3
100
AcDbLine
 10
-92.574668
 20
-0.28185186
 30
0.0
 11
-93.57460697
 21
-0.88259039
 31
0.0
  0
LINE
  5
3B8
100
AcDbEntity
  8
レイヤー_1
  6
CONTINUOUS
 62
       3
100
AcDbLine
 10
-92.574668
 20
-0.28185186
 30
0.0
 11
-92.574668
 21
-1.76539611
 31
0.0
  0
LINE
  5
3B9
100
AcDbEntity
  8
レイヤー_1
  6
CONTINUOUS
 62
       3
100
AcDbLine
 10
-104.070521
 20
-7.19099086
 30
0.0
 11
-93.57460697
 21
-0.88259039
 31
0.0
  0
LINE
  5
3BA
100
AcDbEntity
  8
レイヤー_1
  6
CONTINUOUS
 62
       3
100
AcDbLine
 10
-104.070521
 20
-7.19099086
 30
0.0
 11
-104.070521
 21
-8.67367384
 31
0.0
  0
LINE
  5
3BB
100
AcDbEntity
  8
レイヤー_1
  6
CONTINUOUS
 62
       3
100
AcDbLine
 10
-93.57460697
 20
-0.88259039
 30
0.0
 11
-93.57460697
 21
-2.36570401
 31
0.0
  0
LINE
  5
3BC
100
AcDbEntity
  8
レイヤー_1
  6
CONTINUOUS
 62
       3
100
AcDbLine
 10
-105.07002932
 20
2.91002909
 30
0.0
 11
-104.070521
 21
3.51076761
 31
0.0
  0
LINE
  5
3BD
100
AcDbEntity
  8
レイヤー_1
  6
CONTINUOUS
 62
       3
100
AcDbLine
 10
-92.574668
 20
10.41990661
 30
0.0
 11
-93.57460697
 21
9.81830681
 31
0.0
  0
LINE
  5
3BE
100
AcDbEntity
  8
レイヤー_1
  6
CONTINUOUS
 62
       3
100
AcDbLine
 10
-92.574668
 20
10.41990661
 30
0.0
 11
-92.574668
 21
8.93636236
 31
0.0
  0
LINE
  5
3BF
100
AcDbEntity
  8
レイヤー_1
  6
CONTINUOUS
 62
       3
100
AcDbLine
 10
-104.070521
 20
3.51076761
 30
0.0
 11
-93.57460697
 21
9.81830681
 31
0.0
  0
LINE
  5
3C0
100
AcDbEntity
  8
レイヤー_1
  6
CONTINUOUS
 62
       3
100
AcDbLine
 10
-104.070521
 20
3.51076761
 30
0.0
 11
-104.070521
 21
2.02722339
 31
0.0
  0
LINE
  5
3C1
100
AcDbEntity
  8
レイヤー_1
  6
CONTINUOUS
 62
       3
100
AcDbLine
 10
-93.57460697
 20
9.81830681
 30
0.0
 11
-93.57460697
 21
8.33562384
 31
0.0
  0
LINE
  5
3C2
100
AcDbEntity
  8
レイヤー_1
  6
CONTINUOUS
 62
       3
100
AcDbLine
 10
-105.07002932
 20
13.61049566
 30
0.0
 11
-104.070521
 21
14.21123419
 31
0.0
  0
LINE
  5
3C3
100
AcDbEntity
  8
レイヤー_1
  6
CONTINUOUS
 62
       3
100
AcDbLine
 10
-92.574668
 20
21.12037319
 30
0.0
 11
-93.57460697
 21
20.51963466
 31
0.0
  0
LINE
  5
3C4
100
AcDbEntity
  8
レイヤー_1
  6
CONTINUOUS
 62
       3
100
AcDbLine
 10
-92.574668
 20
21.12037319
 30
0.0
 11
-92.574668
 21
19.63682894
 31
0.0
  0
LINE
  5
3C5
100
AcDbEntity
  8
レイヤー_1
  6
CONTINUOUS
 62
       3
100
AcDbLine
 10
-104.070521
 20
14.21123419
 30
0.0
 11
-93.57460697
 21
20.51963466
 31
0.0
  0
LINE
  5
3C6
100
AcDbEntity
  8
レイヤー_1
  6
CONTINUOUS
 62
       3
100
AcDbLine
 10
-104.070521
 20
14.21123419
 30
0.0
 11
-104.070521
 21
12.72855124
 31
0.0
  0
LINE
  5
3C7
100
AcDbEntity
  8
レイヤー_1
  6
CONTINUOUS
 62
       3
100
AcDbLine
 10
-93.57460697
 20
20.51963466
 30
0.0
 11
-93.57460697
 21
19.03609041
 31
0.0
  0
LINE
  5
3C8
100
AcDbEntity
  8
レイヤー_1
  6
CONTINUOUS
 62
       3
100
AcDbLine
 10
-105.07002932
 20
24.31225416
 30
0.0
 11
-104.070521
 21
24.91256204
 31
0.0
  0
LINE
  5
3C9
100
AcDbEntity
  8
レイヤー_1
  6
CONTINUOUS
 62
       3
100
AcDbLine
 10
-92.574668
 20
31.82083976
 30
0.0
 11
-93.57460697
 21
31.22139316
 31
0.0
  0
LINE
  5
3CA
100
AcDbEntity
  8
レイヤー_1
  6
CONTINUOUS
 62
       3
100
AcDbLine
 10
-92.574668
 20
31.82083976
 30
0.0
 11
-92.574668
 21
30.33858744
 31
0.0
  0
LINE
  5
3CB
100
AcDbEntity
  8
レイヤー_1
  6
CONTINUOUS
 62
       3
100
AcDbLine
 10
-104.070521
 20
24.91256204
 30
0.0
 11
-93.57460697
 21
31.22139316
 31
0.0
  0
LINE
  5
3CC
100
AcDbEntity
  8
レイヤー_1
  6
CONTINUOUS
 62
       3
100
AcDbLine
 10
-104.070521
 20
24.91256204
 30
0.0
 11
-104.070521
 21
23.42944844
 31
0.0
  0
LINE
  5
3CD
100
AcDbEntity
  8
レイヤー_1
  6
CONTINUOUS
 62
       3
100
AcDbLine
 10
-93.57460697
 20
31.22139316
 30
0.0
 11
-93.57460697
 21
29.73784891
 31
0.0
  0
LINE
  5
3CE
100
AcDbEntity
  8
レイヤー_1
  6
CONTINUOUS
 62
       3
100
AcDbLine
 10
-105.07002932
 20
35.01272074
 30
0.0
 11
-104.070521
 21
35.61432054
 31
0.0
  0
LINE
  5
3CF
100
AcDbEntity
  8
レイヤー_1
  6
CONTINUOUS
 62
       3
100
AcDbLine
 10
-92.574668
 20
42.52259826
 30
0.0
 11
-93.57460697
 21
41.92185974
 31
0.0
  0
LINE
  5
3D0
100
AcDbEntity
  8
レイヤー_1
  6
CONTINUOUS
 62
       3
100
AcDbLine
 10
-92.574668
 20
42.52259826
 30
0.0
 11
-92.574668
 21
41.03991529
 31
0.0
  0
LINE
  5
3D1
100
AcDbEntity
  8
レイヤー_1
  6
CONTINUOUS
 62
       3
100
AcDbLine
 10
-104.070521
 20
35.61432054
 30
0.0
 11
-93.57460697
 21
41.92185974
 31
0.0
  0
LINE
  5
3D2
100
AcDbEntity
  8
レイヤー_1
  6
CONTINUOUS
 62
       3
100
AcDbLine
 10
-104.070521
 20
35.61432054
 30
0.0
 11
-104.070521
 21
34.13077629
 31
0.0
  0
LINE
  5
3D3
100
AcDbEntity
  8
レイヤー_1
  6
CONTINUOUS
 62
       3
100
AcDbLine
 10
-93.57460697
 20
41.92185974
 30
0.0
 11
-93.57460697
 21
40.43831549
 31
0.0
  0
LINE
  5
3D4
100
AcDbEntity
  8
レイヤー_1
  6
CONTINUOUS
 62
       3
100
AcDbLine
 10
-81.10034685
 20
65.10218471
 30
0.0
 11
-81.10034685
 21
54.40042621
 31
0.0
  0
LINE
  5
3D5
100
AcDbEntity
  8
レイヤー_1
  6
CONTINUOUS
 62
       3
100
AcDbLine
 10
-81.10034685
 20
54.40042621
 30
0.0
 11
-88.57491215
 21
54.40042621
 31
0.0
  0
LINE
  5
3D6
100
AcDbEntity
  8
レイヤー_1
  6
CONTINUOUS
 62
       3
100
AcDbLine
 10
-88.57491215
 20
54.40042621
 30
0.0
 11
-88.57491215
 21
65.11424254
 31
0.0
  0
LINE
  5
3D7
100
AcDbEntity
  8
レイヤー_1
  6
CONTINUOUS
 62
       3
100
AcDbLine
 10
-79.28348962
 20
59.10642664
 30
0.0
 11
-77.08594935
 21
59.10642664
 31
0.0
  0
LINE
  5
3D8
100
AcDbEntity
  8
レイヤー_1
  6
CONTINUOUS
 62
       3
100
AcDbLine
 10
-77.08594935
 20
59.10642664
 30
0.0
 11
-77.08594935
 21
58.10734896
 31
0.0
  0
LINE
  5
3D9
100
AcDbEntity
  8
レイヤー_1
  6
CONTINUOUS
 62
       3
100
AcDbLine
 10
-77.08594935
 20
58.10734896
 30
0.0
 11
-79.28348962
 21
58.10734896
 31
0.0
  0
LINE
  5
3DA
100
AcDbEntity
  8
レイヤー_1
  6
CONTINUOUS
 62
       3
100
AcDbLine
 10
-79.28348962
 20
58.10734896
 30
0.0
 11
-79.28348962
 21
59.10642664
 31
0.0
  0
LINE
  5
3DB
100
AcDbEntity
  8
レイヤー_1
  6
CONTINUOUS
 62
       3
100
AcDbLine
 10
-90.576082
 20
53.56455991
 30
0.0
 11
-90.576082
 21
-61.41464061
 31
0.0
  0
LINE
  5
3DC
100
AcDbEntity
  8
レイヤー_1
  6
CONTINUOUS
 62
       3
100
AcDbLine
 10
-105.07002932
 20
-60.41556294
 30
0.0
 11
-90.576082
 21
-60.41556294
 31
0.0
  0
LINE
  5
3DD
100
AcDbEntity
  8
レイヤー_1
  6
CONTINUOUS
 62
       3
100
AcDbLine
 10
-90.576082
 20
-61.41464061
 30
0.0
 11
-90.576082
 21
-61.42066954
 31
0.0
  0
LINE
  5
3DE
100
AcDbEntity
  8
レイヤー_1
  6
CONTINUOUS
 62
       3
100
AcDbLine
 10
-90.576082
 20
-61.42066954
 30
0.0
 11
-90.59029302
 21
-61.58129711
 31
0.0
  0
LINE
  5
3DF
100
AcDbEntity
  8
レイヤー_1
  6
CONTINUOUS
 62
       3
100
AcDbLine
 10
-90.59029302
 20
-61.58129711
 30
0.0
 11
-90.67814295
 21
-61.85647411
 31
0.0
  0
LINE
  5
3E0
100
AcDbEntity
  8
レイヤー_1
  6
CONTINUOUS
 62
       3
100
AcDbLine
 10
-90.67814295
 20
-61.85647411
 30
0.0
 11
-90.7754669
 21
-62.01451786
 31
0.0
  0
LINE
  5
3E1
100
AcDbEntity
  8
レイヤー_1
  6
CONTINUOUS
 62
       3
100
AcDbLine
 10
-90.7754669
 20
55.16437614
 30
0.0
 11
-90.67814295
 21
55.00547111
 31
0.0
  0
LINE
  5
3E2
100
AcDbEntity
  8
レイヤー_1
  6
CONTINUOUS
 62
       3
100
AcDbLine
 10
-90.67814295
 20
55.00547111
 30
0.0
 11
-90.59029302
 21
54.73115539
 31
0.0
  0
LINE
  5
3E3
100
AcDbEntity
  8
レイヤー_1
  6
CONTINUOUS
 62
       3
100
AcDbLine
 10
-90.59029302
 20
54.73115539
 30
0.0
 11
-90.576082
 21
54.56966654
 31
0.0
  0
LINE
  5
3E4
100
AcDbEntity
  8
レイヤー_1
  6
CONTINUOUS
 62
       3
100
AcDbLine
 10
-90.576082
 20
54.56966654
 30
0.0
 11
-90.576082
 21
54.56449889
 31
0.0
  0
LINE
  5
3E5
100
AcDbEntity
  8
レイヤー_1
  6
CONTINUOUS
 62
       3
100
AcDbLine
 10
-90.576082
 20
54.56449889
 30
0.0
 11
-90.576082
 21
53.56455991
 31
0.0
  0
LINE
  5
3E6
100
AcDbEntity
  8
レイヤー_1
  6
CONTINUOUS
 62
       3
100
AcDbLine
 10
-91.57515967
 20
-62.41457959
 30
0.0
 11
-104.070521
 21
-62.41457959
 31
0.0
  0
LINE
  5
3E7
100
AcDbEntity
  8
レイヤー_1
  6
CONTINUOUS
 62
       3
100
AcDbLine
 10
-90.576082
 20
53.56455991
 30
0.0
 11
-105.04849752
 21
53.56455991
 31
0.0
  0
LINE
  5
3E8
100
AcDbEntity
  8
レイヤー_1
  6
CONTINUOUS
 62
       3
100
AcDbLine
 10
-102.51290722
 20
45.76443311
 30
0.0
 11
-98.50626117
 21
39.09515889
 31
0.0
  0
LINE
  5
3E9
100
AcDbEntity
  8
レイヤー_1
  6
CONTINUOUS
 62
       3
100
AcDbLine
 10
-98.50626117
 20
39.09515889
 30
0.0
 11
-91.82406782
 21
43.11170959
 31
0.0
  0
LINE
  5
3EA
100
AcDbEntity
  8
レイヤー_1
  6
CONTINUOUS
 62
       3
100
AcDbLine
 10
-91.82406782
 20
43.11170959
 30
0.0
 11
-95.8298526
 21
49.78098381
 31
0.0
  0
LINE
  5
3EB
100
AcDbEntity
  8
レイヤー_1
  6
CONTINUOUS
 62
       3
100
AcDbLine
 10
-99.71548967
 20
38.23173184
 30
0.0
 11
-103.7824249
 21
45.00177509
 31
0.0
  0
LINE
  5
3EC
100
AcDbEntity
  8
レイヤー_1
  6
CONTINUOUS
 62
       3
100
AcDbLine
 10
-92.574668
 20
42.52259826
 30
0.0
 11
-91.57515967
 21
43.12333679
 31
0.0
  0
LINE
  5
3ED
100
AcDbEntity
  8
レイヤー_1
  6
CONTINUOUS
 62
       3
100
AcDbLine
 10
-91.57515967
 20
43.12333679
 30
0.0
 11
-92.574668
 21
51.73693676
 31
0.0
  0
LINE
  5
3EE
100
AcDbEntity
  8
レイヤー_1
  6
CONTINUOUS
 62
       3
100
AcDbLine
 10
-92.574668
 20
51.73693676
 30
0.0
 11
-105.07002932
 21
44.22748989
 31
0.0
  0
LINE
  5
3EF
100
AcDbEntity
  8
レイヤー_1
  6
CONTINUOUS
 62
       3
100
AcDbLine
 10
-102.51290722
 20
35.06310526
 30
0.0
 11
-98.50626117
 21
28.39383104
 31
0.0
  0
LINE
  5
3F0
100
AcDbEntity
  8
レイヤー_1
  6
CONTINUOUS
 62
       3
100
AcDbLine
 10
-98.50626117
 20
28.39383104
 30
0.0
 11
-91.82406782
 21
32.40995109
 31
0.0
  0
LINE
  5
3F1
100
AcDbEntity
  8
レイヤー_1
  6
CONTINUOUS
 62
       3
100
AcDbLine
 10
-91.82406782
 20
32.40995109
 30
0.0
 11
-95.8298526
 21
39.08008659
 31
0.0
  0
LINE
  5
3F2
100
AcDbEntity
  8
レイヤー_1
  6
CONTINUOUS
 62
       3
100
AcDbLine
 10
-99.71548967
 20
27.53040399
 30
0.0
 11
-103.7824249
 21
34.30001661
 31
0.0
  0
LINE
  5
3F3
100
AcDbEntity
  8
レイヤー_1
  6
CONTINUOUS
 62
       3
100
AcDbLine
 10
-92.574668
 20
31.82083976
 30
0.0
 11
-91.57515967
 21
32.42157829
 31
0.0
  0
LINE
  5
3F4
100
AcDbEntity
  8
レイヤー_1
  6
CONTINUOUS
 62
       3
100
AcDbLine
 10
-91.57515967
 20
32.42157829
 30
0.0
 11
-92.574668
 21
41.03647019
 31
0.0
  0
LINE
  5
3F5
100
AcDbEntity
  8
レイヤー_1
  6
CONTINUOUS
 62
       3
100
AcDbLine
 10
-92.574668
 20
41.03647019
 30
0.0
 11
-105.07002932
 21
33.52659266
 31
0.0
  0
LINE
  5
3F6
100
AcDbEntity
  8
レイヤー_1
  6
CONTINUOUS
 62
       3
100
AcDbLine
 10
-102.51290722
 20
24.36220804
 30
0.0
 11
-98.50626117
 21
17.69293381
 31
0.0
  0
LINE
  5
3F7
100
AcDbEntity
  8
レイヤー_1
  6
CONTINUOUS
 62
       3
100
AcDbLine
 10
-98.50626117
 20
17.69293381
 30
0.0
 11
-91.82406782
 21
21.70948451
 31
0.0
  0
LINE
  5
3F8
100
AcDbEntity
  8
レイヤー_1
  6
CONTINUOUS
 62
       3
100
AcDbLine
 10
-91.82406782
 20
21.70948451
 30
0.0
 11
-95.8298526
 21
28.37875874
 31
0.0
  0
LINE
  5
3F9
100
AcDbEntity
  8
レイヤー_1
  6
CONTINUOUS
 62
       3
100
AcDbLine
 10
-99.71548967
 20
16.82864549
 30
0.0
 11
-103.7824249
 21
23.59955004
 31
0.0
  0
LINE
  5
3FA
100
AcDbEntity
  8
レイヤー_1
  6
CONTINUOUS
 62
       3
100
AcDbLine
 10
-92.574668
 20
21.12037319
 30
0.0
 11
-91.57515967
 21
21.72111171
 31
0.0
  0
LINE
  5
3FB
100
AcDbEntity
  8
レイヤー_1
  6
CONTINUOUS
 62
       3
100
AcDbLine
 10
-91.57515967
 20
21.72111171
 30
0.0
 11
-92.574668
 21
30.33514234
 31
0.0
  0
LINE
  5
3FC
100
AcDbEntity
  8
レイヤー_1
  6
CONTINUOUS
 62
       3
100
AcDbLine
 10
-92.574668
 20
30.33514234
 30
0.0
 11
-105.07002932
 21
22.82612609
 31
0.0
  0
LINE
  5
3FD
100
AcDbEntity
  8
レイヤー_1
  6
CONTINUOUS
 62
       3
100
AcDbLine
 10
-102.51290722
 20
13.66088019
 30
0.0
 11
-98.50626117
 21
6.99160596
 31
0.0
  0
LINE
  5
3FE
100
AcDbEntity
  8
レイヤー_1
  6
CONTINUOUS
 62
       3
100
AcDbLine
 10
-98.50626117
 20
6.99160596
 30
0.0
 11
-91.82406782
 21
11.00815666
 31
0.0
  0
LINE
  5
3FF
100
AcDbEntity
  8
レイヤー_1
  6
CONTINUOUS
 62
       3
100
AcDbLine
 10
-91.82406782
 20
11.00815666
 30
0.0
 11
-95.8298526
 21
17.67700026
 31
0.0
  0
LINE
  5
400
100
AcDbEntity
  8
レイヤー_1
  6
CONTINUOUS
 62
       3
100
AcDbLine
 10
-99.71548967
 20
6.12817891
 30
0.0
 11
-103.7824249
 21
12.89865281
 31
0.0
  0
LINE
  5
401
100
AcDbEntity
  8
レイヤー_1
  6
CONTINUOUS
 62
       3
100
AcDbLine
 10
-92.574668
 20
10.41990661
 30
0.0
 11
-91.57515967
 21
11.01935324
 31
0.0
  0
LINE
  5
402
100
AcDbEntity
  8
レイヤー_1
  6
CONTINUOUS
 62
       3
100
AcDbLine
 10
-91.57515967
 20
11.01935324
 30
0.0
 11
-92.574668
 21
19.63338386
 31
0.0
  0
LINE
  5
403
100
AcDbEntity
  8
レイヤー_1
  6
CONTINUOUS
 62
       3
100
AcDbLine
 10
-92.574668
 20
19.63338386
 30
0.0
 11
-105.07002932
 21
12.12436761
 31
0.0
  0
LINE
  5
404
100
AcDbEntity
  8
レイヤー_1
  6
CONTINUOUS
 62
       3
100
AcDbLine
 10
-102.51290722
 20
2.96041361
 30
0.0
 11
-98.50626117
 21
-3.70972189
 31
0.0
  0
LINE
  5
405
100
AcDbEntity
  8
レイヤー_1
  6
CONTINUOUS
 62
       3
100
AcDbLine
 10
-98.50626117
 20
-3.70972189
 30
0.0
 11
-91.82406782
 21
0.30725946
 31
0.0
  0
LINE
  5
406
100
AcDbEntity
  8
レイヤー_1
  6
CONTINUOUS
 62
       3
100
AcDbLine
 10
-91.82406782
 20
0.30725946
 30
0.0
 11
-95.8298526
 21
6.97653369
 31
0.0
  0
LINE
  5
407
100
AcDbEntity
  8
レイヤー_1
  6
CONTINUOUS
 62
       3
100
AcDbLine
 10
-99.71548967
 20
-4.57314894
 30
0.0
 11
-103.7824249
 21
2.19732496
 31
0.0
  0
LINE
  5
408
100
AcDbEntity
  8
レイヤー_1
  6
CONTINUOUS
 62
       3
100
AcDbLine
 10
-92.574668
 20
-0.28185186
 30
0.0
 11
-91.57515967
 21
0.31888666
 31
0.0
  0
LINE
  5
409
100
AcDbEntity
  8
レイヤー_1
  6
CONTINUOUS
 62
       3
100
AcDbLine
 10
-91.57515967
 20
0.31888666
 30
0.0
 11
-92.574668
 21
8.93291729
 31
0.0
  0
LINE
  5
40A
100
AcDbEntity
  8
レイヤー_1
  6
CONTINUOUS
 62
       3
100
AcDbLine
 10
-92.574668
 20
8.93291729
 30
0.0
 11
-105.07002932
 21
1.42303976
 31
0.0
  0
LINE
  5
40B
100
AcDbEntity
  8
レイヤー_1
  6
CONTINUOUS
 62
       3
100
AcDbLine
 10
-102.51290722
 20
-7.74134486
 30
0.0
 11
-98.50626117
 21
-14.41061909
 31
0.0
  0
LINE
  5
40C
100
AcDbEntity
  8
レイヤー_1
  6
CONTINUOUS
 62
       3
100
AcDbLine
 10
-98.50626117
 20
-14.41061909
 30
0.0
 11
-91.82406782
 21
-10.39406839
 31
0.0
  0
LINE
  5
40D
100
AcDbEntity
  8
レイヤー_1
  6
CONTINUOUS
 62
       3
100
AcDbLine
 10
-91.82406782
 20
-10.39406839
 30
0.0
 11
-95.8298526
 21
-3.72479416
 31
0.0
  0
LINE
  5
40E
100
AcDbEntity
  8
レイヤー_1
  6
CONTINUOUS
 62
       3
100
AcDbLine
 10
-99.71548967
 20
-15.27404616
 30
0.0
 11
-103.7824249
 21
-8.50400289
 31
0.0
  0
LINE
  5
40F
100
AcDbEntity
  8
レイヤー_1
  6
CONTINUOUS
 62
       3
100
AcDbLine
 10
-92.574668
 20
-10.98231846
 30
0.0
 11
-91.57515967
 21
-10.38287184
 31
0.0
  0
LINE
  5
410
100
AcDbEntity
  8
レイヤー_1
  6
CONTINUOUS
 62
       3
100
AcDbLine
 10
-91.57515967
 20
-10.38287184
 30
0.0
 11
-92.574668
 21
-1.76884121
 31
0.0
  0
LINE
  5
411
100
AcDbEntity
  8
レイヤー_1
  6
CONTINUOUS
 62
       3
100
AcDbLine
 10
-92.574668
 20
-1.76884121
 30
0.0
 11
-105.07002932
 21
-9.27742681
 31
0.0
  0
LINE
  5
412
100
AcDbEntity
  8
レイヤー_1
  6
CONTINUOUS
 62
       3
100
AcDbLine
 10
-102.51290722
 20
-18.44181146
 30
0.0
 11
-98.50626117
 21
-25.11194694
 31
0.0
  0
LINE
  5
413
100
AcDbEntity
  8
レイヤー_1
  6
CONTINUOUS
 62
       3
100
AcDbLine
 10
-98.50626117
 20
-25.11194694
 30
0.0
 11
-91.82406782
 21
-21.09582689
 31
0.0
  0
LINE
  5
414
100
AcDbEntity
  8
レイヤー_1
  6
CONTINUOUS
 62
       3
100
AcDbLine
 10
-91.82406782
 20
-21.09582689
 30
0.0
 11
-95.8298526
 21
-14.42569139
 31
0.0
  0
LINE
  5
415
100
AcDbEntity
  8
レイヤー_1
  6
CONTINUOUS
 62
       3
100
AcDbLine
 10
-99.71548967
 20
-25.97451274
 30
0.0
 11
-103.7824249
 21
-19.20490011
 31
0.0
  0
LINE
  5
416
100
AcDbEntity
  8
レイヤー_1
  6
CONTINUOUS
 62
       3
100
AcDbLine
 10
-92.574668
 20
-21.68407694
 30
0.0
 11
-91.57515967
 21
-21.08419969
 31
0.0
  0
LINE
  5
417
100
AcDbEntity
  8
レイヤー_1
  6
CONTINUOUS
 62
       3
100
AcDbLine
 10
-91.57515967
 20
-21.08419969
 30
0.0
 11
-92.574668
 21
-12.46930779
 31
0.0
  0
LINE
  5
418
100
AcDbEntity
  8
レイヤー_1
  6
CONTINUOUS
 62
       3
100
AcDbLine
 10
-92.574668
 20
-12.46930779
 30
0.0
 11
-105.07002932
 21
-19.97918531
 31
0.0
  0
LINE
  5
419
100
AcDbEntity
  8
レイヤー_1
  6
CONTINUOUS
 62
       3
100
AcDbLine
 10
-102.51290722
 20
-29.14270866
 30
0.0
 11
-98.50626117
 21
-35.81370544
 31
0.0
  0
LINE
  5
41A
100
AcDbEntity
  8
レイヤー_1
  6
CONTINUOUS
 62
       3
100
AcDbLine
 10
-98.50626117
 20
-35.81370544
 30
0.0
 11
-91.82406782
 21
-31.79629346
 31
0.0
  0
LINE
  5
41B
100
AcDbEntity
  8
レイヤー_1
  6
CONTINUOUS
 62
       3
100
AcDbLine
 10
-91.82406782
 20
-31.79629346
 30
0.0
 11
-95.8298526
 21
-25.12701924
 31
0.0
  0
LINE
  5
41C
100
AcDbEntity
  8
レイヤー_1
  6
CONTINUOUS
 62
       3
100
AcDbLine
 10
-99.71548967
 20
-36.67627121
 30
0.0
 11
-103.7824249
 21
-29.90622796
 31
0.0
  0
LINE
  5
41D
100
AcDbEntity
  8
レイヤー_1
  6
CONTINUOUS
 62
       3
100
AcDbLine
 10
-92.574668
 20
-32.38540479
 30
0.0
 11
-91.57515967
 21
-31.78466626
 31
0.0
  0
LINE
  5
41E
100
AcDbEntity
  8
レイヤー_1
  6
CONTINUOUS
 62
       3
100
AcDbLine
 10
-91.57515967
 20
-31.78466626
 30
0.0
 11
-92.574668
 21
-23.17020501
 31
0.0
  0
LINE
  5
41F
100
AcDbEntity
  8
レイヤー_1
  6
CONTINUOUS
 62
       3
100
AcDbLine
 10
-92.574668
 20
-23.17020501
 30
0.0
 11
-105.07002932
 21
-30.67965189
 31
0.0
  0
LINE
  5
420
100
AcDbEntity
  8
レイヤー_1
  6
CONTINUOUS
 62
       3
100
AcDbLine
 10
-102.51290722
 20
-39.84403651
 30
0.0
 11
-98.50626117
 21
-46.51417201
 31
0.0
  0
LINE
  5
421
100
AcDbEntity
  8
レイヤー_1
  6
CONTINUOUS
 62
       3
100
AcDbLine
 10
-98.50626117
 20
-46.51417201
 30
0.0
 11
-91.82406782
 21
-42.49762131
 31
0.0
  0
LINE
  5
422
100
AcDbEntity
  8
レイヤー_1
  6
CONTINUOUS
 62
       3
100
AcDbLine
 10
-91.82406782
 20
-42.49762131
 30
0.0
 11
-95.8298526
 21
-35.82791646
 31
0.0
  0
LINE
  5
423
100
AcDbEntity
  8
レイヤー_1
  6
CONTINUOUS
 62
       3
100
AcDbLine
 10
-99.71548967
 20
-47.37759906
 30
0.0
 11
-103.7824249
 21
-40.60798644
 31
0.0
  0
LINE
  5
424
100
AcDbEntity
  8
レイヤー_1
  6
CONTINUOUS
 62
       3
100
AcDbLine
 10
-92.574668
 20
-43.08716329
 30
0.0
 11
-91.57515967
 21
-42.48556349
 31
0.0
  0
LINE
  5
425
100
AcDbEntity
  8
レイヤー_1
  6
CONTINUOUS
 62
       3
100
AcDbLine
 10
-91.57515967
 20
-42.48556349
 30
0.0
 11
-92.574668
 21
-33.87153286
 31
0.0
  0
LINE
  5
426
100
AcDbEntity
  8
レイヤー_1
  6
CONTINUOUS
 62
       3
100
AcDbLine
 10
-92.574668
 20
-33.87153286
 30
0.0
 11
-105.07002932
 21
-41.38141039
 31
0.0
  0
LINE
  5
427
100
AcDbEntity
  8
レイヤー_1
  6
CONTINUOUS
 62
       3
100
AcDbLine
 10
-102.51290722
 20
-50.54536436
 30
0.0
 11
-98.50626117
 21
-57.21506924
 31
0.0
  0
LINE
  5
428
100
AcDbEntity
  8
レイヤー_1
  6
CONTINUOUS
 62
       3
100
AcDbLine
 10
-98.50626117
 20
-57.21506924
 30
0.0
 11
-91.82406782
 21
-53.19937981
 31
0.0
  0
LINE
  5
429
100
AcDbEntity
  8
レイヤー_1
  6
CONTINUOUS
 62
       3
100
AcDbLine
 10
-91.82406782
 20
-53.19937981
 30
0.0
 11
-95.8298526
 21
-46.52838304
 31
0.0
  0
LINE
  5
42A
100
AcDbEntity
  8
レイヤー_1
  6
CONTINUOUS
 62
       3
100
AcDbLine
 10
-99.71548967
 20
-58.07806564
 30
0.0
 11
-103.7824249
 21
-51.30845301
 31
0.0
  0
LINE
  5
42B
100
AcDbEntity
  8
レイヤー_1
  6
CONTINUOUS
 62
       3
100
AcDbLine
 10
-92.574668
 20
-53.78762986
 30
0.0
 11
-91.57515967
 21
-53.18689134
 31
0.0
  0
LINE
  5
42C
100
AcDbEntity
  8
レイヤー_1
  6
CONTINUOUS
 62
       3
100
AcDbLine
 10
-91.57515967
 20
-53.18689134
 30
0.0
 11
-92.574668
 21
-44.57286071
 31
0.0
  0
LINE
  5
42D
100
AcDbEntity
  8
レイヤー_1
  6
CONTINUOUS
 62
       3
100
AcDbLine
 10
-92.574668
 20
-44.57286071
 30
0.0
 11
-105.07002932
 21
-52.08273824
 31
0.0
  0
LINE
  5
42E
100
AcDbEntity
  8
レイヤー_1
  6
CONTINUOUS
 62
       3
100
AcDbLine
 10
-65.72100997
 20
-61.41464061
 30
0.0
 11
-65.72100997
 21
-61.42066954
 31
0.0
  0
LINE
  5
42F
100
AcDbEntity
  8
レイヤー_1
  6
CONTINUOUS
 62
       3
100
AcDbLine
 10
-65.72100997
 20
-61.42066954
 30
0.0
 11
-65.735221
 21
-61.58129711
 31
0.0
  0
LINE
  5
430
100
AcDbEntity
  8
レイヤー_1
  6
CONTINUOUS
 62
       3
100
AcDbLine
 10
-65.735221
 20
-61.58129711
 30
0.0
 11
-65.82350157
 21
-61.85647411
 31
0.0
  0
LINE
  5
431
100
AcDbEntity
  8
レイヤー_1
  6
CONTINUOUS
 62
       3
100
AcDbLine
 10
-65.82350157
 20
-61.85647411
 30
0.0
 11
-65.92039487
 21
-62.01451786
 31
0.0
  0
LINE
  5
432
100
AcDbEntity
  8
レイヤー_1
  6
CONTINUOUS
 62
       3
100
AcDbLine
 10
-65.92039487
 20
55.16437614
 30
0.0
 11
-65.82350157
 21
55.00547111
 31
0.0
  0
LINE
  5
433
100
AcDbEntity
  8
レイヤー_1
  6
CONTINUOUS
 62
       3
100
AcDbLine
 10
-65.82350157
 20
55.00547111
 30
0.0
 11
-65.735221
 21
54.73115539
 31
0.0
  0
LINE
  5
434
100
AcDbEntity
  8
レイヤー_1
  6
CONTINUOUS
 62
       3
100
AcDbLine
 10
-65.735221
 20
54.73115539
 30
0.0
 11
-65.72100997
 21
54.56966654
 31
0.0
  0
LINE
  5
435
100
AcDbEntity
  8
レイヤー_1
  6
CONTINUOUS
 62
       3
100
AcDbLine
 10
-65.72100997
 20
54.56966654
 30
0.0
 11
-65.72100997
 21
54.56449889
 31
0.0
  0
LINE
  5
436
100
AcDbEntity
  8
レイヤー_1
  6
CONTINUOUS
 62
       3
100
AcDbLine
 10
-65.72100997
 20
54.56449889
 30
0.0
 11
-65.72100997
 21
53.56455991
 31
0.0
  0
LINE
  5
437
100
AcDbEntity
  8
レイヤー_1
  6
CONTINUOUS
 62
       3
100
AcDbLine
 10
-66.72008767
 20
-62.41457959
 30
0.0
 11
-79.215449
 21
-62.41457959
 31
0.0
  0
LINE
  5
438
100
AcDbEntity
  8
レイヤー_1
  6
CONTINUOUS
 62
       3
100
AcDbLine
 10
-65.72100997
 20
53.56455991
 30
0.0
 11
-80.1938561
 21
53.56455991
 31
0.0
  0
LINE
  5
439
100
AcDbEntity
  8
レイヤー_1
  6
CONTINUOUS
 62
       3
100
AcDbLine
 10
-67.719596
 20
-53.78762986
 30
0.0
 11
-68.71953495
 21
-54.38750711
 31
0.0
  0
LINE
  5
43A
100
AcDbEntity
  8
レイヤー_1
  6
CONTINUOUS
 62
       3
100
AcDbLine
 10
-78.74648537
 20
-60.41556294
 30
0.0
 11
-68.71953495
 21
-54.38750711
 31
0.0
  0
LINE
  5
43B
100
AcDbEntity
  8
レイヤー_1
  6
CONTINUOUS
 62
       3
100
AcDbLine
 10
-80.21495735
 20
-50.59574889
 30
0.0
 11
-79.215449
 21
-49.99414909
 31
0.0
  0
LINE
  5
43C
100
AcDbEntity
  8
レイヤー_1
  6
CONTINUOUS
 62
       3
100
AcDbLine
 10
-67.719596
 20
-43.08716329
 30
0.0
 11
-68.71953495
 21
-43.68660989
 31
0.0
  0
LINE
  5
43D
100
AcDbEntity
  8
レイヤー_1
  6
CONTINUOUS
 62
       3
100
AcDbLine
 10
-67.719596
 20
-43.08716329
 30
0.0
 11
-67.719596
 21
-44.56941561
 31
0.0
  0
LINE
  5
43E
100
AcDbEntity
  8
レイヤー_1
  6
CONTINUOUS
 62
       3
100
AcDbLine
 10
-79.215449
 20
-49.99414909
 30
0.0
 11
-68.71953495
 21
-43.68660989
 31
0.0
  0
LINE
  5
43F
100
AcDbEntity
  8
レイヤー_1
  6
CONTINUOUS
 62
       3
100
AcDbLine
 10
-79.215449
 20
-49.99414909
 30
0.0
 11
-79.215449
 21
-51.47769334
 31
0.0
  0
LINE
  5
440
100
AcDbEntity
  8
レイヤー_1
  6
CONTINUOUS
 62
       3
100
AcDbLine
 10
-68.71953495
 20
-43.68660989
 30
0.0
 11
-68.71953495
 21
-45.17015414
 31
0.0
  0
LINE
  5
441
100
AcDbEntity
  8
レイヤー_1
  6
CONTINUOUS
 62
       3
100
AcDbLine
 10
-80.21495735
 20
-39.89442104
 30
0.0
 11
-79.215449
 21
-39.29368251
 31
0.0
  0
LINE
  5
442
100
AcDbEntity
  8
レイヤー_1
  6
CONTINUOUS
 62
       3
100
AcDbLine
 10
-67.719596
 20
-32.38540479
 30
0.0
 11
-68.71953495
 21
-32.98614331
 31
0.0
  0
LINE
  5
443
100
AcDbEntity
  8
レイヤー_1
  6
CONTINUOUS
 62
       3
100
AcDbLine
 10
-67.719596
 20
-32.38540479
 30
0.0
 11
-67.719596
 21
-33.86808776
 31
0.0
  0
LINE
  5
444
100
AcDbEntity
  8
レイヤー_1
  6
CONTINUOUS
 62
       3
100
AcDbLine
 10
-79.215449
 20
-39.29368251
 30
0.0
 11
-68.71953495
 21
-32.98614331
 31
0.0
  0
LINE
  5
445
100
AcDbEntity
  8
レイヤー_1
  6
CONTINUOUS
 62
       3
100
AcDbLine
 10
-79.215449
 20
-39.29368251
 30
0.0
 11
-79.215449
 21
-40.77722676
 31
0.0
  0
LINE
  5
446
100
AcDbEntity
  8
レイヤー_1
  6
CONTINUOUS
 62
       3
100
AcDbLine
 10
-68.71953495
 20
-32.98614331
 30
0.0
 11
-68.71953495
 21
-34.46968756
 31
0.0
  0
LINE
  5
447
100
AcDbEntity
  8
レイヤー_1
  6
CONTINUOUS
 62
       3
100
AcDbLine
 10
-80.21495735
 20
-29.19352381
 30
0.0
 11
-79.215449
 21
-28.59321594
 31
0.0
  0
LINE
  5
448
100
AcDbEntity
  8
レイヤー_1
  6
CONTINUOUS
 62
       3
100
AcDbLine
 10
-67.719596
 20
-21.68407694
 30
0.0
 11
-68.71953495
 21
-22.28438484
 31
0.0
  0
LINE
  5
449
100
AcDbEntity
  8
レイヤー_1
  6
CONTINUOUS
 62
       3
100
AcDbLine
 10
-67.719596
 20
-21.68407694
 30
0.0
 11
-67.719596
 21
-23.16632926
 31
0.0
  0
LINE
  5
44A
100
AcDbEntity
  8
レイヤー_1
  6
CONTINUOUS
 62
       3
100
AcDbLine
 10
-79.215449
 20
-28.59321594
 30
0.0
 11
-68.71953495
 21
-22.28438484
 31
0.0
  0
LINE
  5
44B
100
AcDbEntity
  8
レイヤー_1
  6
CONTINUOUS
 62
       3
100
AcDbLine
 10
-79.215449
 20
-28.59321594
 30
0.0
 11
-79.215449
 21
-30.07632954
 31
0.0
  0
LINE
  5
44C
100
AcDbEntity
  8
レイヤー_1
  6
CONTINUOUS
 62
       3
100
AcDbLine
 10
-68.71953495
 20
-22.28438484
 30
0.0
 11
-68.71953495
 21
-23.76792906
 31
0.0
  0
LINE
  5
44D
100
AcDbEntity
  8
レイヤー_1
  6
CONTINUOUS
 62
       3
100
AcDbLine
 10
-80.21495735
 20
-18.49305724
 30
0.0
 11
-79.215449
 21
-17.89145744
 31
0.0
  0
LINE
  5
44E
100
AcDbEntity
  8
レイヤー_1
  6
CONTINUOUS
 62
       3
100
AcDbLine
 10
-67.719596
 20
-10.98231846
 30
0.0
 11
-68.71953495
 21
-11.58391826
 31
0.0
  0
LINE
  5
44F
100
AcDbEntity
  8
レイヤー_1
  6
CONTINUOUS
 62
       3
100
AcDbLine
 10
-67.719596
 20
-10.98231846
 30
0.0
 11
-67.719596
 21
-12.46586269
 31
0.0
  0
LINE
  5
450
100
AcDbEntity
  8
レイヤー_1
  6
CONTINUOUS
 62
       3
100
AcDbLine
 10
-79.215449
 20
-17.89145744
 30
0.0
 11
-68.71953495
 21
-11.58391826
 31
0.0
  0
LINE
  5
451
100
AcDbEntity
  8
レイヤー_1
  6
CONTINUOUS
 62
       3
100
AcDbLine
 10
-79.215449
 20
-17.89145744
 30
0.0
 11
-79.215449
 21
-19.37500169
 31
0.0
  0
LINE
  5
452
100
AcDbEntity
  8
レイヤー_1
  6
CONTINUOUS
 62
       3
100
AcDbLine
 10
-68.71953495
 20
-11.58391826
 30
0.0
 11
-68.71953495
 21
-13.06746249
 31
0.0
  0
LINE
  5
453
100
AcDbEntity
  8
レイヤー_1
  6
CONTINUOUS
 62
       3
100
AcDbLine
 10
-80.21495735
 20
-7.79172939
 30
0.0
 11
-79.215449
 21
-7.19099086
 31
0.0
  0
LINE
  5
454
100
AcDbEntity
  8
レイヤー_1
  6
CONTINUOUS
 62
       3
100
AcDbLine
 10
-67.719596
 20
-0.28185186
 30
0.0
 11
-68.71953495
 21
-0.88259039
 31
0.0
  0
LINE
  5
455
100
AcDbEntity
  8
レイヤー_1
  6
CONTINUOUS
 62
       3
100
AcDbLine
 10
-67.719596
 20
-0.28185186
 30
0.0
 11
-67.719596
 21
-1.76539611
 31
0.0
  0
LINE
  5
456
100
AcDbEntity
  8
レイヤー_1
  6
CONTINUOUS
 62
       3
100
AcDbLine
 10
-79.215449
 20
-7.19099086
 30
0.0
 11
-68.71953495
 21
-0.88259039
 31
0.0
  0
LINE
  5
457
100
AcDbEntity
  8
レイヤー_1
  6
CONTINUOUS
 62
       3
100
AcDbLine
 10
-79.215449
 20
-7.19099086
 30
0.0
 11
-79.215449
 21
-8.67367384
 31
0.0
  0
LINE
  5
458
100
AcDbEntity
  8
レイヤー_1
  6
CONTINUOUS
 62
       3
100
AcDbLine
 10
-68.71953495
 20
-0.88259039
 30
0.0
 11
-68.71953495
 21
-2.36570401
 31
0.0
  0
LINE
  5
459
100
AcDbEntity
  8
レイヤー_1
  6
CONTINUOUS
 62
       3
100
AcDbLine
 10
-80.21495735
 20
2.91002909
 30
0.0
 11
-79.215449
 21
3.51076761
 31
0.0
  0
LINE
  5
45A
100
AcDbEntity
  8
レイヤー_1
  6
CONTINUOUS
 62
       3
100
AcDbLine
 10
-67.719596
 20
10.41990661
 30
0.0
 11
-68.71953495
 21
9.81830681
 31
0.0
  0
LINE
  5
45B
100
AcDbEntity
  8
レイヤー_1
  6
CONTINUOUS
 62
       3
100
AcDbLine
 10
-67.719596
 20
10.41990661
 30
0.0
 11
-67.719596
 21
8.93636236
 31
0.0
  0
LINE
  5
45C
100
AcDbEntity
  8
レイヤー_1
  6
CONTINUOUS
 62
       3
100
AcDbLine
 10
-79.215449
 20
3.51076761
 30
0.0
 11
-68.71953495
 21
9.81830681
 31
0.0
  0
LINE
  5
45D
100
AcDbEntity
  8
レイヤー_1
  6
CONTINUOUS
 62
       3
100
AcDbLine
 10
-79.215449
 20
3.51076761
 30
0.0
 11
-79.215449
 21
2.02722339
 31
0.0
  0
LINE
  5
45E
100
AcDbEntity
  8
レイヤー_1
  6
CONTINUOUS
 62
       3
100
AcDbLine
 10
-68.71953495
 20
9.81830681
 30
0.0
 11
-68.71953495
 21
8.33562384
 31
0.0
  0
LINE
  5
45F
100
AcDbEntity
  8
レイヤー_1
  6
CONTINUOUS
 62
       3
100
AcDbLine
 10
-80.21495735
 20
13.61049566
 30
0.0
 11
-79.215449
 21
14.21123419
 31
0.0
  0
LINE
  5
460
100
AcDbEntity
  8
レイヤー_1
  6
CONTINUOUS
 62
       3
100
AcDbLine
 10
-67.719596
 20
21.12037319
 30
0.0
 11
-68.71953495
 21
20.51963466
 31
0.0
  0
LINE
  5
461
100
AcDbEntity
  8
レイヤー_1
  6
CONTINUOUS
 62
       3
100
AcDbLine
 10
-67.719596
 20
21.12037319
 30
0.0
 11
-67.719596
 21
19.63682894
 31
0.0
  0
LINE
  5
462
100
AcDbEntity
  8
レイヤー_1
  6
CONTINUOUS
 62
       3
100
AcDbLine
 10
-79.215449
 20
14.21123419
 30
0.0
 11
-68.71953495
 21
20.51963466
 31
0.0
  0
LINE
  5
463
100
AcDbEntity
  8
レイヤー_1
  6
CONTINUOUS
 62
       3
100
AcDbLine
 10
-79.215449
 20
14.21123419
 30
0.0
 11
-79.215449
 21
12.72855124
 31
0.0
  0
LINE
  5
464
100
AcDbEntity
  8
レイヤー_1
  6
CONTINUOUS
 62
       3
100
AcDbLine
 10
-68.71953495
 20
20.51963466
 30
0.0
 11
-68.71953495
 21
19.03609041
 31
0.0
  0
LINE
  5
465
100
AcDbEntity
  8
レイヤー_1
  6
CONTINUOUS
 62
       3
100
AcDbLine
 10
-80.21495735
 20
24.31225416
 30
0.0
 11
-79.215449
 21
24.91256204
 31
0.0
  0
LINE
  5
466
100
AcDbEntity
  8
レイヤー_1
  6
CONTINUOUS
 62
       3
100
AcDbLine
 10
-67.719596
 20
31.82083976
 30
0.0
 11
-68.71953495
 21
31.22139316
 31
0.0
  0
LINE
  5
467
100
AcDbEntity
  8
レイヤー_1
  6
CONTINUOUS
 62
       3
100
AcDbLine
 10
-67.719596
 20
31.82083976
 30
0.0
 11
-67.719596
 21
30.33858744
 31
0.0
  0
LINE
  5
468
100
AcDbEntity
  8
レイヤー_1
  6
CONTINUOUS
 62
       3
100
AcDbLine
 10
-79.215449
 20
24.91256204
 30
0.0
 11
-68.71953495
 21
31.22139316
 31
0.0
  0
LINE
  5
469
100
AcDbEntity
  8
レイヤー_1
  6
CONTINUOUS
 62
       3
100
AcDbLine
 10
-79.215449
 20
24.91256204
 30
0.0
 11
-79.215449
 21
23.42944844
 31
0.0
  0
LINE
  5
46A
100
AcDbEntity
  8
レイヤー_1
  6
CONTINUOUS
 62
       3
100
AcDbLine
 10
-68.71953495
 20
31.22139316
 30
0.0
 11
-68.71953495
 21
29.73784891
 31
0.0
  0
LINE
  5
46B
100
AcDbEntity
  8
レイヤー_1
  6
CONTINUOUS
 62
       3
100
AcDbLine
 10
-80.21495735
 20
35.01272074
 30
0.0
 11
-79.215449
 21
35.61432054
 31
0.0
  0
LINE
  5
46C
100
AcDbEntity
  8
レイヤー_1
  6
CONTINUOUS
 62
       3
100
AcDbLine
 10
-67.719596
 20
42.52259826
 30
0.0
 11
-68.71953495
 21
41.92185974
 31
0.0
  0
LINE
  5
46D
100
AcDbEntity
  8
レイヤー_1
  6
CONTINUOUS
 62
       3
100
AcDbLine
 10
-67.719596
 20
42.52259826
 30
0.0
 11
-67.719596
 21
41.03991529
 31
0.0
  0
LINE
  5
46E
100
AcDbEntity
  8
レイヤー_1
  6
CONTINUOUS
 62
       3
100
AcDbLine
 10
-79.215449
 20
35.61432054
 30
0.0
 11
-68.71953495
 21
41.92185974
 31
0.0
  0
LINE
  5
46F
100
AcDbEntity
  8
レイヤー_1
  6
CONTINUOUS
 62
       3
100
AcDbLine
 10
-79.215449
 20
35.61432054
 30
0.0
 11
-79.215449
 21
34.13077629
 31
0.0
  0
LINE
  5
470
100
AcDbEntity
  8
レイヤー_1
  6
CONTINUOUS
 62
       3
100
AcDbLine
 10
-68.71953495
 20
41.92185974
 30
0.0
 11
-68.71953495
 21
40.43831549
 31
0.0
  0
LINE
  5
471
100
AcDbEntity
  8
レイヤー_1
  6
CONTINUOUS
 62
       3
100
AcDbLine
 10
-65.72100997
 20
53.56455991
 30
0.0
 11
-65.72100997
 21
-61.41464061
 31
0.0
  0
LINE
  5
472
100
AcDbEntity
  8
レイヤー_1
  6
CONTINUOUS
 62
       3
100
AcDbLine
 10
-80.21495735
 20
-60.41556294
 30
0.0
 11
-65.72100997
 21
-60.41556294
 31
0.0
  0
LINE
  5
473
100
AcDbEntity
  8
レイヤー_1
  6
CONTINUOUS
 62
       3
100
AcDbLine
 10
-77.65826582
 20
45.76443311
 30
0.0
 11
-73.65161977
 21
39.09515889
 31
0.0
  0
LINE
  5
474
100
AcDbEntity
  8
レイヤー_1
  6
CONTINUOUS
 62
       3
100
AcDbLine
 10
-73.65161977
 20
39.09515889
 30
0.0
 11
-66.96899582
 21
43.11170959
 31
0.0
  0
LINE
  5
475
100
AcDbEntity
  8
レイヤー_1
  6
CONTINUOUS
 62
       3
100
AcDbLine
 10
-66.96899582
 20
43.11170959
 30
0.0
 11
-70.9747806
 21
49.78098381
 31
0.0
  0
LINE
  5
476
100
AcDbEntity
  8
レイヤー_1
  6
CONTINUOUS
 62
       3
100
AcDbLine
 10
-74.86041767
 20
38.23173184
 30
0.0
 11
-78.92735287
 21
45.00177509
 31
0.0
  0
LINE
  5
477
100
AcDbEntity
  8
レイヤー_1
  6
CONTINUOUS
 62
       3
100
AcDbLine
 10
-67.719596
 20
42.52259826
 30
0.0
 11
-66.72008767
 21
43.12333679
 31
0.0
  0
LINE
  5
478
100
AcDbEntity
  8
レイヤー_1
  6
CONTINUOUS
 62
       3
100
AcDbLine
 10
-66.72008767
 20
43.12333679
 30
0.0
 11
-67.719596
 21
51.73693676
 31
0.0
  0
LINE
  5
479
100
AcDbEntity
  8
レイヤー_1
  6
CONTINUOUS
 62
       3
100
AcDbLine
 10
-67.719596
 20
51.73693676
 30
0.0
 11
-80.21495735
 21
44.22748989
 31
0.0
  0
LINE
  5
47A
100
AcDbEntity
  8
レイヤー_1
  6
CONTINUOUS
 62
       3
100
AcDbLine
 10
-77.65826582
 20
35.06310526
 30
0.0
 11
-73.65161977
 21
28.39383104
 31
0.0
  0
LINE
  5
47B
100
AcDbEntity
  8
レイヤー_1
  6
CONTINUOUS
 62
       3
100
AcDbLine
 10
-73.65161977
 20
28.39383104
 30
0.0
 11
-66.96899582
 21
32.40995109
 31
0.0
  0
LINE
  5
47C
100
AcDbEntity
  8
レイヤー_1
  6
CONTINUOUS
 62
       3
100
AcDbLine
 10
-66.96899582
 20
32.40995109
 30
0.0
 11
-70.9747806
 21
39.08008659
 31
0.0
  0
LINE
  5
47D
100
AcDbEntity
  8
レイヤー_1
  6
CONTINUOUS
 62
       3
100
AcDbLine
 10
-74.86041767
 20
27.53040399
 30
0.0
 11
-78.92735287
 21
34.30001661
 31
0.0
  0
LINE
  5
47E
100
AcDbEntity
  8
レイヤー_1
  6
CONTINUOUS
 62
       3
100
AcDbLine
 10
-67.719596
 20
31.82083976
 30
0.0
 11
-66.72008767
 21
32.42157829
 31
0.0
  0
LINE
  5
47F
100
AcDbEntity
  8
レイヤー_1
  6
CONTINUOUS
 62
       3
100
AcDbLine
 10
-66.72008767
 20
32.42157829
 30
0.0
 11
-67.719596
 21
41.03647019
 31
0.0
  0
LINE
  5
480
100
AcDbEntity
  8
レイヤー_1
  6
CONTINUOUS
 62
       3
100
AcDbLine
 10
-67.719596
 20
41.03647019
 30
0.0
 11
-80.21495735
 21
33.52659266
 31
0.0
  0
LINE
  5
481
100
AcDbEntity
  8
レイヤー_1
  6
CONTINUOUS
 62
       3
100
AcDbLine
 10
-77.65826582
 20
24.36220804
 30
0.0
 11
-73.65161977
 21
17.69293381
 31
0.0
  0
LINE
  5
482
100
AcDbEntity
  8
レイヤー_1
  6
CONTINUOUS
 62
       3
100
AcDbLine
 10
-73.65161977
 20
17.69293381
 30
0.0
 11
-66.96899582
 21
21.70948451
 31
0.0
  0
LINE
  5
483
100
AcDbEntity
  8
レイヤー_1
  6
CONTINUOUS
 62
       3
100
AcDbLine
 10
-66.96899582
 20
21.70948451
 30
0.0
 11
-70.9747806
 21
28.37875874
 31
0.0
  0
LINE
  5
484
100
AcDbEntity
  8
レイヤー_1
  6
CONTINUOUS
 62
       3
100
AcDbLine
 10
-74.86041767
 20
16.82864549
 30
0.0
 11
-78.92735287
 21
23.59955004
 31
0.0
  0
LINE
  5
485
100
AcDbEntity
  8
レイヤー_1
  6
CONTINUOUS
 62
       3
100
AcDbLine
 10
-67.719596
 20
21.12037319
 30
0.0
 11
-66.72008767
 21
21.72111171
 31
0.0
  0
LINE
  5
486
100
AcDbEntity
  8
レイヤー_1
  6
CONTINUOUS
 62
       3
100
AcDbLine
 10
-66.72008767
 20
21.72111171
 30
0.0
 11
-67.719596
 21
30.33514234
 31
0.0
  0
LINE
  5
487
100
AcDbEntity
  8
レイヤー_1
  6
CONTINUOUS
 62
       3
100
AcDbLine
 10
-67.719596
 20
30.33514234
 30
0.0
 11
-80.21495735
 21
22.82612609
 31
0.0
  0
LINE
  5
488
100
AcDbEntity
  8
レイヤー_1
  6
CONTINUOUS
 62
       3
100
AcDbLine
 10
-77.65826582
 20
13.66088019
 30
0.0
 11
-73.65161977
 21
6.99160596
 31
0.0
  0
LINE
  5
489
100
AcDbEntity
  8
レイヤー_1
  6
CONTINUOUS
 62
       3
100
AcDbLine
 10
-73.65161977
 20
6.99160596
 30
0.0
 11
-66.96899582
 21
11.00815666
 31
0.0
  0
LINE
  5
48A
100
AcDbEntity
  8
レイヤー_1
  6
CONTINUOUS
 62
       3
100
AcDbLine
 10
-66.96899582
 20
11.00815666
 30
0.0
 11
-70.9747806
 21
17.67700026
 31
0.0
  0
LINE
  5
48B
100
AcDbEntity
  8
レイヤー_1
  6
CONTINUOUS
 62
       3
100
AcDbLine
 10
-74.86041767
 20
6.12817891
 30
0.0
 11
-78.92735287
 21
12.89865281
 31
0.0
  0
LINE
  5
48C
100
AcDbEntity
  8
レイヤー_1
  6
CONTINUOUS
 62
       3
100
AcDbLine
 10
-67.719596
 20
10.41990661
 30
0.0
 11
-66.72008767
 21
11.01935324
 31
0.0
  0
LINE
  5
48D
100
AcDbEntity
  8
レイヤー_1
  6
CONTINUOUS
 62
       3
100
AcDbLine
 10
-66.72008767
 20
11.01935324
 30
0.0
 11
-67.719596
 21
19.63338386
 31
0.0
  0
LINE
  5
48E
100
AcDbEntity
  8
レイヤー_1
  6
CONTINUOUS
 62
       3
100
AcDbLine
 10
-67.719596
 20
19.63338386
 30
0.0
 11
-80.21495735
 21
12.12436761
 31
0.0
  0
LINE
  5
48F
100
AcDbEntity
  8
レイヤー_1
  6
CONTINUOUS
 62
       3
100
AcDbLine
 10
-77.65826582
 20
2.96041361
 30
0.0
 11
-73.65161977
 21
-3.70972189
 31
0.0
  0
LINE
  5
490
100
AcDbEntity
  8
レイヤー_1
  6
CONTINUOUS
 62
       3
100
AcDbLine
 10
-73.65161977
 20
-3.70972189
 30
0.0
 11
-66.96899582
 21
0.30725946
 31
0.0
  0
LINE
  5
491
100
AcDbEntity
  8
レイヤー_1
  6
CONTINUOUS
 62
       3
100
AcDbLine
 10
-66.96899582
 20
0.30725946
 30
0.0
 11
-70.9747806
 21
6.97653369
 31
0.0
  0
LINE
  5
492
100
AcDbEntity
  8
レイヤー_1
  6
CONTINUOUS
 62
       3
100
AcDbLine
 10
-74.86041767
 20
-4.57314894
 30
0.0
 11
-78.92735287
 21
2.19732496
 31
0.0
  0
LINE
  5
493
100
AcDbEntity
  8
レイヤー_1
  6
CONTINUOUS
 62
       3
100
AcDbLine
 10
-67.719596
 20
-0.28185186
 30
0.0
 11
-66.72008767
 21
0.31888666
 31
0.0
  0
LINE
  5
494
100
AcDbEntity
  8
レイヤー_1
  6
CONTINUOUS
 62
       3
100
AcDbLine
 10
-66.72008767
 20
0.31888666
 30
0.0
 11
-67.719596
 21
8.93291729
 31
0.0
  0
LINE
  5
495
100
AcDbEntity
  8
レイヤー_1
  6
CONTINUOUS
 62
       3
100
AcDbLine
 10
-67.719596
 20
8.93291729
 30
0.0
 11
-80.21495735
 21
1.42303976
 31
0.0
  0
LINE
  5
496
100
AcDbEntity
  8
レイヤー_1
  6
CONTINUOUS
 62
       3
100
AcDbLine
 10
-77.65826582
 20
-7.74134486
 30
0.0
 11
-73.65161977
 21
-14.41061909
 31
0.0
  0
LINE
  5
497
100
AcDbEntity
  8
レイヤー_1
  6
CONTINUOUS
 62
       3
100
AcDbLine
 10
-73.65161977
 20
-14.41061909
 30
0.0
 11
-66.96899582
 21
-10.39406839
 31
0.0
  0
LINE
  5
498
100
AcDbEntity
  8
レイヤー_1
  6
CONTINUOUS
 62
       3
100
AcDbLine
 10
-66.96899582
 20
-10.39406839
 30
0.0
 11
-70.9747806
 21
-3.72479416
 31
0.0
  0
LINE
  5
499
100
AcDbEntity
  8
レイヤー_1
  6
CONTINUOUS
 62
       3
100
AcDbLine
 10
-74.86041767
 20
-15.27404616
 30
0.0
 11
-78.92735287
 21
-8.50400289
 31
0.0
  0
LINE
  5
49A
100
AcDbEntity
  8
レイヤー_1
  6
CONTINUOUS
 62
       3
100
AcDbLine
 10
-67.719596
 20
-10.98231846
 30
0.0
 11
-66.72008767
 21
-10.38287184
 31
0.0
  0
LINE
  5
49B
100
AcDbEntity
  8
レイヤー_1
  6
CONTINUOUS
 62
       3
100
AcDbLine
 10
-66.72008767
 20
-10.38287184
 30
0.0
 11
-67.719596
 21
-1.76884121
 31
0.0
  0
LINE
  5
49C
100
AcDbEntity
  8
レイヤー_1
  6
CONTINUOUS
 62
       3
100
AcDbLine
 10
-67.719596
 20
-1.76884121
 30
0.0
 11
-80.21495735
 21
-9.27742681
 31
0.0
  0
LINE
  5
49D
100
AcDbEntity
  8
レイヤー_1
  6
CONTINUOUS
 62
       3
100
AcDbLine
 10
-77.65826582
 20
-18.44181146
 30
0.0
 11
-73.65161977
 21
-25.11194694
 31
0.0
  0
LINE
  5
49E
100
AcDbEntity
  8
レイヤー_1
  6
CONTINUOUS
 62
       3
100
AcDbLine
 10
-73.65161977
 20
-25.11194694
 30
0.0
 11
-66.96899582
 21
-21.09582689
 31
0.0
  0
LINE
  5
49F
100
AcDbEntity
  8
レイヤー_1
  6
CONTINUOUS
 62
       3
100
AcDbLine
 10
-66.96899582
 20
-21.09582689
 30
0.0
 11
-70.9747806
 21
-14.42569139
 31
0.0
  0
LINE
  5
4A0
100
AcDbEntity
  8
レイヤー_1
  6
CONTINUOUS
 62
       3
100
AcDbLine
 10
-74.86041767
 20
-25.97451274
 30
0.0
 11
-78.92735287
 21
-19.20490011
 31
0.0
  0
LINE
  5
4A1
100
AcDbEntity
  8
レイヤー_1
  6
CONTINUOUS
 62
       3
100
AcDbLine
 10
-67.719596
 20
-21.68407694
 30
0.0
 11
-66.72008767
 21
-21.08419969
 31
0.0
  0
LINE
  5
4A2
100
AcDbEntity
  8
レイヤー_1
  6
CONTINUOUS
 62
       3
100
AcDbLine
 10
-66.72008767
 20
-21.08419969
 30
0.0
 11
-67.719596
 21
-12.46930779
 31
0.0
  0
LINE
  5
4A3
100
AcDbEntity
  8
レイヤー_1
  6
CONTINUOUS
 62
       3
100
AcDbLine
 10
-67.719596
 20
-12.46930779
 30
0.0
 11
-80.21495735
 21
-19.97918531
 31
0.0
  0
LINE
  5
4A4
100
AcDbEntity
  8
レイヤー_1
  6
CONTINUOUS
 62
       3
100
AcDbLine
 10
-77.65826582
 20
-29.14270866
 30
0.0
 11
-73.65161977
 21
-35.81370544
 31
0.0
  0
LINE
  5
4A5
100
AcDbEntity
  8
レイヤー_1
  6
CONTINUOUS
 62
       3
100
AcDbLine
 10
-73.65161977
 20
-35.81370544
 30
0.0
 11
-66.96899582
 21
-31.79629346
 31
0.0
  0
LINE
  5
4A6
100
AcDbEntity
  8
レイヤー_1
  6
CONTINUOUS
 62
       3
100
AcDbLine
 10
-66.96899582
 20
-31.79629346
 30
0.0
 11
-70.9747806
 21
-25.12701924
 31
0.0
  0
LINE
  5
4A7
100
AcDbEntity
  8
レイヤー_1
  6
CONTINUOUS
 62
       3
100
AcDbLine
 10
-74.86041767
 20
-36.67627121
 30
0.0
 11
-78.92735287
 21
-29.90622796
 31
0.0
  0
LINE
  5
4A8
100
AcDbEntity
  8
レイヤー_1
  6
CONTINUOUS
 62
       3
100
AcDbLine
 10
-67.719596
 20
-32.38540479
 30
0.0
 11
-66.72008767
 21
-31.78466626
 31
0.0
  0
LINE
  5
4A9
100
AcDbEntity
  8
レイヤー_1
  6
CONTINUOUS
 62
       3
100
AcDbLine
 10
-66.72008767
 20
-31.78466626
 30
0.0
 11
-67.719596
 21
-23.17020501
 31
0.0
  0
LINE
  5
4AA
100
AcDbEntity
  8
レイヤー_1
  6
CONTINUOUS
 62
       3
100
AcDbLine
 10
-67.719596
 20
-23.17020501
 30
0.0
 11
-80.21495735
 21
-30.67965189
 31
0.0
  0
LINE
  5
4AB
100
AcDbEntity
  8
レイヤー_1
  6
CONTINUOUS
 62
       3
100
AcDbLine
 10
-77.65826582
 20
-39.84403651
 30
0.0
 11
-73.65161977
 21
-46.51417201
 31
0.0
  0
LINE
  5
4AC
100
AcDbEntity
  8
レイヤー_1
  6
CONTINUOUS
 62
       3
100
AcDbLine
 10
-73.65161977
 20
-46.51417201
 30
0.0
 11
-66.96899582
 21
-42.49762131
 31
0.0
  0
LINE
  5
4AD
100
AcDbEntity
  8
レイヤー_1
  6
CONTINUOUS
 62
       3
100
AcDbLine
 10
-66.96899582
 20
-42.49762131
 30
0.0
 11
-70.9747806
 21
-35.82791646
 31
0.0
  0
LINE
  5
4AE
100
AcDbEntity
  8
レイヤー_1
  6
CONTINUOUS
 62
       3
100
AcDbLine
 10
-74.86041767
 20
-47.37759906
 30
0.0
 11
-78.92735287
 21
-40.60798644
 31
0.0
  0
LINE
  5
4AF
100
AcDbEntity
  8
レイヤー_1
  6
CONTINUOUS
 62
       3
100
AcDbLine
 10
-67.719596
 20
-43.08716329
 30
0.0
 11
-66.72008767
 21
-42.48556349
 31
0.0
  0
LINE
  5
4B0
100
AcDbEntity
  8
レイヤー_1
  6
CONTINUOUS
 62
       3
100
AcDbLine
 10
-66.72008767
 20
-42.48556349
 30
0.0
 11
-67.719596
 21
-33.87153286
 31
0.0
  0
LINE
  5
4B1
100
AcDbEntity
  8
レイヤー_1
  6
CONTINUOUS
 62
       3
100
AcDbLine
 10
-67.719596
 20
-33.87153286
 30
0.0
 11
-80.21495735
 21
-41.38141039
 31
0.0
  0
LINE
  5
4B2
100
AcDbEntity
  8
レイヤー_1
  6
CONTINUOUS
 62
       3
100
AcDbLine
 10
-77.65826582
 20
-50.54536436
 30
0.0
 11
-73.65161977
 21
-57.21506924
 31
0.0
  0
LINE
  5
4B3
100
AcDbEntity
  8
レイヤー_1
  6
CONTINUOUS
 62
       3
100
AcDbLine
 10
-73.65161977
 20
-57.21506924
 30
0.0
 11
-66.96899582
 21
-53.19937981
 31
0.0
  0
LINE
  5
4B4
100
AcDbEntity
  8
レイヤー_1
  6
CONTINUOUS
 62
       3
100
AcDbLine
 10
-66.96899582
 20
-53.19937981
 30
0.0
 11
-70.9747806
 21
-46.52838304
 31
0.0
  0
LINE
  5
4B5
100
AcDbEntity
  8
レイヤー_1
  6
CONTINUOUS
 62
       3
100
AcDbLine
 10
-74.86041767
 20
-58.07806564
 30
0.0
 11
-78.92735287
 21
-51.30845301
 31
0.0
  0
LINE
  5
4B6
100
AcDbEntity
  8
レイヤー_1
  6
CONTINUOUS
 62
       3
100
AcDbLine
 10
-67.719596
 20
-53.78762986
 30
0.0
 11
-66.72008767
 21
-53.18689134
 31
0.0
  0
LINE
  5
4B7
100
AcDbEntity
  8
レイヤー_1
  6
CONTINUOUS
 62
       3
100
AcDbLine
 10
-66.72008767
 20
-53.18689134
 30
0.0
 11
-67.719596
 21
-44.57286071
 31
0.0
  0
LINE
  5
4B8
100
AcDbEntity
  8
レイヤー_1
  6
CONTINUOUS
 62
       3
100
AcDbLine
 10
-67.719596
 20
-44.57286071
 30
0.0
 11
-80.21495735
 21
-52.08273824
 31
0.0
  0
LINE
  5
4B9
100
AcDbEntity
  8
レイヤー_1
  6
CONTINUOUS
 62
       3
100
AcDbLine
 10
25.03107875
 20
-64.94940016
 30
0.0
 11
107.89888338
 21
-64.94940016
 31
0.0
  0
LINE
  5
4BA
100
AcDbEntity
  8
レイヤー_1
  6
CONTINUOUS
 62
       3
100
AcDbLine
 10
6.1926727
 20
65.05059984
 30
0.0
 11
98.2069685
 21
65.05059984
 31
0.0
  0
LINE
  5
4BB
100
AcDbEntity
  8
レイヤー_1
  6
CONTINUOUS
 62
       3
100
AcDbLine
 10
4.6926727
 20
63.55059984
 30
0.0
 11
4.6926727
 21
56.66052952
 31
0.0
  0
LINE
  5
4BC
100
AcDbEntity
  8
レイヤー_1
  6
CONTINUOUS
 62
       3
100
AcDbLine
 10
-113.85204227
 20
-64.94940016
 30
0.0
 11
-63.35204227
 21
-64.94940016
 31
0.0
  0
LINE
  5
4BD
100
AcDbEntity
  8
レイヤー_1
  6
CONTINUOUS
 62
       3
100
AcDbLine
 10
-113.85204227
 20
65.05059984
 30
0.0
 11
-63.35204227
 21
65.05059984
 31
0.0
  0
LINE
  5
4BE
100
AcDbEntity
  8
レイヤー_1
  6
CONTINUOUS
 62
       3
100
AcDbLine
 10
-114.85204227
 20
64.05059984
 30
0.0
 11
-114.85204227
 21
-63.94940016
 31
0.0
  0
LINE
  5
4BF
100
AcDbEntity
  8
レイヤー_1
  6
CONTINUOUS
 62
       3
100
AcDbLine
 10
-62.35204227
 20
64.05059984
 30
0.0
 11
-62.35204227
 21
-63.94940016
 31
0.0
  0
ARC
  5
4C0
100
AcDbEntity
  8
レイヤー_1
  6
CONTINUOUS
 62
       3
100
AcDbCircle
 10
-113.85204227
 20
-63.94940016
 30
0.0
 40
1.0
100
AcDbArc
 50
180.0
 51
270.0
  0
ARC
  5
4C1
100
AcDbEntity
  8
レイヤー_1
  6
CONTINUOUS
 62
       3
100
AcDbCircle
 10
-63.35204227
 20
-63.94940016
 30
0.0
 40
1.0
100
AcDbArc
 50
270.0
 51
360.0
  0
ARC
  5
4C2
100
AcDbEntity
  8
レイヤー_1
  6
CONTINUOUS
 62
       3
100
AcDbCircle
 10
-63.35204227
 20
64.05059984
 30
0.0
 40
1.0
100
AcDbArc
 50
0.0
 51
90.0
  0
ARC
  5
4C3
100
AcDbEntity
  8
レイヤー_1
  6
CONTINUOUS
 62
       3
100
AcDbCircle
 10
-113.85204227
 20
64.05059984
 30
0.0
 40
1.0
100
AcDbArc
 50
90.0
 51
180.0
  0
ARC
  5
4C4
100
AcDbEntity
  8
レイヤー_1
  6
CONTINUOUS
 62
       3
100
AcDbCircle
 10
6.1926727
 20
63.55059984
 30
0.0
 40
1.5
100
AcDbArc
 50
90.0
 51
180.0
  0
ARC
  5
4C5
100
AcDbEntity
  8
レイヤー_1
  6
CONTINUOUS
 62
       3
100
AcDbCircle
 10
25.03107875
 20
-63.44940016
 30
0.0
 40
1.5
100
AcDbArc
 50
180.0
 51
270.0
  0
LINE
  5
4C6
100
AcDbEntity
  8
レイヤー_1
  6
CENTERX2
 62
       3
100
AcDbLine
 10
0.02260845
 20
0.05059984
 30
0.0
 11
120.00667145
 21
0.05059984
 31
0.0
  0
LINE
  5
4C7
100
AcDbEntity
  8
レイヤー_1
  6
CENTERX2
 62
       3
100
AcDbLine
 10
-88.60204227
 20
70.05063374
 30
0.0
 11
-88.60204227
 21
-70.05063374
 31
0.0
  0
LINE
  5
4C8
100
AcDbEntity
  8
レイヤー_1
  6
CENTERX2
 62
       3
100
AcDbLine
 10
-120.00667145
 20
0.05059984
 30
0.0
 11
-57.51651507
 21
0.05059984
 31
0.0
  0
TEXT
  5
4C9
100
AcDbEntity
  8
0
 62
       7
100
AcDbText
 10
80.98332558
 20
-88.24227469
 30
0.0
 40
5.0
  1
000
 41
0.8
 72
       5
 11
92.98332558
 21
-88.24227469
 31
0.0
100
AcDbText
  0
ENDSEC
  0
SECTION
  2
OBJECTS
  0
DICTIONARY
  5
19
100
AcDbDictionary
  3
ACAD_GROUP
350
1A
  3
ACAD_MLINESTYLE
350
1B
  0
DICTIONARY
  5
1A
102
{ACAD_REACTORS
330
19
102
}
100
AcDbDictionary
  0
DICTIONARY
  5
1B
102
{ACAD_REACTORS
330
19
102
}
100
AcDbDictionary
  3
STANDARD
350
1C
  0
MLINESTYLE
  5
1C
102
{ACAD_REACTORS
330
1B
102
}
100
AcDbMlineStyle
  2
STANDARD
 70
       0
  3

 62
       0
 51
90.0
 52
90.0
 71
       2
 49
0.5
 62
     256
  6
BYLAYER
 49
-0.5
 62
     256
  6
BYLAYER
  0
ENDSEC
  0
EOF
