  0
SECTION
  2
HEADER
  9
$ACADVER
  1
AC1014
  9
$ACADMAINTVER
 70
       0
  9
$DWGCODEPAGE
  3
ANSI_932
  9
$INSBASE
 10
0.0
 20
0.0
 30
0.0
  9
$EXTMIN
 10
-84.8905346
 20
-71.61967794
 30
0.0
  9
$EXTMAX
 10
104.76515996
 20
62.14268047
 30
0.0
  9
$LIMMIN
 10
-90.81727505
 20
-75.79975164
  9
$LIMMAX
 10
110.69190042
 20
66.32275417
  9
$ORTHOMODE
 70
       0
  9
$REGENMODE
 70
       1
  9
$FILLMODE
 70
       1
  9
$QTEXTMODE
 70
       0
  9
$MIRRTEXT
 70
       1
  9
$DRAGMODE
 70
       2
  9
$LTSCALE
 40
1.0
  9
$OSMODE
 70
       0
  9
$ATTMODE
 70
       1
  9
$TEXTSIZE
 40
0.2
  9
$TRACEWID
 40
0.05
  9
$TEXTSTYLE
  7
STANDARD
  9
$CLAYER
  8
0
  9
$CELTYPE
  6
CONTINUOUS
  9
$CECOLOR
 62
     256
  9
$CELTSCALE
 40
1.0
  9
$DELOBJ
 70
       1
  9
$DISPSILH
 70
       0
  9
$DIMSCALE
 40
1.0
  9
$DIMASZ
 40
0.18
  9
$DIMEXO
 40
0.0625
  9
$DIMDLI
 40
0.38
  9
$DIMRND
 40
0.0
  9
$DIMDLE
 40
0.0
  9
$DIMEXE
 40
0.18
  9
$DIMTP
 40
0.0
  9
$DIMTM
 40
0.0
  9
$DIMTXT
 40
0.18
  9
$DIMCEN
 40
0.09
  9
$DIMTSZ
 40
0.0
  9
$DIMTOL
 70
       0
  9
$DIMLIM
 70
       0
  9
$DIMTIH
 70
       1
  9
$DIMTOH
 70
       1
  9
$DIMSE1
 70
       0
  9
$DIMSE2
 70
       0
  9
$DIMTAD
 70
       0
  9
$DIMZIN
 70
       0
  9
$DIMBLK
  1

  9
$DIMASO
 70
       1
  9
$DIMSHO
 70
       1
  9
$DIMPOST
  1

  9
$DIMAPOST
  1

  9
$DIMALT
 70
       0
  9
$DIMALTD
 70
       2
  9
$DIMALTF
 40
25.4
  9
$DIMLFAC
 40
1.0
  9
$DIMTOFL
 70
       0
  9
$DIMTVP
 40
0.0
  9
$DIMTIX
 70
       0
  9
$DIMSOXD
 70
       0
  9
$DIMSAH
 70
       0
  9
$DIMBLK1
  1

  9
$DIMBLK2
  1

  9
$DIMSTYLE
  2
STANDARD
  9
$DIMCLRD
 70
       0
  9
$DIMCLRE
 70
       0
  9
$DIMCLRT
 70
       0
  9
$DIMTFAC
 40
1.0
  9
$DIMGAP
 40
0.09
  9
$DIMJUST
 70
       0
  9
$DIMSD1
 70
       0
  9
$DIMSD2
 70
       0
  9
$DIMTOLJ
 70
       1
  9
$DIMTZIN
 70
       0
  9
$DIMALTZ
 70
       0
  9
$DIMALTTZ
 70
       0
  9
$DIMFIT
 70
       3
  9
$DIMUPT
 70
       0
  9
$DIMUNIT
 70
       2
  9
$DIMDEC
 70
       4
  9
$DIMTDEC
 70
       4
  9
$DIMALTU
 70
       2
  9
$DIMALTTD
 70
       2
  9
$DIMTXSTY
  7
STANDARD
  9
$DIMAUNIT
 70
       0
  9
$LUNITS
 70
       2
  9
$LUPREC
 70
       4
  9
$SKETCHINC
 40
0.1
  9
$FILLETRAD
 40
0.0
  9
$AUNITS
 70
       0
  9
$AUPREC
 70
       0
  9
$MENU
  1
acad
  9
$ELEVATION
 40
0.0
  9
$PELEVATION
 40
0.0
  9
$THICKNESS
 40
0.0
  9
$LIMCHECK
 70
       0
  9
$BLIPMODE
 70
       1
  9
$CHAMFERA
 40
0.0
  9
$CHAMFERB
 40
0.0
  9
$CHAMFERC
 40
0.0
  9
$CHAMFERD
 40
0.0
  9
$SKPOLY
 70
       0
  9
$TDCREATE
 40
0.000000000
  9
$TDUPDATE
 40
0.000000000
  9
$TDINDWG
 40
0.0000000000
  9
$TDUSRTIMER
 40
0.0000000000
  9
$USRTIMER
 70
       1
  9
$ANGBASE
 50
0.0
  9
$ANGDIR
 70
       0
  9
$PDMODE
 70
       0
  9
$PDSIZE
 40
1.0
  9
$PLINEWID
 40
0.0
  9
$COORDS
 70
       1
  9
$SPLFRAME
 70
       0
  9
$SPLINETYPE
 70
       6
  9
$SPLINESEGS
 70
       8
  9
$ATTDIA
 70
       0
  9
$ATTREQ
 70
       1
  9
$HANDLING
 70
       1
  9
$HANDSEED
  5
2C1
  9
$SURFTAB1
 70
       6
  9
$SURFTAB2
 70
       6
  9
$SURFTYPE
 70
       6
  9
$SURFU
 70
       6
  9
$SURFV
 70
       6
  9
$UCSNAME
  2

  9
$UCSORG
 10
0.0
 20
0.0
 30
0.0
  9
$UCSXDIR
 10
1.0
 20
0.0
 30
0.0
  9
$UCSYDIR
 10
0.0
 20
1.0
 30
0.0
  9
$PUCSNAME
  2

  9
$PUCSORG
 10
0.0
 20
0.0
 30
0.0
  9
$PUCSXDIR
 10
1.0
 20
0.0
 30
0.0
  9
$PUCSYDIR
 10
0.0
 20
1.0
 30
0.0
  9
$USERI1
 70
       0
  9
$USERI2
 70
       0
  9
$USERI3
 70
       0
  9
$USERI4
 70
       0
  9
$USERI5
 70
       0
  9
$USERR1
 40
0.0
  9
$USERR2
 40
0.0
  9
$USERR3
 40
0.0
  9
$USERR4
 40
0.0
  9
$USERR5
 40
0.0
  9
$WORLDVIEW
 70
       1
  9
$SHADEDGE
 70
       3
  9
$SHADEDIF
 70
      70
  9
$TILEMODE
 70
       1
  9
$MAXACTVP
 70
      16
  9
$PINSBASE
 10
0.0
 20
0.0
 30
0.0
  9
$PLIMCHECK
 70
       0
  9
$PEXTMIN
 10
1.00000000E+20
 20
1.00000000E+20
 30
1.00000000E+20
  9
$PEXTMAX
 10
-1.00000000E+20
 20
-1.00000000E+20
 30
-1.00000000E+20
  9
$PLIMMIN
 10
0.0
 20
0.0
  9
$PLIMMAX
 10
12.0
 20
9.0
  9
$UNITMODE
 70
       0
  9
$VISRETAIN
 70
       0
  9
$PLINEGEN
 70
       1
  9
$PSLTSCALE
 70
       0
  9
$TREEDEPTH
 70
    3020
  9
$PICKSTYLE
 70
       1
  9
$CMLSTYLE
  2
STANDARD
  9
$CMLJUST
 70
       0
  9
$CMLSCALE
 40
1.0
  9
$PROXYGRAPHICS
 70
       0
  9
$MEASUREMENT
 70
       0
  0
ENDSEC
  0
SECTION
  2
CLASSES
  0
CLASS
  1
LWPOLYLINE
  2
AcDbPolyline
  3
"AutoCAD"
 90
        0
280
       0
281
       1
  0
CLASS
  1
IMAGE
  2
AcDbRasterImage
  3
ISM
 90
      127
280
       0
281
       1
  0
CLASS
  1
OLE2FRAME
  2
AcDbOle2Frame
  3
""
 90
        0
280
       0
281
       1
  0
CLASS
  1
HATCH
  2
AcDbHatch
  3
"ACAD_SEDONA"
 90
        0
280
       0
281
       1
  0
CLASS
  1
DICTIONARYVAR
  2
AcDbDictionaryVar
  3
"AutoCAD"
 90
        0
280
       0
281
       0
  0
CLASS
  1
RASTERVARIABLES
  2
AcDbRasterVariables
  3
ISM
 90
        0
280
       0
281
       0
  0
CLASS
  1
IMAGEDEF
  2
AcDbRasterImageDef
  3
ISM
 90
        0
280
       0
281
       0
  0
CLASS
  1
IMAGEDEF_REACTOR
  2
AcDbRasterImageDefReactor
  3
ISM
 90
        1
280
       0
281
       0
  0
CLASS
  1
IDBUFFER
  2
AcDbIdBuffer
  3
"Acad"
 90
        0
280
       0
281
       0
  0
CLASS
  1
SPATIAL_FILTER
  2
AcDbSpatialFilter
  3
"Acad"
 90
        0
280
       0
281
       0
  0
CLASS
  1
XRECORD
  2
AcDbXrecord
  3
"<Built In>"
 90
        0
280
       0
281
       0
  0
CLASS
  1
SORTENTSTABLE
  2
AcDbSortentsTable
  3
"AutoCAD"
 90
        0
280
       0
281
       0
  0
CLASS
  1
LAYER_INDEX
  2
AcDbLayerIndex
  3
"Acad"
 90
        0
280
       0
281
       0
  0
CLASS
  1
SPATIAL_INDEX
  2
AcDbSpatialIndex
  3
"Acad"
 90
        0
280
       0
281
       0
  0
CLASS
  1
OBJECT_PTR
  2
CAseDLPNTableRecord
  3
"ASE-LPNTableRecord"
 90
        1
280
       0
281
       0
  0
CLASS
  1
LAYOUT
  2
AcDbLayout
  3
"AutoCAD 2000"
 90
        1
280
       0
281
       0
  0
CLASS
  1
PLOTSETTINGS
  2
AcDbPlotSettings
  3
"AutoCAD 2000"
 90
        1
280
       0
281
       0
  0
CLASS
  1
ACDBDICTIONARYWDFLT
  2
AcDbDictionaryWithDefault
  3
"AutoCAD 2000"
 90
        1
280
       0
281
       0
  0
CLASS
  1
ACDBPLACEHOLDER
  2
AcDbPlaceHolder
  3
"AutoCAD 2000"
 90
        1
280
       0
281
       0
  0
CLASS
  1
VBA_PROJECT
  2
AcDbVbaProject
  3
"acadvba"
 90
        1
280
       0
281
       0
  0
CLASS
  1
WIPEOUT
  2
AcDbWipeout
  3
WipeOut|AutoCAD Express Tool|expresstools@autodesk.com
 90
      127
280
       0
281
       1
  0
CLASS
  1
WIPEOUTVARIABLES
  2
AcDbWipeoutVariables
  3
WipeOut|AutoCAD Express Tool|expresstools@autodesk.com
 90
        0
280
       0
281
       0
  0
CLASS
  1
RTEXT
  2
RText
  3
RText|AutoCAD Express Tool|expresstools@autodesk.com
 90
        0
280
       0
281
       1
  0
CLASS
  1
ARCALIGNEDTEXT
  2
AcDbArcAlignedText
  3
ATEXT|AutoCAD Express Tool|expresstools@autodesk.com
 90
        0
280
       0
281
       1
  0
ENDSEC
  0
SECTION
  2
TABLES
  0
TABLE
  2
VPORT
  5
7
100
AcDbSymbolTable
 70
       1
  0
VPORT
  5
15
100
AcDbSymbolTableRecord
100
AcDbViewportTableRecord
  2
*ACTIVE
 70
       0
 10
0.0
 20
0.0
 11
1.0
 21
1.0
 12
9.93731268
 22
-4.73849873
 13
0.0
 23
0.0
 14
1.0
 24
1.0
 15
0.0
 25
0.0
 16
0.0
 26
0.0
 36
1.0
 17
0.0
 27
0.0
 37
0.0
 40
142.12250581
 41
1.41785549
 42
50.0
 43
0.0
 44
0.0
 50
0.0
 51
0.0
 71
       0
 72
     100
 73
       1
 74
       1
 75
       0
 76
       0
 77
       0
 78
       0
  0
ENDTAB
  0
TABLE
  2
LTYPE
  5
4
100
AcDbSymbolTable
 70
      30
  0
LTYPE
  5
11
100
AcDbSymbolTableRecord
100
AcDbLinetypeTableRecord
  2
BYBLOCK
 70
      64
  3

 72
      65
 73
       0
 40
0.0
  0
LTYPE
  5
12
100
AcDbSymbolTableRecord
100
AcDbLinetypeTableRecord
  2
BYLAYER
 70
      64
  3

 72
      65
 73
       0
 40
0.0
  0
LTYPE
  5
13
100
AcDbSymbolTableRecord
100
AcDbLinetypeTableRecord
  2
CONTINUOUS
 70
      64
  3
Solid line
 72
      65
 73
       0
 40
0.0
  0
LTYPE
  5
1D
100
AcDbSymbolTableRecord
100
AcDbLinetypeTableRecord
  2
HIDDENX2
 70
      64
  3
CADPAC LINETYPE
 72
      65
 73
       2
 40
9.99859623
 49
7.49894717
 74
       0
 49
-2.49964906
 74
       0
  0
LTYPE
  5
1E
100
AcDbSymbolTableRecord
100
AcDbLinetypeTableRecord
  2
HIDDEN
 70
      64
  3
CADPAC LINETYPE
 72
      65
 73
       2
 40
7.49894717
 49
4.99929811
 74
       0
 49
-2.49964906
 74
       0
  0
LTYPE
  5
1F
100
AcDbSymbolTableRecord
100
AcDbLinetypeTableRecord
  2
HIDDEN2
 70
      64
  3
CADPAC LINETYPE
 72
      65
 73
       2
 40
6.24912264
 49
3.74947359
 74
       0
 49
-2.49964906
 74
       0
  0
LTYPE
  5
20
100
AcDbSymbolTableRecord
100
AcDbLinetypeTableRecord
  2
DASHED
 70
      64
  3
CADPAC LINETYPE
 72
      65
 73
       2
 40
7.49894717
 49
4.99929811
 74
       0
 49
-2.49964906
 74
       0
  0
LTYPE
  5
21
100
AcDbSymbolTableRecord
100
AcDbLinetypeTableRecord
  2
DASHED2
 70
      64
  3
CADPAC LINETYPE
 72
      65
 73
       2
 40
5.62421038
 49
3.74947359
 74
       0
 49
-1.87473679
 74
       0
  0
LTYPE
  5
22
100
AcDbSymbolTableRecord
100
AcDbLinetypeTableRecord
  2
DASHEDX2
 70
      64
  3
CADPAC LINETYPE
 72
      65
 73
       2
 40
11.24842076
 49
7.49894717
 74
       0
 49
-3.74947359
 74
       0
  0
LTYPE
  5
23
100
AcDbSymbolTableRecord
100
AcDbLinetypeTableRecord
  2
DOTX2
 70
      64
  3
CADPAC LINETYPE
 72
      65
 73
       2
 40
3.12456132
 49
0.0
 74
       0
 49
-3.12456132
 74
       0
  0
LTYPE
  5
24
100
AcDbSymbolTableRecord
100
AcDbLinetypeTableRecord
  2
DOT
 70
      64
  3
CADPAC LINETYPE
 72
      65
 73
       2
 40
2.49964906
 49
0.0
 74
       0
 49
-2.49964906
 74
       0
  0
LTYPE
  5
25
100
AcDbSymbolTableRecord
100
AcDbLinetypeTableRecord
  2
DOT2
 70
      64
  3
CADPAC LINETYPE
 72
      65
 73
       2
 40
1.87473679
 49
0.0
 74
       0
 49
-1.87473679
 74
       0
  0
LTYPE
  5
26
100
AcDbSymbolTableRecord
100
AcDbLinetypeTableRecord
  2
CENTERX2
 70
      64
  3
CADPAC LINETYPE
 72
      65
 73
       4
 40
14.99789434
 49
6.24912264
 74
       0
 49
-3.12456132
 74
       0
 49
2.49964906
 74
       0
 49
-3.12456132
 74
       0
  0
LTYPE
  5
27
100
AcDbSymbolTableRecord
100
AcDbLinetypeTableRecord
  2
CENTER
 70
      64
  3
CADPAC LINETYPE
 72
      65
 73
       4
 40
11.49838566
 49
4.99929811
 74
       0
 49
-2.49964906
 74
       0
 49
1.49978943
 74
       0
 49
-2.49964906
 74
       0
  0
LTYPE
  5
28
100
AcDbSymbolTableRecord
100
AcDbLinetypeTableRecord
  2
CENTER2
 70
      64
  3
CADPAC LINETYPE
 72
      65
 73
       4
 40
7.99887698
 49
3.74947359
 74
       0
 49
-1.87473679
 74
       0
 49
0.49992981
 74
       0
 49
-1.87473679
 74
       0
  0
LTYPE
  5
29
100
AcDbSymbolTableRecord
100
AcDbLinetypeTableRecord
  2
DASHDOTX2
 70
      64
  3
CADPAC LINETYPE
 72
      65
 73
       4
 40
12.49824529
 49
6.24912264
 74
       0
 49
-3.12456132
 74
       0
 49
0.0
 74
       0
 49
-3.12456132
 74
       0
  0
LTYPE
  5
2A
100
AcDbSymbolTableRecord
100
AcDbLinetypeTableRecord
  2
DASHDOT
 70
      64
  3
CADPAC LINETYPE
 72
      65
 73
       4
 40
9.99859623
 49
4.99929811
 74
       0
 49
-2.49964906
 74
       0
 49
0.0
 74
       0
 49
-2.49964906
 74
       0
  0
LTYPE
  5
2B
100
AcDbSymbolTableRecord
100
AcDbLinetypeTableRecord
  2
DASHDOT2
 70
      64
  3
CADPAC LINETYPE
 72
      65
 73
       4
 40
7.49894717
 49
3.74947359
 74
       0
 49
-1.87473679
 74
       0
 49
0.0
 74
       0
 49
-1.87473679
 74
       0
  0
LTYPE
  5
2C
100
AcDbSymbolTableRecord
100
AcDbLinetypeTableRecord
  2
DIVIDEX2
 70
      64
  3
CADPAC LINETYPE
 72
      65
 73
       6
 40
15.62280661
 49
6.24912264
 74
       0
 49
-3.12456132
 74
       0
 49
0.0
 74
       0
 49
-3.12456132
 74
       0
 49
0.0
 74
       0
 49
-3.12456132
 74
       0
  0
LTYPE
  5
2D
100
AcDbSymbolTableRecord
100
AcDbLinetypeTableRecord
  2
DIVIDE
 70
      64
  3
CADPAC LINETYPE
 72
      65
 73
       6
 40
12.49824529
 49
4.99929811
 74
       0
 49
-2.49964906
 74
       0
 49
0.0
 74
       0
 49
-2.49964906
 74
       0
 49
0.0
 74
       0
 49
-2.49964906
 74
       0
  0
LTYPE
  5
2E
100
AcDbSymbolTableRecord
100
AcDbLinetypeTableRecord
  2
DIVIDE2
 70
      64
  3
CADPAC LINETYPE
 72
      65
 73
       6
 40
9.37368396
 49
3.74947359
 74
       0
 49
-1.87473679
 74
       0
 49
0.0
 74
       0
 49
-1.87473679
 74
       0
 49
0.0
 74
       0
 49
-1.87473679
 74
       0
  0
LTYPE
  5
2F
100
AcDbSymbolTableRecord
100
AcDbLinetypeTableRecord
  2
BORDERX2
 70
      64
  3
CADPAC LINETYPE
 72
      65
 73
       6
 40
21.87192925
 49
6.24912264
 74
       0
 49
-3.12456132
 74
       0
 49
6.24912264
 74
       0
 49
-3.12456132
 74
       0
 49
0.0
 74
       0
 49
-3.12456132
 74
       0
  0
LTYPE
  5
30
100
AcDbSymbolTableRecord
100
AcDbLinetypeTableRecord
  2
BORDER
 70
      64
  3
CADPAC LINETYPE
 72
      65
 73
       6
 40
17.4975434
 49
4.99929811
 74
       0
 49
-2.49964906
 74
       0
 49
4.99929811
 74
       0
 49
-2.49964906
 74
       0
 49
0.0
 74
       0
 49
-2.49964906
 74
       0
  0
LTYPE
  5
31
100
AcDbSymbolTableRecord
100
AcDbLinetypeTableRecord
  2
BORDER2
 70
      64
  3
CADPAC LINETYPE
 72
      65
 73
       6
 40
13.12315755
 49
3.74947359
 74
       0
 49
-1.87473679
 74
       0
 49
3.74947359
 74
       0
 49
-1.87473679
 74
       0
 49
0.0
 74
       0
 49
-1.87473679
 74
       0
  0
LTYPE
  5
32
100
AcDbSymbolTableRecord
100
AcDbLinetypeTableRecord
  2
PHANTOMX2
 70
      64
  3
CADPAC LINETYPE
 72
      65
 73
       6
 40
18.74736793
 49
6.24912264
 74
       0
 49
-2.49964906
 74
       0
 49
2.49964906
 74
       0
 49
-2.49964906
 74
       0
 49
2.49964906
 74
       0
 49
-2.49964906
 74
       0
  0
LTYPE
  5
33
100
AcDbSymbolTableRecord
100
AcDbLinetypeTableRecord
  2
PHANTOM
 70
      64
  3
CADPAC LINETYPE
 72
      65
 73
       6
 40
15.49782416
 49
4.99929811
 74
       0
 49
-2.49964906
 74
       0
 49
1.49978943
 74
       0
 49
-2.49964906
 74
       0
 49
1.49978943
 74
       0
 49
-2.49964906
 74
       0
  0
LTYPE
  5
34
100
AcDbSymbolTableRecord
100
AcDbLinetypeTableRecord
  2
PHANTOM2
 70
      64
  3
CADPAC LINETYPE
 72
      65
 73
       6
 40
13.24814
 49
3.74947359
 74
       0
 49
-2.49964906
 74
       0
 49
0.99985962
 74
       0
 49
-2.49964906
 74
       0
 49
0.99985962
 74
       0
 49
-2.49964906
 74
       0
  0
LTYPE
  5
35
100
AcDbSymbolTableRecord
100
AcDbLinetypeTableRecord
  2
ACAD_ISO06W100
 70
      64
  3
CADPAC LINETYPE
 72
      65
 73
       8
 40
16.87263114
 49
6.24912264
 74
       0
 49
-3.12456132
 74
       0
 49
0.0
 74
       0
 49
-2.49964906
 74
       0
 49
0.0
 74
       0
 49
-2.49964906
 74
       0
 49
0.0
 74
       0
 49
-2.49964906
 74
       0
  0
LTYPE
  5
36
100
AcDbSymbolTableRecord
100
AcDbLinetypeTableRecord
  2
ACAD_ISO13W100
 70
      64
  3
CADPAC LINETYPE
 72
      65
 73
       8
 40
19.99719246
 49
4.99929811
 74
       0
 49
-2.49964906
 74
       0
 49
4.99929811
 74
       0
 49
-2.49964906
 74
       0
 49
0.0
 74
       0
 49
-2.49964906
 74
       0
 49
0.0
 74
       0
 49
-2.49964906
 74
       0
  0
LTYPE
  5
37
100
AcDbSymbolTableRecord
100
AcDbLinetypeTableRecord
  2
ACAD_ISO14W100
 70
      64
  3
CADPAC LINETYPE
 72
      65
 73
       8
 40
14.99789434
 49
4.99929811
 74
       0
 49
-2.49964906
 74
       0
 49
0.0
 74
       0
 49
-2.49964906
 74
       0
 49
0.0
 74
       0
 49
-2.49964906
 74
       0
 49
0.0
 74
       0
 49
-2.49964906
 74
       0
  0
ENDTAB
  0
TABLE
  2
LAYER
  5
2
100
AcDbSymbolTable
 70
       3
  0
LAYER
  5
14
100
AcDbSymbolTableRecord
100
AcDbLayerTableRecord
  2
0
 70
       0
 62
       7
  6
CONTINUOUS
  0
LAYER
  5
38
100
AcDbSymbolTableRecord
100
AcDbLayerTableRecord
  2
SLD-0_0
 70
       0
 62
       7
  6
CONTINUOUS
  0
LAYER
  5
39
100
AcDbSymbolTableRecord
100
AcDbLayerTableRecord
  2
SLD-0
 70
       0
 62
       7
  6
CONTINUOUS
  0
ENDTAB
  0
TABLE
  2
STYLE
  5
3
100
AcDbSymbolTable
 70
       1
  0
STYLE
  5
17
100
AcDbSymbolTableRecord
100
AcDbTextStyleTableRecord
  2
STANDARD
 70
       0
 40
0.0
 41
1.0
 50
0.0
 71
       0
 42
5.0
  3
txt.shx
  4
bigfont.shx
  0
ENDTAB
  0
TABLE
  2
VIEW
  5
5
100
AcDbSymbolTable
 70
       1
  0
VIEW
  5
3A
100
AcDbSymbolTableRecord
100
AcDbViewTableRecord
  2
QQQQ
 70
       0
 40
142.12250581
 10
9.93731268
 20
-4.73849873
 41
201.50917547
 11
0.0
 21
0.0
 31
1.0
 12
100.0
 22
100.0
 32
0.0
 42
50.0
 43
0.0
 44
0.0
 50
0.0
 71
       0
  0
ENDTAB
  0
TABLE
  2
UCS
  5
6
100
AcDbSymbolTable
 70
       0
  0
ENDTAB
  0
TABLE
  2
APPID
  5
8
100
AcDbSymbolTable
 70
       1
  0
APPID
  5
16
100
AcDbSymbolTableRecord
100
AcDbRegAppTableRecord
  2
ACAD
 70
       0
  0
ENDTAB
  0
TABLE
  2
DIMSTYLE
  5
9
100
AcDbSymbolTable
 70
       1
  0
DIMSTYLE
105
18
100
AcDbSymbolTableRecord
100
AcDbDimStyleTableRecord
  2
STANDARD
 70
       0
  3

  4

  5

  6

  7

 40
1.0
 41
0.18
 42
0.0625
 43
0.38
 44
0.18
 45
0.0
 46
0.0
 47
0.0
 48
0.0
 71
       0
 72
       0
 73
       1
 74
       1
 75
       0
 76
       0
 77
       0
 78
       0
140
0.18
141
0.09
142
0.0
143
25.4
144
1.0
145
0.0
146
1.0
147
0.09
170
       0
171
       2
172
       0
173
       0
174
       0
175
       0
176
       0
177
       0
178
       0
270
       2
271
       4
272
       4
273
       2
274
       2
275
       0
280
       0
281
       0
282
       0
283
       1
284
       0
285
       0
286
       0
287
       0
288
       0
340
17
  0
ENDTAB
  0
TABLE
  2
BLOCK_RECORD
  5
1
100
AcDbSymbolTable
 70
       0
  0
BLOCK_RECORD
  5
A
100
AcDbSymbolTableRecord
100
AcDbBlockTableRecord
  2
*MODEL_SPACE
  0
BLOCK_RECORD
  5
B
100
AcDbSymbolTableRecord
100
AcDbBlockTableRecord
  2
*PAPER_SPACE
  0
ENDTAB
  0
ENDSEC
  0
SECTION
  2
BLOCKS
  0
BLOCK
  5
D
100
AcDbEntity
  8
0
100
AcDbBlockBegin
  2
*MODEL_SPACE
 70
       0
 10
0.0
 20
0.0
 30
0.0
  3
*MODEL_SPACE
  1

  0
ENDBLK
  5
E
100
AcDbEntity
  8
0
100
AcDbBlockEnd
  0
BLOCK
  5
F
100
AcDbEntity
 67
       1
  8
0
100
AcDbBlockBegin
  2
*PAPER_SPACE
 70
       0
 10
0.0
 20
0.0
 30
0.0
  3
*PAPER_SPACE
  1

  0
ENDBLK
  5
10
100
AcDbEntity
 67
       1
  8
0
100
AcDbBlockEnd
  0
ENDSEC
  0
SECTION
  2
ENTITIES
  0
LINE
  5
3B
100
AcDbEntity
  8
SLD-0
  6
CONTINUOUS
 62
       3
100
AcDbLine
 10
-77.71016046
 20
51.37301936
 30
0.0
 11
-77.71016046
 21
-38.62698064
 31
0.0
  0
LINE
  5
3C
100
AcDbEntity
  8
SLD-0
  6
CONTINUOUS
 62
       3
100
AcDbLine
 10
-59.71016046
 20
51.37301936
 30
0.0
 11
-59.71016046
 21
-38.62698064
 31
0.0
  0
LINE
  5
3D
100
AcDbEntity
  8
SLD-0
  6
CONTINUOUS
 62
       3
100
AcDbLine
 10
-59.71016046
 20
51.37301936
 30
0.0
 11
-77.71016046
 21
51.37301936
 31
0.0
  0
LINE
  5
3E
100
AcDbEntity
  8
SLD-0
  6
CONTINUOUS
 62
       3
100
AcDbLine
 10
-59.71016046
 20
-38.62698064
 30
0.0
 11
-77.71016046
 21
-38.62698064
 31
0.0
  0
LINE
  5
3F
100
AcDbEntity
  8
SLD-0
  6
CONTINUOUS
 62
       3
100
AcDbLine
 10
-65.71016051
 20
56.97301936
 30
0.0
 11
-71.71016126
 21
56.97301936
 31
0.0
  0
LINE
  5
40
100
AcDbEntity
  8
SLD-0
  6
CONTINUOUS
 62
       3
100
AcDbLine
 10
-65.71016051
 20
56.97301936
 30
0.0
 11
-65.71016051
 21
51.37301936
 31
0.0
  0
LINE
  5
41
100
AcDbEntity
  8
SLD-0
  6
CONTINUOUS
 62
       3
100
AcDbLine
 10
-71.71016126
 20
51.37301936
 30
0.0
 11
-71.71016126
 21
56.97301936
 31
0.0
  0
LINE
  5
42
100
AcDbEntity
  8
SLD-0
  6
CONTINUOUS
 62
       3
100
AcDbLine
 10
-59.71016046
 20
49.37301926
 30
0.0
 11
-77.71016046
 21
49.37301926
 31
0.0
  0
LINE
  5
43
100
AcDbEntity
  8
SLD-0
  6
CONTINUOUS
 62
       3
100
AcDbLine
 10
93.79241079
 20
46.37301936
 30
0.0
 11
100.89276195
 21
46.37301936
 31
0.0
  0
LINE
  5
44
100
AcDbEntity
  8
SLD-0
  6
CONTINUOUS
 62
       3
100
AcDbLine
 10
98.69434316
 20
48.37302081
 30
0.0
 11
93.79241247
 21
48.37302081
 31
0.0
  0
LINE
  5
45
100
AcDbEntity
  8
SLD-0
  6
CONTINUOUS
 62
       3
100
AcDbLine
 10
98.69434316
 20
48.82961568
 30
0.0
 11
98.69434316
 21
48.37302081
 31
0.0
  0
LINE
  5
46
100
AcDbEntity
  8
SLD-0
  6
CONTINUOUS
 62
       3
100
AcDbLine
 10
101.11793507
 20
46.87122591
 30
0.0
 11
99.21949733
 21
49.02783255
 31
0.0
  0
LINE
  5
47
100
AcDbEntity
  8
SLD-0
  6
CONTINUOUS
 62
       3
100
AcDbLine
 10
74.44437058
 20
55.23050857
 30
0.0
 11
76.64535404
 21
51.41829123
 31
0.0
  0
LINE
  5
48
100
AcDbEntity
  8
SLD-0
  6
CONTINUOUS
 62
       3
100
AcDbLine
 10
76.64535404
 20
51.41829123
 30
0.0
 11
76.62268193
 21
51.37902033
 31
0.0
  0
LINE
  5
49
100
AcDbEntity
  8
SLD-0
  6
CONTINUOUS
 62
       3
100
AcDbLine
 10
74.16741387
 20
55.91965282
 30
0.0
 11
74.52405454
 21
55.30193542
 31
0.0
  0
LINE
  5
4A
100
AcDbEntity
  8
SLD-0
  6
CONTINUOUS
 62
       3
100
AcDbLine
 10
74.44437058
 20
55.23050857
 30
0.0
 11
74.52405454
 21
55.30193542
 31
0.0
  0
LINE
  5
4B
100
AcDbEntity
  8
SLD-0
  6
CONTINUOUS
 62
       3
100
AcDbLine
 10
71.49241329
 20
51.37301936
 30
0.0
 11
71.49241329
 21
51.47250694
 31
0.0
  0
LINE
  5
4C
100
AcDbEntity
  8
SLD-0
  6
CONTINUOUS
 62
       3
100
AcDbLine
 10
70.27029828
 20
53.66965524
 30
0.0
 11
71.45222486
 21
51.62250124
 31
0.0
  0
LINE
  5
4D
100
AcDbEntity
  8
SLD-0
  6
CONTINUOUS
 62
       3
100
AcDbLine
 10
72.86837534
 20
55.16965409
 30
0.0
 11
75.06036223
 21
51.37301936
 31
0.0
  0
LINE
  5
4E
100
AcDbEntity
  8
SLD-0
  6
CONTINUOUS
 62
       3
100
AcDbLine
 10
72.99241425
 20
51.37301936
 30
0.0
 11
72.99241425
 21
51.87443226
 31
0.0
  0
LINE
  5
4F
100
AcDbEntity
  8
SLD-0
  6
CONTINUOUS
 62
       3
100
AcDbLine
 10
72.95222415
 20
52.02442372
 30
0.0
 11
71.56933681
 21
54.41965397
 31
0.0
  0
LINE
  5
50
100
AcDbEntity
  8
SLD-0
  6
CONTINUOUS
 62
       3
100
AcDbLine
 10
84.39208777
 20
53.37939482
 30
0.0
 11
85.13049991
 21
53.6231394
 31
0.0
  0
LINE
  5
51
100
AcDbEntity
  8
SLD-0
  6
CONTINUOUS
 62
       3
100
AcDbLine
 10
84.0062967
 20
54.05455293
 30
0.0
 11
84.39208777
 21
53.37939482
 31
0.0
  0
LINE
  5
52
100
AcDbEntity
  8
SLD-0
  6
CONTINUOUS
 62
       3
100
AcDbLine
 10
86.54368878
 20
52.42169964
 30
0.0
 11
87.3035437
 21
52.58692395
 31
0.0
  0
LINE
  5
53
100
AcDbEntity
  8
SLD-0
  6
CONTINUOUS
 62
       3
100
AcDbLine
 10
86.23058558
 20
53.1334855
 30
0.0
 11
86.54368878
 21
52.42169964
 31
0.0
  0
LINE
  5
54
100
AcDbEntity
  8
SLD-0
  6
CONTINUOUS
 62
       3
100
AcDbLine
 10
85.48042388
 20
52.92871805
 30
0.0
 11
86.23058558
 21
53.1334855
 31
0.0
  0
LINE
  5
55
100
AcDbEntity
  8
SLD-0
  6
CONTINUOUS
 62
       3
100
AcDbLine
 10
85.13049991
 20
53.6231394
 30
0.0
 11
85.48042388
 21
52.92871805
 31
0.0
  0
LINE
  5
56
100
AcDbEntity
  8
SLD-0
  6
CONTINUOUS
 62
       3
100
AcDbLine
 10
82.15216012
 20
54.10693959
 30
0.0
 11
82.86106051
 21
54.42653528
 31
0.0
  0
LINE
  5
57
100
AcDbEntity
  8
SLD-0
  6
CONTINUOUS
 62
       3
100
AcDbLine
 10
81.69791312
 20
54.73807315
 30
0.0
 11
82.15216012
 21
54.10693959
 31
0.0
  0
LINE
  5
58
100
AcDbEntity
  8
SLD-0
  6
CONTINUOUS
 62
       3
100
AcDbLine
 10
83.28165323
 20
53.77249444
 30
0.0
 11
84.0062967
 21
54.05455293
 31
0.0
  0
LINE
  5
59
100
AcDbEntity
  8
SLD-0
  6
CONTINUOUS
 62
       3
100
AcDbLine
 10
82.86106051
 20
54.42653528
 30
0.0
 11
83.28165323
 21
53.77249444
 31
0.0
  0
LINE
  5
5A
100
AcDbEntity
  8
SLD-0
  6
CONTINUOUS
 62
       3
100
AcDbLine
 10
77.50621648
 20
54.84230282
 30
0.0
 11
78.13317538
 21
55.30230236
 31
0.0
  0
LINE
  5
5B
100
AcDbEntity
  8
SLD-0
  6
CONTINUOUS
 62
       3
100
AcDbLine
 10
76.93067775
 20
55.36520063
 30
0.0
 11
77.50621648
 21
54.84230282
 31
0.0
  0
LINE
  5
5C
100
AcDbEntity
  8
SLD-0
  6
CONTINUOUS
 62
       3
100
AcDbLine
 10
81.00671531
 20
54.38181363
 30
0.0
 11
81.69791312
 21
54.73807315
 31
0.0
  0
LINE
  5
5D
100
AcDbEntity
  8
SLD-0
  6
CONTINUOUS
 62
       3
100
AcDbLine
 10
80.52006573
 20
54.98830766
 30
0.0
 11
81.00671531
 21
54.38181363
 31
0.0
  0
LINE
  5
5E
100
AcDbEntity
  8
SLD-0
  6
CONTINUOUS
 62
       3
100
AcDbLine
 10
79.84845922
 20
54.59636311
 30
0.0
 11
80.52006573
 21
54.98830766
 31
0.0
  0
LINE
  5
5F
100
AcDbEntity
  8
SLD-0
  6
CONTINUOUS
 62
       3
100
AcDbLine
 10
79.33072955
 20
55.17655659
 30
0.0
 11
79.84845922
 21
54.59636311
 31
0.0
  0
LINE
  5
60
100
AcDbEntity
  8
SLD-0
  6
CONTINUOUS
 62
       3
100
AcDbLine
 10
76.32865594
 20
54.87301923
 30
0.0
 11
76.93067775
 21
55.36520063
 31
0.0
  0
LINE
  5
61
100
AcDbEntity
  8
SLD-0
  6
CONTINUOUS
 62
       3
100
AcDbLine
 10
75.72653727
 20
55.36507863
 30
0.0
 11
76.32865594
 21
54.87301923
 31
0.0
  0
LINE
  5
62
100
AcDbEntity
  8
SLD-0
  6
CONTINUOUS
 62
       3
100
AcDbLine
 10
78.68055836
 20
54.7499999
 30
0.0
 11
79.33072955
 21
55.17655659
 31
0.0
  0
LINE
  5
63
100
AcDbEntity
  8
SLD-0
  6
CONTINUOUS
 62
       3
100
AcDbLine
 10
78.13317538
 20
55.30230236
 30
0.0
 11
78.68055836
 21
54.7499999
 31
0.0
  0
LINE
  5
64
100
AcDbEntity
  8
SLD-0
  6
CONTINUOUS
 62
       3
100
AcDbLine
 10
75.15109913
 20
54.84206463
 30
0.0
 11
75.72653727
 21
55.36507863
 31
0.0
  0
LINE
  5
65
100
AcDbEntity
  8
SLD-0
  6
CONTINUOUS
 62
       3
100
AcDbLine
 10
74.52405454
 20
55.30193542
 30
0.0
 11
75.15109913
 21
54.84206463
 31
0.0
  0
LINE
  5
66
100
AcDbEntity
  8
SLD-0
  6
CONTINUOUS
 62
       3
100
AcDbLine
 10
87.3035437
 20
52.58692395
 30
0.0
 11
87.57896186
 21
51.85972921
 31
0.0
  0
LINE
  5
67
100
AcDbEntity
  8
SLD-0
  6
CONTINUOUS
 62
       3
100
AcDbLine
 10
88.34641636
 20
51.98495906
 30
0.0
 11
88.54222507
 21
51.37301939
 31
0.0
  0
LINE
  5
68
100
AcDbEntity
  8
SLD-0
  6
CONTINUOUS
 62
       3
100
AcDbLine
 10
87.57896186
 20
51.85972921
 30
0.0
 11
88.34641636
 21
51.98495906
 31
0.0
  0
LINE
  5
69
100
AcDbEntity
  8
SLD-0
  6
CONTINUOUS
 62
       3
100
AcDbLine
 10
3.79241433
 20
49.37301934
 30
0.0
 11
3.79241433
 21
-28.03387272
 31
0.0
  0
LINE
  5
6A
100
AcDbEntity
  8
SLD-0
  6
CONTINUOUS
 62
       3
100
AcDbLine
 10
17.2924143
 20
-38.62698422
 30
0.0
 11
17.2924143
 21
51.37301936
 31
0.0
  0
LINE
  5
6B
100
AcDbEntity
  8
SLD-0
  6
CONTINUOUS
 62
       3
100
AcDbLine
 10
16.31330649
 20
-38.626983
 30
0.0
 11
83.69241119
 21
-38.6271249
 31
0.0
  0
LINE
  5
6C
100
AcDbEntity
  8
SLD-0
  6
CONTINUOUS
 62
       3
100
AcDbLine
 10
83.69241119
 20
-38.6271249
 30
0.0
 11
83.69241426
 21
-32.62698064
 31
0.0
  0
LINE
  5
6D
100
AcDbEntity
  8
SLD-0
  6
CONTINUOUS
 62
       3
100
AcDbLine
 10
93.79241426
 20
-19.87511803
 30
0.0
 11
93.7924108
 21
41.97301949
 31
0.0
  0
LINE
  5
6E
100
AcDbEntity
  8
SLD-0
  6
CONTINUOUS
 62
       3
100
AcDbLine
 10
93.7924119
 20
-32.62697951
 30
0.0
 11
83.69241426
 21
-32.62698064
 31
0.0
  0
LINE
  5
6F
100
AcDbEntity
  8
SLD-0
  6
CONTINUOUS
 62
       3
100
AcDbLine
 10
83.77857736
 20
-31.12698392
 30
0.0
 11
95.29241404
 21
-31.12698392
 31
0.0
  0
LINE
  5
70
100
AcDbEntity
  8
SLD-0
  6
CONTINUOUS
 62
       3
100
AcDbLine
 10
95.29241404
 20
-31.12698392
 30
0.0
 11
95.29241404
 21
-32.62697951
 31
0.0
  0
LINE
  5
71
100
AcDbEntity
  8
SLD-0
  6
CONTINUOUS
 62
       3
100
AcDbLine
 10
98.29241446
 20
-32.62698064
 30
0.0
 11
98.29241267
 21
-27.24830107
 31
0.0
  0
LINE
  5
72
100
AcDbEntity
  8
SLD-0
  6
CONTINUOUS
 62
       3
100
AcDbLine
 10
98.29241267
 20
-27.24830107
 30
0.0
 11
91.63082621
 21
-20.58671461
 31
0.0
  0
LINE
  5
73
100
AcDbEntity
  8
SLD-0
  6
CONTINUOUS
 62
       3
100
AcDbLine
 10
93.19581411
 20
-20.03037975
 30
0.0
 11
99.79241661
 21
-26.62698225
 31
0.0
  0
LINE
  5
74
100
AcDbEntity
  8
SLD-0
  6
CONTINUOUS
 62
       3
100
AcDbLine
 10
99.79241661
 20
-26.62698225
 30
0.0
 11
99.79241661
 21
-32.62697951
 31
0.0
  0
LINE
  5
75
100
AcDbEntity
  8
SLD-0
  6
CONTINUOUS
 62
       3
100
AcDbLine
 10
93.7924108
 20
42.57301941
 30
0.0
 11
93.7924108
 21
41.97301949
 31
0.0
  0
LINE
  5
76
100
AcDbEntity
  8
SLD-0
  6
CONTINUOUS
 62
       3
100
AcDbLine
 10
5.79241425
 20
51.37301936
 30
0.0
 11
93.7924108
 21
51.37301936
 31
0.0
  0
LINE
  5
77
100
AcDbEntity
  8
SLD-0
  6
CONTINUOUS
 62
       3
100
AcDbLine
 10
93.7924108
 20
51.37301936
 30
0.0
 11
93.7924108
 21
42.57301941
 31
0.0
  0
LINE
  5
78
100
AcDbEntity
  8
SLD-0
  6
CONTINUOUS
 62
       3
100
AcDbLine
 10
83.09241593
 20
-37.92697982
 30
0.0
 11
82.99241424
 21
-37.92697982
 31
0.0
  0
LINE
  5
79
100
AcDbEntity
  8
SLD-0
  6
CONTINUOUS
 62
       3
100
AcDbLine
 10
18.29241425
 20
-38.62698422
 30
0.0
 11
18.29241425
 21
51.37301936
 31
0.0
  0
LINE
  5
7A
100
AcDbEntity
  8
SLD-0
  6
CONTINUOUS
 62
       3
100
AcDbLine
 10
98.99428863
 20
49.1296324
 30
0.0
 11
98.98380606
 21
49.12853778
 31
0.0
  0
LINE
  5
7B
100
AcDbEntity
  8
SLD-0
  6
CONTINUOUS
 62
       3
100
AcDbLine
 10
98.98380606
 20
49.12853778
 30
0.0
 11
98.97333598
 21
49.12739912
 31
0.0
  0
LINE
  5
7C
100
AcDbEntity
  8
SLD-0
  6
CONTINUOUS
 62
       3
100
AcDbLine
 10
98.97333598
 20
49.12739912
 30
0.0
 11
98.96289091
 21
49.12617238
 31
0.0
  0
LINE
  5
7D
100
AcDbEntity
  8
SLD-0
  6
CONTINUOUS
 62
       3
100
AcDbLine
 10
98.96289091
 20
49.12617238
 30
0.0
 11
98.95248335
 21
49.12481351
 31
0.0
  0
LINE
  5
7E
100
AcDbEntity
  8
SLD-0
  6
CONTINUOUS
 62
       3
100
AcDbLine
 10
98.95248335
 20
49.12481351
 30
0.0
 11
98.94212579
 21
49.12327849
 31
0.0
  0
LINE
  5
7F
100
AcDbEntity
  8
SLD-0
  6
CONTINUOUS
 62
       3
100
AcDbLine
 10
98.94212579
 20
49.12327849
 30
0.0
 11
98.93183074
 21
49.12152327
 31
0.0
  0
LINE
  5
80
100
AcDbEntity
  8
SLD-0
  6
CONTINUOUS
 62
       3
100
AcDbLine
 10
98.93183074
 20
49.12152327
 30
0.0
 11
98.9216107
 21
49.1195038
 31
0.0
  0
LINE
  5
81
100
AcDbEntity
  8
SLD-0
  6
CONTINUOUS
 62
       3
100
AcDbLine
 10
98.9216107
 20
49.1195038
 30
0.0
 11
98.91147818
 21
49.11717605
 31
0.0
  0
LINE
  5
82
100
AcDbEntity
  8
SLD-0
  6
CONTINUOUS
 62
       3
100
AcDbLine
 10
98.91147818
 20
49.11717605
 30
0.0
 11
98.90144567
 21
49.11449598
 31
0.0
  0
LINE
  5
83
100
AcDbEntity
  8
SLD-0
  6
CONTINUOUS
 62
       3
100
AcDbLine
 10
98.90144567
 20
49.11449598
 30
0.0
 11
98.89152567
 21
49.11141955
 31
0.0
  0
LINE
  5
84
100
AcDbEntity
  8
SLD-0
  6
CONTINUOUS
 62
       3
100
AcDbLine
 10
98.89152567
 20
49.11141955
 30
0.0
 11
98.88173062
 21
49.10790836
 31
0.0
  0
LINE
  5
85
100
AcDbEntity
  8
SLD-0
  6
CONTINUOUS
 62
       3
100
AcDbLine
 10
98.88173062
 20
49.10790836
 30
0.0
 11
98.87207242
 21
49.10396449
 31
0.0
  0
LINE
  5
86
100
AcDbEntity
  8
SLD-0
  6
CONTINUOUS
 62
       3
100
AcDbLine
 10
98.87207242
 20
49.10396449
 30
0.0
 11
98.86256274
 21
49.09960765
 31
0.0
  0
LINE
  5
87
100
AcDbEntity
  8
SLD-0
  6
CONTINUOUS
 62
       3
100
AcDbLine
 10
98.86256274
 20
49.09960765
 30
0.0
 11
98.85321324
 21
49.09485763
 31
0.0
  0
LINE
  5
88
100
AcDbEntity
  8
SLD-0
  6
CONTINUOUS
 62
       3
100
AcDbLine
 10
98.85321324
 20
49.09485763
 30
0.0
 11
98.84403561
 21
49.08973421
 31
0.0
  0
LINE
  5
89
100
AcDbEntity
  8
SLD-0
  6
CONTINUOUS
 62
       3
100
AcDbLine
 10
98.84403561
 20
49.08973421
 30
0.0
 11
98.83504151
 21
49.08425718
 31
0.0
  0
LINE
  5
8A
100
AcDbEntity
  8
SLD-0
  6
CONTINUOUS
 62
       3
100
AcDbLine
 10
98.83504151
 20
49.08425718
 30
0.0
 11
98.82624262
 21
49.07844633
 31
0.0
  0
LINE
  5
8B
100
AcDbEntity
  8
SLD-0
  6
CONTINUOUS
 62
       3
100
AcDbLine
 10
98.82624262
 20
49.07844633
 30
0.0
 11
98.8176506
 21
49.07232144
 31
0.0
  0
LINE
  5
8C
100
AcDbEntity
  8
SLD-0
  6
CONTINUOUS
 62
       3
100
AcDbLine
 10
98.8176506
 20
49.07232144
 30
0.0
 11
98.80927713
 21
49.06590229
 31
0.0
  0
LINE
  5
8D
100
AcDbEntity
  8
SLD-0
  6
CONTINUOUS
 62
       3
100
AcDbLine
 10
98.80927713
 20
49.06590229
 30
0.0
 11
98.80113387
 21
49.05920869
 31
0.0
  0
LINE
  5
8E
100
AcDbEntity
  8
SLD-0
  6
CONTINUOUS
 62
       3
100
AcDbLine
 10
98.80113387
 20
49.05920869
 30
0.0
 11
98.7932325
 21
49.0522604
 31
0.0
  0
LINE
  5
8F
100
AcDbEntity
  8
SLD-0
  6
CONTINUOUS
 62
       3
100
AcDbLine
 10
98.7932325
 20
49.0522604
 30
0.0
 11
98.78558417
 21
49.0450747
 31
0.0
  0
LINE
  5
90
100
AcDbEntity
  8
SLD-0
  6
CONTINUOUS
 62
       3
100
AcDbLine
 10
98.78558417
 20
49.0450747
 30
0.0
 11
98.77819741
 21
49.03765656
 31
0.0
  0
LINE
  5
91
100
AcDbEntity
  8
SLD-0
  6
CONTINUOUS
 62
       3
100
AcDbLine
 10
98.77819741
 20
49.03765656
 30
0.0
 11
98.77108
 21
49.03000721
 31
0.0
  0
LINE
  5
92
100
AcDbEntity
  8
SLD-0
  6
CONTINUOUS
 62
       3
100
AcDbLine
 10
98.77108
 20
49.03000721
 30
0.0
 11
98.7642397
 21
49.02212787
 31
0.0
  0
LINE
  5
93
100
AcDbEntity
  8
SLD-0
  6
CONTINUOUS
 62
       3
100
AcDbLine
 10
98.7642397
 20
49.02212787
 30
0.0
 11
98.75768428
 21
49.01401977
 31
0.0
  0
LINE
  5
94
100
AcDbEntity
  8
SLD-0
  6
CONTINUOUS
 62
       3
100
AcDbLine
 10
98.75768428
 20
49.01401977
 30
0.0
 11
98.75142148
 21
49.00568415
 31
0.0
  0
LINE
  5
95
100
AcDbEntity
  8
SLD-0
  6
CONTINUOUS
 62
       3
100
AcDbLine
 10
98.75142148
 20
49.00568415
 30
0.0
 11
98.74545716
 21
48.9971257
 31
0.0
  0
LINE
  5
96
100
AcDbEntity
  8
SLD-0
  6
CONTINUOUS
 62
       3
100
AcDbLine
 10
98.74545716
 20
48.9971257
 30
0.0
 11
98.73979308
 21
48.98835651
 31
0.0
  0
LINE
  5
97
100
AcDbEntity
  8
SLD-0
  6
CONTINUOUS
 62
       3
100
AcDbLine
 10
98.73979308
 20
48.98835651
 30
0.0
 11
98.73443044
 21
48.97938963
 31
0.0
  0
LINE
  5
98
100
AcDbEntity
  8
SLD-0
  6
CONTINUOUS
 62
       3
100
AcDbLine
 10
98.73443044
 20
48.97938963
 30
0.0
 11
98.72937047
 21
48.97023815
 31
0.0
  0
LINE
  5
99
100
AcDbEntity
  8
SLD-0
  6
CONTINUOUS
 62
       3
100
AcDbLine
 10
98.72937047
 20
48.97023815
 30
0.0
 11
98.72461438
 21
48.96091512
 31
0.0
  0
LINE
  5
9A
100
AcDbEntity
  8
SLD-0
  6
CONTINUOUS
 62
       3
100
AcDbLine
 10
98.72461438
 20
48.96091512
 30
0.0
 11
98.7201635
 21
48.95143361
 31
0.0
  0
LINE
  5
9B
100
AcDbEntity
  8
SLD-0
  6
CONTINUOUS
 62
       3
100
AcDbLine
 10
98.7201635
 20
48.95143361
 30
0.0
 11
98.71602759
 21
48.94180609
 31
0.0
  0
LINE
  5
9C
100
AcDbEntity
  8
SLD-0
  6
CONTINUOUS
 62
       3
100
AcDbLine
 10
98.71602759
 20
48.94180609
 30
0.0
 11
98.71223011
 21
48.93204417
 31
0.0
  0
LINE
  5
9D
100
AcDbEntity
  8
SLD-0
  6
CONTINUOUS
 62
       3
100
AcDbLine
 10
98.71223011
 20
48.93204417
 30
0.0
 11
98.7087958
 21
48.92215932
 31
0.0
  0
LINE
  5
9E
100
AcDbEntity
  8
SLD-0
  6
CONTINUOUS
 62
       3
100
AcDbLine
 10
98.7087958
 20
48.92215932
 30
0.0
 11
98.70574939
 21
48.91216305
 31
0.0
  0
LINE
  5
9F
100
AcDbEntity
  8
SLD-0
  6
CONTINUOUS
 62
       3
100
AcDbLine
 10
98.70574939
 20
48.91216305
 30
0.0
 11
98.70311561
 21
48.90206684
 31
0.0
  0
LINE
  5
A0
100
AcDbEntity
  8
SLD-0
  6
CONTINUOUS
 62
       3
100
AcDbLine
 10
98.70311561
 20
48.90206684
 30
0.0
 11
98.70091895
 21
48.8918822
 31
0.0
  0
LINE
  5
A1
100
AcDbEntity
  8
SLD-0
  6
CONTINUOUS
 62
       3
100
AcDbLine
 10
98.70091895
 20
48.8918822
 30
0.0
 11
98.69915348
 21
48.88162102
 31
0.0
  0
LINE
  5
A2
100
AcDbEntity
  8
SLD-0
  6
CONTINUOUS
 62
       3
100
AcDbLine
 10
98.69915348
 20
48.88162102
 30
0.0
 11
98.69775319
 21
48.87129598
 31
0.0
  0
LINE
  5
A3
100
AcDbEntity
  8
SLD-0
  6
CONTINUOUS
 62
       3
100
AcDbLine
 10
98.69775319
 20
48.87129598
 30
0.0
 11
98.69664506
 21
48.86091985
 31
0.0
  0
LINE
  5
A4
100
AcDbEntity
  8
SLD-0
  6
CONTINUOUS
 62
       3
100
AcDbLine
 10
98.69664506
 20
48.86091985
 30
0.0
 11
98.69575603
 21
48.8505054
 31
0.0
  0
LINE
  5
A5
100
AcDbEntity
  8
SLD-0
  6
CONTINUOUS
 62
       3
100
AcDbLine
 10
98.69575603
 20
48.8505054
 30
0.0
 11
98.69501308
 21
48.84006541
 31
0.0
  0
LINE
  5
A6
100
AcDbEntity
  8
SLD-0
  6
CONTINUOUS
 62
       3
100
AcDbLine
 10
98.69501308
 20
48.84006541
 30
0.0
 11
98.69434316
 21
48.82961568
 31
0.0
  0
LINE
  5
A7
100
AcDbEntity
  8
SLD-0
  6
CONTINUOUS
 62
       3
100
AcDbLine
 10
98.99428863
 20
49.1296324
 30
0.0
 11
99.00156913
 21
49.12918228
 31
0.0
  0
LINE
  5
A8
100
AcDbEntity
  8
SLD-0
  6
CONTINUOUS
 62
       3
100
AcDbLine
 10
99.00156913
 20
49.12918228
 30
0.0
 11
99.00884508
 21
49.12870672
 31
0.0
  0
LINE
  5
A9
100
AcDbEntity
  8
SLD-0
  6
CONTINUOUS
 62
       3
100
AcDbLine
 10
99.00884508
 20
49.12870672
 30
0.0
 11
99.01611197
 21
49.12818027
 31
0.0
  0
LINE
  5
AA
100
AcDbEntity
  8
SLD-0
  6
CONTINUOUS
 62
       3
100
AcDbLine
 10
99.01611197
 20
49.12818027
 30
0.0
 11
99.02336525
 21
49.12757748
 31
0.0
  0
LINE
  5
AB
100
AcDbEntity
  8
SLD-0
  6
CONTINUOUS
 62
       3
100
AcDbLine
 10
99.02336525
 20
49.12757748
 30
0.0
 11
99.03060039
 21
49.1268729
 31
0.0
  0
LINE
  5
AC
100
AcDbEntity
  8
SLD-0
  6
CONTINUOUS
 62
       3
100
AcDbLine
 10
99.03060039
 20
49.1268729
 30
0.0
 11
99.03781286
 21
49.12604109
 31
0.0
  0
LINE
  5
AD
100
AcDbEntity
  8
SLD-0
  6
CONTINUOUS
 62
       3
100
AcDbLine
 10
99.03781286
 20
49.12604109
 30
0.0
 11
99.04499812
 21
49.1250566
 31
0.0
  0
LINE
  5
AE
100
AcDbEntity
  8
SLD-0
  6
CONTINUOUS
 62
       3
100
AcDbLine
 10
99.04499812
 20
49.1250566
 30
0.0
 11
99.05215164
 21
49.12389399
 31
0.0
  0
LINE
  5
AF
100
AcDbEntity
  8
SLD-0
  6
CONTINUOUS
 62
       3
100
AcDbLine
 10
99.05215164
 20
49.12389399
 30
0.0
 11
99.05926888
 21
49.12252789
 31
0.0
  0
LINE
  5
B0
100
AcDbEntity
  8
SLD-0
  6
CONTINUOUS
 62
       3
100
AcDbLine
 10
99.05926888
 20
49.12252789
 30
0.0
 11
99.06634588
 21
49.12094394
 31
0.0
  0
LINE
  5
B1
100
AcDbEntity
  8
SLD-0
  6
CONTINUOUS
 62
       3
100
AcDbLine
 10
99.06634588
 20
49.12094394
 30
0.0
 11
99.07337981
 21
49.11914908
 31
0.0
  0
LINE
  5
B2
100
AcDbEntity
  8
SLD-0
  6
CONTINUOUS
 62
       3
100
AcDbLine
 10
99.07337981
 20
49.11914908
 30
0.0
 11
99.08036793
 21
49.1171527
 31
0.0
  0
LINE
  5
B3
100
AcDbEntity
  8
SLD-0
  6
CONTINUOUS
 62
       3
100
AcDbLine
 10
99.08036793
 20
49.1171527
 30
0.0
 11
99.08730752
 21
49.11496419
 31
0.0
  0
LINE
  5
B4
100
AcDbEntity
  8
SLD-0
  6
CONTINUOUS
 62
       3
100
AcDbLine
 10
99.08730752
 20
49.11496419
 30
0.0
 11
99.09419587
 21
49.11259295
 31
0.0
  0
LINE
  5
B5
100
AcDbEntity
  8
SLD-0
  6
CONTINUOUS
 62
       3
100
AcDbLine
 10
99.09419587
 20
49.11259295
 30
0.0
 11
99.10103025
 21
49.11004836
 31
0.0
  0
LINE
  5
B6
100
AcDbEntity
  8
SLD-0
  6
CONTINUOUS
 62
       3
100
AcDbLine
 10
99.10103025
 20
49.11004836
 30
0.0
 11
99.10780793
 21
49.10733982
 31
0.0
  0
LINE
  5
B7
100
AcDbEntity
  8
SLD-0
  6
CONTINUOUS
 62
       3
100
AcDbLine
 10
99.10780793
 20
49.10733982
 30
0.0
 11
99.11452621
 21
49.10447672
 31
0.0
  0
LINE
  5
B8
100
AcDbEntity
  8
SLD-0
  6
CONTINUOUS
 62
       3
100
AcDbLine
 10
99.11452621
 20
49.10447672
 30
0.0
 11
99.12118222
 21
49.10146817
 31
0.0
  0
LINE
  5
B9
100
AcDbEntity
  8
SLD-0
  6
CONTINUOUS
 62
       3
100
AcDbLine
 10
99.12118222
 20
49.10146817
 30
0.0
 11
99.12777018
 21
49.09831678
 31
0.0
  0
LINE
  5
BA
100
AcDbEntity
  8
SLD-0
  6
CONTINUOUS
 62
       3
100
AcDbLine
 10
99.12777018
 20
49.09831678
 30
0.0
 11
99.13428138
 21
49.09501867
 31
0.0
  0
LINE
  5
BB
100
AcDbEntity
  8
SLD-0
  6
CONTINUOUS
 62
       3
100
AcDbLine
 10
99.13428138
 20
49.09501867
 30
0.0
 11
99.14070695
 21
49.09156968
 31
0.0
  0
LINE
  5
BC
100
AcDbEntity
  8
SLD-0
  6
CONTINUOUS
 62
       3
100
AcDbLine
 10
99.14070695
 20
49.09156968
 30
0.0
 11
99.14703805
 21
49.08796564
 31
0.0
  0
LINE
  5
BD
100
AcDbEntity
  8
SLD-0
  6
CONTINUOUS
 62
       3
100
AcDbLine
 10
99.14703805
 20
49.08796564
 30
0.0
 11
99.15326582
 21
49.08420237
 31
0.0
  0
LINE
  5
BE
100
AcDbEntity
  8
SLD-0
  6
CONTINUOUS
 62
       3
100
AcDbLine
 10
99.15326582
 20
49.08420237
 30
0.0
 11
99.15938142
 21
49.08027572
 31
0.0
  0
LINE
  5
BF
100
AcDbEntity
  8
SLD-0
  6
CONTINUOUS
 62
       3
100
AcDbLine
 10
99.15938142
 20
49.08027572
 30
0.0
 11
99.165376
 21
49.07618151
 31
0.0
  0
LINE
  5
C0
100
AcDbEntity
  8
SLD-0
  6
CONTINUOUS
 62
       3
100
AcDbLine
 10
99.165376
 20
49.07618151
 30
0.0
 11
99.17124069
 21
49.07191558
 31
0.0
  0
LINE
  5
C1
100
AcDbEntity
  8
SLD-0
  6
CONTINUOUS
 62
       3
100
AcDbLine
 10
99.17124069
 20
49.07191558
 30
0.0
 11
99.17696842
 21
49.06747548
 31
0.0
  0
LINE
  5
C2
100
AcDbEntity
  8
SLD-0
  6
CONTINUOUS
 62
       3
100
AcDbLine
 10
99.17696842
 20
49.06747548
 30
0.0
 11
99.18256734
 21
49.06287368
 31
0.0
  0
LINE
  5
C3
100
AcDbEntity
  8
SLD-0
  6
CONTINUOUS
 62
       3
100
AcDbLine
 10
99.18256734
 20
49.06287368
 30
0.0
 11
99.18805352
 21
49.05813034
 31
0.0
  0
LINE
  5
C4
100
AcDbEntity
  8
SLD-0
  6
CONTINUOUS
 62
       3
100
AcDbLine
 10
99.18805352
 20
49.05813034
 30
0.0
 11
99.19344305
 21
49.05326567
 31
0.0
  0
LINE
  5
C5
100
AcDbEntity
  8
SLD-0
  6
CONTINUOUS
 62
       3
100
AcDbLine
 10
99.19344305
 20
49.05326567
 30
0.0
 11
99.19875204
 21
49.04829991
 31
0.0
  0
LINE
  5
C6
100
AcDbEntity
  8
SLD-0
  6
CONTINUOUS
 62
       3
100
AcDbLine
 10
99.19875204
 20
49.04829991
 30
0.0
 11
99.2039966
 21
49.04325326
 31
0.0
  0
LINE
  5
C7
100
AcDbEntity
  8
SLD-0
  6
CONTINUOUS
 62
       3
100
AcDbLine
 10
99.2039966
 20
49.04325326
 30
0.0
 11
99.20919284
 21
49.03814595
 31
0.0
  0
LINE
  5
C8
100
AcDbEntity
  8
SLD-0
  6
CONTINUOUS
 62
       3
100
AcDbLine
 10
99.20919284
 20
49.03814595
 30
0.0
 11
99.21435687
 21
49.03299819
 31
0.0
  0
LINE
  5
C9
100
AcDbEntity
  8
SLD-0
  6
CONTINUOUS
 62
       3
100
AcDbLine
 10
99.21435687
 20
49.03299819
 30
0.0
 11
99.21949733
 21
49.02783255
 31
0.0
  0
LINE
  5
CA
100
AcDbEntity
  8
SLD-0
  6
CONTINUOUS
 62
       3
100
AcDbLine
 10
71.49241329
 20
51.47250694
 30
0.0
 11
71.49198788
 21
51.47882344
 31
0.0
  0
LINE
  5
CB
100
AcDbEntity
  8
SLD-0
  6
CONTINUOUS
 62
       3
100
AcDbLine
 10
71.49198788
 20
51.47882344
 30
0.0
 11
71.4915473
 21
51.48513588
 31
0.0
  0
LINE
  5
CC
100
AcDbEntity
  8
SLD-0
  6
CONTINUOUS
 62
       3
100
AcDbLine
 10
71.4915473
 20
51.48513588
 30
0.0
 11
71.4910764
 21
51.4914402
 31
0.0
  0
LINE
  5
CD
100
AcDbEntity
  8
SLD-0
  6
CONTINUOUS
 62
       3
100
AcDbLine
 10
71.4910764
 20
51.4914402
 30
0.0
 11
71.49056
 21
51.49773232
 31
0.0
  0
LINE
  5
CE
100
AcDbEntity
  8
SLD-0
  6
CONTINUOUS
 62
       3
100
AcDbLine
 10
71.49056
 20
51.49773232
 30
0.0
 11
71.48998296
 21
51.5040082
 31
0.0
  0
LINE
  5
CF
100
AcDbEntity
  8
SLD-0
  6
CONTINUOUS
 62
       3
100
AcDbLine
 10
71.48998296
 20
51.5040082
 30
0.0
 11
71.48933009
 21
51.51026376
 31
0.0
  0
LINE
  5
D0
100
AcDbEntity
  8
SLD-0
  6
CONTINUOUS
 62
       3
100
AcDbLine
 10
71.48933009
 20
51.51026376
 30
0.0
 11
71.48858624
 21
51.51649494
 31
0.0
  0
LINE
  5
D1
100
AcDbEntity
  8
SLD-0
  6
CONTINUOUS
 62
       3
100
AcDbLine
 10
71.48858624
 20
51.51649494
 30
0.0
 11
71.48773625
 21
51.52269769
 31
0.0
  0
LINE
  5
D2
100
AcDbEntity
  8
SLD-0
  6
CONTINUOUS
 62
       3
100
AcDbLine
 10
71.48773625
 20
51.52269769
 30
0.0
 11
71.48676495
 21
51.52886793
 31
0.0
  0
LINE
  5
D3
100
AcDbEntity
  8
SLD-0
  6
CONTINUOUS
 62
       3
100
AcDbLine
 10
71.48676495
 20
51.52886793
 30
0.0
 11
71.48565718
 21
51.5350016
 31
0.0
  0
LINE
  5
D4
100
AcDbEntity
  8
SLD-0
  6
CONTINUOUS
 62
       3
100
AcDbLine
 10
71.48565718
 20
51.5350016
 30
0.0
 11
71.48439778
 21
51.54109465
 31
0.0
  0
LINE
  5
D5
100
AcDbEntity
  8
SLD-0
  6
CONTINUOUS
 62
       3
100
AcDbLine
 10
71.48439778
 20
51.54109465
 30
0.0
 11
71.48297157
 21
51.54714301
 31
0.0
  0
LINE
  5
D6
100
AcDbEntity
  8
SLD-0
  6
CONTINUOUS
 62
       3
100
AcDbLine
 10
71.48297157
 20
51.54714301
 30
0.0
 11
71.48136404
 21
51.55314278
 31
0.0
  0
LINE
  5
D7
100
AcDbEntity
  8
SLD-0
  6
CONTINUOUS
 62
       3
100
AcDbLine
 10
71.48136404
 20
51.55314278
 30
0.0
 11
71.47957517
 21
51.55909397
 31
0.0
  0
LINE
  5
D8
100
AcDbEntity
  8
SLD-0
  6
CONTINUOUS
 62
       3
100
AcDbLine
 10
71.47957517
 20
51.55909397
 30
0.0
 11
71.47761951
 21
51.56500047
 31
0.0
  0
LINE
  5
D9
100
AcDbEntity
  8
SLD-0
  6
CONTINUOUS
 62
       3
100
AcDbLine
 10
71.47761951
 20
51.56500047
 30
0.0
 11
71.47551221
 21
51.57086633
 31
0.0
  0
LINE
  5
DA
100
AcDbEntity
  8
SLD-0
  6
CONTINUOUS
 62
       3
100
AcDbLine
 10
71.47551221
 20
51.57086633
 30
0.0
 11
71.47326843
 21
51.57669564
 31
0.0
  0
LINE
  5
DB
100
AcDbEntity
  8
SLD-0
  6
CONTINUOUS
 62
       3
100
AcDbLine
 10
71.47326843
 20
51.57669564
 30
0.0
 11
71.47090335
 21
51.58249244
 31
0.0
  0
LINE
  5
DC
100
AcDbEntity
  8
SLD-0
  6
CONTINUOUS
 62
       3
100
AcDbLine
 10
71.47090335
 20
51.58249244
 30
0.0
 11
71.46843212
 21
51.5882608
 31
0.0
  0
LINE
  5
DD
100
AcDbEntity
  8
SLD-0
  6
CONTINUOUS
 62
       3
100
AcDbLine
 10
71.46843212
 20
51.5882608
 30
0.0
 11
71.46586991
 21
51.59400478
 31
0.0
  0
LINE
  5
DE
100
AcDbEntity
  8
SLD-0
  6
CONTINUOUS
 62
       3
100
AcDbLine
 10
71.46586991
 20
51.59400478
 30
0.0
 11
71.46323188
 21
51.59972845
 31
0.0
  0
LINE
  5
DF
100
AcDbEntity
  8
SLD-0
  6
CONTINUOUS
 62
       3
100
AcDbLine
 10
71.46323188
 20
51.59972845
 30
0.0
 11
71.4605332
 21
51.60543586
 31
0.0
  0
LINE
  5
E0
100
AcDbEntity
  8
SLD-0
  6
CONTINUOUS
 62
       3
100
AcDbLine
 10
71.4605332
 20
51.60543586
 30
0.0
 11
71.45778903
 21
51.61113109
 31
0.0
  0
LINE
  5
E1
100
AcDbEntity
  8
SLD-0
  6
CONTINUOUS
 62
       3
100
AcDbLine
 10
71.45778903
 20
51.61113109
 30
0.0
 11
71.45501452
 21
51.6168182
 31
0.0
  0
LINE
  5
E2
100
AcDbEntity
  8
SLD-0
  6
CONTINUOUS
 62
       3
100
AcDbLine
 10
71.45501452
 20
51.6168182
 30
0.0
 11
71.45222486
 21
51.62250124
 31
0.0
  0
ARC
  5
E3
100
AcDbEntity
  8
SLD-0
  6
CONTINUOUS
 62
       3
100
AcDbCircle
 10
72.21885689
 20
54.79465261
 30
0.0
 40
2.24999995
100
AcDbArc
 50
30.00000703
 51
209.99992339
  0
ARC
  5
E4
100
AcDbEntity
  8
SLD-0
  6
CONTINUOUS
 62
       3
100
AcDbCircle
 10
72.21885689
 20
54.79465261
 30
0.0
 40
0.75000021
100
AcDbArc
 50
30.00012132
 51
209.99987041
  0
ARC
  5
E5
100
AcDbEntity
  8
SLD-0
  6
CONTINUOUS
 62
       3
100
AcDbCircle
 10
5.79241425
 20
49.37301944
 30
0.0
 40
1.99999992
100
AcDbArc
 50
90.0
 51
180.00000286
  0
ARC
  5
E6
100
AcDbEntity
  8
SLD-0
  6
CONTINUOUS
 62
       3
100
AcDbCircle
 10
96.79241425
 20
-32.62698064
 30
0.0
 40
13.09999999
100
AcDbArc
 50
103.238654
 51
180.0
  0
ARC
  5
E7
100
AcDbEntity
  8
SLD-0
  6
CONTINUOUS
 62
       3
100
AcDbCircle
 10
96.79241425
 20
-32.62698064
 30
0.0
 40
1.50000021
100
AcDbArc
 50
179.99995684
 51
360.0
  0
ARC
  5
E8
100
AcDbEntity
  8
SLD-0
  6
CONTINUOUS
 62
       3
100
AcDbCircle
 10
96.79241425
 20
-32.62698064
 30
0.0
 40
3.00000236
100
AcDbArc
 50
179.99997842
 51
360.00002158
  0
ELLIPSE
  5
E9
100
AcDbEntity
  8
SLD-0
  6
CONTINUOUS
 62
       3
100
AcDbEllipse
 10
100.89271173
 20
46.67303078
 30
0.0
 11
-0.273436141589599
 21
0.1235843222999904
 31
0.0
210
0.0
220
0.0
230
1.0
 40
0.99977559
 41
1.9953685878149141
 42
4.2878173420095269
  0
ELLIPSE
  5
EA
100
AcDbEntity
  8
SLD-0
  6
CONTINUOUS
 62
       3
100
AcDbEllipse
 10
72.69240282
 20
51.87442461
 30
0.0
 11
0.2897895743643346
 21
0.0776488824257058
 31
0.0
210
0.0
220
0.0
230
1.0
 40
0.99995919
 41
6.0214012164230404
 42
6.544969497286794
  0
LINE
  5
EB
100
AcDbEntity
  8
SLD-0
  6
CENTERX2
 62
       3
100
AcDbLine
 10
-51.70506471
 20
6.37301936
 30
0.0
 11
-81.2433097
 21
6.37301936
 31
0.0
  0
LINE
  5
EC
100
AcDbEntity
  8
SLD-0
  6
CENTERX2
 62
       3
100
AcDbLine
 10
-68.71016046
 20
59.57032743
 30
0.0
 11
-68.71016046
 21
-40.62698064
 31
0.0
  0
LINE
  5
ED
100
AcDbEntity
  8
SLD-0
  6
CENTERX2
 62
       3
100
AcDbLine
 10
-1.47385101
 20
6.37301936
 30
0.0
 11
98.01887317
 21
6.37301936
 31
0.0
  0
LINE
  5
EE
100
AcDbEntity
  8
0
  6
CONTINUOUS
 62
       3
100
AcDbLine
 10
-61.80867842
 20
-18.13108249
 30
0.0
 11
-61.79369793
 21
-17.95145184
 31
0.0
  0
LINE
  5
EF
100
AcDbEntity
  8
0
  6
CONTINUOUS
 62
       3
100
AcDbLine
 10
-62.33065473
 20
-16.68170704
 30
0.0
 11
-62.46605147
 21
-16.56316557
 31
0.0
  0
LINE
  5
F0
100
AcDbEntity
  8
0
  6
CONTINUOUS
 62
       3
100
AcDbLine
 10
-64.09698185
 20
-16.13001631
 30
0.0
 11
-64.28984603
 21
-16.16479349
 31
0.0
  0
LINE
  5
F1
100
AcDbEntity
  8
0
  6
CONTINUOUS
 62
       3
100
AcDbLine
 10
-65.49399036
 20
-16.95076539
 30
0.0
 11
-65.58773819
 21
-17.09955935
 31
0.0
  0
LINE
  5
F2
100
AcDbEntity
  8
0
  6
CONTINUOUS
 62
       3
100
AcDbLine
 10
-65.78495506
 20
-18.13108249
 30
0.0
 11
-65.75078759
 21
-18.30536101
 31
0.0
  0
LINE
  5
F3
100
AcDbEntity
  8
0
  6
CONTINUOUS
 62
       3
100
AcDbLine
 10
-66.96419829
 20
-18.78747797
 30
0.0
 11
-66.87828803
 21
-18.63441934
 31
0.0
  0
LINE
  5
F4
100
AcDbEntity
  8
0
  6
CONTINUOUS
 62
       3
100
AcDbLine
 10
-66.78027579
 20
-17.42136959
 30
0.0
 11
-66.84138354
 21
-17.25671457
 31
0.0
  0
LINE
  5
F5
100
AcDbEntity
  8
0
  6
CONTINUOUS
 62
       3
100
AcDbLine
 10
-68.6086013
 20
-16.11221494
 30
0.0
 11
-68.81169359
 21
-16.11221494
 31
0.0
  0
LINE
  5
F6
100
AcDbEntity
  8
0
  6
CONTINUOUS
 62
       3
100
AcDbLine
 10
-68.81169359
 20
-16.11221494
 30
0.0
 11
-69.01071226
 21
-16.13001631
 31
0.0
  0
LINE
  5
F7
100
AcDbEntity
  8
0
  6
CONTINUOUS
 62
       3
100
AcDbLine
 10
-70.23933392
 20
-19.06635121
 30
0.0
 11
-70.11025377
 21
-19.19044465
 31
0.0
  0
LINE
  5
F8
100
AcDbEntity
  8
0
  6
CONTINUOUS
 62
       3
100
AcDbLine
 10
-71.62603511
 20
-17.76973321
 30
0.0
 11
-71.6507207
 21
-17.59266295
 31
0.0
  0
LINE
  5
F9
100
AcDbEntity
  8
0
  6
CONTINUOUS
 62
       3
100
AcDbLine
 10
-74.1171334
 20
-16.16479349
 30
0.0
 11
-74.30281388
 21
-16.21568502
 31
0.0
  0
LINE
  5
FA
100
AcDbEntity
  8
0
  6
CONTINUOUS
 62
       3
100
AcDbLine
 10
-75.41479925
 20
-17.09955935
 30
0.0
 11
-75.49270405
 21
-17.25671457
 31
0.0
  0
LINE
  5
FB
100
AcDbEntity
  8
0
  6
CONTINUOUS
 62
       3
100
AcDbLine
 10
-64.98002163
 20
3.05130707
 30
0.0
 11
-65.12743722
 21
2.94451661
 31
0.0
  0
LINE
  5
FC
100
AcDbEntity
  8
0
  6
CONTINUOUS
 62
       3
100
AcDbLine
 10
-70.17641044
 20
2.82591799
 30
0.0
 11
-70.29890394
 21
2.69637439
 31
0.0
  0
LINE
  5
FD
100
AcDbEntity
  8
0
  6
CONTINUOUS
 62
       3
100
AcDbLine
 10
-71.72250868
 20
1.03387735
 30
0.0
 11
-71.67013561
 21
1.20195922
 31
0.0
  0
LINE
  5
FE
100
AcDbEntity
  8
0
  6
CONTINUOUS
 62
       3
100
AcDbLine
 10
-71.6507207
 20
1.91469349
 30
0.0
 11
-71.69410501
 21
2.0860141
 31
0.0
  0
LINE
  5
FF
100
AcDbEntity
  8
0
  6
CONTINUOUS
 62
       3
100
AcDbLine
 10
-73.92428153
 20
3.37792535
 30
0.0
 11
-74.1171334
 21
3.34312354
 31
0.0
  0
LINE
  5
100
100
AcDbEntity
  8
0
  6
CONTINUOUS
 62
       3
100
AcDbLine
 10
-66.81570245
 20
-6.94058659
 30
0.0
 11
-70.60368829
 21
-6.94058659
 31
0.0
  0
LINE
  5
101
100
AcDbEntity
  8
0
  6
CONTINUOUS
 62
       3
100
AcDbLine
 10
-62.09960233
 20
-16.95076539
 30
0.0
 11
-62.20818405
 21
-16.81119413
 31
0.0
  0
LINE
  5
102
100
AcDbEntity
  8
0
  6
CONTINUOUS
 62
       3
100
AcDbLine
 10
-64.90212389
 20
-19.40364221
 30
0.0
 11
-64.73854951
 21
-19.49102516
 31
0.0
  0
LINE
  5
103
100
AcDbEntity
  8
0
  6
CONTINUOUS
 62
       3
100
AcDbLine
 10
-66.75631248
 20
-18.30536101
 30
0.0
 11
-66.72216693
 21
-18.13108249
 31
0.0
  0
LINE
  5
104
100
AcDbEntity
  8
0
  6
CONTINUOUS
 62
       3
100
AcDbLine
 10
-68.2167058
 20
-16.16479349
 30
0.0
 11
-68.40954535
 21
-16.13001631
 31
0.0
  0
LINE
  5
105
100
AcDbEntity
  8
0
  6
CONTINUOUS
 62
       3
100
AcDbLine
 10
-70.57916741
 20
-17.25671457
 30
0.0
 11
-70.64030942
 21
-17.42136959
 31
0.0
  0
LINE
  5
106
100
AcDbEntity
  8
0
  6
CONTINUOUS
 62
       3
100
AcDbLine
 10
-70.35500027
 20
-18.93174212
 30
0.0
 11
-70.23933392
 21
-19.06635121
 31
0.0
  0
LINE
  5
107
100
AcDbEntity
  8
0
  6
CONTINUOUS
 62
       3
100
AcDbLine
 10
-72.85500782
 20
-19.56445011
 30
0.0
 11
-72.6819457
 21
-19.49102516
 31
0.0
  0
LINE
  5
108
100
AcDbEntity
  8
0
  6
CONTINUOUS
 62
       3
100
AcDbLine
 10
-75.55383009
 20
-17.42136959
 30
0.0
 11
-75.59721663
 21
-17.59266295
 31
0.0
  0
LINE
  5
109
100
AcDbEntity
  8
0
  6
CONTINUOUS
 62
       3
100
AcDbLine
 10
-62.05082074
 20
0.71978227
 30
0.0
 11
-61.96487792
 21
0.87286455
 31
0.0
  0
LINE
  5
10A
100
AcDbEntity
  8
0
  6
CONTINUOUS
 62
       3
100
AcDbLine
 10
-62.20818405
 20
2.69637439
 30
0.0
 11
-62.33065473
 21
2.82591799
 31
0.0
  0
LINE
  5
10B
100
AcDbEntity
  8
0
  6
CONTINUOUS
 62
       3
100
AcDbLine
 10
-65.38538319
 20
2.69637439
 30
0.0
 11
-65.49399036
 21
2.55674902
 31
0.0
  0
LINE
  5
10C
100
AcDbEntity
  8
0
  6
CONTINUOUS
 62
       3
100
AcDbLine
 10
3.78466286
 20
-15.18535466
 30
0.0
 11
-2.66982688
 21
-21.72635075
 31
0.0
  0
LINE
  5
10D
100
AcDbEntity
  8
0
  6
CONTINUOUS
 62
       3
100
AcDbLine
 10
3.78466286
 20
4.32260188
 30
0.0
 11
-2.66982688
 21
-2.21870427
 31
0.0
  0
LINE
  5
10E
100
AcDbEntity
  8
0
  6
CONTINUOUS
 62
       3
100
AcDbLine
 10
-65.78495506
 20
1.37624871
 30
0.0
 11
-65.75078759
 21
1.20195922
 31
0.0
  0
LINE
  5
10F
100
AcDbEntity
  8
0
  6
CONTINUOUS
 62
       3
100
AcDbLine
 10
-64.73854951
 20
0.0160712
 30
0.0
 11
-64.56540461
 21
-0.05737664
 31
0.0
  0
LINE
  5
110
100
AcDbEntity
  8
0
  6
CONTINUOUS
 62
       3
100
AcDbLine
 10
-67.85351538
 20
3.22601076
 30
0.0
 11
-68.03104252
 21
3.29219761
 31
0.0
  0
LINE
  5
111
100
AcDbEntity
  8
0
  6
CONTINUOUS
 62
       3
100
AcDbLine
 10
-70.29890394
 20
2.69637439
 30
0.0
 11
-70.40750263
 21
2.55674902
 31
0.0
  0
LINE
  5
112
100
AcDbEntity
  8
0
  6
CONTINUOUS
 62
       3
100
AcDbLine
 10
-72.59894084
 20
3.14542619
 30
0.0
 11
-72.76734143
 21
3.22601076
 31
0.0
  0
LINE
  5
113
100
AcDbEntity
  8
0
  6
CONTINUOUS
 62
       3
100
AcDbLine
 10
-75.09001964
 20
2.82591799
 30
0.0
 11
-75.21249631
 21
2.69637439
 31
0.0
  0
LINE
  5
114
100
AcDbEntity
  8
0
  6
CONTINUOUS
 62
       3
100
AcDbLine
 10
-75.32107642
 20
2.55674902
 30
0.0
 11
-75.41479925
 21
2.40790505
 31
0.0
  0
LINE
  5
115
100
AcDbEntity
  8
0
  6
CONTINUOUS
 62
       3
100
AcDbLine
 10
-75.55383009
 20
2.0860141
 30
0.0
 11
-75.59721663
 21
1.91469349
 31
0.0
  0
LINE
  5
116
100
AcDbEntity
  8
0
  6
CONTINUOUS
 62
       3
100
AcDbLine
 10
-69.33864923
 20
-21.01476628
 30
0.0
 11
-68.08198175
 21
-21.01476628
 31
0.0
  0
LINE
  5
117
100
AcDbEntity
  8
0
  6
CONTINUOUS
 62
       3
100
AcDbLine
 10
-62.94016898
 20
-16.28182945
 30
0.0
 11
-63.1176409
 21
-16.21568502
 31
0.0
  0
LINE
  5
118
100
AcDbEntity
  8
0
  6
CONTINUOUS
 62
       3
100
AcDbLine
 10
-64.47554371
 20
-16.21568502
 30
0.0
 11
-64.65311327
 21
-16.28182945
 31
0.0
  0
LINE
  5
119
100
AcDbEntity
  8
0
  6
CONTINUOUS
 62
       3
100
AcDbLine
 10
-63.99816281
 20
-19.69237103
 30
0.0
 11
-63.79635186
 21
-19.70135808
 31
0.0
  0
LINE
  5
11A
100
AcDbEntity
  8
0
  6
CONTINUOUS
 62
       3
100
AcDbLine
 10
-66.72216693
 20
-18.13108249
 30
0.0
 11
-66.70719603
 21
-17.95145184
 31
0.0
  0
LINE
  5
11B
100
AcDbEntity
  8
0
  6
CONTINUOUS
 62
       3
100
AcDbLine
 10
-70.17641044
 20
-16.68170704
 30
0.0
 11
-70.29890394
 21
-16.81119413
 31
0.0
  0
LINE
  5
11C
100
AcDbEntity
  8
0
  6
CONTINUOUS
 62
       3
100
AcDbLine
 10
-69.96872186
 20
-19.30316185
 30
0.0
 11
-69.81570023
 21
-19.40364221
 31
0.0
  0
LINE
  5
11D
100
AcDbEntity
  8
0
  6
CONTINUOUS
 62
       3
100
AcDbLine
 10
-69.65215092
 20
-19.49102516
 30
0.0
 11
-69.47903597
 21
-19.56445011
 31
0.0
  0
LINE
  5
11E
100
AcDbEntity
  8
0
  6
CONTINUOUS
 62
       3
100
AcDbLine
 10
-72.76734143
 20
-16.28182945
 30
0.0
 11
-72.94482468
 21
-16.21568502
 31
0.0
  0
LINE
  5
11F
100
AcDbEntity
  8
0
  6
CONTINUOUS
 62
       3
100
AcDbLine
 10
-73.32319281
 20
-16.13001631
 30
0.0
 11
-73.52215447
 21
-16.11221494
 31
0.0
  0
LINE
  5
120
100
AcDbEntity
  8
0
  6
CONTINUOUS
 62
       3
100
AcDbLine
 10
-73.52215447
 20
-16.11221494
 30
0.0
 11
-73.72521901
 21
-16.11221494
 31
0.0
  0
LINE
  5
121
100
AcDbEntity
  8
0
  6
CONTINUOUS
 62
       3
100
AcDbLine
 10
-73.92428153
 20
-16.13001631
 30
0.0
 11
-74.1171334
 21
-16.16479349
 31
0.0
  0
LINE
  5
122
100
AcDbEntity
  8
0
  6
CONTINUOUS
 62
       3
100
AcDbLine
 10
-65.72680939
 20
2.0860141
 30
0.0
 11
-65.77020955
 21
1.91469349
 31
0.0
  0
LINE
  5
123
100
AcDbEntity
  8
0
  6
CONTINUOUS
 62
       3
100
AcDbLine
 10
-65.62873935
 20
0.87286455
 30
0.0
 11
-65.54278179
 21
0.71978227
 31
0.0
  0
LINE
  5
124
100
AcDbEntity
  8
0
  6
CONTINUOUS
 62
       3
100
AcDbLine
 10
-67.45159225
 20
0.20398755
 30
0.0
 11
-67.31010056
 21
0.31673317
 31
0.0
  0
LINE
  5
125
100
AcDbEntity
  8
0
  6
CONTINUOUS
 62
       3
100
AcDbLine
 10
-70.61189616
 20
1.03387735
 30
0.0
 11
-70.54224343
 21
0.87286455
 31
0.0
  0
LINE
  5
126
100
AcDbEntity
  8
0
  6
CONTINUOUS
 62
       3
100
AcDbLine
 10
-68.91191761
 20
-0.18534129
 30
0.0
 11
-68.71016046
 21
-0.19433171
 31
0.0
  0
LINE
  5
127
100
AcDbEntity
  8
0
  6
CONTINUOUS
 62
       3
100
AcDbLine
 10
-73.13042901
 20
3.34312354
 30
0.0
 11
-73.32319281
 21
3.37792535
 31
0.0
  0
LINE
  5
128
100
AcDbEntity
  8
0
  6
CONTINUOUS
 62
       3
100
AcDbLine
 10
-74.30281388
 20
3.29219761
 30
0.0
 11
-74.48036224
 21
3.22601076
 31
0.0
  0
LINE
  5
129
100
AcDbEntity
  8
0
  6
CONTINUOUS
 62
       3
100
AcDbLine
 10
-74.95460717
 20
2.94451661
 30
0.0
 11
-75.09001964
 21
2.82591799
 31
0.0
  0
LINE
  5
12A
100
AcDbEntity
  8
0
  6
CONTINUOUS
 62
       3
100
AcDbLine
 10
-75.57780084
 20
1.20195922
 30
0.0
 11
-75.52542446
 21
1.03387735
 31
0.0
  0
LINE
  5
12B
100
AcDbEntity
  8
0
  6
CONTINUOUS
 62
       3
100
AcDbLine
 10
-75.52542446
 20
1.03387735
 30
0.0
 11
-75.45578895
 21
0.87286455
 31
0.0
  0
LINE
  5
12C
100
AcDbEntity
  8
0
  6
CONTINUOUS
 62
       3
100
AcDbLine
 10
-70.60368829
 20
-26.44823307
 30
0.0
 11
-70.60368829
 21
-30.57635319
 31
0.0
  0
LINE
  5
12D
100
AcDbEntity
  8
0
  6
CONTINUOUS
 62
       3
100
AcDbLine
 10
-63.1678631
 20
-1.50742986
 30
0.0
 11
-63.1678631
 21
-0.80576726
 31
0.0
  0
LINE
  5
12E
100
AcDbEntity
  8
0
  6
CONTINUOUS
 62
       3
100
AcDbLine
 10
-65.69049981
 20
-11.06870671
 30
0.0
 11
-61.90282403
 21
-11.06870671
 31
0.0
  0
LINE
  5
12F
100
AcDbEntity
  8
0
  6
CONTINUOUS
 62
       3
100
AcDbLine
 10
-62.85477575
 20
-19.49102516
 30
0.0
 11
-62.69127658
 21
-19.40364221
 31
0.0
  0
LINE
  5
130
100
AcDbEntity
  8
0
  6
CONTINUOUS
 62
       3
100
AcDbLine
 10
-61.92795741
 20
-17.25671457
 30
0.0
 11
-62.00587248
 21
-17.09955935
 31
0.0
  0
LINE
  5
131
100
AcDbEntity
  8
0
  6
CONTINUOUS
 62
       3
100
AcDbLine
 10
-65.72680939
 20
-17.42136959
 30
0.0
 11
-65.77020955
 21
-17.59266295
 31
0.0
  0
LINE
  5
132
100
AcDbEntity
  8
0
  6
CONTINUOUS
 62
       3
100
AcDbLine
 10
-65.44148409
 20
-18.93174212
 30
0.0
 11
-65.32580785
 21
-19.06635121
 31
0.0
  0
LINE
  5
133
100
AcDbEntity
  8
0
  6
CONTINUOUS
 62
       3
100
AcDbLine
 10
-64.56540461
 20
-19.56445011
 30
0.0
 11
-64.38365079
 21
-19.62305646
 31
0.0
  0
LINE
  5
134
100
AcDbEntity
  8
0
  6
CONTINUOUS
 62
       3
100
AcDbLine
 10
-68.31228854
 20
-19.66598363
 30
0.0
 11
-68.12291714
 21
-19.62305646
 31
0.0
  0
LINE
  5
135
100
AcDbEntity
  8
0
  6
CONTINUOUS
 62
       3
100
AcDbLine
 10
-69.29731741
 20
-19.62305646
 30
0.0
 11
-69.10795727
 21
-19.66598363
 31
0.0
  0
LINE
  5
136
100
AcDbEntity
  8
0
  6
CONTINUOUS
 62
       3
100
AcDbLine
 10
-72.6819457
 20
-19.49102516
 30
0.0
 11
-72.51844705
 21
-19.40364221
 31
0.0
  0
LINE
  5
137
100
AcDbEntity
  8
0
  6
CONTINUOUS
 62
       3
100
AcDbLine
 10
-72.22398662
 20
-19.19044465
 30
0.0
 11
-72.09494803
 21
-19.06635121
 31
0.0
  0
LINE
  5
138
100
AcDbEntity
  8
0
  6
CONTINUOUS
 62
       3
100
AcDbLine
 10
-72.59894084
 20
-16.36236532
 30
0.0
 11
-72.76734143
 21
-16.28182945
 31
0.0
  0
LINE
  5
139
100
AcDbEntity
  8
0
  6
CONTINUOUS
 62
       3
100
AcDbLine
 10
-75.09001964
 20
-16.68170704
 30
0.0
 11
-75.21249631
 21
-16.81119413
 31
0.0
  0
LINE
  5
13A
100
AcDbEntity
  8
0
  6
CONTINUOUS
 62
       3
100
AcDbLine
 10
-75.02387034
 20
-19.19044465
 30
0.0
 11
-74.88235023
 21
-19.30316185
 31
0.0
  0
LINE
  5
13B
100
AcDbEntity
  8
0
  6
CONTINUOUS
 62
       3
100
AcDbLine
 10
-63.59470229
 20
-0.18534129
 30
0.0
 11
-63.39875699
 21
-0.15894434
 31
0.0
  0
LINE
  5
13C
100
AcDbEntity
  8
0
  6
CONTINUOUS
 62
       3
100
AcDbLine
 10
-63.39875699
 20
-0.15894434
 30
0.0
 11
-63.20947886
 21
-0.1160023
 31
0.0
  0
LINE
  5
13D
100
AcDbEntity
  8
0
  6
CONTINUOUS
 62
       3
100
AcDbLine
 10
-65.12743722
 20
2.94451661
 30
0.0
 11
-65.26287827
 21
2.82591799
 31
0.0
  0
LINE
  5
13E
100
AcDbEntity
  8
0
  6
CONTINUOUS
 62
       3
100
AcDbLine
 10
-65.32580785
 20
0.44085513
 30
0.0
 11
-65.19671466
 21
0.31673317
 31
0.0
  0
LINE
  5
13F
100
AcDbEntity
  8
0
  6
CONTINUOUS
 62
       3
100
AcDbLine
 10
-67.94120194
 20
-0.05737664
 30
0.0
 11
-67.76810281
 21
0.0160712
 31
0.0
  0
LINE
  5
140
100
AcDbEntity
  8
0
  6
CONTINUOUS
 62
       3
100
AcDbLine
 10
-70.70840251
 20
1.73760706
 30
0.0
 11
-70.71343451
 21
1.55588436
 31
0.0
  0
LINE
  5
141
100
AcDbEntity
  8
0
  6
CONTINUOUS
 62
       3
100
AcDbLine
 10
-73.22597608
 20
-0.15894434
 30
0.0
 11
-73.03667182
 21
-0.1160023
 31
0.0
  0
LINE
  5
142
100
AcDbEntity
  8
0
  6
CONTINUOUS
 62
       3
100
AcDbLine
 10
-71.63598046
 20
1.37624871
 30
0.0
 11
-71.62100484
 21
1.55588436
 31
0.0
  0
LINE
  5
143
100
AcDbEntity
  8
0
  6
CONTINUOUS
 62
       3
100
AcDbLine
 10
-71.62603511
 20
1.73760706
 30
0.0
 11
-71.6507207
 21
1.91469349
 31
0.0
  0
LINE
  5
144
100
AcDbEntity
  8
0
  6
CONTINUOUS
 62
       3
100
AcDbLine
 10
-72.03539735
 20
2.69637439
 30
0.0
 11
-72.15785119
 21
2.82591799
 31
0.0
  0
LINE
  5
145
100
AcDbEntity
  8
0
  6
CONTINUOUS
 62
       3
100
AcDbLine
 10
-72.15785119
 20
2.82591799
 30
0.0
 11
-72.29323412
 21
2.94451661
 31
0.0
  0
LINE
  5
146
100
AcDbEntity
  8
0
  6
CONTINUOUS
 62
       3
100
AcDbLine
 10
-74.64881773
 20
3.14542619
 30
0.0
 11
-74.80721962
 21
3.05130707
 31
0.0
  0
LINE
  5
147
100
AcDbEntity
  8
0
  6
CONTINUOUS
 62
       3
100
AcDbLine
 10
-76.80113946
 20
-15.18535466
 30
0.0
 11
-60.62011163
 21
-15.18535466
 31
0.0
  0
LINE
  5
148
100
AcDbEntity
  8
0
  6
CONTINUOUS
 62
       3
100
AcDbLine
 10
-68.08198175
 20
-20.31310368
 30
0.0
 11
-69.33864923
 21
-20.31310368
 31
0.0
  0
LINE
  5
149
100
AcDbEntity
  8
0
  6
CONTINUOUS
 62
       3
100
AcDbLine
 10
-69.33864923
 20
-0.80576726
 30
0.0
 11
-69.33864923
 21
-1.50742986
 31
0.0
  0
LINE
  5
14A
100
AcDbEntity
  8
0
  6
CONTINUOUS
 62
       3
100
AcDbLine
 10
-65.69049981
 20
-6.94058659
 30
0.0
 11
-65.69049981
 21
-11.06870671
 31
0.0
  0
LINE
  5
14B
100
AcDbEntity
  8
0
  6
CONTINUOUS
 62
       3
100
AcDbLine
 10
-62.39679752
 20
-19.19044465
 30
0.0
 11
-62.26774345
 21
-19.06635121
 31
0.0
  0
LINE
  5
14C
100
AcDbEntity
  8
0
  6
CONTINUOUS
 62
       3
100
AcDbLine
 10
-62.61341136
 20
-16.45643118
 30
0.0
 11
-62.7717715
 21
-16.36236532
 31
0.0
  0
LINE
  5
14D
100
AcDbEntity
  8
0
  6
CONTINUOUS
 62
       3
100
AcDbLine
 10
-65.77020955
 20
-17.59266295
 30
0.0
 11
-65.79490394
 21
-17.76973321
 31
0.0
  0
LINE
  5
14E
100
AcDbEntity
  8
0
  6
CONTINUOUS
 62
       3
100
AcDbLine
 10
-67.45159225
 20
-19.30316185
 30
0.0
 11
-67.31010056
 21
-19.19044465
 31
0.0
  0
LINE
  5
14F
100
AcDbEntity
  8
0
  6
CONTINUOUS
 62
       3
100
AcDbLine
 10
-66.84138354
 20
-17.25671457
 30
0.0
 11
-66.91926627
 21
-17.09955935
 31
0.0
  0
LINE
  5
150
100
AcDbEntity
  8
0
  6
CONTINUOUS
 62
       3
100
AcDbLine
 10
-66.91926627
 20
-17.09955935
 30
0.0
 11
-67.01296409
 21
-16.95076539
 31
0.0
  0
LINE
  5
151
100
AcDbEntity
  8
0
  6
CONTINUOUS
 62
       3
100
AcDbLine
 10
-67.01296409
 20
-16.95076539
 30
0.0
 11
-67.12151715
 21
-16.81119413
 31
0.0
  0
LINE
  5
152
100
AcDbEntity
  8
0
  6
CONTINUOUS
 62
       3
100
AcDbLine
 10
-71.63598046
 20
-18.13108249
 30
0.0
 11
-71.62100484
 21
-17.95145184
 31
0.0
  0
LINE
  5
153
100
AcDbEntity
  8
0
  6
CONTINUOUS
 62
       3
100
AcDbLine
 10
-71.69410501
 20
-17.42136959
 30
0.0
 11
-71.75522643
 21
-17.25671457
 31
0.0
  0
LINE
  5
154
100
AcDbEntity
  8
0
  6
CONTINUOUS
 62
       3
100
AcDbLine
 10
-71.83312336
 20
-17.09955935
 30
0.0
 11
-71.9268342
 21
-16.95076539
 31
0.0
  0
LINE
  5
155
100
AcDbEntity
  8
0
  6
CONTINUOUS
 62
       3
100
AcDbLine
 10
-72.15785119
 20
-16.68170704
 30
0.0
 11
-72.29323412
 21
-16.56316557
 31
0.0
  0
LINE
  5
156
100
AcDbEntity
  8
0
  6
CONTINUOUS
 62
       3
100
AcDbLine
 10
-74.30281388
 20
-16.21568502
 30
0.0
 11
-74.48036224
 21
-16.28182945
 31
0.0
  0
LINE
  5
157
100
AcDbEntity
  8
0
  6
CONTINUOUS
 62
       3
100
AcDbLine
 10
-75.21249631
 20
-16.81119413
 30
0.0
 11
-75.32107642
 21
-16.95076539
 31
0.0
  0
LINE
  5
158
100
AcDbEntity
  8
0
  6
CONTINUOUS
 62
       3
100
AcDbLine
 10
-75.62190293
 20
-17.76973321
 30
0.0
 11
-75.62693326
 21
-17.95145184
 31
0.0
  0
LINE
  5
159
100
AcDbEntity
  8
0
  6
CONTINUOUS
 62
       3
100
AcDbLine
 10
-75.62693326
 20
-17.95145184
 30
0.0
 11
-75.61195735
 21
-18.13108249
 31
0.0
  0
LINE
  5
15A
100
AcDbEntity
  8
0
  6
CONTINUOUS
 62
       3
100
AcDbLine
 10
-63.79635186
 20
-0.19433171
 30
0.0
 11
-63.59470229
 21
-0.18534129
 31
0.0
  0
LINE
  5
15B
100
AcDbEntity
  8
0
  6
CONTINUOUS
 62
       3
100
AcDbLine
 10
-63.02783081
 20
-0.05737664
 30
0.0
 11
-62.85477575
 21
0.0160712
 31
0.0
  0
LINE
  5
15C
100
AcDbEntity
  8
0
  6
CONTINUOUS
 62
       3
100
AcDbLine
 10
-62.5382962
 20
0.20398755
 30
0.0
 11
-62.39679752
 21
0.31673317
 31
0.0
  0
LINE
  5
15D
100
AcDbEntity
  8
0
  6
CONTINUOUS
 62
       3
100
AcDbLine
 10
-61.80867842
 20
1.37624871
 30
0.0
 11
-61.79369793
 21
1.55588436
 31
0.0
  0
LINE
  5
15E
100
AcDbEntity
  8
0
  6
CONTINUOUS
 62
       3
100
AcDbLine
 10
-61.8234232
 20
1.91469349
 30
0.0
 11
-61.86682001
 21
2.0860141
 31
0.0
  0
LINE
  5
15F
100
AcDbEntity
  8
0
  6
CONTINUOUS
 62
       3
100
AcDbLine
 10
-63.99816281
 20
-0.18534129
 30
0.0
 11
-63.79635186
 21
-0.19433171
 31
0.0
  0
LINE
  5
160
100
AcDbEntity
  8
0
  6
CONTINUOUS
 62
       3
100
AcDbLine
 10
-67.52670897
 20
3.05130707
 30
0.0
 11
-67.68508424
 21
3.14542619
 31
0.0
  0
LINE
  5
161
100
AcDbEntity
  8
0
  6
CONTINUOUS
 62
       3
100
AcDbLine
 10
-68.03104252
 20
3.29219761
 30
0.0
 11
-68.2167058
 21
3.34312354
 31
0.0
  0
LINE
  5
162
100
AcDbEntity
  8
0
  6
CONTINUOUS
 62
       3
100
AcDbLine
 10
-69.89358714
 20
3.05130707
 30
0.0
 11
-70.04098416
 21
2.94451661
 31
0.0
  0
LINE
  5
163
100
AcDbEntity
  8
0
  6
CONTINUOUS
 62
       3
100
AcDbLine
 10
-69.81570023
 20
0.10347975
 30
0.0
 11
-69.65215092
 21
0.0160712
 31
0.0
  0
LINE
  5
164
100
AcDbEntity
  8
0
  6
CONTINUOUS
 62
       3
100
AcDbLine
 10
-77.70030938
 20
4.31547053
 30
0.0
 11
-59.71970147
 21
4.31547053
 31
0.0
  0
LINE
  5
165
100
AcDbEntity
  8
0
  6
CONTINUOUS
 62
       3
100
AcDbLine
 10
-77.70030938
 20
-15.19248601
 30
0.0
 11
-59.71970147
 21
-15.19248601
 31
0.0
  0
LINE
  5
166
100
AcDbEntity
  8
0
  6
CONTINUOUS
 62
       3
100
AcDbLine
 10
-60.62011163
 20
-31.48699528
 30
0.0
 11
-76.80113946
 21
-31.48699528
 31
0.0
  0
LINE
  5
167
100
AcDbEntity
  8
0
  6
CONTINUOUS
 62
       3
100
AcDbLine
 10
-76.80113946
 20
-21.72635075
 30
0.0
 11
-60.61949151
 21
-21.72635075
 31
0.0
  0
LINE
  5
168
100
AcDbEntity
  8
0
  6
CONTINUOUS
 62
       3
100
AcDbLine
 10
-66.81570245
 20
-30.57635319
 30
0.0
 11
-66.81570245
 21
-26.44823307
 31
0.0
  0
LINE
  5
169
100
AcDbEntity
  8
0
  6
CONTINUOUS
 62
       3
100
AcDbLine
 10
-63.79635186
 20
-19.70135808
 30
0.0
 11
-63.59470229
 21
-19.69237103
 31
0.0
  0
LINE
  5
16A
100
AcDbEntity
  8
0
  6
CONTINUOUS
 62
       3
100
AcDbLine
 10
-63.39875699
 20
-19.66598363
 30
0.0
 11
-63.20947886
 21
-19.62305646
 31
0.0
  0
LINE
  5
16B
100
AcDbEntity
  8
0
  6
CONTINUOUS
 62
       3
100
AcDbLine
 10
-65.69839515
 20
-18.47342683
 30
0.0
 11
-65.62873935
 21
-18.63441934
 31
0.0
  0
LINE
  5
16C
100
AcDbEntity
  8
0
  6
CONTINUOUS
 62
       3
100
AcDbLine
 10
-67.18106443
 20
-19.06635121
 30
0.0
 11
-67.06544371
 21
-18.93174212
 31
0.0
  0
LINE
  5
16D
100
AcDbEntity
  8
0
  6
CONTINUOUS
 62
       3
100
AcDbLine
 10
-67.12151715
 20
-16.81119413
 30
0.0
 11
-67.24396556
 21
-16.68170704
 31
0.0
  0
LINE
  5
16E
100
AcDbEntity
  8
0
  6
CONTINUOUS
 62
       3
100
AcDbLine
 10
-70.66428694
 20
-18.30536101
 30
0.0
 11
-70.61189616
 21
-18.47342683
 31
0.0
  0
LINE
  5
16F
100
AcDbEntity
  8
0
  6
CONTINUOUS
 62
       3
100
AcDbLine
 10
-68.91191761
 20
-19.69237103
 30
0.0
 11
-68.71016046
 21
-19.70135808
 31
0.0
  0
LINE
  5
170
100
AcDbEntity
  8
0
  6
CONTINUOUS
 62
       3
100
AcDbLine
 10
-71.62100484
 20
-17.95145184
 30
0.0
 11
-71.62603511
 21
-17.76973321
 31
0.0
  0
LINE
  5
171
100
AcDbEntity
  8
0
  6
CONTINUOUS
 62
       3
100
AcDbLine
 10
-75.26858348
 20
-18.93174212
 30
0.0
 11
-75.152935
 21
-19.06635121
 31
0.0
  0
LINE
  5
172
100
AcDbEntity
  8
0
  6
CONTINUOUS
 62
       3
100
AcDbLine
 10
-62.39679752
 20
0.31673317
 30
0.0
 11
-62.26774345
 21
0.44085513
 31
0.0
  0
LINE
  5
173
100
AcDbEntity
  8
0
  6
CONTINUOUS
 62
       3
100
AcDbLine
 10
-62.00587248
 20
2.40790505
 30
0.0
 11
-62.09960233
 21
2.55674902
 31
0.0
  0
LINE
  5
174
100
AcDbEntity
  8
0
  6
CONTINUOUS
 62
       3
100
AcDbLine
 10
-64.82159311
 20
3.14542619
 30
0.0
 11
-64.98002163
 21
3.05130707
 31
0.0
  0
LINE
  5
175
100
AcDbEntity
  8
0
  6
CONTINUOUS
 62
       3
100
AcDbLine
 10
-65.19671466
 20
0.31673317
 30
0.0
 11
-65.05516614
 21
0.20398755
 31
0.0
  0
LINE
  5
176
100
AcDbEntity
  8
0
  6
CONTINUOUS
 62
       3
100
AcDbLine
 10
-67.31010056
 20
0.31673317
 30
0.0
 11
-67.18106443
 21
0.44085513
 31
0.0
  0
LINE
  5
177
100
AcDbEntity
  8
0
  6
CONTINUOUS
 62
       3
100
AcDbLine
 10
-66.84138354
 20
2.25070568
 30
0.0
 11
-66.91926627
 21
2.40790505
 31
0.0
  0
LINE
  5
178
100
AcDbEntity
  8
0
  6
CONTINUOUS
 62
       3
100
AcDbLine
 10
-68.2167058
 20
3.34312354
 30
0.0
 11
-68.40954535
 21
3.37792535
 31
0.0
  0
LINE
  5
179
100
AcDbEntity
  8
0
  6
CONTINUOUS
 62
       3
100
AcDbLine
 10
-69.20353241
 20
3.34312354
 30
0.0
 11
-69.38919201
 21
3.29219761
 31
0.0
  0
LINE
  5
17A
100
AcDbEntity
  8
0
  6
CONTINUOUS
 62
       3
100
AcDbLine
 10
-69.65215092
 20
0.0160712
 30
0.0
 11
-69.47903597
 21
-0.05737664
 31
0.0
  0
LINE
  5
17B
100
AcDbEntity
  8
0
  6
CONTINUOUS
 62
       3
100
AcDbLine
 10
-69.29731741
 20
-0.1160023
 30
0.0
 11
-69.10795727
 21
-0.15894434
 31
0.0
  0
LINE
  5
17C
100
AcDbEntity
  8
0
  6
CONTINUOUS
 62
       3
100
AcDbLine
 10
-69.10795727
 20
-0.15894434
 30
0.0
 11
-68.91191761
 21
-0.18534129
 31
0.0
  0
LINE
  5
17D
100
AcDbEntity
  8
0
  6
CONTINUOUS
 62
       3
100
AcDbLine
 10
-72.09494803
 20
0.44085513
 30
0.0
 11
-71.97931934
 21
0.57549198
 31
0.0
  0
LINE
  5
17E
100
AcDbEntity
  8
0
  6
CONTINUOUS
 62
       3
100
AcDbLine
 10
-71.79213806
 20
0.87286455
 30
0.0
 11
-71.72250868
 21
1.03387735
 31
0.0
  0
LINE
  5
17F
100
AcDbEntity
  8
0
  6
CONTINUOUS
 62
       3
100
AcDbLine
 10
-75.21249631
 20
2.69637439
 30
0.0
 11
-75.32107642
 21
2.55674902
 31
0.0
  0
LINE
  5
180
100
AcDbEntity
  8
0
  6
CONTINUOUS
 62
       3
100
AcDbLine
 10
-75.62190293
 20
1.73760706
 30
0.0
 11
-75.62693326
 21
1.55588436
 31
0.0
  0
LINE
  5
181
100
AcDbEntity
  8
0
  6
CONTINUOUS
 62
       3
100
AcDbLine
 10
-75.51780694
 20
-26.44823307
 30
0.0
 11
-75.51780694
 21
-30.57635319
 31
0.0
  0
LINE
  5
182
100
AcDbEntity
  8
0
  6
CONTINUOUS
 62
       3
100
AcDbLine
 10
-70.60368829
 20
-6.94058659
 30
0.0
 11
-70.60368829
 21
-11.06870671
 31
0.0
  0
LINE
  5
183
100
AcDbEntity
  8
0
  6
CONTINUOUS
 62
       3
100
AcDbLine
 10
-61.84284385
 20
-18.30536101
 30
0.0
 11
-61.80867842
 21
-18.13108249
 31
0.0
  0
LINE
  5
184
100
AcDbEntity
  8
0
  6
CONTINUOUS
 62
       3
100
AcDbLine
 10
-61.79369793
 20
-17.95145184
 30
0.0
 11
-61.79872987
 21
-17.76973321
 31
0.0
  0
LINE
  5
185
100
AcDbEntity
  8
0
  6
CONTINUOUS
 62
       3
100
AcDbLine
 10
-63.69487423
 20
-16.11221494
 30
0.0
 11
-63.89791275
 21
-16.11221494
 31
0.0
  0
LINE
  5
186
100
AcDbEntity
  8
0
  6
CONTINUOUS
 62
       3
100
AcDbLine
 10
-64.28984603
 20
-16.16479349
 30
0.0
 11
-64.47554371
 21
-16.21568502
 31
0.0
  0
LINE
  5
187
100
AcDbEntity
  8
0
  6
CONTINUOUS
 62
       3
100
AcDbLine
 10
-64.65311327
 20
-16.28182945
 30
0.0
 11
-64.82159311
 21
-16.36236532
 31
0.0
  0
LINE
  5
188
100
AcDbEntity
  8
0
  6
CONTINUOUS
 62
       3
100
AcDbLine
 10
-65.26287827
 20
-16.68170704
 30
0.0
 11
-65.38538319
 21
-16.81119413
 31
0.0
  0
LINE
  5
189
100
AcDbEntity
  8
0
  6
CONTINUOUS
 62
       3
100
AcDbLine
 10
-65.54278179
 20
-18.78747797
 30
0.0
 11
-65.44148409
 21
-18.93174212
 31
0.0
  0
LINE
  5
18A
100
AcDbEntity
  8
0
  6
CONTINUOUS
 62
       3
100
AcDbLine
 10
-66.87828803
 20
-18.63441934
 30
0.0
 11
-66.8086728
 21
-18.47342683
 31
0.0
  0
LINE
  5
18B
100
AcDbEntity
  8
0
  6
CONTINUOUS
 62
       3
100
AcDbLine
 10
-67.52670897
 20
-16.45643118
 30
0.0
 11
-67.68508424
 21
-16.36236532
 31
0.0
  0
LINE
  5
18C
100
AcDbEntity
  8
0
  6
CONTINUOUS
 62
       3
100
AcDbLine
 10
-70.45629078
 20
-18.78747797
 30
0.0
 11
-70.35500027
 21
-18.93174212
 31
0.0
  0
LINE
  5
18D
100
AcDbEntity
  8
0
  6
CONTINUOUS
 62
       3
100
AcDbLine
 10
-70.11025377
 20
-19.19044465
 30
0.0
 11
-69.96872186
 21
-19.30316185
 31
0.0
  0
LINE
  5
18E
100
AcDbEntity
  8
0
  6
CONTINUOUS
 62
       3
100
AcDbLine
 10
-72.94482468
 20
-16.21568502
 30
0.0
 11
-73.13042901
 21
-16.16479349
 31
0.0
  0
LINE
  5
18F
100
AcDbEntity
  8
0
  6
CONTINUOUS
 62
       3
100
AcDbLine
 10
-74.64881773
 20
-16.36236532
 30
0.0
 11
-74.80721962
 21
-16.45643118
 31
0.0
  0
LINE
  5
190
100
AcDbEntity
  8
0
  6
CONTINUOUS
 62
       3
100
AcDbLine
 10
-74.95460717
 20
-16.56316557
 30
0.0
 11
-75.09001964
 21
-16.68170704
 31
0.0
  0
LINE
  5
191
100
AcDbEntity
  8
0
  6
CONTINUOUS
 62
       3
100
AcDbLine
 10
-75.152935
 20
-19.06635121
 30
0.0
 11
-75.02387034
 21
-19.19044465
 31
0.0
  0
LINE
  5
192
100
AcDbEntity
  8
0
  6
CONTINUOUS
 62
       3
100
AcDbLine
 10
-61.96487792
 20
0.87286455
 30
0.0
 11
-61.89523132
 21
1.03387735
 31
0.0
  0
LINE
  5
193
100
AcDbEntity
  8
0
  6
CONTINUOUS
 62
       3
100
AcDbLine
 10
-61.79369793
 20
1.55588436
 30
0.0
 11
-61.79872987
 21
1.73760706
 31
0.0
  0
LINE
  5
194
100
AcDbEntity
  8
0
  6
CONTINUOUS
 62
       3
100
AcDbLine
 10
-62.09960233
 20
2.55674902
 30
0.0
 11
-62.20818405
 21
2.69637439
 31
0.0
  0
LINE
  5
195
100
AcDbEntity
  8
0
  6
CONTINUOUS
 62
       3
100
AcDbLine
 10
-65.75078759
 20
1.20195922
 30
0.0
 11
-65.69839515
 21
1.03387735
 31
0.0
  0
LINE
  5
196
100
AcDbEntity
  8
0
  6
CONTINUOUS
 62
       3
100
AcDbLine
 10
-64.56540461
 20
-0.05737664
 30
0.0
 11
-64.38365079
 21
-0.1160023
 31
0.0
  0
LINE
  5
197
100
AcDbEntity
  8
0
  6
CONTINUOUS
 62
       3
100
AcDbLine
 10
-64.19424965
 20
-0.15894434
 30
0.0
 11
-63.99816281
 21
-0.18534129
 31
0.0
  0
LINE
  5
198
100
AcDbEntity
  8
0
  6
CONTINUOUS
 62
       3
100
AcDbLine
 10
-70.04098416
 20
2.94451661
 30
0.0
 11
-70.17641044
 21
2.82591799
 31
0.0
  0
LINE
  5
199
100
AcDbEntity
  8
0
  6
CONTINUOUS
 62
       3
100
AcDbLine
 10
-70.40750263
 20
2.55674902
 30
0.0
 11
-70.50124447
 21
2.40790505
 31
0.0
  0
LINE
  5
19A
100
AcDbEntity
  8
0
  6
CONTINUOUS
 62
       3
100
AcDbLine
 10
-71.67013561
 20
1.20195922
 30
0.0
 11
-71.63598046
 21
1.37624871
 31
0.0
  0
LINE
  5
19B
100
AcDbEntity
  8
0
  6
CONTINUOUS
 62
       3
100
AcDbLine
 10
-74.1171334
 20
3.34312354
 30
0.0
 11
-74.30281388
 21
3.29219761
 31
0.0
  0
LINE
  5
19C
100
AcDbEntity
  8
0
  6
CONTINUOUS
 62
       3
100
AcDbLine
 10
-75.26858348
 20
0.57549198
 30
0.0
 11
-75.152935
 21
0.44085513
 31
0.0
  0
LINE
  5
19D
100
AcDbEntity
  8
0
  6
CONTINUOUS
 62
       3
100
AcDbLine
 10
-74.56578663
 20
0.0160712
 30
0.0
 11
-74.39266462
 21
-0.05737664
 31
0.0
  0
LINE
  5
19E
100
AcDbEntity
  8
0
  6
CONTINUOUS
 62
       3
100
AcDbLine
 10
-72.99486016
 20
-21.01476628
 30
0.0
 11
-72.99486016
 21
-20.31310368
 31
0.0
  0
LINE
  5
19F
100
AcDbEntity
  8
0
  6
CONTINUOUS
 62
       3
100
AcDbLine
 10
-75.51780694
 20
-30.57635319
 30
0.0
 11
-71.73013116
 21
-30.57635319
 31
0.0
  0
LINE
  5
1A0
100
AcDbEntity
  8
0
  6
CONTINUOUS
 62
       3
100
AcDbLine
 10
-63.1678631
 20
-0.80576726
 30
0.0
 11
-64.42515069
 21
-0.80576726
 31
0.0
  0
LINE
  5
1A1
100
AcDbEntity
  8
0
  6
CONTINUOUS
 62
       3
100
AcDbLine
 10
-61.86682001
 20
-17.42136959
 30
0.0
 11
-61.92795741
 21
-17.25671457
 31
0.0
  0
LINE
  5
1A2
100
AcDbEntity
  8
0
  6
CONTINUOUS
 62
       3
100
AcDbLine
 10
-63.49595643
 20
-16.13001631
 30
0.0
 11
-63.69487423
 21
-16.11221494
 31
0.0
  0
LINE
  5
1A3
100
AcDbEntity
  8
0
  6
CONTINUOUS
 62
       3
100
AcDbLine
 10
-63.89791275
 20
-16.11221494
 30
0.0
 11
-64.09698185
 21
-16.13001631
 31
0.0
  0
LINE
  5
1A4
100
AcDbEntity
  8
0
  6
CONTINUOUS
 62
       3
100
AcDbLine
 10
-64.82159311
 20
-16.36236532
 30
0.0
 11
-64.98002163
 21
-16.45643118
 31
0.0
  0
LINE
  5
1A5
100
AcDbEntity
  8
0
  6
CONTINUOUS
 62
       3
100
AcDbLine
 10
-65.32580785
 20
-19.06635121
 30
0.0
 11
-65.19671466
 21
-19.19044465
 31
0.0
  0
LINE
  5
1A6
100
AcDbEntity
  8
0
  6
CONTINUOUS
 62
       3
100
AcDbLine
 10
-68.71016046
 20
-19.70135808
 30
0.0
 11
-68.50835627
 21
-19.69237103
 31
0.0
  0
LINE
  5
1A7
100
AcDbEntity
  8
0
  6
CONTINUOUS
 62
       3
100
AcDbLine
 10
-66.70719603
 20
-17.95145184
 30
0.0
 11
-66.71222466
 21
-17.76973321
 31
0.0
  0
LINE
  5
1A8
100
AcDbEntity
  8
0
  6
CONTINUOUS
 62
       3
100
AcDbLine
 10
-67.24396556
 20
-16.68170704
 30
0.0
 11
-67.37934946
 21
-16.56316557
 31
0.0
  0
LINE
  5
1A9
100
AcDbEntity
  8
0
  6
CONTINUOUS
 62
       3
100
AcDbLine
 10
-69.56672902
 20
-16.28182945
 30
0.0
 11
-69.73518141
 21
-16.36236532
 31
0.0
  0
LINE
  5
1AA
100
AcDbEntity
  8
0
  6
CONTINUOUS
 62
       3
100
AcDbLine
 10
-70.68370847
 20
-17.59266295
 30
0.0
 11
-70.70840251
 21
-17.76973321
 31
0.0
  0
LINE
  5
1AB
100
AcDbEntity
  8
0
  6
CONTINUOUS
 62
       3
100
AcDbLine
 10
-69.10795727
 20
-19.66598363
 30
0.0
 11
-68.91191761
 21
-19.69237103
 31
0.0
  0
LINE
  5
1AC
100
AcDbEntity
  8
0
  6
CONTINUOUS
 62
       3
100
AcDbLine
 10
-71.79213806
 20
-18.63441934
 30
0.0
 11
-71.72250868
 21
-18.47342683
 31
0.0
  0
LINE
  5
1AD
100
AcDbEntity
  8
0
  6
CONTINUOUS
 62
       3
100
AcDbLine
 10
-61.86682001
 20
2.0860141
 30
0.0
 11
-61.92795741
 21
2.25070568
 31
0.0
  0
LINE
  5
1AE
100
AcDbEntity
  8
0
  6
CONTINUOUS
 62
       3
100
AcDbLine
 10
-62.94016898
 20
3.22601076
 30
0.0
 11
-63.1176409
 21
3.29219761
 31
0.0
  0
LINE
  5
1AF
100
AcDbEntity
  8
0
  6
CONTINUOUS
 62
       3
100
AcDbLine
 10
-64.09698185
 20
3.37792535
 30
0.0
 11
-64.28984603
 21
3.34312354
 31
0.0
  0
LINE
  5
1B0
100
AcDbEntity
  8
0
  6
CONTINUOUS
 62
       3
100
AcDbLine
 10
-65.26287827
 20
2.82591799
 30
0.0
 11
-65.38538319
 21
2.69637439
 31
0.0
  0
LINE
  5
1B1
100
AcDbEntity
  8
0
  6
CONTINUOUS
 62
       3
100
AcDbLine
 10
-65.49399036
 20
2.55674902
 30
0.0
 11
-65.58773819
 21
2.40790505
 31
0.0
  0
LINE
  5
1B2
100
AcDbEntity
  8
0
  6
CONTINUOUS
 62
       3
100
AcDbLine
 10
-65.05516614
 20
0.20398755
 30
0.0
 11
-64.90212389
 21
0.10347975
 31
0.0
  0
LINE
  5
1B3
100
AcDbEntity
  8
0
  6
CONTINUOUS
 62
       3
100
AcDbLine
 10
-69.38919201
 20
3.29219761
 30
0.0
 11
-69.56672902
 21
3.22601076
 31
0.0
  0
LINE
  5
1B4
100
AcDbEntity
  8
0
  6
CONTINUOUS
 62
       3
100
AcDbLine
 10
-69.56672902
 20
3.22601076
 30
0.0
 11
-69.73518141
 21
3.14542619
 31
0.0
  0
LINE
  5
1B5
100
AcDbEntity
  8
0
  6
CONTINUOUS
 62
       3
100
AcDbLine
 10
-72.44058454
 20
3.05130707
 30
0.0
 11
-72.59894084
 21
3.14542619
 31
0.0
  0
LINE
  5
1B6
100
AcDbEntity
  8
0
  6
CONTINUOUS
 62
       3
100
AcDbLine
 10
-75.61195735
 20
1.37624871
 30
0.0
 11
-75.57780084
 21
1.20195922
 31
0.0
  0
LINE
  5
1B7
100
AcDbEntity
  8
0
  6
CONTINUOUS
 62
       3
100
AcDbLine
 10
-74.02154385
 20
-0.15894434
 30
0.0
 11
-73.82546656
 21
-0.18534129
 31
0.0
  0
LINE
  5
1B8
100
AcDbEntity
  8
0
  6
CONTINUOUS
 62
       3
100
AcDbLine
 10
-76.80113946
 20
-11.9793488
 30
0.0
 11
-76.80113946
 21
4.32260188
 31
0.0
  0
LINE
  5
1B9
100
AcDbEntity
  8
0
  6
CONTINUOUS
 62
       3
100
AcDbLine
 10
-76.80113946
 20
-6.22745183
 30
0.0
 11
-60.61949151
 21
-6.22745183
 31
0.0
  0
LINE
  5
1BA
100
AcDbEntity
  8
0
  6
CONTINUOUS
 62
       3
100
AcDbLine
 10
-61.90282403
 20
-11.06870671
 30
0.0
 11
-61.90282403
 21
-6.94058659
 31
0.0
  0
LINE
  5
1BB
100
AcDbEntity
  8
0
  6
CONTINUOUS
 62
       3
100
AcDbLine
 10
-63.20947886
 20
-19.62305646
 30
0.0
 11
-63.02783081
 21
-19.56445011
 31
0.0
  0
LINE
  5
1BC
100
AcDbEntity
  8
0
  6
CONTINUOUS
 62
       3
100
AcDbLine
 10
-65.79490394
 20
-17.76973321
 30
0.0
 11
-65.79993598
 21
-17.95145184
 31
0.0
  0
LINE
  5
1BD
100
AcDbEntity
  8
0
  6
CONTINUOUS
 62
       3
100
AcDbLine
 10
-64.38365079
 20
-19.62305646
 30
0.0
 11
-64.19424965
 21
-19.66598363
 31
0.0
  0
LINE
  5
1BE
100
AcDbEntity
  8
0
  6
CONTINUOUS
 62
       3
100
AcDbLine
 10
-67.60457963
 20
-19.40364221
 30
0.0
 11
-67.45159225
 21
-19.30316185
 31
0.0
  0
LINE
  5
1BF
100
AcDbEntity
  8
0
  6
CONTINUOUS
 62
       3
100
AcDbLine
 10
-69.20353241
 20
-16.16479349
 30
0.0
 11
-69.38919201
 21
-16.21568502
 31
0.0
  0
LINE
  5
1C0
100
AcDbEntity
  8
0
  6
CONTINUOUS
 62
       3
100
AcDbLine
 10
-70.50124447
 20
-17.09955935
 30
0.0
 11
-70.57916741
 21
-17.25671457
 31
0.0
  0
LINE
  5
1C1
100
AcDbEntity
  8
0
  6
CONTINUOUS
 62
       3
100
AcDbLine
 10
-71.97931934
 20
-18.93174212
 30
0.0
 11
-71.87806215
 21
-18.78747797
 31
0.0
  0
LINE
  5
1C2
100
AcDbEntity
  8
0
  6
CONTINUOUS
 62
       3
100
AcDbLine
 10
-71.72250868
 20
-18.47342683
 30
0.0
 11
-71.67013561
 21
-18.30536101
 31
0.0
  0
LINE
  5
1C3
100
AcDbEntity
  8
0
  6
CONTINUOUS
 62
       3
100
AcDbLine
 10
-71.9268342
 20
-16.95076539
 30
0.0
 11
-72.03539735
 21
-16.81119413
 31
0.0
  0
LINE
  5
1C4
100
AcDbEntity
  8
0
  6
CONTINUOUS
 62
       3
100
AcDbLine
 10
-74.80721962
 20
-16.45643118
 30
0.0
 11
-74.95460717
 21
-16.56316557
 31
0.0
  0
LINE
  5
1C5
100
AcDbEntity
  8
0
  6
CONTINUOUS
 62
       3
100
AcDbLine
 10
-74.21093011
 20
-19.62305646
 30
0.0
 11
-74.02154385
 21
-19.66598363
 31
0.0
  0
LINE
  5
1C6
100
AcDbEntity
  8
0
  6
CONTINUOUS
 62
       3
100
AcDbLine
 10
-65.66566507
 20
2.25070568
 30
0.0
 11
-65.72680939
 21
2.0860141
 31
0.0
  0
LINE
  5
1C7
100
AcDbEntity
  8
0
  6
CONTINUOUS
 62
       3
100
AcDbLine
 10
-65.54278179
 20
0.71978227
 30
0.0
 11
-65.44148409
 21
0.57549198
 31
0.0
  0
LINE
  5
1C8
100
AcDbEntity
  8
0
  6
CONTINUOUS
 62
       3
100
AcDbLine
 10
-67.60457963
 20
0.10347975
 30
0.0
 11
-67.45159225
 21
0.20398755
 31
0.0
  0
LINE
  5
1C9
100
AcDbEntity
  8
0
  6
CONTINUOUS
 62
       3
100
AcDbLine
 10
-66.8086728
 20
1.03387735
 30
0.0
 11
-66.75631248
 21
1.20195922
 31
0.0
  0
LINE
  5
1CA
100
AcDbEntity
  8
0
  6
CONTINUOUS
 62
       3
100
AcDbLine
 10
-67.01296409
 20
2.55674902
 30
0.0
 11
-67.12151715
 21
2.69637439
 31
0.0
  0
LINE
  5
1CB
100
AcDbEntity
  8
0
  6
CONTINUOUS
 62
       3
100
AcDbLine
 10
-67.24396556
 20
2.82591799
 30
0.0
 11
-67.37934946
 21
2.94451661
 31
0.0
  0
LINE
  5
1CC
100
AcDbEntity
  8
0
  6
CONTINUOUS
 62
       3
100
AcDbLine
 10
-67.37934946
 20
2.94451661
 30
0.0
 11
-67.52670897
 21
3.05130707
 31
0.0
  0
LINE
  5
1CD
100
AcDbEntity
  8
0
  6
CONTINUOUS
 62
       3
100
AcDbLine
 10
-67.68508424
 20
3.14542619
 30
0.0
 11
-67.85351538
 21
3.22601076
 31
0.0
  0
LINE
  5
1CE
100
AcDbEntity
  8
0
  6
CONTINUOUS
 62
       3
100
AcDbLine
 10
-70.54224343
 20
0.87286455
 30
0.0
 11
-70.45629078
 21
0.71978227
 31
0.0
  0
LINE
  5
1CF
100
AcDbEntity
  8
0
  6
CONTINUOUS
 62
       3
100
AcDbLine
 10
-72.85500782
 20
-0.05737664
 30
0.0
 11
-72.6819457
 21
0.0160712
 31
0.0
  0
LINE
  5
1D0
100
AcDbEntity
  8
0
  6
CONTINUOUS
 62
       3
100
AcDbLine
 10
-72.22398662
 20
0.31673317
 30
0.0
 11
-72.09494803
 21
0.44085513
 31
0.0
  0
LINE
  5
1D1
100
AcDbEntity
  8
0
  6
CONTINUOUS
 62
       3
100
AcDbLine
 10
-72.29323412
 20
2.94451661
 30
0.0
 11
-72.44058454
 21
3.05130707
 31
0.0
  0
LINE
  5
1D2
100
AcDbEntity
  8
0
  6
CONTINUOUS
 62
       3
100
AcDbLine
 10
-72.94482468
 20
3.29219761
 30
0.0
 11
-73.13042901
 21
3.34312354
 31
0.0
  0
LINE
  5
1D3
100
AcDbEntity
  8
0
  6
CONTINUOUS
 62
       3
100
AcDbLine
 10
-74.80721962
 20
3.05130707
 30
0.0
 11
-74.95460717
 21
2.94451661
 31
0.0
  0
LINE
  5
1D4
100
AcDbEntity
  8
0
  6
CONTINUOUS
 62
       3
100
AcDbLine
 10
-75.45578895
 20
0.87286455
 30
0.0
 11
-75.36985504
 21
0.71978227
 31
0.0
  0
LINE
  5
1D5
100
AcDbEntity
  8
0
  6
CONTINUOUS
 62
       3
100
AcDbLine
 10
-75.02387034
 20
0.31673317
 30
0.0
 11
-74.88235023
 21
0.20398755
 31
0.0
  0
LINE
  5
1D6
100
AcDbEntity
  8
0
  6
CONTINUOUS
 62
       3
100
AcDbLine
 10
-76.80113946
 20
-25.73447819
 30
0.0
 11
-60.61949151
 21
-25.73447819
 31
0.0
  0
LINE
  5
1D7
100
AcDbEntity
  8
0
  6
CONTINUOUS
 62
       3
100
AcDbLine
 10
-63.1678631
 20
-21.01476628
 30
0.0
 11
-63.1678631
 21
-20.31310368
 31
0.0
  0
LINE
  5
1D8
100
AcDbEntity
  8
0
  6
CONTINUOUS
 62
       3
100
AcDbLine
 10
-68.08198175
 20
-21.01476628
 30
0.0
 11
-68.08198175
 21
-20.31310368
 31
0.0
  0
LINE
  5
1D9
100
AcDbEntity
  8
0
  6
CONTINUOUS
 62
       3
100
AcDbLine
 10
-69.33864923
 20
-20.31310368
 30
0.0
 11
-69.33864923
 21
-21.01476628
 31
0.0
  0
LINE
  5
1DA
100
AcDbEntity
  8
0
  6
CONTINUOUS
 62
       3
100
AcDbLine
 10
-61.90282403
 20
-30.57635319
 30
0.0
 11
-61.90282403
 21
-26.44823307
 31
0.0
  0
LINE
  5
1DB
100
AcDbEntity
  8
0
  6
CONTINUOUS
 62
       3
100
AcDbLine
 10
-76.80113946
 20
-2.21870427
 30
0.0
 11
-60.61949151
 21
-2.21870427
 31
0.0
  0
LINE
  5
1DC
100
AcDbEntity
  8
0
  6
CONTINUOUS
 62
       3
100
AcDbLine
 10
-69.33864923
 20
-1.50742986
 30
0.0
 11
-68.08198175
 21
-1.50742986
 31
0.0
  0
LINE
  5
1DD
100
AcDbEntity
  8
0
  6
CONTINUOUS
 62
       3
100
AcDbLine
 10
-74.25214776
 20
-0.80576726
 30
0.0
 11
-74.25214776
 21
-1.50742986
 31
0.0
  0
LINE
  5
1DE
100
AcDbEntity
  8
0
  6
CONTINUOUS
 62
       3
100
AcDbLine
 10
-70.60368829
 20
-11.06870671
 30
0.0
 11
-66.81570245
 21
-11.06870671
 31
0.0
  0
LINE
  5
1DF
100
AcDbEntity
  8
0
  6
CONTINUOUS
 62
       3
100
AcDbLine
 10
-71.73013116
 20
-6.94058659
 30
0.0
 11
-75.51780694
 21
-6.94058659
 31
0.0
  0
LINE
  5
1E0
100
AcDbEntity
  8
0
  6
CONTINUOUS
 62
       3
100
AcDbLine
 10
-62.69127658
 20
-19.40364221
 30
0.0
 11
-62.5382962
 21
-19.30316185
 31
0.0
  0
LINE
  5
1E1
100
AcDbEntity
  8
0
  6
CONTINUOUS
 62
       3
100
AcDbLine
 10
-62.7717715
 20
-16.36236532
 30
0.0
 11
-62.94016898
 21
-16.28182945
 31
0.0
  0
LINE
  5
1E2
100
AcDbEntity
  8
0
  6
CONTINUOUS
 62
       3
100
AcDbLine
 10
-63.1176409
 20
-16.21568502
 30
0.0
 11
-63.30322435
 21
-16.16479349
 31
0.0
  0
LINE
  5
1E3
100
AcDbEntity
  8
0
  6
CONTINUOUS
 62
       3
100
AcDbLine
 10
-67.31010056
 20
-19.19044465
 30
0.0
 11
-67.18106443
 21
-19.06635121
 31
0.0
  0
LINE
  5
1E4
100
AcDbEntity
  8
0
  6
CONTINUOUS
 62
       3
100
AcDbLine
 10
-68.03104252
 20
-16.21568502
 30
0.0
 11
-68.2167058
 21
-16.16479349
 31
0.0
  0
LINE
  5
1E5
100
AcDbEntity
  8
0
  6
CONTINUOUS
 62
       3
100
AcDbLine
 10
-69.38919201
 20
-16.21568502
 30
0.0
 11
-69.56672902
 21
-16.28182945
 31
0.0
  0
LINE
  5
1E6
100
AcDbEntity
  8
0
  6
CONTINUOUS
 62
       3
100
AcDbLine
 10
-73.62365899
 20
-19.70135808
 30
0.0
 11
-73.421959
 21
-19.69237103
 31
0.0
  0
LINE
  5
1E7
100
AcDbEntity
  8
0
  6
CONTINUOUS
 62
       3
100
AcDbLine
 10
-72.03539735
 20
-16.81119413
 30
0.0
 11
-72.15785119
 21
-16.68170704
 31
0.0
  0
LINE
  5
1E8
100
AcDbEntity
  8
0
  6
CONTINUOUS
 62
       3
100
AcDbLine
 10
-74.48036224
 20
-16.28182945
 30
0.0
 11
-74.64881773
 21
-16.36236532
 31
0.0
  0
LINE
  5
1E9
100
AcDbEntity
  8
0
  6
CONTINUOUS
 62
       3
100
AcDbLine
 10
-74.88235023
 20
-19.30316185
 30
0.0
 11
-74.72933542
 21
-19.40364221
 31
0.0
  0
LINE
  5
1EA
100
AcDbEntity
  8
0
  6
CONTINUOUS
 62
       3
100
AcDbLine
 10
-74.72933542
 20
-19.40364221
 30
0.0
 11
-74.56578663
 21
-19.49102516
 31
0.0
  0
LINE
  5
1EB
100
AcDbEntity
  8
0
  6
CONTINUOUS
 62
       3
100
AcDbLine
 10
-74.56578663
 20
-19.49102516
 30
0.0
 11
-74.39266462
 21
-19.56445011
 31
0.0
  0
LINE
  5
1EC
100
AcDbEntity
  8
0
  6
CONTINUOUS
 62
       3
100
AcDbLine
 10
-62.26774345
 20
0.44085513
 30
0.0
 11
-62.15209689
 21
0.57549198
 31
0.0
  0
LINE
  5
1ED
100
AcDbEntity
  8
0
  6
CONTINUOUS
 62
       3
100
AcDbLine
 10
-63.1176409
 20
3.29219761
 30
0.0
 11
-63.30322435
 21
3.34312354
 31
0.0
  0
LINE
  5
1EE
100
AcDbEntity
  8
0
  6
CONTINUOUS
 62
       3
100
AcDbLine
 10
-66.70719603
 20
1.55588436
 30
0.0
 11
-66.71222466
 21
1.73760706
 31
0.0
  0
LINE
  5
1EF
100
AcDbEntity
  8
0
  6
CONTINUOUS
 62
       3
100
AcDbLine
 10
-66.91926627
 20
2.40790505
 30
0.0
 11
-67.01296409
 21
2.55674902
 31
0.0
  0
LINE
  5
1F0
100
AcDbEntity
  8
0
  6
CONTINUOUS
 62
       3
100
AcDbLine
 10
-69.01071226
 20
3.37792535
 30
0.0
 11
-69.20353241
 21
3.34312354
 31
0.0
  0
LINE
  5
1F1
100
AcDbEntity
  8
0
  6
CONTINUOUS
 62
       3
100
AcDbLine
 10
-70.45629078
 20
0.71978227
 30
0.0
 11
-70.35500027
 21
0.57549198
 31
0.0
  0
LINE
  5
1F2
100
AcDbEntity
  8
0
  6
CONTINUOUS
 62
       3
100
AcDbLine
 10
-71.62100484
 20
1.55588436
 30
0.0
 11
-71.62603511
 21
1.73760706
 31
0.0
  0
LINE
  5
1F3
100
AcDbEntity
  8
0
  6
CONTINUOUS
 62
       3
100
AcDbLine
 10
-71.69410501
 20
2.0860141
 30
0.0
 11
-71.75522643
 21
2.25070568
 31
0.0
  0
LINE
  5
1F4
100
AcDbEntity
  8
0
  6
CONTINUOUS
 62
       3
100
AcDbLine
 10
-75.152935
 20
0.44085513
 30
0.0
 11
-75.02387034
 21
0.31673317
 31
0.0
  0
LINE
  5
1F5
100
AcDbEntity
  8
0
  6
CONTINUOUS
 62
       3
100
AcDbLine
 10
-61.90282403
 20
-27.56971501
 30
0.0
 11
-65.69049981
 21
-27.56971501
 31
0.0
  0
LINE
  5
1F6
100
AcDbEntity
  8
0
  6
CONTINUOUS
 62
       3
100
AcDbLine
 10
-66.81632257
 20
-27.56971501
 30
0.0
 11
-70.60368829
 21
-27.56971501
 31
0.0
  0
LINE
  5
1F7
100
AcDbEntity
  8
0
  6
CONTINUOUS
 62
       3
100
AcDbLine
 10
-76.80113946
 20
4.32260188
 30
0.0
 11
-60.62011163
 21
4.32260188
 31
0.0
  0
LINE
  5
1F8
100
AcDbEntity
  8
0
  6
CONTINUOUS
 62
       3
100
AcDbLine
 10
-68.08198175
 20
-1.50742986
 30
0.0
 11
-68.08198175
 21
-0.80576726
 31
0.0
  0
LINE
  5
1F9
100
AcDbEntity
  8
0
  6
CONTINUOUS
 62
       3
100
AcDbLine
 10
-75.51780694
 20
-11.06870671
 30
0.0
 11
-71.73013116
 21
-11.06870671
 31
0.0
  0
LINE
  5
1FA
100
AcDbEntity
  8
0
  6
CONTINUOUS
 62
       3
100
AcDbLine
 10
-62.26774345
 20
-19.06635121
 30
0.0
 11
-62.15209689
 21
-18.93174212
 31
0.0
  0
LINE
  5
1FB
100
AcDbEntity
  8
0
  6
CONTINUOUS
 62
       3
100
AcDbLine
 10
-61.96487792
 20
-18.63441934
 30
0.0
 11
-61.89523132
 21
-18.47342683
 31
0.0
  0
LINE
  5
1FC
100
AcDbEntity
  8
0
  6
CONTINUOUS
 62
       3
100
AcDbLine
 10
-65.66566507
 20
-17.25671457
 30
0.0
 11
-65.72680939
 21
-17.42136959
 31
0.0
  0
LINE
  5
1FD
100
AcDbEntity
  8
0
  6
CONTINUOUS
 62
       3
100
AcDbLine
 10
-73.421959
 20
-19.69237103
 30
0.0
 11
-73.22597608
 21
-19.66598363
 31
0.0
  0
LINE
  5
1FE
100
AcDbEntity
  8
0
  6
CONTINUOUS
 62
       3
100
AcDbLine
 10
-71.87806215
 20
-18.78747797
 30
0.0
 11
-71.79213806
 21
-18.63441934
 31
0.0
  0
LINE
  5
1FF
100
AcDbEntity
  8
0
  6
CONTINUOUS
 62
       3
100
AcDbLine
 10
-71.6507207
 20
-17.59266295
 30
0.0
 11
-71.69410501
 21
-17.42136959
 31
0.0
  0
LINE
  5
200
100
AcDbEntity
  8
0
  6
CONTINUOUS
 62
       3
100
AcDbLine
 10
-73.13042901
 20
-16.16479349
 30
0.0
 11
-73.32319281
 21
-16.13001631
 31
0.0
  0
LINE
  5
201
100
AcDbEntity
  8
0
  6
CONTINUOUS
 62
       3
100
AcDbLine
 10
-75.32107642
 20
-16.95076539
 30
0.0
 11
-75.41479925
 21
-17.09955935
 31
0.0
  0
LINE
  5
202
100
AcDbEntity
  8
0
  6
CONTINUOUS
 62
       3
100
AcDbLine
 10
-75.49270405
 20
-17.25671457
 30
0.0
 11
-75.55383009
 21
-17.42136959
 31
0.0
  0
LINE
  5
203
100
AcDbEntity
  8
0
  6
CONTINUOUS
 62
       3
100
AcDbLine
 10
-75.45578895
 20
-18.63441934
 30
0.0
 11
-75.36985504
 21
-18.78747797
 31
0.0
  0
LINE
  5
204
100
AcDbEntity
  8
0
  6
CONTINUOUS
 62
       3
100
AcDbLine
 10
-63.20947886
 20
-0.1160023
 30
0.0
 11
-63.02783081
 21
-0.05737664
 31
0.0
  0
LINE
  5
205
100
AcDbEntity
  8
0
  6
CONTINUOUS
 62
       3
100
AcDbLine
 10
-61.89523132
 20
1.03387735
 30
0.0
 11
-61.84284385
 21
1.20195922
 31
0.0
  0
LINE
  5
206
100
AcDbEntity
  8
0
  6
CONTINUOUS
 62
       3
100
AcDbLine
 10
-63.69487423
 20
3.39573988
 30
0.0
 11
-63.89791275
 21
3.39573988
 31
0.0
  0
LINE
  5
207
100
AcDbEntity
  8
0
  6
CONTINUOUS
 62
       3
100
AcDbLine
 10
-64.65311327
 20
3.22601076
 30
0.0
 11
-64.82159311
 21
3.14542619
 31
0.0
  0
LINE
  5
208
100
AcDbEntity
  8
0
  6
CONTINUOUS
 62
       3
100
AcDbLine
 10
-66.96419829
 20
0.71978227
 30
0.0
 11
-66.87828803
 21
0.87286455
 31
0.0
  0
LINE
  5
209
100
AcDbEntity
  8
0
  6
CONTINUOUS
 62
       3
100
AcDbLine
 10
-66.87828803
 20
0.87286455
 30
0.0
 11
-66.8086728
 21
1.03387735
 31
0.0
  0
LINE
  5
20A
100
AcDbEntity
  8
0
  6
CONTINUOUS
 62
       3
100
AcDbLine
 10
-66.75631248
 20
1.20195922
 30
0.0
 11
-66.72216693
 21
1.37624871
 31
0.0
  0
LINE
  5
20B
100
AcDbEntity
  8
0
  6
CONTINUOUS
 62
       3
100
AcDbLine
 10
-70.69845374
 20
1.37624871
 30
0.0
 11
-70.66428694
 21
1.20195922
 31
0.0
  0
LINE
  5
20C
100
AcDbEntity
  8
0
  6
CONTINUOUS
 62
       3
100
AcDbLine
 10
-70.66428694
 20
1.20195922
 30
0.0
 11
-70.61189616
 21
1.03387735
 31
0.0
  0
LINE
  5
20D
100
AcDbEntity
  8
0
  6
CONTINUOUS
 62
       3
100
AcDbLine
 10
-73.421959
 20
-0.18534129
 30
0.0
 11
-73.22597608
 21
-0.15894434
 31
0.0
  0
LINE
  5
20E
100
AcDbEntity
  8
0
  6
CONTINUOUS
 62
       3
100
AcDbLine
 10
-73.03667182
 20
-0.1160023
 30
0.0
 11
-72.85500782
 21
-0.05737664
 31
0.0
  0
LINE
  5
20F
100
AcDbEntity
  8
0
  6
CONTINUOUS
 62
       3
100
AcDbLine
 10
-73.52215447
 20
3.39573988
 30
0.0
 11
-73.72521901
 21
3.39573988
 31
0.0
  0
LINE
  5
210
100
AcDbEntity
  8
0
  6
CONTINUOUS
 62
       3
100
AcDbLine
 10
-75.59721663
 20
1.91469349
 30
0.0
 11
-75.62190293
 21
1.73760706
 31
0.0
  0
LINE
  5
211
100
AcDbEntity
  8
0
  6
CONTINUOUS
 62
       3
100
AcDbLine
 10
-74.88235023
 20
0.20398755
 30
0.0
 11
-74.72933542
 21
0.10347975
 31
0.0
  0
LINE
  5
212
100
AcDbEntity
  8
0
  6
CONTINUOUS
 62
       3
100
AcDbLine
 10
-74.39266462
 20
-0.05737664
 30
0.0
 11
-74.21093011
 21
-0.1160023
 31
0.0
  0
LINE
  5
213
100
AcDbEntity
  8
0
  6
CONTINUOUS
 62
       3
100
AcDbLine
 10
-62.05082074
 20
-18.78747797
 30
0.0
 11
-61.96487792
 21
-18.63441934
 31
0.0
  0
LINE
  5
214
100
AcDbEntity
  8
0
  6
CONTINUOUS
 62
       3
100
AcDbLine
 10
-61.8234232
 20
-17.59266295
 30
0.0
 11
-61.86682001
 21
-17.42136959
 31
0.0
  0
LINE
  5
215
100
AcDbEntity
  8
0
  6
CONTINUOUS
 62
       3
100
AcDbLine
 10
-62.00587248
 20
-17.09955935
 30
0.0
 11
-62.09960233
 21
-16.95076539
 31
0.0
  0
LINE
  5
216
100
AcDbEntity
  8
0
  6
CONTINUOUS
 62
       3
100
AcDbLine
 10
-62.46605147
 20
-16.56316557
 30
0.0
 11
-62.61341136
 21
-16.45643118
 31
0.0
  0
LINE
  5
217
100
AcDbEntity
  8
0
  6
CONTINUOUS
 62
       3
100
AcDbLine
 10
-65.12743722
 20
-16.56316557
 30
0.0
 11
-65.26287827
 21
-16.68170704
 31
0.0
  0
LINE
  5
218
100
AcDbEntity
  8
0
  6
CONTINUOUS
 62
       3
100
AcDbLine
 10
-65.38538319
 20
-16.81119413
 30
0.0
 11
-65.49399036
 21
-16.95076539
 31
0.0
  0
LINE
  5
219
100
AcDbEntity
  8
0
  6
CONTINUOUS
 62
       3
100
AcDbLine
 10
-64.73854951
 20
-19.49102516
 30
0.0
 11
-64.56540461
 21
-19.56445011
 31
0.0
  0
LINE
  5
21A
100
AcDbEntity
  8
0
  6
CONTINUOUS
 62
       3
100
AcDbLine
 10
-68.12291714
 20
-19.62305646
 30
0.0
 11
-67.94120194
 21
-19.56445011
 31
0.0
  0
LINE
  5
21B
100
AcDbEntity
  8
0
  6
CONTINUOUS
 62
       3
100
AcDbLine
 10
-66.73690287
 20
-17.59266295
 30
0.0
 11
-66.78027579
 21
-17.42136959
 31
0.0
  0
LINE
  5
21C
100
AcDbEntity
  8
0
  6
CONTINUOUS
 62
       3
100
AcDbLine
 10
-70.04098416
 20
-16.56316557
 30
0.0
 11
-70.17641044
 21
-16.68170704
 31
0.0
  0
LINE
  5
21D
100
AcDbEntity
  8
0
  6
CONTINUOUS
 62
       3
100
AcDbLine
 10
-70.61189616
 20
-18.47342683
 30
0.0
 11
-70.54224343
 21
-18.63441934
 31
0.0
  0
LINE
  5
21E
100
AcDbEntity
  8
0
  6
CONTINUOUS
 62
       3
100
AcDbLine
 10
-70.54224343
 20
-18.63441934
 30
0.0
 11
-70.45629078
 21
-18.78747797
 31
0.0
  0
LINE
  5
21F
100
AcDbEntity
  8
0
  6
CONTINUOUS
 62
       3
100
AcDbLine
 10
-72.09494803
 20
-19.06635121
 30
0.0
 11
-71.97931934
 21
-18.93174212
 31
0.0
  0
LINE
  5
220
100
AcDbEntity
  8
0
  6
CONTINUOUS
 62
       3
100
AcDbLine
 10
-62.85477575
 20
0.0160712
 30
0.0
 11
-62.69127658
 21
0.10347975
 31
0.0
  0
LINE
  5
221
100
AcDbEntity
  8
0
  6
CONTINUOUS
 62
       3
100
AcDbLine
 10
-62.69127658
 20
0.10347975
 30
0.0
 11
-62.5382962
 21
0.20398755
 31
0.0
  0
LINE
  5
222
100
AcDbEntity
  8
0
  6
CONTINUOUS
 62
       3
100
AcDbLine
 10
-62.61341136
 20
3.05130707
 30
0.0
 11
-62.7717715
 21
3.14542619
 31
0.0
  0
LINE
  5
223
100
AcDbEntity
  8
0
  6
CONTINUOUS
 62
       3
100
AcDbLine
 10
-63.30322435
 20
3.34312354
 30
0.0
 11
-63.49595643
 21
3.37792535
 31
0.0
  0
LINE
  5
224
100
AcDbEntity
  8
0
  6
CONTINUOUS
 62
       3
100
AcDbLine
 10
-65.77020955
 20
1.91469349
 30
0.0
 11
-65.79490394
 21
1.73760706
 31
0.0
  0
LINE
  5
225
100
AcDbEntity
  8
0
  6
CONTINUOUS
 62
       3
100
AcDbLine
 10
-67.76810281
 20
0.0160712
 30
0.0
 11
-67.60457963
 21
0.10347975
 31
0.0
  0
LINE
  5
226
100
AcDbEntity
  8
0
  6
CONTINUOUS
 62
       3
100
AcDbLine
 10
-68.81169359
 20
3.39573988
 30
0.0
 11
-69.01071226
 21
3.37792535
 31
0.0
  0
LINE
  5
227
100
AcDbEntity
  8
0
  6
CONTINUOUS
 62
       3
100
AcDbLine
 10
-72.51844705
 20
0.10347975
 30
0.0
 11
-72.36547349
 21
0.20398755
 31
0.0
  0
LINE
  5
228
100
AcDbEntity
  8
0
  6
CONTINUOUS
 62
       3
100
AcDbLine
 10
-71.87806215
 20
0.71978227
 30
0.0
 11
-71.79213806
 21
0.87286455
 31
0.0
  0
LINE
  5
229
100
AcDbEntity
  8
0
  6
CONTINUOUS
 62
       3
100
AcDbLine
 10
-72.76734143
 20
3.22601076
 30
0.0
 11
-72.94482468
 21
3.29219761
 31
0.0
  0
LINE
  5
22A
100
AcDbEntity
  8
0
  6
CONTINUOUS
 62
       3
100
AcDbLine
 10
-73.32319281
 20
3.37792535
 30
0.0
 11
-73.52215447
 21
3.39573988
 31
0.0
  0
LINE
  5
22B
100
AcDbEntity
  8
0
  6
CONTINUOUS
 62
       3
100
AcDbLine
 10
-70.60368829
 20
-30.57635319
 30
0.0
 11
-66.81570245
 21
-30.57635319
 31
0.0
  0
LINE
  5
22C
100
AcDbEntity
  8
0
  6
CONTINUOUS
 62
       3
100
AcDbLine
 10
-71.73013116
 20
-30.57635319
 30
0.0
 11
-71.73013116
 21
-26.44823307
 31
0.0
  0
LINE
  5
22D
100
AcDbEntity
  8
0
  6
CONTINUOUS
 62
       3
100
AcDbLine
 10
-68.08198175
 20
-0.80576726
 30
0.0
 11
-69.33864923
 21
-0.80576726
 31
0.0
  0
LINE
  5
22E
100
AcDbEntity
  8
0
  6
CONTINUOUS
 62
       3
100
AcDbLine
 10
-72.99486016
 20
-1.50742986
 30
0.0
 11
-72.99486016
 21
-0.80576726
 31
0.0
  0
LINE
  5
22F
100
AcDbEntity
  8
0
  6
CONTINUOUS
 62
       3
100
AcDbLine
 10
-71.73013116
 20
-8.06175847
 30
0.0
 11
-75.51780694
 21
-8.06175847
 31
0.0
  0
LINE
  5
230
100
AcDbEntity
  8
0
  6
CONTINUOUS
 62
       3
100
AcDbLine
 10
-71.73013116
 20
-11.06870671
 30
0.0
 11
-71.73013116
 21
-6.94058659
 31
0.0
  0
LINE
  5
231
100
AcDbEntity
  8
0
  6
CONTINUOUS
 62
       3
100
AcDbLine
 10
-63.59470229
 20
-19.69237103
 30
0.0
 11
-63.39875699
 21
-19.66598363
 31
0.0
  0
LINE
  5
232
100
AcDbEntity
  8
0
  6
CONTINUOUS
 62
       3
100
AcDbLine
 10
-64.98002163
 20
-16.45643118
 30
0.0
 11
-65.12743722
 21
-16.56316557
 31
0.0
  0
LINE
  5
233
100
AcDbEntity
  8
0
  6
CONTINUOUS
 62
       3
100
AcDbLine
 10
-65.62873935
 20
-18.63441934
 30
0.0
 11
-65.54278179
 21
-18.78747797
 31
0.0
  0
LINE
  5
234
100
AcDbEntity
  8
0
  6
CONTINUOUS
 62
       3
100
AcDbLine
 10
-65.19671466
 20
-19.19044465
 30
0.0
 11
-65.05516614
 21
-19.30316185
 31
0.0
  0
LINE
  5
235
100
AcDbEntity
  8
0
  6
CONTINUOUS
 62
       3
100
AcDbLine
 10
-67.94120194
 20
-19.56445011
 30
0.0
 11
-67.76810281
 21
-19.49102516
 31
0.0
  0
LINE
  5
236
100
AcDbEntity
  8
0
  6
CONTINUOUS
 62
       3
100
AcDbLine
 10
-67.06544371
 20
-18.93174212
 30
0.0
 11
-66.96419829
 21
-18.78747797
 31
0.0
  0
LINE
  5
237
100
AcDbEntity
  8
0
  6
CONTINUOUS
 62
       3
100
AcDbLine
 10
-66.8086728
 20
-18.47342683
 30
0.0
 11
-66.75631248
 21
-18.30536101
 31
0.0
  0
LINE
  5
238
100
AcDbEntity
  8
0
  6
CONTINUOUS
 62
       3
100
AcDbLine
 10
-69.47903597
 20
-19.56445011
 30
0.0
 11
-69.29731741
 21
-19.62305646
 31
0.0
  0
LINE
  5
239
100
AcDbEntity
  8
0
  6
CONTINUOUS
 62
       3
100
AcDbLine
 10
-72.51844705
 20
-19.40364221
 30
0.0
 11
-72.36547349
 21
-19.30316185
 31
0.0
  0
LINE
  5
23A
100
AcDbEntity
  8
0
  6
CONTINUOUS
 62
       3
100
AcDbLine
 10
-73.72521901
 20
-16.11221494
 30
0.0
 11
-73.92428153
 21
-16.13001631
 31
0.0
  0
LINE
  5
23B
100
AcDbEntity
  8
0
  6
CONTINUOUS
 62
       3
100
AcDbLine
 10
-75.57780084
 20
-18.30536101
 30
0.0
 11
-75.52542446
 21
-18.47342683
 31
0.0
  0
LINE
  5
23C
100
AcDbEntity
  8
0
  6
CONTINUOUS
 62
       3
100
AcDbLine
 10
-75.36985504
 20
-18.78747797
 30
0.0
 11
-75.26858348
 21
-18.93174212
 31
0.0
  0
LINE
  5
23D
100
AcDbEntity
  8
0
  6
CONTINUOUS
 62
       3
100
AcDbLine
 10
-74.39266462
 20
-19.56445011
 30
0.0
 11
-74.21093011
 21
-19.62305646
 31
0.0
  0
LINE
  5
23E
100
AcDbEntity
  8
0
  6
CONTINUOUS
 62
       3
100
AcDbLine
 10
-62.15209689
 20
0.57549198
 30
0.0
 11
-62.05082074
 21
0.71978227
 31
0.0
  0
LINE
  5
23F
100
AcDbEntity
  8
0
  6
CONTINUOUS
 62
       3
100
AcDbLine
 10
-61.92795741
 20
2.25070568
 30
0.0
 11
-62.00587248
 21
2.40790505
 31
0.0
  0
LINE
  5
240
100
AcDbEntity
  8
0
  6
CONTINUOUS
 62
       3
100
AcDbLine
 10
-68.12291714
 20
-0.1160023
 30
0.0
 11
-67.94120194
 21
-0.05737664
 31
0.0
  0
LINE
  5
241
100
AcDbEntity
  8
0
  6
CONTINUOUS
 62
       3
100
AcDbLine
 10
-68.6086013
 20
3.39573988
 30
0.0
 11
-68.81169359
 21
3.39573988
 31
0.0
  0
LINE
  5
242
100
AcDbEntity
  8
0
  6
CONTINUOUS
 62
       3
100
AcDbLine
 10
-70.50124447
 20
2.40790505
 30
0.0
 11
-70.57916741
 21
2.25070568
 31
0.0
  0
LINE
  5
243
100
AcDbEntity
  8
0
  6
CONTINUOUS
 62
       3
100
AcDbLine
 10
-70.23933392
 20
0.44085513
 30
0.0
 11
-70.11025377
 21
0.31673317
 31
0.0
  0
LINE
  5
244
100
AcDbEntity
  8
0
  6
CONTINUOUS
 62
       3
100
AcDbLine
 10
-75.62693326
 20
1.55588436
 30
0.0
 11
-75.61195735
 21
1.37624871
 31
0.0
  0
LINE
  5
245
100
AcDbEntity
  8
0
  6
CONTINUOUS
 62
       3
100
AcDbLine
 10
-60.62011163
 20
4.32260188
 30
0.0
 11
-60.62011163
 21
-11.9793488
 31
0.0
  0
LINE
  5
246
100
AcDbEntity
  8
0
  6
CONTINUOUS
 62
       3
100
AcDbLine
 10
-64.42515069
 20
-1.50742986
 30
0.0
 11
-63.1678631
 21
-1.50742986
 31
0.0
  0
LINE
  5
247
100
AcDbEntity
  8
0
  6
CONTINUOUS
 62
       3
100
AcDbLine
 10
-72.99486016
 20
-0.80576726
 30
0.0
 11
-74.25214776
 21
-0.80576726
 31
0.0
  0
LINE
  5
248
100
AcDbEntity
  8
0
  6
CONTINUOUS
 62
       3
100
AcDbLine
 10
-75.51780694
 20
-6.94058659
 30
0.0
 11
-75.51780694
 21
-11.06870671
 31
0.0
  0
LINE
  5
249
100
AcDbEntity
  8
0
  6
CONTINUOUS
 62
       3
100
AcDbLine
 10
-61.79872987
 20
-17.76973321
 30
0.0
 11
-61.8234232
 21
-17.59266295
 31
0.0
  0
LINE
  5
24A
100
AcDbEntity
  8
0
  6
CONTINUOUS
 62
       3
100
AcDbLine
 10
-65.79993598
 20
-17.95145184
 30
0.0
 11
-65.78495506
 21
-18.13108249
 31
0.0
  0
LINE
  5
24B
100
AcDbEntity
  8
0
  6
CONTINUOUS
 62
       3
100
AcDbLine
 10
-65.75078759
 20
-18.30536101
 30
0.0
 11
-65.69839515
 21
-18.47342683
 31
0.0
  0
LINE
  5
24C
100
AcDbEntity
  8
0
  6
CONTINUOUS
 62
       3
100
AcDbLine
 10
-65.05516614
 20
-19.30316185
 30
0.0
 11
-64.90212389
 21
-19.40364221
 31
0.0
  0
LINE
  5
24D
100
AcDbEntity
  8
0
  6
CONTINUOUS
 62
       3
100
AcDbLine
 10
-66.71222466
 20
-17.76973321
 30
0.0
 11
-66.73690287
 21
-17.59266295
 31
0.0
  0
LINE
  5
24E
100
AcDbEntity
  8
0
  6
CONTINUOUS
 62
       3
100
AcDbLine
 10
-67.37934946
 20
-16.56316557
 30
0.0
 11
-67.52670897
 21
-16.45643118
 31
0.0
  0
LINE
  5
24F
100
AcDbEntity
  8
0
  6
CONTINUOUS
 62
       3
100
AcDbLine
 10
-70.29890394
 20
-16.81119413
 30
0.0
 11
-70.40750263
 21
-16.95076539
 31
0.0
  0
LINE
  5
250
100
AcDbEntity
  8
0
  6
CONTINUOUS
 62
       3
100
AcDbLine
 10
-70.70840251
 20
-17.76973321
 30
0.0
 11
-70.71343451
 21
-17.95145184
 31
0.0
  0
LINE
  5
251
100
AcDbEntity
  8
0
  6
CONTINUOUS
 62
       3
100
AcDbLine
 10
-70.71343451
 20
-17.95145184
 30
0.0
 11
-70.69845374
 21
-18.13108249
 31
0.0
  0
LINE
  5
252
100
AcDbEntity
  8
0
  6
CONTINUOUS
 62
       3
100
AcDbLine
 10
-70.69845374
 20
-18.13108249
 30
0.0
 11
-70.66428694
 21
-18.30536101
 31
0.0
  0
LINE
  5
253
100
AcDbEntity
  8
0
  6
CONTINUOUS
 62
       3
100
AcDbLine
 10
-69.81570023
 20
-19.40364221
 30
0.0
 11
-69.65215092
 21
-19.49102516
 31
0.0
  0
LINE
  5
254
100
AcDbEntity
  8
0
  6
CONTINUOUS
 62
       3
100
AcDbLine
 10
-72.36547349
 20
-19.30316185
 30
0.0
 11
-72.22398662
 21
-19.19044465
 31
0.0
  0
LINE
  5
255
100
AcDbEntity
  8
0
  6
CONTINUOUS
 62
       3
100
AcDbLine
 10
-71.75522643
 20
-17.25671457
 30
0.0
 11
-71.83312336
 21
-17.09955935
 31
0.0
  0
LINE
  5
256
100
AcDbEntity
  8
0
  6
CONTINUOUS
 62
       3
100
AcDbLine
 10
-72.29323412
 20
-16.56316557
 30
0.0
 11
-72.44058454
 21
-16.45643118
 31
0.0
  0
LINE
  5
257
100
AcDbEntity
  8
0
  6
CONTINUOUS
 62
       3
100
AcDbLine
 10
-62.33065473
 20
2.82591799
 30
0.0
 11
-62.46605147
 21
2.94451661
 31
0.0
  0
LINE
  5
258
100
AcDbEntity
  8
0
  6
CONTINUOUS
 62
       3
100
AcDbLine
 10
-63.49595643
 20
3.37792535
 30
0.0
 11
-63.69487423
 21
3.39573988
 31
0.0
  0
LINE
  5
259
100
AcDbEntity
  8
0
  6
CONTINUOUS
 62
       3
100
AcDbLine
 10
-65.58773819
 20
2.40790505
 30
0.0
 11
-65.66566507
 21
2.25070568
 31
0.0
  0
LINE
  5
25A
100
AcDbEntity
  8
0
  6
CONTINUOUS
 62
       3
100
AcDbLine
 10
-65.69839515
 20
1.03387735
 30
0.0
 11
-65.62873935
 21
0.87286455
 31
0.0
  0
LINE
  5
25B
100
AcDbEntity
  8
0
  6
CONTINUOUS
 62
       3
100
AcDbLine
 10
-68.50835627
 20
-0.18534129
 30
0.0
 11
-68.31228854
 21
-0.15894434
 31
0.0
  0
LINE
  5
25C
100
AcDbEntity
  8
0
  6
CONTINUOUS
 62
       3
100
AcDbLine
 10
-66.72216693
 20
1.37624871
 30
0.0
 11
-66.70719603
 21
1.55588436
 31
0.0
  0
LINE
  5
25D
100
AcDbEntity
  8
0
  6
CONTINUOUS
 62
       3
100
AcDbLine
 10
-67.12151715
 20
2.69637439
 30
0.0
 11
-67.24396556
 21
2.82591799
 31
0.0
  0
LINE
  5
25E
100
AcDbEntity
  8
0
  6
CONTINUOUS
 62
       3
100
AcDbLine
 10
-70.57916741
 20
2.25070568
 30
0.0
 11
-70.64030942
 21
2.0860141
 31
0.0
  0
LINE
  5
25F
100
AcDbEntity
  8
0
  6
CONTINUOUS
 62
       3
100
AcDbLine
 10
-70.64030942
 20
2.0860141
 30
0.0
 11
-70.68370847
 21
1.91469349
 31
0.0
  0
LINE
  5
260
100
AcDbEntity
  8
0
  6
CONTINUOUS
 62
       3
100
AcDbLine
 10
-70.35500027
 20
0.57549198
 30
0.0
 11
-70.23933392
 21
0.44085513
 31
0.0
  0
LINE
  5
261
100
AcDbEntity
  8
0
  6
CONTINUOUS
 62
       3
100
AcDbLine
 10
-73.72521901
 20
3.39573988
 30
0.0
 11
-73.92428153
 21
3.37792535
 31
0.0
  0
LINE
  5
262
100
AcDbEntity
  8
0
  6
CONTINUOUS
 62
       3
100
AcDbLine
 10
-76.80113946
 20
-31.48699528
 30
0.0
 11
-76.80113946
 21
-15.18535466
 31
0.0
  0
LINE
  5
263
100
AcDbEntity
  8
0
  6
CONTINUOUS
 62
       3
100
AcDbLine
 10
-65.69049981
 20
-30.57635319
 30
0.0
 11
-61.90282403
 21
-30.57635319
 31
0.0
  0
LINE
  5
264
100
AcDbEntity
  8
0
  6
CONTINUOUS
 62
       3
100
AcDbLine
 10
-65.69049981
 20
-26.44823307
 30
0.0
 11
-65.69049981
 21
-30.57635319
 31
0.0
  0
LINE
  5
265
100
AcDbEntity
  8
0
  6
CONTINUOUS
 62
       3
100
AcDbLine
 10
-66.81632257
 20
-8.06175847
 30
0.0
 11
-70.60368829
 21
-8.06175847
 31
0.0
  0
LINE
  5
266
100
AcDbEntity
  8
0
  6
CONTINUOUS
 62
       3
100
AcDbLine
 10
-61.90282403
 20
-6.94058659
 30
0.0
 11
-65.69049981
 21
-6.94058659
 31
0.0
  0
LINE
  5
267
100
AcDbEntity
  8
0
  6
CONTINUOUS
 62
       3
100
AcDbLine
 10
-66.81570245
 20
-11.06870671
 30
0.0
 11
-66.81570245
 21
-6.94058659
 31
0.0
  0
LINE
  5
268
100
AcDbEntity
  8
0
  6
CONTINUOUS
 62
       3
100
AcDbLine
 10
-63.02783081
 20
-19.56445011
 30
0.0
 11
-62.85477575
 21
-19.49102516
 31
0.0
  0
LINE
  5
269
100
AcDbEntity
  8
0
  6
CONTINUOUS
 62
       3
100
AcDbLine
 10
-62.15209689
 20
-18.93174212
 30
0.0
 11
-62.05082074
 21
-18.78747797
 31
0.0
  0
LINE
  5
26A
100
AcDbEntity
  8
0
  6
CONTINUOUS
 62
       3
100
AcDbLine
 10
-65.58773819
 20
-17.09955935
 30
0.0
 11
-65.66566507
 21
-17.25671457
 31
0.0
  0
LINE
  5
26B
100
AcDbEntity
  8
0
  6
CONTINUOUS
 62
       3
100
AcDbLine
 10
-67.76810281
 20
-19.49102516
 30
0.0
 11
-67.60457963
 21
-19.40364221
 31
0.0
  0
LINE
  5
26C
100
AcDbEntity
  8
0
  6
CONTINUOUS
 62
       3
100
AcDbLine
 10
-69.73518141
 20
-16.36236532
 30
0.0
 11
-69.89358714
 21
-16.45643118
 31
0.0
  0
LINE
  5
26D
100
AcDbEntity
  8
0
  6
CONTINUOUS
 62
       3
100
AcDbLine
 10
-69.89358714
 20
-16.45643118
 30
0.0
 11
-70.04098416
 21
-16.56316557
 31
0.0
  0
LINE
  5
26E
100
AcDbEntity
  8
0
  6
CONTINUOUS
 62
       3
100
AcDbLine
 10
-70.40750263
 20
-16.95076539
 30
0.0
 11
-70.50124447
 21
-17.09955935
 31
0.0
  0
LINE
  5
26F
100
AcDbEntity
  8
0
  6
CONTINUOUS
 62
       3
100
AcDbLine
 10
-70.64030942
 20
-17.42136959
 30
0.0
 11
-70.68370847
 21
-17.59266295
 31
0.0
  0
LINE
  5
270
100
AcDbEntity
  8
0
  6
CONTINUOUS
 62
       3
100
AcDbLine
 10
-73.03667182
 20
-19.62305646
 30
0.0
 11
-72.85500782
 21
-19.56445011
 31
0.0
  0
LINE
  5
271
100
AcDbEntity
  8
0
  6
CONTINUOUS
 62
       3
100
AcDbLine
 10
-73.82546656
 20
-19.69237103
 30
0.0
 11
-73.62365899
 21
-19.70135808
 31
0.0
  0
LINE
  5
272
100
AcDbEntity
  8
0
  6
CONTINUOUS
 62
       3
100
AcDbLine
 10
-61.84284385
 20
1.20195922
 30
0.0
 11
-61.80867842
 21
1.37624871
 31
0.0
  0
LINE
  5
273
100
AcDbEntity
  8
0
  6
CONTINUOUS
 62
       3
100
AcDbLine
 10
-65.44148409
 20
0.57549198
 30
0.0
 11
-65.32580785
 21
0.44085513
 31
0.0
  0
LINE
  5
274
100
AcDbEntity
  8
0
  6
CONTINUOUS
 62
       3
100
AcDbLine
 10
-64.38365079
 20
-0.1160023
 30
0.0
 11
-64.19424965
 21
-0.15894434
 31
0.0
  0
LINE
  5
275
100
AcDbEntity
  8
0
  6
CONTINUOUS
 62
       3
100
AcDbLine
 10
-68.71016046
 20
-0.19433171
 30
0.0
 11
-68.50835627
 21
-0.18534129
 31
0.0
  0
LINE
  5
276
100
AcDbEntity
  8
0
  6
CONTINUOUS
 62
       3
100
AcDbLine
 10
-67.18106443
 20
0.44085513
 30
0.0
 11
-67.06544371
 21
0.57549198
 31
0.0
  0
LINE
  5
277
100
AcDbEntity
  8
0
  6
CONTINUOUS
 62
       3
100
AcDbLine
 10
-69.73518141
 20
3.14542619
 30
0.0
 11
-69.89358714
 21
3.05130707
 31
0.0
  0
LINE
  5
278
100
AcDbEntity
  8
0
  6
CONTINUOUS
 62
       3
100
AcDbLine
 10
-69.96872186
 20
0.20398755
 30
0.0
 11
-69.81570023
 21
0.10347975
 31
0.0
  0
LINE
  5
279
100
AcDbEntity
  8
0
  6
CONTINUOUS
 62
       3
100
AcDbLine
 10
-72.6819457
 20
0.0160712
 30
0.0
 11
-72.51844705
 21
0.10347975
 31
0.0
  0
LINE
  5
27A
100
AcDbEntity
  8
0
  6
CONTINUOUS
 62
       3
100
AcDbLine
 10
-71.83312336
 20
2.40790505
 30
0.0
 11
-71.9268342
 21
2.55674902
 31
0.0
  0
LINE
  5
27B
100
AcDbEntity
  8
0
  6
CONTINUOUS
 62
       3
100
AcDbLine
 10
-75.49270405
 20
2.25070568
 30
0.0
 11
-75.55383009
 21
2.0860141
 31
0.0
  0
LINE
  5
27C
100
AcDbEntity
  8
0
  6
CONTINUOUS
 62
       3
100
AcDbLine
 10
-74.72933542
 20
0.10347975
 30
0.0
 11
-74.56578663
 21
0.0160712
 31
0.0
  0
LINE
  5
27D
100
AcDbEntity
  8
0
  6
CONTINUOUS
 62
       3
100
AcDbLine
 10
-64.42515069
 20
-20.31310368
 30
0.0
 11
-64.42515069
 21
-21.01476628
 31
0.0
  0
LINE
  5
27E
100
AcDbEntity
  8
0
  6
CONTINUOUS
 62
       3
100
AcDbLine
 10
-72.99486016
 20
-20.31310368
 30
0.0
 11
-74.25214776
 21
-20.31310368
 31
0.0
  0
LINE
  5
27F
100
AcDbEntity
  8
0
  6
CONTINUOUS
 62
       3
100
AcDbLine
 10
-64.42515069
 20
-0.80576726
 30
0.0
 11
-64.42515069
 21
-1.50742986
 31
0.0
  0
LINE
  5
280
100
AcDbEntity
  8
0
  6
CONTINUOUS
 62
       3
100
AcDbLine
 10
-61.90282403
 20
-8.06175847
 30
0.0
 11
-65.69049981
 21
-8.06175847
 31
0.0
  0
LINE
  5
281
100
AcDbEntity
  8
0
  6
CONTINUOUS
 62
       3
100
AcDbLine
 10
-62.5382962
 20
-19.30316185
 30
0.0
 11
-62.39679752
 21
-19.19044465
 31
0.0
  0
LINE
  5
282
100
AcDbEntity
  8
0
  6
CONTINUOUS
 62
       3
100
AcDbLine
 10
-61.89523132
 20
-18.47342683
 30
0.0
 11
-61.84284385
 21
-18.30536101
 31
0.0
  0
LINE
  5
283
100
AcDbEntity
  8
0
  6
CONTINUOUS
 62
       3
100
AcDbLine
 10
-63.30322435
 20
-16.16479349
 30
0.0
 11
-63.49595643
 21
-16.13001631
 31
0.0
  0
LINE
  5
284
100
AcDbEntity
  8
0
  6
CONTINUOUS
 62
       3
100
AcDbLine
 10
-64.19424965
 20
-19.66598363
 30
0.0
 11
-63.99816281
 21
-19.69237103
 31
0.0
  0
LINE
  5
285
100
AcDbEntity
  8
0
  6
CONTINUOUS
 62
       3
100
AcDbLine
 10
-67.68508424
 20
-16.36236532
 30
0.0
 11
-67.85351538
 21
-16.28182945
 31
0.0
  0
LINE
  5
286
100
AcDbEntity
  8
0
  6
CONTINUOUS
 62
       3
100
AcDbLine
 10
-67.85351538
 20
-16.28182945
 30
0.0
 11
-68.03104252
 21
-16.21568502
 31
0.0
  0
LINE
  5
287
100
AcDbEntity
  8
0
  6
CONTINUOUS
 62
       3
100
AcDbLine
 10
-73.22597608
 20
-19.66598363
 30
0.0
 11
-73.03667182
 21
-19.62305646
 31
0.0
  0
LINE
  5
288
100
AcDbEntity
  8
0
  6
CONTINUOUS
 62
       3
100
AcDbLine
 10
-71.67013561
 20
-18.30536101
 30
0.0
 11
-71.63598046
 21
-18.13108249
 31
0.0
  0
LINE
  5
289
100
AcDbEntity
  8
0
  6
CONTINUOUS
 62
       3
100
AcDbLine
 10
-75.59721663
 20
-17.59266295
 30
0.0
 11
-75.62190293
 21
-17.76973321
 31
0.0
  0
LINE
  5
28A
100
AcDbEntity
  8
0
  6
CONTINUOUS
 62
       3
100
AcDbLine
 10
-75.61195735
 20
-18.13108249
 30
0.0
 11
-75.57780084
 21
-18.30536101
 31
0.0
  0
LINE
  5
28B
100
AcDbEntity
  8
0
  6
CONTINUOUS
 62
       3
100
AcDbLine
 10
-62.7717715
 20
3.14542619
 30
0.0
 11
-62.94016898
 21
3.22601076
 31
0.0
  0
LINE
  5
28C
100
AcDbEntity
  8
0
  6
CONTINUOUS
 62
       3
100
AcDbLine
 10
-64.28984603
 20
3.34312354
 30
0.0
 11
-64.47554371
 21
3.29219761
 31
0.0
  0
LINE
  5
28D
100
AcDbEntity
  8
0
  6
CONTINUOUS
 62
       3
100
AcDbLine
 10
-68.31228854
 20
-0.15894434
 30
0.0
 11
-68.12291714
 21
-0.1160023
 31
0.0
  0
LINE
  5
28E
100
AcDbEntity
  8
0
  6
CONTINUOUS
 62
       3
100
AcDbLine
 10
-66.73690287
 20
1.91469349
 30
0.0
 11
-66.78027579
 21
2.0860141
 31
0.0
  0
LINE
  5
28F
100
AcDbEntity
  8
0
  6
CONTINUOUS
 62
       3
100
AcDbLine
 10
-68.40954535
 20
3.37792535
 30
0.0
 11
-68.6086013
 21
3.39573988
 31
0.0
  0
LINE
  5
290
100
AcDbEntity
  8
0
  6
CONTINUOUS
 62
       3
100
AcDbLine
 10
-70.71343451
 20
1.55588436
 30
0.0
 11
-70.69845374
 21
1.37624871
 31
0.0
  0
LINE
  5
291
100
AcDbEntity
  8
0
  6
CONTINUOUS
 62
       3
100
AcDbLine
 10
-70.11025377
 20
0.31673317
 30
0.0
 11
-69.96872186
 21
0.20398755
 31
0.0
  0
LINE
  5
292
100
AcDbEntity
  8
0
  6
CONTINUOUS
 62
       3
100
AcDbLine
 10
-72.36547349
 20
0.20398755
 30
0.0
 11
-72.22398662
 21
0.31673317
 31
0.0
  0
LINE
  5
293
100
AcDbEntity
  8
0
  6
CONTINUOUS
 62
       3
100
AcDbLine
 10
-71.97931934
 20
0.57549198
 30
0.0
 11
-71.87806215
 21
0.71978227
 31
0.0
  0
LINE
  5
294
100
AcDbEntity
  8
0
  6
CONTINUOUS
 62
       3
100
AcDbLine
 10
-75.41479925
 20
2.40790505
 30
0.0
 11
-75.49270405
 21
2.25070568
 31
0.0
  0
LINE
  5
295
100
AcDbEntity
  8
0
  6
CONTINUOUS
 62
       3
100
AcDbLine
 10
-74.21093011
 20
-0.1160023
 30
0.0
 11
-74.02154385
 21
-0.15894434
 31
0.0
  0
LINE
  5
296
100
AcDbEntity
  8
0
  6
CONTINUOUS
 62
       3
100
AcDbLine
 10
-73.82546656
 20
-0.18534129
 30
0.0
 11
-73.62365899
 21
-0.19433171
 31
0.0
  0
LINE
  5
297
100
AcDbEntity
  8
0
  6
CONTINUOUS
 62
       3
100
AcDbLine
 10
-77.70030938
 20
-5.43866277
 30
0.0
 11
-59.71970147
 21
-5.43866277
 31
0.0
  0
LINE
  5
298
100
AcDbEntity
  8
0
  6
CONTINUOUS
 62
       3
100
AcDbLine
 10
-77.70030938
 20
-24.94599919
 30
0.0
 11
-59.71970147
 21
-24.94599919
 31
0.0
  0
LINE
  5
299
100
AcDbEntity
  8
0
  6
CONTINUOUS
 62
       3
100
AcDbLine
 10
-64.42515069
 20
-21.01476628
 30
0.0
 11
-63.1678631
 21
-21.01476628
 31
0.0
  0
LINE
  5
29A
100
AcDbEntity
  8
0
  6
CONTINUOUS
 62
       3
100
AcDbLine
 10
-63.1678631
 20
-20.31310368
 30
0.0
 11
-64.42515069
 21
-20.31310368
 31
0.0
  0
LINE
  5
29B
100
AcDbEntity
  8
0
  6
CONTINUOUS
 62
       3
100
AcDbLine
 10
-74.25214776
 20
-20.31310368
 30
0.0
 11
-74.25214776
 21
-21.01476628
 31
0.0
  0
LINE
  5
29C
100
AcDbEntity
  8
0
  6
CONTINUOUS
 62
       3
100
AcDbLine
 10
-71.73013116
 20
-27.56971501
 30
0.0
 11
-75.51780694
 21
-27.56971501
 31
0.0
  0
LINE
  5
29D
100
AcDbEntity
  8
0
  6
CONTINUOUS
 62
       3
100
AcDbLine
 10
-61.90282403
 20
-26.44823307
 30
0.0
 11
-65.69049981
 21
-26.44823307
 31
0.0
  0
LINE
  5
29E
100
AcDbEntity
  8
0
  6
CONTINUOUS
 62
       3
100
AcDbLine
 10
-66.81570245
 20
-26.44823307
 30
0.0
 11
-70.60368829
 21
-26.44823307
 31
0.0
  0
LINE
  5
29F
100
AcDbEntity
  8
0
  6
CONTINUOUS
 62
       3
100
AcDbLine
 10
-71.73013116
 20
-26.44823307
 30
0.0
 11
-75.51780694
 21
-26.44823307
 31
0.0
  0
LINE
  5
2A0
100
AcDbEntity
  8
0
  6
CONTINUOUS
 62
       3
100
AcDbLine
 10
-74.25214776
 20
-1.50742986
 30
0.0
 11
-72.99486016
 21
-1.50742986
 31
0.0
  0
LINE
  5
2A1
100
AcDbEntity
  8
0
  6
CONTINUOUS
 62
       3
100
AcDbLine
 10
-62.20818405
 20
-16.81119413
 30
0.0
 11
-62.33065473
 21
-16.68170704
 31
0.0
  0
LINE
  5
2A2
100
AcDbEntity
  8
0
  6
CONTINUOUS
 62
       3
100
AcDbLine
 10
-68.50835627
 20
-19.69237103
 30
0.0
 11
-68.31228854
 21
-19.66598363
 31
0.0
  0
LINE
  5
2A3
100
AcDbEntity
  8
0
  6
CONTINUOUS
 62
       3
100
AcDbLine
 10
-68.40954535
 20
-16.13001631
 30
0.0
 11
-68.6086013
 21
-16.11221494
 31
0.0
  0
LINE
  5
2A4
100
AcDbEntity
  8
0
  6
CONTINUOUS
 62
       3
100
AcDbLine
 10
-69.01071226
 20
-16.13001631
 30
0.0
 11
-69.20353241
 21
-16.16479349
 31
0.0
  0
LINE
  5
2A5
100
AcDbEntity
  8
0
  6
CONTINUOUS
 62
       3
100
AcDbLine
 10
-72.44058454
 20
-16.45643118
 30
0.0
 11
-72.59894084
 21
-16.36236532
 31
0.0
  0
LINE
  5
2A6
100
AcDbEntity
  8
0
  6
CONTINUOUS
 62
       3
100
AcDbLine
 10
-75.52542446
 20
-18.47342683
 30
0.0
 11
-75.45578895
 21
-18.63441934
 31
0.0
  0
LINE
  5
2A7
100
AcDbEntity
  8
0
  6
CONTINUOUS
 62
       3
100
AcDbLine
 10
-74.02154385
 20
-19.66598363
 30
0.0
 11
-73.82546656
 21
-19.69237103
 31
0.0
  0
LINE
  5
2A8
100
AcDbEntity
  8
0
  6
CONTINUOUS
 62
       3
100
AcDbLine
 10
-61.79872987
 20
1.73760706
 30
0.0
 11
-61.8234232
 21
1.91469349
 31
0.0
  0
LINE
  5
2A9
100
AcDbEntity
  8
0
  6
CONTINUOUS
 62
       3
100
AcDbLine
 10
-62.46605147
 20
2.94451661
 30
0.0
 11
-62.61341136
 21
3.05130707
 31
0.0
  0
LINE
  5
2AA
100
AcDbEntity
  8
0
  6
CONTINUOUS
 62
       3
100
AcDbLine
 10
-63.89791275
 20
3.39573988
 30
0.0
 11
-64.09698185
 21
3.37792535
 31
0.0
  0
LINE
  5
2AB
100
AcDbEntity
  8
0
  6
CONTINUOUS
 62
       3
100
AcDbLine
 10
-64.47554371
 20
3.29219761
 30
0.0
 11
-64.65311327
 21
3.22601076
 31
0.0
  0
LINE
  5
2AC
100
AcDbEntity
  8
0
  6
CONTINUOUS
 62
       3
100
AcDbLine
 10
-65.79490394
 20
1.73760706
 30
0.0
 11
-65.79993598
 21
1.55588436
 31
0.0
  0
LINE
  5
2AD
100
AcDbEntity
  8
0
  6
CONTINUOUS
 62
       3
100
AcDbLine
 10
-65.79993598
 20
1.55588436
 30
0.0
 11
-65.78495506
 21
1.37624871
 31
0.0
  0
LINE
  5
2AE
100
AcDbEntity
  8
0
  6
CONTINUOUS
 62
       3
100
AcDbLine
 10
-64.90212389
 20
0.10347975
 30
0.0
 11
-64.73854951
 21
0.0160712
 31
0.0
  0
LINE
  5
2AF
100
AcDbEntity
  8
0
  6
CONTINUOUS
 62
       3
100
AcDbLine
 10
-67.06544371
 20
0.57549198
 30
0.0
 11
-66.96419829
 21
0.71978227
 31
0.0
  0
LINE
  5
2B0
100
AcDbEntity
  8
0
  6
CONTINUOUS
 62
       3
100
AcDbLine
 10
-66.71222466
 20
1.73760706
 30
0.0
 11
-66.73690287
 21
1.91469349
 31
0.0
  0
LINE
  5
2B1
100
AcDbEntity
  8
0
  6
CONTINUOUS
 62
       3
100
AcDbLine
 10
-66.78027579
 20
2.0860141
 30
0.0
 11
-66.84138354
 21
2.25070568
 31
0.0
  0
LINE
  5
2B2
100
AcDbEntity
  8
0
  6
CONTINUOUS
 62
       3
100
AcDbLine
 10
-70.68370847
 20
1.91469349
 30
0.0
 11
-70.70840251
 21
1.73760706
 31
0.0
  0
LINE
  5
2B3
100
AcDbEntity
  8
0
  6
CONTINUOUS
 62
       3
100
AcDbLine
 10
-69.47903597
 20
-0.05737664
 30
0.0
 11
-69.29731741
 21
-0.1160023
 31
0.0
  0
LINE
  5
2B4
100
AcDbEntity
  8
0
  6
CONTINUOUS
 62
       3
100
AcDbLine
 10
-73.62365899
 20
-0.19433171
 30
0.0
 11
-73.421959
 21
-0.18534129
 31
0.0
  0
LINE
  5
2B5
100
AcDbEntity
  8
0
  6
CONTINUOUS
 62
       3
100
AcDbLine
 10
-71.75522643
 20
2.25070568
 30
0.0
 11
-71.83312336
 21
2.40790505
 31
0.0
  0
LINE
  5
2B6
100
AcDbEntity
  8
0
  6
CONTINUOUS
 62
       3
100
AcDbLine
 10
-71.9268342
 20
2.55674902
 30
0.0
 11
-72.03539735
 21
2.69637439
 31
0.0
  0
LINE
  5
2B7
100
AcDbEntity
  8
0
  6
CONTINUOUS
 62
       3
100
AcDbLine
 10
-74.48036224
 20
3.22601076
 30
0.0
 11
-74.64881773
 21
3.14542619
 31
0.0
  0
LINE
  5
2B8
100
AcDbEntity
  8
0
  6
CONTINUOUS
 62
       3
100
AcDbLine
 10
-75.36985504
 20
0.71978227
 30
0.0
 11
-75.26858348
 21
0.57549198
 31
0.0
  0
LINE
  5
2B9
100
AcDbEntity
  8
0
  6
CONTINUOUS
 62
       3
100
AcDbLine
 10
-60.62011163
 20
-15.18535466
 30
0.0
 11
-60.62011163
 21
-31.48699528
 31
0.0
  0
LINE
  5
2BA
100
AcDbEntity
  8
0
  6
CONTINUOUS
 62
       3
100
AcDbLine
 10
-74.25214776
 20
-21.01476628
 30
0.0
 11
-72.99486016
 21
-21.01476628
 31
0.0
  0
LINE
  5
2BB
100
AcDbEntity
  8
0
  6
CONTINUOUS
 62
       3
100
AcDbLine
 10
-60.62011163
 20
-11.9793488
 30
0.0
 11
-76.80113946
 21
-11.9793488
 31
0.0
  0
LINE
  5
2BC
100
AcDbEntity
  8
0
  6
CONTINUOUS
 62
       3
100
AcDbLine
 10
15.31082954
 20
-38.24279375
 30
0.0
 11
3.79241433
 21
-27.89428062
 31
0.0
  0
LINE
  5
2BD
100
AcDbEntity
  8
0
  6
CONTINUOUS
 62
       3
100
AcDbLine
 10
-2.66982688
 20
-21.72635075
 30
0.0
 11
3.79241433
 21
-28.03387272
 31
0.0
  0
LINE
  5
2BE
100
AcDbEntity
  8
0
  6
CONTINUOUS
 62
       3
100
AcDbLine
 10
-2.66982688
 20
-2.21870427
 30
0.0
 11
3.73071267
 21
-8.52622624
 31
0.0
  0
ARC
  5
2BF
100
AcDbEntity
  8
SLD-0_0
  6
CONTINUOUS
 62
       3
100
AcDbCircle
 10
16.31330965
 20
-37.126983
 30
0.0
 40
1.5
100
AcDbArc
 50
228.06246059
 51
269.99987934
  0
TEXT
  5
2C0
100
AcDbEntity
  8
SLD-0_0
 62
       3
100
AcDbText
 10
74.00181377
 20
-69.04732489
 30
0.0
 40
5.0
  1
000
 72
       5
 11
89.00181377
 21
-69.04732489
 31
0.0
100
AcDbText
  0
ENDSEC
  0
SECTION
  2
OBJECTS
  0
DICTIONARY
  5
19
100
AcDbDictionary
  3
ACAD_GROUP
350
1A
  3
ACAD_MLINESTYLE
350
1B
  0
DICTIONARY
  5
1A
102
{ACAD_REACTORS
330
19
102
}
100
AcDbDictionary
  0
DICTIONARY
  5
1B
102
{ACAD_REACTORS
330
19
102
}
100
AcDbDictionary
  3
STANDARD
350
1C
  0
MLINESTYLE
  5
1C
102
{ACAD_REACTORS
330
1B
102
}
100
AcDbMlineStyle
  2
STANDARD
 70
       0
  3

 62
       0
 51
90.0
 52
90.0
 71
       2
 49
0.5
 62
     256
  6
BYLAYER
 49
-0.5
 62
     256
  6
BYLAYER
  0
ENDSEC
  0
EOF
