  0
SECTION
  2
HEADER
  9
$ACADVER
  1
AC1014
  9
$ACADMAINTVER
 70
       0
  9
$DWGCODEPAGE
  3
ANSI_932
  9
$INSBASE
 10
0.0
 20
0.0
 30
0.0
  9
$EXTMIN
 10
-96.08111558
 20
-63.58847114
 30
0.0
  9
$EXTMAX
 10
96.08111558
 20
63.58847114
 30
0.0
  9
$LIMMIN
 10
-102.08618531
 20
-67.56275058
  9
$LIMMAX
 10
102.08618531
 20
67.56275058
  9
$ORTHOMODE
 70
       0
  9
$REGENMODE
 70
       1
  9
$FILLMODE
 70
       1
  9
$QTEXTMODE
 70
       0
  9
$MIRRTEXT
 70
       1
  9
$DRAGMODE
 70
       2
  9
$LTSCALE
 40
1.0
  9
$OSMODE
 70
       0
  9
$ATTMODE
 70
       1
  9
$TEXTSIZE
 40
0.2
  9
$TRACEWID
 40
0.05
  9
$TEXTSTYLE
  7
STANDARD
  9
$CLAYER
  8
0
  9
$CELTYPE
  6
CONTINUOUS
  9
$CECOLOR
 62
     256
  9
$CELTSCALE
 40
1.0
  9
$DELOBJ
 70
       1
  9
$DISPSILH
 70
       0
  9
$DIMSCALE
 40
1.0
  9
$DIMASZ
 40
0.18
  9
$DIMEXO
 40
0.0625
  9
$DIMDLI
 40
0.38
  9
$DIMRND
 40
0.0
  9
$DIMDLE
 40
0.0
  9
$DIMEXE
 40
0.18
  9
$DIMTP
 40
0.0
  9
$DIMTM
 40
0.0
  9
$DIMTXT
 40
0.18
  9
$DIMCEN
 40
0.09
  9
$DIMTSZ
 40
0.0
  9
$DIMTOL
 70
       0
  9
$DIMLIM
 70
       0
  9
$DIMTIH
 70
       1
  9
$DIMTOH
 70
       1
  9
$DIMSE1
 70
       0
  9
$DIMSE2
 70
       0
  9
$DIMTAD
 70
       0
  9
$DIMZIN
 70
       0
  9
$DIMBLK
  1

  9
$DIMASO
 70
       1
  9
$DIMSHO
 70
       1
  9
$DIMPOST
  1

  9
$DIMAPOST
  1

  9
$DIMALT
 70
       0
  9
$DIMALTD
 70
       2
  9
$DIMALTF
 40
25.4
  9
$DIMLFAC
 40
1.0
  9
$DIMTOFL
 70
       0
  9
$DIMTVP
 40
0.0
  9
$DIMTIX
 70
       0
  9
$DIMSOXD
 70
       0
  9
$DIMSAH
 70
       0
  9
$DIMBLK1
  1

  9
$DIMBLK2
  1

  9
$DIMSTYLE
  2
STANDARD
  9
$DIMCLRD
 70
       0
  9
$DIMCLRE
 70
       0
  9
$DIMCLRT
 70
       0
  9
$DIMTFAC
 40
1.0
  9
$DIMGAP
 40
0.09
  9
$DIMJUST
 70
       0
  9
$DIMSD1
 70
       0
  9
$DIMSD2
 70
       0
  9
$DIMTOLJ
 70
       1
  9
$DIMTZIN
 70
       0
  9
$DIMALTZ
 70
       0
  9
$DIMALTTZ
 70
       0
  9
$DIMFIT
 70
       3
  9
$DIMUPT
 70
       0
  9
$DIMUNIT
 70
       2
  9
$DIMDEC
 70
       4
  9
$DIMTDEC
 70
       4
  9
$DIMALTU
 70
       2
  9
$DIMALTTD
 70
       2
  9
$DIMTXSTY
  7
STANDARD
  9
$DIMAUNIT
 70
       0
  9
$LUNITS
 70
       2
  9
$LUPREC
 70
       4
  9
$SKETCHINC
 40
0.1
  9
$FILLETRAD
 40
0.0
  9
$AUNITS
 70
       0
  9
$AUPREC
 70
       0
  9
$MENU
  1
acad
  9
$ELEVATION
 40
0.0
  9
$PELEVATION
 40
0.0
  9
$THICKNESS
 40
0.0
  9
$LIMCHECK
 70
       0
  9
$BLIPMODE
 70
       1
  9
$CHAMFERA
 40
0.0
  9
$CHAMFERB
 40
0.0
  9
$CHAMFERC
 40
0.0
  9
$CHAMFERD
 40
0.0
  9
$SKPOLY
 70
       0
  9
$TDCREATE
 40
0.000000000
  9
$TDUPDATE
 40
0.000000000
  9
$TDINDWG
 40
0.0000000000
  9
$TDUSRTIMER
 40
0.0000000000
  9
$USRTIMER
 70
       1
  9
$ANGBASE
 50
0.0
  9
$ANGDIR
 70
       0
  9
$PDMODE
 70
       0
  9
$PDSIZE
 40
1.0
  9
$PLINEWID
 40
0.0
  9
$COORDS
 70
       1
  9
$SPLFRAME
 70
       0
  9
$SPLINETYPE
 70
       6
  9
$SPLINESEGS
 70
       8
  9
$ATTDIA
 70
       0
  9
$ATTREQ
 70
       1
  9
$HANDLING
 70
       1
  9
$HANDSEED
  5
34F
  9
$SURFTAB1
 70
       6
  9
$SURFTAB2
 70
       6
  9
$SURFTYPE
 70
       6
  9
$SURFU
 70
       6
  9
$SURFV
 70
       6
  9
$UCSNAME
  2

  9
$UCSORG
 10
0.0
 20
0.0
 30
0.0
  9
$UCSXDIR
 10
1.0
 20
0.0
 30
0.0
  9
$UCSYDIR
 10
0.0
 20
1.0
 30
0.0
  9
$PUCSNAME
  2

  9
$PUCSORG
 10
0.0
 20
0.0
 30
0.0
  9
$PUCSXDIR
 10
1.0
 20
0.0
 30
0.0
  9
$PUCSYDIR
 10
0.0
 20
1.0
 30
0.0
  9
$USERI1
 70
       0
  9
$USERI2
 70
       0
  9
$USERI3
 70
       0
  9
$USERI4
 70
       0
  9
$USERI5
 70
       0
  9
$USERR1
 40
0.0
  9
$USERR2
 40
0.0
  9
$USERR3
 40
0.0
  9
$USERR4
 40
0.0
  9
$USERR5
 40
0.0
  9
$WORLDVIEW
 70
       1
  9
$SHADEDGE
 70
       3
  9
$SHADEDIF
 70
      70
  9
$TILEMODE
 70
       1
  9
$MAXACTVP
 70
      16
  9
$PINSBASE
 10
0.0
 20
0.0
 30
0.0
  9
$PLIMCHECK
 70
       0
  9
$PEXTMIN
 10
1.00000000E+20
 20
1.00000000E+20
 30
1.00000000E+20
  9
$PEXTMAX
 10
-1.00000000E+20
 20
-1.00000000E+20
 30
-1.00000000E+20
  9
$PLIMMIN
 10
0.0
 20
0.0
  9
$PLIMMAX
 10
12.0
 20
9.0
  9
$UNITMODE
 70
       0
  9
$VISRETAIN
 70
       0
  9
$PLINEGEN
 70
       1
  9
$PSLTSCALE
 70
       0
  9
$TREEDEPTH
 70
    3020
  9
$PICKSTYLE
 70
       1
  9
$CMLSTYLE
  2
STANDARD
  9
$CMLJUST
 70
       0
  9
$CMLSCALE
 40
1.0
  9
$PROXYGRAPHICS
 70
       0
  9
$MEASUREMENT
 70
       0
  0
ENDSEC
  0
SECTION
  2
CLASSES
  0
CLASS
  1
LWPOLYLINE
  2
AcDbPolyline
  3
"AutoCAD"
 90
        0
280
       0
281
       1
  0
CLASS
  1
IMAGE
  2
AcDbRasterImage
  3
ISM
 90
      127
280
       0
281
       1
  0
CLASS
  1
OLE2FRAME
  2
AcDbOle2Frame
  3
""
 90
        0
280
       0
281
       1
  0
CLASS
  1
HATCH
  2
AcDbHatch
  3
"ACAD_SEDONA"
 90
        0
280
       0
281
       1
  0
CLASS
  1
DICTIONARYVAR
  2
AcDbDictionaryVar
  3
"AutoCAD"
 90
        0
280
       0
281
       0
  0
CLASS
  1
RASTERVARIABLES
  2
AcDbRasterVariables
  3
ISM
 90
        0
280
       0
281
       0
  0
CLASS
  1
IMAGEDEF
  2
AcDbRasterImageDef
  3
ISM
 90
        0
280
       0
281
       0
  0
CLASS
  1
IMAGEDEF_REACTOR
  2
AcDbRasterImageDefReactor
  3
ISM
 90
        1
280
       0
281
       0
  0
CLASS
  1
IDBUFFER
  2
AcDbIdBuffer
  3
"Acad"
 90
        0
280
       0
281
       0
  0
CLASS
  1
SPATIAL_FILTER
  2
AcDbSpatialFilter
  3
"Acad"
 90
        0
280
       0
281
       0
  0
CLASS
  1
XRECORD
  2
AcDbXrecord
  3
"<Built In>"
 90
        0
280
       0
281
       0
  0
CLASS
  1
SORTENTSTABLE
  2
AcDbSortentsTable
  3
"AutoCAD"
 90
        0
280
       0
281
       0
  0
CLASS
  1
LAYER_INDEX
  2
AcDbLayerIndex
  3
"Acad"
 90
        0
280
       0
281
       0
  0
CLASS
  1
SPATIAL_INDEX
  2
AcDbSpatialIndex
  3
"Acad"
 90
        0
280
       0
281
       0
  0
CLASS
  1
OBJECT_PTR
  2
CAseDLPNTableRecord
  3
"ASE-LPNTableRecord"
 90
        1
280
       0
281
       0
  0
CLASS
  1
LAYOUT
  2
AcDbLayout
  3
"AutoCAD 2000"
 90
        1
280
       0
281
       0
  0
CLASS
  1
PLOTSETTINGS
  2
AcDbPlotSettings
  3
"AutoCAD 2000"
 90
        1
280
       0
281
       0
  0
CLASS
  1
ACDBDICTIONARYWDFLT
  2
AcDbDictionaryWithDefault
  3
"AutoCAD 2000"
 90
        1
280
       0
281
       0
  0
CLASS
  1
ACDBPLACEHOLDER
  2
AcDbPlaceHolder
  3
"AutoCAD 2000"
 90
        1
280
       0
281
       0
  0
CLASS
  1
VBA_PROJECT
  2
AcDbVbaProject
  3
"acadvba"
 90
        1
280
       0
281
       0
  0
CLASS
  1
WIPEOUT
  2
AcDbWipeout
  3
WipeOut|AutoCAD Express Tool|expresstools@autodesk.com
 90
      127
280
       0
281
       1
  0
CLASS
  1
WIPEOUTVARIABLES
  2
AcDbWipeoutVariables
  3
WipeOut|AutoCAD Express Tool|expresstools@autodesk.com
 90
        0
280
       0
281
       0
  0
CLASS
  1
RTEXT
  2
RText
  3
RText|AutoCAD Express Tool|expresstools@autodesk.com
 90
        0
280
       0
281
       1
  0
CLASS
  1
ARCALIGNEDTEXT
  2
AcDbArcAlignedText
  3
ATEXT|AutoCAD Express Tool|expresstools@autodesk.com
 90
        0
280
       0
281
       1
  0
ENDSEC
  0
SECTION
  2
TABLES
  0
TABLE
  2
VPORT
  5
7
100
AcDbSymbolTable
 70
       1
  0
VPORT
  5
15
100
AcDbSymbolTableRecord
100
AcDbViewportTableRecord
  2
*ACTIVE
 70
       0
 10
0.0
 20
0.0
 11
1.0
 21
1.0
 12
0.0
 22
0.0
 13
0.0
 23
0.0
 14
1.0
 24
1.0
 15
0.0
 25
0.0
 16
0.0
 26
0.0
 36
1.0
 17
0.0
 27
0.0
 37
0.0
 40
135.12550117
 41
1.51098326
 42
50.0
 43
0.0
 44
0.0
 50
0.0
 51
0.0
 71
       0
 72
     100
 73
       1
 74
       1
 75
       0
 76
       0
 77
       0
 78
       0
  0
ENDTAB
  0
TABLE
  2
LTYPE
  5
4
100
AcDbSymbolTable
 70
      30
  0
LTYPE
  5
11
100
AcDbSymbolTableRecord
100
AcDbLinetypeTableRecord
  2
BYBLOCK
 70
      64
  3

 72
      65
 73
       0
 40
0.0
  0
LTYPE
  5
12
100
AcDbSymbolTableRecord
100
AcDbLinetypeTableRecord
  2
BYLAYER
 70
      64
  3

 72
      65
 73
       0
 40
0.0
  0
LTYPE
  5
13
100
AcDbSymbolTableRecord
100
AcDbLinetypeTableRecord
  2
CONTINUOUS
 70
      64
  3
Solid line
 72
      65
 73
       0
 40
0.0
  0
LTYPE
  5
1D
100
AcDbSymbolTableRecord
100
AcDbLinetypeTableRecord
  2
HIDDENX2
 70
      64
  3
CADPAC LINETYPE
 72
      65
 73
       2
 40
7.68648925
 49
5.76486693
 74
       0
 49
-1.92162231
 74
       0
  0
LTYPE
  5
1E
100
AcDbSymbolTableRecord
100
AcDbLinetypeTableRecord
  2
HIDDEN
 70
      64
  3
CADPAC LINETYPE
 72
      65
 73
       2
 40
5.76486693
 49
3.84324462
 74
       0
 49
-1.92162231
 74
       0
  0
LTYPE
  5
1F
100
AcDbSymbolTableRecord
100
AcDbLinetypeTableRecord
  2
HIDDEN2
 70
      64
  3
CADPAC LINETYPE
 72
      65
 73
       2
 40
4.80405578
 49
2.88243347
 74
       0
 49
-1.92162231
 74
       0
  0
LTYPE
  5
20
100
AcDbSymbolTableRecord
100
AcDbLinetypeTableRecord
  2
DASHED
 70
      64
  3
CADPAC LINETYPE
 72
      65
 73
       2
 40
5.76486693
 49
3.84324462
 74
       0
 49
-1.92162231
 74
       0
  0
LTYPE
  5
21
100
AcDbSymbolTableRecord
100
AcDbLinetypeTableRecord
  2
DASHED2
 70
      64
  3
CADPAC LINETYPE
 72
      65
 73
       2
 40
4.3236502
 49
2.88243347
 74
       0
 49
-1.44121673
 74
       0
  0
LTYPE
  5
22
100
AcDbSymbolTableRecord
100
AcDbLinetypeTableRecord
  2
DASHEDX2
 70
      64
  3
CADPAC LINETYPE
 72
      65
 73
       2
 40
8.6473004
 49
5.76486693
 74
       0
 49
-2.88243347
 74
       0
  0
LTYPE
  5
23
100
AcDbSymbolTableRecord
100
AcDbLinetypeTableRecord
  2
DOTX2
 70
      64
  3
CADPAC LINETYPE
 72
      65
 73
       2
 40
2.40202789
 49
0.0
 74
       0
 49
-2.40202789
 74
       0
  0
LTYPE
  5
24
100
AcDbSymbolTableRecord
100
AcDbLinetypeTableRecord
  2
DOT
 70
      64
  3
CADPAC LINETYPE
 72
      65
 73
       2
 40
1.92162231
 49
0.0
 74
       0
 49
-1.92162231
 74
       0
  0
LTYPE
  5
25
100
AcDbSymbolTableRecord
100
AcDbLinetypeTableRecord
  2
DOT2
 70
      64
  3
CADPAC LINETYPE
 72
      65
 73
       2
 40
1.44121673
 49
0.0
 74
       0
 49
-1.44121673
 74
       0
  0
LTYPE
  5
26
100
AcDbSymbolTableRecord
100
AcDbLinetypeTableRecord
  2
CENTERX2
 70
      64
  3
CADPAC LINETYPE
 72
      65
 73
       4
 40
11.52973387
 49
4.80405578
 74
       0
 49
-2.40202789
 74
       0
 49
1.92162231
 74
       0
 49
-2.40202789
 74
       0
  0
LTYPE
  5
27
100
AcDbSymbolTableRecord
100
AcDbLinetypeTableRecord
  2
CENTER
 70
      64
  3
CADPAC LINETYPE
 72
      65
 73
       4
 40
8.83946263
 49
3.84324462
 74
       0
 49
-1.92162231
 74
       0
 49
1.15297339
 74
       0
 49
-1.92162231
 74
       0
  0
LTYPE
  5
28
100
AcDbSymbolTableRecord
100
AcDbLinetypeTableRecord
  2
CENTER2
 70
      64
  3
CADPAC LINETYPE
 72
      65
 73
       4
 40
6.1491914
 49
2.88243347
 74
       0
 49
-1.44121673
 74
       0
 49
0.38432446
 74
       0
 49
-1.44121673
 74
       0
  0
LTYPE
  5
29
100
AcDbSymbolTableRecord
100
AcDbLinetypeTableRecord
  2
DASHDOTX2
 70
      64
  3
CADPAC LINETYPE
 72
      65
 73
       4
 40
9.60811156
 49
4.80405578
 74
       0
 49
-2.40202789
 74
       0
 49
0.0
 74
       0
 49
-2.40202789
 74
       0
  0
LTYPE
  5
2A
100
AcDbSymbolTableRecord
100
AcDbLinetypeTableRecord
  2
DASHDOT
 70
      64
  3
CADPAC LINETYPE
 72
      65
 73
       4
 40
7.68648925
 49
3.84324462
 74
       0
 49
-1.92162231
 74
       0
 49
0.0
 74
       0
 49
-1.92162231
 74
       0
  0
LTYPE
  5
2B
100
AcDbSymbolTableRecord
100
AcDbLinetypeTableRecord
  2
DASHDOT2
 70
      64
  3
CADPAC LINETYPE
 72
      65
 73
       4
 40
5.76486693
 49
2.88243347
 74
       0
 49
-1.44121673
 74
       0
 49
0.0
 74
       0
 49
-1.44121673
 74
       0
  0
LTYPE
  5
2C
100
AcDbSymbolTableRecord
100
AcDbLinetypeTableRecord
  2
DIVIDEX2
 70
      64
  3
CADPAC LINETYPE
 72
      65
 73
       6
 40
12.01013945
 49
4.80405578
 74
       0
 49
-2.40202789
 74
       0
 49
0.0
 74
       0
 49
-2.40202789
 74
       0
 49
0.0
 74
       0
 49
-2.40202789
 74
       0
  0
LTYPE
  5
2D
100
AcDbSymbolTableRecord
100
AcDbLinetypeTableRecord
  2
DIVIDE
 70
      64
  3
CADPAC LINETYPE
 72
      65
 73
       6
 40
9.60811156
 49
3.84324462
 74
       0
 49
-1.92162231
 74
       0
 49
0.0
 74
       0
 49
-1.92162231
 74
       0
 49
0.0
 74
       0
 49
-1.92162231
 74
       0
  0
LTYPE
  5
2E
100
AcDbSymbolTableRecord
100
AcDbLinetypeTableRecord
  2
DIVIDE2
 70
      64
  3
CADPAC LINETYPE
 72
      65
 73
       6
 40
7.20608367
 49
2.88243347
 74
       0
 49
-1.44121673
 74
       0
 49
0.0
 74
       0
 49
-1.44121673
 74
       0
 49
0.0
 74
       0
 49
-1.44121673
 74
       0
  0
LTYPE
  5
2F
100
AcDbSymbolTableRecord
100
AcDbLinetypeTableRecord
  2
BORDERX2
 70
      64
  3
CADPAC LINETYPE
 72
      65
 73
       6
 40
16.81419523
 49
4.80405578
 74
       0
 49
-2.40202789
 74
       0
 49
4.80405578
 74
       0
 49
-2.40202789
 74
       0
 49
0.0
 74
       0
 49
-2.40202789
 74
       0
  0
LTYPE
  5
30
100
AcDbSymbolTableRecord
100
AcDbLinetypeTableRecord
  2
BORDER
 70
      64
  3
CADPAC LINETYPE
 72
      65
 73
       6
 40
13.45135618
 49
3.84324462
 74
       0
 49
-1.92162231
 74
       0
 49
3.84324462
 74
       0
 49
-1.92162231
 74
       0
 49
0.0
 74
       0
 49
-1.92162231
 74
       0
  0
LTYPE
  5
31
100
AcDbSymbolTableRecord
100
AcDbLinetypeTableRecord
  2
BORDER2
 70
      64
  3
CADPAC LINETYPE
 72
      65
 73
       6
 40
10.08851714
 49
2.88243347
 74
       0
 49
-1.44121673
 74
       0
 49
2.88243347
 74
       0
 49
-1.44121673
 74
       0
 49
0.0
 74
       0
 49
-1.44121673
 74
       0
  0
LTYPE
  5
32
100
AcDbSymbolTableRecord
100
AcDbLinetypeTableRecord
  2
PHANTOMX2
 70
      64
  3
CADPAC LINETYPE
 72
      65
 73
       6
 40
14.41216734
 49
4.80405578
 74
       0
 49
-1.92162231
 74
       0
 49
1.92162231
 74
       0
 49
-1.92162231
 74
       0
 49
1.92162231
 74
       0
 49
-1.92162231
 74
       0
  0
LTYPE
  5
33
100
AcDbSymbolTableRecord
100
AcDbLinetypeTableRecord
  2
PHANTOM
 70
      64
  3
CADPAC LINETYPE
 72
      65
 73
       6
 40
11.91405833
 49
3.84324462
 74
       0
 49
-1.92162231
 74
       0
 49
1.15297339
 74
       0
 49
-1.92162231
 74
       0
 49
1.15297339
 74
       0
 49
-1.92162231
 74
       0
  0
LTYPE
  5
34
100
AcDbSymbolTableRecord
100
AcDbLinetypeTableRecord
  2
PHANTOM2
 70
      64
  3
CADPAC LINETYPE
 72
      65
 73
       6
 40
10.18459825
 49
2.88243347
 74
       0
 49
-1.92162231
 74
       0
 49
0.76864892
 74
       0
 49
-1.92162231
 74
       0
 49
0.76864892
 74
       0
 49
-1.92162231
 74
       0
  0
LTYPE
  5
35
100
AcDbSymbolTableRecord
100
AcDbLinetypeTableRecord
  2
ACAD_ISO06W100
 70
      64
  3
CADPAC LINETYPE
 72
      65
 73
       8
 40
12.9709506
 49
4.80405578
 74
       0
 49
-2.40202789
 74
       0
 49
0.0
 74
       0
 49
-1.92162231
 74
       0
 49
0.0
 74
       0
 49
-1.92162231
 74
       0
 49
0.0
 74
       0
 49
-1.92162231
 74
       0
  0
LTYPE
  5
36
100
AcDbSymbolTableRecord
100
AcDbLinetypeTableRecord
  2
ACAD_ISO13W100
 70
      64
  3
CADPAC LINETYPE
 72
      65
 73
       8
 40
15.37297849
 49
3.84324462
 74
       0
 49
-1.92162231
 74
       0
 49
3.84324462
 74
       0
 49
-1.92162231
 74
       0
 49
0.0
 74
       0
 49
-1.92162231
 74
       0
 49
0.0
 74
       0
 49
-1.92162231
 74
       0
  0
LTYPE
  5
37
100
AcDbSymbolTableRecord
100
AcDbLinetypeTableRecord
  2
ACAD_ISO14W100
 70
      64
  3
CADPAC LINETYPE
 72
      65
 73
       8
 40
11.52973387
 49
3.84324462
 74
       0
 49
-1.92162231
 74
       0
 49
0.0
 74
       0
 49
-1.92162231
 74
       0
 49
0.0
 74
       0
 49
-1.92162231
 74
       0
 49
0.0
 74
       0
 49
-1.92162231
 74
       0
  0
ENDTAB
  0
TABLE
  2
LAYER
  5
2
100
AcDbSymbolTable
 70
       5
  0
LAYER
  5
14
100
AcDbSymbolTableRecord
100
AcDbLayerTableRecord
  2
0
 70
       0
 62
       7
  6
CONTINUOUS
  0
LAYER
  5
38
100
AcDbSymbolTableRecord
100
AcDbLayerTableRecord
  2
SLD-0_0
 70
       0
 62
       7
  6
CONTINUOUS
  0
LAYER
  5
39
100
AcDbSymbolTableRecord
100
AcDbLayerTableRecord
  2
SLD-0_3
 70
       0
 62
       7
  6
CONTINUOUS
  0
LAYER
  5
3A
100
AcDbSymbolTableRecord
100
AcDbLayerTableRecord
  2
SLD-0
 70
       0
 62
       7
  6
CONTINUOUS
  0
LAYER
  5
3B
100
AcDbSymbolTableRecord
100
AcDbLayerTableRecord
  2
レイヤー_1
 70
       0
 62
       7
  6
CONTINUOUS
  0
ENDTAB
  0
TABLE
  2
STYLE
  5
3
100
AcDbSymbolTable
 70
       1
  0
STYLE
  5
17
100
AcDbSymbolTableRecord
100
AcDbTextStyleTableRecord
  2
STANDARD
 70
       0
 40
0.0
 41
1.0
 50
0.0
 71
       0
 42
5.0
  3
txt.shx
  4
bigfont.shx
  0
ENDTAB
  0
TABLE
  2
VIEW
  5
5
100
AcDbSymbolTable
 70
       1
  0
VIEW
  5
3C
100
AcDbSymbolTableRecord
100
AcDbViewTableRecord
  2
QQQQ
 70
       0
 40
135.12550117
 10
0.0
 20
0.0
 41
204.17237061
 11
0.0
 21
0.0
 31
1.0
 12
100.0
 22
100.0
 32
0.0
 42
50.0
 43
0.0
 44
0.0
 50
0.0
 71
       0
  0
ENDTAB
  0
TABLE
  2
UCS
  5
6
100
AcDbSymbolTable
 70
       0
  0
ENDTAB
  0
TABLE
  2
APPID
  5
8
100
AcDbSymbolTable
 70
       1
  0
APPID
  5
16
100
AcDbSymbolTableRecord
100
AcDbRegAppTableRecord
  2
ACAD
 70
       0
  0
ENDTAB
  0
TABLE
  2
DIMSTYLE
  5
9
100
AcDbSymbolTable
 70
       1
  0
DIMSTYLE
105
18
100
AcDbSymbolTableRecord
100
AcDbDimStyleTableRecord
  2
STANDARD
 70
       0
  3

  4

  5

  6

  7

 40
1.0
 41
0.18
 42
0.0625
 43
0.38
 44
0.18
 45
0.0
 46
0.0
 47
0.0
 48
0.0
 71
       0
 72
       0
 73
       1
 74
       1
 75
       0
 76
       0
 77
       0
 78
       0
140
0.18
141
0.09
142
0.0
143
25.4
144
1.0
145
0.0
146
1.0
147
0.09
170
       0
171
       2
172
       0
173
       0
174
       0
175
       0
176
       0
177
       0
178
       0
270
       2
271
       4
272
       4
273
       2
274
       2
275
       0
280
       0
281
       0
282
       0
283
       1
284
       0
285
       0
286
       0
287
       0
288
       0
340
17
  0
ENDTAB
  0
TABLE
  2
BLOCK_RECORD
  5
1
100
AcDbSymbolTable
 70
       0
  0
BLOCK_RECORD
  5
A
100
AcDbSymbolTableRecord
100
AcDbBlockTableRecord
  2
*MODEL_SPACE
  0
BLOCK_RECORD
  5
B
100
AcDbSymbolTableRecord
100
AcDbBlockTableRecord
  2
*PAPER_SPACE
  0
ENDTAB
  0
ENDSEC
  0
SECTION
  2
BLOCKS
  0
BLOCK
  5
D
100
AcDbEntity
  8
0
100
AcDbBlockBegin
  2
*MODEL_SPACE
 70
       0
 10
0.0
 20
0.0
 30
0.0
  3
*MODEL_SPACE
  1

  0
ENDBLK
  5
E
100
AcDbEntity
  8
0
100
AcDbBlockEnd
  0
BLOCK
  5
F
100
AcDbEntity
 67
       1
  8
0
100
AcDbBlockBegin
  2
*PAPER_SPACE
 70
       0
 10
0.0
 20
0.0
 30
0.0
  3
*PAPER_SPACE
  1

  0
ENDBLK
  5
10
100
AcDbEntity
 67
       1
  8
0
100
AcDbBlockEnd
  0
ENDSEC
  0
SECTION
  2
ENTITIES
  0
LINE
  5
3D
100
AcDbEntity
  8
SLD-0_0
  6
CONTINUOUS
 62
       7
100
AcDbLine
 10
64.85150584
 20
55.49535591
 30
0.0
 11
65.42704456
 21
54.97245809
 31
0.0
  0
LINE
  5
3E
100
AcDbEntity
  8
SLD-0_0
  6
CONTINUOUS
 62
       7
100
AcDbLine
 10
81.71324234
 20
-19.74496277
 30
0.0
 11
81.71323889
 21
42.10317476
 31
0.0
  0
LINE
  5
3F
100
AcDbEntity
  8
SLD-0_0
  6
CONTINUOUS
 62
       7
100
AcDbLine
 10
81.71323889
 20
42.70317467
 30
0.0
 11
81.71323889
 21
42.10317476
 31
0.0
  0
LINE
  5
40
100
AcDbEntity
  8
SLD-0_0
  6
CONTINUOUS
 62
       7
100
AcDbLine
 10
86.87331142
 20
49.25496877
 30
0.0
 11
86.86295387
 21
49.25343376
 31
0.0
  0
LINE
  5
41
100
AcDbEntity
  8
SLD-0_0
  6
CONTINUOUS
 62
       7
100
AcDbLine
 10
86.86295387
 20
49.25343376
 30
0.0
 11
86.85265882
 21
49.25167854
 31
0.0
  0
LINE
  5
42
100
AcDbEntity
  8
SLD-0_0
  6
CONTINUOUS
 62
       7
100
AcDbLine
 10
86.69902548
 20
49.16781182
 30
0.0
 11
86.69190807
 21
49.16016247
 31
0.0
  0
LINE
  5
43
100
AcDbEntity
  8
SLD-0_0
  6
CONTINUOUS
 62
       7
100
AcDbLine
 10
86.61584115
 20
48.97022067
 30
0.0
 11
86.61517123
 21
48.95977094
 31
0.0
  0
LINE
  5
44
100
AcDbEntity
  8
SLD-0_0
  6
CONTINUOUS
 62
       7
100
AcDbLine
 10
86.91511671
 20
49.25978767
 30
0.0
 11
86.92239721
 21
49.25933754
 31
0.0
  0
LINE
  5
45
100
AcDbEntity
  8
SLD-0_0
  6
CONTINUOUS
 62
       7
100
AcDbLine
 10
87.06153503
 20
49.22172495
 30
0.0
 11
87.06786612
 21
49.2181209
 31
0.0
  0
LINE
  5
46
100
AcDbEntity
  8
SLD-0_0
  6
CONTINUOUS
 62
       7
100
AcDbLine
 10
87.08020949
 20
49.21043098
 30
0.0
 11
87.08620408
 21
49.20633678
 31
0.0
  0
LINE
  5
47
100
AcDbEntity
  8
SLD-0_0
  6
CONTINUOUS
 62
       7
100
AcDbLine
 10
59.41281597
 20
51.60897872
 30
0.0
 11
59.41237538
 21
51.61529115
 31
0.0
  0
LINE
  5
48
100
AcDbEntity
  8
SLD-0_0
  6
CONTINUOUS
 62
       7
100
AcDbLine
 10
59.39409651
 20
51.70685092
 30
0.0
 11
59.39173144
 21
51.71264771
 31
0.0
  0
LINE
  5
49
100
AcDbEntity
  8
SLD-0_0
  6
CONTINUOUS
 62
       7
100
AcDbLine
 10
81.71323888
 20
46.50317463
 30
0.0
 11
88.81359004
 21
46.50317463
 31
0.0
  0
LINE
  5
4A
100
AcDbEntity
  8
SLD-0_0
  6
CONTINUOUS
 62
       7
100
AcDbLine
 10
59.41324138
 20
51.50317463
 30
0.0
 11
59.41324138
 21
51.60266221
 31
0.0
  0
LINE
  5
4B
100
AcDbEntity
  8
SLD-0_0
  6
CONTINUOUS
 62
       7
100
AcDbLine
 10
70.78188859
 20
54.55669055
 30
0.0
 11
71.20248132
 21
53.90264971
 31
0.0
  0
LINE
  5
4C
100
AcDbEntity
  8
SLD-0_0
  6
CONTINUOUS
 62
       7
100
AcDbLine
 10
63.07192721
 20
54.9722199
 30
0.0
 11
63.64736535
 21
55.49523391
 31
0.0
  0
LINE
  5
4D
100
AcDbEntity
  8
SLD-0_0
  6
CONTINUOUS
 62
       7
100
AcDbLine
 10
86.85265882
 20
49.25167854
 30
0.0
 11
86.84243878
 21
49.24965907
 31
0.0
  0
LINE
  5
4E
100
AcDbEntity
  8
SLD-0_0
  6
CONTINUOUS
 62
       7
100
AcDbLine
 10
86.82227374
 20
49.24465124
 30
0.0
 11
86.81235374
 21
49.24157481
 31
0.0
  0
LINE
  5
4F
100
AcDbEntity
  8
SLD-0_0
  6
CONTINUOUS
 62
       7
100
AcDbLine
 10
86.81235374
 20
49.24157481
 30
0.0
 11
86.80255869
 21
49.23806362
 31
0.0
  0
LINE
  5
50
100
AcDbEntity
  8
SLD-0_0
  6
CONTINUOUS
 62
       7
100
AcDbLine
 10
86.73010521
 20
49.19605756
 30
0.0
 11
86.72196195
 21
49.18936396
 31
0.0
  0
LINE
  5
51
100
AcDbEntity
  8
SLD-0_0
  6
CONTINUOUS
 62
       7
100
AcDbLine
 10
87.0977965
 20
49.19763075
 30
0.0
 11
87.10339541
 21
49.19302894
 31
0.0
  0
LINE
  5
52
100
AcDbEntity
  8
SLD-0_0
  6
CONTINUOUS
 62
       7
100
AcDbLine
 10
67.25155764
 20
55.30671187
 30
0.0
 11
67.76928731
 21
54.72651839
 31
0.0
  0
LINE
  5
53
100
AcDbEntity
  8
SLD-0_0
  6
CONTINUOUS
 62
       7
100
AcDbLine
 10
75.22437178
 20
52.71707923
 30
0.0
 11
75.49978995
 21
51.98988449
 31
0.0
  0
LINE
  5
54
100
AcDbEntity
  8
SLD-0_0
  6
CONTINUOUS
 62
       7
100
AcDbLine
 10
86.66062116
 20
49.11851177
 30
0.0
 11
86.65525852
 21
49.10954489
 31
0.0
  0
LINE
  5
55
100
AcDbEntity
  8
SLD-0_0
  6
CONTINUOUS
 62
       7
100
AcDbLine
 10
86.62962387
 20
49.05231459
 30
0.0
 11
86.62657746
 21
49.04231832
 31
0.0
  0
LINE
  5
56
100
AcDbEntity
  8
SLD-0_0
  6
CONTINUOUS
 62
       7
100
AcDbLine
 10
87.1088816
 20
49.18828561
 30
0.0
 11
87.11427112
 21
49.18342093
 31
0.0
  0
LINE
  5
57
100
AcDbEntity
  8
SLD-0_0
  6
CONTINUOUS
 62
       7
100
AcDbLine
 10
59.41081104
 20
51.63416347
 30
0.0
 11
59.41015817
 21
51.64041903
 31
0.0
  0
LINE
  5
58
100
AcDbEntity
  8
SLD-0_0
  6
CONTINUOUS
 62
       7
100
AcDbLine
 10
59.40040326
 20
51.68924925
 30
0.0
 11
59.3984476
 21
51.69515574
 31
0.0
  0
LINE
  5
59
100
AcDbEntity
  8
SLD-0_0
  6
CONTINUOUS
 62
       7
100
AcDbLine
 10
59.3758426
 20
51.74697348
 30
0.0
 11
59.37305295
 21
51.75265652
 31
0.0
  0
LINE
  5
5A
100
AcDbEntity
  8
SLD-0_0
  6
CONTINUOUS
 62
       7
100
AcDbLine
 10
64.56618213
 20
51.5484465
 30
0.0
 11
64.54351002
 21
51.5091756
 31
0.0
  0
LINE
  5
5B
100
AcDbEntity
  8
SLD-0_0
  6
CONTINUOUS
 62
       7
100
AcDbLine
 10
73.051328
 20
53.75329467
 30
0.0
 11
73.40125197
 21
53.05887332
 31
0.0
  0
LINE
  5
5C
100
AcDbEntity
  8
SLD-0_0
  6
CONTINUOUS
 62
       7
100
AcDbLine
 10
86.75586958
 20
49.21441244
 30
0.0
 11
86.74707069
 21
49.2086016
 31
0.0
  0
LINE
  5
5D
100
AcDbEntity
  8
SLD-0_0
  6
CONTINUOUS
 62
       7
100
AcDbLine
 10
86.62174702
 20
49.02203747
 30
0.0
 11
86.61998156
 21
49.01177629
 31
0.0
  0
LINE
  5
5E
100
AcDbEntity
  8
SLD-0_0
  6
CONTINUOUS
 62
       7
100
AcDbLine
 10
86.92239721
 20
49.25933754
 30
0.0
 11
86.92967315
 21
49.25886199
 31
0.0
  0
LINE
  5
5F
100
AcDbEntity
  8
SLD-0_0
  6
CONTINUOUS
 62
       7
100
AcDbLine
 10
87.01502394
 20
49.24274821
 30
0.0
 11
87.02185833
 21
49.24020362
 31
0.0
  0
LINE
  5
60
100
AcDbEntity
  8
SLD-0_0
  6
CONTINUOUS
 62
       7
100
AcDbLine
 10
87.0420103
 20
49.23162344
 30
0.0
 11
87.04859826
 21
49.22847205
 31
0.0
  0
LINE
  5
61
100
AcDbEntity
  8
SLD-0_0
  6
CONTINUOUS
 62
       7
100
AcDbLine
 10
59.40219213
 20
51.68329805
 30
0.0
 11
59.40040326
 21
51.68924925
 31
0.0
  0
LINE
  5
62
100
AcDbEntity
  8
SLD-0_0
  6
CONTINUOUS
 62
       7
100
AcDbLine
 10
71.20248132
 20
53.90264971
 30
0.0
 11
71.92712478
 21
54.1847082
 31
0.0
  0
LINE
  5
63
100
AcDbEntity
  8
SLD-0_0
  6
CONTINUOUS
 62
       7
100
AcDbLine
 10
67.76928731
 20
54.72651839
 30
0.0
 11
68.44089382
 21
55.11846294
 31
0.0
  0
LINE
  5
64
100
AcDbEntity
  8
SLD-0_0
  6
CONTINUOUS
 62
       7
100
AcDbLine
 10
86.70641224
 20
49.17522996
 30
0.0
 11
86.69902548
 21
49.16781182
 31
0.0
  0
LINE
  5
65
100
AcDbEntity
  8
SLD-0_0
  6
CONTINUOUS
 62
       7
100
AcDbLine
 10
86.69190807
 20
49.16016247
 30
0.0
 11
86.68506777
 21
49.15228314
 31
0.0
  0
LINE
  5
66
100
AcDbEntity
  8
SLD-0_0
  6
CONTINUOUS
 62
       7
100
AcDbLine
 10
86.67224956
 20
49.13583941
 30
0.0
 11
86.66628524
 21
49.12728097
 31
0.0
  0
LINE
  5
67
100
AcDbEntity
  8
SLD-0_0
  6
CONTINUOUS
 62
       7
100
AcDbLine
 10
86.63305819
 20
49.06219944
 30
0.0
 11
86.62962387
 21
49.05231459
 31
0.0
  0
LINE
  5
68
100
AcDbEntity
  8
SLD-0_0
  6
CONTINUOUS
 62
       7
100
AcDbLine
 10
86.61747314
 20
48.99107511
 30
0.0
 11
86.6165841
 21
48.98066066
 31
0.0
  0
LINE
  5
69
100
AcDbEntity
  8
SLD-0_0
  6
CONTINUOUS
 62
       7
100
AcDbLine
 10
59.41237538
 20
51.61529115
 30
0.0
 11
59.41190449
 21
51.62159547
 31
0.0
  0
LINE
  5
6A
100
AcDbEntity
  8
SLD-0_0
  6
CONTINUOUS
 62
       7
100
AcDbLine
 10
59.40759303
 20
51.65902321
 30
0.0
 11
59.40648527
 21
51.66515687
 31
0.0
  0
LINE
  5
6B
100
AcDbEntity
  8
SLD-0_0
  6
CONTINUOUS
 62
       7
100
AcDbLine
 10
59.40648527
 20
51.66515687
 30
0.0
 11
59.40522586
 21
51.67124993
 31
0.0
  0
LINE
  5
6C
100
AcDbEntity
  8
SLD-0_0
  6
CONTINUOUS
 62
       7
100
AcDbLine
 10
59.39173144
 20
51.71264771
 30
0.0
 11
59.38926021
 21
51.71841607
 31
0.0
  0
LINE
  5
6D
100
AcDbEntity
  8
SLD-0_0
  6
CONTINUOUS
 62
       7
100
AcDbLine
 10
58.19112636
 20
53.79981052
 30
0.0
 11
59.37305295
 21
51.75265652
 31
0.0
  0
LINE
  5
6E
100
AcDbEntity
  8
SLD-0_0
  6
CONTINUOUS
 62
       7
100
AcDbLine
 10
68.44089382
 20
55.11846294
 30
0.0
 11
68.92754339
 21
54.5119689
 31
0.0
  0
LINE
  5
6F
100
AcDbEntity
  8
SLD-0_0
  6
CONTINUOUS
 62
       7
100
AcDbLine
 10
71.69940544
 20
-30.99682865
 30
0.0
 11
83.21324212
 21
-30.99682865
 31
0.0
  0
LINE
  5
70
100
AcDbEntity
  8
SLD-0_0
  6
CONTINUOUS
 62
       7
100
AcDbLine
 10
86.65019854
 20
49.10039341
 30
0.0
 11
86.64544245
 21
49.09107038
 31
0.0
  0
LINE
  5
71
100
AcDbEntity
  8
SLD-0_0
  6
CONTINUOUS
 62
       7
100
AcDbLine
 10
87.02185833
 20
49.24020362
 30
0.0
 11
87.02863601
 21
49.23749508
 31
0.0
  0
LINE
  5
72
100
AcDbEntity
  8
SLD-0_0
  6
CONTINUOUS
 62
       7
100
AcDbLine
 10
87.13518494
 20
49.16315345
 30
0.0
 11
87.1403254
 21
49.15798782
 31
0.0
  0
LINE
  5
73
100
AcDbEntity
  8
SLD-0_0
  6
CONTINUOUS
 62
       7
100
AcDbLine
 10
60.87305223
 20
52.15457899
 30
0.0
 11
59.49016489
 21
54.54980925
 31
0.0
  0
LINE
  5
74
100
AcDbEntity
  8
SLD-0_0
  6
CONTINUOUS
 62
       7
100
AcDbLine
 10
64.24948402
 20
55.00317451
 30
0.0
 11
64.85150584
 21
55.49535591
 31
0.0
  0
LINE
  5
75
100
AcDbEntity
  8
SLD-0_0
  6
CONTINUOUS
 62
       7
100
AcDbLine
 10
76.26724444
 20
52.11511433
 30
0.0
 11
76.46305316
 21
51.50317466
 31
0.0
  0
LINE
  5
76
100
AcDbEntity
  8
SLD-0_0
  6
CONTINUOUS
 62
       7
100
AcDbLine
 10
81.71323999
 20
-32.49682424
 30
0.0
 11
71.61324235
 21
-32.49682537
 31
0.0
  0
LINE
  5
77
100
AcDbEntity
  8
SLD-0_0
  6
CONTINUOUS
 62
       7
100
AcDbLine
 10
59.41015817
 20
51.64041903
 30
0.0
 11
59.40941433
 21
51.64665021
 31
0.0
  0
LINE
  5
78
100
AcDbEntity
  8
SLD-0_0
  6
CONTINUOUS
 62
       7
100
AcDbLine
 10
86.61517123
 20
48.95977094
 30
0.0
 11
86.61517123
 21
48.50317607
 31
0.0
  0
LINE
  5
79
100
AcDbEntity
  8
SLD-0_0
  6
CONTINUOUS
 62
       7
100
AcDbLine
 10
60.91324233
 20
51.50317463
 30
0.0
 11
60.91324233
 21
52.00458754
 31
0.0
  0
LINE
  5
7A
100
AcDbEntity
  8
SLD-0_0
  6
CONTINUOUS
 62
       7
100
AcDbLine
 10
71.92712478
 20
54.1847082
 30
0.0
 11
72.31291586
 21
53.50955009
 31
0.0
  0
LINE
  5
7B
100
AcDbEntity
  8
SLD-0_0
  6
CONTINUOUS
 62
       7
100
AcDbLine
 10
73.40125197
 20
53.05887332
 30
0.0
 11
74.15141367
 21
53.26364078
 31
0.0
  0
LINE
  5
7C
100
AcDbEntity
  8
SLD-0_0
  6
CONTINUOUS
 62
       7
100
AcDbLine
 10
66.60138645
 20
54.88015518
 30
0.0
 11
67.25155764
 21
55.30671187
 31
0.0
  0
LINE
  5
7D
100
AcDbEntity
  8
SLD-0_0
  6
CONTINUOUS
 62
       7
100
AcDbLine
 10
81.71323889
 20
51.50317463
 30
0.0
 11
81.71323889
 21
42.70317467
 31
0.0
  0
LINE
  5
7E
100
AcDbEntity
  8
SLD-0_0
  6
CONTINUOUS
 62
       7
100
AcDbLine
 10
87.00813559
 20
49.24511945
 30
0.0
 11
87.01502394
 21
49.24274821
 31
0.0
  0
LINE
  5
7F
100
AcDbEntity
  8
SLD-0_0
  6
CONTINUOUS
 62
       7
100
AcDbLine
 10
87.12482468
 20
49.17340852
 30
0.0
 11
87.13002091
 21
49.16830121
 31
0.0
  0
LINE
  5
80
100
AcDbEntity
  8
SLD-0_0
  6
CONTINUOUS
 62
       7
100
AcDbLine
 10
59.41190449
 20
51.62159547
 30
0.0
 11
59.41138809
 21
51.6278876
 31
0.0
  0
LINE
  5
81
100
AcDbEntity
  8
SLD-0_0
  6
CONTINUOUS
 62
       7
100
AcDbLine
 10
60.78920343
 20
55.29980936
 30
0.0
 11
62.98119031
 21
51.50317463
 31
0.0
  0
LINE
  5
82
100
AcDbEntity
  8
SLD-0_0
  6
CONTINUOUS
 62
       7
100
AcDbLine
 10
66.05400346
 20
55.43245764
 30
0.0
 11
66.60138645
 21
54.88015518
 31
0.0
  0
LINE
  5
83
100
AcDbEntity
  8
SLD-0_0
  6
CONTINUOUS
 62
       7
100
AcDbLine
 10
86.88371899
 20
49.25632764
 30
0.0
 11
86.87331142
 21
49.25496877
 31
0.0
  0
LINE
  5
84
100
AcDbEntity
  8
SLD-0_0
  6
CONTINUOUS
 62
       7
100
AcDbLine
 10
86.78339081
 20
49.22976291
 30
0.0
 11
86.77404132
 21
49.22501289
 31
0.0
  0
LINE
  5
85
100
AcDbEntity
  8
SLD-0_0
  6
CONTINUOUS
 62
       7
100
AcDbLine
 10
86.74707069
 20
49.2086016
 30
0.0
 11
86.73847868
 21
49.2024767
 31
0.0
  0
LINE
  5
86
100
AcDbEntity
  8
SLD-0_0
  6
CONTINUOUS
 62
       7
100
AcDbLine
 10
86.66628524
 20
49.12728097
 30
0.0
 11
86.66062116
 21
49.11851177
 31
0.0
  0
LINE
  5
87
100
AcDbEntity
  8
SLD-0_0
  6
CONTINUOUS
 62
       7
100
AcDbLine
 10
86.62657746
 20
49.04231832
 30
0.0
 11
86.62394369
 21
49.0322221
 31
0.0
  0
LINE
  5
88
100
AcDbEntity
  8
SLD-0_0
  6
CONTINUOUS
 62
       7
100
AcDbLine
 10
87.02863601
 20
49.23749508
 30
0.0
 11
87.03535429
 21
49.23463198
 31
0.0
  0
LINE
  5
89
100
AcDbEntity
  8
SLD-0_0
  6
CONTINUOUS
 62
       7
100
AcDbLine
 10
87.06786612
 20
49.2181209
 30
0.0
 11
87.0740939
 21
49.21435763
 31
0.0
  0
LINE
  5
8A
100
AcDbEntity
  8
SLD-0_0
  6
CONTINUOUS
 62
       7
100
AcDbLine
 10
59.40941433
 20
51.64665021
 30
0.0
 11
59.40856434
 21
51.65285296
 31
0.0
  0
LINE
  5
8B
100
AcDbEntity
  8
SLD-0_0
  6
CONTINUOUS
 62
       7
100
AcDbLine
 10
59.38405996
 20
51.72988372
 30
0.0
 11
59.38136129
 21
51.73559113
 31
0.0
  0
LINE
  5
8C
100
AcDbEntity
  8
SLD-0_0
  6
CONTINUOUS
 62
       7
100
AcDbLine
 10
72.31291586
 20
53.50955009
 30
0.0
 11
73.051328
 21
53.75329467
 31
0.0
  0
LINE
  5
8D
100
AcDbEntity
  8
SLD-0_0
  6
CONTINUOUS
 62
       7
100
AcDbLine
 10
86.71406057
 20
49.18241566
 30
0.0
 11
86.70641224
 21
49.17522996
 31
0.0
  0
LINE
  5
8E
100
AcDbEntity
  8
SLD-0_0
  6
CONTINUOUS
 62
       7
100
AcDbLine
 10
86.68506777
 20
49.15228314
 30
0.0
 11
86.67851236
 21
49.14417504
 31
0.0
  0
LINE
  5
8F
100
AcDbEntity
  8
SLD-0_0
  6
CONTINUOUS
 62
       7
100
AcDbLine
 10
86.98717396
 20
49.2510992
 30
0.0
 11
86.99420789
 21
49.24930434
 31
0.0
  0
LINE
  5
90
100
AcDbEntity
  8
SLD-0_0
  6
CONTINUOUS
 62
       7
100
AcDbLine
 10
59.41324138
 20
51.60266221
 30
0.0
 11
59.41281597
 21
51.60897872
 31
0.0
  0
LINE
  5
91
100
AcDbEntity
  8
SLD-0_0
  6
CONTINUOUS
 62
       7
100
AcDbLine
 10
62.08824195
 20
56.04980809
 30
0.0
 11
62.44488262
 21
55.43209069
 31
0.0
  0
LINE
  5
92
100
AcDbEntity
  8
SLD-0_0
  6
CONTINUOUS
 62
       7
100
AcDbLine
 10
74.46451687
 20
52.55185491
 30
0.0
 11
75.22437178
 21
52.71707923
 31
0.0
  0
LINE
  5
93
100
AcDbEntity
  8
SLD-0_0
  6
CONTINUOUS
 62
       7
100
AcDbLine
 10
86.21324255
 20
-32.49682537
 30
0.0
 11
86.21324075
 21
-27.1181458
 31
0.0
  0
LINE
  5
94
100
AcDbEntity
  8
SLD-0_0
  6
CONTINUOUS
 62
       7
100
AcDbLine
 10
86.21324075
 20
-27.1181458
 30
0.0
 11
79.55165429
 21
-20.45655934
 31
0.0
  0
LINE
  5
95
100
AcDbEntity
  8
SLD-0_0
  6
CONTINUOUS
 62
       7
100
AcDbLine
 10
81.11664219
 20
-19.90022448
 30
0.0
 11
87.7132447
 21
-26.49682698
 31
0.0
  0
LINE
  5
96
100
AcDbEntity
  8
SLD-0_0
  6
CONTINUOUS
 62
       7
100
AcDbLine
 10
86.79290049
 20
49.23411975
 30
0.0
 11
86.78339081
 21
49.22976291
 31
0.0
  0
LINE
  5
97
100
AcDbEntity
  8
SLD-0_0
  6
CONTINUOUS
 62
       7
100
AcDbLine
 10
86.64544245
 20
49.09107038
 30
0.0
 11
86.64099157
 21
49.08158887
 31
0.0
  0
LINE
  5
98
100
AcDbEntity
  8
SLD-0_0
  6
CONTINUOUS
 62
       7
100
AcDbLine
 10
87.03535429
 20
49.23463198
 30
0.0
 11
87.0420103
 21
49.23162344
 31
0.0
  0
LINE
  5
99
100
AcDbEntity
  8
SLD-0_0
  6
CONTINUOUS
 62
       7
100
AcDbLine
 10
87.04859826
 20
49.22847205
 30
0.0
 11
87.05510946
 21
49.22517393
 31
0.0
  0
LINE
  5
9A
100
AcDbEntity
  8
SLD-0_0
  6
CONTINUOUS
 62
       7
100
AcDbLine
 10
87.08620408
 20
49.20633678
 30
0.0
 11
87.09206876
 21
49.20207084
 31
0.0
  0
LINE
  5
9B
100
AcDbEntity
  8
SLD-0_0
  6
CONTINUOUS
 62
       7
100
AcDbLine
 10
62.36519867
 20
55.36066385
 30
0.0
 11
64.56618213
 21
51.5484465
 31
0.0
  0
LINE
  5
9C
100
AcDbEntity
  8
SLD-0_0
  6
CONTINUOUS
 62
       7
100
AcDbLine
 10
70.07298821
 20
54.23709486
 30
0.0
 11
70.78188859
 21
54.55669055
 31
0.0
  0
LINE
  5
9D
100
AcDbEntity
  8
SLD-0_0
  6
CONTINUOUS
 62
       7
100
AcDbLine
 10
71.61323928
 20
-38.49682537
 30
0.0
 11
71.61324235
 21
-32.49682537
 31
0.0
  0
LINE
  5
9E
100
AcDbEntity
  8
SLD-0_0
  6
CONTINUOUS
 62
       7
100
AcDbLine
 10
83.21324212
 20
-30.99682865
 30
0.0
 11
83.21324212
 21
-32.49682424
 31
0.0
  0
LINE
  5
9F
100
AcDbEntity
  8
SLD-0_0
  6
CONTINUOUS
 62
       7
100
AcDbLine
 10
71.01324401
 20
-37.79682455
 30
0.0
 11
70.91324232
 21
-37.79682455
 31
0.0
  0
LINE
  5
A0
100
AcDbEntity
  8
SLD-0_0
  6
CONTINUOUS
 62
       7
100
AcDbLine
 10
86.91511671
 20
49.25978767
 30
0.0
 11
86.90463414
 21
49.25869304
 31
0.0
  0
LINE
  5
A1
100
AcDbEntity
  8
SLD-0_0
  6
CONTINUOUS
 62
       7
100
AcDbLine
 10
86.64099157
 20
49.08158887
 30
0.0
 11
86.63685567
 21
49.07196135
 31
0.0
  0
LINE
  5
A2
100
AcDbEntity
  8
SLD-0_0
  6
CONTINUOUS
 62
       7
100
AcDbLine
 10
86.61858126
 20
49.00145125
 30
0.0
 11
86.61747314
 21
48.99107511
 31
0.0
  0
LINE
  5
A3
100
AcDbEntity
  8
SLD-0_0
  6
CONTINUOUS
 62
       7
100
AcDbLine
 10
86.95142846
 20
49.25702816
 30
0.0
 11
86.95864094
 21
49.25619635
 31
0.0
  0
LINE
  5
A4
100
AcDbEntity
  8
SLD-0_0
  6
CONTINUOUS
 62
       7
100
AcDbLine
 10
86.9658262
 20
49.25521186
 30
0.0
 11
86.97297972
 21
49.25404926
 31
0.0
  0
LINE
  5
A5
100
AcDbEntity
  8
SLD-0_0
  6
CONTINUOUS
 62
       7
100
AcDbLine
 10
59.41138809
 20
51.6278876
 30
0.0
 11
59.41081104
 21
51.63416347
 31
0.0
  0
LINE
  5
A6
100
AcDbEntity
  8
SLD-0_0
  6
CONTINUOUS
 62
       7
100
AcDbLine
 10
59.40522586
 20
51.67124993
 30
0.0
 11
59.40379966
 21
51.67729829
 31
0.0
  0
LINE
  5
A7
100
AcDbEntity
  8
SLD-0_0
  6
CONTINUOUS
 62
       7
100
AcDbLine
 10
59.3984476
 20
51.69515574
 30
0.0
 11
59.39634029
 21
51.7010216
 31
0.0
  0
LINE
  5
A8
100
AcDbEntity
  8
SLD-0_0
  6
CONTINUOUS
 62
       7
100
AcDbLine
 10
63.64736535
 20
55.49523391
 30
0.0
 11
64.24948402
 21
55.00317451
 31
0.0
  0
LINE
  5
A9
100
AcDbEntity
  8
SLD-0_0
  6
CONTINUOUS
 62
       7
100
AcDbLine
 10
86.90463414
 20
49.25869304
 30
0.0
 11
86.89416406
 21
49.25755438
 31
0.0
  0
LINE
  5
AA
100
AcDbEntity
  8
SLD-0_0
  6
CONTINUOUS
 62
       7
100
AcDbLine
 10
86.76486368
 20
49.21988947
 30
0.0
 11
86.75586958
 21
49.21441244
 31
0.0
  0
LINE
  5
AB
100
AcDbEntity
  8
SLD-0_0
  6
CONTINUOUS
 62
       7
100
AcDbLine
 10
86.63685567
 20
49.07196135
 30
0.0
 11
86.63305819
 21
49.06219944
 31
0.0
  0
LINE
  5
AC
100
AcDbEntity
  8
SLD-0_0
  6
CONTINUOUS
 62
       7
100
AcDbLine
 10
86.92967315
 20
49.25886199
 30
0.0
 11
86.93694005
 21
49.25833553
 31
0.0
  0
LINE
  5
AD
100
AcDbEntity
  8
SLD-0_0
  6
CONTINUOUS
 62
       7
100
AcDbLine
 10
86.95864094
 20
49.25619635
 30
0.0
 11
86.9658262
 21
49.25521186
 31
0.0
  0
LINE
  5
AE
100
AcDbEntity
  8
SLD-0_0
  6
CONTINUOUS
 62
       7
100
AcDbLine
 10
86.97297972
 20
49.25404926
 30
0.0
 11
86.98009695
 21
49.25268315
 31
0.0
  0
LINE
  5
AF
100
AcDbEntity
  8
SLD-0_0
  6
CONTINUOUS
 62
       7
100
AcDbLine
 10
87.09206876
 20
49.20207084
 30
0.0
 11
87.0977965
 21
49.19763075
 31
0.0
  0
LINE
  5
B0
100
AcDbEntity
  8
SLD-0_0
  6
CONTINUOUS
 62
       7
100
AcDbLine
 10
87.13002091
 20
49.16830121
 30
0.0
 11
87.13518494
 21
49.16315345
 31
0.0
  0
LINE
  5
B1
100
AcDbEntity
  8
SLD-0_0
  6
CONTINUOUS
 62
       7
100
AcDbLine
 10
59.40856434
 20
51.65285296
 30
0.0
 11
59.40759303
 21
51.65902321
 31
0.0
  0
LINE
  5
B2
100
AcDbEntity
  8
SLD-0_0
  6
CONTINUOUS
 62
       7
100
AcDbLine
 10
59.38926021
 20
51.71841607
 30
0.0
 11
59.38669799
 21
51.72416006
 31
0.0
  0
LINE
  5
B3
100
AcDbEntity
  8
SLD-0_0
  6
CONTINUOUS
 62
       7
100
AcDbLine
 10
89.03876314
 20
47.00138117
 30
0.0
 11
87.1403254
 21
49.15798782
 31
0.0
  0
LINE
  5
B4
100
AcDbEntity
  8
SLD-0_0
  6
CONTINUOUS
 62
       7
100
AcDbLine
 10
69.6187412
 20
54.86822843
 30
0.0
 11
70.07298821
 21
54.23709486
 31
0.0
  0
LINE
  5
B5
100
AcDbEntity
  8
SLD-0_0
  6
CONTINUOUS
 62
       7
100
AcDbLine
 10
87.7132447
 20
-26.49682698
 30
0.0
 11
87.7132447
 21
-32.49682424
 31
0.0
  0
LINE
  5
B6
100
AcDbEntity
  8
SLD-0_0
  6
CONTINUOUS
 62
       7
100
AcDbLine
 10
86.89416406
 20
49.25755438
 30
0.0
 11
86.88371899
 21
49.25632764
 31
0.0
  0
LINE
  5
B7
100
AcDbEntity
  8
SLD-0_0
  6
CONTINUOUS
 62
       7
100
AcDbLine
 10
86.73847868
 20
49.2024767
 30
0.0
 11
86.73010521
 21
49.19605756
 31
0.0
  0
LINE
  5
B8
100
AcDbEntity
  8
SLD-0_0
  6
CONTINUOUS
 62
       7
100
AcDbLine
 10
86.67851236
 20
49.14417504
 30
0.0
 11
86.67224956
 21
49.13583941
 31
0.0
  0
LINE
  5
B9
100
AcDbEntity
  8
SLD-0_0
  6
CONTINUOUS
 62
       7
100
AcDbLine
 10
86.65525852
 20
49.10954489
 30
0.0
 11
86.65019854
 21
49.10039341
 31
0.0
  0
LINE
  5
BA
100
AcDbEntity
  8
SLD-0_0
  6
CONTINUOUS
 62
       7
100
AcDbLine
 10
86.6165841
 20
48.98066066
 30
0.0
 11
86.61584115
 21
48.97022067
 31
0.0
  0
LINE
  5
BB
100
AcDbEntity
  8
SLD-0_0
  6
CONTINUOUS
 62
       7
100
AcDbLine
 10
86.99420789
 20
49.24930434
 30
0.0
 11
87.001196
 21
49.24730797
 31
0.0
  0
LINE
  5
BC
100
AcDbEntity
  8
SLD-0_0
  6
CONTINUOUS
 62
       7
100
AcDbLine
 10
87.05510946
 20
49.22517393
 30
0.0
 11
87.06153503
 21
49.22172495
 31
0.0
  0
LINE
  5
BD
100
AcDbEntity
  8
SLD-0_0
  6
CONTINUOUS
 62
       7
100
AcDbLine
 10
87.11958011
 20
49.17845518
 30
0.0
 11
87.12482468
 21
49.17340852
 31
0.0
  0
LINE
  5
BE
100
AcDbEntity
  8
SLD-0_0
  6
CONTINUOUS
 62
       7
100
AcDbLine
 10
59.38669799
 20
51.72416006
 30
0.0
 11
59.38405996
 21
51.72988372
 31
0.0
  0
LINE
  5
BF
100
AcDbEntity
  8
SLD-0_0
  6
CONTINUOUS
 62
       7
100
AcDbLine
 10
59.38136129
 20
51.73559113
 30
0.0
 11
59.37861712
 21
51.74128636
 31
0.0
  0
LINE
  5
C0
100
AcDbEntity
  8
SLD-0_0
  6
CONTINUOUS
 62
       7
100
AcDbLine
 10
86.61517123
 20
48.50317607
 30
0.0
 11
81.71324054
 21
48.50317607
 31
0.0
  0
LINE
  5
C1
100
AcDbEntity
  8
SLD-0_0
  6
CONTINUOUS
 62
       7
100
AcDbLine
 10
68.92754339
 20
54.5119689
 30
0.0
 11
69.6187412
 21
54.86822843
 31
0.0
  0
LINE
  5
C2
100
AcDbEntity
  8
SLD-0_0
  6
CONTINUOUS
 62
       7
100
AcDbLine
 10
62.44488262
 20
55.43209069
 30
0.0
 11
63.07192721
 21
54.9722199
 31
0.0
  0
LINE
  5
C3
100
AcDbEntity
  8
SLD-0_0
  6
CONTINUOUS
 62
       7
100
AcDbLine
 10
86.84243878
 20
49.24965907
 30
0.0
 11
86.83230625
 21
49.24733132
 31
0.0
  0
LINE
  5
C4
100
AcDbEntity
  8
SLD-0_0
  6
CONTINUOUS
 62
       7
100
AcDbLine
 10
86.83230625
 20
49.24733132
 30
0.0
 11
86.82227374
 21
49.24465124
 31
0.0
  0
LINE
  5
C5
100
AcDbEntity
  8
SLD-0_0
  6
CONTINUOUS
 62
       7
100
AcDbLine
 10
86.62394369
 20
49.0322221
 30
0.0
 11
86.62174702
 21
49.02203747
 31
0.0
  0
LINE
  5
C6
100
AcDbEntity
  8
SLD-0_0
  6
CONTINUOUS
 62
       7
100
AcDbLine
 10
86.61998156
 20
49.01177629
 30
0.0
 11
86.61858126
 21
49.00145125
 31
0.0
  0
LINE
  5
C7
100
AcDbEntity
  8
SLD-0_0
  6
CONTINUOUS
 62
       7
100
AcDbLine
 10
86.93694005
 20
49.25833553
 30
0.0
 11
86.94419333
 21
49.25773275
 31
0.0
  0
LINE
  5
C8
100
AcDbEntity
  8
SLD-0_0
  6
CONTINUOUS
 62
       7
100
AcDbLine
 10
87.0740939
 20
49.21435763
 30
0.0
 11
87.08020949
 21
49.21043098
 31
0.0
  0
LINE
  5
C9
100
AcDbEntity
  8
SLD-0_0
  6
CONTINUOUS
 62
       7
100
AcDbLine
 10
87.10339541
 20
49.19302894
 30
0.0
 11
87.1088816
 21
49.18828561
 31
0.0
  0
LINE
  5
CA
100
AcDbEntity
  8
SLD-0_0
  6
CONTINUOUS
 62
       7
100
AcDbLine
 10
62.36519867
 20
55.36066385
 30
0.0
 11
62.44488262
 21
55.43209069
 31
0.0
  0
LINE
  5
CB
100
AcDbEntity
  8
SLD-0_0
  6
CONTINUOUS
 62
       7
100
AcDbLine
 10
65.42704456
 20
54.97245809
 30
0.0
 11
66.05400346
 21
55.43245764
 31
0.0
  0
LINE
  5
CC
100
AcDbEntity
  8
SLD-0_0
  6
CONTINUOUS
 62
       7
100
AcDbLine
 10
86.77404132
 20
49.22501289
 30
0.0
 11
86.76486368
 21
49.21988947
 31
0.0
  0
LINE
  5
CD
100
AcDbEntity
  8
SLD-0_0
  6
CONTINUOUS
 62
       7
100
AcDbLine
 10
86.72196195
 20
49.18936396
 30
0.0
 11
86.71406057
 21
49.18241566
 31
0.0
  0
LINE
  5
CE
100
AcDbEntity
  8
SLD-0_0
  6
CONTINUOUS
 62
       7
100
AcDbLine
 10
86.94419333
 20
49.25773275
 30
0.0
 11
86.95142846
 21
49.25702816
 31
0.0
  0
LINE
  5
CF
100
AcDbEntity
  8
SLD-0_0
  6
CONTINUOUS
 62
       7
100
AcDbLine
 10
87.001196
 20
49.24730797
 30
0.0
 11
87.00813559
 21
49.24511945
 31
0.0
  0
LINE
  5
D0
100
AcDbEntity
  8
SLD-0_0
  6
CONTINUOUS
 62
       7
100
AcDbLine
 10
59.39634029
 20
51.7010216
 30
0.0
 11
59.39409651
 21
51.70685092
 31
0.0
  0
LINE
  5
D1
100
AcDbEntity
  8
SLD-0_0
  6
CONTINUOUS
 62
       7
100
AcDbLine
 10
59.37861712
 20
51.74128636
 30
0.0
 11
59.3758426
 21
51.74697348
 31
0.0
  0
LINE
  5
D2
100
AcDbEntity
  8
SLD-0_0
  6
CONTINUOUS
 62
       7
100
AcDbLine
 10
74.15141367
 20
53.26364078
 30
0.0
 11
74.46451687
 21
52.55185491
 31
0.0
  0
LINE
  5
D3
100
AcDbEntity
  8
SLD-0_0
  6
CONTINUOUS
 62
       7
100
AcDbLine
 10
75.49978995
 20
51.98988449
 30
0.0
 11
76.26724444
 21
52.11511433
 31
0.0
  0
LINE
  5
D4
100
AcDbEntity
  8
SLD-0_0
  6
CONTINUOUS
 62
       7
100
AcDbLine
 10
86.80255869
 20
49.23806362
 30
0.0
 11
86.79290049
 21
49.23411975
 31
0.0
  0
LINE
  5
D5
100
AcDbEntity
  8
SLD-0_0
  6
CONTINUOUS
 62
       7
100
AcDbLine
 10
86.98009695
 20
49.25268315
 30
0.0
 11
86.98717396
 21
49.2510992
 31
0.0
  0
LINE
  5
D6
100
AcDbEntity
  8
SLD-0_0
  6
CONTINUOUS
 62
       7
100
AcDbLine
 10
87.11427112
 20
49.18342093
 30
0.0
 11
87.11958011
 21
49.17845518
 31
0.0
  0
LINE
  5
D7
100
AcDbEntity
  8
SLD-0_0
  6
CONTINUOUS
 62
       7
100
AcDbLine
 10
59.40379966
 20
51.67729829
 30
0.0
 11
59.40219213
 21
51.68329805
 31
0.0
  0
LINE
  5
D8
100
AcDbEntity
  8
SLD-0_0
  6
CONTINUOUS
 62
       7
100
AcDbLine
 10
-77.1637409
 20
57.10317463
 30
0.0
 11
-77.1637409
 21
51.50317463
 31
0.0
  0
LINE
  5
D9
100
AcDbEntity
  8
SLD-0_0
  6
CONTINUOUS
 62
       7
100
AcDbLine
 10
-83.16374165
 20
51.50317463
 30
0.0
 11
-83.16374165
 21
57.10317463
 31
0.0
  0
LINE
  5
DA
100
AcDbEntity
  8
SLD-0_0
  6
CONTINUOUS
 62
       7
100
AcDbLine
 10
-77.1637409
 20
57.10317463
 30
0.0
 11
-83.16374165
 21
57.10317463
 31
0.0
  0
ARC
  5
DB
100
AcDbEntity
  8
SLD-0_0
  6
CONTINUOUS
 62
       7
100
AcDbCircle
 10
84.71324233
 20
-32.49682537
 30
0.0
 40
13.09999999
100
AcDbArc
 50
103.238654
 51
180.0
  0
ARC
  5
DC
100
AcDbEntity
  8
SLD-0_0
  6
CONTINUOUS
 62
       7
100
AcDbCircle
 10
84.71324233
 20
-32.49682537
 30
0.0
 40
3.00000236
100
AcDbArc
 50
179.99997842
 51
360.00002158
  0
ARC
  5
DD
100
AcDbEntity
  8
SLD-0_0
  6
CONTINUOUS
 62
       7
100
AcDbCircle
 10
60.13968498
 20
54.92480788
 30
0.0
 40
0.75000021
100
AcDbArc
 50
30.00012132
 51
209.99986974
  0
ARC
  5
DE
100
AcDbEntity
  8
SLD-0_0
  6
CONTINUOUS
 62
       7
100
AcDbCircle
 10
84.71324233
 20
-32.49682537
 30
0.0
 40
1.50000021
100
AcDbArc
 50
179.99995684
 51
360.0
  0
ARC
  5
DF
100
AcDbEntity
  8
SLD-0_0
  6
CONTINUOUS
 62
       7
100
AcDbCircle
 10
60.13968498
 20
54.92480788
 30
0.0
 40
2.24999994
100
AcDbArc
 50
30.00000703
 51
209.99992317
  0
ELLIPSE
  5
E0
100
AcDbEntity
  8
SLD-0_0
  6
CONTINUOUS
 62
       7
100
AcDbEllipse
 10
60.61323091
 20
52.00457989
 30
0.0
 11
0.2897895743643062
 21
0.0776488824257058
 31
0.0
210
0.0
220
0.0
230
1.0
 40
0.99995919
 41
6.0214012164221531
 42
6.5449694517531842
  0
ELLIPSE
  5
E1
100
AcDbEntity
  8
SLD-0_0
  6
CONTINUOUS
 62
       7
100
AcDbEllipse
 10
88.81353982
 20
46.80318606
 30
0.0
 11
-0.273436141589599
 21
0.1235843223000188
 31
0.0
210
0.0
220
0.0
230
1.0
 40
0.99977559
 41
1.9953685878149143
 42
4.2878173199927829
  0
LINE
  5
E2
100
AcDbEntity
  8
レイヤー_1
  6
CONTINUOUS
 62
       7
100
AcDbLine
 10
-8.28675757
 20
4.68640166
 30
0.0
 11
-7.73146922
 21
4.13822955
 31
0.0
  0
LINE
  5
E3
100
AcDbEntity
  8
レイヤー_1
  6
CONTINUOUS
 62
       7
100
AcDbLine
 10
-7.73146922
 20
4.13822955
 30
0.0
 11
-7.25213567
 21
3.66503888
 31
0.0
  0
LINE
  5
E4
100
AcDbEntity
  8
レイヤー_1
  6
CONTINUOUS
 62
       7
100
AcDbLine
 10
-7.25213567
 20
3.66503888
 30
0.0
 11
-6.62015475
 21
3.04115707
 31
0.0
  0
LINE
  5
E5
100
AcDbEntity
  8
レイヤー_1
  6
CONTINUOUS
 62
       7
100
AcDbLine
 10
-6.62015475
 20
3.04115707
 30
0.0
 11
-5.86605593
 21
2.29672235
 31
0.0
  0
LINE
  5
E6
100
AcDbEntity
  8
レイヤー_1
  6
CONTINUOUS
 62
       7
100
AcDbLine
 10
-5.86605593
 20
2.29672235
 30
0.0
 11
-5.02036869
 21
1.46187295
 31
0.0
  0
LINE
  5
E7
100
AcDbEntity
  8
レイヤー_1
  6
CONTINUOUS
 62
       7
100
AcDbLine
 10
-5.02036869
 20
1.46187295
 30
0.0
 11
-4.11362249
 21
0.56674709
 31
0.0
  0
LINE
  5
E8
100
AcDbEntity
  8
レイヤー_1
  6
CONTINUOUS
 62
       7
100
AcDbLine
 10
-4.11362249
 20
0.56674709
 30
0.0
 11
-3.17634681
 21
-0.35851699
 31
0.0
  0
LINE
  5
E9
100
AcDbEntity
  8
レイヤー_1
  6
CONTINUOUS
 62
       7
100
AcDbLine
 10
-3.17634681
 20
-0.35851699
 30
0.0
 11
-2.23907113
 21
-1.28378108
 31
0.0
  0
LINE
  5
EA
100
AcDbEntity
  8
レイヤー_1
  6
CONTINUOUS
 62
       7
100
AcDbLine
 10
-2.23907113
 20
-1.28378108
 30
0.0
 11
-1.33232493
 21
-2.17890693
 31
0.0
  0
LINE
  5
EB
100
AcDbEntity
  8
レイヤー_1
  6
CONTINUOUS
 62
       7
100
AcDbLine
 10
-1.33232493
 20
-2.17890693
 30
0.0
 11
-0.48663768
 21
-3.01375634
 31
0.0
  0
LINE
  5
EC
100
AcDbEntity
  8
レイヤー_1
  6
CONTINUOUS
 62
       7
100
AcDbLine
 10
-0.48663768
 20
-3.01375634
 30
0.0
 11
0.26746114
 21
-3.75819106
 31
0.0
  0
LINE
  5
ED
100
AcDbEntity
  8
レイヤー_1
  6
CONTINUOUS
 62
       7
100
AcDbLine
 10
0.26746114
 20
-3.75819106
 30
0.0
 11
0.89944206
 21
-4.38207287
 31
0.0
  0
LINE
  5
EE
100
AcDbEntity
  8
レイヤー_1
  6
CONTINUOUS
 62
       7
100
AcDbLine
 10
0.89944206
 20
-4.38207287
 30
0.0
 11
1.3787756
 21
-4.85526354
 31
0.0
  0
LINE
  5
EF
100
AcDbEntity
  8
レイヤー_1
  6
CONTINUOUS
 62
       7
100
AcDbLine
 10
1.3787756
 20
-4.85526354
 30
0.0
 11
1.67493227
 21
-5.14762485
 31
0.0
  0
LINE
  5
F0
100
AcDbEntity
  8
レイヤー_1
  6
CONTINUOUS
 62
       7
100
AcDbLine
 10
1.67493227
 20
-5.14762485
 30
0.0
 11
1.75984517
 21
-5.23902954
 31
0.0
  0
LINE
  5
F1
100
AcDbEntity
  8
レイヤー_1
  6
CONTINUOUS
 62
       7
100
AcDbLine
 10
1.75984517
 20
-5.23902954
 30
0.0
 11
1.75984517
 21
-5.69586315
 31
0.0
  0
LINE
  5
F2
100
AcDbEntity
  8
レイヤー_1
  6
CONTINUOUS
 62
       7
100
AcDbLine
 10
1.75984517
 20
-5.69586315
 30
0.0
 11
1.75984517
 21
-6.79135792
 31
0.0
  0
LINE
  5
F3
100
AcDbEntity
  8
レイヤー_1
  6
CONTINUOUS
 62
       7
100
AcDbLine
 10
1.75984517
 20
-6.79135792
 30
0.0
 11
1.75984517
 21
-8.43039411
 31
0.0
  0
LINE
  5
F4
100
AcDbEntity
  8
レイヤー_1
  6
CONTINUOUS
 62
       7
100
AcDbLine
 10
1.75984517
 20
-8.43039411
 30
0.0
 11
1.75984517
 21
-10.51785195
 31
0.0
  0
LINE
  5
F5
100
AcDbEntity
  8
レイヤー_1
  6
CONTINUOUS
 62
       7
100
AcDbLine
 10
1.75984517
 20
-10.51785195
 30
0.0
 11
1.75984517
 21
-12.95861172
 31
0.0
  0
LINE
  5
F6
100
AcDbEntity
  8
レイヤー_1
  6
CONTINUOUS
 62
       7
100
AcDbLine
 10
1.75984517
 20
-12.95861172
 30
0.0
 11
1.75984517
 21
-15.65755365
 31
0.0
  0
LINE
  5
F7
100
AcDbEntity
  8
レイヤー_1
  6
CONTINUOUS
 62
       7
100
AcDbLine
 10
1.75984517
 20
-15.65755365
 30
0.0
 11
1.75984517
 21
-18.519558
 31
0.0
  0
LINE
  5
F8
100
AcDbEntity
  8
レイヤー_1
  6
CONTINUOUS
 62
       7
100
AcDbLine
 10
1.75984517
 20
-18.519558
 30
0.0
 11
1.75984517
 21
-21.44950504
 31
0.0
  0
LINE
  5
F9
100
AcDbEntity
  8
レイヤー_1
  6
CONTINUOUS
 62
       7
100
AcDbLine
 10
1.75984517
 20
-21.44950504
 30
0.0
 11
1.75984517
 21
-24.352275
 31
0.0
  0
LINE
  5
FA
100
AcDbEntity
  8
レイヤー_1
  6
CONTINUOUS
 62
       7
100
AcDbLine
 10
1.75984517
 20
-24.352275
 30
0.0
 11
1.75984517
 21
-27.13274814
 31
0.0
  0
LINE
  5
FB
100
AcDbEntity
  8
レイヤー_1
  6
CONTINUOUS
 62
       7
100
AcDbLine
 10
1.75984517
 20
-27.13274814
 30
0.0
 11
1.75984517
 21
-29.69580472
 31
0.0
  0
LINE
  5
FC
100
AcDbEntity
  8
レイヤー_1
  6
CONTINUOUS
 62
       7
100
AcDbLine
 10
1.75984517
 20
-29.69580472
 30
0.0
 11
1.75984517
 21
-31.94632499
 31
0.0
  0
LINE
  5
FD
100
AcDbEntity
  8
レイヤー_1
  6
CONTINUOUS
 62
       7
100
AcDbLine
 10
1.75984517
 20
-31.94632499
 30
0.0
 11
1.75984517
 21
-33.78918921
 31
0.0
  0
LINE
  5
FE
100
AcDbEntity
  8
レイヤー_1
  6
CONTINUOUS
 62
       7
100
AcDbLine
 10
1.75984517
 20
-33.78918921
 30
0.0
 11
1.75984517
 21
-35.12927761
 31
0.0
  0
LINE
  5
FF
100
AcDbEntity
  8
レイヤー_1
  6
CONTINUOUS
 62
       7
100
AcDbLine
 10
1.75984517
 20
-35.12927761
 30
0.0
 11
1.75984517
 21
-35.87147047
 31
0.0
  0
LINE
  5
100
100
AcDbEntity
  8
レイヤー_1
  6
CONTINUOUS
 62
       7
100
AcDbLine
 10
1.75984517
 20
-35.87147047
 30
0.0
 11
1.76008983
 21
-35.99586981
 31
0.0
  0
LINE
  5
101
100
AcDbEntity
  8
レイヤー_1
  6
CONTINUOUS
 62
       7
100
AcDbLine
 10
1.76008983
 20
-35.99586981
 30
0.0
 11
1.76437942
 21
-36.04727907
 31
0.0
  0
LINE
  5
102
100
AcDbEntity
  8
レイヤー_1
  6
CONTINUOUS
 62
       7
100
AcDbLine
 10
1.76437942
 20
-36.04727907
 30
0.0
 11
1.77819666
 21
-36.14712476
 31
0.0
  0
LINE
  5
103
100
AcDbEntity
  8
レイヤー_1
  6
CONTINUOUS
 62
       7
100
AcDbLine
 10
1.77819666
 20
-36.14712476
 30
0.0
 11
1.80687993
 21
-36.28787233
 31
0.0
  0
LINE
  5
104
100
AcDbEntity
  8
レイヤー_1
  6
CONTINUOUS
 62
       7
100
AcDbLine
 10
1.80687993
 20
-36.28787233
 30
0.0
 11
1.8557675
 21
-36.46198723
 31
0.0
  0
LINE
  5
105
100
AcDbEntity
  8
レイヤー_1
  6
CONTINUOUS
 62
       7
100
AcDbLine
 10
1.8557675
 20
-36.46198723
 30
0.0
 11
1.93019772
 21
-36.66193489
 31
0.0
  0
LINE
  5
106
100
AcDbEntity
  8
レイヤー_1
  6
CONTINUOUS
 62
       7
100
AcDbLine
 10
1.93019772
 20
-36.66193489
 30
0.0
 11
2.03550891
 21
-36.88018076
 31
0.0
  0
LINE
  5
107
100
AcDbEntity
  8
レイヤー_1
  6
CONTINUOUS
 62
       7
100
AcDbLine
 10
2.03550891
 20
-36.88018076
 30
0.0
 11
2.17703939
 21
-37.10919028
 31
0.0
  0
LINE
  5
108
100
AcDbEntity
  8
レイヤー_1
  6
CONTINUOUS
 62
       7
100
AcDbLine
 10
2.17703939
 20
-37.10919028
 30
0.0
 11
2.36012747
 21
-37.3414289
 31
0.0
  0
LINE
  5
109
100
AcDbEntity
  8
レイヤー_1
  6
CONTINUOUS
 62
       7
100
AcDbLine
 10
2.36012747
 20
-37.3414289
 30
0.0
 11
2.59011149
 21
-37.56936206
 31
0.0
  0
LINE
  5
10A
100
AcDbEntity
  8
レイヤー_1
  6
CONTINUOUS
 62
       7
100
AcDbLine
 10
2.59011149
 20
-37.56936206
 30
0.0
 11
2.87232975
 21
-37.7854552
 31
0.0
  0
LINE
  5
10B
100
AcDbEntity
  8
レイヤー_1
  6
CONTINUOUS
 62
       7
100
AcDbLine
 10
2.87232975
 20
-37.7854552
 30
0.0
 11
4.10107533
 21
-38.49682537
 31
0.0
  0
LINE
  5
10C
100
AcDbEntity
  8
レイヤー_1
  6
CONTINUOUS
 62
       7
100
AcDbLine
 10
5.44715252
 20
-38.49682537
 30
0.0
 11
5.44715252
 21
51.50317463
 31
0.0
  0
LINE
  5
10D
100
AcDbEntity
  8
レイヤー_1
  6
CONTINUOUS
 62
       7
100
AcDbLine
 10
6.51669339
 20
51.50317463
 30
0.0
 11
6.51669339
 21
-38.49682537
 31
0.0
  0
LINE
  5
10E
100
AcDbEntity
  8
レイヤー_1
  6
CONTINUOUS
 62
       7
100
AcDbLine
 10
27.41056558
 20
30.34121891
 30
0.0
 11
27.41056558
 21
31.84966283
 31
0.0
  0
LINE
  5
10F
100
AcDbEntity
  8
レイヤー_1
  6
CONTINUOUS
 62
       7
100
AcDbLine
 10
27.41056558
 20
31.84966283
 30
0.0
 11
22.53372007
 21
31.84966283
 31
0.0
  0
LINE
  5
110
100
AcDbEntity
  8
レイヤー_1
  6
CONTINUOUS
 62
       7
100
AcDbLine
 10
22.53372007
 20
31.84966283
 30
0.0
 11
22.53372007
 21
30.34121891
 31
0.0
  0
LINE
  5
111
100
AcDbEntity
  8
レイヤー_1
  6
CONTINUOUS
 62
       7
100
AcDbLine
 10
22.53372007
 20
30.34121891
 30
0.0
 11
27.41056558
 21
30.34121891
 31
0.0
  0
LINE
  5
112
100
AcDbEntity
  8
レイヤー_1
  6
CONTINUOUS
 62
       7
100
AcDbLine
 10
27.41056558
 20
33.35223732
 30
0.0
 11
27.41056558
 21
34.85872477
 31
0.0
  0
LINE
  5
113
100
AcDbEntity
  8
レイヤー_1
  6
CONTINUOUS
 62
       7
100
AcDbLine
 10
27.41056558
 20
34.85872477
 30
0.0
 11
22.53372007
 21
34.85872477
 31
0.0
  0
LINE
  5
114
100
AcDbEntity
  8
レイヤー_1
  6
CONTINUOUS
 62
       7
100
AcDbLine
 10
22.53372007
 20
34.85872477
 30
0.0
 11
22.53372007
 21
33.35223732
 31
0.0
  0
LINE
  5
115
100
AcDbEntity
  8
レイヤー_1
  6
CONTINUOUS
 62
       7
100
AcDbLine
 10
22.53372007
 20
33.35223732
 30
0.0
 11
27.41056558
 21
33.35223732
 31
0.0
  0
LINE
  5
116
100
AcDbEntity
  8
レイヤー_1
  6
CONTINUOUS
 62
       7
100
AcDbLine
 10
27.41056558
 20
36.35999494
 30
0.0
 11
27.41056558
 21
37.86648238
 31
0.0
  0
LINE
  5
117
100
AcDbEntity
  8
レイヤー_1
  6
CONTINUOUS
 62
       7
100
AcDbLine
 10
27.41056558
 20
37.86648238
 30
0.0
 11
22.53372007
 21
37.86648238
 31
0.0
  0
LINE
  5
118
100
AcDbEntity
  8
レイヤー_1
  6
CONTINUOUS
 62
       7
100
AcDbLine
 10
22.53372007
 20
37.86648238
 30
0.0
 11
22.53372007
 21
36.35999494
 31
0.0
  0
LINE
  5
119
100
AcDbEntity
  8
レイヤー_1
  6
CONTINUOUS
 62
       7
100
AcDbLine
 10
22.53372007
 20
36.35999494
 30
0.0
 11
27.41056558
 21
36.35999494
 31
0.0
  0
LINE
  5
11A
100
AcDbEntity
  8
レイヤー_1
  6
CONTINUOUS
 62
       7
100
AcDbLine
 10
27.41056558
 20
39.36905687
 30
0.0
 11
27.41056558
 21
40.87684863
 31
0.0
  0
LINE
  5
11B
100
AcDbEntity
  8
レイヤー_1
  6
CONTINUOUS
 62
       7
100
AcDbLine
 10
27.41056558
 20
40.87684863
 30
0.0
 11
22.53372007
 21
40.87684863
 31
0.0
  0
LINE
  5
11C
100
AcDbEntity
  8
レイヤー_1
  6
CONTINUOUS
 62
       7
100
AcDbLine
 10
22.53372007
 20
40.87684863
 30
0.0
 11
22.53372007
 21
39.36905687
 31
0.0
  0
LINE
  5
11D
100
AcDbEntity
  8
レイヤー_1
  6
CONTINUOUS
 62
       7
100
AcDbLine
 10
22.53372007
 20
39.36905687
 30
0.0
 11
27.41056558
 21
39.36905687
 31
0.0
  0
LINE
  5
11E
100
AcDbEntity
  8
レイヤー_1
  6
CONTINUOUS
 62
       7
100
AcDbLine
 10
27.41056558
 20
42.37811881
 30
0.0
 11
27.41056558
 21
43.88460625
 31
0.0
  0
LINE
  5
11F
100
AcDbEntity
  8
レイヤー_1
  6
CONTINUOUS
 62
       7
100
AcDbLine
 10
27.41056558
 20
43.88460625
 30
0.0
 11
22.53372007
 21
43.88460625
 31
0.0
  0
LINE
  5
120
100
AcDbEntity
  8
レイヤー_1
  6
CONTINUOUS
 62
       7
100
AcDbLine
 10
22.53372007
 20
43.88460625
 30
0.0
 11
22.53372007
 21
42.37811881
 31
0.0
  0
LINE
  5
121
100
AcDbEntity
  8
レイヤー_1
  6
CONTINUOUS
 62
       7
100
AcDbLine
 10
22.53372007
 20
42.37811881
 30
0.0
 11
27.41056558
 21
42.37811881
 31
0.0
  0
LINE
  5
122
100
AcDbEntity
  8
レイヤー_1
  6
CONTINUOUS
 62
       7
100
AcDbLine
 10
27.41056558
 20
45.38587642
 30
0.0
 11
27.41056558
 21
46.89366818
 31
0.0
  0
LINE
  5
123
100
AcDbEntity
  8
レイヤー_1
  6
CONTINUOUS
 62
       7
100
AcDbLine
 10
27.41056558
 20
46.89366818
 30
0.0
 11
22.53372007
 21
46.89366818
 31
0.0
  0
LINE
  5
124
100
AcDbEntity
  8
レイヤー_1
  6
CONTINUOUS
 62
       7
100
AcDbLine
 10
22.53372007
 20
46.89366818
 30
0.0
 11
22.53372007
 21
45.38587642
 31
0.0
  0
LINE
  5
125
100
AcDbEntity
  8
レイヤー_1
  6
CONTINUOUS
 62
       7
100
AcDbLine
 10
22.53372007
 20
45.38587642
 30
0.0
 11
27.41056558
 21
45.38587642
 31
0.0
  0
LINE
  5
126
100
AcDbEntity
  8
レイヤー_1
  6
CONTINUOUS
 62
       7
100
AcDbLine
 10
27.41056558
 20
48.39624267
 30
0.0
 11
27.41056558
 21
49.90273012
 31
0.0
  0
LINE
  5
127
100
AcDbEntity
  8
レイヤー_1
  6
CONTINUOUS
 62
       7
100
AcDbLine
 10
27.41056558
 20
49.90273012
 30
0.0
 11
22.53372007
 21
49.90273012
 31
0.0
  0
LINE
  5
128
100
AcDbEntity
  8
レイヤー_1
  6
CONTINUOUS
 62
       7
100
AcDbLine
 10
22.53372007
 20
49.90273012
 30
0.0
 11
22.53372007
 21
48.39624267
 31
0.0
  0
LINE
  5
129
100
AcDbEntity
  8
レイヤー_1
  6
CONTINUOUS
 62
       7
100
AcDbLine
 10
22.53372007
 20
48.39624267
 30
0.0
 11
27.41056558
 21
48.39624267
 31
0.0
  0
LINE
  5
12A
100
AcDbEntity
  8
レイヤー_1
  6
CONTINUOUS
 62
       7
100
AcDbLine
 10
28.40184736
 20
22.65878511
 30
0.0
 11
28.40184736
 21
51.56834437
 31
0.0
  0
LINE
  5
12B
100
AcDbEntity
  8
レイヤー_1
  6
CONTINUOUS
 62
       7
100
AcDbLine
 10
21.5424383
 20
51.56834437
 30
0.0
 11
21.5424383
 21
22.65878511
 31
0.0
  0
LINE
  5
12C
100
AcDbEntity
  8
レイヤー_1
  6
CONTINUOUS
 62
       7
100
AcDbLine
 10
21.5424383
 20
22.65878511
 30
0.0
 11
28.40184736
 21
22.65878511
 31
0.0
  0
LINE
  5
12D
100
AcDbEntity
  8
レイヤー_1
  6
CONTINUOUS
 62
       7
100
AcDbLine
 10
1.75984517
 20
-35.47532626
 30
0.0
 11
-8.78687126
 21
-31.58845822
 31
0.0
  0
LINE
  5
12E
100
AcDbEntity
  8
レイヤー_1
  6
CONTINUOUS
 62
       7
100
AcDbLine
 10
-8.78687126
 20
-31.58845822
 30
0.0
 11
-12.19635887
 21
-31.58845822
 31
0.0
  0
LINE
  5
12F
100
AcDbEntity
  8
レイヤー_1
  6
CONTINUOUS
 62
       7
100
AcDbLine
 10
-12.19635887
 20
-31.58845822
 30
0.0
 11
-17.35102412
 21
-33.41319929
 31
0.0
  0
LINE
  5
130
100
AcDbEntity
  8
レイヤー_1
  6
CONTINUOUS
 62
       7
100
AcDbLine
 10
-17.35102412
 20
-33.41319929
 30
0.0
 11
-18.2849159
 21
-32.65865125
 31
0.0
  0
LINE
  5
131
100
AcDbEntity
  8
レイヤー_1
  6
CONTINUOUS
 62
       7
100
AcDbLine
 10
-18.2849159
 20
-32.65865125
 30
0.0
 11
-17.94057592
 21
-32.24453024
 31
0.0
  0
LINE
  5
132
100
AcDbEntity
  8
レイヤー_1
  6
CONTINUOUS
 62
       7
100
AcDbLine
 10
-17.94057592
 20
-32.24453024
 30
0.0
 11
-17.52580276
 21
-32.58887023
 31
0.0
  0
LINE
  5
133
100
AcDbEntity
  8
レイヤー_1
  6
CONTINUOUS
 62
       7
100
AcDbLine
 10
-17.52580276
 20
-32.58887023
 30
0.0
 11
-17.16059368
 21
-32.14931502
 31
0.0
  0
LINE
  5
134
100
AcDbEntity
  8
レイヤー_1
  6
CONTINUOUS
 62
       7
100
AcDbLine
 10
-17.16059368
 20
-32.14931502
 30
0.0
 11
-17.57667117
 21
-31.80497503
 31
0.0
  0
LINE
  5
135
100
AcDbEntity
  8
レイヤー_1
  6
CONTINUOUS
 62
       7
100
AcDbLine
 10
-17.57667117
 20
-31.80497503
 30
0.0
 11
-17.23102686
 21
-31.3895497
 31
0.0
  0
LINE
  5
136
100
AcDbEntity
  8
レイヤー_1
  6
CONTINUOUS
 62
       7
100
AcDbLine
 10
-17.23102686
 20
-31.3895497
 30
0.0
 11
-16.817558
 21
-31.73454185
 31
0.0
  0
LINE
  5
137
100
AcDbEntity
  8
レイヤー_1
  6
CONTINUOUS
 62
       7
100
AcDbLine
 10
-16.817558
 20
-31.73454185
 30
0.0
 11
-16.45365324
 21
-31.29629096
 31
0.0
  0
LINE
  5
138
100
AcDbEntity
  8
レイヤー_1
  6
CONTINUOUS
 62
       7
100
AcDbLine
 10
-16.45365324
 20
-31.29629096
 30
0.0
 11
-16.86712209
 21
-30.94999449
 31
0.0
  0
LINE
  5
139
100
AcDbEntity
  8
レイヤー_1
  6
CONTINUOUS
 62
       7
100
AcDbLine
 10
-16.86712209
 20
-30.94999449
 30
0.0
 11
-16.52408643
 21
-30.53587348
 31
0.0
  0
LINE
  5
13A
100
AcDbEntity
  8
レイヤー_1
  6
CONTINUOUS
 62
       7
100
AcDbLine
 10
-16.52408643
 20
-30.53587348
 30
0.0
 11
-16.10670462
 21
-30.87956131
 31
0.0
  0
LINE
  5
13B
100
AcDbEntity
  8
レイヤー_1
  6
CONTINUOUS
 62
       7
100
AcDbLine
 10
-16.10670462
 20
-30.87956131
 30
0.0
 11
-15.74410418
 21
-30.44131042
 31
0.0
  0
LINE
  5
13C
100
AcDbEntity
  8
レイヤー_1
  6
CONTINUOUS
 62
       7
100
AcDbLine
 10
-15.74410418
 20
-30.44131042
 30
0.0
 11
-16.15887736
 21
-30.09566611
 31
0.0
  0
LINE
  5
13D
100
AcDbEntity
  8
レイヤー_1
  6
CONTINUOUS
 62
       7
100
AcDbLine
 10
-16.15887736
 20
-30.09566611
 30
0.0
 11
-15.81323304
 21
-29.68154511
 31
0.0
  0
LINE
  5
13E
100
AcDbEntity
  8
レイヤー_1
  6
CONTINUOUS
 62
       7
100
AcDbLine
 10
-15.81323304
 20
-29.68154511
 30
0.0
 11
-15.39976419
 21
-30.02588509
 31
0.0
  0
LINE
  5
13F
100
AcDbEntity
  8
レイヤー_1
  6
CONTINUOUS
 62
       7
100
AcDbLine
 10
-15.39976419
 20
-30.02588509
 30
0.0
 11
-15.03455512
 21
-29.58632988
 31
0.0
  0
LINE
  5
140
100
AcDbEntity
  8
レイヤー_1
  6
CONTINUOUS
 62
       7
100
AcDbLine
 10
-15.03455512
 20
-29.58632988
 30
0.0
 11
-15.44802396
 21
-29.2419899
 31
0.0
  0
LINE
  5
141
100
AcDbEntity
  8
レイヤー_1
  6
CONTINUOUS
 62
       7
100
AcDbLine
 10
-15.44802396
 20
-29.2419899
 30
0.0
 11
-15.1049883
 21
-28.82656457
 31
0.0
  0
LINE
  5
142
100
AcDbEntity
  8
レイヤー_1
  6
CONTINUOUS
 62
       7
100
AcDbLine
 10
-15.1049883
 20
-28.82656457
 30
0.0
 11
-14.69021513
 21
-29.17090456
 31
0.0
  0
LINE
  5
143
100
AcDbEntity
  8
レイヤー_1
  6
CONTINUOUS
 62
       7
100
AcDbLine
 10
-14.69021513
 20
-29.17090456
 30
0.0
 11
-14.32500605
 21
-28.73200151
 31
0.0
  0
LINE
  5
144
100
AcDbEntity
  8
レイヤー_1
  6
CONTINUOUS
 62
       7
100
AcDbLine
 10
-14.32500605
 20
-28.73200151
 30
0.0
 11
-14.74108354
 21
-28.38700936
 31
0.0
  0
LINE
  5
145
100
AcDbEntity
  8
レイヤー_1
  6
CONTINUOUS
 62
       7
100
AcDbLine
 10
-14.74108354
 20
-28.38700936
 30
0.0
 11
-14.39543924
 21
-27.97288835
 31
0.0
  0
LINE
  5
146
100
AcDbEntity
  8
レイヤー_1
  6
CONTINUOUS
 62
       7
100
AcDbLine
 10
-14.39543924
 20
-27.97288835
 30
0.0
 11
-13.98066606
 21
-28.3178805
 31
0.0
  0
LINE
  5
147
100
AcDbEntity
  8
レイヤー_1
  6
CONTINUOUS
 62
       7
100
AcDbLine
 10
-13.98066606
 20
-28.3178805
 30
0.0
 11
-13.6167613
 21
-27.87832529
 31
0.0
  0
LINE
  5
148
100
AcDbEntity
  8
レイヤー_1
  6
CONTINUOUS
 62
       7
100
AcDbLine
 10
-13.6167613
 20
-27.87832529
 30
0.0
 11
-14.03153447
 21
-27.5339853
 31
0.0
  0
LINE
  5
149
100
AcDbEntity
  8
レイヤー_1
  6
CONTINUOUS
 62
       7
100
AcDbLine
 10
-14.03153447
 20
-27.5339853
 30
0.0
 11
-12.75069407
 21
-25.9440215
 31
0.0
  0
LINE
  5
14A
100
AcDbEntity
  8
レイヤー_1
  6
CONTINUOUS
 62
       7
100
AcDbLine
 10
-12.75069407
 20
-25.9440215
 30
0.0
 11
-12.35418135
 21
-25.9440215
 31
0.0
  0
LINE
  5
14B
100
AcDbEntity
  8
レイヤー_1
  6
CONTINUOUS
 62
       7
100
AcDbLine
 10
-12.35418135
 20
-25.9440215
 30
0.0
 11
-12.03723205
 21
-26.27401398
 31
0.0
  0
LINE
  5
14C
100
AcDbEntity
  8
レイヤー_1
  6
CONTINUOUS
 62
       7
100
AcDbLine
 10
-12.03723205
 20
-26.27401398
 30
0.0
 11
-12.67243498
 21
-26.87008737
 31
0.0
  0
LINE
  5
14D
100
AcDbEntity
  8
レイヤー_1
  6
CONTINUOUS
 62
       7
100
AcDbLine
 10
-12.67243498
 20
-26.87008737
 30
0.0
 11
-12.67243498
 21
-28.06027767
 31
0.0
  0
LINE
  5
14E
100
AcDbEntity
  8
レイヤー_1
  6
CONTINUOUS
 62
       7
100
AcDbLine
 10
-12.67243498
 20
-28.06027767
 30
0.0
 11
-4.90130754
 21
-28.06027767
 31
0.0
  0
LINE
  5
14F
100
AcDbEntity
  8
レイヤー_1
  6
CONTINUOUS
 62
       7
100
AcDbLine
 10
-4.90130754
 20
-28.06027767
 30
0.0
 11
-4.90130754
 21
1.40361681
 31
0.0
  0
LINE
  5
150
100
AcDbEntity
  8
レイヤー_1
  6
CONTINUOUS
 62
       7
100
AcDbLine
 10
-5.65389911
 20
2.11707882
 30
0.0
 11
-12.71026021
 21
2.11707882
 31
0.0
  0
LINE
  5
151
100
AcDbEntity
  8
レイヤー_1
  6
CONTINUOUS
 62
       7
100
AcDbLine
 10
-12.71026021
 20
2.11707882
 30
0.0
 11
-12.71026021
 21
0.88841114
 31
0.0
  0
LINE
  5
152
100
AcDbEntity
  8
レイヤー_1
  6
CONTINUOUS
 62
       7
100
AcDbLine
 10
-12.71026021
 20
0.88841114
 30
0.0
 11
-12.07766592
 21
0.29429423
 31
0.0
  0
LINE
  5
153
100
AcDbEntity
  8
レイヤー_1
  6
CONTINUOUS
 62
       7
100
AcDbLine
 10
-12.07766592
 20
0.29429423
 30
0.0
 11
-12.39461521
 21
-0.03700257
 31
0.0
  0
LINE
  5
154
100
AcDbEntity
  8
レイヤー_1
  6
CONTINUOUS
 62
       7
100
AcDbLine
 10
-12.39461521
 20
-0.03700257
 30
0.0
 11
-12.79112793
 21
-0.03700257
 31
0.0
  0
LINE
  5
155
100
AcDbEntity
  8
レイヤー_1
  6
CONTINUOUS
 62
       7
100
AcDbLine
 10
-12.79112793
 20
-0.03700257
 30
0.0
 11
-14.07066402
 21
1.55230907
 31
0.0
  0
LINE
  5
156
100
AcDbEntity
  8
レイヤー_1
  6
CONTINUOUS
 62
       7
100
AcDbLine
 10
-14.07066402
 20
1.55230907
 30
0.0
 11
-13.65458654
 21
1.89795338
 31
0.0
  0
LINE
  5
157
100
AcDbEntity
  8
レイヤー_1
  6
CONTINUOUS
 62
       7
100
AcDbLine
 10
-13.65458654
 20
1.89795338
 30
0.0
 11
-14.01979562
 21
2.33620427
 31
0.0
  0
LINE
  5
158
100
AcDbEntity
  8
レイヤー_1
  6
CONTINUOUS
 62
       7
100
AcDbLine
 10
-14.01979562
 20
2.33620427
 30
0.0
 11
-14.43456877
 21
1.99121212
 31
0.0
  0
LINE
  5
159
100
AcDbEntity
  8
レイヤー_1
  6
CONTINUOUS
 62
       7
100
AcDbLine
 10
-14.43456877
 20
1.99121212
 30
0.0
 11
-14.77890876
 21
2.40728961
 31
0.0
  0
LINE
  5
15A
100
AcDbEntity
  8
レイヤー_1
  6
CONTINUOUS
 62
       7
100
AcDbLine
 10
-14.77890876
 20
2.40728961
 30
0.0
 11
-14.36413559
 21
2.7516296
 31
0.0
  0
LINE
  5
15B
100
AcDbEntity
  8
レイヤー_1
  6
CONTINUOUS
 62
       7
100
AcDbLine
 10
-14.36413559
 20
2.7516296
 30
0.0
 11
-14.72934468
 21
3.19118481
 31
0.0
  0
LINE
  5
15C
100
AcDbEntity
  8
レイヤー_1
  6
CONTINUOUS
 62
       7
100
AcDbLine
 10
-14.72934468
 20
3.19118481
 30
0.0
 11
-15.14411785
 21
2.84619266
 31
0.0
  0
LINE
  5
15D
100
AcDbEntity
  8
レイヤー_1
  6
CONTINUOUS
 62
       7
100
AcDbLine
 10
-15.14411785
 20
2.84619266
 30
0.0
 11
-15.48845784
 21
3.26031367
 31
0.0
  0
LINE
  5
15E
100
AcDbEntity
  8
レイヤー_1
  6
CONTINUOUS
 62
       7
100
AcDbLine
 10
-15.48845784
 20
3.26031367
 30
0.0
 11
-15.07498898
 21
3.60595797
 31
0.0
  0
LINE
  5
15F
100
AcDbEntity
  8
レイヤー_1
  6
CONTINUOUS
 62
       7
100
AcDbLine
 10
-15.07498898
 20
3.60595797
 30
0.0
 11
-15.43889375
 21
4.04420887
 31
0.0
  0
LINE
  5
160
100
AcDbEntity
  8
レイヤー_1
  6
CONTINUOUS
 62
       7
100
AcDbLine
 10
-15.43889375
 20
4.04420887
 30
0.0
 11
-15.8536669
 21
3.7011732
 31
0.0
  0
LINE
  5
161
100
AcDbEntity
  8
レイヤー_1
  6
CONTINUOUS
 62
       7
100
AcDbLine
 10
-15.8536669
 20
3.7011732
 30
0.0
 11
-16.19800689
 21
4.1152942
 31
0.0
  0
LINE
  5
162
100
AcDbEntity
  8
レイヤー_1
  6
CONTINUOUS
 62
       7
100
AcDbLine
 10
-16.19800689
 20
4.1152942
 30
0.0
 11
-15.78192941
 21
4.45963419
 31
0.0
  0
LINE
  5
163
100
AcDbEntity
  8
レイヤー_1
  6
CONTINUOUS
 62
       7
100
AcDbLine
 10
-15.78192941
 20
4.45963419
 30
0.0
 11
-16.14713848
 21
4.8991894
 31
0.0
  0
LINE
  5
164
100
AcDbEntity
  8
レイヤー_1
  6
CONTINUOUS
 62
       7
100
AcDbLine
 10
-16.14713848
 20
4.8991894
 30
0.0
 11
-16.56321597
 21
4.55484942
 31
0.0
  0
LINE
  5
165
100
AcDbEntity
  8
レイヤー_1
  6
CONTINUOUS
 62
       7
100
AcDbLine
 10
-16.56321597
 20
4.55484942
 30
0.0
 11
-16.90755595
 21
4.97027474
 31
0.0
  0
LINE
  5
166
100
AcDbEntity
  8
レイヤー_1
  6
CONTINUOUS
 62
       7
100
AcDbLine
 10
-16.90755595
 20
4.97027474
 30
0.0
 11
-16.49147848
 21
5.31461473
 31
0.0
  0
LINE
  5
167
100
AcDbEntity
  8
レイヤー_1
  6
CONTINUOUS
 62
       7
100
AcDbLine
 10
-16.49147848
 20
5.31461473
 30
0.0
 11
-16.85668756
 21
5.75286562
 31
0.0
  0
LINE
  5
168
100
AcDbEntity
  8
レイヤー_1
  6
CONTINUOUS
 62
       7
100
AcDbLine
 10
-16.85668756
 20
5.75286562
 30
0.0
 11
-17.27146072
 21
5.40917779
 31
0.0
  0
LINE
  5
169
100
AcDbEntity
  8
レイヤー_1
  6
CONTINUOUS
 62
       7
100
AcDbLine
 10
-17.27146072
 20
5.40917779
 30
0.0
 11
-17.6158007
 21
5.8232988
 31
0.0
  0
LINE
  5
16A
100
AcDbEntity
  8
レイヤー_1
  6
CONTINUOUS
 62
       7
100
AcDbLine
 10
-17.6158007
 20
5.8232988
 30
0.0
 11
-17.20102754
 21
6.16829095
 31
0.0
  0
LINE
  5
16B
100
AcDbEntity
  8
レイヤー_1
  6
CONTINUOUS
 62
       7
100
AcDbLine
 10
-17.20102754
 20
6.16829095
 30
0.0
 11
-17.56493229
 21
6.607194
 31
0.0
  0
LINE
  5
16C
100
AcDbEntity
  8
レイヤー_1
  6
CONTINUOUS
 62
       7
100
AcDbLine
 10
-17.56493229
 20
6.607194
 30
0.0
 11
-17.98100978
 21
6.26285401
 31
0.0
  0
LINE
  5
16D
100
AcDbEntity
  8
レイヤー_1
  6
CONTINUOUS
 62
       7
100
AcDbLine
 10
-17.98100978
 20
6.26285401
 30
0.0
 11
-18.32534977
 21
6.67827934
 31
0.0
  0
LINE
  5
16E
100
AcDbEntity
  8
レイヤー_1
  6
CONTINUOUS
 62
       7
100
AcDbLine
 10
-18.32534977
 20
6.67827934
 30
0.0
 11
-17.38884935
 21
7.43152306
 31
0.0
  0
LINE
  5
16F
100
AcDbEntity
  8
レイヤー_1
  6
CONTINUOUS
 62
       7
100
AcDbLine
 10
-17.38884935
 20
7.43152306
 30
0.0
 11
-12.2354884
 21
5.60678199
 31
0.0
  0
LINE
  5
170
100
AcDbEntity
  8
レイヤー_1
  6
CONTINUOUS
 62
       7
100
AcDbLine
 10
-12.2354884
 20
5.60678199
 30
0.0
 11
-8.8260008
 21
5.60678199
 31
0.0
  0
LINE
  5
171
100
AcDbEntity
  8
レイヤー_1
  6
CONTINUOUS
 62
       7
100
AcDbLine
 10
-8.8260008
 20
5.60678199
 30
0.0
 11
-8.11253878
 21
5.92503562
 31
0.0
  0
LINE
  5
172
100
AcDbEntity
  8
レイヤー_1
  6
CONTINUOUS
 62
       7
100
AcDbLine
 10
42.31892184
 20
24.32439936
 30
0.0
 11
42.31892184
 21
25.83088681
 31
0.0
  0
LINE
  5
173
100
AcDbEntity
  8
レイヤー_1
  6
CONTINUOUS
 62
       7
100
AcDbLine
 10
42.31892184
 20
25.83088681
 30
0.0
 11
37.44077202
 21
25.83088681
 31
0.0
  0
LINE
  5
174
100
AcDbEntity
  8
レイヤー_1
  6
CONTINUOUS
 62
       7
100
AcDbLine
 10
37.44077202
 20
25.83088681
 30
0.0
 11
37.44077202
 21
24.32439936
 31
0.0
  0
LINE
  5
175
100
AcDbEntity
  8
レイヤー_1
  6
CONTINUOUS
 62
       7
100
AcDbLine
 10
37.44077202
 20
24.32439936
 30
0.0
 11
42.31892184
 21
24.32439936
 31
0.0
  0
LINE
  5
176
100
AcDbEntity
  8
レイヤー_1
  6
CONTINUOUS
 62
       7
100
AcDbLine
 10
42.31892184
 20
27.3334613
 30
0.0
 11
42.31892184
 21
28.83994874
 31
0.0
  0
LINE
  5
177
100
AcDbEntity
  8
レイヤー_1
  6
CONTINUOUS
 62
       7
100
AcDbLine
 10
42.31892184
 20
28.83994874
 30
0.0
 11
37.44077202
 21
28.83994874
 31
0.0
  0
LINE
  5
178
100
AcDbEntity
  8
レイヤー_1
  6
CONTINUOUS
 62
       7
100
AcDbLine
 10
37.44077202
 20
28.83994874
 30
0.0
 11
37.44077202
 21
27.3334613
 31
0.0
  0
LINE
  5
179
100
AcDbEntity
  8
レイヤー_1
  6
CONTINUOUS
 62
       7
100
AcDbLine
 10
37.44077202
 20
27.3334613
 30
0.0
 11
42.31892184
 21
27.3334613
 31
0.0
  0
LINE
  5
17A
100
AcDbEntity
  8
レイヤー_1
  6
CONTINUOUS
 62
       7
100
AcDbLine
 10
42.31892184
 20
30.34121891
 30
0.0
 11
42.31892184
 21
31.84966283
 31
0.0
  0
LINE
  5
17B
100
AcDbEntity
  8
レイヤー_1
  6
CONTINUOUS
 62
       7
100
AcDbLine
 10
42.31892184
 20
31.84966283
 30
0.0
 11
37.44077202
 21
31.84966283
 31
0.0
  0
LINE
  5
17C
100
AcDbEntity
  8
レイヤー_1
  6
CONTINUOUS
 62
       7
100
AcDbLine
 10
37.44077202
 20
31.84966283
 30
0.0
 11
37.44077202
 21
30.34121891
 31
0.0
  0
LINE
  5
17D
100
AcDbEntity
  8
レイヤー_1
  6
CONTINUOUS
 62
       7
100
AcDbLine
 10
37.44077202
 20
30.34121891
 30
0.0
 11
42.31892184
 21
30.34121891
 31
0.0
  0
LINE
  5
17E
100
AcDbEntity
  8
レイヤー_1
  6
CONTINUOUS
 62
       7
100
AcDbLine
 10
42.31892184
 20
33.35223732
 30
0.0
 11
42.31892184
 21
34.85872477
 31
0.0
  0
LINE
  5
17F
100
AcDbEntity
  8
レイヤー_1
  6
CONTINUOUS
 62
       7
100
AcDbLine
 10
42.31892184
 20
34.85872477
 30
0.0
 11
37.44077202
 21
34.85872477
 31
0.0
  0
LINE
  5
180
100
AcDbEntity
  8
レイヤー_1
  6
CONTINUOUS
 62
       7
100
AcDbLine
 10
37.44077202
 20
34.85872477
 30
0.0
 11
37.44077202
 21
33.35223732
 31
0.0
  0
LINE
  5
181
100
AcDbEntity
  8
レイヤー_1
  6
CONTINUOUS
 62
       7
100
AcDbLine
 10
37.44077202
 20
33.35223732
 30
0.0
 11
42.31892184
 21
33.35223732
 31
0.0
  0
LINE
  5
182
100
AcDbEntity
  8
レイヤー_1
  6
CONTINUOUS
 62
       7
100
AcDbLine
 10
42.31892184
 20
36.35999494
 30
0.0
 11
42.31892184
 21
37.86648238
 31
0.0
  0
LINE
  5
183
100
AcDbEntity
  8
レイヤー_1
  6
CONTINUOUS
 62
       7
100
AcDbLine
 10
42.31892184
 20
37.86648238
 30
0.0
 11
37.44077202
 21
37.86648238
 31
0.0
  0
LINE
  5
184
100
AcDbEntity
  8
レイヤー_1
  6
CONTINUOUS
 62
       7
100
AcDbLine
 10
37.44077202
 20
37.86648238
 30
0.0
 11
37.44077202
 21
36.35999494
 31
0.0
  0
LINE
  5
185
100
AcDbEntity
  8
レイヤー_1
  6
CONTINUOUS
 62
       7
100
AcDbLine
 10
37.44077202
 20
36.35999494
 30
0.0
 11
42.31892184
 21
36.35999494
 31
0.0
  0
LINE
  5
186
100
AcDbEntity
  8
レイヤー_1
  6
CONTINUOUS
 62
       7
100
AcDbLine
 10
42.31892184
 20
39.36905687
 30
0.0
 11
42.31892184
 21
40.87684863
 31
0.0
  0
LINE
  5
187
100
AcDbEntity
  8
レイヤー_1
  6
CONTINUOUS
 62
       7
100
AcDbLine
 10
42.31892184
 20
40.87684863
 30
0.0
 11
37.44077202
 21
40.87684863
 31
0.0
  0
LINE
  5
188
100
AcDbEntity
  8
レイヤー_1
  6
CONTINUOUS
 62
       7
100
AcDbLine
 10
37.44077202
 20
40.87684863
 30
0.0
 11
37.44077202
 21
39.36905687
 31
0.0
  0
LINE
  5
189
100
AcDbEntity
  8
レイヤー_1
  6
CONTINUOUS
 62
       7
100
AcDbLine
 10
37.44077202
 20
39.36905687
 30
0.0
 11
42.31892184
 21
39.36905687
 31
0.0
  0
LINE
  5
18A
100
AcDbEntity
  8
レイヤー_1
  6
CONTINUOUS
 62
       7
100
AcDbLine
 10
42.31892184
 20
42.37811881
 30
0.0
 11
42.31892184
 21
43.88460625
 31
0.0
  0
LINE
  5
18B
100
AcDbEntity
  8
レイヤー_1
  6
CONTINUOUS
 62
       7
100
AcDbLine
 10
42.31892184
 20
43.88460625
 30
0.0
 11
37.44077202
 21
43.88460625
 31
0.0
  0
LINE
  5
18C
100
AcDbEntity
  8
レイヤー_1
  6
CONTINUOUS
 62
       7
100
AcDbLine
 10
37.44077202
 20
43.88460625
 30
0.0
 11
37.44077202
 21
42.37811881
 31
0.0
  0
LINE
  5
18D
100
AcDbEntity
  8
レイヤー_1
  6
CONTINUOUS
 62
       7
100
AcDbLine
 10
37.44077202
 20
42.37811881
 30
0.0
 11
42.31892184
 21
42.37811881
 31
0.0
  0
LINE
  5
18E
100
AcDbEntity
  8
レイヤー_1
  6
CONTINUOUS
 62
       7
100
AcDbLine
 10
42.31892184
 20
45.38587642
 30
0.0
 11
42.31892184
 21
46.89366818
 31
0.0
  0
LINE
  5
18F
100
AcDbEntity
  8
レイヤー_1
  6
CONTINUOUS
 62
       7
100
AcDbLine
 10
42.31892184
 20
46.89366818
 30
0.0
 11
37.44077202
 21
46.89366818
 31
0.0
  0
LINE
  5
190
100
AcDbEntity
  8
レイヤー_1
  6
CONTINUOUS
 62
       7
100
AcDbLine
 10
37.44077202
 20
46.89366818
 30
0.0
 11
37.44077202
 21
45.38587642
 31
0.0
  0
LINE
  5
191
100
AcDbEntity
  8
レイヤー_1
  6
CONTINUOUS
 62
       7
100
AcDbLine
 10
37.44077202
 20
45.38587642
 30
0.0
 11
42.31892184
 21
45.38587642
 31
0.0
  0
LINE
  5
192
100
AcDbEntity
  8
レイヤー_1
  6
CONTINUOUS
 62
       7
100
AcDbLine
 10
42.31892184
 20
48.39624267
 30
0.0
 11
42.31892184
 21
49.90273012
 31
0.0
  0
LINE
  5
193
100
AcDbEntity
  8
レイヤー_1
  6
CONTINUOUS
 62
       7
100
AcDbLine
 10
42.31892184
 20
49.90273012
 30
0.0
 11
37.44077202
 21
49.90273012
 31
0.0
  0
LINE
  5
194
100
AcDbEntity
  8
レイヤー_1
  6
CONTINUOUS
 62
       7
100
AcDbLine
 10
37.44077202
 20
49.90273012
 30
0.0
 11
37.44077202
 21
48.39624267
 31
0.0
  0
LINE
  5
195
100
AcDbEntity
  8
レイヤー_1
  6
CONTINUOUS
 62
       7
100
AcDbLine
 10
37.44077202
 20
48.39624267
 30
0.0
 11
42.31892184
 21
48.39624267
 31
0.0
  0
LINE
  5
196
100
AcDbEntity
  8
レイヤー_1
  6
CONTINUOUS
 62
       7
100
AcDbLine
 10
43.30889931
 20
22.65878511
 30
0.0
 11
43.30889931
 21
51.56834437
 31
0.0
  0
LINE
  5
197
100
AcDbEntity
  8
レイヤー_1
  6
CONTINUOUS
 62
       7
100
AcDbLine
 10
36.44949025
 20
51.56834437
 30
0.0
 11
36.44949025
 21
22.65878511
 31
0.0
  0
LINE
  5
198
100
AcDbEntity
  8
レイヤー_1
  6
CONTINUOUS
 62
       7
100
AcDbLine
 10
36.44949025
 20
22.65878511
 30
0.0
 11
43.30889931
 21
22.65878511
 31
0.0
  0
LINE
  5
199
100
AcDbEntity
  8
レイヤー_1
  6
CONTINUOUS
 62
       7
100
AcDbLine
 10
34.86474371
 20
24.32439936
 30
0.0
 11
34.86474371
 21
25.83088681
 31
0.0
  0
LINE
  5
19A
100
AcDbEntity
  8
レイヤー_1
  6
CONTINUOUS
 62
       7
100
AcDbLine
 10
34.86474371
 20
25.83088681
 30
0.0
 11
29.98789821
 21
25.83088681
 31
0.0
  0
LINE
  5
19B
100
AcDbEntity
  8
レイヤー_1
  6
CONTINUOUS
 62
       7
100
AcDbLine
 10
29.98789821
 20
25.83088681
 30
0.0
 11
29.98789821
 21
24.32439936
 31
0.0
  0
LINE
  5
19C
100
AcDbEntity
  8
レイヤー_1
  6
CONTINUOUS
 62
       7
100
AcDbLine
 10
29.98789821
 20
24.32439936
 30
0.0
 11
34.86474371
 21
24.32439936
 31
0.0
  0
LINE
  5
19D
100
AcDbEntity
  8
レイヤー_1
  6
CONTINUOUS
 62
       7
100
AcDbLine
 10
34.86474371
 20
27.3334613
 30
0.0
 11
34.86474371
 21
28.83994874
 31
0.0
  0
LINE
  5
19E
100
AcDbEntity
  8
レイヤー_1
  6
CONTINUOUS
 62
       7
100
AcDbLine
 10
34.86474371
 20
28.83994874
 30
0.0
 11
29.98789821
 21
28.83994874
 31
0.0
  0
LINE
  5
19F
100
AcDbEntity
  8
レイヤー_1
  6
CONTINUOUS
 62
       7
100
AcDbLine
 10
29.98789821
 20
28.83994874
 30
0.0
 11
29.98789821
 21
27.3334613
 31
0.0
  0
LINE
  5
1A0
100
AcDbEntity
  8
レイヤー_1
  6
CONTINUOUS
 62
       7
100
AcDbLine
 10
29.98789821
 20
27.3334613
 30
0.0
 11
34.86474371
 21
27.3334613
 31
0.0
  0
LINE
  5
1A1
100
AcDbEntity
  8
レイヤー_1
  6
CONTINUOUS
 62
       7
100
AcDbLine
 10
34.86474371
 20
30.34121891
 30
0.0
 11
34.86474371
 21
31.84966283
 31
0.0
  0
LINE
  5
1A2
100
AcDbEntity
  8
レイヤー_1
  6
CONTINUOUS
 62
       7
100
AcDbLine
 10
34.86474371
 20
31.84966283
 30
0.0
 11
29.98789821
 21
31.84966283
 31
0.0
  0
LINE
  5
1A3
100
AcDbEntity
  8
レイヤー_1
  6
CONTINUOUS
 62
       7
100
AcDbLine
 10
29.98789821
 20
31.84966283
 30
0.0
 11
29.98789821
 21
30.34121891
 31
0.0
  0
LINE
  5
1A4
100
AcDbEntity
  8
レイヤー_1
  6
CONTINUOUS
 62
       7
100
AcDbLine
 10
29.98789821
 20
30.34121891
 30
0.0
 11
34.86474371
 21
30.34121891
 31
0.0
  0
LINE
  5
1A5
100
AcDbEntity
  8
レイヤー_1
  6
CONTINUOUS
 62
       7
100
AcDbLine
 10
34.86474371
 20
33.35223732
 30
0.0
 11
34.86474371
 21
34.85872477
 31
0.0
  0
LINE
  5
1A6
100
AcDbEntity
  8
レイヤー_1
  6
CONTINUOUS
 62
       7
100
AcDbLine
 10
34.86474371
 20
34.85872477
 30
0.0
 11
29.98789821
 21
34.85872477
 31
0.0
  0
LINE
  5
1A7
100
AcDbEntity
  8
レイヤー_1
  6
CONTINUOUS
 62
       7
100
AcDbLine
 10
29.98789821
 20
34.85872477
 30
0.0
 11
29.98789821
 21
33.35223732
 31
0.0
  0
LINE
  5
1A8
100
AcDbEntity
  8
レイヤー_1
  6
CONTINUOUS
 62
       7
100
AcDbLine
 10
29.98789821
 20
33.35223732
 30
0.0
 11
34.86474371
 21
33.35223732
 31
0.0
  0
LINE
  5
1A9
100
AcDbEntity
  8
レイヤー_1
  6
CONTINUOUS
 62
       7
100
AcDbLine
 10
34.86474371
 20
36.35999494
 30
0.0
 11
34.86474371
 21
37.86648238
 31
0.0
  0
LINE
  5
1AA
100
AcDbEntity
  8
レイヤー_1
  6
CONTINUOUS
 62
       7
100
AcDbLine
 10
34.86474371
 20
37.86648238
 30
0.0
 11
29.98789821
 21
37.86648238
 31
0.0
  0
LINE
  5
1AB
100
AcDbEntity
  8
レイヤー_1
  6
CONTINUOUS
 62
       7
100
AcDbLine
 10
29.98789821
 20
37.86648238
 30
0.0
 11
29.98789821
 21
36.35999494
 31
0.0
  0
LINE
  5
1AC
100
AcDbEntity
  8
レイヤー_1
  6
CONTINUOUS
 62
       7
100
AcDbLine
 10
29.98789821
 20
36.35999494
 30
0.0
 11
34.86474371
 21
36.35999494
 31
0.0
  0
LINE
  5
1AD
100
AcDbEntity
  8
レイヤー_1
  6
CONTINUOUS
 62
       7
100
AcDbLine
 10
34.86474371
 20
39.36905687
 30
0.0
 11
34.86474371
 21
40.87684863
 31
0.0
  0
LINE
  5
1AE
100
AcDbEntity
  8
レイヤー_1
  6
CONTINUOUS
 62
       7
100
AcDbLine
 10
34.86474371
 20
40.87684863
 30
0.0
 11
29.98789821
 21
40.87684863
 31
0.0
  0
LINE
  5
1AF
100
AcDbEntity
  8
レイヤー_1
  6
CONTINUOUS
 62
       7
100
AcDbLine
 10
29.98789821
 20
40.87684863
 30
0.0
 11
29.98789821
 21
39.36905687
 31
0.0
  0
LINE
  5
1B0
100
AcDbEntity
  8
レイヤー_1
  6
CONTINUOUS
 62
       7
100
AcDbLine
 10
29.98789821
 20
39.36905687
 30
0.0
 11
34.86474371
 21
39.36905687
 31
0.0
  0
LINE
  5
1B1
100
AcDbEntity
  8
レイヤー_1
  6
CONTINUOUS
 62
       7
100
AcDbLine
 10
34.86474371
 20
42.37811881
 30
0.0
 11
34.86474371
 21
43.88460625
 31
0.0
  0
LINE
  5
1B2
100
AcDbEntity
  8
レイヤー_1
  6
CONTINUOUS
 62
       7
100
AcDbLine
 10
34.86474371
 20
43.88460625
 30
0.0
 11
29.98789821
 21
43.88460625
 31
0.0
  0
LINE
  5
1B3
100
AcDbEntity
  8
レイヤー_1
  6
CONTINUOUS
 62
       7
100
AcDbLine
 10
29.98789821
 20
43.88460625
 30
0.0
 11
29.98789821
 21
42.37811881
 31
0.0
  0
LINE
  5
1B4
100
AcDbEntity
  8
レイヤー_1
  6
CONTINUOUS
 62
       7
100
AcDbLine
 10
29.98789821
 20
42.37811881
 30
0.0
 11
34.86474371
 21
42.37811881
 31
0.0
  0
LINE
  5
1B5
100
AcDbEntity
  8
レイヤー_1
  6
CONTINUOUS
 62
       7
100
AcDbLine
 10
34.86474371
 20
45.38587642
 30
0.0
 11
34.86474371
 21
46.89366818
 31
0.0
  0
LINE
  5
1B6
100
AcDbEntity
  8
レイヤー_1
  6
CONTINUOUS
 62
       7
100
AcDbLine
 10
34.86474371
 20
46.89366818
 30
0.0
 11
29.98789821
 21
46.89366818
 31
0.0
  0
LINE
  5
1B7
100
AcDbEntity
  8
レイヤー_1
  6
CONTINUOUS
 62
       7
100
AcDbLine
 10
29.98789821
 20
46.89366818
 30
0.0
 11
29.98789821
 21
45.38587642
 31
0.0
  0
LINE
  5
1B8
100
AcDbEntity
  8
レイヤー_1
  6
CONTINUOUS
 62
       7
100
AcDbLine
 10
29.98789821
 20
45.38587642
 30
0.0
 11
34.86474371
 21
45.38587642
 31
0.0
  0
LINE
  5
1B9
100
AcDbEntity
  8
レイヤー_1
  6
CONTINUOUS
 62
       7
100
AcDbLine
 10
34.86474371
 20
48.39624267
 30
0.0
 11
34.86474371
 21
49.90273012
 31
0.0
  0
LINE
  5
1BA
100
AcDbEntity
  8
レイヤー_1
  6
CONTINUOUS
 62
       7
100
AcDbLine
 10
34.86474371
 20
49.90273012
 30
0.0
 11
29.98789821
 21
49.90273012
 31
0.0
  0
LINE
  5
1BB
100
AcDbEntity
  8
レイヤー_1
  6
CONTINUOUS
 62
       7
100
AcDbLine
 10
29.98789821
 20
49.90273012
 30
0.0
 11
29.98789821
 21
48.39624267
 31
0.0
  0
LINE
  5
1BC
100
AcDbEntity
  8
レイヤー_1
  6
CONTINUOUS
 62
       7
100
AcDbLine
 10
29.98789821
 20
48.39624267
 30
0.0
 11
34.86474371
 21
48.39624267
 31
0.0
  0
LINE
  5
1BD
100
AcDbEntity
  8
レイヤー_1
  6
CONTINUOUS
 62
       7
100
AcDbLine
 10
35.85472118
 20
22.65878511
 30
0.0
 11
35.85472118
 21
51.56834437
 31
0.0
  0
LINE
  5
1BE
100
AcDbEntity
  8
レイヤー_1
  6
CONTINUOUS
 62
       7
100
AcDbLine
 10
28.99661642
 20
51.56834437
 30
0.0
 11
28.99661642
 21
22.65878511
 31
0.0
  0
LINE
  5
1BF
100
AcDbEntity
  8
レイヤー_1
  6
CONTINUOUS
 62
       7
100
AcDbLine
 10
28.99661642
 20
22.65878511
 30
0.0
 11
35.85472118
 21
22.65878511
 31
0.0
  0
LINE
  5
1C0
100
AcDbEntity
  8
レイヤー_1
  6
CONTINUOUS
 62
       7
100
AcDbLine
 10
27.41056558
 20
24.32439936
 30
0.0
 11
27.41056558
 21
25.83088681
 31
0.0
  0
LINE
  5
1C1
100
AcDbEntity
  8
レイヤー_1
  6
CONTINUOUS
 62
       7
100
AcDbLine
 10
27.41056558
 20
25.83088681
 30
0.0
 11
22.53372007
 21
25.83088681
 31
0.0
  0
LINE
  5
1C2
100
AcDbEntity
  8
レイヤー_1
  6
CONTINUOUS
 62
       7
100
AcDbLine
 10
22.53372007
 20
25.83088681
 30
0.0
 11
22.53372007
 21
24.32439936
 31
0.0
  0
LINE
  5
1C3
100
AcDbEntity
  8
レイヤー_1
  6
CONTINUOUS
 62
       7
100
AcDbLine
 10
22.53372007
 20
24.32439936
 30
0.0
 11
27.41056558
 21
24.32439936
 31
0.0
  0
LINE
  5
1C4
100
AcDbEntity
  8
レイヤー_1
  6
CONTINUOUS
 62
       7
100
AcDbLine
 10
27.41056558
 20
27.3334613
 30
0.0
 11
27.41056558
 21
28.83994874
 31
0.0
  0
LINE
  5
1C5
100
AcDbEntity
  8
レイヤー_1
  6
CONTINUOUS
 62
       7
100
AcDbLine
 10
27.41056558
 20
28.83994874
 30
0.0
 11
22.53372007
 21
28.83994874
 31
0.0
  0
LINE
  5
1C6
100
AcDbEntity
  8
レイヤー_1
  6
CONTINUOUS
 62
       7
100
AcDbLine
 10
22.53372007
 20
28.83994874
 30
0.0
 11
22.53372007
 21
27.3334613
 31
0.0
  0
LINE
  5
1C7
100
AcDbEntity
  8
レイヤー_1
  6
CONTINUOUS
 62
       7
100
AcDbLine
 10
22.53372007
 20
27.3334613
 30
0.0
 11
27.41056558
 21
27.3334613
 31
0.0
  0
LINE
  5
1C8
100
AcDbEntity
  8
レイヤー_1
  6
CONTINUOUS
 62
       7
100
AcDbLine
 10
57.22336516
 20
24.32439936
 30
0.0
 11
57.22336516
 21
25.83088681
 31
0.0
  0
LINE
  5
1C9
100
AcDbEntity
  8
レイヤー_1
  6
CONTINUOUS
 62
       7
100
AcDbLine
 10
57.22336516
 20
25.83088681
 30
0.0
 11
52.34782396
 21
25.83088681
 31
0.0
  0
LINE
  5
1CA
100
AcDbEntity
  8
レイヤー_1
  6
CONTINUOUS
 62
       7
100
AcDbLine
 10
52.34782396
 20
25.83088681
 30
0.0
 11
52.34782396
 21
24.32439936
 31
0.0
  0
LINE
  5
1CB
100
AcDbEntity
  8
レイヤー_1
  6
CONTINUOUS
 62
       7
100
AcDbLine
 10
52.34782396
 20
24.32439936
 30
0.0
 11
57.22336516
 21
24.32439936
 31
0.0
  0
LINE
  5
1CC
100
AcDbEntity
  8
レイヤー_1
  6
CONTINUOUS
 62
       7
100
AcDbLine
 10
57.22336516
 20
27.3334613
 30
0.0
 11
57.22336516
 21
28.83994874
 31
0.0
  0
LINE
  5
1CD
100
AcDbEntity
  8
レイヤー_1
  6
CONTINUOUS
 62
       7
100
AcDbLine
 10
57.22336516
 20
28.83994874
 30
0.0
 11
52.34782396
 21
28.83994874
 31
0.0
  0
LINE
  5
1CE
100
AcDbEntity
  8
レイヤー_1
  6
CONTINUOUS
 62
       7
100
AcDbLine
 10
52.34782396
 20
28.83994874
 30
0.0
 11
52.34782396
 21
27.3334613
 31
0.0
  0
LINE
  5
1CF
100
AcDbEntity
  8
レイヤー_1
  6
CONTINUOUS
 62
       7
100
AcDbLine
 10
52.34782396
 20
27.3334613
 30
0.0
 11
57.22336516
 21
27.3334613
 31
0.0
  0
LINE
  5
1D0
100
AcDbEntity
  8
レイヤー_1
  6
CONTINUOUS
 62
       7
100
AcDbLine
 10
57.22336516
 20
30.34121891
 30
0.0
 11
57.22336516
 21
31.84966283
 31
0.0
  0
LINE
  5
1D1
100
AcDbEntity
  8
レイヤー_1
  6
CONTINUOUS
 62
       7
100
AcDbLine
 10
57.22336516
 20
31.84966283
 30
0.0
 11
52.34782396
 21
31.84966283
 31
0.0
  0
LINE
  5
1D2
100
AcDbEntity
  8
レイヤー_1
  6
CONTINUOUS
 62
       7
100
AcDbLine
 10
52.34782396
 20
31.84966283
 30
0.0
 11
52.34782396
 21
30.34121891
 31
0.0
  0
LINE
  5
1D3
100
AcDbEntity
  8
レイヤー_1
  6
CONTINUOUS
 62
       7
100
AcDbLine
 10
52.34782396
 20
30.34121891
 30
0.0
 11
57.22336516
 21
30.34121891
 31
0.0
  0
LINE
  5
1D4
100
AcDbEntity
  8
レイヤー_1
  6
CONTINUOUS
 62
       7
100
AcDbLine
 10
57.22336516
 20
33.35223732
 30
0.0
 11
57.22336516
 21
34.85872477
 31
0.0
  0
LINE
  5
1D5
100
AcDbEntity
  8
レイヤー_1
  6
CONTINUOUS
 62
       7
100
AcDbLine
 10
57.22336516
 20
34.85872477
 30
0.0
 11
52.34782396
 21
34.85872477
 31
0.0
  0
LINE
  5
1D6
100
AcDbEntity
  8
レイヤー_1
  6
CONTINUOUS
 62
       7
100
AcDbLine
 10
52.34782396
 20
34.85872477
 30
0.0
 11
52.34782396
 21
33.35223732
 31
0.0
  0
LINE
  5
1D7
100
AcDbEntity
  8
レイヤー_1
  6
CONTINUOUS
 62
       7
100
AcDbLine
 10
52.34782396
 20
33.35223732
 30
0.0
 11
57.22336516
 21
33.35223732
 31
0.0
  0
LINE
  5
1D8
100
AcDbEntity
  8
レイヤー_1
  6
CONTINUOUS
 62
       7
100
AcDbLine
 10
57.22336516
 20
36.35999494
 30
0.0
 11
57.22336516
 21
37.86648238
 31
0.0
  0
LINE
  5
1D9
100
AcDbEntity
  8
レイヤー_1
  6
CONTINUOUS
 62
       7
100
AcDbLine
 10
57.22336516
 20
37.86648238
 30
0.0
 11
52.34782396
 21
37.86648238
 31
0.0
  0
LINE
  5
1DA
100
AcDbEntity
  8
レイヤー_1
  6
CONTINUOUS
 62
       7
100
AcDbLine
 10
52.34782396
 20
37.86648238
 30
0.0
 11
52.34782396
 21
36.35999494
 31
0.0
  0
LINE
  5
1DB
100
AcDbEntity
  8
レイヤー_1
  6
CONTINUOUS
 62
       7
100
AcDbLine
 10
52.34782396
 20
36.35999494
 30
0.0
 11
57.22336516
 21
36.35999494
 31
0.0
  0
LINE
  5
1DC
100
AcDbEntity
  8
レイヤー_1
  6
CONTINUOUS
 62
       7
100
AcDbLine
 10
57.22336516
 20
39.36905687
 30
0.0
 11
57.22336516
 21
40.87684863
 31
0.0
  0
LINE
  5
1DD
100
AcDbEntity
  8
レイヤー_1
  6
CONTINUOUS
 62
       7
100
AcDbLine
 10
57.22336516
 20
40.87684863
 30
0.0
 11
52.34782396
 21
40.87684863
 31
0.0
  0
LINE
  5
1DE
100
AcDbEntity
  8
レイヤー_1
  6
CONTINUOUS
 62
       7
100
AcDbLine
 10
52.34782396
 20
40.87684863
 30
0.0
 11
52.34782396
 21
39.36905687
 31
0.0
  0
LINE
  5
1DF
100
AcDbEntity
  8
レイヤー_1
  6
CONTINUOUS
 62
       7
100
AcDbLine
 10
52.34782396
 20
39.36905687
 30
0.0
 11
57.22336516
 21
39.36905687
 31
0.0
  0
LINE
  5
1E0
100
AcDbEntity
  8
レイヤー_1
  6
CONTINUOUS
 62
       7
100
AcDbLine
 10
57.22336516
 20
42.37811881
 30
0.0
 11
57.22336516
 21
43.88460625
 31
0.0
  0
LINE
  5
1E1
100
AcDbEntity
  8
レイヤー_1
  6
CONTINUOUS
 62
       7
100
AcDbLine
 10
57.22336516
 20
43.88460625
 30
0.0
 11
52.34782396
 21
43.88460625
 31
0.0
  0
LINE
  5
1E2
100
AcDbEntity
  8
レイヤー_1
  6
CONTINUOUS
 62
       7
100
AcDbLine
 10
52.34782396
 20
43.88460625
 30
0.0
 11
52.34782396
 21
42.37811881
 31
0.0
  0
LINE
  5
1E3
100
AcDbEntity
  8
レイヤー_1
  6
CONTINUOUS
 62
       7
100
AcDbLine
 10
52.34782396
 20
42.37811881
 30
0.0
 11
57.22336516
 21
42.37811881
 31
0.0
  0
LINE
  5
1E4
100
AcDbEntity
  8
レイヤー_1
  6
CONTINUOUS
 62
       7
100
AcDbLine
 10
57.22336516
 20
45.38587642
 30
0.0
 11
57.22336516
 21
46.89366818
 31
0.0
  0
LINE
  5
1E5
100
AcDbEntity
  8
レイヤー_1
  6
CONTINUOUS
 62
       7
100
AcDbLine
 10
57.22336516
 20
46.89366818
 30
0.0
 11
52.34782396
 21
46.89366818
 31
0.0
  0
LINE
  5
1E6
100
AcDbEntity
  8
レイヤー_1
  6
CONTINUOUS
 62
       7
100
AcDbLine
 10
52.34782396
 20
46.89366818
 30
0.0
 11
52.34782396
 21
45.38587642
 31
0.0
  0
LINE
  5
1E7
100
AcDbEntity
  8
レイヤー_1
  6
CONTINUOUS
 62
       7
100
AcDbLine
 10
52.34782396
 20
45.38587642
 30
0.0
 11
57.22336516
 21
45.38587642
 31
0.0
  0
LINE
  5
1E8
100
AcDbEntity
  8
レイヤー_1
  6
CONTINUOUS
 62
       7
100
AcDbLine
 10
57.22336516
 20
49.90273012
 30
0.0
 11
52.34782396
 21
49.90273012
 31
0.0
  0
LINE
  5
1E9
100
AcDbEntity
  8
レイヤー_1
  6
CONTINUOUS
 62
       7
100
AcDbLine
 10
52.34782396
 20
49.90273012
 30
0.0
 11
52.34782396
 21
48.39624267
 31
0.0
  0
LINE
  5
1EA
100
AcDbEntity
  8
レイヤー_1
  6
CONTINUOUS
 62
       7
100
AcDbLine
 10
52.34782396
 20
48.39624267
 30
0.0
 11
57.22336516
 21
48.39624267
 31
0.0
  0
LINE
  5
1EB
100
AcDbEntity
  8
レイヤー_1
  6
CONTINUOUS
 62
       7
100
AcDbLine
 10
58.21464693
 20
22.65878511
 30
0.0
 11
58.21464693
 21
51.56834437
 31
0.0
  0
LINE
  5
1EC
100
AcDbEntity
  8
レイヤー_1
  6
CONTINUOUS
 62
       7
100
AcDbLine
 10
51.35654219
 20
51.56834437
 30
0.0
 11
51.35654219
 21
22.65878511
 31
0.0
  0
LINE
  5
1ED
100
AcDbEntity
  8
レイヤー_1
  6
CONTINUOUS
 62
       7
100
AcDbLine
 10
51.35654219
 20
22.65878511
 30
0.0
 11
58.21464693
 21
22.65878511
 31
0.0
  0
LINE
  5
1EE
100
AcDbEntity
  8
レイヤー_1
  6
CONTINUOUS
 62
       7
100
AcDbLine
 10
49.77049133
 20
24.32439936
 30
0.0
 11
49.77049133
 21
25.83088681
 31
0.0
  0
LINE
  5
1EF
100
AcDbEntity
  8
レイヤー_1
  6
CONTINUOUS
 62
       7
100
AcDbLine
 10
49.77049133
 20
25.83088681
 30
0.0
 11
44.89495015
 21
25.83088681
 31
0.0
  0
LINE
  5
1F0
100
AcDbEntity
  8
レイヤー_1
  6
CONTINUOUS
 62
       7
100
AcDbLine
 10
44.89495015
 20
25.83088681
 30
0.0
 11
44.89495015
 21
24.32439936
 31
0.0
  0
LINE
  5
1F1
100
AcDbEntity
  8
レイヤー_1
  6
CONTINUOUS
 62
       7
100
AcDbLine
 10
44.89495015
 20
24.32439936
 30
0.0
 11
49.77049133
 21
24.32439936
 31
0.0
  0
LINE
  5
1F2
100
AcDbEntity
  8
レイヤー_1
  6
CONTINUOUS
 62
       7
100
AcDbLine
 10
49.77049133
 20
27.3334613
 30
0.0
 11
49.77049133
 21
28.83994874
 31
0.0
  0
LINE
  5
1F3
100
AcDbEntity
  8
レイヤー_1
  6
CONTINUOUS
 62
       7
100
AcDbLine
 10
49.77049133
 20
28.83994874
 30
0.0
 11
44.89495015
 21
28.83994874
 31
0.0
  0
LINE
  5
1F4
100
AcDbEntity
  8
レイヤー_1
  6
CONTINUOUS
 62
       7
100
AcDbLine
 10
44.89495015
 20
28.83994874
 30
0.0
 11
44.89495015
 21
27.3334613
 31
0.0
  0
LINE
  5
1F5
100
AcDbEntity
  8
レイヤー_1
  6
CONTINUOUS
 62
       7
100
AcDbLine
 10
44.89495015
 20
27.3334613
 30
0.0
 11
49.77049133
 21
27.3334613
 31
0.0
  0
LINE
  5
1F6
100
AcDbEntity
  8
レイヤー_1
  6
CONTINUOUS
 62
       7
100
AcDbLine
 10
49.77049133
 20
30.34121891
 30
0.0
 11
49.77049133
 21
31.84966283
 31
0.0
  0
LINE
  5
1F7
100
AcDbEntity
  8
レイヤー_1
  6
CONTINUOUS
 62
       7
100
AcDbLine
 10
49.77049133
 20
31.84966283
 30
0.0
 11
44.89495015
 21
31.84966283
 31
0.0
  0
LINE
  5
1F8
100
AcDbEntity
  8
レイヤー_1
  6
CONTINUOUS
 62
       7
100
AcDbLine
 10
44.89495015
 20
31.84966283
 30
0.0
 11
44.89495015
 21
30.34121891
 31
0.0
  0
LINE
  5
1F9
100
AcDbEntity
  8
レイヤー_1
  6
CONTINUOUS
 62
       7
100
AcDbLine
 10
44.89495015
 20
30.34121891
 30
0.0
 11
49.77049133
 21
30.34121891
 31
0.0
  0
LINE
  5
1FA
100
AcDbEntity
  8
レイヤー_1
  6
CONTINUOUS
 62
       7
100
AcDbLine
 10
49.77049133
 20
33.35223732
 30
0.0
 11
49.77049133
 21
34.85872477
 31
0.0
  0
LINE
  5
1FB
100
AcDbEntity
  8
レイヤー_1
  6
CONTINUOUS
 62
       7
100
AcDbLine
 10
49.77049133
 20
34.85872477
 30
0.0
 11
44.89495015
 21
34.85872477
 31
0.0
  0
LINE
  5
1FC
100
AcDbEntity
  8
レイヤー_1
  6
CONTINUOUS
 62
       7
100
AcDbLine
 10
44.89495015
 20
34.85872477
 30
0.0
 11
44.89495015
 21
33.35223732
 31
0.0
  0
LINE
  5
1FD
100
AcDbEntity
  8
レイヤー_1
  6
CONTINUOUS
 62
       7
100
AcDbLine
 10
44.89495015
 20
33.35223732
 30
0.0
 11
49.77049133
 21
33.35223732
 31
0.0
  0
LINE
  5
1FE
100
AcDbEntity
  8
レイヤー_1
  6
CONTINUOUS
 62
       7
100
AcDbLine
 10
49.77049133
 20
36.35999494
 30
0.0
 11
49.77049133
 21
37.86648238
 31
0.0
  0
LINE
  5
1FF
100
AcDbEntity
  8
レイヤー_1
  6
CONTINUOUS
 62
       7
100
AcDbLine
 10
49.77049133
 20
37.86648238
 30
0.0
 11
44.89495015
 21
37.86648238
 31
0.0
  0
LINE
  5
200
100
AcDbEntity
  8
レイヤー_1
  6
CONTINUOUS
 62
       7
100
AcDbLine
 10
44.89495015
 20
37.86648238
 30
0.0
 11
44.89495015
 21
36.35999494
 31
0.0
  0
LINE
  5
201
100
AcDbEntity
  8
レイヤー_1
  6
CONTINUOUS
 62
       7
100
AcDbLine
 10
44.89495015
 20
36.35999494
 30
0.0
 11
49.77049133
 21
36.35999494
 31
0.0
  0
LINE
  5
202
100
AcDbEntity
  8
レイヤー_1
  6
CONTINUOUS
 62
       7
100
AcDbLine
 10
49.77049133
 20
39.36905687
 30
0.0
 11
49.77049133
 21
40.87684863
 31
0.0
  0
LINE
  5
203
100
AcDbEntity
  8
レイヤー_1
  6
CONTINUOUS
 62
       7
100
AcDbLine
 10
49.77049133
 20
40.87684863
 30
0.0
 11
44.89495015
 21
40.87684863
 31
0.0
  0
LINE
  5
204
100
AcDbEntity
  8
レイヤー_1
  6
CONTINUOUS
 62
       7
100
AcDbLine
 10
44.89495015
 20
40.87684863
 30
0.0
 11
44.89495015
 21
39.36905687
 31
0.0
  0
LINE
  5
205
100
AcDbEntity
  8
レイヤー_1
  6
CONTINUOUS
 62
       7
100
AcDbLine
 10
44.89495015
 20
39.36905687
 30
0.0
 11
49.77049133
 21
39.36905687
 31
0.0
  0
LINE
  5
206
100
AcDbEntity
  8
レイヤー_1
  6
CONTINUOUS
 62
       7
100
AcDbLine
 10
49.77049133
 20
42.37811881
 30
0.0
 11
49.77049133
 21
43.88460625
 31
0.0
  0
LINE
  5
207
100
AcDbEntity
  8
レイヤー_1
  6
CONTINUOUS
 62
       7
100
AcDbLine
 10
49.77049133
 20
43.88460625
 30
0.0
 11
44.89495015
 21
43.88460625
 31
0.0
  0
LINE
  5
208
100
AcDbEntity
  8
レイヤー_1
  6
CONTINUOUS
 62
       7
100
AcDbLine
 10
44.89495015
 20
43.88460625
 30
0.0
 11
44.89495015
 21
42.37811881
 31
0.0
  0
LINE
  5
209
100
AcDbEntity
  8
レイヤー_1
  6
CONTINUOUS
 62
       7
100
AcDbLine
 10
44.89495015
 20
42.37811881
 30
0.0
 11
49.77049133
 21
42.37811881
 31
0.0
  0
LINE
  5
20A
100
AcDbEntity
  8
レイヤー_1
  6
CONTINUOUS
 62
       7
100
AcDbLine
 10
49.77049133
 20
45.38587642
 30
0.0
 11
49.77049133
 21
46.89366818
 31
0.0
  0
LINE
  5
20B
100
AcDbEntity
  8
レイヤー_1
  6
CONTINUOUS
 62
       7
100
AcDbLine
 10
49.77049133
 20
46.89366818
 30
0.0
 11
44.89495015
 21
46.89366818
 31
0.0
  0
LINE
  5
20C
100
AcDbEntity
  8
レイヤー_1
  6
CONTINUOUS
 62
       7
100
AcDbLine
 10
44.89495015
 20
46.89366818
 30
0.0
 11
44.89495015
 21
45.38587642
 31
0.0
  0
LINE
  5
20D
100
AcDbEntity
  8
レイヤー_1
  6
CONTINUOUS
 62
       7
100
AcDbLine
 10
44.89495015
 20
45.38587642
 30
0.0
 11
49.77049133
 21
45.38587642
 31
0.0
  0
LINE
  5
20E
100
AcDbEntity
  8
レイヤー_1
  6
CONTINUOUS
 62
       7
100
AcDbLine
 10
49.77049133
 20
48.39624267
 30
0.0
 11
49.77049133
 21
49.90273012
 31
0.0
  0
LINE
  5
20F
100
AcDbEntity
  8
レイヤー_1
  6
CONTINUOUS
 62
       7
100
AcDbLine
 10
49.77049133
 20
49.90273012
 30
0.0
 11
44.89495015
 21
49.90273012
 31
0.0
  0
LINE
  5
210
100
AcDbEntity
  8
レイヤー_1
  6
CONTINUOUS
 62
       7
100
AcDbLine
 10
44.89495015
 20
49.90273012
 30
0.0
 11
44.89495015
 21
48.39624267
 31
0.0
  0
LINE
  5
211
100
AcDbEntity
  8
レイヤー_1
  6
CONTINUOUS
 62
       7
100
AcDbLine
 10
44.89495015
 20
48.39624267
 30
0.0
 11
49.77049133
 21
48.39624267
 31
0.0
  0
LINE
  5
212
100
AcDbEntity
  8
レイヤー_1
  6
CONTINUOUS
 62
       7
100
AcDbLine
 10
50.76177312
 20
22.65878511
 30
0.0
 11
50.76177312
 21
51.56834437
 31
0.0
  0
LINE
  5
213
100
AcDbEntity
  8
レイヤー_1
  6
CONTINUOUS
 62
       7
100
AcDbLine
 10
43.90366838
 20
51.56834437
 30
0.0
 11
43.90366838
 21
22.65878511
 31
0.0
  0
LINE
  5
214
100
AcDbEntity
  8
レイヤー_1
  6
CONTINUOUS
 62
       7
100
AcDbLine
 10
43.90366838
 20
22.65878511
 30
0.0
 11
50.76177312
 21
22.65878511
 31
0.0
  0
LINE
  5
215
100
AcDbEntity
  8
レイヤー_1
  6
CONTINUOUS
 62
       7
100
AcDbLine
 10
-8.28675757
 20
49.50317463
 30
0.0
 11
-8.28675757
 21
4.68640166
 31
0.0
  0
LINE
  5
216
100
AcDbEntity
  8
レイヤー_1
  6
CONTINUOUS
 62
       7
100
AcDbLine
 10
4.10107533
 20
-38.49682537
 30
0.0
 11
71.61323928
 21
-38.49682537
 31
0.0
  0
LINE
  5
217
100
AcDbEntity
  8
レイヤー_1
  6
CONTINUOUS
 62
       7
100
AcDbLine
 10
-6.28675757
 20
51.50317463
 30
0.0
 11
81.71323889
 21
51.50317463
 31
0.0
  0
ARC
  5
218
100
AcDbEntity
  8
レイヤー_1
  6
CONTINUOUS
 62
       7
100
AcDbCircle
 10
-6.28675757
 20
49.50317463
 30
0.0
 40
2.0
100
AcDbArc
 50
90.0
 51
180.0
  0
LINE
  5
219
100
AcDbEntity
  8
レイヤー_1
  6
CONTINUOUS
 62
       7
100
AcDbLine
 10
57.22336516
 20
48.39493836
 30
0.0
 11
57.22336516
 21
49.90273012
 31
0.0
  0
LINE
  5
21A
100
AcDbEntity
  8
レイヤー_1
  6
CENTERX2
 62
       7
100
AcDbLine
 10
-65.97670224
 20
6.50317463
 30
0.0
 11
-92.38568806
 21
6.50317463
 31
0.0
  0
LINE
  5
21B
100
AcDbEntity
  8
レイヤー_1
  6
CENTERX2
 62
       7
100
AcDbLine
 10
-11.03732112
 20
6.50317463
 30
0.0
 11
92.38568806
 21
6.50317463
 31
0.0
  0
LINE
  5
21C
100
AcDbEntity
  8
SLD-0
  6
CENTERX2
 62
       7
100
AcDbLine
 10
-80.16374086
 20
61.14276071
 30
0.0
 11
-80.16374086
 21
-44.16450398
 31
0.0
  0
LINE
  5
21D
100
AcDbEntity
  8
SLD-0
  6
CONTINUOUS
 62
       7
100
AcDbLine
 10
-71.16374086
 20
51.50317463
 30
0.0
 11
-89.16374086
 21
51.50317463
 31
0.0
  0
LINE
  5
21E
100
AcDbEntity
  8
SLD-0
  6
CONTINUOUS
 62
       7
100
AcDbLine
 10
-71.16374086
 20
-38.49682537
 30
0.0
 11
-89.16374086
 21
-38.49682537
 31
0.0
  0
LINE
  5
21F
100
AcDbEntity
  8
SLD-0
  6
CONTINUOUS
 62
       7
100
AcDbLine
 10
-89.16374086
 20
51.50317463
 30
0.0
 11
-89.16374086
 21
-38.49682537
 31
0.0
  0
LINE
  5
220
100
AcDbEntity
  8
SLD-0
  6
CONTINUOUS
 62
       7
100
AcDbLine
 10
-71.16374086
 20
51.50317463
 30
0.0
 11
-71.16374086
 21
-38.49682537
 31
0.0
  0
LINE
  5
221
100
AcDbEntity
  8
SLD-0_3
  6
CONTINUOUS
 62
       7
100
AcDbLine
 10
-75.66789124
 20
40.56063068
 30
0.0
 11
-78.86831605
 21
40.56063068
 31
0.0
  0
LINE
  5
222
100
AcDbEntity
  8
SLD-0_3
  6
CONTINUOUS
 62
       7
100
AcDbLine
 10
-84.8121393
 20
25.82292561
 30
0.0
 11
-81.61171448
 21
25.82292561
 31
0.0
  0
LINE
  5
223
100
AcDbEntity
  8
SLD-0_3
  6
CONTINUOUS
 62
       7
100
AcDbLine
 10
-84.8121393
 20
39.49402912
 30
0.0
 11
-81.61171448
 21
39.49402912
 31
0.0
  0
LINE
  5
224
100
AcDbEntity
  8
SLD-0_3
  6
CONTINUOUS
 62
       7
100
AcDbLine
 10
-81.61171448
 20
39.49402912
 30
0.0
 11
-81.61171448
 21
40.56063068
 31
0.0
  0
LINE
  5
225
100
AcDbEntity
  8
SLD-0_3
  6
CONTINUOUS
 62
       7
100
AcDbLine
 10
-81.61171448
 20
40.56063068
 30
0.0
 11
-84.8121393
 21
40.56063068
 31
0.0
  0
LINE
  5
226
100
AcDbEntity
  8
SLD-0_3
  6
CONTINUOUS
 62
       7
100
AcDbLine
 10
-79.45401673
 20
-6.9791032
 30
0.0
 11
-79.45401673
 21
-6.43929118
 31
0.0
  0
LINE
  5
227
100
AcDbEntity
  8
SLD-0_3
  6
CONTINUOUS
 62
       7
100
AcDbLine
 10
-79.99351868
 20
-4.43724284
 30
0.0
 11
-79.45401673
 21
-4.43724284
 31
0.0
  0
LINE
  5
228
100
AcDbEntity
  8
SLD-0_3
  6
CONTINUOUS
 62
       7
100
AcDbLine
 10
-79.45401673
 20
-4.43724284
 30
0.0
 11
-79.45401673
 21
-3.89743083
 31
0.0
  0
LINE
  5
229
100
AcDbEntity
  8
SLD-0_3
  6
CONTINUOUS
 62
       7
100
AcDbLine
 10
-85.52186341
 20
6.46937825
 30
0.0
 11
-76.39373842
 21
6.46937825
 31
0.0
  0
LINE
  5
22A
100
AcDbEntity
  8
SLD-0_3
  6
CONTINUOUS
 62
       7
100
AcDbLine
 10
-76.39373842
 20
9.62732502
 30
0.0
 11
-76.39373842
 21
-35.61208415
 31
0.0
  0
LINE
  5
22B
100
AcDbEntity
  8
SLD-0_3
  6
CONTINUOUS
 62
       7
100
AcDbLine
 10
-79.45401673
 20
-16.60828288
 30
0.0
 11
-79.99351868
 21
-16.60828288
 31
0.0
  0
LINE
  5
22C
100
AcDbEntity
  8
SLD-0_3
  6
CONTINUOUS
 62
       7
100
AcDbLine
 10
-77.26810364
 20
16.98697748
 30
0.0
 11
-77.26810364
 21
18.44484664
 31
0.0
  0
LINE
  5
22D
100
AcDbEntity
  8
SLD-0_3
  6
CONTINUOUS
 62
       7
100
AcDbLine
 10
-79.57970242
 20
41.65172687
 30
0.0
 11
-79.96772759
 21
41.65172687
 31
0.0
  0
LINE
  5
22E
100
AcDbEntity
  8
SLD-0_3
  6
CONTINUOUS
 62
       7
100
AcDbLine
 10
-82.54136558
 20
41.62193807
 30
0.0
 11
-82.62747727
 21
41.59434944
 31
0.0
  0
LINE
  5
22F
100
AcDbEntity
  8
SLD-0_3
  6
CONTINUOUS
 62
       7
100
AcDbLine
 10
-83.16217233
 20
15.11389356
 30
0.0
 11
-83.12833965
 21
15.03061686
 31
0.0
  0
LINE
  5
230
100
AcDbEntity
  8
SLD-0_3
  6
CONTINUOUS
 62
       7
100
AcDbLine
 10
-82.61691826
 20
14.5615011
 30
0.0
 11
-82.53034976
 21
14.53493842
 31
0.0
  0
LINE
  5
231
100
AcDbEntity
  8
SLD-0_3
  6
CONTINUOUS
 62
       7
100
AcDbLine
 10
-82.2927793
 20
14.50795735
 30
0.0
 11
-82.18701595
 21
14.50795735
 31
0.0
  0
LINE
  5
232
100
AcDbEntity
  8
SLD-0_3
  6
CONTINUOUS
 62
       7
100
AcDbLine
 10
-79.17011346
 20
14.50795735
 30
0.0
 11
-78.84440582
 21
14.50795735
 31
0.0
  0
LINE
  5
233
100
AcDbEntity
  8
SLD-0_3
  6
CONTINUOUS
 62
       7
100
AcDbLine
 10
-75.66789124
 20
15.57021809
 30
0.0
 11
-75.66789124
 21
16.63712971
 31
0.0
  0
LINE
  5
234
100
AcDbEntity
  8
SLD-0_3
  6
CONTINUOUS
 62
       7
100
AcDbLine
 10
-78.86831605
 20
40.56063068
 30
0.0
 11
-78.86831605
 21
39.49402912
 31
0.0
  0
LINE
  5
235
100
AcDbEntity
  8
SLD-0_3
  6
CONTINUOUS
 62
       7
100
AcDbLine
 10
-81.61171448
 20
16.63712971
 30
0.0
 11
-84.8121393
 21
16.63712971
 31
0.0
  0
LINE
  5
236
100
AcDbEntity
  8
SLD-0_3
  6
CONTINUOUS
 62
       7
100
AcDbLine
 10
-81.61171448
 20
29.24070148
 30
0.0
 11
-81.61171448
 21
30.30730305
 31
0.0
  0
LINE
  5
237
100
AcDbEntity
  8
SLD-0_3
  6
CONTINUOUS
 62
       7
100
AcDbLine
 10
-79.99351868
 20
-1.35557048
 30
0.0
 11
-79.99351868
 21
-1.89538249
 31
0.0
  0
LINE
  5
238
100
AcDbEntity
  8
SLD-0_3
  6
CONTINUOUS
 62
       7
100
AcDbLine
 10
-81.92208314
 20
-21.6926237
 30
0.0
 11
-82.46189516
 21
-21.6926237
 31
0.0
  0
LINE
  5
239
100
AcDbEntity
  8
SLD-0_3
  6
CONTINUOUS
 62
       7
100
AcDbLine
 10
-82.46189516
 20
-4.43724284
 30
0.0
 11
-81.92208314
 21
-4.43724284
 31
0.0
  0
LINE
  5
23A
100
AcDbEntity
  8
SLD-0_3
  6
CONTINUOUS
 62
       7
100
AcDbLine
 10
-76.39373842
 20
-26.03437419
 30
0.0
 11
-85.52186341
 21
-26.03437419
 31
0.0
  0
LINE
  5
23B
100
AcDbEntity
  8
SLD-0_3
  6
CONTINUOUS
 62
       7
100
AcDbLine
 10
-79.45401673
 20
-19.68995524
 30
0.0
 11
-79.45401673
 21
-19.15014323
 31
0.0
  0
LINE
  5
23C
100
AcDbEntity
  8
SLD-0_3
  6
CONTINUOUS
 62
       7
100
AcDbLine
 10
-77.26810364
 20
31.83100043
 30
0.0
 11
-77.26810364
 21
34.09109209
 31
0.0
  0
LINE
  5
23D
100
AcDbEntity
  8
SLD-0_3
  6
CONTINUOUS
 62
       7
100
AcDbLine
 10
-77.26810364
 20
40.73268059
 30
0.0
 11
-77.27086988
 21
40.82257986
 31
0.0
  0
LINE
  5
23E
100
AcDbEntity
  8
SLD-0_3
  6
CONTINUOUS
 62
       7
100
AcDbLine
 10
-77.2829113
 20
40.91446343
 30
0.0
 11
-77.30404498
 21
41.00325742
 31
0.0
  0
LINE
  5
23F
100
AcDbEntity
  8
SLD-0_3
  6
CONTINUOUS
 62
       7
100
AcDbLine
 10
-83.0441431
 20
41.27359273
 30
0.0
 11
-83.09228183
 21
41.19887331
 31
0.0
  0
LINE
  5
240
100
AcDbEntity
  8
SLD-0_3
  6
CONTINUOUS
 62
       7
100
AcDbLine
 10
-83.21192688
 20
36.84887469
 30
0.0
 11
-83.21192688
 21
34.89023931
 31
0.0
  0
LINE
  5
241
100
AcDbEntity
  8
SLD-0_3
  6
CONTINUOUS
 62
       7
100
AcDbLine
 10
-84.8121393
 20
33.72569904
 30
0.0
 11
-84.8121393
 21
32.65878742
 31
0.0
  0
LINE
  5
242
100
AcDbEntity
  8
SLD-0_3
  6
CONTINUOUS
 62
       7
100
AcDbLine
 10
-76.39373842
 20
4.44562581
 30
0.0
 11
-71.1723517
 21
4.44562581
 31
0.0
  0
LINE
  5
243
100
AcDbEntity
  8
SLD-0_3
  6
CONTINUOUS
 62
       7
100
AcDbLine
 10
-82.46189516
 20
-24.77429606
 30
0.0
 11
-81.92208314
 21
-24.77429606
 31
0.0
  0
LINE
  5
244
100
AcDbEntity
  8
SLD-0_3
  6
CONTINUOUS
 62
       7
100
AcDbLine
 10
-81.92208314
 20
-19.68995524
 30
0.0
 11
-81.92208314
 21
-19.15014323
 31
0.0
  0
LINE
  5
245
100
AcDbEntity
  8
SLD-0_3
  6
CONTINUOUS
 62
       7
100
AcDbLine
 10
-85.52186341
 20
2.8866512
 30
0.0
 11
-76.39373842
 21
2.8866512
 31
0.0
  0
LINE
  5
246
100
AcDbEntity
  8
SLD-0_3
  6
CONTINUOUS
 62
       7
100
AcDbLine
 10
-85.52186341
 20
5.57423909
 30
0.0
 11
-76.39373842
 21
5.57423909
 31
0.0
  0
LINE
  5
247
100
AcDbEntity
  8
SLD-0_3
  6
CONTINUOUS
 62
       7
100
AcDbLine
 10
-85.52186341
 20
-32.63893229
 30
0.0
 11
-76.39373842
 21
-32.63893229
 31
0.0
  0
LINE
  5
248
100
AcDbEntity
  8
SLD-0_3
  6
CONTINUOUS
 62
       7
100
AcDbLine
 10
-77.5855592
 20
14.72360819
 30
0.0
 11
-77.52101501
 21
14.7843334
 31
0.0
  0
LINE
  5
249
100
AcDbEntity
  8
SLD-0_3
  6
CONTINUOUS
 62
       7
100
AcDbLine
 10
-77.52101501
 20
14.7843334
 30
0.0
 11
-77.4626521
 21
14.85105019
 31
0.0
  0
LINE
  5
24A
100
AcDbEntity
  8
SLD-0_3
  6
CONTINUOUS
 62
       7
100
AcDbLine
 10
-77.41096597
 20
14.92326259
 30
0.0
 11
-77.36645207
 21
15.00047461
 31
0.0
  0
LINE
  5
24B
100
AcDbEntity
  8
SLD-0_3
  6
CONTINUOUS
 62
       7
100
AcDbLine
 10
-77.74097729
 20
41.54310231
 30
0.0
 11
-77.82164445
 21
41.58185923
 31
0.0
  0
LINE
  5
24C
100
AcDbEntity
  8
SLD-0_3
  6
CONTINUOUS
 62
       7
100
AcDbLine
 10
-80.36471346
 20
41.65172687
 30
0.0
 11
-80.75762628
 21
41.65172687
 31
0.0
  0
LINE
  5
24D
100
AcDbEntity
  8
SLD-0_3
  6
CONTINUOUS
 62
       7
100
AcDbLine
 10
-82.20491401
 20
41.65172687
 30
0.0
 11
-82.29968013
 21
41.65172687
 31
0.0
  0
LINE
  5
24E
100
AcDbEntity
  8
SLD-0_3
  6
CONTINUOUS
 62
       7
100
AcDbLine
 10
-82.35932834
 20
41.65049415
 30
0.0
 11
-82.45181695
 21
41.64081764
 31
0.0
  0
LINE
  5
24F
100
AcDbEntity
  8
SLD-0_3
  6
CONTINUOUS
 62
       7
100
AcDbLine
 10
-83.21192688
 20
32.69741475
 30
0.0
 11
-83.21192688
 21
30.35012498
 31
0.0
  0
LINE
  5
250
100
AcDbEntity
  8
SLD-0_3
  6
CONTINUOUS
 62
       7
100
AcDbLine
 10
-82.91950524
 20
14.74564653
 30
0.0
 11
-82.85140544
 21
14.68891791
 31
0.0
  0
LINE
  5
251
100
AcDbEntity
  8
SLD-0_3
  6
CONTINUOUS
 62
       7
100
AcDbLine
 10
-81.08783759
 20
14.50795735
 30
0.0
 11
-80.7091804
 21
14.50795735
 31
0.0
  0
LINE
  5
252
100
AcDbEntity
  8
SLD-0_3
  6
CONTINUOUS
 62
       7
100
AcDbLine
 10
-79.53247845
 20
14.50795735
 30
0.0
 11
-79.17011346
 21
14.50795735
 31
0.0
  0
LINE
  5
253
100
AcDbEntity
  8
SLD-0_3
  6
CONTINUOUS
 62
       7
100
AcDbLine
 10
-78.86831605
 20
20.05459553
 30
0.0
 11
-78.86831605
 21
18.98799397
 31
0.0
  0
LINE
  5
254
100
AcDbEntity
  8
SLD-0_3
  6
CONTINUOUS
 62
       7
100
AcDbLine
 10
-75.66789124
 20
25.82292561
 30
0.0
 11
-75.66789124
 21
26.88983723
 31
0.0
  0
LINE
  5
255
100
AcDbEntity
  8
SLD-0_3
  6
CONTINUOUS
 62
       7
100
AcDbLine
 10
-78.86831605
 20
29.24070148
 30
0.0
 11
-75.66789124
 21
29.24070148
 31
0.0
  0
LINE
  5
256
100
AcDbEntity
  8
SLD-0_3
  6
CONTINUOUS
 62
       7
100
AcDbLine
 10
-79.99351868
 20
-11.52394206
 30
0.0
 11
-79.99351868
 21
-12.06375407
 31
0.0
  0
LINE
  5
257
100
AcDbEntity
  8
SLD-0_3
  6
CONTINUOUS
 62
       7
100
AcDbLine
 10
-79.99351868
 20
-3.89743083
 30
0.0
 11
-79.99351868
 21
-4.43724284
 31
0.0
  0
LINE
  5
258
100
AcDbEntity
  8
SLD-0_3
  6
CONTINUOUS
 62
       7
100
AcDbLine
 10
-81.92208314
 20
-9.52158366
 30
0.0
 11
-81.92208314
 21
-8.98208171
 31
0.0
  0
LINE
  5
259
100
AcDbEntity
  8
SLD-0_3
  6
CONTINUOUS
 62
       7
100
AcDbLine
 10
-85.52186341
 20
7.36544758
 30
0.0
 11
-76.39373842
 21
7.36544758
 31
0.0
  0
LINE
  5
25A
100
AcDbEntity
  8
SLD-0_3
  6
CONTINUOUS
 62
       7
100
AcDbLine
 10
-85.52186341
 20
-31.74286295
 30
0.0
 11
-76.39373842
 21
-31.74286295
 31
0.0
  0
LINE
  5
25B
100
AcDbEntity
  8
SLD-0_3
  6
CONTINUOUS
 62
       7
100
AcDbLine
 10
-85.52186341
 20
-29.05558512
 30
0.0
 11
-76.39373842
 21
-29.05558512
 31
0.0
  0
LINE
  5
25C
100
AcDbEntity
  8
SLD-0_3
  6
CONTINUOUS
 62
       7
100
AcDbLine
 10
-79.99351868
 20
-19.68995524
 30
0.0
 11
-79.45401673
 21
-19.68995524
 31
0.0
  0
LINE
  5
25D
100
AcDbEntity
  8
SLD-0_3
  6
CONTINUOUS
 62
       7
100
AcDbLine
 10
-77.28089873
 20
15.2571488
 30
0.0
 11
-77.27002866
 21
15.34939966
 31
0.0
  0
LINE
  5
25E
100
AcDbEntity
  8
SLD-0_3
  6
CONTINUOUS
 62
       7
100
AcDbLine
 10
-77.26810364
 20
29.44634005
 30
0.0
 11
-77.26810364
 21
31.83100043
 31
0.0
  0
LINE
  5
25F
100
AcDbEntity
  8
SLD-0_3
  6
CONTINUOUS
 62
       7
100
AcDbLine
 10
-77.26810364
 20
36.14689107
 30
0.0
 11
-77.26810364
 21
37.91867338
 31
0.0
  0
LINE
  5
260
100
AcDbEntity
  8
SLD-0_3
  6
CONTINUOUS
 62
       7
100
AcDbLine
 10
-80.75762628
 20
41.65172687
 30
0.0
 11
-81.13343233
 21
41.65172687
 31
0.0
  0
LINE
  5
261
100
AcDbEntity
  8
SLD-0_3
  6
CONTINUOUS
 62
       7
100
AcDbLine
 10
-83.21192688
 20
25.51104575
 30
0.0
 11
-83.21192688
 21
23.17870424
 31
0.0
  0
LINE
  5
262
100
AcDbEntity
  8
SLD-0_3
  6
CONTINUOUS
 62
       7
100
AcDbLine
 10
-81.7465843
 20
14.50795735
 30
0.0
 11
-81.43798345
 21
14.50795735
 31
0.0
  0
LINE
  5
263
100
AcDbEntity
  8
SLD-0_3
  6
CONTINUOUS
 62
       7
100
AcDbLine
 10
-75.66789124
 20
32.65878742
 30
0.0
 11
-75.66789124
 21
33.72569904
 31
0.0
  0
LINE
  5
264
100
AcDbEntity
  8
SLD-0_3
  6
CONTINUOUS
 62
       7
100
AcDbLine
 10
-81.61171448
 20
30.30730305
 30
0.0
 11
-84.8121393
 21
30.30730305
 31
0.0
  0
LINE
  5
265
100
AcDbEntity
  8
SLD-0_3
  6
CONTINUOUS
 62
       7
100
AcDbLine
 10
-84.8121393
 20
40.56063068
 30
0.0
 11
-84.8121393
 21
39.49402912
 31
0.0
  0
LINE
  5
266
100
AcDbEntity
  8
SLD-0_3
  6
CONTINUOUS
 62
       7
100
AcDbLine
 10
-79.45401673
 20
-14.60561442
 30
0.0
 11
-79.45401673
 21
-14.06580241
 31
0.0
  0
LINE
  5
267
100
AcDbEntity
  8
SLD-0_3
  6
CONTINUOUS
 62
       7
100
AcDbLine
 10
-79.45401673
 20
-14.06580241
 30
0.0
 11
-79.99351868
 21
-14.06580241
 31
0.0
  0
LINE
  5
268
100
AcDbEntity
  8
SLD-0_3
  6
CONTINUOUS
 62
       7
100
AcDbLine
 10
-79.45401673
 20
-6.43929118
 30
0.0
 11
-79.99351868
 21
-6.43929118
 31
0.0
  0
LINE
  5
269
100
AcDbEntity
  8
SLD-0_3
  6
CONTINUOUS
 62
       7
100
AcDbLine
 10
-79.45401673
 20
-1.89538249
 30
0.0
 11
-79.45401673
 21
-1.35557048
 31
0.0
  0
LINE
  5
26A
100
AcDbEntity
  8
SLD-0_3
  6
CONTINUOUS
 62
       7
100
AcDbLine
 10
-82.46189516
 20
-16.60828288
 30
0.0
 11
-82.46189516
 21
-17.14809489
 31
0.0
  0
LINE
  5
26B
100
AcDbEntity
  8
SLD-0_3
  6
CONTINUOUS
 62
       7
100
AcDbLine
 10
-82.46189516
 20
-12.06375407
 30
0.0
 11
-81.92208314
 21
-12.06375407
 31
0.0
  0
LINE
  5
26C
100
AcDbEntity
  8
SLD-0_3
  6
CONTINUOUS
 62
       7
100
AcDbLine
 10
-81.92208314
 20
-11.52394206
 30
0.0
 11
-82.46189516
 21
-11.52394206
 31
0.0
  0
LINE
  5
26D
100
AcDbEntity
  8
SLD-0_3
  6
CONTINUOUS
 62
       7
100
AcDbLine
 10
-81.92208314
 20
-3.89743083
 30
0.0
 11
-82.46189516
 21
-3.89743083
 31
0.0
  0
LINE
  5
26E
100
AcDbEntity
  8
SLD-0_3
  6
CONTINUOUS
 62
       7
100
AcDbLine
 10
-79.99351868
 20
-19.15014323
 30
0.0
 11
-79.99351868
 21
-19.68995524
 31
0.0
  0
LINE
  5
26F
100
AcDbEntity
  8
SLD-0_3
  6
CONTINUOUS
 62
       7
100
AcDbLine
 10
-79.99351868
 20
-16.60828288
 30
0.0
 11
-79.99351868
 21
-17.14809489
 31
0.0
  0
LINE
  5
270
100
AcDbEntity
  8
SLD-0_3
  6
CONTINUOUS
 62
       7
100
AcDbLine
 10
-77.98365748
 20
14.52721473
 30
0.0
 11
-77.89563911
 21
14.55054251
 31
0.0
  0
LINE
  5
271
100
AcDbEntity
  8
SLD-0_3
  6
CONTINUOUS
 62
       7
100
AcDbLine
 10
-77.4626521
 20
14.85105019
 30
0.0
 11
-77.41096597
 21
14.92326259
 31
0.0
  0
LINE
  5
272
100
AcDbEntity
  8
SLD-0_3
  6
CONTINUOUS
 62
       7
100
AcDbLine
 10
-77.26810364
 20
37.91867338
 30
0.0
 11
-77.26810364
 21
39.32671506
 31
0.0
  0
LINE
  5
273
100
AcDbEntity
  8
SLD-0_3
  6
CONTINUOUS
 62
       7
100
AcDbLine
 10
-77.90644901
 20
41.61258639
 30
0.0
 11
-77.99489551
 21
41.63478975
 31
0.0
  0
LINE
  5
274
100
AcDbEntity
  8
SLD-0_3
  6
CONTINUOUS
 62
       7
100
AcDbLine
 10
-79.21367168
 20
41.65172687
 30
0.0
 11
-79.57970242
 21
41.65172687
 31
0.0
  0
LINE
  5
275
100
AcDbEntity
  8
SLD-0_3
  6
CONTINUOUS
 62
       7
100
AcDbLine
 10
-82.62747727
 20
41.59434944
 30
0.0
 11
-82.70965512
 21
41.55854578
 31
0.0
  0
LINE
  5
276
100
AcDbEntity
  8
SLD-0_3
  6
CONTINUOUS
 62
       7
100
AcDbLine
 10
-83.21192688
 20
27.92809399
 30
0.0
 11
-83.21192688
 21
25.51104575
 31
0.0
  0
LINE
  5
277
100
AcDbEntity
  8
SLD-0_3
  6
CONTINUOUS
 62
       7
100
AcDbLine
 10
-83.21192688
 20
19.08703728
 30
0.0
 11
-83.21192688
 21
17.48715979
 31
0.0
  0
LINE
  5
278
100
AcDbEntity
  8
SLD-0_3
  6
CONTINUOUS
 62
       7
100
AcDbLine
 10
-82.98174553
 20
14.8086767
 30
0.0
 11
-82.91950524
 21
14.74564653
 31
0.0
  0
LINE
  5
279
100
AcDbEntity
  8
SLD-0_3
  6
CONTINUOUS
 62
       7
100
AcDbLine
 10
-82.699615
 20
14.59634923
 30
0.0
 11
-82.61691826
 21
14.5615011
 31
0.0
  0
LINE
  5
27A
100
AcDbEntity
  8
SLD-0_3
  6
CONTINUOUS
 62
       7
100
AcDbLine
 10
-78.35509767
 20
14.50795735
 30
0.0
 11
-78.21756461
 21
14.50795735
 31
0.0
  0
LINE
  5
27B
100
AcDbEntity
  8
SLD-0_3
  6
CONTINUOUS
 62
       7
100
AcDbLine
 10
-78.86831605
 20
32.65878742
 30
0.0
 11
-75.66789124
 21
32.65878742
 31
0.0
  0
LINE
  5
27C
100
AcDbEntity
  8
SLD-0_3
  6
CONTINUOUS
 62
       7
100
AcDbLine
 10
-84.8121393
 20
16.63712971
 30
0.0
 11
-84.8121393
 21
15.57021809
 31
0.0
  0
LINE
  5
27D
100
AcDbEntity
  8
SLD-0_3
  6
CONTINUOUS
 62
       7
100
AcDbLine
 10
-87.0008429
 20
45.30297687
 30
0.0
 11
-87.0008429
 21
46.96458087
 31
0.0
  0
LINE
  5
27E
100
AcDbEntity
  8
SLD-0_3
  6
CONTINUOUS
 62
       7
100
AcDbLine
 10
-79.45401673
 20
-9.52158366
 30
0.0
 11
-79.45401673
 21
-8.98208171
 31
0.0
  0
LINE
  5
27F
100
AcDbEntity
  8
SLD-0_3
  6
CONTINUOUS
 62
       7
100
AcDbLine
 10
-79.45401673
 20
-1.35557048
 30
0.0
 11
-79.99351868
 21
-1.35557048
 31
0.0
  0
LINE
  5
280
100
AcDbEntity
  8
SLD-0_3
  6
CONTINUOUS
 62
       7
100
AcDbLine
 10
-81.92208314
 20
-22.23243571
 30
0.0
 11
-81.92208314
 21
-21.6926237
 31
0.0
  0
LINE
  5
281
100
AcDbEntity
  8
SLD-0_3
  6
CONTINUOUS
 62
       7
100
AcDbLine
 10
-81.92208314
 20
-4.43724284
 30
0.0
 11
-81.92208314
 21
-3.89743083
 31
0.0
  0
LINE
  5
282
100
AcDbEntity
  8
SLD-0_3
  6
CONTINUOUS
 62
       7
100
AcDbLine
 10
-82.46189516
 20
-1.35557048
 30
0.0
 11
-82.46189516
 21
-1.89538249
 31
0.0
  0
LINE
  5
283
100
AcDbEntity
  8
SLD-0_3
  6
CONTINUOUS
 62
       7
100
AcDbLine
 10
-85.52186341
 20
1.99089192
 30
0.0
 11
-76.39373842
 21
1.99089192
 31
0.0
  0
LINE
  5
284
100
AcDbEntity
  8
SLD-0_3
  6
CONTINUOUS
 62
       7
100
AcDbLine
 10
-76.39373842
 20
-27.26437663
 30
0.0
 11
-85.52186341
 21
-27.26437663
 31
0.0
  0
LINE
  5
285
100
AcDbEntity
  8
SLD-0_3
  6
CONTINUOUS
 62
       7
100
AcDbLine
 10
-77.26810364
 20
20.25649094
 30
0.0
 11
-77.26810364
 21
22.34218641
 31
0.0
  0
LINE
  5
286
100
AcDbEntity
  8
SLD-0_3
  6
CONTINUOUS
 62
       7
100
AcDbLine
 10
-77.26810364
 20
40.29129212
 30
0.0
 11
-77.26810364
 21
40.73268059
 31
0.0
  0
LINE
  5
287
100
AcDbEntity
  8
SLD-0_3
  6
CONTINUOUS
 62
       7
100
AcDbLine
 10
-77.82164445
 20
41.58185923
 30
0.0
 11
-77.90644901
 21
41.61258639
 31
0.0
  0
LINE
  5
288
100
AcDbEntity
  8
SLD-0_3
  6
CONTINUOUS
 62
       7
100
AcDbLine
 10
-83.20430792
 20
15.2914161
 30
0.0
 11
-83.18766073
 21
15.20099196
 31
0.0
  0
LINE
  5
289
100
AcDbEntity
  8
SLD-0_3
  6
CONTINUOUS
 62
       7
100
AcDbLine
 10
-82.85140544
 20
14.68891791
 30
0.0
 11
-82.77794305
 21
14.63898682
 31
0.0
  0
LINE
  5
28A
100
AcDbEntity
  8
SLD-0_3
  6
CONTINUOUS
 62
       7
100
AcDbLine
 10
-78.56838932
 20
14.50795735
 30
0.0
 11
-78.35509767
 21
14.50795735
 31
0.0
  0
LINE
  5
28B
100
AcDbEntity
  8
SLD-0_3
  6
CONTINUOUS
 62
       7
100
AcDbLine
 10
-78.86831605
 20
36.07625324
 30
0.0
 11
-75.66789124
 21
36.07625324
 31
0.0
  0
LINE
  5
28C
100
AcDbEntity
  8
SLD-0_3
  6
CONTINUOUS
 62
       7
100
AcDbLine
 10
-84.8121393
 20
30.30730305
 30
0.0
 11
-84.8121393
 21
29.24070148
 31
0.0
  0
LINE
  5
28D
100
AcDbEntity
  8
SLD-0_3
  6
CONTINUOUS
 62
       7
100
AcDbLine
 10
-81.61171448
 20
36.07625324
 30
0.0
 11
-81.61171448
 21
37.14316486
 31
0.0
  0
LINE
  5
28E
100
AcDbEntity
  8
SLD-0_3
  6
CONTINUOUS
 62
       7
100
AcDbLine
 10
-79.99351868
 20
-14.60561442
 30
0.0
 11
-79.45401673
 21
-14.60561442
 31
0.0
  0
LINE
  5
28F
100
AcDbEntity
  8
SLD-0_3
  6
CONTINUOUS
 62
       7
100
AcDbLine
 10
-82.46189516
 20
-24.23479411
 30
0.0
 11
-82.46189516
 21
-24.77429606
 31
0.0
  0
LINE
  5
290
100
AcDbEntity
  8
SLD-0_3
  6
CONTINUOUS
 62
       7
100
AcDbLine
 10
-81.92208314
 20
-6.9791032
 30
0.0
 11
-81.92208314
 21
-6.43929118
 31
0.0
  0
LINE
  5
291
100
AcDbEntity
  8
SLD-0_3
  6
CONTINUOUS
 62
       7
100
AcDbLine
 10
-79.45401673
 20
-17.14809489
 30
0.0
 11
-79.45401673
 21
-16.60828288
 31
0.0
  0
LINE
  5
292
100
AcDbEntity
  8
SLD-0_3
  6
CONTINUOUS
 62
       7
100
AcDbLine
 10
-77.27086988
 20
40.82257986
 30
0.0
 11
-77.2829113
 21
40.91446343
 31
0.0
  0
LINE
  5
293
100
AcDbEntity
  8
SLD-0_3
  6
CONTINUOUS
 62
       7
100
AcDbLine
 10
-81.47909785
 20
41.65172687
 30
0.0
 11
-81.78158913
 21
41.65172687
 31
0.0
  0
LINE
  5
294
100
AcDbEntity
  8
SLD-0_3
  6
CONTINUOUS
 62
       7
100
AcDbLine
 10
-82.78740213
 20
41.51502112
 30
0.0
 11
-82.86022138
 21
41.46426946
 31
0.0
  0
LINE
  5
295
100
AcDbEntity
  8
SLD-0_3
  6
CONTINUOUS
 62
       7
100
AcDbLine
 10
-83.21192688
 20
15.57793666
 30
0.0
 11
-83.21161695
 21
15.38467
 31
0.0
  0
LINE
  5
296
100
AcDbEntity
  8
SLD-0_3
  6
CONTINUOUS
 62
       7
100
AcDbLine
 10
-75.66789124
 20
16.63712971
 30
0.0
 11
-78.86831605
 21
16.63712971
 31
0.0
  0
LINE
  5
297
100
AcDbEntity
  8
SLD-0_3
  6
CONTINUOUS
 62
       7
100
AcDbLine
 10
-75.66789124
 20
30.30730305
 30
0.0
 11
-78.86831605
 21
30.30730305
 31
0.0
  0
LINE
  5
298
100
AcDbEntity
  8
SLD-0_3
  6
CONTINUOUS
 62
       7
100
AcDbLine
 10
-81.61171448
 20
20.05459553
 30
0.0
 11
-84.8121393
 21
20.05459553
 31
0.0
  0
LINE
  5
299
100
AcDbEntity
  8
SLD-0_3
  6
CONTINUOUS
 62
       7
100
AcDbLine
 10
-81.61171448
 20
26.88983723
 30
0.0
 11
-84.8121393
 21
26.88983723
 31
0.0
  0
LINE
  5
29A
100
AcDbEntity
  8
SLD-0_3
  6
CONTINUOUS
 62
       7
100
AcDbLine
 10
-79.99351868
 20
-9.52158366
 30
0.0
 11
-79.45401673
 21
-9.52158366
 31
0.0
  0
LINE
  5
29B
100
AcDbEntity
  8
SLD-0_3
  6
CONTINUOUS
 62
       7
100
AcDbLine
 10
-82.46189516
 20
-14.60561442
 30
0.0
 11
-81.92208314
 21
-14.60561442
 31
0.0
  0
LINE
  5
29C
100
AcDbEntity
  8
SLD-0_3
  6
CONTINUOUS
 62
       7
100
AcDbLine
 10
-81.92208314
 20
-12.06375407
 30
0.0
 11
-81.92208314
 21
-11.52394206
 31
0.0
  0
LINE
  5
29D
100
AcDbEntity
  8
SLD-0_3
  6
CONTINUOUS
 62
       7
100
AcDbLine
 10
-76.39373842
 20
-35.61208415
 30
0.0
 11
-85.52186341
 21
-35.61208415
 31
0.0
  0
LINE
  5
29E
100
AcDbEntity
  8
SLD-0_3
  6
CONTINUOUS
 62
       7
100
AcDbLine
 10
-77.89563911
 20
14.55054251
 30
0.0
 11
-77.81132462
 21
14.58234171
 31
0.0
  0
LINE
  5
29F
100
AcDbEntity
  8
SLD-0_3
  6
CONTINUOUS
 62
       7
100
AcDbLine
 10
-77.59403717
 20
41.44347521
 30
0.0
 11
-77.66494303
 21
41.49680962
 31
0.0
  0
LINE
  5
2A0
100
AcDbEntity
  8
SLD-0_3
  6
CONTINUOUS
 62
       7
100
AcDbLine
 10
-78.16961514
 20
41.65172687
 30
0.0
 11
-78.2301677
 21
41.65172687
 31
0.0
  0
LINE
  5
2A1
100
AcDbEntity
  8
SLD-0_3
  6
CONTINUOUS
 62
       7
100
AcDbLine
 10
-82.45181695
 20
41.64081764
 30
0.0
 11
-82.54136558
 21
41.62193807
 31
0.0
  0
LINE
  5
2A2
100
AcDbEntity
  8
SLD-0_3
  6
CONTINUOUS
 62
       7
100
AcDbLine
 10
-83.21161695
 20
15.38467
 30
0.0
 11
-83.20430792
 21
15.2914161
 31
0.0
  0
LINE
  5
2A3
100
AcDbEntity
  8
SLD-0_3
  6
CONTINUOUS
 62
       7
100
AcDbLine
 10
-83.03762932
 20
14.87751246
 30
0.0
 11
-82.98174553
 21
14.8086767
 31
0.0
  0
LINE
  5
2A4
100
AcDbEntity
  8
SLD-0_3
  6
CONTINUOUS
 62
       7
100
AcDbLine
 10
-81.61171448
 20
22.40545979
 30
0.0
 11
-81.61171448
 21
23.47237141
 31
0.0
  0
LINE
  5
2A5
100
AcDbEntity
  8
SLD-0_3
  6
CONTINUOUS
 62
       7
100
AcDbLine
 10
-84.8121393
 20
29.24070148
 30
0.0
 11
-81.61171448
 21
29.24070148
 31
0.0
  0
LINE
  5
2A6
100
AcDbEntity
  8
SLD-0_3
  6
CONTINUOUS
 62
       7
100
AcDbLine
 10
-81.61171448
 20
33.72569904
 30
0.0
 11
-84.8121393
 21
33.72569904
 31
0.0
  0
LINE
  5
2A7
100
AcDbEntity
  8
SLD-0_3
  6
CONTINUOUS
 62
       7
100
AcDbLine
 10
-79.99351868
 20
-12.06375407
 30
0.0
 11
-79.45401673
 21
-12.06375407
 31
0.0
  0
LINE
  5
2A8
100
AcDbEntity
  8
SLD-0_3
  6
CONTINUOUS
 62
       7
100
AcDbLine
 10
-82.46189516
 20
-21.6926237
 30
0.0
 11
-82.46189516
 21
-22.23243571
 31
0.0
  0
LINE
  5
2A9
100
AcDbEntity
  8
SLD-0_3
  6
CONTINUOUS
 62
       7
100
AcDbLine
 10
-82.46189516
 20
-9.52158366
 30
0.0
 11
-81.92208314
 21
-9.52158366
 31
0.0
  0
LINE
  5
2AA
100
AcDbEntity
  8
SLD-0_3
  6
CONTINUOUS
 62
       7
100
AcDbLine
 10
-81.92208314
 20
-8.98208171
 30
0.0
 11
-82.46189516
 21
-8.98208171
 31
0.0
  0
LINE
  5
2AB
100
AcDbEntity
  8
SLD-0_3
  6
CONTINUOUS
 62
       7
100
AcDbLine
 10
-79.99351868
 20
-22.23243571
 30
0.0
 11
-79.45401673
 21
-22.23243571
 31
0.0
  0
LINE
  5
2AC
100
AcDbEntity
  8
SLD-0_3
  6
CONTINUOUS
 62
       7
100
AcDbLine
 10
-79.99351868
 20
-17.14809489
 30
0.0
 11
-79.45401673
 21
-17.14809489
 31
0.0
  0
LINE
  5
2AD
100
AcDbEntity
  8
SLD-0_3
  6
CONTINUOUS
 62
       7
100
AcDbLine
 10
-77.32960593
 20
15.0821903
 30
0.0
 11
-77.30092297
 21
15.16791369
 31
0.0
  0
LINE
  5
2AE
100
AcDbEntity
  8
SLD-0_3
  6
CONTINUOUS
 62
       7
100
AcDbLine
 10
-77.26810364
 20
24.62220907
 30
0.0
 11
-77.26810364
 21
27.01683494
 31
0.0
  0
LINE
  5
2AF
100
AcDbEntity
  8
SLD-0_3
  6
CONTINUOUS
 62
       7
100
AcDbLine
 10
-77.33377542
 20
41.08846782
 30
0.0
 11
-77.37160714
 21
41.16960061
 31
0.0
  0
LINE
  5
2B0
100
AcDbEntity
  8
SLD-0_3
  6
CONTINUOUS
 62
       7
100
AcDbLine
 10
-77.41704466
 20
41.24616176
 30
0.0
 11
-77.4695925
 21
41.31765725
 31
0.0
  0
LINE
  5
2B1
100
AcDbEntity
  8
SLD-0_3
  6
CONTINUOUS
 62
       7
100
AcDbLine
 10
-77.4695925
 20
41.31765725
 30
0.0
 11
-77.52875515
 21
41.38359308
 31
0.0
  0
LINE
  5
2B2
100
AcDbEntity
  8
SLD-0_3
  6
CONTINUOUS
 62
       7
100
AcDbLine
 10
-82.70965512
 20
41.55854578
 30
0.0
 11
-82.78740213
 21
41.51502112
 31
0.0
  0
LINE
  5
2B3
100
AcDbEntity
  8
SLD-0_3
  6
CONTINUOUS
 62
       7
100
AcDbLine
 10
-83.21192688
 20
39.74468201
 30
0.0
 11
-83.21192688
 21
38.49359692
 31
0.0
  0
LINE
  5
2B4
100
AcDbEntity
  8
SLD-0_3
  6
CONTINUOUS
 62
       7
100
AcDbLine
 10
-82.18701595
 20
14.50795735
 30
0.0
 11
-82.00060638
 21
14.50795735
 31
0.0
  0
LINE
  5
2B5
100
AcDbEntity
  8
SLD-0_3
  6
CONTINUOUS
 62
       7
100
AcDbLine
 10
-78.21756461
 20
14.50795735
 30
0.0
 11
-78.16882387
 21
14.50795735
 31
0.0
  0
LINE
  5
2B6
100
AcDbEntity
  8
SLD-0_3
  6
CONTINUOUS
 62
       7
100
AcDbLine
 10
-78.86831605
 20
22.40545979
 30
0.0
 11
-75.66789124
 21
22.40545979
 31
0.0
  0
LINE
  5
2B7
100
AcDbEntity
  8
SLD-0_3
  6
CONTINUOUS
 62
       7
100
AcDbLine
 10
-78.86831605
 20
25.82292561
 30
0.0
 11
-75.66789124
 21
25.82292561
 31
0.0
  0
LINE
  5
2B8
100
AcDbEntity
  8
SLD-0_3
  6
CONTINUOUS
 62
       7
100
AcDbLine
 10
-75.66789124
 20
37.14316486
 30
0.0
 11
-78.86831605
 21
37.14316486
 31
0.0
  0
LINE
  5
2B9
100
AcDbEntity
  8
SLD-0_3
  6
CONTINUOUS
 62
       7
100
AcDbLine
 10
-76.39373842
 20
-5.30664714
 30
0.0
 11
-71.1723517
 21
-5.30664714
 31
0.0
  0
LINE
  5
2BA
100
AcDbEntity
  8
SLD-0_3
  6
CONTINUOUS
 62
       7
100
AcDbLine
 10
-89.15544008
 20
4.44562581
 30
0.0
 11
-85.52186341
 21
4.44562581
 31
0.0
  0
LINE
  5
2BB
100
AcDbEntity
  8
SLD-0_3
  6
CONTINUOUS
 62
       7
100
AcDbLine
 10
-79.99351868
 20
-14.06580241
 30
0.0
 11
-79.99351868
 21
-14.60561442
 31
0.0
  0
LINE
  5
2BC
100
AcDbEntity
  8
SLD-0_3
  6
CONTINUOUS
 62
       7
100
AcDbLine
 10
-82.46189516
 20
-3.89743083
 30
0.0
 11
-82.46189516
 21
-4.43724284
 31
0.0
  0
LINE
  5
2BD
100
AcDbEntity
  8
SLD-0_3
  6
CONTINUOUS
 62
       7
100
AcDbLine
 10
-85.52186341
 20
1.0954427
 30
0.0
 11
-76.39373842
 21
1.0954427
 31
0.0
  0
LINE
  5
2BE
100
AcDbEntity
  8
SLD-0_3
  6
CONTINUOUS
 62
       7
100
AcDbLine
 10
-79.45401673
 20
-24.77429606
 30
0.0
 11
-79.45401673
 21
-24.23479411
 31
0.0
  0
LINE
  5
2BF
100
AcDbEntity
  8
SLD-0_3
  6
CONTINUOUS
 62
       7
100
AcDbLine
 10
-77.52875515
 20
41.38359308
 30
0.0
 11
-77.59403717
 21
41.44347521
 31
0.0
  0
LINE
  5
2C0
100
AcDbEntity
  8
SLD-0_3
  6
CONTINUOUS
 62
       7
100
AcDbLine
 10
-78.59972842
 20
41.65172687
 30
0.0
 11
-78.88266909
 21
41.65172687
 31
0.0
  0
LINE
  5
2C1
100
AcDbEntity
  8
SLD-0_3
  6
CONTINUOUS
 62
       7
100
AcDbLine
 10
-83.18766073
 20
15.20099196
 30
0.0
 11
-83.16217233
 21
15.11389356
 31
0.0
  0
LINE
  5
2C2
100
AcDbEntity
  8
SLD-0_3
  6
CONTINUOUS
 62
       7
100
AcDbLine
 10
-75.66789124
 20
22.40545979
 30
0.0
 11
-75.66789124
 21
23.47237141
 31
0.0
  0
LINE
  5
2C3
100
AcDbEntity
  8
SLD-0_3
  6
CONTINUOUS
 62
       7
100
AcDbLine
 10
-75.66789124
 20
26.88983723
 30
0.0
 11
-78.86831605
 21
26.88983723
 31
0.0
  0
LINE
  5
2C4
100
AcDbEntity
  8
SLD-0_3
  6
CONTINUOUS
 62
       7
100
AcDbLine
 10
-78.86831605
 20
26.88983723
 30
0.0
 11
-78.86831605
 21
25.82292561
 31
0.0
  0
LINE
  5
2C5
100
AcDbEntity
  8
SLD-0_3
  6
CONTINUOUS
 62
       7
100
AcDbLine
 10
-78.86831605
 20
37.14316486
 30
0.0
 11
-78.86831605
 21
36.07625324
 31
0.0
  0
LINE
  5
2C6
100
AcDbEntity
  8
SLD-0_3
  6
CONTINUOUS
 62
       7
100
AcDbLine
 10
-84.8121393
 20
26.88983723
 30
0.0
 11
-84.8121393
 21
25.82292561
 31
0.0
  0
LINE
  5
2C7
100
AcDbEntity
  8
SLD-0_3
  6
CONTINUOUS
 62
       7
100
AcDbLine
 10
-81.61171448
 20
37.14316486
 30
0.0
 11
-84.8121393
 21
37.14316486
 31
0.0
  0
LINE
  5
2C8
100
AcDbEntity
  8
SLD-0_3
  6
CONTINUOUS
 62
       7
100
AcDbLine
 10
-81.92208314
 20
-19.15014323
 30
0.0
 11
-82.46189516
 21
-19.15014323
 31
0.0
  0
LINE
  5
2C9
100
AcDbEntity
  8
SLD-0_3
  6
CONTINUOUS
 62
       7
100
AcDbLine
 10
-81.92208314
 20
-14.60561442
 30
0.0
 11
-81.92208314
 21
-14.06580241
 31
0.0
  0
LINE
  5
2CA
100
AcDbEntity
  8
SLD-0_3
  6
CONTINUOUS
 62
       7
100
AcDbLine
 10
-81.92208314
 20
-6.43929118
 30
0.0
 11
-82.46189516
 21
-6.43929118
 31
0.0
  0
LINE
  5
2CB
100
AcDbEntity
  8
SLD-0_3
  6
CONTINUOUS
 62
       7
100
AcDbLine
 10
-82.46189516
 20
-6.43929118
 30
0.0
 11
-82.46189516
 21
-6.9791032
 31
0.0
  0
LINE
  5
2CC
100
AcDbEntity
  8
SLD-0_3
  6
CONTINUOUS
 62
       7
100
AcDbLine
 10
-81.92208314
 20
-1.89538249
 30
0.0
 11
-81.92208314
 21
-1.35557048
 31
0.0
  0
LINE
  5
2CD
100
AcDbEntity
  8
SLD-0_3
  6
CONTINUOUS
 62
       7
100
AcDbLine
 10
-85.52186341
 20
-35.61208415
 30
0.0
 11
-85.52186341
 21
9.62732502
 31
0.0
  0
LINE
  5
2CE
100
AcDbEntity
  8
SLD-0_3
  6
CONTINUOUS
 62
       7
100
AcDbLine
 10
-85.52186341
 20
-28.1601359
 30
0.0
 11
-76.39373842
 21
-28.1601359
 31
0.0
  0
LINE
  5
2CF
100
AcDbEntity
  8
SLD-0_3
  6
CONTINUOUS
 62
       7
100
AcDbLine
 10
-79.45401673
 20
-19.15014323
 30
0.0
 11
-79.99351868
 21
-19.15014323
 31
0.0
  0
LINE
  5
2D0
100
AcDbEntity
  8
SLD-0_3
  6
CONTINUOUS
 62
       7
100
AcDbLine
 10
-77.36645207
 20
15.00047461
 30
0.0
 11
-77.32960593
 21
15.0821903
 31
0.0
  0
LINE
  5
2D1
100
AcDbEntity
  8
SLD-0_3
  6
CONTINUOUS
 62
       7
100
AcDbLine
 10
-77.26810364
 20
22.34218641
 30
0.0
 11
-77.26810364
 21
24.62220907
 31
0.0
  0
LINE
  5
2D2
100
AcDbEntity
  8
SLD-0_3
  6
CONTINUOUS
 62
       7
100
AcDbLine
 10
-77.26810364
 20
27.01683494
 30
0.0
 11
-77.26810364
 21
29.44634005
 31
0.0
  0
LINE
  5
2D3
100
AcDbEntity
  8
SLD-0_3
  6
CONTINUOUS
 62
       7
100
AcDbLine
 10
-81.13343233
 20
41.65172687
 30
0.0
 11
-81.47909785
 21
41.65172687
 31
0.0
  0
LINE
  5
2D4
100
AcDbEntity
  8
SLD-0_3
  6
CONTINUOUS
 62
       7
100
AcDbLine
 10
-82.29968013
 20
41.65172687
 30
0.0
 11
-82.35932834
 21
41.65049415
 31
0.0
  0
LINE
  5
2D5
100
AcDbEntity
  8
SLD-0_3
  6
CONTINUOUS
 62
       7
100
AcDbLine
 10
-82.86022138
 20
41.46426946
 30
0.0
 11
-82.92761591
 21
41.40678483
 31
0.0
  0
LINE
  5
2D6
100
AcDbEntity
  8
SLD-0_3
  6
CONTINUOUS
 62
       7
100
AcDbLine
 10
-83.20574242
 20
40.8573669
 30
0.0
 11
-83.21184924
 21
40.76380321
 31
0.0
  0
LINE
  5
2D7
100
AcDbEntity
  8
SLD-0_3
  6
CONTINUOUS
 62
       7
100
AcDbLine
 10
-83.21192688
 20
40.522406
 30
0.0
 11
-83.21192688
 21
39.74468201
 31
0.0
  0
LINE
  5
2D8
100
AcDbEntity
  8
SLD-0_3
  6
CONTINUOUS
 62
       7
100
AcDbLine
 10
-83.12833965
 20
15.03061686
 30
0.0
 11
-83.08665967
 21
14.95165784
 31
0.0
  0
LINE
  5
2D9
100
AcDbEntity
  8
SLD-0_3
  6
CONTINUOUS
 62
       7
100
AcDbLine
 10
-78.86831605
 20
16.63712971
 30
0.0
 11
-78.86831605
 21
15.57021809
 31
0.0
  0
LINE
  5
2DA
100
AcDbEntity
  8
SLD-0_3
  6
CONTINUOUS
 62
       7
100
AcDbLine
 10
-78.86831605
 20
18.98799397
 30
0.0
 11
-75.66789124
 21
18.98799397
 31
0.0
  0
LINE
  5
2DB
100
AcDbEntity
  8
SLD-0_3
  6
CONTINUOUS
 62
       7
100
AcDbLine
 10
-78.86831605
 20
30.30730305
 30
0.0
 11
-78.86831605
 21
29.24070148
 31
0.0
  0
LINE
  5
2DC
100
AcDbEntity
  8
SLD-0_3
  6
CONTINUOUS
 62
       7
100
AcDbLine
 10
-75.66789124
 20
39.49402912
 30
0.0
 11
-75.66789124
 21
40.56063068
 31
0.0
  0
LINE
  5
2DD
100
AcDbEntity
  8
SLD-0_3
  6
CONTINUOUS
 62
       7
100
AcDbLine
 10
-84.8121393
 20
37.14316486
 30
0.0
 11
-84.8121393
 21
36.07625324
 31
0.0
  0
LINE
  5
2DE
100
AcDbEntity
  8
SLD-0_3
  6
CONTINUOUS
 62
       7
100
AcDbLine
 10
-81.92208314
 20
-24.77429606
 30
0.0
 11
-81.92208314
 21
-24.23479411
 31
0.0
  0
LINE
  5
2DF
100
AcDbEntity
  8
SLD-0_3
  6
CONTINUOUS
 62
       7
100
AcDbLine
 10
-82.46189516
 20
-11.52394206
 30
0.0
 11
-82.46189516
 21
-12.06375407
 31
0.0
  0
LINE
  5
2E0
100
AcDbEntity
  8
SLD-0_3
  6
CONTINUOUS
 62
       7
100
AcDbLine
 10
-79.99351868
 20
-24.77429606
 30
0.0
 11
-79.45401673
 21
-24.77429606
 31
0.0
  0
LINE
  5
2E1
100
AcDbEntity
  8
SLD-0_3
  6
CONTINUOUS
 62
       7
100
AcDbLine
 10
-79.45401673
 20
-22.23243571
 30
0.0
 11
-79.45401673
 21
-21.6926237
 31
0.0
  0
LINE
  5
2E2
100
AcDbEntity
  8
SLD-0_3
  6
CONTINUOUS
 62
       7
100
AcDbLine
 10
-77.66494303
 20
41.49680962
 30
0.0
 11
-77.74097729
 21
41.54310231
 31
0.0
  0
LINE
  5
2E3
100
AcDbEntity
  8
SLD-0_3
  6
CONTINUOUS
 62
       7
100
AcDbLine
 10
-78.2301677
 20
41.65172687
 30
0.0
 11
-78.37788337
 21
41.65172687
 31
0.0
  0
LINE
  5
2E4
100
AcDbEntity
  8
SLD-0_3
  6
CONTINUOUS
 62
       7
100
AcDbLine
 10
-82.92761591
 20
41.40678483
 30
0.0
 11
-82.9890888
 21
41.34306125
 31
0.0
  0
LINE
  5
2E5
100
AcDbEntity
  8
SLD-0_3
  6
CONTINUOUS
 62
       7
100
AcDbLine
 10
-83.21192688
 20
23.17870424
 30
0.0
 11
-83.21192688
 21
21.01079342
 31
0.0
  0
LINE
  5
2E6
100
AcDbEntity
  8
SLD-0_3
  6
CONTINUOUS
 62
       7
100
AcDbLine
 10
-83.21192688
 20
21.01079342
 30
0.0
 11
-83.21192688
 21
19.08703728
 31
0.0
  0
LINE
  5
2E7
100
AcDbEntity
  8
SLD-0_3
  6
CONTINUOUS
 62
       7
100
AcDbLine
 10
-82.77794305
 20
14.63898682
 30
0.0
 11
-82.699615
 21
14.59634923
 31
0.0
  0
LINE
  5
2E8
100
AcDbEntity
  8
SLD-0_3
  6
CONTINUOUS
 62
       7
100
AcDbLine
 10
-82.00060638
 20
14.50795735
 30
0.0
 11
-81.7465843
 21
14.50795735
 31
0.0
  0
LINE
  5
2E9
100
AcDbEntity
  8
SLD-0_3
  6
CONTINUOUS
 62
       7
100
AcDbLine
 10
-84.8121393
 20
15.57021809
 30
0.0
 11
-81.61171448
 21
15.57021809
 31
0.0
  0
LINE
  5
2EA
100
AcDbEntity
  8
SLD-0_3
  6
CONTINUOUS
 62
       7
100
AcDbLine
 10
-84.8121393
 20
20.05459553
 30
0.0
 11
-84.8121393
 21
18.98799397
 31
0.0
  0
LINE
  5
2EB
100
AcDbEntity
  8
SLD-0_3
  6
CONTINUOUS
 62
       7
100
AcDbLine
 10
-81.61171448
 20
23.47237141
 30
0.0
 11
-84.8121393
 21
23.47237141
 31
0.0
  0
LINE
  5
2EC
100
AcDbEntity
  8
SLD-0_3
  6
CONTINUOUS
 62
       7
100
AcDbLine
 10
-81.61171448
 20
32.65878742
 30
0.0
 11
-81.61171448
 21
33.72569904
 31
0.0
  0
LINE
  5
2ED
100
AcDbEntity
  8
SLD-0_3
  6
CONTINUOUS
 62
       7
100
AcDbLine
 10
-89.15544008
 20
45.30297687
 30
0.0
 11
-83.37501771
 21
45.30297687
 31
0.0
  0
LINE
  5
2EE
100
AcDbEntity
  8
SLD-0_3
  6
CONTINUOUS
 62
       7
100
AcDbLine
 10
-79.45401673
 20
-12.06375407
 30
0.0
 11
-79.45401673
 21
-11.52394206
 31
0.0
  0
LINE
  5
2EF
100
AcDbEntity
  8
SLD-0_3
  6
CONTINUOUS
 62
       7
100
AcDbLine
 10
-79.99351868
 20
-6.9791032
 30
0.0
 11
-79.45401673
 21
-6.9791032
 31
0.0
  0
LINE
  5
2F0
100
AcDbEntity
  8
SLD-0_3
  6
CONTINUOUS
 62
       7
100
AcDbLine
 10
-81.92208314
 20
-24.23479411
 30
0.0
 11
-82.46189516
 21
-24.23479411
 31
0.0
  0
LINE
  5
2F1
100
AcDbEntity
  8
SLD-0_3
  6
CONTINUOUS
 62
       7
100
AcDbLine
 10
-82.46189516
 20
-17.14809489
 30
0.0
 11
-81.92208314
 21
-17.14809489
 31
0.0
  0
LINE
  5
2F2
100
AcDbEntity
  8
SLD-0_3
  6
CONTINUOUS
 62
       7
100
AcDbLine
 10
-81.92208314
 20
-17.14809489
 30
0.0
 11
-81.92208314
 21
-16.60828288
 31
0.0
  0
LINE
  5
2F3
100
AcDbEntity
  8
SLD-0_3
  6
CONTINUOUS
 62
       7
100
AcDbLine
 10
-82.46189516
 20
-6.9791032
 30
0.0
 11
-81.92208314
 21
-6.9791032
 31
0.0
  0
LINE
  5
2F4
100
AcDbEntity
  8
SLD-0_3
  6
CONTINUOUS
 62
       7
100
AcDbLine
 10
-78.07488421
 20
14.51285435
 30
0.0
 11
-77.98365748
 21
14.52721473
 31
0.0
  0
LINE
  5
2F5
100
AcDbEntity
  8
SLD-0_3
  6
CONTINUOUS
 62
       7
100
AcDbLine
 10
-77.65578919
 20
14.66937053
 30
0.0
 11
-77.5855592
 21
14.72360819
 31
0.0
  0
LINE
  5
2F6
100
AcDbEntity
  8
SLD-0_3
  6
CONTINUOUS
 62
       7
100
AcDbLine
 10
-77.30092297
 20
15.16791369
 30
0.0
 11
-77.28089873
 21
15.2571488
 31
0.0
  0
LINE
  5
2F7
100
AcDbEntity
  8
SLD-0_3
  6
CONTINUOUS
 62
       7
100
AcDbLine
 10
-83.1658249
 20
41.03565781
 30
0.0
 11
-83.19023533
 21
40.94814977
 31
0.0
  0
LINE
  5
2F8
100
AcDbEntity
  8
SLD-0_3
  6
CONTINUOUS
 62
       7
100
AcDbLine
 10
-83.19023533
 20
40.94814977
 30
0.0
 11
-83.20574242
 21
40.8573669
 31
0.0
  0
LINE
  5
2F9
100
AcDbEntity
  8
SLD-0_3
  6
CONTINUOUS
 62
       7
100
AcDbLine
 10
-83.21192688
 20
34.89023931
 30
0.0
 11
-83.21192688
 21
32.69741475
 31
0.0
  0
LINE
  5
2FA
100
AcDbEntity
  8
SLD-0_3
  6
CONTINUOUS
 62
       7
100
AcDbLine
 10
-82.53034976
 20
14.53493842
 30
0.0
 11
-82.44040646
 21
14.51715715
 31
0.0
  0
LINE
  5
2FB
100
AcDbEntity
  8
SLD-0_3
  6
CONTINUOUS
 62
       7
100
AcDbLine
 10
-79.9184671
 20
14.50795735
 30
0.0
 11
-79.53247845
 21
14.50795735
 31
0.0
  0
LINE
  5
2FC
100
AcDbEntity
  8
SLD-0_3
  6
CONTINUOUS
 62
       7
100
AcDbLine
 10
-75.66789124
 20
29.24070148
 30
0.0
 11
-75.66789124
 21
30.30730305
 31
0.0
  0
LINE
  5
2FD
100
AcDbEntity
  8
SLD-0_3
  6
CONTINUOUS
 62
       7
100
AcDbLine
 10
-75.66789124
 20
36.07625324
 30
0.0
 11
-75.66789124
 21
37.14316486
 31
0.0
  0
LINE
  5
2FE
100
AcDbEntity
  8
SLD-0_3
  6
CONTINUOUS
 62
       7
100
AcDbLine
 10
-78.86831605
 20
39.49402912
 30
0.0
 11
-75.66789124
 21
39.49402912
 31
0.0
  0
LINE
  5
2FF
100
AcDbEntity
  8
SLD-0_3
  6
CONTINUOUS
 62
       7
100
AcDbLine
 10
-81.61171448
 20
18.98799397
 30
0.0
 11
-81.61171448
 21
20.05459553
 31
0.0
  0
LINE
  5
300
100
AcDbEntity
  8
SLD-0_3
  6
CONTINUOUS
 62
       7
100
AcDbLine
 10
-84.8121393
 20
22.40545979
 30
0.0
 11
-81.61171448
 21
22.40545979
 31
0.0
  0
LINE
  5
301
100
AcDbEntity
  8
SLD-0_3
  6
CONTINUOUS
 62
       7
100
AcDbLine
 10
-81.61171448
 20
25.82292561
 30
0.0
 11
-81.61171448
 21
26.88983723
 31
0.0
  0
LINE
  5
302
100
AcDbEntity
  8
SLD-0_3
  6
CONTINUOUS
 62
       7
100
AcDbLine
 10
-79.45401673
 20
-11.52394206
 30
0.0
 11
-79.99351868
 21
-11.52394206
 31
0.0
  0
LINE
  5
303
100
AcDbEntity
  8
SLD-0_3
  6
CONTINUOUS
 62
       7
100
AcDbLine
 10
-82.46189516
 20
-19.15014323
 30
0.0
 11
-82.46189516
 21
-19.68995524
 31
0.0
  0
LINE
  5
304
100
AcDbEntity
  8
SLD-0_3
  6
CONTINUOUS
 62
       7
100
AcDbLine
 10
-85.52186341
 20
9.62732502
 30
0.0
 11
-76.39373842
 21
9.62732502
 31
0.0
  0
LINE
  5
305
100
AcDbEntity
  8
SLD-0_3
  6
CONTINUOUS
 62
       7
100
AcDbLine
 10
-85.52186341
 20
-29.95165446
 30
0.0
 11
-76.39373842
 21
-29.95165446
 31
0.0
  0
LINE
  5
306
100
AcDbEntity
  8
SLD-0_3
  6
CONTINUOUS
 62
       7
100
AcDbLine
 10
-79.45401673
 20
-24.23479411
 30
0.0
 11
-79.99351868
 21
-24.23479411
 31
0.0
  0
LINE
  5
307
100
AcDbEntity
  8
SLD-0_3
  6
CONTINUOUS
 62
       7
100
AcDbLine
 10
-79.45401673
 20
-21.6926237
 30
0.0
 11
-79.99351868
 21
-21.6926237
 31
0.0
  0
LINE
  5
308
100
AcDbEntity
  8
SLD-0_3
  6
CONTINUOUS
 62
       7
100
AcDbLine
 10
-77.27002866
 20
15.34939966
 30
0.0
 11
-77.26810364
 21
15.45146049
 31
0.0
  0
LINE
  5
309
100
AcDbEntity
  8
SLD-0_3
  6
CONTINUOUS
 62
       7
100
AcDbLine
 10
-77.30404498
 20
41.00325742
 30
0.0
 11
-77.33377542
 21
41.08846782
 31
0.0
  0
LINE
  5
30A
100
AcDbEntity
  8
SLD-0_3
  6
CONTINUOUS
 62
       7
100
AcDbLine
 10
-77.37160714
 20
41.16960061
 30
0.0
 11
-77.41704466
 21
41.24616176
 31
0.0
  0
LINE
  5
30B
100
AcDbEntity
  8
SLD-0_3
  6
CONTINUOUS
 62
       7
100
AcDbLine
 10
-82.9890888
 20
41.34306125
 30
0.0
 11
-83.0441431
 21
41.27359273
 31
0.0
  0
LINE
  5
30C
100
AcDbEntity
  8
SLD-0_3
  6
CONTINUOUS
 62
       7
100
AcDbLine
 10
-83.13300809
 20
41.119397
 30
0.0
 11
-83.1658249
 21
41.03565781
 31
0.0
  0
LINE
  5
30D
100
AcDbEntity
  8
SLD-0_3
  6
CONTINUOUS
 62
       7
100
AcDbLine
 10
-83.21192688
 20
17.48715979
 30
0.0
 11
-83.21192688
 21
16.29088492
 31
0.0
  0
LINE
  5
30E
100
AcDbEntity
  8
SLD-0_3
  6
CONTINUOUS
 62
       7
100
AcDbLine
 10
-82.3475853
 20
14.50865325
 30
0.0
 11
-82.2927793
 21
14.50795735
 31
0.0
  0
LINE
  5
30F
100
AcDbEntity
  8
SLD-0_3
  6
CONTINUOUS
 62
       7
100
AcDbLine
 10
-78.86831605
 20
15.57021809
 30
0.0
 11
-75.66789124
 21
15.57021809
 31
0.0
  0
LINE
  5
310
100
AcDbEntity
  8
SLD-0_3
  6
CONTINUOUS
 62
       7
100
AcDbLine
 10
-75.66789124
 20
18.98799397
 30
0.0
 11
-75.66789124
 21
20.05459553
 31
0.0
  0
LINE
  5
311
100
AcDbEntity
  8
SLD-0_3
  6
CONTINUOUS
 62
       7
100
AcDbLine
 10
-75.66789124
 20
33.72569904
 30
0.0
 11
-78.86831605
 21
33.72569904
 31
0.0
  0
LINE
  5
312
100
AcDbEntity
  8
SLD-0_3
  6
CONTINUOUS
 62
       7
100
AcDbLine
 10
-78.86831605
 20
33.72569904
 30
0.0
 11
-78.86831605
 21
32.65878742
 31
0.0
  0
LINE
  5
313
100
AcDbEntity
  8
SLD-0_3
  6
CONTINUOUS
 62
       7
100
AcDbLine
 10
-84.8121393
 20
32.65878742
 30
0.0
 11
-81.61171448
 21
32.65878742
 31
0.0
  0
LINE
  5
314
100
AcDbEntity
  8
SLD-0_3
  6
CONTINUOUS
 62
       7
100
AcDbLine
 10
-84.8121393
 20
36.07625324
 30
0.0
 11
-81.61171448
 21
36.07625324
 31
0.0
  0
LINE
  5
315
100
AcDbEntity
  8
SLD-0_3
  6
CONTINUOUS
 62
       7
100
AcDbLine
 10
-83.37501771
 20
46.96458087
 30
0.0
 11
-89.15544008
 21
46.96458087
 31
0.0
  0
LINE
  5
316
100
AcDbEntity
  8
SLD-0_3
  6
CONTINUOUS
 62
       7
100
AcDbLine
 10
-79.99351868
 20
-8.98208171
 30
0.0
 11
-79.99351868
 21
-9.52158366
 31
0.0
  0
LINE
  5
317
100
AcDbEntity
  8
SLD-0_3
  6
CONTINUOUS
 62
       7
100
AcDbLine
 10
-79.99351868
 20
-1.89538249
 30
0.0
 11
-79.45401673
 21
-1.89538249
 31
0.0
  0
LINE
  5
318
100
AcDbEntity
  8
SLD-0_3
  6
CONTINUOUS
 62
       7
100
AcDbLine
 10
-81.92208314
 20
-16.60828288
 30
0.0
 11
-82.46189516
 21
-16.60828288
 31
0.0
  0
LINE
  5
319
100
AcDbEntity
  8
SLD-0_3
  6
CONTINUOUS
 62
       7
100
AcDbLine
 10
-82.46189516
 20
-14.06580241
 30
0.0
 11
-82.46189516
 21
-14.60561442
 31
0.0
  0
LINE
  5
31A
100
AcDbEntity
  8
SLD-0_3
  6
CONTINUOUS
 62
       7
100
AcDbLine
 10
-82.46189516
 20
-1.89538249
 30
0.0
 11
-81.92208314
 21
-1.89538249
 31
0.0
  0
LINE
  5
31B
100
AcDbEntity
  8
SLD-0_3
  6
CONTINUOUS
 62
       7
100
AcDbLine
 10
-81.92208314
 20
-1.35557048
 30
0.0
 11
-82.46189516
 21
-1.35557048
 31
0.0
  0
LINE
  5
31C
100
AcDbEntity
  8
SLD-0_3
  6
CONTINUOUS
 62
       7
100
AcDbLine
 10
-85.52186341
 20
3.78210042
 30
0.0
 11
-76.39373842
 21
3.78210042
 31
0.0
  0
LINE
  5
31D
100
AcDbEntity
  8
SLD-0_3
  6
CONTINUOUS
 62
       7
100
AcDbLine
 10
-85.52186341
 20
-0.0951823
 30
0.0
 11
-76.39373842
 21
-0.0951823
 31
0.0
  0
LINE
  5
31E
100
AcDbEntity
  8
SLD-0_3
  6
CONTINUOUS
 62
       7
100
AcDbLine
 10
-79.99351868
 20
-24.23479411
 30
0.0
 11
-79.99351868
 21
-24.77429606
 31
0.0
  0
LINE
  5
31F
100
AcDbEntity
  8
SLD-0_3
  6
CONTINUOUS
 62
       7
100
AcDbLine
 10
-77.26810364
 20
15.45146049
 30
0.0
 11
-77.26810364
 21
15.96260744
 31
0.0
  0
LINE
  5
320
100
AcDbEntity
  8
SLD-0_3
  6
CONTINUOUS
 62
       7
100
AcDbLine
 10
-77.26810364
 20
39.32671506
 30
0.0
 11
-77.26810364
 21
40.29129212
 31
0.0
  0
LINE
  5
321
100
AcDbEntity
  8
SLD-0_3
  6
CONTINUOUS
 62
       7
100
AcDbLine
 10
-78.08648847
 20
41.6479753
 30
0.0
 11
-78.16961514
 21
41.65172687
 31
0.0
  0
LINE
  5
322
100
AcDbEntity
  8
SLD-0_3
  6
CONTINUOUS
 62
       7
100
AcDbLine
 10
-78.88266909
 20
41.65172687
 30
0.0
 11
-79.21367168
 21
41.65172687
 31
0.0
  0
LINE
  5
323
100
AcDbEntity
  8
SLD-0_3
  6
CONTINUOUS
 62
       7
100
AcDbLine
 10
-82.02787244
 20
41.65172687
 30
0.0
 11
-82.20491401
 21
41.65172687
 31
0.0
  0
LINE
  5
324
100
AcDbEntity
  8
SLD-0_3
  6
CONTINUOUS
 62
       7
100
AcDbLine
 10
-83.21192688
 20
38.49359692
 30
0.0
 11
-83.21192688
 21
36.84887469
 31
0.0
  0
LINE
  5
325
100
AcDbEntity
  8
SLD-0_3
  6
CONTINUOUS
 62
       7
100
AcDbLine
 10
-83.08665967
 20
14.95165784
 30
0.0
 11
-83.03762932
 21
14.87751246
 31
0.0
  0
LINE
  5
326
100
AcDbEntity
  8
SLD-0_3
  6
CONTINUOUS
 62
       7
100
AcDbLine
 10
-78.84440582
 20
14.50795735
 30
0.0
 11
-78.56838932
 21
14.50795735
 31
0.0
  0
LINE
  5
327
100
AcDbEntity
  8
SLD-0_3
  6
CONTINUOUS
 62
       7
100
AcDbLine
 10
-75.66789124
 20
20.05459553
 30
0.0
 11
-78.86831605
 21
20.05459553
 31
0.0
  0
LINE
  5
328
100
AcDbEntity
  8
SLD-0_3
  6
CONTINUOUS
 62
       7
100
AcDbLine
 10
-84.8121393
 20
23.47237141
 30
0.0
 11
-84.8121393
 21
22.40545979
 31
0.0
  0
LINE
  5
329
100
AcDbEntity
  8
SLD-0_3
  6
CONTINUOUS
 62
       7
100
AcDbLine
 10
-79.99351868
 20
-6.43929118
 30
0.0
 11
-79.99351868
 21
-6.9791032
 31
0.0
  0
LINE
  5
32A
100
AcDbEntity
  8
SLD-0_3
  6
CONTINUOUS
 62
       7
100
AcDbLine
 10
-82.46189516
 20
-22.23243571
 30
0.0
 11
-81.92208314
 21
-22.23243571
 31
0.0
  0
LINE
  5
32B
100
AcDbEntity
  8
SLD-0_3
  6
CONTINUOUS
 62
       7
100
AcDbLine
 10
-82.46189516
 20
-19.68995524
 30
0.0
 11
-81.92208314
 21
-19.68995524
 31
0.0
  0
LINE
  5
32C
100
AcDbEntity
  8
SLD-0_3
  6
CONTINUOUS
 62
       7
100
AcDbLine
 10
-77.83334046
 20
-0.0951823
 30
0.0
 11
-77.83334046
 21
-26.03437419
 31
0.0
  0
LINE
  5
32D
100
AcDbEntity
  8
SLD-0_3
  6
CONTINUOUS
 62
       7
100
AcDbLine
 10
-85.52186341
 20
-30.84772379
 30
0.0
 11
-76.39373842
 21
-30.84772379
 31
0.0
  0
LINE
  5
32E
100
AcDbEntity
  8
SLD-0_3
  6
CONTINUOUS
 62
       7
100
AcDbLine
 10
-79.99351868
 20
-21.6926237
 30
0.0
 11
-79.99351868
 21
-22.23243571
 31
0.0
  0
LINE
  5
32F
100
AcDbEntity
  8
SLD-0_3
  6
CONTINUOUS
 62
       7
100
AcDbLine
 10
-78.16882387
 20
14.50795735
 30
0.0
 11
-78.07488421
 21
14.51285435
 31
0.0
  0
LINE
  5
330
100
AcDbEntity
  8
SLD-0_3
  6
CONTINUOUS
 62
       7
100
AcDbLine
 10
-77.26810364
 20
15.96260744
 30
0.0
 11
-77.26810364
 21
16.98697748
 31
0.0
  0
LINE
  5
331
100
AcDbEntity
  8
SLD-0_3
  6
CONTINUOUS
 62
       7
100
AcDbLine
 10
-77.26810364
 20
18.44484664
 30
0.0
 11
-77.26810364
 21
20.25649094
 31
0.0
  0
LINE
  5
332
100
AcDbEntity
  8
SLD-0_3
  6
CONTINUOUS
 62
       7
100
AcDbLine
 10
-79.96772759
 20
41.65172687
 30
0.0
 11
-80.36471346
 21
41.65172687
 31
0.0
  0
LINE
  5
333
100
AcDbEntity
  8
SLD-0_3
  6
CONTINUOUS
 62
       7
100
AcDbLine
 10
-81.78158913
 20
41.65172687
 30
0.0
 11
-82.02787244
 21
41.65172687
 31
0.0
  0
LINE
  5
334
100
AcDbEntity
  8
SLD-0_3
  6
CONTINUOUS
 62
       7
100
AcDbLine
 10
-83.09228183
 20
41.19887331
 30
0.0
 11
-83.13300809
 21
41.119397
 31
0.0
  0
LINE
  5
335
100
AcDbEntity
  8
SLD-0_3
  6
CONTINUOUS
 62
       7
100
AcDbLine
 10
-83.21184924
 20
40.76380321
 30
0.0
 11
-83.21192688
 21
40.522406
 31
0.0
  0
LINE
  5
336
100
AcDbEntity
  8
SLD-0_3
  6
CONTINUOUS
 62
       7
100
AcDbLine
 10
-83.21192688
 20
30.35012498
 30
0.0
 11
-83.21192688
 21
27.92809399
 31
0.0
  0
LINE
  5
337
100
AcDbEntity
  8
SLD-0_3
  6
CONTINUOUS
 62
       7
100
AcDbLine
 10
-82.44040646
 20
14.51715715
 30
0.0
 11
-82.3475853
 21
14.50865325
 31
0.0
  0
LINE
  5
338
100
AcDbEntity
  8
SLD-0_3
  6
CONTINUOUS
 62
       7
100
AcDbLine
 10
-81.43798345
 20
14.50795735
 30
0.0
 11
-81.08783759
 21
14.50795735
 31
0.0
  0
LINE
  5
339
100
AcDbEntity
  8
SLD-0_3
  6
CONTINUOUS
 62
       7
100
AcDbLine
 10
-80.7091804
 20
14.50795735
 30
0.0
 11
-80.31504567
 21
14.50795735
 31
0.0
  0
LINE
  5
33A
100
AcDbEntity
  8
SLD-0_3
  6
CONTINUOUS
 62
       7
100
AcDbLine
 10
-75.66789124
 20
23.47237141
 30
0.0
 11
-78.86831605
 21
23.47237141
 31
0.0
  0
LINE
  5
33B
100
AcDbEntity
  8
SLD-0_3
  6
CONTINUOUS
 62
       7
100
AcDbLine
 10
-78.86831605
 20
23.47237141
 30
0.0
 11
-78.86831605
 21
22.40545979
 31
0.0
  0
LINE
  5
33C
100
AcDbEntity
  8
SLD-0_3
  6
CONTINUOUS
 62
       7
100
AcDbLine
 10
-81.61171448
 20
15.57021809
 30
0.0
 11
-81.61171448
 21
16.63712971
 31
0.0
  0
LINE
  5
33D
100
AcDbEntity
  8
SLD-0_3
  6
CONTINUOUS
 62
       7
100
AcDbLine
 10
-84.8121393
 20
18.98799397
 30
0.0
 11
-81.61171448
 21
18.98799397
 31
0.0
  0
LINE
  5
33E
100
AcDbEntity
  8
SLD-0_3
  6
CONTINUOUS
 62
       7
100
AcDbLine
 10
-83.37501771
 20
45.30297687
 30
0.0
 11
-83.37501771
 21
46.96458087
 31
0.0
  0
LINE
  5
33F
100
AcDbEntity
  8
SLD-0_3
  6
CONTINUOUS
 62
       7
100
AcDbLine
 10
-89.15544008
 20
-5.30664714
 30
0.0
 11
-85.52186341
 21
-5.30664714
 31
0.0
  0
LINE
  5
340
100
AcDbEntity
  8
SLD-0_3
  6
CONTINUOUS
 62
       7
100
AcDbLine
 10
-79.45401673
 20
-8.98208171
 30
0.0
 11
-79.99351868
 21
-8.98208171
 31
0.0
  0
LINE
  5
341
100
AcDbEntity
  8
SLD-0_3
  6
CONTINUOUS
 62
       7
100
AcDbLine
 10
-79.45401673
 20
-3.89743083
 30
0.0
 11
-79.99351868
 21
-3.89743083
 31
0.0
  0
LINE
  5
342
100
AcDbEntity
  8
SLD-0_3
  6
CONTINUOUS
 62
       7
100
AcDbLine
 10
-81.92208314
 20
-14.06580241
 30
0.0
 11
-82.46189516
 21
-14.06580241
 31
0.0
  0
LINE
  5
343
100
AcDbEntity
  8
SLD-0_3
  6
CONTINUOUS
 62
       7
100
AcDbLine
 10
-82.46189516
 20
-8.98208171
 30
0.0
 11
-82.46189516
 21
-9.52158366
 31
0.0
  0
LINE
  5
344
100
AcDbEntity
  8
SLD-0_3
  6
CONTINUOUS
 62
       7
100
AcDbLine
 10
-84.08164125
 20
-0.0951823
 30
0.0
 11
-84.08164125
 21
-26.03437419
 31
0.0
  0
LINE
  5
345
100
AcDbEntity
  8
SLD-0_3
  6
CONTINUOUS
 62
       7
100
AcDbLine
 10
-85.52186341
 20
4.67816975
 30
0.0
 11
-76.39373842
 21
4.67816975
 31
0.0
  0
LINE
  5
346
100
AcDbEntity
  8
SLD-0_3
  6
CONTINUOUS
 62
       7
100
AcDbLine
 10
-76.39373842
 20
-33.49500407
 30
0.0
 11
-85.52186341
 21
-33.49500407
 31
0.0
  0
LINE
  5
347
100
AcDbEntity
  8
SLD-0_3
  6
CONTINUOUS
 62
       7
100
AcDbLine
 10
-77.81132462
 20
14.58234171
 30
0.0
 11
-77.73120948
 21
14.62211638
 31
0.0
  0
LINE
  5
348
100
AcDbEntity
  8
SLD-0_3
  6
CONTINUOUS
 62
       7
100
AcDbLine
 10
-77.73120948
 20
14.62211638
 30
0.0
 11
-77.65578919
 21
14.66937053
 31
0.0
  0
LINE
  5
349
100
AcDbEntity
  8
SLD-0_3
  6
CONTINUOUS
 62
       7
100
AcDbLine
 10
-77.26810364
 20
34.09109209
 30
0.0
 11
-77.26810364
 21
36.14689107
 31
0.0
  0
LINE
  5
34A
100
AcDbEntity
  8
SLD-0_3
  6
CONTINUOUS
 62
       7
100
AcDbLine
 10
-77.99489551
 20
41.63478975
 30
0.0
 11
-78.08648847
 21
41.6479753
 31
0.0
  0
LINE
  5
34B
100
AcDbEntity
  8
SLD-0_3
  6
CONTINUOUS
 62
       7
100
AcDbLine
 10
-78.37788337
 20
41.65172687
 30
0.0
 11
-78.59972842
 21
41.65172687
 31
0.0
  0
LINE
  5
34C
100
AcDbEntity
  8
SLD-0_3
  6
CONTINUOUS
 62
       7
100
AcDbLine
 10
-83.21192688
 20
16.29088492
 30
0.0
 11
-83.21192688
 21
15.57793666
 31
0.0
  0
LINE
  5
34D
100
AcDbEntity
  8
SLD-0_3
  6
CONTINUOUS
 62
       7
100
AcDbLine
 10
-80.31504567
 20
14.50795735
 30
0.0
 11
-79.9184671
 21
14.50795735
 31
0.0
  0
TEXT
  5
34E
100
AcDbEntity
  8
SLD-0
 62
       7
100
AcDbText
 10
75.33155826
 20
-61.14276071
 30
0.0
 40
5.0
  1
000
 72
       5
 11
90.33155826
 21
-61.14276071
 31
0.0
100
AcDbText
  0
ENDSEC
  0
SECTION
  2
OBJECTS
  0
DICTIONARY
  5
19
100
AcDbDictionary
  3
ACAD_GROUP
350
1A
  3
ACAD_MLINESTYLE
350
1B
  0
DICTIONARY
  5
1A
102
{ACAD_REACTORS
330
19
102
}
100
AcDbDictionary
  0
DICTIONARY
  5
1B
102
{ACAD_REACTORS
330
19
102
}
100
AcDbDictionary
  3
STANDARD
350
1C
  0
MLINESTYLE
  5
1C
102
{ACAD_REACTORS
330
1B
102
}
100
AcDbMlineStyle
  2
STANDARD
 70
       0
  3

 62
       0
 51
90.0
 52
90.0
 71
       2
 49
0.5
 62
     256
  6
BYLAYER
 49
-0.5
 62
     256
  6
BYLAYER
  0
ENDSEC
  0
EOF
