  0
SECTION
  2
HEADER
  9
$ACADVER
  1
AC1014
  9
$ACADMAINTVER
 70
       0
  9
$DWGCODEPAGE
  3
ANSI_932
  9
$INSBASE
 10
0.0
 20
0.0
 30
0.0
  9
$EXTMIN
 10
-106.00106454
 20
-71.98368309
 30
0.0
  9
$EXTMAX
 10
106.00106454
 20
54.05177018
 30
0.0
  9
$LIMMIN
 10
-112.62613107
 20
-75.92229101
  9
$LIMMAX
 10
112.62613107
 20
57.99037809
  9
$ORTHOMODE
 70
       0
  9
$REGENMODE
 70
       1
  9
$FILLMODE
 70
       1
  9
$QTEXTMODE
 70
       0
  9
$MIRRTEXT
 70
       1
  9
$DRAGMODE
 70
       2
  9
$LTSCALE
 40
1.0
  9
$OSMODE
 70
       0
  9
$ATTMODE
 70
       1
  9
$TEXTSIZE
 40
0.2
  9
$TRACEWID
 40
0.05
  9
$TEXTSTYLE
  7
STANDARD
  9
$CLAYER
  8
0
  9
$CELTYPE
  6
CONTINUOUS
  9
$CECOLOR
 62
     256
  9
$CELTSCALE
 40
1.0
  9
$DELOBJ
 70
       1
  9
$DISPSILH
 70
       0
  9
$DIMSCALE
 40
1.0
  9
$DIMASZ
 40
0.18
  9
$DIMEXO
 40
0.0625
  9
$DIMDLI
 40
0.38
  9
$DIMRND
 40
0.0
  9
$DIMDLE
 40
0.0
  9
$DIMEXE
 40
0.18
  9
$DIMTP
 40
0.0
  9
$DIMTM
 40
0.0
  9
$DIMTXT
 40
0.18
  9
$DIMCEN
 40
0.09
  9
$DIMTSZ
 40
0.0
  9
$DIMTOL
 70
       0
  9
$DIMLIM
 70
       0
  9
$DIMTIH
 70
       1
  9
$DIMTOH
 70
       1
  9
$DIMSE1
 70
       0
  9
$DIMSE2
 70
       0
  9
$DIMTAD
 70
       0
  9
$DIMZIN
 70
       0
  9
$DIMBLK
  1

  9
$DIMASO
 70
       1
  9
$DIMSHO
 70
       1
  9
$DIMPOST
  1

  9
$DIMAPOST
  1

  9
$DIMALT
 70
       0
  9
$DIMALTD
 70
       2
  9
$DIMALTF
 40
25.4
  9
$DIMLFAC
 40
1.0
  9
$DIMTOFL
 70
       0
  9
$DIMTVP
 40
0.0
  9
$DIMTIX
 70
       0
  9
$DIMSOXD
 70
       0
  9
$DIMSAH
 70
       0
  9
$DIMBLK1
  1

  9
$DIMBLK2
  1

  9
$DIMSTYLE
  2
STANDARD
  9
$DIMCLRD
 70
       0
  9
$DIMCLRE
 70
       0
  9
$DIMCLRT
 70
       0
  9
$DIMTFAC
 40
1.0
  9
$DIMGAP
 40
0.09
  9
$DIMJUST
 70
       0
  9
$DIMSD1
 70
       0
  9
$DIMSD2
 70
       0
  9
$DIMTOLJ
 70
       1
  9
$DIMTZIN
 70
       0
  9
$DIMALTZ
 70
       0
  9
$DIMALTTZ
 70
       0
  9
$DIMFIT
 70
       3
  9
$DIMUPT
 70
       0
  9
$DIMUNIT
 70
       2
  9
$DIMDEC
 70
       4
  9
$DIMTDEC
 70
       4
  9
$DIMALTU
 70
       2
  9
$DIMALTTD
 70
       2
  9
$DIMTXSTY
  7
STANDARD
  9
$DIMAUNIT
 70
       0
  9
$LUNITS
 70
       2
  9
$LUPREC
 70
       4
  9
$SKETCHINC
 40
0.1
  9
$FILLETRAD
 40
0.0
  9
$AUNITS
 70
       0
  9
$AUPREC
 70
       0
  9
$MENU
  1
acad
  9
$ELEVATION
 40
0.0
  9
$PELEVATION
 40
0.0
  9
$THICKNESS
 40
0.0
  9
$LIMCHECK
 70
       0
  9
$BLIPMODE
 70
       1
  9
$CHAMFERA
 40
0.0
  9
$CHAMFERB
 40
0.0
  9
$CHAMFERC
 40
0.0
  9
$CHAMFERD
 40
0.0
  9
$SKPOLY
 70
       0
  9
$TDCREATE
 40
0.000000000
  9
$TDUPDATE
 40
0.000000000
  9
$TDINDWG
 40
0.0000000000
  9
$TDUSRTIMER
 40
0.0000000000
  9
$USRTIMER
 70
       1
  9
$ANGBASE
 50
0.0
  9
$ANGDIR
 70
       0
  9
$PDMODE
 70
       0
  9
$PDSIZE
 40
1.0
  9
$PLINEWID
 40
0.0
  9
$COORDS
 70
       1
  9
$SPLFRAME
 70
       0
  9
$SPLINETYPE
 70
       6
  9
$SPLINESEGS
 70
       8
  9
$ATTDIA
 70
       0
  9
$ATTREQ
 70
       1
  9
$HANDLING
 70
       1
  9
$HANDSEED
  5
24A
  9
$SURFTAB1
 70
       6
  9
$SURFTAB2
 70
       6
  9
$SURFTYPE
 70
       6
  9
$SURFU
 70
       6
  9
$SURFV
 70
       6
  9
$UCSNAME
  2

  9
$UCSORG
 10
0.0
 20
0.0
 30
0.0
  9
$UCSXDIR
 10
1.0
 20
0.0
 30
0.0
  9
$UCSYDIR
 10
0.0
 20
1.0
 30
0.0
  9
$PUCSNAME
  2

  9
$PUCSORG
 10
0.0
 20
0.0
 30
0.0
  9
$PUCSXDIR
 10
1.0
 20
0.0
 30
0.0
  9
$PUCSYDIR
 10
0.0
 20
1.0
 30
0.0
  9
$USERI1
 70
       0
  9
$USERI2
 70
       0
  9
$USERI3
 70
       0
  9
$USERI4
 70
       0
  9
$USERI5
 70
       0
  9
$USERR1
 40
0.0
  9
$USERR2
 40
0.0
  9
$USERR3
 40
0.0
  9
$USERR4
 40
0.0
  9
$USERR5
 40
0.0
  9
$WORLDVIEW
 70
       1
  9
$SHADEDGE
 70
       3
  9
$SHADEDIF
 70
      70
  9
$TILEMODE
 70
       1
  9
$MAXACTVP
 70
      16
  9
$PINSBASE
 10
0.0
 20
0.0
 30
0.0
  9
$PLIMCHECK
 70
       0
  9
$PEXTMIN
 10
1.00000000E+20
 20
1.00000000E+20
 30
1.00000000E+20
  9
$PEXTMAX
 10
-1.00000000E+20
 20
-1.00000000E+20
 30
-1.00000000E+20
  9
$PLIMMIN
 10
0.0
 20
0.0
  9
$PLIMMAX
 10
12.0
 20
9.0
  9
$UNITMODE
 70
       0
  9
$VISRETAIN
 70
       0
  9
$PLINEGEN
 70
       1
  9
$PSLTSCALE
 70
       0
  9
$TREEDEPTH
 70
    3020
  9
$PICKSTYLE
 70
       1
  9
$CMLSTYLE
  2
STANDARD
  9
$CMLJUST
 70
       0
  9
$CMLSCALE
 40
1.0
  9
$PROXYGRAPHICS
 70
       0
  9
$MEASUREMENT
 70
       0
  0
ENDSEC
  0
SECTION
  2
CLASSES
  0
CLASS
  1
LWPOLYLINE
  2
AcDbPolyline
  3
"AutoCAD"
 90
        0
280
       0
281
       1
  0
CLASS
  1
IMAGE
  2
AcDbRasterImage
  3
ISM
 90
      127
280
       0
281
       1
  0
CLASS
  1
OLE2FRAME
  2
AcDbOle2Frame
  3
""
 90
        0
280
       0
281
       1
  0
CLASS
  1
HATCH
  2
AcDbHatch
  3
"ACAD_SEDONA"
 90
        0
280
       0
281
       1
  0
CLASS
  1
DICTIONARYVAR
  2
AcDbDictionaryVar
  3
"AutoCAD"
 90
        0
280
       0
281
       0
  0
CLASS
  1
RASTERVARIABLES
  2
AcDbRasterVariables
  3
ISM
 90
        0
280
       0
281
       0
  0
CLASS
  1
IMAGEDEF
  2
AcDbRasterImageDef
  3
ISM
 90
        0
280
       0
281
       0
  0
CLASS
  1
IMAGEDEF_REACTOR
  2
AcDbRasterImageDefReactor
  3
ISM
 90
        1
280
       0
281
       0
  0
CLASS
  1
IDBUFFER
  2
AcDbIdBuffer
  3
"Acad"
 90
        0
280
       0
281
       0
  0
CLASS
  1
SPATIAL_FILTER
  2
AcDbSpatialFilter
  3
"Acad"
 90
        0
280
       0
281
       0
  0
CLASS
  1
XRECORD
  2
AcDbXrecord
  3
"<Built In>"
 90
        0
280
       0
281
       0
  0
CLASS
  1
SORTENTSTABLE
  2
AcDbSortentsTable
  3
"AutoCAD"
 90
        0
280
       0
281
       0
  0
CLASS
  1
LAYER_INDEX
  2
AcDbLayerIndex
  3
"Acad"
 90
        0
280
       0
281
       0
  0
CLASS
  1
SPATIAL_INDEX
  2
AcDbSpatialIndex
  3
"Acad"
 90
        0
280
       0
281
       0
  0
CLASS
  1
OBJECT_PTR
  2
CAseDLPNTableRecord
  3
"ASE-LPNTableRecord"
 90
        1
280
       0
281
       0
  0
CLASS
  1
LAYOUT
  2
AcDbLayout
  3
"AutoCAD 2000"
 90
        1
280
       0
281
       0
  0
CLASS
  1
PLOTSETTINGS
  2
AcDbPlotSettings
  3
"AutoCAD 2000"
 90
        1
280
       0
281
       0
  0
CLASS
  1
ACDBDICTIONARYWDFLT
  2
AcDbDictionaryWithDefault
  3
"AutoCAD 2000"
 90
        1
280
       0
281
       0
  0
CLASS
  1
ACDBPLACEHOLDER
  2
AcDbPlaceHolder
  3
"AutoCAD 2000"
 90
        1
280
       0
281
       0
  0
CLASS
  1
VBA_PROJECT
  2
AcDbVbaProject
  3
"acadvba"
 90
        1
280
       0
281
       0
  0
CLASS
  1
WIPEOUT
  2
AcDbWipeout
  3
WipeOut|AutoCAD Express Tool|expresstools@autodesk.com
 90
      127
280
       0
281
       1
  0
CLASS
  1
WIPEOUTVARIABLES
  2
AcDbWipeoutVariables
  3
WipeOut|AutoCAD Express Tool|expresstools@autodesk.com
 90
        0
280
       0
281
       0
  0
CLASS
  1
RTEXT
  2
RText
  3
RText|AutoCAD Express Tool|expresstools@autodesk.com
 90
        0
280
       0
281
       1
  0
CLASS
  1
ARCALIGNEDTEXT
  2
AcDbArcAlignedText
  3
ATEXT|AutoCAD Express Tool|expresstools@autodesk.com
 90
        0
280
       0
281
       1
  0
ENDSEC
  0
SECTION
  2
TABLES
  0
TABLE
  2
VPORT
  5
7
100
AcDbSymbolTable
 70
       1
  0
VPORT
  5
15
100
AcDbSymbolTableRecord
100
AcDbViewportTableRecord
  2
*ACTIVE
 70
       0
 10
0.0
 20
0.0
 11
1.0
 21
1.0
 12
0.0
 22
-8.96595646
 13
0.0
 23
0.0
 14
1.0
 24
1.0
 15
0.0
 25
0.0
 16
0.0
 26
0.0
 36
1.0
 17
0.0
 27
0.0
 37
0.0
 40
133.9126691
 41
1.68208328
 42
50.0
 43
0.0
 44
0.0
 50
0.0
 51
0.0
 71
       0
 72
     100
 73
       1
 74
       1
 75
       0
 76
       0
 77
       0
 78
       0
  0
ENDTAB
  0
TABLE
  2
LTYPE
  5
4
100
AcDbSymbolTable
 70
      30
  0
LTYPE
  5
11
100
AcDbSymbolTableRecord
100
AcDbLinetypeTableRecord
  2
BYBLOCK
 70
      64
  3

 72
      65
 73
       0
 40
0.0
  0
LTYPE
  5
12
100
AcDbSymbolTableRecord
100
AcDbLinetypeTableRecord
  2
BYLAYER
 70
      64
  3

 72
      65
 73
       0
 40
0.0
  0
LTYPE
  5
13
100
AcDbSymbolTableRecord
100
AcDbLinetypeTableRecord
  2
CONTINUOUS
 70
      64
  3
Solid line
 72
      65
 73
       0
 40
0.0
  0
LTYPE
  5
1D
100
AcDbSymbolTableRecord
100
AcDbLinetypeTableRecord
  2
HIDDENX2
 70
      64
  3
CADPAC LINETYPE
 72
      65
 73
       2
 40
8.48008516
 49
6.36006387
 74
       0
 49
-2.12002129
 74
       0
  0
LTYPE
  5
1E
100
AcDbSymbolTableRecord
100
AcDbLinetypeTableRecord
  2
HIDDEN
 70
      64
  3
CADPAC LINETYPE
 72
      65
 73
       2
 40
6.36006387
 49
4.24004258
 74
       0
 49
-2.12002129
 74
       0
  0
LTYPE
  5
1F
100
AcDbSymbolTableRecord
100
AcDbLinetypeTableRecord
  2
HIDDEN2
 70
      64
  3
CADPAC LINETYPE
 72
      65
 73
       2
 40
5.30005323
 49
3.18003194
 74
       0
 49
-2.12002129
 74
       0
  0
LTYPE
  5
20
100
AcDbSymbolTableRecord
100
AcDbLinetypeTableRecord
  2
DASHED
 70
      64
  3
CADPAC LINETYPE
 72
      65
 73
       2
 40
6.36006387
 49
4.24004258
 74
       0
 49
-2.12002129
 74
       0
  0
LTYPE
  5
21
100
AcDbSymbolTableRecord
100
AcDbLinetypeTableRecord
  2
DASHED2
 70
      64
  3
CADPAC LINETYPE
 72
      65
 73
       2
 40
4.7700479
 49
3.18003194
 74
       0
 49
-1.59001597
 74
       0
  0
LTYPE
  5
22
100
AcDbSymbolTableRecord
100
AcDbLinetypeTableRecord
  2
DASHEDX2
 70
      64
  3
CADPAC LINETYPE
 72
      65
 73
       2
 40
9.54009581
 49
6.36006387
 74
       0
 49
-3.18003194
 74
       0
  0
LTYPE
  5
23
100
AcDbSymbolTableRecord
100
AcDbLinetypeTableRecord
  2
DOTX2
 70
      64
  3
CADPAC LINETYPE
 72
      65
 73
       2
 40
2.65002661
 49
0.0
 74
       0
 49
-2.65002661
 74
       0
  0
LTYPE
  5
24
100
AcDbSymbolTableRecord
100
AcDbLinetypeTableRecord
  2
DOT
 70
      64
  3
CADPAC LINETYPE
 72
      65
 73
       2
 40
2.12002129
 49
0.0
 74
       0
 49
-2.12002129
 74
       0
  0
LTYPE
  5
25
100
AcDbSymbolTableRecord
100
AcDbLinetypeTableRecord
  2
DOT2
 70
      64
  3
CADPAC LINETYPE
 72
      65
 73
       2
 40
1.59001597
 49
0.0
 74
       0
 49
-1.59001597
 74
       0
  0
LTYPE
  5
26
100
AcDbSymbolTableRecord
100
AcDbLinetypeTableRecord
  2
CENTERX2
 70
      64
  3
CADPAC LINETYPE
 72
      65
 73
       4
 40
12.72012774
 49
5.30005323
 74
       0
 49
-2.65002661
 74
       0
 49
2.12002129
 74
       0
 49
-2.65002661
 74
       0
  0
LTYPE
  5
27
100
AcDbSymbolTableRecord
100
AcDbLinetypeTableRecord
  2
CENTER
 70
      64
  3
CADPAC LINETYPE
 72
      65
 73
       4
 40
9.75209794
 49
4.24004258
 74
       0
 49
-2.12002129
 74
       0
 49
1.27201277
 74
       0
 49
-2.12002129
 74
       0
  0
LTYPE
  5
28
100
AcDbSymbolTableRecord
100
AcDbLinetypeTableRecord
  2
CENTER2
 70
      64
  3
CADPAC LINETYPE
 72
      65
 73
       4
 40
6.78406813
 49
3.18003194
 74
       0
 49
-1.59001597
 74
       0
 49
0.42400426
 74
       0
 49
-1.59001597
 74
       0
  0
LTYPE
  5
29
100
AcDbSymbolTableRecord
100
AcDbLinetypeTableRecord
  2
DASHDOTX2
 70
      64
  3
CADPAC LINETYPE
 72
      65
 73
       4
 40
10.60010645
 49
5.30005323
 74
       0
 49
-2.65002661
 74
       0
 49
0.0
 74
       0
 49
-2.65002661
 74
       0
  0
LTYPE
  5
2A
100
AcDbSymbolTableRecord
100
AcDbLinetypeTableRecord
  2
DASHDOT
 70
      64
  3
CADPAC LINETYPE
 72
      65
 73
       4
 40
8.48008516
 49
4.24004258
 74
       0
 49
-2.12002129
 74
       0
 49
0.0
 74
       0
 49
-2.12002129
 74
       0
  0
LTYPE
  5
2B
100
AcDbSymbolTableRecord
100
AcDbLinetypeTableRecord
  2
DASHDOT2
 70
      64
  3
CADPAC LINETYPE
 72
      65
 73
       4
 40
6.36006387
 49
3.18003194
 74
       0
 49
-1.59001597
 74
       0
 49
0.0
 74
       0
 49
-1.59001597
 74
       0
  0
LTYPE
  5
2C
100
AcDbSymbolTableRecord
100
AcDbLinetypeTableRecord
  2
DIVIDEX2
 70
      64
  3
CADPAC LINETYPE
 72
      65
 73
       6
 40
13.25013307
 49
5.30005323
 74
       0
 49
-2.65002661
 74
       0
 49
0.0
 74
       0
 49
-2.65002661
 74
       0
 49
0.0
 74
       0
 49
-2.65002661
 74
       0
  0
LTYPE
  5
2D
100
AcDbSymbolTableRecord
100
AcDbLinetypeTableRecord
  2
DIVIDE
 70
      64
  3
CADPAC LINETYPE
 72
      65
 73
       6
 40
10.60010645
 49
4.24004258
 74
       0
 49
-2.12002129
 74
       0
 49
0.0
 74
       0
 49
-2.12002129
 74
       0
 49
0.0
 74
       0
 49
-2.12002129
 74
       0
  0
LTYPE
  5
2E
100
AcDbSymbolTableRecord
100
AcDbLinetypeTableRecord
  2
DIVIDE2
 70
      64
  3
CADPAC LINETYPE
 72
      65
 73
       6
 40
7.95007984
 49
3.18003194
 74
       0
 49
-1.59001597
 74
       0
 49
0.0
 74
       0
 49
-1.59001597
 74
       0
 49
0.0
 74
       0
 49
-1.59001597
 74
       0
  0
LTYPE
  5
2F
100
AcDbSymbolTableRecord
100
AcDbLinetypeTableRecord
  2
BORDERX2
 70
      64
  3
CADPAC LINETYPE
 72
      65
 73
       6
 40
18.55018629
 49
5.30005323
 74
       0
 49
-2.65002661
 74
       0
 49
5.30005323
 74
       0
 49
-2.65002661
 74
       0
 49
0.0
 74
       0
 49
-2.65002661
 74
       0
  0
LTYPE
  5
30
100
AcDbSymbolTableRecord
100
AcDbLinetypeTableRecord
  2
BORDER
 70
      64
  3
CADPAC LINETYPE
 72
      65
 73
       6
 40
14.84014904
 49
4.24004258
 74
       0
 49
-2.12002129
 74
       0
 49
4.24004258
 74
       0
 49
-2.12002129
 74
       0
 49
0.0
 74
       0
 49
-2.12002129
 74
       0
  0
LTYPE
  5
31
100
AcDbSymbolTableRecord
100
AcDbLinetypeTableRecord
  2
BORDER2
 70
      64
  3
CADPAC LINETYPE
 72
      65
 73
       6
 40
11.13011178
 49
3.18003194
 74
       0
 49
-1.59001597
 74
       0
 49
3.18003194
 74
       0
 49
-1.59001597
 74
       0
 49
0.0
 74
       0
 49
-1.59001597
 74
       0
  0
LTYPE
  5
32
100
AcDbSymbolTableRecord
100
AcDbLinetypeTableRecord
  2
PHANTOMX2
 70
      64
  3
CADPAC LINETYPE
 72
      65
 73
       6
 40
15.90015968
 49
5.30005323
 74
       0
 49
-2.12002129
 74
       0
 49
2.12002129
 74
       0
 49
-2.12002129
 74
       0
 49
2.12002129
 74
       0
 49
-2.12002129
 74
       0
  0
LTYPE
  5
33
100
AcDbSymbolTableRecord
100
AcDbLinetypeTableRecord
  2
PHANTOM
 70
      64
  3
CADPAC LINETYPE
 72
      65
 73
       6
 40
13.144132
 49
4.24004258
 74
       0
 49
-2.12002129
 74
       0
 49
1.27201277
 74
       0
 49
-2.12002129
 74
       0
 49
1.27201277
 74
       0
 49
-2.12002129
 74
       0
  0
LTYPE
  5
34
100
AcDbSymbolTableRecord
100
AcDbLinetypeTableRecord
  2
PHANTOM2
 70
      64
  3
CADPAC LINETYPE
 72
      65
 73
       6
 40
11.23611284
 49
3.18003194
 74
       0
 49
-2.12002129
 74
       0
 49
0.84800852
 74
       0
 49
-2.12002129
 74
       0
 49
0.84800852
 74
       0
 49
-2.12002129
 74
       0
  0
LTYPE
  5
35
100
AcDbSymbolTableRecord
100
AcDbLinetypeTableRecord
  2
ACAD_ISO06W100
 70
      64
  3
CADPAC LINETYPE
 72
      65
 73
       8
 40
14.31014371
 49
5.30005323
 74
       0
 49
-2.65002661
 74
       0
 49
0.0
 74
       0
 49
-2.12002129
 74
       0
 49
0.0
 74
       0
 49
-2.12002129
 74
       0
 49
0.0
 74
       0
 49
-2.12002129
 74
       0
  0
LTYPE
  5
36
100
AcDbSymbolTableRecord
100
AcDbLinetypeTableRecord
  2
ACAD_ISO13W100
 70
      64
  3
CADPAC LINETYPE
 72
      65
 73
       8
 40
16.96017033
 49
4.24004258
 74
       0
 49
-2.12002129
 74
       0
 49
4.24004258
 74
       0
 49
-2.12002129
 74
       0
 49
0.0
 74
       0
 49
-2.12002129
 74
       0
 49
0.0
 74
       0
 49
-2.12002129
 74
       0
  0
LTYPE
  5
37
100
AcDbSymbolTableRecord
100
AcDbLinetypeTableRecord
  2
ACAD_ISO14W100
 70
      64
  3
CADPAC LINETYPE
 72
      65
 73
       8
 40
12.72012774
 49
4.24004258
 74
       0
 49
-2.12002129
 74
       0
 49
0.0
 74
       0
 49
-2.12002129
 74
       0
 49
0.0
 74
       0
 49
-2.12002129
 74
       0
 49
0.0
 74
       0
 49
-2.12002129
 74
       0
  0
ENDTAB
  0
TABLE
  2
LAYER
  5
2
100
AcDbSymbolTable
 70
       2
  0
LAYER
  5
14
100
AcDbSymbolTableRecord
100
AcDbLayerTableRecord
  2
0
 70
       0
 62
       7
  6
CONTINUOUS
  0
LAYER
  5
38
100
AcDbSymbolTableRecord
100
AcDbLayerTableRecord
  2
レイヤー_1
 70
       0
 62
       7
  6
CONTINUOUS
  0
ENDTAB
  0
TABLE
  2
STYLE
  5
3
100
AcDbSymbolTable
 70
       1
  0
STYLE
  5
17
100
AcDbSymbolTableRecord
100
AcDbTextStyleTableRecord
  2
STANDARD
 70
       0
 40
0.0
 41
0.8
 50
0.0
 71
       0
 42
5.0
  3
txt.shx
  4
bigfont.shx
  0
ENDTAB
  0
TABLE
  2
VIEW
  5
5
100
AcDbSymbolTable
 70
       1
  0
VIEW
  5
39
100
AcDbSymbolTableRecord
100
AcDbViewTableRecord
  2
QQQQ
 70
       0
 40
133.9126691
 10
0.0
 20
-8.96595646
 41
225.25226215
 11
0.0
 21
0.0
 31
1.0
 12
100.0
 22
100.0
 32
0.0
 42
50.0
 43
0.0
 44
0.0
 50
0.0
 71
       0
  0
ENDTAB
  0
TABLE
  2
UCS
  5
6
100
AcDbSymbolTable
 70
       0
  0
ENDTAB
  0
TABLE
  2
APPID
  5
8
100
AcDbSymbolTable
 70
       1
  0
APPID
  5
16
100
AcDbSymbolTableRecord
100
AcDbRegAppTableRecord
  2
ACAD
 70
       0
  0
ENDTAB
  0
TABLE
  2
DIMSTYLE
  5
9
100
AcDbSymbolTable
 70
       1
  0
DIMSTYLE
105
18
100
AcDbSymbolTableRecord
100
AcDbDimStyleTableRecord
  2
STANDARD
 70
       0
  3

  4

  5

  6

  7

 40
1.0
 41
0.18
 42
0.0625
 43
0.38
 44
0.18
 45
0.0
 46
0.0
 47
0.0
 48
0.0
 71
       0
 72
       0
 73
       1
 74
       1
 75
       0
 76
       0
 77
       0
 78
       0
140
0.18
141
0.09
142
0.0
143
25.4
144
1.0
145
0.0
146
1.0
147
0.09
170
       0
171
       2
172
       0
173
       0
174
       0
175
       0
176
       0
177
       0
178
       0
270
       2
271
       4
272
       4
273
       2
274
       2
275
       0
280
       0
281
       0
282
       0
283
       1
284
       0
285
       0
286
       0
287
       0
288
       0
340
17
  0
ENDTAB
  0
TABLE
  2
BLOCK_RECORD
  5
1
100
AcDbSymbolTable
 70
       0
  0
BLOCK_RECORD
  5
A
100
AcDbSymbolTableRecord
100
AcDbBlockTableRecord
  2
*MODEL_SPACE
  0
BLOCK_RECORD
  5
B
100
AcDbSymbolTableRecord
100
AcDbBlockTableRecord
  2
*PAPER_SPACE
  0
ENDTAB
  0
ENDSEC
  0
SECTION
  2
BLOCKS
  0
BLOCK
  5
D
100
AcDbEntity
  8
0
100
AcDbBlockBegin
  2
*MODEL_SPACE
 70
       0
 10
0.0
 20
0.0
 30
0.0
  3
*MODEL_SPACE
  1

  0
ENDBLK
  5
E
100
AcDbEntity
  8
0
100
AcDbBlockEnd
  0
BLOCK
  5
F
100
AcDbEntity
 67
       1
  8
0
100
AcDbBlockBegin
  2
*PAPER_SPACE
 70
       0
 10
0.0
 20
0.0
 30
0.0
  3
*PAPER_SPACE
  1

  0
ENDBLK
  5
10
100
AcDbEntity
 67
       1
  8
0
100
AcDbBlockEnd
  0
ENDSEC
  0
SECTION
  2
ENTITIES
  0
LINE
  5
3A
100
AcDbEntity
  8
レイヤー_1
  6
CONTINUOUS
 62
       3
100
AcDbLine
 10
99.9469883
 20
-46.33531127
 30
0.0
 11
96.00490334
 21
-46.33531127
 31
0.0
  0
LINE
  5
3B
100
AcDbEntity
  8
レイヤー_1
  6
CONTINUOUS
 62
       3
100
AcDbLine
 10
-79.94032611
 20
-17.59101928
 30
0.0
 11
-79.94032611
 21
-10.5976477
 31
0.0
  0
LINE
  5
3C
100
AcDbEntity
  8
レイヤー_1
  6
CONTINUOUS
 62
       3
100
AcDbLine
 10
-79.94032611
 20
-10.5976477
 30
0.0
 11
-83.4359267
 21
-10.5976477
 31
0.0
  0
LINE
  5
3D
100
AcDbEntity
  8
レイヤー_1
  6
CONTINUOUS
 62
       3
100
AcDbLine
 10
-83.4359267
 20
-10.5976477
 30
0.0
 11
-83.4359267
 21
-17.59101928
 31
0.0
  0
LINE
  5
3E
100
AcDbEntity
  8
レイヤー_1
  6
CONTINUOUS
 62
       3
100
AcDbLine
 10
-68.45327533
 20
-13.59498413
 30
0.0
 11
-71.94887592
 21
-13.59498413
 31
0.0
  0
LINE
  5
3F
100
AcDbEntity
  8
レイヤー_1
  6
CONTINUOUS
 62
       3
100
AcDbLine
 10
-68.45327533
 20
-17.59101928
 30
0.0
 11
-68.45327533
 21
-10.5976477
 31
0.0
  0
LINE
  5
40
100
AcDbEntity
  8
レイヤー_1
  6
CONTINUOUS
 62
       3
100
AcDbLine
 10
-68.45327533
 20
-10.5976477
 30
0.0
 11
-71.94887592
 21
-10.5976477
 31
0.0
  0
LINE
  5
41
100
AcDbEntity
  8
レイヤー_1
  6
CONTINUOUS
 62
       3
100
AcDbLine
 10
-71.94887592
 20
-10.5976477
 30
0.0
 11
-71.94887592
 21
-17.59101928
 31
0.0
  0
LINE
  5
42
100
AcDbEntity
  8
レイヤー_1
  6
CONTINUOUS
 62
       3
100
AcDbLine
 10
-83.4359267
 20
-24.08426635
 30
0.0
 11
-79.93970599
 21
-24.08426635
 31
0.0
  0
LINE
  5
43
100
AcDbEntity
  8
レイヤー_1
  6
CONTINUOUS
 62
       3
100
AcDbLine
 10
-71.94887592
 20
-24.08426635
 30
0.0
 11
-68.45327533
 21
-24.08426635
 31
0.0
  0
LINE
  5
44
100
AcDbEntity
  8
レイヤー_1
  6
CONTINUOUS
 62
       3
100
AcDbLine
 10
-83.4359267
 20
-31.07763793
 30
0.0
 11
-79.94032611
 21
-31.07763793
 31
0.0
  0
LINE
  5
45
100
AcDbEntity
  8
レイヤー_1
  6
CONTINUOUS
 62
       3
100
AcDbLine
 10
-79.94032611
 20
-31.07763793
 30
0.0
 11
-79.94032611
 21
-19.58934692
 31
0.0
  0
LINE
  5
46
100
AcDbEntity
  8
レイヤー_1
  6
CONTINUOUS
 62
       3
100
AcDbLine
 10
-83.4359267
 20
-19.58934692
 30
0.0
 11
-83.4359267
 21
-31.07763793
 31
0.0
  0
LINE
  5
47
100
AcDbEntity
  8
レイヤー_1
  6
CONTINUOUS
 62
       3
100
AcDbLine
 10
-71.94887592
 20
-31.07763793
 30
0.0
 11
-68.45327533
 21
-31.07763793
 31
0.0
  0
LINE
  5
48
100
AcDbEntity
  8
レイヤー_1
  6
CONTINUOUS
 62
       3
100
AcDbLine
 10
-68.45327533
 20
-31.07763793
 30
0.0
 11
-68.45327533
 21
-19.58934692
 31
0.0
  0
LINE
  5
49
100
AcDbEntity
  8
レイヤー_1
  6
CONTINUOUS
 62
       3
100
AcDbLine
 10
-71.94887592
 20
-19.58934692
 30
0.0
 11
-71.94887592
 21
-31.07763793
 31
0.0
  0
LINE
  5
4A
100
AcDbEntity
  8
レイヤー_1
  6
CONTINUOUS
 62
       3
100
AcDbLine
 10
-85.43363421
 20
19.62190307
 30
0.0
 11
-66.45618793
 21
19.62190307
 31
0.0
  0
LINE
  5
4B
100
AcDbEntity
  8
レイヤー_1
  6
CONTINUOUS
 62
       3
100
AcDbLine
 10
-66.45618793
 20
19.62190307
 30
0.0
 11
-66.45618793
 21
23.11843383
 31
0.0
  0
LINE
  5
4C
100
AcDbEntity
  8
レイヤー_1
  6
CONTINUOUS
 62
       3
100
AcDbLine
 10
-66.45618793
 20
23.11843383
 30
0.0
 11
-85.43363421
 21
23.11843383
 31
0.0
  0
LINE
  5
4D
100
AcDbEntity
  8
レイヤー_1
  6
CONTINUOUS
 62
       3
100
AcDbLine
 10
-85.43363421
 20
23.11843383
 30
0.0
 11
-85.43363421
 21
19.62190307
 31
0.0
  0
LINE
  5
4E
100
AcDbEntity
  8
レイヤー_1
  6
CONTINUOUS
 62
       3
100
AcDbLine
 10
-94.42285296
 20
41.34987914
 30
0.0
 11
-83.43530658
 21
41.34987914
 31
0.0
  0
LINE
  5
4F
100
AcDbEntity
  8
レイヤー_1
  6
CONTINUOUS
 62
       3
100
AcDbLine
 10
-83.43530658
 20
41.34987914
 30
0.0
 11
-83.43530658
 21
45.84572875
 31
0.0
  0
LINE
  5
50
100
AcDbEntity
  8
レイヤー_1
  6
CONTINUOUS
 62
       3
100
AcDbLine
 10
-94.42285296
 20
45.84572875
 30
0.0
 11
-94.42285296
 21
41.34987914
 31
0.0
  0
LINE
  5
51
100
AcDbEntity
  8
レイヤー_1
  6
CONTINUOUS
 62
       3
100
AcDbLine
 10
-68.45327533
 20
41.34987914
 30
0.0
 11
-57.46572895
 21
41.34987914
 31
0.0
  0
LINE
  5
52
100
AcDbEntity
  8
レイヤー_1
  6
CONTINUOUS
 62
       3
100
AcDbLine
 10
-57.46572895
 20
41.34987914
 30
0.0
 11
-57.46572895
 21
45.84572875
 31
0.0
  0
LINE
  5
53
100
AcDbEntity
  8
レイヤー_1
  6
CONTINUOUS
 62
       3
100
AcDbLine
 10
-68.45327533
 20
45.84572875
 30
0.0
 11
-68.45327533
 21
41.34987914
 31
0.0
  0
LINE
  5
54
100
AcDbEntity
  8
レイヤー_1
  6
CONTINUOUS
 62
       3
100
AcDbLine
 10
-96.42056048
 20
-42.06642455
 30
0.0
 11
-96.42056048
 21
-19.58934692
 31
0.0
  0
LINE
  5
55
100
AcDbEntity
  8
レイヤー_1
  6
CONTINUOUS
 62
       3
100
AcDbLine
 10
-96.42056048
 20
-19.58934692
 30
0.0
 11
-55.46864155
 21
-19.58934692
 31
0.0
  0
LINE
  5
56
100
AcDbEntity
  8
レイヤー_1
  6
CONTINUOUS
 62
       3
100
AcDbLine
 10
-55.46864155
 20
-19.58934692
 30
0.0
 11
-55.46864155
 21
-42.06642455
 31
0.0
  0
LINE
  5
57
100
AcDbEntity
  8
レイヤー_1
  6
CONTINUOUS
 62
       3
100
AcDbLine
 10
-53.47093403
 20
33.35842895
 30
0.0
 11
-55.46864155
 21
33.35842895
 31
0.0
  0
LINE
  5
58
100
AcDbEntity
  8
レイヤー_1
  6
CONTINUOUS
 62
       3
100
AcDbLine
 10
-55.46864155
 20
33.35842895
 30
0.0
 11
-55.46864155
 21
45.84572875
 31
0.0
  0
LINE
  5
59
100
AcDbEntity
  8
レイヤー_1
  6
CONTINUOUS
 62
       3
100
AcDbLine
 10
-55.46864155
 20
45.84572875
 30
0.0
 11
-96.42056048
 21
45.84572875
 31
0.0
  0
LINE
  5
5A
100
AcDbEntity
  8
レイヤー_1
  6
CONTINUOUS
 62
       3
100
AcDbLine
 10
-96.42056048
 20
45.84572875
 30
0.0
 11
-96.42056048
 21
33.35842895
 31
0.0
  0
LINE
  5
5B
100
AcDbEntity
  8
レイヤー_1
  6
CONTINUOUS
 62
       3
100
AcDbLine
 10
-96.42056048
 20
33.35842895
 30
0.0
 11
-98.418268
 21
33.35842895
 31
0.0
  0
LINE
  5
5C
100
AcDbEntity
  8
レイヤー_1
  6
CONTINUOUS
 62
       3
100
AcDbLine
 10
-96.42056048
 20
-35.07367308
 30
0.0
 11
-55.46864155
 21
-35.07367308
 31
0.0
  0
LINE
  5
5D
100
AcDbEntity
  8
レイヤー_1
  6
CONTINUOUS
 62
       3
100
AcDbLine
 10
-96.42056048
 20
-36.07268187
 30
0.0
 11
-55.46864155
 21
-36.07268187
 31
0.0
  0
LINE
  5
5E
100
AcDbEntity
  8
レイヤー_1
  6
CONTINUOUS
 62
       3
100
AcDbLine
 10
-96.42056048
 20
-23.58476195
 30
0.0
 11
-98.418268
 21
-23.58476195
 31
0.0
  0
LINE
  5
5F
100
AcDbEntity
  8
レイヤー_1
  6
CONTINUOUS
 62
       3
100
AcDbLine
 10
-53.47093403
 20
-23.58476195
 30
0.0
 11
-55.46864155
 21
-23.58476195
 31
0.0
  0
LINE
  5
60
100
AcDbEntity
  8
レイヤー_1
  6
CONTINUOUS
 62
       3
100
AcDbLine
 10
-53.47093403
 20
-17.59101928
 30
0.0
 11
-96.42056048
 21
-17.59101928
 31
0.0
  0
LINE
  5
61
100
AcDbEntity
  8
レイヤー_1
  6
CONTINUOUS
 62
       3
100
AcDbLine
 10
-96.42056048
 20
-17.59101928
 30
0.0
 11
-96.42056048
 21
-14.59368286
 31
0.0
  0
LINE
  5
62
100
AcDbEntity
  8
レイヤー_1
  6
CONTINUOUS
 62
       3
100
AcDbLine
 10
-96.42056048
 20
-14.59368286
 30
0.0
 11
-98.418268
 21
-14.59368286
 31
0.0
  0
LINE
  5
63
100
AcDbEntity
  8
レイヤー_1
  6
CONTINUOUS
 62
       3
100
AcDbLine
 10
98.21128029
 20
-12.34885864
 30
0.0
 11
98.21128029
 21
-10.31580444
 31
0.0
  0
LINE
  5
64
100
AcDbEntity
  8
レイヤー_1
  6
CONTINUOUS
 62
       3
100
AcDbLine
 10
98.21128029
 20
-10.31580444
 30
0.0
 11
98.63792092
 21
-10.31580444
 31
0.0
  0
LINE
  5
65
100
AcDbEntity
  8
レイヤー_1
  6
CONTINUOUS
 62
       3
100
AcDbLine
 10
98.63792092
 20
-10.31580444
 30
0.0
 11
99.9469883
 21
-12.34885864
 31
0.0
  0
LINE
  5
66
100
AcDbEntity
  8
レイヤー_1
  6
CONTINUOUS
 62
       3
100
AcDbLine
 10
98.21128029
 20
23.12463501
 30
0.0
 11
98.21128029
 21
21.09127075
 31
0.0
  0
LINE
  5
67
100
AcDbEntity
  8
レイヤー_1
  6
CONTINUOUS
 62
       3
100
AcDbLine
 10
98.21128029
 20
21.09127075
 30
0.0
 11
98.63792092
 21
21.09127075
 31
0.0
  0
LINE
  5
68
100
AcDbEntity
  8
レイヤー_1
  6
CONTINUOUS
 62
       3
100
AcDbLine
 10
98.63792092
 20
21.09127075
 30
0.0
 11
99.9469883
 21
23.12463501
 31
0.0
  0
LINE
  5
69
100
AcDbEntity
  8
レイヤー_1
  6
CONTINUOUS
 62
       3
100
AcDbLine
 10
-69.9511684
 20
-13.59498413
 30
0.0
 11
-69.9511684
 21
-11.59696655
 31
0.0
  0
LINE
  5
6A
100
AcDbEntity
  8
レイヤー_1
  6
CONTINUOUS
 62
       3
100
AcDbLine
 10
-69.9511684
 20
-11.59696655
 30
0.0
 11
-71.94887592
 21
-11.59696655
 31
0.0
  0
LINE
  5
6B
100
AcDbEntity
  8
レイヤー_1
  6
CONTINUOUS
 62
       3
100
AcDbLine
 10
-79.93970599
 20
-11.59696655
 30
0.0
 11
-81.93741351
 21
-11.59696655
 31
0.0
  0
LINE
  5
6C
100
AcDbEntity
  8
レイヤー_1
  6
CONTINUOUS
 62
       3
100
AcDbLine
 10
-81.93741351
 20
-11.59696655
 30
0.0
 11
-81.93741351
 21
-13.59498413
 31
0.0
  0
LINE
  5
6D
100
AcDbEntity
  8
レイヤー_1
  6
CONTINUOUS
 62
       3
100
AcDbLine
 10
-91.67635394
 20
44.34690551
 30
0.0
 11
-86.18304584
 21
44.34690551
 31
0.0
  0
LINE
  5
6E
100
AcDbEntity
  8
レイヤー_1
  6
CONTINUOUS
 62
       3
100
AcDbLine
 10
-86.18304584
 20
44.34690551
 30
0.0
 11
-86.18304584
 21
45.84572875
 31
0.0
  0
LINE
  5
6F
100
AcDbEntity
  8
レイヤー_1
  6
CONTINUOUS
 62
       3
100
AcDbLine
 10
-91.67635394
 20
45.84572875
 30
0.0
 11
-91.67635394
 21
44.34690551
 31
0.0
  0
LINE
  5
70
100
AcDbEntity
  8
レイヤー_1
  6
CONTINUOUS
 62
       3
100
AcDbLine
 10
-65.70615619
 20
44.34690551
 30
0.0
 11
-60.21284809
 21
44.34690551
 31
0.0
  0
LINE
  5
71
100
AcDbEntity
  8
レイヤー_1
  6
CONTINUOUS
 62
       3
100
AcDbLine
 10
-60.21284809
 20
44.34690551
 30
0.0
 11
-60.21284809
 21
45.84572875
 31
0.0
  0
LINE
  5
72
100
AcDbEntity
  8
レイヤー_1
  6
CONTINUOUS
 62
       3
100
AcDbLine
 10
-65.70615619
 20
45.84572875
 30
0.0
 11
-65.70615619
 21
44.34690551
 31
0.0
  0
LINE
  5
73
100
AcDbEntity
  8
レイヤー_1
  6
CONTINUOUS
 62
       3
100
AcDbLine
 10
-83.4359267
 20
21.61961059
 30
0.0
 11
-68.45389545
 21
21.61961059
 31
0.0
  0
LINE
  5
74
100
AcDbEntity
  8
レイヤー_1
  6
CONTINUOUS
 62
       3
100
AcDbLine
 10
-68.45389545
 20
21.61961059
 30
0.0
 11
-68.45389545
 21
23.11843383
 31
0.0
  0
LINE
  5
75
100
AcDbEntity
  8
レイヤー_1
  6
CONTINUOUS
 62
       3
100
AcDbLine
 10
-83.4359267
 20
23.11843383
 30
0.0
 11
-83.4359267
 21
21.61961059
 31
0.0
  0
LINE
  5
76
100
AcDbEntity
  8
レイヤー_1
  6
CONTINUOUS
 62
       3
100
AcDbLine
 10
-87.93053607
 20
-17.59101928
 30
0.0
 11
-87.93053607
 21
-12.09616088
 31
0.0
  0
LINE
  5
77
100
AcDbEntity
  8
レイヤー_1
  6
CONTINUOUS
 62
       3
100
AcDbLine
 10
-87.93053607
 20
-12.09616088
 30
0.0
 11
-89.92824359
 21
-12.09616088
 31
0.0
  0
LINE
  5
78
100
AcDbEntity
  8
レイヤー_1
  6
CONTINUOUS
 62
       3
100
AcDbLine
 10
-89.92824359
 20
-12.09616088
 30
0.0
 11
-89.92824359
 21
-17.59101928
 31
0.0
  0
LINE
  5
79
100
AcDbEntity
  8
レイヤー_1
  6
CONTINUOUS
 62
       3
100
AcDbLine
 10
-79.93970599
 20
-13.59498413
 30
0.0
 11
-83.4359267
 21
-13.59498413
 31
0.0
  0
LINE
  5
7A
100
AcDbEntity
  8
レイヤー_1
  6
CONTINUOUS
 62
       3
100
AcDbLine
 10
-81.70362933
 20
-42.22455443
 30
0.0
 11
-81.70362933
 21
-42.25451092
 31
0.0
  0
LINE
  5
7B
100
AcDbEntity
  8
レイヤー_1
  6
CONTINUOUS
 62
       3
100
AcDbLine
 10
-81.70362933
 20
-42.25451092
 30
0.0
 11
-81.70362933
 21
-42.33925416
 31
0.0
  0
LINE
  5
7C
100
AcDbEntity
  8
レイヤー_1
  6
CONTINUOUS
 62
       3
100
AcDbLine
 10
-81.70362933
 20
-42.33925416
 30
0.0
 11
-81.70362933
 21
-42.47109477
 31
0.0
  0
LINE
  5
7D
100
AcDbEntity
  8
レイヤー_1
  6
CONTINUOUS
 62
       3
100
AcDbLine
 10
-81.70362933
 20
-42.47109477
 30
0.0
 11
-81.70362933
 21
-42.64234339
 31
0.0
  0
LINE
  5
7E
100
AcDbEntity
  8
レイヤー_1
  6
CONTINUOUS
 62
       3
100
AcDbLine
 10
-81.70362933
 20
-42.64234339
 30
0.0
 11
-81.70362933
 21
-42.84531065
 31
0.0
  0
LINE
  5
7F
100
AcDbEntity
  8
レイヤー_1
  6
CONTINUOUS
 62
       3
100
AcDbLine
 10
-81.70362933
 20
-42.84531065
 30
0.0
 11
-81.70362933
 21
-43.07230718
 31
0.0
  0
LINE
  5
80
100
AcDbEntity
  8
レイヤー_1
  6
CONTINUOUS
 62
       3
100
AcDbLine
 10
-81.70362933
 20
-43.07230718
 30
0.0
 11
-81.70362933
 21
-43.31564361
 31
0.0
  0
LINE
  5
81
100
AcDbEntity
  8
レイヤー_1
  6
CONTINUOUS
 62
       3
100
AcDbLine
 10
-81.70362933
 20
-43.31564361
 30
0.0
 11
-81.70362933
 21
-43.56763059
 31
0.0
  0
LINE
  5
82
100
AcDbEntity
  8
レイヤー_1
  6
CONTINUOUS
 62
       3
100
AcDbLine
 10
-81.70362933
 20
-43.56763059
 30
0.0
 11
-81.70362933
 21
-43.82057873
 31
0.0
  0
LINE
  5
83
100
AcDbEntity
  8
レイヤー_1
  6
CONTINUOUS
 62
       3
100
AcDbLine
 10
-81.70362933
 20
-43.82057873
 30
0.0
 11
-81.70362933
 21
-44.06679868
 31
0.0
  0
LINE
  5
84
100
AcDbEntity
  8
レイヤー_1
  6
CONTINUOUS
 62
       3
100
AcDbLine
 10
-81.70362933
 20
-44.06679868
 30
0.0
 11
-81.70362933
 21
-44.29860107
 31
0.0
  0
LINE
  5
85
100
AcDbEntity
  8
レイヤー_1
  6
CONTINUOUS
 62
       3
100
AcDbLine
 10
-81.70362933
 20
-44.29860107
 30
0.0
 11
-81.70362933
 21
-44.50829652
 31
0.0
  0
LINE
  5
86
100
AcDbEntity
  8
レイヤー_1
  6
CONTINUOUS
 62
       3
100
AcDbLine
 10
-81.70362933
 20
-44.50829652
 30
0.0
 11
-81.70362933
 21
-44.68819568
 31
0.0
  0
LINE
  5
87
100
AcDbEntity
  8
レイヤー_1
  6
CONTINUOUS
 62
       3
100
AcDbLine
 10
-81.70362933
 20
-44.68819568
 30
0.0
 11
-81.70362933
 21
-44.83060917
 31
0.0
  0
LINE
  5
88
100
AcDbEntity
  8
レイヤー_1
  6
CONTINUOUS
 62
       3
100
AcDbLine
 10
-81.70362933
 20
-44.83060917
 30
0.0
 11
-81.70362933
 21
-44.92784763
 31
0.0
  0
LINE
  5
89
100
AcDbEntity
  8
レイヤー_1
  6
CONTINUOUS
 62
       3
100
AcDbLine
 10
-81.70362933
 20
-44.92784763
 30
0.0
 11
-81.70362933
 21
-44.97222169
 31
0.0
  0
LINE
  5
8A
100
AcDbEntity
  8
レイヤー_1
  6
CONTINUOUS
 62
       3
100
AcDbLine
 10
-70.21657855
 20
-44.97227746
 30
0.0
 11
-70.21657855
 21
-44.92918438
 31
0.0
  0
LINE
  5
8B
100
AcDbEntity
  8
レイヤー_1
  6
CONTINUOUS
 62
       3
100
AcDbLine
 10
-70.21657855
 20
-44.92918438
 30
0.0
 11
-70.21657855
 21
-44.83475299
 31
0.0
  0
LINE
  5
8C
100
AcDbEntity
  8
レイヤー_1
  6
CONTINUOUS
 62
       3
100
AcDbLine
 10
-70.21657855
 20
-44.83475299
 30
0.0
 11
-70.21657855
 21
-44.69645067
 31
0.0
  0
LINE
  5
8D
100
AcDbEntity
  8
レイヤー_1
  6
CONTINUOUS
 62
       3
100
AcDbLine
 10
-70.21657855
 20
-44.69645067
 30
0.0
 11
-70.21657855
 21
-44.52174481
 31
0.0
  0
LINE
  5
8E
100
AcDbEntity
  8
レイヤー_1
  6
CONTINUOUS
 62
       3
100
AcDbLine
 10
-70.21657855
 20
-44.52174481
 30
0.0
 11
-70.21657855
 21
-44.31810281
 31
0.0
  0
LINE
  5
8F
100
AcDbEntity
  8
レイヤー_1
  6
CONTINUOUS
 62
       3
100
AcDbLine
 10
-70.21657855
 20
-44.31810281
 30
0.0
 11
-70.21657855
 21
-44.09299206
 31
0.0
  0
LINE
  5
90
100
AcDbEntity
  8
レイヤー_1
  6
CONTINUOUS
 62
       3
100
AcDbLine
 10
-70.21657855
 20
-44.09299206
 30
0.0
 11
-70.21657855
 21
-43.85387995
 31
0.0
  0
LINE
  5
91
100
AcDbEntity
  8
レイヤー_1
  6
CONTINUOUS
 62
       3
100
AcDbLine
 10
-70.21657855
 20
-43.85387995
 30
0.0
 11
-70.21657855
 21
-43.60823387
 31
0.0
  0
LINE
  5
92
100
AcDbEntity
  8
レイヤー_1
  6
CONTINUOUS
 62
       3
100
AcDbLine
 10
-70.21657855
 20
-43.60823387
 30
0.0
 11
-70.21657855
 21
-43.36352122
 31
0.0
  0
LINE
  5
93
100
AcDbEntity
  8
レイヤー_1
  6
CONTINUOUS
 62
       3
100
AcDbLine
 10
-70.21657855
 20
-43.36352122
 30
0.0
 11
-70.21657855
 21
-43.12720938
 31
0.0
  0
LINE
  5
94
100
AcDbEntity
  8
レイヤー_1
  6
CONTINUOUS
 62
       3
100
AcDbLine
 10
-70.21657855
 20
-43.12720938
 30
0.0
 11
-70.21657855
 21
-42.90676575
 31
0.0
  0
LINE
  5
95
100
AcDbEntity
  8
レイヤー_1
  6
CONTINUOUS
 62
       3
100
AcDbLine
 10
-70.21657855
 20
-42.90676575
 30
0.0
 11
-70.21657855
 21
-42.70965771
 31
0.0
  0
LINE
  5
96
100
AcDbEntity
  8
レイヤー_1
  6
CONTINUOUS
 62
       3
100
AcDbLine
 10
-70.21657855
 20
-42.70965771
 30
0.0
 11
-70.21657855
 21
-42.54335267
 31
0.0
  0
LINE
  5
97
100
AcDbEntity
  8
レイヤー_1
  6
CONTINUOUS
 62
       3
100
AcDbLine
 10
-70.21657855
 20
-42.54335267
 30
0.0
 11
-70.21657855
 21
-42.41531802
 31
0.0
  0
LINE
  5
98
100
AcDbEntity
  8
レイヤー_1
  6
CONTINUOUS
 62
       3
100
AcDbLine
 10
-70.21657855
 20
-42.41531802
 30
0.0
 11
-70.21657855
 21
-42.33302113
 31
0.0
  0
LINE
  5
99
100
AcDbEntity
  8
レイヤー_1
  6
CONTINUOUS
 62
       3
100
AcDbLine
 10
-70.21657855
 20
-42.33302113
 30
0.0
 11
-70.21657855
 21
-42.30392942
 31
0.0
  0
LINE
  5
9A
100
AcDbEntity
  8
レイヤー_1
  6
CONTINUOUS
 62
       3
100
AcDbLine
 10
-83.14323138
 20
-42.37278348
 30
0.0
 11
-83.14323138
 21
-42.41279641
 31
0.0
  0
LINE
  5
9B
100
AcDbEntity
  8
レイヤー_1
  6
CONTINUOUS
 62
       3
100
AcDbLine
 10
-83.14323138
 20
-42.41279641
 30
0.0
 11
-83.14323138
 21
-42.52598807
 31
0.0
  0
LINE
  5
9C
100
AcDbEntity
  8
レイヤー_1
  6
CONTINUOUS
 62
       3
100
AcDbLine
 10
-83.14323138
 20
-42.52598807
 30
0.0
 11
-83.14323138
 21
-42.70208776
 31
0.0
  0
LINE
  5
9D
100
AcDbEntity
  8
レイヤー_1
  6
CONTINUOUS
 62
       3
100
AcDbLine
 10
-83.14323138
 20
-42.70208776
 30
0.0
 11
-83.14323138
 21
-42.93082478
 31
0.0
  0
LINE
  5
9E
100
AcDbEntity
  8
レイヤー_1
  6
CONTINUOUS
 62
       3
100
AcDbLine
 10
-83.14323138
 20
-42.93082478
 30
0.0
 11
-83.14323138
 21
-43.20192843
 31
0.0
  0
LINE
  5
9F
100
AcDbEntity
  8
レイヤー_1
  6
CONTINUOUS
 62
       3
100
AcDbLine
 10
-83.14323138
 20
-43.20192843
 30
0.0
 11
-83.14323138
 21
-43.50512801
 31
0.0
  0
LINE
  5
A0
100
AcDbEntity
  8
レイヤー_1
  6
CONTINUOUS
 62
       3
100
AcDbLine
 10
-83.14323138
 20
-43.50512801
 30
0.0
 11
-83.14323138
 21
-43.83015283
 31
0.0
  0
LINE
  5
A1
100
AcDbEntity
  8
レイヤー_1
  6
CONTINUOUS
 62
       3
100
AcDbLine
 10
-83.14323138
 20
-43.83015283
 30
0.0
 11
-83.14323138
 21
-44.16673218
 31
0.0
  0
LINE
  5
A2
100
AcDbEntity
  8
レイヤー_1
  6
CONTINUOUS
 62
       3
100
AcDbLine
 10
-83.14323138
 20
-44.16673218
 30
0.0
 11
-83.14323138
 21
-44.50459537
 31
0.0
  0
LINE
  5
A3
100
AcDbEntity
  8
レイヤー_1
  6
CONTINUOUS
 62
       3
100
AcDbLine
 10
-83.14323138
 20
-44.50459537
 30
0.0
 11
-83.14323138
 21
-44.83347171
 31
0.0
  0
LINE
  5
A4
100
AcDbEntity
  8
レイヤー_1
  6
CONTINUOUS
 62
       3
100
AcDbLine
 10
-83.14323138
 20
-44.83347171
 30
0.0
 11
-83.14323138
 21
-45.14309048
 31
0.0
  0
LINE
  5
A5
100
AcDbEntity
  8
レイヤー_1
  6
CONTINUOUS
 62
       3
100
AcDbLine
 10
-83.14323138
 20
-45.14309048
 30
0.0
 11
-83.14323138
 21
-45.42318099
 31
0.0
  0
LINE
  5
A6
100
AcDbEntity
  8
レイヤー_1
  6
CONTINUOUS
 62
       3
100
AcDbLine
 10
-83.14323138
 20
-45.42318099
 30
0.0
 11
-83.14323138
 21
-45.66347254
 31
0.0
  0
LINE
  5
A7
100
AcDbEntity
  8
レイヤー_1
  6
CONTINUOUS
 62
       3
100
AcDbLine
 10
-83.14323138
 20
-45.66347254
 30
0.0
 11
-83.14323138
 21
-45.85369444
 31
0.0
  0
LINE
  5
A8
100
AcDbEntity
  8
レイヤー_1
  6
CONTINUOUS
 62
       3
100
AcDbLine
 10
-83.14323138
 20
-45.85369444
 30
0.0
 11
-83.14323138
 21
-45.98357598
 31
0.0
  0
LINE
  5
A9
100
AcDbEntity
  8
レイヤー_1
  6
CONTINUOUS
 62
       3
100
AcDbLine
 10
-83.14323138
 20
-45.98357598
 30
0.0
 11
-83.14323138
 21
-46.04284647
 31
0.0
  0
LINE
  5
AA
100
AcDbEntity
  8
レイヤー_1
  6
CONTINUOUS
 62
       3
100
AcDbLine
 10
-68.7769765
 20
-46.04290226
 30
0.0
 11
-68.7769765
 21
-45.98491275
 31
0.0
  0
LINE
  5
AB
100
AcDbEntity
  8
レイヤー_1
  6
CONTINUOUS
 62
       3
100
AcDbLine
 10
-68.7769765
 20
-45.98491275
 30
0.0
 11
-68.7769765
 21
-45.85783827
 31
0.0
  0
LINE
  5
AC
100
AcDbEntity
  8
レイヤー_1
  6
CONTINUOUS
 62
       3
100
AcDbLine
 10
-68.7769765
 20
-45.85783827
 30
0.0
 11
-68.7769765
 21
-45.67172754
 31
0.0
  0
LINE
  5
AD
100
AcDbEntity
  8
レイヤー_1
  6
CONTINUOUS
 62
       3
100
AcDbLine
 10
-68.7769765
 20
-45.67172754
 30
0.0
 11
-68.7769765
 21
-45.43662929
 31
0.0
  0
LINE
  5
AE
100
AcDbEntity
  8
レイヤー_1
  6
CONTINUOUS
 62
       3
100
AcDbLine
 10
-68.7769765
 20
-45.43662929
 30
0.0
 11
-68.7769765
 21
-45.16259223
 31
0.0
  0
LINE
  5
AF
100
AcDbEntity
  8
レイヤー_1
  6
CONTINUOUS
 62
       3
100
AcDbLine
 10
-68.7769765
 20
-45.16259223
 30
0.0
 11
-68.7769765
 21
-44.85966509
 31
0.0
  0
LINE
  5
B0
100
AcDbEntity
  8
レイヤー_1
  6
CONTINUOUS
 62
       3
100
AcDbLine
 10
-68.7769765
 20
-44.85966509
 30
0.0
 11
-68.7769765
 21
-44.5378966
 31
0.0
  0
LINE
  5
B1
100
AcDbEntity
  8
レイヤー_1
  6
CONTINUOUS
 62
       3
100
AcDbLine
 10
-68.7769765
 20
-44.5378966
 30
0.0
 11
-68.7769765
 21
-44.20733548
 31
0.0
  0
LINE
  5
B2
100
AcDbEntity
  8
レイヤー_1
  6
CONTINUOUS
 62
       3
100
AcDbLine
 10
-68.7769765
 20
-44.20733548
 30
0.0
 11
-68.7769765
 21
-43.87803044
 31
0.0
  0
LINE
  5
B3
100
AcDbEntity
  8
レイヤー_1
  6
CONTINUOUS
 62
       3
100
AcDbLine
 10
-68.7769765
 20
-43.87803044
 30
0.0
 11
-68.7769765
 21
-43.56003022
 31
0.0
  0
LINE
  5
B4
100
AcDbEntity
  8
レイヤー_1
  6
CONTINUOUS
 62
       3
100
AcDbLine
 10
-68.7769765
 20
-43.56003022
 30
0.0
 11
-68.7769765
 21
-43.26338354
 31
0.0
  0
LINE
  5
B5
100
AcDbEntity
  8
レイヤー_1
  6
CONTINUOUS
 62
       3
100
AcDbLine
 10
-68.7769765
 20
-43.26338354
 30
0.0
 11
-68.7769765
 21
-42.99813911
 31
0.0
  0
LINE
  5
B6
100
AcDbEntity
  8
レイヤー_1
  6
CONTINUOUS
 62
       3
100
AcDbLine
 10
-68.7769765
 20
-42.99813911
 30
0.0
 11
-68.7769765
 21
-42.77434567
 31
0.0
  0
LINE
  5
B7
100
AcDbEntity
  8
レイヤー_1
  6
CONTINUOUS
 62
       3
100
AcDbLine
 10
-68.7769765
 20
-42.77434567
 30
0.0
 11
-68.7769765
 21
-42.60205194
 31
0.0
  0
LINE
  5
B8
100
AcDbEntity
  8
レイヤー_1
  6
CONTINUOUS
 62
       3
100
AcDbLine
 10
-68.7769765
 20
-42.60205194
 30
0.0
 11
-68.7769765
 21
-42.49130663
 31
0.0
  0
LINE
  5
B9
100
AcDbEntity
  8
レイヤー_1
  6
CONTINUOUS
 62
       3
100
AcDbLine
 10
-68.7769765
 20
-42.49130663
 30
0.0
 11
-68.7769765
 21
-42.45215848
 31
0.0
  0
LINE
  5
BA
100
AcDbEntity
  8
レイヤー_1
  6
CONTINUOUS
 62
       3
100
AcDbLine
 10
-62.95965717
 20
-15.19302612
 30
0.0
 11
-62.65795629
 21
-15.17802368
 31
0.0
  0
LINE
  5
BB
100
AcDbEntity
  8
レイヤー_1
  6
CONTINUOUS
 62
       3
100
AcDbLine
 10
-62.65795629
 20
-15.17802368
 30
0.0
 11
-62.36480904
 21
-15.13397509
 31
0.0
  0
LINE
  5
BC
100
AcDbEntity
  8
レイヤー_1
  6
CONTINUOUS
 62
       3
100
AcDbLine
 10
-62.36480904
 20
-15.13397509
 30
0.0
 11
-62.08165351
 21
-15.06231842
 31
0.0
  0
LINE
  5
BD
100
AcDbEntity
  8
レイヤー_1
  6
CONTINUOUS
 62
       3
100
AcDbLine
 10
-62.08165351
 20
-15.06231842
 30
0.0
 11
-61.80992776
 21
-14.96449173
 31
0.0
  0
LINE
  5
BE
100
AcDbEntity
  8
レイヤー_1
  6
CONTINUOUS
 62
       3
100
AcDbLine
 10
-61.80992776
 20
-14.96449173
 30
0.0
 11
-61.55106987
 21
-14.8419331
 31
0.0
  0
LINE
  5
BF
100
AcDbEntity
  8
レイヤー_1
  6
CONTINUOUS
 62
       3
100
AcDbLine
 10
-61.55106987
 20
-14.8419331
 30
0.0
 11
-61.3065179
 21
-14.69608059
 31
0.0
  0
LINE
  5
C0
100
AcDbEntity
  8
レイヤー_1
  6
CONTINUOUS
 62
       3
100
AcDbLine
 10
-61.3065179
 20
-14.69608059
 30
0.0
 11
-61.07770993
 21
-14.52837229
 31
0.0
  0
LINE
  5
C1
100
AcDbEntity
  8
レイヤー_1
  6
CONTINUOUS
 62
       3
100
AcDbLine
 10
-61.07770993
 20
-14.52837229
 30
0.0
 11
-60.86608403
 21
-14.34024626
 31
0.0
  0
LINE
  5
C2
100
AcDbEntity
  8
レイヤー_1
  6
CONTINUOUS
 62
       3
100
AcDbLine
 10
-60.86608403
 20
-14.34024626
 30
0.0
 11
-60.67307826
 21
-14.13314058
 31
0.0
  0
LINE
  5
C3
100
AcDbEntity
  8
レイヤー_1
  6
CONTINUOUS
 62
       3
100
AcDbLine
 10
-60.67307826
 20
-14.13314058
 30
0.0
 11
-60.50013071
 21
-13.9084933
 31
0.0
  0
LINE
  5
C4
100
AcDbEntity
  8
レイヤー_1
  6
CONTINUOUS
 62
       3
100
AcDbLine
 10
-60.50013071
 20
-13.9084933
 30
0.0
 11
-60.34867944
 21
-13.66774251
 31
0.0
  0
LINE
  5
C5
100
AcDbEntity
  8
レイヤー_1
  6
CONTINUOUS
 62
       3
100
AcDbLine
 10
-60.34867944
 20
-13.66774251
 30
0.0
 11
-60.22016252
 21
-13.41232628
 31
0.0
  0
LINE
  5
C6
100
AcDbEntity
  8
レイヤー_1
  6
CONTINUOUS
 62
       3
100
AcDbLine
 10
-60.22016252
 20
-13.41232628
 30
0.0
 11
-60.11601803
 21
-13.14368268
 31
0.0
  0
LINE
  5
C7
100
AcDbEntity
  8
レイヤー_1
  6
CONTINUOUS
 62
       3
100
AcDbLine
 10
-60.11601803
 20
-13.14368268
 30
0.0
 11
-60.03768403
 21
-12.86324978
 31
0.0
  0
LINE
  5
C8
100
AcDbEntity
  8
レイヤー_1
  6
CONTINUOUS
 62
       3
100
AcDbLine
 10
-60.03768403
 20
-12.86324978
 30
0.0
 11
-59.9865986
 21
-12.57246564
 31
0.0
  0
LINE
  5
C9
100
AcDbEntity
  8
レイヤー_1
  6
CONTINUOUS
 62
       3
100
AcDbLine
 10
-59.9865986
 20
-12.57246564
 30
0.0
 11
-59.96419981
 21
-12.27276835
 31
0.0
  0
LINE
  5
CA
100
AcDbEntity
  8
レイヤー_1
  6
CONTINUOUS
 62
       3
100
AcDbLine
 10
-59.96419981
 20
-12.27276835
 30
0.0
 11
-59.97172349
 21
-11.96951459
 31
0.0
  0
LINE
  5
CB
100
AcDbEntity
  8
レイヤー_1
  6
CONTINUOUS
 62
       3
100
AcDbLine
 10
-59.97172349
 20
-11.96951459
 30
0.0
 11
-60.00864537
 21
-11.67398845
 31
0.0
  0
LINE
  5
CC
100
AcDbEntity
  8
レイヤー_1
  6
CONTINUOUS
 62
       3
100
AcDbLine
 10
-60.00864537
 20
-11.67398845
 30
0.0
 11
-60.07353484
 21
-11.38810154
 31
0.0
  0
LINE
  5
CD
100
AcDbEntity
  8
レイヤー_1
  6
CONTINUOUS
 62
       3
100
AcDbLine
 10
-60.07353484
 20
-11.38810154
 30
0.0
 11
-60.16495384
 21
-11.11329194
 31
0.0
  0
LINE
  5
CE
100
AcDbEntity
  8
レイヤー_1
  6
CONTINUOUS
 62
       3
100
AcDbLine
 10
-60.16495384
 20
-11.11329194
 30
0.0
 11
-60.28146431
 21
-10.85099772
 31
0.0
  0
LINE
  5
CF
100
AcDbEntity
  8
レイヤー_1
  6
CONTINUOUS
 62
       3
100
AcDbLine
 10
-60.28146431
 20
-10.85099772
 30
0.0
 11
-60.42162816
 21
-10.60265695
 31
0.0
  0
LINE
  5
D0
100
AcDbEntity
  8
レイヤー_1
  6
CONTINUOUS
 62
       3
100
AcDbLine
 10
-60.42162816
 20
-10.60265695
 30
0.0
 11
-60.58400733
 21
-10.36970771
 31
0.0
  0
LINE
  5
D1
100
AcDbEntity
  8
レイヤー_1
  6
CONTINUOUS
 62
       3
100
AcDbLine
 10
-60.58400733
 20
-10.36970771
 30
0.0
 11
-60.76716375
 21
-10.15358807
 31
0.0
  0
LINE
  5
D2
100
AcDbEntity
  8
レイヤー_1
  6
CONTINUOUS
 62
       3
100
AcDbLine
 10
-60.76716375
 20
-10.15358807
 30
0.0
 11
-60.96965934
 21
-9.95573609
 31
0.0
  0
LINE
  5
D3
100
AcDbEntity
  8
レイヤー_1
  6
CONTINUOUS
 62
       3
100
AcDbLine
 10
-60.96965934
 20
-9.95573609
 30
0.0
 11
-61.19005604
 21
-9.77758985
 31
0.0
  0
LINE
  5
D4
100
AcDbEntity
  8
レイヤー_1
  6
CONTINUOUS
 62
       3
100
AcDbLine
 10
-61.19005604
 20
-9.77758985
 30
0.0
 11
-61.42691577
 21
-9.62058742
 31
0.0
  0
LINE
  5
D5
100
AcDbEntity
  8
レイヤー_1
  6
CONTINUOUS
 62
       3
100
AcDbLine
 10
-61.42691577
 20
-9.62058742
 30
0.0
 11
-61.67880046
 21
-9.48616687
 31
0.0
  0
LINE
  5
D6
100
AcDbEntity
  8
レイヤー_1
  6
CONTINUOUS
 62
       3
100
AcDbLine
 10
-61.67880046
 20
-9.48616687
 30
0.0
 11
-61.94427203
 21
-9.37576627
 31
0.0
  0
LINE
  5
D7
100
AcDbEntity
  8
レイヤー_1
  6
CONTINUOUS
 62
       3
100
AcDbLine
 10
-61.94427203
 20
-9.37576627
 30
0.0
 11
-62.22189243
 21
-9.29082369
 31
0.0
  0
LINE
  5
D8
100
AcDbEntity
  8
レイヤー_1
  6
CONTINUOUS
 62
       3
100
AcDbLine
 10
-62.22189243
 20
-9.29082369
 30
0.0
 11
-62.51022358
 21
-9.23277721
 31
0.0
  0
LINE
  5
D9
100
AcDbEntity
  8
レイヤー_1
  6
CONTINUOUS
 62
       3
100
AcDbLine
 10
-62.51022358
 20
-9.23277721
 30
0.0
 11
-62.8078274
 21
-9.20306489
 31
0.0
  0
LINE
  5
DA
100
AcDbEntity
  8
レイヤー_1
  6
CONTINUOUS
 62
       3
100
AcDbLine
 10
-62.8078274
 20
-9.20306489
 30
0.0
 11
-63.11151469
 21
-9.20306489
 31
0.0
  0
LINE
  5
DB
100
AcDbEntity
  8
レイヤー_1
  6
CONTINUOUS
 62
       3
100
AcDbLine
 10
-63.11151469
 20
-9.20306489
 30
0.0
 11
-63.40916894
 21
-9.23277721
 31
0.0
  0
LINE
  5
DC
100
AcDbEntity
  8
レイヤー_1
  6
CONTINUOUS
 62
       3
100
AcDbLine
 10
-63.40916894
 20
-9.23277721
 30
0.0
 11
-63.69754412
 21
-9.29082369
 31
0.0
  0
LINE
  5
DD
100
AcDbEntity
  8
レイヤー_1
  6
CONTINUOUS
 62
       3
100
AcDbLine
 10
-63.69754412
 20
-9.29082369
 30
0.0
 11
-63.9752026
 21
-9.37576627
 31
0.0
  0
LINE
  5
DE
100
AcDbEntity
  8
レイヤー_1
  6
CONTINUOUS
 62
       3
100
AcDbLine
 10
-63.9752026
 20
-9.37576627
 30
0.0
 11
-64.24070672
 21
-9.48616687
 31
0.0
  0
LINE
  5
DF
100
AcDbEntity
  8
レイヤー_1
  6
CONTINUOUS
 62
       3
100
AcDbLine
 10
-64.24070672
 20
-9.48616687
 30
0.0
 11
-64.49261887
 21
-9.62058742
 31
0.0
  0
LINE
  5
E0
100
AcDbEntity
  8
レイヤー_1
  6
CONTINUOUS
 62
       3
100
AcDbLine
 10
-64.49261887
 20
-9.62058742
 30
0.0
 11
-64.72950139
 21
-9.77758985
 31
0.0
  0
LINE
  5
E1
100
AcDbEntity
  8
レイヤー_1
  6
CONTINUOUS
 62
       3
100
AcDbLine
 10
-64.72950139
 20
-9.77758985
 30
0.0
 11
-64.94991665
 21
-9.95573609
 31
0.0
  0
LINE
  5
E2
100
AcDbEntity
  8
レイヤー_1
  6
CONTINUOUS
 62
       3
100
AcDbLine
 10
-64.94991665
 20
-9.95573609
 30
0.0
 11
-65.15242701
 21
-10.15358807
 31
0.0
  0
LINE
  5
E3
100
AcDbEntity
  8
レイヤー_1
  6
CONTINUOUS
 62
       3
100
AcDbLine
 10
-65.15242701
 20
-10.15358807
 30
0.0
 11
-65.33559484
 21
-10.36970771
 31
0.0
  0
LINE
  5
E4
100
AcDbEntity
  8
レイヤー_1
  6
CONTINUOUS
 62
       3
100
AcDbLine
 10
-65.33559484
 20
-10.36970771
 30
0.0
 11
-65.4979825
 21
-10.60265695
 31
0.0
  0
LINE
  5
E5
100
AcDbEntity
  8
レイヤー_1
  6
CONTINUOUS
 62
       3
100
AcDbLine
 10
-65.4979825
 20
-10.60265695
 30
0.0
 11
-65.63815235
 21
-10.85099772
 31
0.0
  0
LINE
  5
E6
100
AcDbEntity
  8
レイヤー_1
  6
CONTINUOUS
 62
       3
100
AcDbLine
 10
-65.63815235
 20
-10.85099772
 30
0.0
 11
-65.75466674
 21
-11.11329194
 31
0.0
  0
LINE
  5
E7
100
AcDbEntity
  8
レイヤー_1
  6
CONTINUOUS
 62
       3
100
AcDbLine
 10
-65.75466674
 20
-11.11329194
 30
0.0
 11
-65.84608806
 21
-11.38810154
 31
0.0
  0
LINE
  5
E8
100
AcDbEntity
  8
レイヤー_1
  6
CONTINUOUS
 62
       3
100
AcDbLine
 10
-65.84608806
 20
-11.38810154
 30
0.0
 11
-65.91097864
 21
-11.67398845
 31
0.0
  0
LINE
  5
E9
100
AcDbEntity
  8
レイヤー_1
  6
CONTINUOUS
 62
       3
100
AcDbLine
 10
-65.91097864
 20
-11.67398845
 30
0.0
 11
-65.94790087
 21
-11.96951459
 31
0.0
  0
LINE
  5
EA
100
AcDbEntity
  8
レイヤー_1
  6
CONTINUOUS
 62
       3
100
AcDbLine
 10
-65.94790087
 20
-11.96951459
 30
0.0
 11
-65.95542459
 21
-12.27276835
 31
0.0
  0
LINE
  5
EB
100
AcDbEntity
  8
レイヤー_1
  6
CONTINUOUS
 62
       3
100
AcDbLine
 10
-65.95542459
 20
-12.27276835
 30
0.0
 11
-65.93302566
 21
-12.57246564
 31
0.0
  0
LINE
  5
EC
100
AcDbEntity
  8
レイヤー_1
  6
CONTINUOUS
 62
       3
100
AcDbLine
 10
-65.93302566
 20
-12.57246564
 30
0.0
 11
-65.88193954
 21
-12.86324978
 31
0.0
  0
LINE
  5
ED
100
AcDbEntity
  8
レイヤー_1
  6
CONTINUOUS
 62
       3
100
AcDbLine
 10
-65.88193954
 20
-12.86324978
 30
0.0
 11
-65.80360389
 21
-13.14368268
 31
0.0
  0
LINE
  5
EE
100
AcDbEntity
  8
レイヤー_1
  6
CONTINUOUS
 62
       3
100
AcDbLine
 10
-65.80360389
 20
-13.14368268
 30
0.0
 11
-65.69945633
 21
-13.41232628
 31
0.0
  0
LINE
  5
EF
100
AcDbEntity
  8
レイヤー_1
  6
CONTINUOUS
 62
       3
100
AcDbLine
 10
-65.69945633
 20
-13.41232628
 30
0.0
 11
-65.5709345
 21
-13.66774251
 31
0.0
  0
LINE
  5
F0
100
AcDbEntity
  8
レイヤー_1
  6
CONTINUOUS
 62
       3
100
AcDbLine
 10
-65.5709345
 20
-13.66774251
 30
0.0
 11
-65.41947604
 21
-13.9084933
 31
0.0
  0
LINE
  5
F1
100
AcDbEntity
  8
レイヤー_1
  6
CONTINUOUS
 62
       3
100
AcDbLine
 10
-65.41947604
 20
-13.9084933
 30
0.0
 11
-65.2465186
 21
-14.13314058
 31
0.0
  0
LINE
  5
F2
100
AcDbEntity
  8
レイヤー_1
  6
CONTINUOUS
 62
       3
100
AcDbLine
 10
-65.2465186
 20
-14.13314058
 30
0.0
 11
-65.0534998
 21
-14.34024626
 31
0.0
  0
LINE
  5
F3
100
AcDbEntity
  8
レイヤー_1
  6
CONTINUOUS
 62
       3
100
AcDbLine
 10
-65.0534998
 20
-14.34024626
 30
0.0
 11
-64.84185728
 21
-14.52837229
 31
0.0
  0
LINE
  5
F4
100
AcDbEntity
  8
レイヤー_1
  6
CONTINUOUS
 62
       3
100
AcDbLine
 10
-64.84185728
 20
-14.52837229
 30
0.0
 11
-64.61302868
 21
-14.69608059
 31
0.0
  0
LINE
  5
F5
100
AcDbEntity
  8
レイヤー_1
  6
CONTINUOUS
 62
       3
100
AcDbLine
 10
-64.61302868
 20
-14.69608059
 30
0.0
 11
-64.36845165
 21
-14.8419331
 31
0.0
  0
LINE
  5
F6
100
AcDbEntity
  8
レイヤー_1
  6
CONTINUOUS
 62
       3
100
AcDbLine
 10
-64.36845165
 20
-14.8419331
 30
0.0
 11
-64.10956381
 21
-14.96449173
 31
0.0
  0
LINE
  5
F7
100
AcDbEntity
  8
レイヤー_1
  6
CONTINUOUS
 62
       3
100
AcDbLine
 10
-64.10956381
 20
-14.96449173
 30
0.0
 11
-63.8378028
 21
-15.06231842
 31
0.0
  0
LINE
  5
F8
100
AcDbEntity
  8
レイヤー_1
  6
CONTINUOUS
 62
       3
100
AcDbLine
 10
-63.8378028
 20
-15.06231842
 30
0.0
 11
-63.55460627
 21
-15.13397509
 31
0.0
  0
LINE
  5
F9
100
AcDbEntity
  8
レイヤー_1
  6
CONTINUOUS
 62
       3
100
AcDbLine
 10
-63.55460627
 20
-15.13397509
 30
0.0
 11
-63.26141184
 21
-15.17802368
 31
0.0
  0
LINE
  5
FA
100
AcDbEntity
  8
レイヤー_1
  6
CONTINUOUS
 62
       3
100
AcDbLine
 10
-63.26141184
 20
-15.17802368
 30
0.0
 11
-62.95965717
 21
-15.19302612
 31
0.0
  0
LINE
  5
FB
100
AcDbEntity
  8
レイヤー_1
  6
CONTINUOUS
 62
       3
100
AcDbLine
 10
-62.95965717
 20
-13.39530639
 30
0.0
 11
-62.83891497
 21
-13.38930142
 31
0.0
  0
LINE
  5
FC
100
AcDbEntity
  8
レイヤー_1
  6
CONTINUOUS
 62
       3
100
AcDbLine
 10
-62.83891497
 20
-13.38930142
 30
0.0
 11
-62.7216071
 21
-13.37167092
 31
0.0
  0
LINE
  5
FD
100
AcDbEntity
  8
レイヤー_1
  6
CONTINUOUS
 62
       3
100
AcDbLine
 10
-62.7216071
 20
-13.37167092
 30
0.0
 11
-62.60830758
 21
-13.34299151
 31
0.0
  0
LINE
  5
FE
100
AcDbEntity
  8
レイヤー_1
  6
CONTINUOUS
 62
       3
100
AcDbLine
 10
-62.60830758
 20
-13.34299151
 30
0.0
 11
-62.49959042
 21
-13.3038398
 31
0.0
  0
LINE
  5
FF
100
AcDbEntity
  8
レイヤー_1
  6
CONTINUOUS
 62
       3
100
AcDbLine
 10
-62.49959042
 20
-13.3038398
 30
0.0
 11
-62.39602964
 21
-13.25479241
 31
0.0
  0
LINE
  5
100
100
AcDbEntity
  8
レイヤー_1
  6
CONTINUOUS
 62
       3
100
AcDbLine
 10
-62.39602964
 20
-13.25479241
 30
0.0
 11
-62.29819925
 21
-13.19642595
 31
0.0
  0
LINE
  5
101
100
AcDbEntity
  8
レイヤー_1
  6
CONTINUOUS
 62
       3
100
AcDbLine
 10
-62.29819925
 20
-13.19642595
 30
0.0
 11
-62.20667326
 21
-13.12931704
 31
0.0
  0
LINE
  5
102
100
AcDbEntity
  8
レイヤー_1
  6
CONTINUOUS
 62
       3
100
AcDbLine
 10
-62.20667326
 20
-13.12931704
 30
0.0
 11
-62.12202569
 21
-13.0540423
 31
0.0
  0
LINE
  5
103
100
AcDbEntity
  8
レイヤー_1
  6
CONTINUOUS
 62
       3
100
AcDbLine
 10
-62.12202569
 20
-13.0540423
 30
0.0
 11
-62.04483056
 21
-12.97117834
 31
0.0
  0
LINE
  5
104
100
AcDbEntity
  8
レイヤー_1
  6
CONTINUOUS
 62
       3
100
AcDbLine
 10
-62.04483056
 20
-12.97117834
 30
0.0
 11
-61.97566188
 21
-12.88130178
 31
0.0
  0
LINE
  5
105
100
AcDbEntity
  8
レイヤー_1
  6
CONTINUOUS
 62
       3
100
AcDbLine
 10
-61.97566188
 20
-12.88130178
 30
0.0
 11
-61.91509366
 21
-12.78498923
 31
0.0
  0
LINE
  5
106
100
AcDbEntity
  8
レイヤー_1
  6
CONTINUOUS
 62
       3
100
AcDbLine
 10
-61.91509366
 20
-12.78498923
 30
0.0
 11
-61.86369992
 21
-12.68281732
 31
0.0
  0
LINE
  5
107
100
AcDbEntity
  8
レイヤー_1
  6
CONTINUOUS
 62
       3
100
AcDbLine
 10
-61.86369992
 20
-12.68281732
 30
0.0
 11
-61.82205467
 21
-12.57536264
 31
0.0
  0
LINE
  5
108
100
AcDbEntity
  8
レイヤー_1
  6
CONTINUOUS
 62
       3
100
AcDbLine
 10
-61.82205467
 20
-12.57536264
 30
0.0
 11
-61.79073193
 21
-12.46320183
 31
0.0
  0
LINE
  5
109
100
AcDbEntity
  8
レイヤー_1
  6
CONTINUOUS
 62
       3
100
AcDbLine
 10
-61.79073193
 20
-12.46320183
 30
0.0
 11
-61.77030571
 21
-12.34691149
 31
0.0
  0
LINE
  5
10A
100
AcDbEntity
  8
レイヤー_1
  6
CONTINUOUS
 62
       3
100
AcDbLine
 10
-61.77030571
 20
-12.34691149
 30
0.0
 11
-61.76135003
 21
-12.22706825
 31
0.0
  0
LINE
  5
10B
100
AcDbEntity
  8
レイヤー_1
  6
CONTINUOUS
 62
       3
100
AcDbLine
 10
-61.76135003
 20
-12.22706825
 30
0.0
 11
-61.76435818
 21
-12.10576175
 31
0.0
  0
LINE
  5
10C
100
AcDbEntity
  8
レイヤー_1
  6
CONTINUOUS
 62
       3
100
AcDbLine
 10
-61.76435818
 20
-12.10576175
 30
0.0
 11
-61.77912088
 21
-11.98753339
 31
0.0
  0
LINE
  5
10D
100
AcDbEntity
  8
レイヤー_1
  6
CONTINUOUS
 62
       3
100
AcDbLine
 10
-61.77912088
 20
-11.98753339
 30
0.0
 11
-61.80506711
 21
-11.87316435
 31
0.0
  0
LINE
  5
10E
100
AcDbEntity
  8
レイヤー_1
  6
CONTINUOUS
 62
       3
100
AcDbLine
 10
-61.80506711
 20
-11.87316435
 30
0.0
 11
-61.84162286
 21
-11.76322951
 31
0.0
  0
LINE
  5
10F
100
AcDbEntity
  8
レイヤー_1
  6
CONTINUOUS
 62
       3
100
AcDbLine
 10
-61.84162286
 20
-11.76322951
 30
0.0
 11
-61.8882141
 21
-11.65830374
 31
0.0
  0
LINE
  5
110
100
AcDbEntity
  8
レイヤー_1
  6
CONTINUOUS
 62
       3
100
AcDbLine
 10
-61.8882141
 20
-11.65830374
 30
0.0
 11
-61.94426683
 21
-11.55896194
 31
0.0
  0
LINE
  5
111
100
AcDbEntity
  8
レイヤー_1
  6
CONTINUOUS
 62
       3
100
AcDbLine
 10
-61.94426683
 20
-11.55896194
 30
0.0
 11
-62.00920704
 21
-11.46577897
 31
0.0
  0
LINE
  5
112
100
AcDbEntity
  8
レイヤー_1
  6
CONTINUOUS
 62
       3
100
AcDbLine
 10
-62.00920704
 20
-11.46577897
 30
0.0
 11
-62.0824607
 21
-11.37932974
 31
0.0
  0
LINE
  5
113
100
AcDbEntity
  8
レイヤー_1
  6
CONTINUOUS
 62
       3
100
AcDbLine
 10
-62.0824607
 20
-11.37932974
 30
0.0
 11
-62.1634538
 21
-11.3001891
 31
0.0
  0
LINE
  5
114
100
AcDbEntity
  8
レイヤー_1
  6
CONTINUOUS
 62
       3
100
AcDbLine
 10
-62.1634538
 20
-11.3001891
 30
0.0
 11
-62.25161233
 21
-11.22893196
 31
0.0
  0
LINE
  5
115
100
AcDbEntity
  8
レイヤー_1
  6
CONTINUOUS
 62
       3
100
AcDbLine
 10
-62.25161233
 20
-11.22893196
 30
0.0
 11
-62.34636227
 21
-11.16613318
 31
0.0
  0
LINE
  5
116
100
AcDbEntity
  8
レイヤー_1
  6
CONTINUOUS
 62
       3
100
AcDbLine
 10
-62.34636227
 20
-11.16613318
 30
0.0
 11
-62.44712961
 21
-11.11236766
 31
0.0
  0
LINE
  5
117
100
AcDbEntity
  8
レイヤー_1
  6
CONTINUOUS
 62
       3
100
AcDbLine
 10
-62.44712961
 20
-11.11236766
 30
0.0
 11
-62.55334033
 21
-11.06821026
 31
0.0
  0
LINE
  5
118
100
AcDbEntity
  8
レイヤー_1
  6
CONTINUOUS
 62
       3
100
AcDbLine
 10
-62.55334033
 20
-11.06821026
 30
0.0
 11
-62.66442042
 21
-11.03423589
 31
0.0
  0
LINE
  5
119
100
AcDbEntity
  8
レイヤー_1
  6
CONTINUOUS
 62
       3
100
AcDbLine
 10
-62.66442042
 20
-11.03423589
 30
0.0
 11
-62.77979587
 21
-11.0110194
 31
0.0
  0
LINE
  5
11A
100
AcDbEntity
  8
レイヤー_1
  6
CONTINUOUS
 62
       3
100
AcDbLine
 10
-62.77979587
 20
-11.0110194
 30
0.0
 11
-62.89889265
 21
-10.9991357
 31
0.0
  0
LINE
  5
11B
100
AcDbEntity
  8
レイヤー_1
  6
CONTINUOUS
 62
       3
100
AcDbLine
 10
-62.89889265
 20
-10.9991357
 30
0.0
 11
-63.02036705
 21
-10.9991357
 31
0.0
  0
LINE
  5
11C
100
AcDbEntity
  8
レイヤー_1
  6
CONTINUOUS
 62
       3
100
AcDbLine
 10
-63.02036705
 20
-10.9991357
 30
0.0
 11
-63.13936955
 21
-11.0110194
 31
0.0
  0
LINE
  5
11D
100
AcDbEntity
  8
レイヤー_1
  6
CONTINUOUS
 62
       3
100
AcDbLine
 10
-63.13936955
 20
-11.0110194
 30
0.0
 11
-63.25466924
 21
-11.03423589
 31
0.0
  0
LINE
  5
11E
100
AcDbEntity
  8
レイヤー_1
  6
CONTINUOUS
 62
       3
100
AcDbLine
 10
-63.25466924
 20
-11.03423589
 30
0.0
 11
-63.36569038
 21
-11.06821026
 31
0.0
  0
LINE
  5
11F
100
AcDbEntity
  8
レイヤー_1
  6
CONTINUOUS
 62
       3
100
AcDbLine
 10
-63.36569038
 20
-11.06821026
 30
0.0
 11
-63.47185722
 21
-11.11236766
 31
0.0
  0
LINE
  5
120
100
AcDbEntity
  8
レイヤー_1
  6
CONTINUOUS
 62
       3
100
AcDbLine
 10
-63.47185722
 20
-11.11236766
 30
0.0
 11
-63.572594
 21
-11.16613318
 31
0.0
  0
LINE
  5
121
100
AcDbEntity
  8
レイヤー_1
  6
CONTINUOUS
 62
       3
100
AcDbLine
 10
-63.572594
 20
-11.16613318
 30
0.0
 11
-63.66732498
 21
-11.22893196
 31
0.0
  0
LINE
  5
122
100
AcDbEntity
  8
レイヤー_1
  6
CONTINUOUS
 62
       3
100
AcDbLine
 10
-63.66732498
 20
-11.22893196
 30
0.0
 11
-63.75547441
 21
-11.3001891
 31
0.0
  0
LINE
  5
123
100
AcDbEntity
  8
レイヤー_1
  6
CONTINUOUS
 62
       3
100
AcDbLine
 10
-63.75547441
 20
-11.3001891
 30
0.0
 11
-63.83646655
 21
-11.37932974
 31
0.0
  0
LINE
  5
124
100
AcDbEntity
  8
レイヤー_1
  6
CONTINUOUS
 62
       3
100
AcDbLine
 10
-63.83646655
 20
-11.37932974
 30
0.0
 11
-63.90972564
 21
-11.46577897
 31
0.0
  0
LINE
  5
125
100
AcDbEntity
  8
レイヤー_1
  6
CONTINUOUS
 62
       3
100
AcDbLine
 10
-63.90972564
 20
-11.46577897
 30
0.0
 11
-63.97467593
 21
-11.55896194
 31
0.0
  0
LINE
  5
126
100
AcDbEntity
  8
レイヤー_1
  6
CONTINUOUS
 62
       3
100
AcDbLine
 10
-63.97467593
 20
-11.55896194
 30
0.0
 11
-64.03074168
 21
-11.65830374
 31
0.0
  0
LINE
  5
127
100
AcDbEntity
  8
レイヤー_1
  6
CONTINUOUS
 62
       3
100
AcDbLine
 10
-64.03074168
 20
-11.65830374
 30
0.0
 11
-64.07734713
 21
-11.76322951
 31
0.0
  0
LINE
  5
128
100
AcDbEntity
  8
レイヤー_1
  6
CONTINUOUS
 62
       3
100
AcDbLine
 10
-64.07734713
 20
-11.76322951
 30
0.0
 11
-64.11391654
 21
-11.87316435
 31
0.0
  0
LINE
  5
129
100
AcDbEntity
  8
レイヤー_1
  6
CONTINUOUS
 62
       3
100
AcDbLine
 10
-64.11391654
 20
-11.87316435
 30
0.0
 11
-64.13987416
 21
-11.98753339
 31
0.0
  0
LINE
  5
12A
100
AcDbEntity
  8
レイヤー_1
  6
CONTINUOUS
 62
       3
100
AcDbLine
 10
-64.13987416
 20
-11.98753339
 30
0.0
 11
-64.15464424
 21
-12.10576175
 31
0.0
  0
LINE
  5
12B
100
AcDbEntity
  8
レイヤー_1
  6
CONTINUOUS
 62
       3
100
AcDbLine
 10
-64.15464424
 20
-12.10576175
 30
0.0
 11
-64.15765404
 21
-12.22706825
 31
0.0
  0
LINE
  5
12C
100
AcDbEntity
  8
レイヤー_1
  6
CONTINUOUS
 62
       3
100
AcDbLine
 10
-64.15765404
 20
-12.22706825
 30
0.0
 11
-64.14869363
 21
-12.34691149
 31
0.0
  0
LINE
  5
12D
100
AcDbEntity
  8
レイヤー_1
  6
CONTINUOUS
 62
       3
100
AcDbLine
 10
-64.14869363
 20
-12.34691149
 30
0.0
 11
-64.12825781
 21
-12.46320183
 31
0.0
  0
LINE
  5
12E
100
AcDbEntity
  8
レイヤー_1
  6
CONTINUOUS
 62
       3
100
AcDbLine
 10
-64.12825781
 20
-12.46320183
 30
0.0
 11
-64.09692233
 21
-12.57536264
 31
0.0
  0
LINE
  5
12F
100
AcDbEntity
  8
レイヤー_1
  6
CONTINUOUS
 62
       3
100
AcDbLine
 10
-64.09692233
 20
-12.57536264
 30
0.0
 11
-64.05526292
 21
-12.68281732
 31
0.0
  0
LINE
  5
130
100
AcDbEntity
  8
レイヤー_1
  6
CONTINUOUS
 62
       3
100
AcDbLine
 10
-64.05526292
 20
-12.68281732
 30
0.0
 11
-64.00385535
 21
-12.78498923
 31
0.0
  0
LINE
  5
131
100
AcDbEntity
  8
レイヤー_1
  6
CONTINUOUS
 62
       3
100
AcDbLine
 10
-64.00385535
 20
-12.78498923
 30
0.0
 11
-63.94327537
 21
-12.88130178
 31
0.0
  0
LINE
  5
132
100
AcDbEntity
  8
レイヤー_1
  6
CONTINUOUS
 62
       3
100
AcDbLine
 10
-63.94327537
 20
-12.88130178
 30
0.0
 11
-63.87409871
 21
-12.97117834
 31
0.0
  0
LINE
  5
133
100
AcDbEntity
  8
レイヤー_1
  6
CONTINUOUS
 62
       3
100
AcDbLine
 10
-63.87409871
 20
-12.97117834
 30
0.0
 11
-63.79690113
 21
-13.0540423
 31
0.0
  0
LINE
  5
134
100
AcDbEntity
  8
レイヤー_1
  6
CONTINUOUS
 62
       3
100
AcDbLine
 10
-63.79690113
 20
-13.0540423
 30
0.0
 11
-63.71225838
 21
-13.12931704
 31
0.0
  0
LINE
  5
135
100
AcDbEntity
  8
レイヤー_1
  6
CONTINUOUS
 62
       3
100
AcDbLine
 10
-63.71225838
 20
-13.12931704
 30
0.0
 11
-63.6207462
 21
-13.19642595
 31
0.0
  0
LINE
  5
136
100
AcDbEntity
  8
レイヤー_1
  6
CONTINUOUS
 62
       3
100
AcDbLine
 10
-63.6207462
 20
-13.19642595
 30
0.0
 11
-63.52294035
 21
-13.25479241
 31
0.0
  0
LINE
  5
137
100
AcDbEntity
  8
レイヤー_1
  6
CONTINUOUS
 62
       3
100
AcDbLine
 10
-63.52294035
 20
-13.25479241
 30
0.0
 11
-63.41941657
 21
-13.3038398
 31
0.0
  0
LINE
  5
138
100
AcDbEntity
  8
レイヤー_1
  6
CONTINUOUS
 62
       3
100
AcDbLine
 10
-63.41941657
 20
-13.3038398
 30
0.0
 11
-63.31075062
 21
-13.34299151
 31
0.0
  0
LINE
  5
139
100
AcDbEntity
  8
レイヤー_1
  6
CONTINUOUS
 62
       3
100
AcDbLine
 10
-63.31075062
 20
-13.34299151
 30
0.0
 11
-63.19751823
 21
-13.37167092
 31
0.0
  0
LINE
  5
13A
100
AcDbEntity
  8
レイヤー_1
  6
CONTINUOUS
 62
       3
100
AcDbLine
 10
-63.19751823
 20
-13.37167092
 30
0.0
 11
-63.08029517
 21
-13.38930142
 31
0.0
  0
LINE
  5
13B
100
AcDbEntity
  8
レイヤー_1
  6
CONTINUOUS
 62
       3
100
AcDbLine
 10
-63.08029517
 20
-13.38930142
 30
0.0
 11
-62.95965717
 21
-13.39530639
 31
0.0
  0
LINE
  5
13C
100
AcDbEntity
  8
レイヤー_1
  6
CONTINUOUS
 62
       3
100
AcDbLine
 10
-75.94429096
 20
24.86654419
 30
0.0
 11
-75.64259007
 21
24.88154677
 31
0.0
  0
LINE
  5
13D
100
AcDbEntity
  8
レイヤー_1
  6
CONTINUOUS
 62
       3
100
AcDbLine
 10
-75.64259007
 20
24.88154677
 30
0.0
 11
-75.34944283
 21
24.92559637
 31
0.0
  0
LINE
  5
13E
100
AcDbEntity
  8
レイヤー_1
  6
CONTINUOUS
 62
       3
100
AcDbLine
 10
-75.34944283
 20
24.92559637
 30
0.0
 11
-75.0662873
 21
24.99725579
 31
0.0
  0
LINE
  5
13F
100
AcDbEntity
  8
レイヤー_1
  6
CONTINUOUS
 62
       3
100
AcDbLine
 10
-75.0662873
 20
24.99725579
 30
0.0
 11
-74.79456155
 21
25.09508782
 31
0.0
  0
LINE
  5
140
100
AcDbEntity
  8
レイヤー_1
  6
CONTINUOUS
 62
       3
100
AcDbLine
 10
-74.79456155
 20
25.09508782
 30
0.0
 11
-74.53570366
 21
25.21765527
 31
0.0
  0
LINE
  5
141
100
AcDbEntity
  8
レイヤー_1
  6
CONTINUOUS
 62
       3
100
AcDbLine
 10
-74.53570366
 20
25.21765527
 30
0.0
 11
-74.29115169
 21
25.36352092
 31
0.0
  0
LINE
  5
142
100
AcDbEntity
  8
レイヤー_1
  6
CONTINUOUS
 62
       3
100
AcDbLine
 10
-74.29115169
 20
25.36352092
 30
0.0
 11
-74.06234372
 21
25.53124758
 31
0.0
  0
LINE
  5
143
100
AcDbEntity
  8
レイヤー_1
  6
CONTINUOUS
 62
       3
100
AcDbLine
 10
-74.06234372
 20
25.53124758
 30
0.0
 11
-73.85071781
 21
25.71939803
 31
0.0
  0
LINE
  5
144
100
AcDbEntity
  8
レイヤー_1
  6
CONTINUOUS
 62
       3
100
AcDbLine
 10
-73.85071781
 20
25.71939803
 30
0.0
 11
-73.65771205
 21
25.92653508
 31
0.0
  0
LINE
  5
145
100
AcDbEntity
  8
レイヤー_1
  6
CONTINUOUS
 62
       3
100
AcDbLine
 10
-73.65771205
 20
25.92653508
 30
0.0
 11
-73.4847645
 21
26.15122152
 31
0.0
  0
LINE
  5
146
100
AcDbEntity
  8
レイヤー_1
  6
CONTINUOUS
 62
       3
100
AcDbLine
 10
-73.4847645
 20
26.15122152
 30
0.0
 11
-73.33331323
 21
26.39202014
 31
0.0
  0
LINE
  5
147
100
AcDbEntity
  8
レイヤー_1
  6
CONTINUOUS
 62
       3
100
AcDbLine
 10
-73.33331323
 20
26.39202014
 30
0.0
 11
-73.20479631
 21
26.64749374
 31
0.0
  0
LINE
  5
148
100
AcDbEntity
  8
レイヤー_1
  6
CONTINUOUS
 62
       3
100
AcDbLine
 10
-73.20479631
 20
26.64749374
 30
0.0
 11
-73.10065182
 21
26.91620512
 31
0.0
  0
LINE
  5
149
100
AcDbEntity
  8
レイヤー_1
  6
CONTINUOUS
 62
       3
100
AcDbLine
 10
-73.10065182
 20
26.91620512
 30
0.0
 11
-73.02231782
 21
27.19671708
 31
0.0
  0
LINE
  5
14A
100
AcDbEntity
  8
レイヤー_1
  6
CONTINUOUS
 62
       3
100
AcDbLine
 10
-73.02231782
 20
27.19671708
 30
0.0
 11
-72.97123239
 21
27.4875924
 31
0.0
  0
LINE
  5
14B
100
AcDbEntity
  8
レイヤー_1
  6
CONTINUOUS
 62
       3
100
AcDbLine
 10
-72.97123239
 20
27.4875924
 30
0.0
 11
-72.94883359
 21
27.78739389
 31
0.0
  0
LINE
  5
14C
100
AcDbEntity
  8
レイヤー_1
  6
CONTINUOUS
 62
       3
100
AcDbLine
 10
-72.94883359
 20
27.78739389
 30
0.0
 11
-72.95635728
 21
28.09063292
 31
0.0
  0
LINE
  5
14D
100
AcDbEntity
  8
レイヤー_1
  6
CONTINUOUS
 62
       3
100
AcDbLine
 10
-72.95635728
 20
28.09063292
 30
0.0
 11
-72.99327915
 21
28.38610219
 31
0.0
  0
LINE
  5
14E
100
AcDbEntity
  8
レイヤー_1
  6
CONTINUOUS
 62
       3
100
AcDbLine
 10
-72.99327915
 20
28.38610219
 30
0.0
 11
-73.05816863
 21
28.67193297
 31
0.0
  0
LINE
  5
14F
100
AcDbEntity
  8
レイヤー_1
  6
CONTINUOUS
 62
       3
100
AcDbLine
 10
-73.05816863
 20
28.67193297
 30
0.0
 11
-73.14958763
 21
28.94668764
 31
0.0
  0
LINE
  5
150
100
AcDbEntity
  8
レイヤー_1
  6
CONTINUOUS
 62
       3
100
AcDbLine
 10
-73.14958763
 20
28.94668764
 30
0.0
 11
-73.26609809
 21
29.20892855
 31
0.0
  0
LINE
  5
151
100
AcDbEntity
  8
レイヤー_1
  6
CONTINUOUS
 62
       3
100
AcDbLine
 10
-73.26609809
 20
29.20892855
 30
0.0
 11
-73.40626195
 21
29.45721806
 31
0.0
  0
LINE
  5
152
100
AcDbEntity
  8
レイヤー_1
  6
CONTINUOUS
 62
       3
100
AcDbLine
 10
-73.40626195
 20
29.45721806
 30
0.0
 11
-73.56864112
 21
29.69011855
 31
0.0
  0
LINE
  5
153
100
AcDbEntity
  8
レイヤー_1
  6
CONTINUOUS
 62
       3
100
AcDbLine
 10
-73.56864112
 20
29.69011855
 30
0.0
 11
-73.75179754
 21
29.90619236
 31
0.0
  0
LINE
  5
154
100
AcDbEntity
  8
レイヤー_1
  6
CONTINUOUS
 62
       3
100
AcDbLine
 10
-73.75179754
 20
29.90619236
 30
0.0
 11
-73.95429313
 21
30.10400187
 31
0.0
  0
LINE
  5
155
100
AcDbEntity
  8
レイヤー_1
  6
CONTINUOUS
 62
       3
100
AcDbLine
 10
-73.95429313
 20
30.10400187
 30
0.0
 11
-74.17468982
 21
30.28210944
 31
0.0
  0
LINE
  5
156
100
AcDbEntity
  8
レイヤー_1
  6
CONTINUOUS
 62
       3
100
AcDbLine
 10
-74.17468982
 20
30.28210944
 30
0.0
 11
-74.41154955
 21
30.43907742
 31
0.0
  0
LINE
  5
157
100
AcDbEntity
  8
レイヤー_1
  6
CONTINUOUS
 62
       3
100
AcDbLine
 10
-74.41154955
 20
30.43907742
 30
0.0
 11
-74.66343424
 21
30.57346818
 31
0.0
  0
LINE
  5
158
100
AcDbEntity
  8
レイヤー_1
  6
CONTINUOUS
 62
       3
100
AcDbLine
 10
-74.66343424
 20
30.57346818
 30
0.0
 11
-74.92890582
 21
30.68384409
 31
0.0
  0
LINE
  5
159
100
AcDbEntity
  8
レイヤー_1
  6
CONTINUOUS
 62
       3
100
AcDbLine
 10
-74.92890582
 20
30.68384409
 30
0.0
 11
-75.20652622
 21
30.7687675
 31
0.0
  0
LINE
  5
15A
100
AcDbEntity
  8
レイヤー_1
  6
CONTINUOUS
 62
       3
100
AcDbLine
 10
-75.20652622
 20
30.7687675
 30
0.0
 11
-75.49485737
 21
30.82680078
 31
0.0
  0
LINE
  5
15B
100
AcDbEntity
  8
レイヤー_1
  6
CONTINUOUS
 62
       3
100
AcDbLine
 10
-75.49485737
 20
30.82680078
 30
0.0
 11
-75.79246119
 21
30.85650628
 31
0.0
  0
LINE
  5
15C
100
AcDbEntity
  8
レイヤー_1
  6
CONTINUOUS
 62
       3
100
AcDbLine
 10
-75.79246119
 20
30.85650628
 30
0.0
 11
-76.0961745
 21
30.85650628
 31
0.0
  0
LINE
  5
15D
100
AcDbEntity
  8
レイヤー_1
  6
CONTINUOUS
 62
       3
100
AcDbLine
 10
-76.0961745
 20
30.85650628
 30
0.0
 11
-76.39386603
 21
30.82680078
 31
0.0
  0
LINE
  5
15E
100
AcDbEntity
  8
レイヤー_1
  6
CONTINUOUS
 62
       3
100
AcDbLine
 10
-76.39386603
 20
30.82680078
 30
0.0
 11
-76.68226061
 21
30.7687675
 31
0.0
  0
LINE
  5
15F
100
AcDbEntity
  8
レイヤー_1
  6
CONTINUOUS
 62
       3
100
AcDbLine
 10
-76.68226061
 20
30.7687675
 30
0.0
 11
-76.95992276
 21
30.68384409
 31
0.0
  0
LINE
  5
160
100
AcDbEntity
  8
レイヤー_1
  6
CONTINUOUS
 62
       3
100
AcDbLine
 10
-76.95992276
 20
30.68384409
 30
0.0
 11
-77.22541702
 21
30.57346818
 31
0.0
  0
LINE
  5
161
100
AcDbEntity
  8
レイヤー_1
  6
CONTINUOUS
 62
       3
100
AcDbLine
 10
-77.22541702
 20
30.57346818
 30
0.0
 11
-77.47730792
 21
30.43907742
 31
0.0
  0
LINE
  5
162
100
AcDbEntity
  8
レイヤー_1
  6
CONTINUOUS
 62
       3
100
AcDbLine
 10
-77.47730792
 20
30.43907742
 30
0.0
 11
-77.71415998
 21
30.28210944
 31
0.0
  0
LINE
  5
163
100
AcDbEntity
  8
レイヤー_1
  6
CONTINUOUS
 62
       3
100
AcDbLine
 10
-77.71415998
 20
30.28210944
 30
0.0
 11
-77.93453773
 21
30.10400187
 31
0.0
  0
LINE
  5
164
100
AcDbEntity
  8
レイヤー_1
  6
CONTINUOUS
 62
       3
100
AcDbLine
 10
-77.93453773
 20
30.10400187
 30
0.0
 11
-78.13700571
 21
29.90619236
 31
0.0
  0
LINE
  5
165
100
AcDbEntity
  8
レイヤー_1
  6
CONTINUOUS
 62
       3
100
AcDbLine
 10
-78.13700571
 20
29.90619236
 30
0.0
 11
-78.32012845
 21
29.69011855
 31
0.0
  0
LINE
  5
166
100
AcDbEntity
  8
レイヤー_1
  6
CONTINUOUS
 62
       3
100
AcDbLine
 10
-78.32012845
 20
29.69011855
 30
0.0
 11
-78.48247047
 21
29.45721806
 31
0.0
  0
LINE
  5
167
100
AcDbEntity
  8
レイヤー_1
  6
CONTINUOUS
 62
       3
100
AcDbLine
 10
-78.48247047
 20
29.45721806
 30
0.0
 11
-78.62259631
 21
29.20892855
 31
0.0
  0
LINE
  5
168
100
AcDbEntity
  8
レイヤー_1
  6
CONTINUOUS
 62
       3
100
AcDbLine
 10
-78.62259631
 20
29.20892855
 30
0.0
 11
-78.73907049
 21
28.94668764
 31
0.0
  0
LINE
  5
169
100
AcDbEntity
  8
レイヤー_1
  6
CONTINUOUS
 62
       3
100
AcDbLine
 10
-78.73907049
 20
28.94668764
 30
0.0
 11
-78.83045755
 21
28.67193297
 31
0.0
  0
LINE
  5
16A
100
AcDbEntity
  8
レイヤー_1
  6
CONTINUOUS
 62
       3
100
AcDbLine
 10
-78.83045755
 20
28.67193297
 30
0.0
 11
-78.89532201
 21
28.38610219
 31
0.0
  0
LINE
  5
16B
100
AcDbEntity
  8
レイヤー_1
  6
CONTINUOUS
 62
       3
100
AcDbLine
 10
-78.89532201
 20
28.38610219
 30
0.0
 11
-78.93222841
 21
28.09063292
 31
0.0
  0
LINE
  5
16C
100
AcDbEntity
  8
レイヤー_1
  6
CONTINUOUS
 62
       3
100
AcDbLine
 10
-78.93222841
 20
28.09063292
 30
0.0
 11
-78.93974875
 21
27.78739389
 31
0.0
  0
LINE
  5
16D
100
AcDbEntity
  8
レイヤー_1
  6
CONTINUOUS
 62
       3
100
AcDbLine
 10
-78.93974875
 20
27.78739389
 30
0.0
 11
-78.91735969
 21
27.4875924
 31
0.0
  0
LINE
  5
16E
100
AcDbEntity
  8
レイヤー_1
  6
CONTINUOUS
 62
       3
100
AcDbLine
 10
-78.91735969
 20
27.4875924
 30
0.0
 11
-78.86629482
 21
27.19671708
 31
0.0
  0
LINE
  5
16F
100
AcDbEntity
  8
レイヤー_1
  6
CONTINUOUS
 62
       3
100
AcDbLine
 10
-78.86629482
 20
27.19671708
 30
0.0
 11
-78.78798963
 21
26.91620512
 31
0.0
  0
LINE
  5
170
100
AcDbEntity
  8
レイヤー_1
  6
CONTINUOUS
 62
       3
100
AcDbLine
 10
-78.78798963
 20
26.91620512
 30
0.0
 11
-78.68387957
 21
26.64749374
 31
0.0
  0
LINE
  5
171
100
AcDbEntity
  8
レイヤー_1
  6
CONTINUOUS
 62
       3
100
AcDbLine
 10
-78.68387957
 20
26.64749374
 30
0.0
 11
-78.55540013
 21
26.39202014
 31
0.0
  0
LINE
  5
172
100
AcDbEntity
  8
レイヤー_1
  6
CONTINUOUS
 62
       3
100
AcDbLine
 10
-78.55540013
 20
26.39202014
 30
0.0
 11
-78.40398677
 21
26.15122152
 31
0.0
  0
LINE
  5
173
100
AcDbEntity
  8
レイヤー_1
  6
CONTINUOUS
 62
       3
100
AcDbLine
 10
-78.40398677
 20
26.15122152
 30
0.0
 11
-78.23107495
 21
25.92653508
 31
0.0
  0
LINE
  5
174
100
AcDbEntity
  8
レイヤー_1
  6
CONTINUOUS
 62
       3
100
AcDbLine
 10
-78.23107495
 20
25.92653508
 30
0.0
 11
-78.03810016
 21
25.71939803
 31
0.0
  0
LINE
  5
175
100
AcDbEntity
  8
レイヤー_1
  6
CONTINUOUS
 62
       3
100
AcDbLine
 10
-78.03810016
 20
25.71939803
 30
0.0
 11
-77.82649786
 21
25.53124758
 31
0.0
  0
LINE
  5
176
100
AcDbEntity
  8
レイヤー_1
  6
CONTINUOUS
 62
       3
100
AcDbLine
 10
-77.82649786
 20
25.53124758
 30
0.0
 11
-77.59770352
 21
25.36352092
 31
0.0
  0
LINE
  5
177
100
AcDbEntity
  8
レイヤー_1
  6
CONTINUOUS
 62
       3
100
AcDbLine
 10
-77.59770352
 20
25.36352092
 30
0.0
 11
-77.35315261
 21
25.21765527
 31
0.0
  0
LINE
  5
178
100
AcDbEntity
  8
レイヤー_1
  6
CONTINUOUS
 62
       3
100
AcDbLine
 10
-77.35315261
 20
25.21765527
 30
0.0
 11
-77.0942806
 21
25.09508782
 31
0.0
  0
LINE
  5
179
100
AcDbEntity
  8
レイヤー_1
  6
CONTINUOUS
 62
       3
100
AcDbLine
 10
-77.0942806
 20
25.09508782
 30
0.0
 11
-76.82252296
 21
24.99725579
 31
0.0
  0
LINE
  5
17A
100
AcDbEntity
  8
レイヤー_1
  6
CONTINUOUS
 62
       3
100
AcDbLine
 10
-76.82252296
 20
24.99725579
 30
0.0
 11
-76.53931516
 21
24.92559637
 31
0.0
  0
LINE
  5
17B
100
AcDbEntity
  8
レイヤー_1
  6
CONTINUOUS
 62
       3
100
AcDbLine
 10
-76.53931516
 20
24.92559637
 30
0.0
 11
-76.24609267
 21
24.88154677
 31
0.0
  0
LINE
  5
17C
100
AcDbEntity
  8
レイヤー_1
  6
CONTINUOUS
 62
       3
100
AcDbLine
 10
-76.24609267
 20
24.88154677
 30
0.0
 11
-75.94429096
 21
24.86654419
 31
0.0
  0
LINE
  5
17D
100
AcDbEntity
  8
レイヤー_1
  6
CONTINUOUS
 62
       3
100
AcDbLine
 10
-75.94429096
 20
26.66488403
 30
0.0
 11
-75.82365296
 21
26.67088239
 31
0.0
  0
LINE
  5
17E
100
AcDbEntity
  8
レイヤー_1
  6
CONTINUOUS
 62
       3
100
AcDbLine
 10
-75.82365296
 20
26.67088239
 30
0.0
 11
-75.70642989
 21
26.68849479
 31
0.0
  0
LINE
  5
17F
100
AcDbEntity
  8
レイヤー_1
  6
CONTINUOUS
 62
       3
100
AcDbLine
 10
-75.70642989
 20
26.68849479
 30
0.0
 11
-75.59319751
 21
26.71714721
 31
0.0
  0
LINE
  5
180
100
AcDbEntity
  8
レイヤー_1
  6
CONTINUOUS
 62
       3
100
AcDbLine
 10
-75.59319751
 20
26.71714721
 30
0.0
 11
-75.48453155
 21
26.75626564
 31
0.0
  0
LINE
  5
181
100
AcDbEntity
  8
レイヤー_1
  6
CONTINUOUS
 62
       3
100
AcDbLine
 10
-75.48453155
 20
26.75626564
 30
0.0
 11
-75.38100778
 21
26.80527608
 31
0.0
  0
LINE
  5
182
100
AcDbEntity
  8
レイヤー_1
  6
CONTINUOUS
 62
       3
100
AcDbLine
 10
-75.38100778
 20
26.80527608
 30
0.0
 11
-75.28320192
 21
26.86360449
 31
0.0
  0
LINE
  5
183
100
AcDbEntity
  8
レイヤー_1
  6
CONTINUOUS
 62
       3
100
AcDbLine
 10
-75.28320192
 20
26.86360449
 30
0.0
 11
-75.19168975
 21
26.93067687
 31
0.0
  0
LINE
  5
184
100
AcDbEntity
  8
レイヤー_1
  6
CONTINUOUS
 62
       3
100
AcDbLine
 10
-75.19168975
 20
26.93067687
 30
0.0
 11
-75.107047
 21
27.0059192
 31
0.0
  0
LINE
  5
185
100
AcDbEntity
  8
レイヤー_1
  6
CONTINUOUS
 62
       3
100
AcDbLine
 10
-75.107047
 20
27.0059192
 30
0.0
 11
-75.02984942
 21
27.08875748
 31
0.0
  0
LINE
  5
186
100
AcDbEntity
  8
レイヤー_1
  6
CONTINUOUS
 62
       3
100
AcDbLine
 10
-75.02984942
 20
27.08875748
 30
0.0
 11
-74.96067276
 21
27.17861767
 31
0.0
  0
LINE
  5
187
100
AcDbEntity
  8
レイヤー_1
  6
CONTINUOUS
 62
       3
100
AcDbLine
 10
-74.96067276
 20
27.17861767
 30
0.0
 11
-74.90009277
 21
27.27492578
 31
0.0
  0
LINE
  5
188
100
AcDbEntity
  8
レイヤー_1
  6
CONTINUOUS
 62
       3
100
AcDbLine
 10
-74.90009277
 20
27.27492578
 30
0.0
 11
-74.8486852
 21
27.37710777
 31
0.0
  0
LINE
  5
189
100
AcDbEntity
  8
レイヤー_1
  6
CONTINUOUS
 62
       3
100
AcDbLine
 10
-74.8486852
 20
27.37710777
 30
0.0
 11
-74.8070258
 21
27.48458965
 31
0.0
  0
LINE
  5
18A
100
AcDbEntity
  8
レイヤー_1
  6
CONTINUOUS
 62
       3
100
AcDbLine
 10
-74.8070258
 20
27.48458965
 30
0.0
 11
-74.77569031
 21
27.5967974
 31
0.0
  0
LINE
  5
18B
100
AcDbEntity
  8
レイヤー_1
  6
CONTINUOUS
 62
       3
100
AcDbLine
 10
-74.77569031
 20
27.5967974
 30
0.0
 11
-74.75525449
 21
27.71315699
 31
0.0
  0
LINE
  5
18C
100
AcDbEntity
  8
レイヤー_1
  6
CONTINUOUS
 62
       3
100
AcDbLine
 10
-74.75525449
 20
27.71315699
 30
0.0
 11
-74.74629409
 21
27.83309442
 31
0.0
  0
LINE
  5
18D
100
AcDbEntity
  8
レイヤー_1
  6
CONTINUOUS
 62
       3
100
AcDbLine
 10
-74.74629409
 20
27.83309442
 30
0.0
 11
-74.74930388
 21
27.95435055
 31
0.0
  0
LINE
  5
18E
100
AcDbEntity
  8
レイヤー_1
  6
CONTINUOUS
 62
       3
100
AcDbLine
 10
-74.74930388
 20
27.95435055
 30
0.0
 11
-74.76407396
 21
28.07249751
 31
0.0
  0
LINE
  5
18F
100
AcDbEntity
  8
レイヤー_1
  6
CONTINUOUS
 62
       3
100
AcDbLine
 10
-74.76407396
 20
28.07249751
 30
0.0
 11
-74.79003158
 21
28.18680878
 31
0.0
  0
LINE
  5
190
100
AcDbEntity
  8
レイヤー_1
  6
CONTINUOUS
 62
       3
100
AcDbLine
 10
-74.79003158
 20
28.18680878
 30
0.0
 11
-74.82660099
 21
28.29670688
 31
0.0
  0
LINE
  5
191
100
AcDbEntity
  8
レイヤー_1
  6
CONTINUOUS
 62
       3
100
AcDbLine
 10
-74.82660099
 20
28.29670688
 30
0.0
 11
-74.87320645
 21
28.40161433
 31
0.0
  0
LINE
  5
192
100
AcDbEntity
  8
レイヤー_1
  6
CONTINUOUS
 62
       3
100
AcDbLine
 10
-74.87320645
 20
28.40161433
 30
0.0
 11
-74.9292722
 21
28.50095364
 31
0.0
  0
LINE
  5
193
100
AcDbEntity
  8
レイヤー_1
  6
CONTINUOUS
 62
       3
100
AcDbLine
 10
-74.9292722
 20
28.50095364
 30
0.0
 11
-74.99422249
 21
28.59414734
 31
0.0
  0
LINE
  5
194
100
AcDbEntity
  8
レイヤー_1
  6
CONTINUOUS
 62
       3
100
AcDbLine
 10
-74.99422249
 20
28.59414734
 30
0.0
 11
-75.06748158
 21
28.68061793
 31
0.0
  0
LINE
  5
195
100
AcDbEntity
  8
レイヤー_1
  6
CONTINUOUS
 62
       3
100
AcDbLine
 10
-75.06748158
 20
28.68061793
 30
0.0
 11
-75.14847371
 21
28.75978793
 31
0.0
  0
LINE
  5
196
100
AcDbEntity
  8
レイヤー_1
  6
CONTINUOUS
 62
       3
100
AcDbLine
 10
-75.14847371
 20
28.75978793
 30
0.0
 11
-75.23662314
 21
28.83107987
 31
0.0
  0
LINE
  5
197
100
AcDbEntity
  8
レイヤー_1
  6
CONTINUOUS
 62
       3
100
AcDbLine
 10
-75.23662314
 20
28.83107987
 30
0.0
 11
-75.33135413
 21
28.89391625
 31
0.0
  0
LINE
  5
198
100
AcDbEntity
  8
レイヤー_1
  6
CONTINUOUS
 62
       3
100
AcDbLine
 10
-75.33135413
 20
28.89391625
 30
0.0
 11
-75.43209091
 21
28.94771961
 31
0.0
  0
LINE
  5
199
100
AcDbEntity
  8
レイヤー_1
  6
CONTINUOUS
 62
       3
100
AcDbLine
 10
-75.43209091
 20
28.94771961
 30
0.0
 11
-75.53825774
 21
28.99191244
 31
0.0
  0
LINE
  5
19A
100
AcDbEntity
  8
レイヤー_1
  6
CONTINUOUS
 62
       3
100
AcDbLine
 10
-75.53825774
 20
28.99191244
 30
0.0
 11
-75.64927888
 21
29.02591728
 31
0.0
  0
LINE
  5
19B
100
AcDbEntity
  8
レイヤー_1
  6
CONTINUOUS
 62
       3
100
AcDbLine
 10
-75.64927888
 20
29.02591728
 30
0.0
 11
-75.76457858
 21
29.04915663
 31
0.0
  0
LINE
  5
19C
100
AcDbEntity
  8
レイヤー_1
  6
CONTINUOUS
 62
       3
100
AcDbLine
 10
-75.76457858
 20
29.04915663
 30
0.0
 11
-75.88358108
 21
29.06105302
 31
0.0
  0
LINE
  5
19D
100
AcDbEntity
  8
レイヤー_1
  6
CONTINUOUS
 62
       3
100
AcDbLine
 10
-75.88358108
 20
29.06105302
 30
0.0
 11
-76.00505633
 21
29.06105302
 31
0.0
  0
LINE
  5
19E
100
AcDbEntity
  8
レイヤー_1
  6
CONTINUOUS
 62
       3
100
AcDbLine
 10
-76.00505633
 20
29.06105302
 30
0.0
 11
-76.1241597
 21
29.04915663
 31
0.0
  0
LINE
  5
19F
100
AcDbEntity
  8
レイヤー_1
  6
CONTINUOUS
 62
       3
100
AcDbLine
 10
-76.1241597
 20
29.04915663
 30
0.0
 11
-76.23954746
 21
29.02591728
 31
0.0
  0
LINE
  5
1A0
100
AcDbEntity
  8
レイヤー_1
  6
CONTINUOUS
 62
       3
100
AcDbLine
 10
-76.23954746
 20
29.02591728
 30
0.0
 11
-76.35064475
 21
28.99191244
 31
0.0
  0
LINE
  5
1A1
100
AcDbEntity
  8
レイヤー_1
  6
CONTINUOUS
 62
       3
100
AcDbLine
 10
-76.35064475
 20
28.99191244
 30
0.0
 11
-76.45687668
 21
28.94771961
 31
0.0
  0
LINE
  5
1A2
100
AcDbEntity
  8
レイヤー_1
  6
CONTINUOUS
 62
       3
100
AcDbLine
 10
-76.45687668
 20
28.94771961
 30
0.0
 11
-76.55766837
 21
28.89391625
 31
0.0
  0
LINE
  5
1A3
100
AcDbEntity
  8
レイヤー_1
  6
CONTINUOUS
 62
       3
100
AcDbLine
 10
-76.55766837
 20
28.89391625
 30
0.0
 11
-76.65244494
 21
28.83107987
 31
0.0
  0
LINE
  5
1A4
100
AcDbEntity
  8
レイヤー_1
  6
CONTINUOUS
 62
       3
100
AcDbLine
 10
-76.65244494
 20
28.83107987
 30
0.0
 11
-76.7406315
 21
28.75978793
 31
0.0
  0
LINE
  5
1A5
100
AcDbEntity
  8
レイヤー_1
  6
CONTINUOUS
 62
       3
100
AcDbLine
 10
-76.7406315
 20
28.75978793
 30
0.0
 11
-76.82165318
 21
28.68061793
 31
0.0
  0
LINE
  5
1A6
100
AcDbEntity
  8
レイヤー_1
  6
CONTINUOUS
 62
       3
100
AcDbLine
 10
-76.82165318
 20
28.68061793
 30
0.0
 11
-76.89493509
 21
28.59414734
 31
0.0
  0
LINE
  5
1A7
100
AcDbEntity
  8
レイヤー_1
  6
CONTINUOUS
 62
       3
100
AcDbLine
 10
-76.89493509
 20
28.59414734
 30
0.0
 11
-76.95990236
 21
28.50095364
 31
0.0
  0
LINE
  5
1A8
100
AcDbEntity
  8
レイヤー_1
  6
CONTINUOUS
 62
       3
100
AcDbLine
 10
-76.95990236
 20
28.50095364
 30
0.0
 11
-77.01598009
 21
28.40161433
 31
0.0
  0
LINE
  5
1A9
100
AcDbEntity
  8
レイヤー_1
  6
CONTINUOUS
 62
       3
100
AcDbLine
 10
-77.01598009
 20
28.40161433
 30
0.0
 11
-77.06259341
 21
28.29670688
 31
0.0
  0
LINE
  5
1AA
100
AcDbEntity
  8
レイヤー_1
  6
CONTINUOUS
 62
       3
100
AcDbLine
 10
-77.06259341
 20
28.29670688
 30
0.0
 11
-77.09916744
 21
28.18680878
 31
0.0
  0
LINE
  5
1AB
100
AcDbEntity
  8
レイヤー_1
  6
CONTINUOUS
 62
       3
100
AcDbLine
 10
-77.09916744
 20
28.18680878
 30
0.0
 11
-77.12512729
 21
28.07249751
 31
0.0
  0
LINE
  5
1AC
100
AcDbEntity
  8
レイヤー_1
  6
CONTINUOUS
 62
       3
100
AcDbLine
 10
-77.12512729
 20
28.07249751
 30
0.0
 11
-77.13989809
 21
27.95435055
 31
0.0
  0
LINE
  5
1AD
100
AcDbEntity
  8
レイヤー_1
  6
CONTINUOUS
 62
       3
100
AcDbLine
 10
-77.13989809
 20
27.95435055
 30
0.0
 11
-77.14290794
 21
27.83309442
 31
0.0
  0
LINE
  5
1AE
100
AcDbEntity
  8
レイヤー_1
  6
CONTINUOUS
 62
       3
100
AcDbLine
 10
-77.14290794
 20
27.83309442
 30
0.0
 11
-77.13394725
 21
27.71315699
 31
0.0
  0
LINE
  5
1AF
100
AcDbEntity
  8
レイヤー_1
  6
CONTINUOUS
 62
       3
100
AcDbLine
 10
-77.13394725
 20
27.71315699
 30
0.0
 11
-77.11351007
 21
27.5967974
 31
0.0
  0
LINE
  5
1B0
100
AcDbEntity
  8
レイヤー_1
  6
CONTINUOUS
 62
       3
100
AcDbLine
 10
-77.11351007
 20
27.5967974
 30
0.0
 11
-77.08217127
 21
27.48458965
 31
0.0
  0
LINE
  5
1B1
100
AcDbEntity
  8
レイヤー_1
  6
CONTINUOUS
 62
       3
100
AcDbLine
 10
-77.08217127
 20
27.48458965
 30
0.0
 11
-77.04050573
 21
27.37710777
 31
0.0
  0
LINE
  5
1B2
100
AcDbEntity
  8
レイヤー_1
  6
CONTINUOUS
 62
       3
100
AcDbLine
 10
-77.04050573
 20
27.37710777
 30
0.0
 11
-76.98908835
 21
27.27492578
 31
0.0
  0
LINE
  5
1B3
100
AcDbEntity
  8
レイヤー_1
  6
CONTINUOUS
 62
       3
100
AcDbLine
 10
-76.98908835
 20
27.27492578
 30
0.0
 11
-76.92849399
 21
27.17861767
 31
0.0
  0
LINE
  5
1B4
100
AcDbEntity
  8
レイヤー_1
  6
CONTINUOUS
 62
       3
100
AcDbLine
 10
-76.92849399
 20
27.17861767
 30
0.0
 11
-76.85929754
 21
27.08875748
 31
0.0
  0
LINE
  5
1B5
100
AcDbEntity
  8
レイヤー_1
  6
CONTINUOUS
 62
       3
100
AcDbLine
 10
-76.85929754
 20
27.08875748
 30
0.0
 11
-76.78207388
 21
27.0059192
 31
0.0
  0
LINE
  5
1B6
100
AcDbEntity
  8
レイヤー_1
  6
CONTINUOUS
 62
       3
100
AcDbLine
 10
-76.78207388
 20
27.0059192
 30
0.0
 11
-76.6973979
 21
26.93067687
 31
0.0
  0
LINE
  5
1B7
100
AcDbEntity
  8
レイヤー_1
  6
CONTINUOUS
 62
       3
100
AcDbLine
 10
-76.6973979
 20
26.93067687
 30
0.0
 11
-76.60584448
 21
26.86360449
 31
0.0
  0
LINE
  5
1B8
100
AcDbEntity
  8
レイヤー_1
  6
CONTINUOUS
 62
       3
100
AcDbLine
 10
-76.60584448
 20
26.86360449
 30
0.0
 11
-76.50798849
 21
26.80527608
 31
0.0
  0
LINE
  5
1B9
100
AcDbEntity
  8
レイヤー_1
  6
CONTINUOUS
 62
       3
100
AcDbLine
 10
-76.50798849
 20
26.80527608
 30
0.0
 11
-76.40440482
 21
26.75626564
 31
0.0
  0
LINE
  5
1BA
100
AcDbEntity
  8
レイヤー_1
  6
CONTINUOUS
 62
       3
100
AcDbLine
 10
-76.40440482
 20
26.75626564
 30
0.0
 11
-76.29566835
 21
26.71714721
 31
0.0
  0
LINE
  5
1BB
100
AcDbEntity
  8
レイヤー_1
  6
CONTINUOUS
 62
       3
100
AcDbLine
 10
-76.29566835
 20
26.71714721
 30
0.0
 11
-76.18235396
 21
26.68849479
 31
0.0
  0
LINE
  5
1BC
100
AcDbEntity
  8
レイヤー_1
  6
CONTINUOUS
 62
       3
100
AcDbLine
 10
-76.18235396
 20
26.68849479
 30
0.0
 11
-76.06503653
 21
26.67088239
 31
0.0
  0
LINE
  5
1BD
100
AcDbEntity
  8
レイヤー_1
  6
CONTINUOUS
 62
       3
100
AcDbLine
 10
-76.06503653
 20
26.67088239
 30
0.0
 11
-75.94429096
 21
26.66488403
 31
0.0
  0
LINE
  5
1BE
100
AcDbEntity
  8
レイヤー_1
  6
CONTINUOUS
 62
       3
100
AcDbLine
 10
83.46675393
 20
-23.83745971
 30
0.0
 11
82.37208882
 21
-24.11182538
 31
0.0
  0
LINE
  5
1BF
100
AcDbEntity
  8
レイヤー_1
  6
CONTINUOUS
 62
       3
100
AcDbLine
 10
82.37208882
 20
-24.11182538
 30
0.0
 11
81.31805493
 21
-24.48025141
 31
0.0
  0
LINE
  5
1C0
100
AcDbEntity
  8
レイヤー_1
  6
CONTINUOUS
 62
       3
100
AcDbLine
 10
81.31805493
 20
-24.48025141
 30
0.0
 11
80.30942403
 21
-24.93795988
 31
0.0
  0
LINE
  5
1C1
100
AcDbEntity
  8
レイヤー_1
  6
CONTINUOUS
 62
       3
100
AcDbLine
 10
80.30942403
 20
-24.93795988
 30
0.0
 11
79.35096789
 21
-25.48017283
 31
0.0
  0
LINE
  5
1C2
100
AcDbEntity
  8
レイヤー_1
  6
CONTINUOUS
 62
       3
100
AcDbLine
 10
79.35096789
 20
-25.48017283
 30
0.0
 11
78.44745827
 21
-26.10211235
 31
0.0
  0
LINE
  5
1C3
100
AcDbEntity
  8
レイヤー_1
  6
CONTINUOUS
 62
       3
100
AcDbLine
 10
78.44745827
 20
-26.10211235
 30
0.0
 11
77.60366695
 21
-26.7990005
 31
0.0
  0
LINE
  5
1C4
100
AcDbEntity
  8
レイヤー_1
  6
CONTINUOUS
 62
       3
100
AcDbLine
 10
77.60366695
 20
-26.7990005
 30
0.0
 11
76.8243657
 21
-27.56605934
 31
0.0
  0
LINE
  5
1C5
100
AcDbEntity
  8
レイヤー_1
  6
CONTINUOUS
 62
       3
100
AcDbLine
 10
76.8243657
 20
-27.56605934
 30
0.0
 11
76.11432628
 21
-28.39851094
 31
0.0
  0
LINE
  5
1C6
100
AcDbEntity
  8
レイヤー_1
  6
CONTINUOUS
 62
       3
100
AcDbLine
 10
76.11432628
 20
-28.39851094
 30
0.0
 11
75.47832047
 21
-29.29157738
 31
0.0
  0
LINE
  5
1C7
100
AcDbEntity
  8
レイヤー_1
  6
CONTINUOUS
 62
       3
100
AcDbLine
 10
75.47832047
 20
-29.29157738
 30
0.0
 11
74.92112003
 21
-30.24048071
 31
0.0
  0
LINE
  5
1C8
100
AcDbEntity
  8
レイヤー_1
  6
CONTINUOUS
 62
       3
100
AcDbLine
 10
74.92112003
 20
-30.24048071
 30
0.0
 11
74.44749674
 21
-31.240443
 31
0.0
  0
LINE
  5
1C9
100
AcDbEntity
  8
レイヤー_1
  6
CONTINUOUS
 62
       3
100
AcDbLine
 10
74.44749674
 20
-31.240443
 30
0.0
 11
74.06222236
 21
-32.28668631
 31
0.0
  0
LINE
  5
1CA
100
AcDbEntity
  8
レイヤー_1
  6
CONTINUOUS
 62
       3
100
AcDbLine
 10
74.06222236
 20
-32.28668631
 30
0.0
 11
73.77006866
 21
-33.37443273
 31
0.0
  0
LINE
  5
1CB
100
AcDbEntity
  8
レイヤー_1
  6
CONTINUOUS
 62
       3
100
AcDbLine
 10
73.77006866
 20
-33.37443273
 30
0.0
 11
73.57580742
 21
-34.4989043
 31
0.0
  0
LINE
  5
1CC
100
AcDbEntity
  8
レイヤー_1
  6
CONTINUOUS
 62
       3
100
AcDbLine
 10
73.57580742
 20
-34.4989043
 30
0.0
 11
73.4842104
 21
-35.65532311
 31
0.0
  0
LINE
  5
1CD
100
AcDbEntity
  8
レイヤー_1
  6
CONTINUOUS
 62
       3
100
AcDbLine
 10
73.4842104
 20
-35.65532311
 30
0.0
 11
73.48018424
 21
-36.34697242
 31
0.0
  0
LINE
  5
1CE
100
AcDbEntity
  8
レイヤー_1
  6
CONTINUOUS
 62
       3
100
AcDbLine
 10
73.48018424
 20
-36.34697242
 30
0.0
 11
73.49611429
 21
-36.76700075
 31
0.0
  0
LINE
  5
1CF
100
AcDbEntity
  8
レイヤー_1
  6
CONTINUOUS
 62
       3
100
AcDbLine
 10
73.49611429
 20
-36.76700075
 30
0.0
 11
73.5257556
 21
-37.18343352
 31
0.0
  0
LINE
  5
1D0
100
AcDbEntity
  8
レイヤー_1
  6
CONTINUOUS
 62
       3
100
AcDbLine
 10
73.5257556
 20
-37.18343352
 30
0.0
 11
73.56888832
 21
-37.59604113
 31
0.0
  0
LINE
  5
1D1
100
AcDbEntity
  8
レイヤー_1
  6
CONTINUOUS
 62
       3
100
AcDbLine
 10
73.56888832
 20
-37.59604113
 30
0.0
 11
73.62529263
 21
-38.00459399
 31
0.0
  0
LINE
  5
1D2
100
AcDbEntity
  8
レイヤー_1
  6
CONTINUOUS
 62
       3
100
AcDbLine
 10
73.62529263
 20
-38.00459399
 30
0.0
 11
73.69474868
 21
-38.40886249
 31
0.0
  0
LINE
  5
1D3
100
AcDbEntity
  8
レイヤー_1
  6
CONTINUOUS
 62
       3
100
AcDbLine
 10
73.69474868
 20
-38.40886249
 30
0.0
 11
73.77703663
 21
-38.80861704
 31
0.0
  0
LINE
  5
1D4
100
AcDbEntity
  8
レイヤー_1
  6
CONTINUOUS
 62
       3
100
AcDbLine
 10
73.77703663
 20
-38.80861704
 30
0.0
 11
73.87193663
 21
-39.20362802
 31
0.0
  0
LINE
  5
1D5
100
AcDbEntity
  8
レイヤー_1
  6
CONTINUOUS
 62
       3
100
AcDbLine
 10
73.87193663
 20
-39.20362802
 30
0.0
 11
73.97922886
 21
-39.59366586
 31
0.0
  0
LINE
  5
1D6
100
AcDbEntity
  8
レイヤー_1
  6
CONTINUOUS
 62
       3
100
AcDbLine
 10
74.23011061
 20
-40.35790366
 30
0.0
 11
74.37326044
 21
-40.73164443
 31
0.0
  0
LINE
  5
1D7
100
AcDbEntity
  8
レイヤー_1
  6
CONTINUOUS
 62
       3
100
AcDbLine
 10
74.37326044
 20
-40.73164443
 30
0.0
 11
74.52792314
 21
-41.09949364
 31
0.0
  0
LINE
  5
1D8
100
AcDbEntity
  8
レイヤー_1
  6
CONTINUOUS
 62
       3
100
AcDbLine
 10
74.52792314
 20
-41.09949364
 30
0.0
 11
74.69387886
 21
-41.46122171
 31
0.0
  0
LINE
  5
1D9
100
AcDbEntity
  8
レイヤー_1
  6
CONTINUOUS
 62
       3
100
AcDbLine
 10
74.69387886
 20
-41.46122171
 30
0.0
 11
74.87090775
 21
-41.81659901
 31
0.0
  0
LINE
  5
1DA
100
AcDbEntity
  8
レイヤー_1
  6
CONTINUOUS
 62
       3
100
AcDbLine
 10
74.87090775
 20
-41.81659901
 30
0.0
 11
75.05832036
 21
-42.11164917
 31
0.0
  0
LINE
  5
1DB
100
AcDbEntity
  8
レイヤー_1
  6
CONTINUOUS
 62
       3
100
AcDbLine
 10
99.96675393
 20
-12.34885864
 30
0.0
 11
99.85928718
 21
-12.34885864
 31
0.0
  0
LINE
  5
1DC
100
AcDbEntity
  8
レイヤー_1
  6
CONTINUOUS
 62
       3
100
AcDbLine
 10
99.85928718
 20
-12.34885864
 30
0.0
 11
99.72309302
 21
-12.34885864
 31
0.0
  0
LINE
  5
1DD
100
AcDbEntity
  8
レイヤー_1
  6
CONTINUOUS
 62
       3
100
AcDbLine
 10
99.72309302
 20
-12.34885864
 30
0.0
 11
99.53619644
 21
-12.34885864
 31
0.0
  0
LINE
  5
1DE
100
AcDbEntity
  8
レイヤー_1
  6
CONTINUOUS
 62
       3
100
AcDbLine
 10
99.53619644
 20
-12.34885864
 30
0.0
 11
99.30852519
 21
-12.34885864
 31
0.0
  0
LINE
  5
1DF
100
AcDbEntity
  8
レイヤー_1
  6
CONTINUOUS
 62
       3
100
AcDbLine
 10
99.30852519
 20
-12.34885864
 30
0.0
 11
99.05000702
 21
-12.34885864
 31
0.0
  0
LINE
  5
1E0
100
AcDbEntity
  8
レイヤー_1
  6
CONTINUOUS
 62
       3
100
AcDbLine
 10
99.05000702
 20
-12.34885864
 30
0.0
 11
98.77056966
 21
-12.34885864
 31
0.0
  0
LINE
  5
1E1
100
AcDbEntity
  8
レイヤー_1
  6
CONTINUOUS
 62
       3
100
AcDbLine
 10
98.77056966
 20
-12.34885864
 30
0.0
 11
98.48014088
 21
-12.34885864
 31
0.0
  0
LINE
  5
1E2
100
AcDbEntity
  8
レイヤー_1
  6
CONTINUOUS
 62
       3
100
AcDbLine
 10
98.48014088
 20
-12.34885864
 30
0.0
 11
98.1886484
 21
-12.34885864
 31
0.0
  0
LINE
  5
1E3
100
AcDbEntity
  8
レイヤー_1
  6
CONTINUOUS
 62
       3
100
AcDbLine
 10
98.1886484
 20
-12.34885864
 30
0.0
 11
97.90601999
 21
-12.34885864
 31
0.0
  0
LINE
  5
1E4
100
AcDbEntity
  8
レイヤー_1
  6
CONTINUOUS
 62
       3
100
AcDbLine
 10
97.90601999
 20
-12.34885864
 30
0.0
 11
97.64218338
 21
-12.34885864
 31
0.0
  0
LINE
  5
1E5
100
AcDbEntity
  8
レイヤー_1
  6
CONTINUOUS
 62
       3
100
AcDbLine
 10
97.64218338
 20
-12.34885864
 30
0.0
 11
97.40706632
 21
-12.34885864
 31
0.0
  0
LINE
  5
1E6
100
AcDbEntity
  8
レイヤー_1
  6
CONTINUOUS
 62
       3
100
AcDbLine
 10
97.40706632
 20
-12.34885864
 30
0.0
 11
97.21059656
 21
-12.34885864
 31
0.0
  0
LINE
  5
1E7
100
AcDbEntity
  8
レイヤー_1
  6
CONTINUOUS
 62
       3
100
AcDbLine
 10
97.21059656
 20
-12.34885864
 30
0.0
 11
97.06270184
 21
-12.34885864
 31
0.0
  0
LINE
  5
1E8
100
AcDbEntity
  8
レイヤー_1
  6
CONTINUOUS
 62
       3
100
AcDbLine
 10
97.06270184
 20
-12.34885864
 30
0.0
 11
96.97330992
 21
-12.34885864
 31
0.0
  0
LINE
  5
1E9
100
AcDbEntity
  8
レイヤー_1
  6
CONTINUOUS
 62
       3
100
AcDbLine
 10
96.97330992
 20
-12.34885864
 30
0.0
 11
96.95058205
 21
-12.32833689
 31
0.0
  0
LINE
  5
1EA
100
AcDbEntity
  8
レイヤー_1
  6
CONTINUOUS
 62
       3
100
AcDbLine
 10
96.95058205
 20
-12.32833689
 30
0.0
 11
96.95058205
 21
-11.71875796
 31
0.0
  0
LINE
  5
1EB
100
AcDbEntity
  8
レイヤー_1
  6
CONTINUOUS
 62
       3
100
AcDbLine
 10
96.95058205
 20
-11.71875796
 30
0.0
 11
96.95058205
 21
-10.3496283
 31
0.0
  0
LINE
  5
1EC
100
AcDbEntity
  8
レイヤー_1
  6
CONTINUOUS
 62
       3
100
AcDbLine
 10
96.95058205
 20
-10.3496283
 30
0.0
 11
96.95058205
 21
-8.33844746
 31
0.0
  0
LINE
  5
1ED
100
AcDbEntity
  8
レイヤー_1
  6
CONTINUOUS
 62
       3
100
AcDbLine
 10
96.95058205
 20
-8.33844746
 30
0.0
 11
96.95058205
 21
-5.80271501
 31
0.0
  0
LINE
  5
1EE
100
AcDbEntity
  8
レイヤー_1
  6
CONTINUOUS
 62
       3
100
AcDbLine
 10
96.95058205
 20
-5.80271501
 30
0.0
 11
96.95058205
 21
-2.85993051
 31
0.0
  0
LINE
  5
1EF
100
AcDbEntity
  8
レイヤー_1
  6
CONTINUOUS
 62
       3
100
AcDbLine
 10
96.95058205
 20
-2.85993051
 30
0.0
 11
96.95058205
 21
0.37240648
 31
0.0
  0
LINE
  5
1F0
100
AcDbEntity
  8
レイヤー_1
  6
CONTINUOUS
 62
       3
100
AcDbLine
 10
96.95058205
 20
0.37240648
 30
0.0
 11
96.95058205
 21
3.7767964
 31
0.0
  0
LINE
  5
1F1
100
AcDbEntity
  8
レイヤー_1
  6
CONTINUOUS
 62
       3
100
AcDbLine
 10
96.95058205
 20
3.7767964
 30
0.0
 11
96.95058205
 21
7.23573969
 31
0.0
  0
LINE
  5
1F2
100
AcDbEntity
  8
レイヤー_1
  6
CONTINUOUS
 62
       3
100
AcDbLine
 10
96.95058205
 20
7.23573969
 30
0.0
 11
96.95058205
 21
10.63173679
 31
0.0
  0
LINE
  5
1F3
100
AcDbEntity
  8
レイヤー_1
  6
CONTINUOUS
 62
       3
100
AcDbLine
 10
96.95058205
 20
10.63173679
 30
0.0
 11
96.95058205
 21
13.84728813
 31
0.0
  0
LINE
  5
1F4
100
AcDbEntity
  8
レイヤー_1
  6
CONTINUOUS
 62
       3
100
AcDbLine
 10
96.95058205
 20
13.84728813
 30
0.0
 11
96.95058205
 21
16.76489415
 31
0.0
  0
LINE
  5
1F5
100
AcDbEntity
  8
レイヤー_1
  6
CONTINUOUS
 62
       3
100
AcDbLine
 10
96.95058205
 20
16.76489415
 30
0.0
 11
96.95058205
 21
19.2670553
 31
0.0
  0
LINE
  5
1F6
100
AcDbEntity
  8
レイヤー_1
  6
CONTINUOUS
 62
       3
100
AcDbLine
 10
96.95058205
 20
19.2670553
 30
0.0
 11
96.95058205
 21
21.23627201
 31
0.0
  0
LINE
  5
1F7
100
AcDbEntity
  8
レイヤー_1
  6
CONTINUOUS
 62
       3
100
AcDbLine
 10
96.95058205
 20
21.23627201
 30
0.0
 11
96.95058205
 21
22.55504472
 31
0.0
  0
LINE
  5
1F8
100
AcDbEntity
  8
レイヤー_1
  6
CONTINUOUS
 62
       3
100
AcDbLine
 10
96.95058205
 20
22.55504472
 30
0.0
 11
96.95058205
 21
23.10587387
 31
0.0
  0
LINE
  5
1F9
100
AcDbEntity
  8
レイヤー_1
  6
CONTINUOUS
 62
       3
100
AcDbLine
 10
96.95058205
 20
23.10587387
 30
0.0
 11
96.97754326
 21
23.11502319
 31
0.0
  0
LINE
  5
1FA
100
AcDbEntity
  8
レイヤー_1
  6
CONTINUOUS
 62
       3
100
AcDbLine
 10
96.97754326
 20
23.11502319
 30
0.0
 11
97.07144319
 21
23.11502319
 31
0.0
  0
LINE
  5
1FB
100
AcDbEntity
  8
レイヤー_1
  6
CONTINUOUS
 62
       3
100
AcDbLine
 10
97.07144319
 20
23.11502319
 30
0.0
 11
97.22313679
 21
23.11502319
 31
0.0
  0
LINE
  5
1FC
100
AcDbEntity
  8
レイヤー_1
  6
CONTINUOUS
 62
       3
100
AcDbLine
 10
97.22313679
 20
23.11502319
 30
0.0
 11
97.42269631
 21
23.11502319
 31
0.0
  0
LINE
  5
1FD
100
AcDbEntity
  8
レイヤー_1
  6
CONTINUOUS
 62
       3
100
AcDbLine
 10
97.42269631
 20
23.11502319
 30
0.0
 11
97.660194
 21
23.11502319
 31
0.0
  0
LINE
  5
1FE
100
AcDbEntity
  8
レイヤー_1
  6
CONTINUOUS
 62
       3
100
AcDbLine
 10
97.660194
 20
23.11502319
 30
0.0
 11
97.92570212
 21
23.11502319
 31
0.0
  0
LINE
  5
1FF
100
AcDbEntity
  8
レイヤー_1
  6
CONTINUOUS
 62
       3
100
AcDbLine
 10
97.92570212
 20
23.11502319
 30
0.0
 11
98.20929292
 21
23.11502319
 31
0.0
  0
LINE
  5
200
100
AcDbEntity
  8
レイヤー_1
  6
CONTINUOUS
 62
       3
100
AcDbLine
 10
98.20929292
 20
23.11502319
 30
0.0
 11
98.50103865
 21
23.11502319
 31
0.0
  0
LINE
  5
201
100
AcDbEntity
  8
レイヤー_1
  6
CONTINUOUS
 62
       3
100
AcDbLine
 10
98.50103865
 20
23.11502319
 30
0.0
 11
98.79101157
 21
23.11502319
 31
0.0
  0
LINE
  5
202
100
AcDbEntity
  8
レイヤー_1
  6
CONTINUOUS
 62
       3
100
AcDbLine
 10
98.79101157
 20
23.11502319
 30
0.0
 11
99.06928394
 21
23.11502319
 31
0.0
  0
LINE
  5
203
100
AcDbEntity
  8
レイヤー_1
  6
CONTINUOUS
 62
       3
100
AcDbLine
 10
99.06928394
 20
23.11502319
 30
0.0
 11
99.32592799
 21
23.11502319
 31
0.0
  0
LINE
  5
204
100
AcDbEntity
  8
レイヤー_1
  6
CONTINUOUS
 62
       3
100
AcDbLine
 10
99.32592799
 20
23.11502319
 30
0.0
 11
99.551016
 21
23.11502319
 31
0.0
  0
LINE
  5
205
100
AcDbEntity
  8
レイヤー_1
  6
CONTINUOUS
 62
       3
100
AcDbLine
 10
99.551016
 20
23.11502319
 30
0.0
 11
99.73462021
 21
23.11502319
 31
0.0
  0
LINE
  5
206
100
AcDbEntity
  8
レイヤー_1
  6
CONTINUOUS
 62
       3
100
AcDbLine
 10
99.73462021
 20
23.11502319
 30
0.0
 11
99.86681288
 21
23.11502319
 31
0.0
  0
LINE
  5
207
100
AcDbEntity
  8
レイヤー_1
  6
CONTINUOUS
 62
       3
100
AcDbLine
 10
99.86681288
 20
23.11502319
 30
0.0
 11
99.96675393
 21
23.11502319
 31
0.0
  0
LINE
  5
208
100
AcDbEntity
  8
レイヤー_1
  6
CONTINUOUS
 62
       3
100
AcDbLine
 10
83.49386888
 20
33.86697855
 30
0.0
 11
95.45175881
 21
33.35532837
 31
0.0
  0
LINE
  5
209
100
AcDbEntity
  8
レイヤー_1
  6
CONTINUOUS
 62
       3
100
AcDbLine
 10
95.45175881
 20
33.35532837
 30
0.0
 11
95.45175881
 21
32.64594379
 31
0.0
  0
LINE
  5
20A
100
AcDbEntity
  8
レイヤー_1
  6
CONTINUOUS
 62
       3
100
AcDbLine
 10
95.45175881
 20
32.64594379
 30
0.0
 11
95.45175881
 21
-17.59411987
 31
0.0
  0
LINE
  5
20B
100
AcDbEntity
  8
レイヤー_1
  6
CONTINUOUS
 62
       3
100
AcDbLine
 10
95.45175881
 20
-17.59411987
 30
0.0
 11
90.5821425
 21
-17.59411987
 31
0.0
  0
LINE
  5
20C
100
AcDbEntity
  8
レイヤー_1
  6
CONTINUOUS
 62
       3
100
AcDbLine
 10
90.5821425
 20
-17.59411987
 30
0.0
 11
89.41744851
 21
-17.59411987
 31
0.0
  0
LINE
  5
20D
100
AcDbEntity
  8
レイヤー_1
  6
CONTINUOUS
 62
       3
100
AcDbLine
 10
89.41744851
 20
-17.59411987
 30
0.0
 11
88.2541727
 21
-17.59411987
 31
0.0
  0
LINE
  5
20E
100
AcDbEntity
  8
レイヤー_1
  6
CONTINUOUS
 62
       3
100
AcDbLine
 10
88.2541727
 20
-17.59411987
 30
0.0
 11
83.46675393
 21
-17.59411987
 31
0.0
  0
LINE
  5
20F
100
AcDbEntity
  8
レイヤー_1
  6
CONTINUOUS
 62
       3
100
AcDbLine
 10
72.96675393
 20
-38.09378218
 30
0.0
 11
73.90878179
 21
-33.17286058
 31
0.0
  0
LINE
  5
210
100
AcDbEntity
  8
レイヤー_1
  6
CONTINUOUS
 62
       3
100
AcDbLine
 10
73.90878179
 20
-33.17286058
 30
0.0
 11
74.36112785
 21
-31.63694901
 31
0.0
  0
LINE
  5
211
100
AcDbEntity
  8
レイヤー_1
  6
CONTINUOUS
 62
       3
100
AcDbLine
 10
74.36112785
 20
-31.63694901
 30
0.0
 11
74.92097745
 21
-30.26474037
 31
0.0
  0
LINE
  5
212
100
AcDbEntity
  8
レイヤー_1
  6
CONTINUOUS
 62
       3
100
AcDbLine
 10
74.92097745
 20
-30.26474037
 30
0.0
 11
75.57050289
 21
-29.04760435
 31
0.0
  0
LINE
  5
213
100
AcDbEntity
  8
レイヤー_1
  6
CONTINUOUS
 62
       3
100
AcDbLine
 10
75.57050289
 20
-29.04760435
 30
0.0
 11
76.29187644
 21
-27.97691065
 31
0.0
  0
LINE
  5
214
100
AcDbEntity
  8
レイヤー_1
  6
CONTINUOUS
 62
       3
100
AcDbLine
 10
76.29187644
 20
-27.97691065
 30
0.0
 11
77.06727039
 21
-27.04402896
 31
0.0
  0
LINE
  5
215
100
AcDbEntity
  8
レイヤー_1
  6
CONTINUOUS
 62
       3
100
AcDbLine
 10
77.06727039
 20
-27.04402896
 30
0.0
 11
77.87885704
 21
-26.24032899
 31
0.0
  0
LINE
  5
216
100
AcDbEntity
  8
レイヤー_1
  6
CONTINUOUS
 62
       3
100
AcDbLine
 10
77.87885704
 20
-26.24032899
 30
0.0
 11
78.70880866
 21
-25.55718042
 31
0.0
  0
LINE
  5
217
100
AcDbEntity
  8
レイヤー_1
  6
CONTINUOUS
 62
       3
100
AcDbLine
 10
78.70880866
 20
-25.55718042
 30
0.0
 11
79.53929755
 21
-24.98595295
 31
0.0
  0
LINE
  5
218
100
AcDbEntity
  8
レイヤー_1
  6
CONTINUOUS
 62
       3
100
AcDbLine
 10
79.53929755
 20
-24.98595295
 30
0.0
 11
80.35249599
 21
-24.51801628
 31
0.0
  0
LINE
  5
219
100
AcDbEntity
  8
レイヤー_1
  6
CONTINUOUS
 62
       3
100
AcDbLine
 10
80.35249599
 20
-24.51801628
 30
0.0
 11
81.13057627
 21
-24.1447401
 31
0.0
  0
LINE
  5
21A
100
AcDbEntity
  8
レイヤー_1
  6
CONTINUOUS
 62
       3
100
AcDbLine
 10
81.13057627
 20
-24.1447401
 30
0.0
 11
81.85571068
 21
-23.85749412
 31
0.0
  0
LINE
  5
21B
100
AcDbEntity
  8
レイヤー_1
  6
CONTINUOUS
 62
       3
100
AcDbLine
 10
81.85571068
 20
-23.85749412
 30
0.0
 11
82.5100715
 21
-23.64764802
 31
0.0
  0
LINE
  5
21C
100
AcDbEntity
  8
レイヤー_1
  6
CONTINUOUS
 62
       3
100
AcDbLine
 10
82.5100715
 20
-23.64764802
 30
0.0
 11
83.07583102
 21
-23.5065715
 31
0.0
  0
LINE
  5
21D
100
AcDbEntity
  8
レイヤー_1
  6
CONTINUOUS
 62
       3
100
AcDbLine
 10
83.07583102
 20
-23.5065715
 30
0.0
 11
83.46675393
 21
-23.41176002
 31
0.0
  0
LINE
  5
21E
100
AcDbEntity
  8
レイヤー_1
  6
CONTINUOUS
 62
       3
100
AcDbLine
 10
83.46675393
 20
-23.83745971
 30
0.0
 11
83.46675393
 21
-17.59411987
 31
0.0
  0
LINE
  5
21F
100
AcDbEntity
  8
レイヤー_1
  6
CONTINUOUS
 62
       3
100
AcDbLine
 10
99.96675393
 20
-48.11164917
 30
0.0
 11
99.96675393
 21
-12.34885864
 31
0.0
  0
LINE
  5
220
100
AcDbEntity
  8
レイヤー_1
  6
CONTINUOUS
 62
       3
100
AcDbLine
 10
96.00490334
 20
-48.11164917
 30
0.0
 11
99.96675393
 21
-48.11164917
 31
0.0
  0
LINE
  5
221
100
AcDbEntity
  8
レイヤー_1
  6
CONTINUOUS
 62
       3
100
AcDbLine
 10
75.05832036
 20
-42.11164917
 30
0.0
 11
99.96675393
 21
-42.11164917
 31
0.0
  0
LINE
  5
222
100
AcDbEntity
  8
レイヤー_1
  6
CONTINUOUS
 62
       3
100
AcDbLine
 10
-98.4334389
 20
47.88835083
 30
0.0
 11
-98.4334389
 21
-42.11164917
 31
0.0
  0
LINE
  5
223
100
AcDbEntity
  8
レイヤー_1
  6
CONTINUOUS
 62
       3
100
AcDbLine
 10
-53.4334389
 20
47.88835083
 30
0.0
 11
-53.4334389
 21
-42.11164917
 31
0.0
  0
LINE
  5
224
100
AcDbEntity
  8
レイヤー_1
  6
CONTINUOUS
 62
       3
100
AcDbLine
 10
-98.4334389
 20
-42.11164917
 30
0.0
 11
-53.4334389
 21
-42.11164917
 31
0.0
  0
LINE
  5
225
100
AcDbEntity
  8
レイヤー_1
  6
CONTINUOUS
 62
       3
100
AcDbLine
 10
-98.4334389
 20
47.88835083
 30
0.0
 11
-53.4334389
 21
47.88835083
 31
0.0
  0
LINE
  5
226
100
AcDbEntity
  8
レイヤー_1
  6
CONTINUOUS
 62
       3
100
AcDbLine
 10
83.46675393
 20
47.88835083
 30
0.0
 11
99.96675393
 21
47.88835083
 31
0.0
  0
LINE
  5
227
100
AcDbEntity
  8
レイヤー_1
  6
CONTINUOUS
 62
       3
100
AcDbLine
 10
99.96675393
 20
23.11502319
 30
0.0
 11
99.96675393
 21
47.88835083
 31
0.0
  0
LINE
  5
228
100
AcDbEntity
  8
レイヤー_1
  6
CONTINUOUS
 62
       3
100
AcDbLine
 10
96.00490334
 20
-48.11164917
 30
0.0
 11
96.00490334
 21
-42.11164917
 31
0.0
  0
LINE
  5
229
100
AcDbEntity
  8
レイヤー_1
  6
CONTINUOUS
 62
       3
100
AcDbLine
 10
72.96675393
 20
-42.11164917
 30
0.0
 11
72.96675393
 21
-38.09378218
 31
0.0
  0
LINE
  5
22A
100
AcDbEntity
  8
レイヤー_1
  6
CONTINUOUS
 62
       3
100
AcDbLine
 10
73.97922886
 20
-39.59366586
 30
0.0
 11
74.23011061
 21
-40.35790366
 31
0.0
  0
CIRCLE
  5
22B
100
AcDbEntity
  8
レイヤー_1
  6
CONTINUOUS
 62
       3
100
AcDbCircle
 10
-75.9334389
 20
39.38835083
 30
0.0
 40
5.5
  0
CIRCLE
  5
22C
100
AcDbEntity
  8
レイヤー_1
  6
CONTINUOUS
 62
       3
100
AcDbCircle
 10
-75.9334389
 20
39.38835083
 30
0.0
 40
2.1
  0
CIRCLE
  5
22D
100
AcDbEntity
  8
レイヤー_1
  6
CONTINUOUS
 62
       3
100
AcDbCircle
 10
-89.9334389
 20
-27.61164917
 30
0.0
 40
5.5
  0
CIRCLE
  5
22E
100
AcDbEntity
  8
レイヤー_1
  6
CONTINUOUS
 62
       3
100
AcDbCircle
 10
-89.9334389
 20
-27.61164917
 30
0.0
 40
2.1
  0
CIRCLE
  5
22F
100
AcDbEntity
  8
レイヤー_1
  6
CONTINUOUS
 62
       3
100
AcDbCircle
 10
-61.9334389
 20
-27.61164917
 30
0.0
 40
5.5
  0
CIRCLE
  5
230
100
AcDbEntity
  8
レイヤー_1
  6
CONTINUOUS
 62
       3
100
AcDbCircle
 10
-61.9334389
 20
-27.61164917
 30
0.0
 40
2.1
  0
ARC
  5
231
100
AcDbEntity
  8
レイヤー_1
  6
CONTINUOUS
 62
       3
100
AcDbCircle
 10
-75.96005953
 20
-34.60675996
 30
0.0
 40
13.50488921
100
AcDbArc
 50
237.86647411
 51
302.13308089
  0
ARC
  5
232
100
AcDbEntity
  8
レイヤー_1
  6
CONTINUOUS
 62
       3
100
AcDbCircle
 10
-75.96005969
 20
-35.85764255
 30
0.0
 40
10.77330707
100
AcDbArc
 50
237.78284107
 51
302.21660257
  0
LINE
  5
233
100
AcDbEntity
  8
レイヤー_1
  6
CONTINUOUS
 62
       3
100
AcDbLine
 10
83.46675393
 20
33.86813874
 30
0.0
 11
83.46675393
 21
47.88835083
 31
0.0
  0
LINE
  5
234
100
AcDbEntity
  8
レイヤー_1
  6
CENTERX2
 62
       3
100
AcDbLine
 10
-75.9334389
 20
51.62801146
 30
0.0
 11
-75.9334389
 21
-51.62801146
 31
0.0
  0
LINE
  5
235
100
AcDbEntity
  8
レイヤー_1
  6
CENTERX2
 62
       3
100
AcDbLine
 10
-8.62095845
 20
2.88525025
 30
0.0
 11
100.26386818
 21
2.88525025
 31
0.0
  0
LINE
  5
236
100
AcDbEntity
  8
レイヤー_1
  6
CENTERX2
 62
       3
100
AcDbLine
 10
-101.92410052
 20
2.88835083
 30
0.0
 11
-49.7809267
 21
2.88835083
 31
0.0
  0
LINE
  5
237
100
AcDbEntity
  8
レイヤー_1
  6
CENTERX2
 62
       3
100
AcDbLine
 10
-83.06984475
 20
39.38835083
 30
0.0
 11
-69.05657367
 21
39.38835083
 31
0.0
  0
LINE
  5
238
100
AcDbEntity
  8
レイヤー_1
  6
CENTERX2
 62
       3
100
AcDbLine
 10
-95.84701565
 20
-27.61164917
 30
0.0
 11
-55.80140004
 21
-27.61164917
 31
0.0
  0
LINE
  5
239
100
AcDbEntity
  8
レイヤー_1
  6
CENTERX2
 62
       3
100
AcDbLine
 10
-89.9334389
 20
-20.86726278
 30
0.0
 11
-89.9334389
 21
-34.0426481
 31
0.0
  0
LINE
  5
23A
100
AcDbEntity
  8
レイヤー_1
  6
CENTERX2
 62
       3
100
AcDbLine
 10
-61.9334389
 20
-20.96170998
 30
0.0
 11
-61.9334389
 21
-34.27876611
 31
0.0
  0
LINE
  5
23B
100
AcDbEntity
  8
レイヤー_1
  6
CENTERX2
 62
       3
100
AcDbLine
 10
91.19339013
 20
39.38835083
 30
0.0
 11
101.92410052
 21
39.38835083
 31
0.0
  0
LINE
  5
23C
100
AcDbEntity
  8
レイヤー_1
  6
CENTERX2
 62
       3
100
AcDbLine
 10
90.92977501
 20
-27.61164917
 30
0.0
 11
101.70995638
 21
-27.61164917
 31
0.0
  0
LINE
  5
23D
100
AcDbEntity
  8
レイヤー_1
  6
PHANTOM
 62
       3
100
AcDbLine
 10
-6.53324607
 20
0.66084541
 30
0.0
 11
3.17460063
 21
-8.92240116
 31
0.0
  0
LINE
  5
23E
100
AcDbEntity
  8
レイヤー_1
  6
PHANTOM
 62
       3
100
AcDbLine
 10
3.17460063
 20
-8.92240116
 30
0.0
 11
3.17460063
 21
-42.11164917
 31
0.0
  0
LINE
  5
23F
100
AcDbEntity
  8
レイヤー_1
  6
PHANTOM
 62
       3
100
AcDbLine
 10
6.86491801
 20
-42.11164917
 30
0.0
 11
6.86491801
 21
47.88835083
 31
0.0
  0
LINE
  5
240
100
AcDbEntity
  8
レイヤー_1
  6
PHANTOM
 62
       3
100
AcDbLine
 10
7.93586039
 20
47.88835083
 30
0.0
 11
7.93586039
 21
-42.11164917
 31
0.0
  0
LINE
  5
241
100
AcDbEntity
  8
レイヤー_1
  6
PHANTOM
 62
       3
100
AcDbLine
 10
-6.53324607
 20
-18.47111856
 30
0.0
 11
2.24322863
 21
-8.00298331
 31
0.0
  0
LINE
  5
242
100
AcDbEntity
  8
レイヤー_1
  6
PHANTOM
 62
       3
100
AcDbLine
 10
-5.03324607
 20
47.88835083
 30
0.0
 11
83.46675393
 21
47.88835083
 31
0.0
  0
LINE
  5
243
100
AcDbEntity
  8
レイヤー_1
  6
PHANTOM
 62
       3
100
AcDbLine
 10
-5.03324607
 20
-42.11164917
 30
0.0
 11
72.96675393
 21
-42.11164917
 31
0.0
  0
LINE
  5
244
100
AcDbEntity
  8
レイヤー_1
  6
PHANTOM
 62
       3
100
AcDbLine
 10
-6.53324607
 20
-40.61164917
 30
0.0
 11
-6.53324607
 21
-18.47111856
 31
0.0
  0
LINE
  5
245
100
AcDbEntity
  8
レイヤー_1
  6
PHANTOM
 62
       3
100
AcDbLine
 10
-6.53324607
 20
0.66084541
 30
0.0
 11
-6.53324607
 21
46.38835083
 31
0.0
  0
ARC
  5
246
100
AcDbEntity
  8
レイヤー_1
  6
PHANTOM
 62
       3
100
AcDbCircle
 10
-5.03324607
 20
46.38835083
 30
0.0
 40
1.5
100
AcDbArc
 50
90.0
 51
180.0
  0
ARC
  5
247
100
AcDbEntity
  8
レイヤー_1
  6
PHANTOM
 62
       3
100
AcDbCircle
 10
-5.03324607
 20
-40.61164917
 30
0.0
 40
1.5
100
AcDbArc
 50
180.0
 51
270.0
  0
LINE
  5
248
100
AcDbEntity
  8
レイヤー_1
  6
PHANTOM2
 62
       3
100
AcDbLine
 10
83.46675393
 20
33.86813874
 30
0.0
 11
83.46675393
 21
-17.59411987
 31
0.0
  0
TEXT
  5
249
100
AcDbEntity
  8
0
 62
       7
100
AcDbText
 10
77.60620924
 20
-69.55992438
 30
0.0
 40
5.0
  1
000
 41
0.8
 72
       5
 11
89.60620924
 21
-69.55992438
 31
0.0
100
AcDbText
  0
ENDSEC
  0
SECTION
  2
OBJECTS
  0
DICTIONARY
  5
19
100
AcDbDictionary
  3
ACAD_GROUP
350
1A
  3
ACAD_MLINESTYLE
350
1B
  0
DICTIONARY
  5
1A
102
{ACAD_REACTORS
330
19
102
}
100
AcDbDictionary
  0
DICTIONARY
  5
1B
102
{ACAD_REACTORS
330
19
102
}
100
AcDbDictionary
  3
STANDARD
350
1C
  0
MLINESTYLE
  5
1C
102
{ACAD_REACTORS
330
1B
102
}
100
AcDbMlineStyle
  2
STANDARD
 70
       0
  3

 62
       0
 51
90.0
 52
90.0
 71
       2
 49
0.5
 62
     256
  6
BYLAYER
 49
-0.5
 62
     256
  6
BYLAYER
  0
ENDSEC
  0
EOF
