  0
SECTION
  2
HEADER
  9
$ACADVER
  1
AC1014
  9
$ACADMAINTVER
 70
       0
  9
$DWGCODEPAGE
  3
ANSI_932
  9
$INSBASE
 10
0.0
 20
0.0
 30
0.0
  9
$EXTMIN
 10
-95.36182124
 20
-67.82033286
 30
0.0
  9
$EXTMAX
 10
95.36182124
 20
67.82033286
 30
0.0
  9
$LIMMIN
 10
-101.32193506
 20
-72.05910366
  9
$LIMMAX
 10
101.32193506
 20
72.05910366
  9
$ORTHOMODE
 70
       0
  9
$REGENMODE
 70
       1
  9
$FILLMODE
 70
       1
  9
$QTEXTMODE
 70
       0
  9
$MIRRTEXT
 70
       1
  9
$DRAGMODE
 70
       2
  9
$LTSCALE
 40
1.0
  9
$OSMODE
 70
       0
  9
$ATTMODE
 70
       1
  9
$TEXTSIZE
 40
0.2
  9
$TRACEWID
 40
0.05
  9
$TEXTSTYLE
  7
STANDARD
  9
$CLAYER
  8
0
  9
$CELTYPE
  6
CONTINUOUS
  9
$CECOLOR
 62
     256
  9
$CELTSCALE
 40
1.0
  9
$DELOBJ
 70
       1
  9
$DISPSILH
 70
       0
  9
$DIMSCALE
 40
1.0
  9
$DIMASZ
 40
0.18
  9
$DIMEXO
 40
0.0625
  9
$DIMDLI
 40
0.38
  9
$DIMRND
 40
0.0
  9
$DIMDLE
 40
0.0
  9
$DIMEXE
 40
0.18
  9
$DIMTP
 40
0.0
  9
$DIMTM
 40
0.0
  9
$DIMTXT
 40
0.18
  9
$DIMCEN
 40
0.09
  9
$DIMTSZ
 40
0.0
  9
$DIMTOL
 70
       0
  9
$DIMLIM
 70
       0
  9
$DIMTIH
 70
       1
  9
$DIMTOH
 70
       1
  9
$DIMSE1
 70
       0
  9
$DIMSE2
 70
       0
  9
$DIMTAD
 70
       0
  9
$DIMZIN
 70
       0
  9
$DIMBLK
  1

  9
$DIMASO
 70
       1
  9
$DIMSHO
 70
       1
  9
$DIMPOST
  1

  9
$DIMAPOST
  1

  9
$DIMALT
 70
       0
  9
$DIMALTD
 70
       2
  9
$DIMALTF
 40
25.4
  9
$DIMLFAC
 40
1.0
  9
$DIMTOFL
 70
       0
  9
$DIMTVP
 40
0.0
  9
$DIMTIX
 70
       0
  9
$DIMSOXD
 70
       0
  9
$DIMSAH
 70
       0
  9
$DIMBLK1
  1

  9
$DIMBLK2
  1

  9
$DIMSTYLE
  2
STANDARD
  9
$DIMCLRD
 70
       0
  9
$DIMCLRE
 70
       0
  9
$DIMCLRT
 70
       0
  9
$DIMTFAC
 40
1.0
  9
$DIMGAP
 40
0.09
  9
$DIMJUST
 70
       0
  9
$DIMSD1
 70
       0
  9
$DIMSD2
 70
       0
  9
$DIMTOLJ
 70
       1
  9
$DIMTZIN
 70
       0
  9
$DIMALTZ
 70
       0
  9
$DIMALTTZ
 70
       0
  9
$DIMFIT
 70
       3
  9
$DIMUPT
 70
       0
  9
$DIMUNIT
 70
       2
  9
$DIMDEC
 70
       4
  9
$DIMTDEC
 70
       4
  9
$DIMALTU
 70
       2
  9
$DIMALTTD
 70
       2
  9
$DIMTXSTY
  7
STANDARD
  9
$DIMAUNIT
 70
       0
  9
$LUNITS
 70
       2
  9
$LUPREC
 70
       4
  9
$SKETCHINC
 40
0.1
  9
$FILLETRAD
 40
0.0
  9
$AUNITS
 70
       0
  9
$AUPREC
 70
       0
  9
$MENU
  1
acad
  9
$ELEVATION
 40
0.0
  9
$PELEVATION
 40
0.0
  9
$THICKNESS
 40
0.0
  9
$LIMCHECK
 70
       0
  9
$BLIPMODE
 70
       1
  9
$CHAMFERA
 40
0.0
  9
$CHAMFERB
 40
0.0
  9
$CHAMFERC
 40
0.0
  9
$CHAMFERD
 40
0.0
  9
$SKPOLY
 70
       0
  9
$TDCREATE
 40
0.000000000
  9
$TDUPDATE
 40
0.000000000
  9
$TDINDWG
 40
0.0000000000
  9
$TDUSRTIMER
 40
0.0000000000
  9
$USRTIMER
 70
       1
  9
$ANGBASE
 50
0.0
  9
$ANGDIR
 70
       0
  9
$PDMODE
 70
       0
  9
$PDSIZE
 40
1.0
  9
$PLINEWID
 40
0.0
  9
$COORDS
 70
       1
  9
$SPLFRAME
 70
       0
  9
$SPLINETYPE
 70
       6
  9
$SPLINESEGS
 70
       8
  9
$ATTDIA
 70
       0
  9
$ATTREQ
 70
       1
  9
$HANDLING
 70
       1
  9
$HANDSEED
  5
288
  9
$SURFTAB1
 70
       6
  9
$SURFTAB2
 70
       6
  9
$SURFTYPE
 70
       6
  9
$SURFU
 70
       6
  9
$SURFV
 70
       6
  9
$UCSNAME
  2

  9
$UCSORG
 10
0.0
 20
0.0
 30
0.0
  9
$UCSXDIR
 10
1.0
 20
0.0
 30
0.0
  9
$UCSYDIR
 10
0.0
 20
1.0
 30
0.0
  9
$PUCSNAME
  2

  9
$PUCSORG
 10
0.0
 20
0.0
 30
0.0
  9
$PUCSXDIR
 10
1.0
 20
0.0
 30
0.0
  9
$PUCSYDIR
 10
0.0
 20
1.0
 30
0.0
  9
$USERI1
 70
       0
  9
$USERI2
 70
       0
  9
$USERI3
 70
       0
  9
$USERI4
 70
       0
  9
$USERI5
 70
       0
  9
$USERR1
 40
0.0
  9
$USERR2
 40
0.0
  9
$USERR3
 40
0.0
  9
$USERR4
 40
0.0
  9
$USERR5
 40
0.0
  9
$WORLDVIEW
 70
       1
  9
$SHADEDGE
 70
       3
  9
$SHADEDIF
 70
      70
  9
$TILEMODE
 70
       1
  9
$MAXACTVP
 70
      16
  9
$PINSBASE
 10
0.0
 20
0.0
 30
0.0
  9
$PLIMCHECK
 70
       0
  9
$PEXTMIN
 10
1.00000000E+20
 20
1.00000000E+20
 30
1.00000000E+20
  9
$PEXTMAX
 10
-1.00000000E+20
 20
-1.00000000E+20
 30
-1.00000000E+20
  9
$PLIMMIN
 10
0.0
 20
0.0
  9
$PLIMMAX
 10
12.0
 20
9.0
  9
$UNITMODE
 70
       0
  9
$VISRETAIN
 70
       0
  9
$PLINEGEN
 70
       1
  9
$PSLTSCALE
 70
       0
  9
$TREEDEPTH
 70
    3020
  9
$PICKSTYLE
 70
       1
  9
$CMLSTYLE
  2
STANDARD
  9
$CMLJUST
 70
       0
  9
$CMLSCALE
 40
1.0
  9
$PROXYGRAPHICS
 70
       0
  9
$MEASUREMENT
 70
       0
  0
ENDSEC
  0
SECTION
  2
CLASSES
  0
CLASS
  1
LWPOLYLINE
  2
AcDbPolyline
  3
"AutoCAD"
 90
        0
280
       0
281
       1
  0
CLASS
  1
IMAGE
  2
AcDbRasterImage
  3
ISM
 90
      127
280
       0
281
       1
  0
CLASS
  1
OLE2FRAME
  2
AcDbOle2Frame
  3
""
 90
        0
280
       0
281
       1
  0
CLASS
  1
HATCH
  2
AcDbHatch
  3
"ACAD_SEDONA"
 90
        0
280
       0
281
       1
  0
CLASS
  1
DICTIONARYVAR
  2
AcDbDictionaryVar
  3
"AutoCAD"
 90
        0
280
       0
281
       0
  0
CLASS
  1
RASTERVARIABLES
  2
AcDbRasterVariables
  3
ISM
 90
        0
280
       0
281
       0
  0
CLASS
  1
IMAGEDEF
  2
AcDbRasterImageDef
  3
ISM
 90
        0
280
       0
281
       0
  0
CLASS
  1
IMAGEDEF_REACTOR
  2
AcDbRasterImageDefReactor
  3
ISM
 90
        1
280
       0
281
       0
  0
CLASS
  1
IDBUFFER
  2
AcDbIdBuffer
  3
"Acad"
 90
        0
280
       0
281
       0
  0
CLASS
  1
SPATIAL_FILTER
  2
AcDbSpatialFilter
  3
"Acad"
 90
        0
280
       0
281
       0
  0
CLASS
  1
XRECORD
  2
AcDbXrecord
  3
"<Built In>"
 90
        0
280
       0
281
       0
  0
CLASS
  1
SORTENTSTABLE
  2
AcDbSortentsTable
  3
"AutoCAD"
 90
        0
280
       0
281
       0
  0
CLASS
  1
LAYER_INDEX
  2
AcDbLayerIndex
  3
"Acad"
 90
        0
280
       0
281
       0
  0
CLASS
  1
SPATIAL_INDEX
  2
AcDbSpatialIndex
  3
"Acad"
 90
        0
280
       0
281
       0
  0
CLASS
  1
OBJECT_PTR
  2
CAseDLPNTableRecord
  3
"ASE-LPNTableRecord"
 90
        1
280
       0
281
       0
  0
CLASS
  1
LAYOUT
  2
AcDbLayout
  3
"AutoCAD 2000"
 90
        1
280
       0
281
       0
  0
CLASS
  1
PLOTSETTINGS
  2
AcDbPlotSettings
  3
"AutoCAD 2000"
 90
        1
280
       0
281
       0
  0
CLASS
  1
ACDBDICTIONARYWDFLT
  2
AcDbDictionaryWithDefault
  3
"AutoCAD 2000"
 90
        1
280
       0
281
       0
  0
CLASS
  1
ACDBPLACEHOLDER
  2
AcDbPlaceHolder
  3
"AutoCAD 2000"
 90
        1
280
       0
281
       0
  0
CLASS
  1
VBA_PROJECT
  2
AcDbVbaProject
  3
"acadvba"
 90
        1
280
       0
281
       0
  0
CLASS
  1
WIPEOUT
  2
AcDbWipeout
  3
WipeOut|AutoCAD Express Tool|expresstools@autodesk.com
 90
      127
280
       0
281
       1
  0
CLASS
  1
WIPEOUTVARIABLES
  2
AcDbWipeoutVariables
  3
WipeOut|AutoCAD Express Tool|expresstools@autodesk.com
 90
        0
280
       0
281
       0
  0
CLASS
  1
RTEXT
  2
RText
  3
RText|AutoCAD Express Tool|expresstools@autodesk.com
 90
        0
280
       0
281
       1
  0
CLASS
  1
ARCALIGNEDTEXT
  2
AcDbArcAlignedText
  3
ATEXT|AutoCAD Express Tool|expresstools@autodesk.com
 90
        0
280
       0
281
       1
  0
ENDSEC
  0
SECTION
  2
TABLES
  0
TABLE
  2
VPORT
  5
7
100
AcDbSymbolTable
 70
       1
  0
VPORT
  5
15
100
AcDbSymbolTableRecord
100
AcDbViewportTableRecord
  2
*ACTIVE
 70
       0
 10
0.0
 20
0.0
 11
1.0
 21
1.0
 12
0.0
 22
0.0
 13
0.0
 23
0.0
 14
1.0
 24
1.0
 15
0.0
 25
0.0
 16
0.0
 26
0.0
 36
1.0
 17
0.0
 27
0.0
 37
0.0
 40
144.11820732
 41
1.40609486
 42
50.0
 43
0.0
 44
0.0
 50
0.0
 51
0.0
 71
       0
 72
     100
 73
       1
 74
       1
 75
       0
 76
       0
 77
       0
 78
       0
  0
ENDTAB
  0
TABLE
  2
LTYPE
  5
4
100
AcDbSymbolTable
 70
      30
  0
LTYPE
  5
11
100
AcDbSymbolTableRecord
100
AcDbLinetypeTableRecord
  2
BYBLOCK
 70
      64
  3

 72
      65
 73
       0
 40
0.0
  0
LTYPE
  5
12
100
AcDbSymbolTableRecord
100
AcDbLinetypeTableRecord
  2
BYLAYER
 70
      64
  3

 72
      65
 73
       0
 40
0.0
  0
LTYPE
  5
13
100
AcDbSymbolTableRecord
100
AcDbLinetypeTableRecord
  2
CONTINUOUS
 70
      64
  3
Solid line
 72
      65
 73
       0
 40
0.0
  0
LTYPE
  5
1D
100
AcDbSymbolTableRecord
100
AcDbLinetypeTableRecord
  2
HIDDENX2
 70
      64
  3
CADPAC LINETYPE
 72
      65
 73
       2
 40
7.67071351
 49
5.75303513
 74
       0
 49
-1.91767838
 74
       0
  0
LTYPE
  5
1E
100
AcDbSymbolTableRecord
100
AcDbLinetypeTableRecord
  2
HIDDEN
 70
      64
  3
CADPAC LINETYPE
 72
      65
 73
       2
 40
5.75303513
 49
3.83535675
 74
       0
 49
-1.91767838
 74
       0
  0
LTYPE
  5
1F
100
AcDbSymbolTableRecord
100
AcDbLinetypeTableRecord
  2
HIDDEN2
 70
      64
  3
CADPAC LINETYPE
 72
      65
 73
       2
 40
4.79419594
 49
2.87651757
 74
       0
 49
-1.91767838
 74
       0
  0
LTYPE
  5
20
100
AcDbSymbolTableRecord
100
AcDbLinetypeTableRecord
  2
DASHED
 70
      64
  3
CADPAC LINETYPE
 72
      65
 73
       2
 40
5.75303513
 49
3.83535675
 74
       0
 49
-1.91767838
 74
       0
  0
LTYPE
  5
21
100
AcDbSymbolTableRecord
100
AcDbLinetypeTableRecord
  2
DASHED2
 70
      64
  3
CADPAC LINETYPE
 72
      65
 73
       2
 40
4.31477635
 49
2.87651757
 74
       0
 49
-1.43825878
 74
       0
  0
LTYPE
  5
22
100
AcDbSymbolTableRecord
100
AcDbLinetypeTableRecord
  2
DASHEDX2
 70
      64
  3
CADPAC LINETYPE
 72
      65
 73
       2
 40
8.6295527
 49
5.75303513
 74
       0
 49
-2.87651757
 74
       0
  0
LTYPE
  5
23
100
AcDbSymbolTableRecord
100
AcDbLinetypeTableRecord
  2
DOTX2
 70
      64
  3
CADPAC LINETYPE
 72
      65
 73
       2
 40
2.39709797
 49
0.0
 74
       0
 49
-2.39709797
 74
       0
  0
LTYPE
  5
24
100
AcDbSymbolTableRecord
100
AcDbLinetypeTableRecord
  2
DOT
 70
      64
  3
CADPAC LINETYPE
 72
      65
 73
       2
 40
1.91767838
 49
0.0
 74
       0
 49
-1.91767838
 74
       0
  0
LTYPE
  5
25
100
AcDbSymbolTableRecord
100
AcDbLinetypeTableRecord
  2
DOT2
 70
      64
  3
CADPAC LINETYPE
 72
      65
 73
       2
 40
1.43825878
 49
0.0
 74
       0
 49
-1.43825878
 74
       0
  0
LTYPE
  5
26
100
AcDbSymbolTableRecord
100
AcDbLinetypeTableRecord
  2
CENTERX2
 70
      64
  3
CADPAC LINETYPE
 72
      65
 73
       4
 40
11.50607026
 49
4.79419594
 74
       0
 49
-2.39709797
 74
       0
 49
1.91767838
 74
       0
 49
-2.39709797
 74
       0
  0
LTYPE
  5
27
100
AcDbSymbolTableRecord
100
AcDbLinetypeTableRecord
  2
CENTER
 70
      64
  3
CADPAC LINETYPE
 72
      65
 73
       4
 40
8.82132054
 49
3.83535675
 74
       0
 49
-1.91767838
 74
       0
 49
1.15060703
 74
       0
 49
-1.91767838
 74
       0
  0
LTYPE
  5
28
100
AcDbSymbolTableRecord
100
AcDbLinetypeTableRecord
  2
CENTER2
 70
      64
  3
CADPAC LINETYPE
 72
      65
 73
       4
 40
6.13657081
 49
2.87651757
 74
       0
 49
-1.43825878
 74
       0
 49
0.38353568
 74
       0
 49
-1.43825878
 74
       0
  0
LTYPE
  5
29
100
AcDbSymbolTableRecord
100
AcDbLinetypeTableRecord
  2
DASHDOTX2
 70
      64
  3
CADPAC LINETYPE
 72
      65
 73
       4
 40
9.58839189
 49
4.79419594
 74
       0
 49
-2.39709797
 74
       0
 49
0.0
 74
       0
 49
-2.39709797
 74
       0
  0
LTYPE
  5
2A
100
AcDbSymbolTableRecord
100
AcDbLinetypeTableRecord
  2
DASHDOT
 70
      64
  3
CADPAC LINETYPE
 72
      65
 73
       4
 40
7.67071351
 49
3.83535675
 74
       0
 49
-1.91767838
 74
       0
 49
0.0
 74
       0
 49
-1.91767838
 74
       0
  0
LTYPE
  5
2B
100
AcDbSymbolTableRecord
100
AcDbLinetypeTableRecord
  2
DASHDOT2
 70
      64
  3
CADPAC LINETYPE
 72
      65
 73
       4
 40
5.75303513
 49
2.87651757
 74
       0
 49
-1.43825878
 74
       0
 49
0.0
 74
       0
 49
-1.43825878
 74
       0
  0
LTYPE
  5
2C
100
AcDbSymbolTableRecord
100
AcDbLinetypeTableRecord
  2
DIVIDEX2
 70
      64
  3
CADPAC LINETYPE
 72
      65
 73
       6
 40
11.98548986
 49
4.79419594
 74
       0
 49
-2.39709797
 74
       0
 49
0.0
 74
       0
 49
-2.39709797
 74
       0
 49
0.0
 74
       0
 49
-2.39709797
 74
       0
  0
LTYPE
  5
2D
100
AcDbSymbolTableRecord
100
AcDbLinetypeTableRecord
  2
DIVIDE
 70
      64
  3
CADPAC LINETYPE
 72
      65
 73
       6
 40
9.58839189
 49
3.83535675
 74
       0
 49
-1.91767838
 74
       0
 49
0.0
 74
       0
 49
-1.91767838
 74
       0
 49
0.0
 74
       0
 49
-1.91767838
 74
       0
  0
LTYPE
  5
2E
100
AcDbSymbolTableRecord
100
AcDbLinetypeTableRecord
  2
DIVIDE2
 70
      64
  3
CADPAC LINETYPE
 72
      65
 73
       6
 40
7.19129391
 49
2.87651757
 74
       0
 49
-1.43825878
 74
       0
 49
0.0
 74
       0
 49
-1.43825878
 74
       0
 49
0.0
 74
       0
 49
-1.43825878
 74
       0
  0
LTYPE
  5
2F
100
AcDbSymbolTableRecord
100
AcDbLinetypeTableRecord
  2
BORDERX2
 70
      64
  3
CADPAC LINETYPE
 72
      65
 73
       6
 40
16.7796858
 49
4.79419594
 74
       0
 49
-2.39709797
 74
       0
 49
4.79419594
 74
       0
 49
-2.39709797
 74
       0
 49
0.0
 74
       0
 49
-2.39709797
 74
       0
  0
LTYPE
  5
30
100
AcDbSymbolTableRecord
100
AcDbLinetypeTableRecord
  2
BORDER
 70
      64
  3
CADPAC LINETYPE
 72
      65
 73
       6
 40
13.42374864
 49
3.83535675
 74
       0
 49
-1.91767838
 74
       0
 49
3.83535675
 74
       0
 49
-1.91767838
 74
       0
 49
0.0
 74
       0
 49
-1.91767838
 74
       0
  0
LTYPE
  5
31
100
AcDbSymbolTableRecord
100
AcDbLinetypeTableRecord
  2
BORDER2
 70
      64
  3
CADPAC LINETYPE
 72
      65
 73
       6
 40
10.06781148
 49
2.87651757
 74
       0
 49
-1.43825878
 74
       0
 49
2.87651757
 74
       0
 49
-1.43825878
 74
       0
 49
0.0
 74
       0
 49
-1.43825878
 74
       0
  0
LTYPE
  5
32
100
AcDbSymbolTableRecord
100
AcDbLinetypeTableRecord
  2
PHANTOMX2
 70
      64
  3
CADPAC LINETYPE
 72
      65
 73
       6
 40
14.38258783
 49
4.79419594
 74
       0
 49
-1.91767838
 74
       0
 49
1.91767838
 74
       0
 49
-1.91767838
 74
       0
 49
1.91767838
 74
       0
 49
-1.91767838
 74
       0
  0
LTYPE
  5
33
100
AcDbSymbolTableRecord
100
AcDbLinetypeTableRecord
  2
PHANTOM
 70
      64
  3
CADPAC LINETYPE
 72
      65
 73
       6
 40
11.88960594
 49
3.83535675
 74
       0
 49
-1.91767838
 74
       0
 49
1.15060703
 74
       0
 49
-1.91767838
 74
       0
 49
1.15060703
 74
       0
 49
-1.91767838
 74
       0
  0
LTYPE
  5
34
100
AcDbSymbolTableRecord
100
AcDbLinetypeTableRecord
  2
PHANTOM2
 70
      64
  3
CADPAC LINETYPE
 72
      65
 73
       6
 40
10.1636954
 49
2.87651757
 74
       0
 49
-1.91767838
 74
       0
 49
0.76707135
 74
       0
 49
-1.91767838
 74
       0
 49
0.76707135
 74
       0
 49
-1.91767838
 74
       0
  0
LTYPE
  5
35
100
AcDbSymbolTableRecord
100
AcDbLinetypeTableRecord
  2
ACAD_ISO06W100
 70
      64
  3
CADPAC LINETYPE
 72
      65
 73
       8
 40
12.94432905
 49
4.79419594
 74
       0
 49
-2.39709797
 74
       0
 49
0.0
 74
       0
 49
-1.91767838
 74
       0
 49
0.0
 74
       0
 49
-1.91767838
 74
       0
 49
0.0
 74
       0
 49
-1.91767838
 74
       0
  0
LTYPE
  5
36
100
AcDbSymbolTableRecord
100
AcDbLinetypeTableRecord
  2
ACAD_ISO13W100
 70
      64
  3
CADPAC LINETYPE
 72
      65
 73
       8
 40
15.34142702
 49
3.83535675
 74
       0
 49
-1.91767838
 74
       0
 49
3.83535675
 74
       0
 49
-1.91767838
 74
       0
 49
0.0
 74
       0
 49
-1.91767838
 74
       0
 49
0.0
 74
       0
 49
-1.91767838
 74
       0
  0
LTYPE
  5
37
100
AcDbSymbolTableRecord
100
AcDbLinetypeTableRecord
  2
ACAD_ISO14W100
 70
      64
  3
CADPAC LINETYPE
 72
      65
 73
       8
 40
11.50607026
 49
3.83535675
 74
       0
 49
-1.91767838
 74
       0
 49
0.0
 74
       0
 49
-1.91767838
 74
       0
 49
0.0
 74
       0
 49
-1.91767838
 74
       0
 49
0.0
 74
       0
 49
-1.91767838
 74
       0
  0
ENDTAB
  0
TABLE
  2
LAYER
  5
2
100
AcDbSymbolTable
 70
       3
  0
LAYER
  5
14
100
AcDbSymbolTableRecord
100
AcDbLayerTableRecord
  2
0
 70
       0
 62
       7
  6
CONTINUOUS
  0
LAYER
  5
38
100
AcDbSymbolTableRecord
100
AcDbLayerTableRecord
  2
SLD-0_0
 70
       0
 62
       7
  6
CONTINUOUS
  0
LAYER
  5
39
100
AcDbSymbolTableRecord
100
AcDbLayerTableRecord
  2
SLD-0
 70
       0
 62
       7
  6
CONTINUOUS
  0
ENDTAB
  0
TABLE
  2
STYLE
  5
3
100
AcDbSymbolTable
 70
       1
  0
STYLE
  5
17
100
AcDbSymbolTableRecord
100
AcDbTextStyleTableRecord
  2
STANDARD
 70
       0
 40
0.0
 41
1.0
 50
0.0
 71
       0
 42
5.0
  3
txt.shx
  4
bigfont.shx
  0
ENDTAB
  0
TABLE
  2
VIEW
  5
5
100
AcDbSymbolTable
 70
       1
  0
VIEW
  5
3A
100
AcDbSymbolTableRecord
100
AcDbViewTableRecord
  2
QQQQ
 70
       0
 40
144.11820732
 10
0.0
 20
0.0
 41
202.64387012
 11
0.0
 21
0.0
 31
1.0
 12
100.0
 22
100.0
 32
0.0
 42
50.0
 43
0.0
 44
0.0
 50
0.0
 71
       0
  0
ENDTAB
  0
TABLE
  2
UCS
  5
6
100
AcDbSymbolTable
 70
       0
  0
ENDTAB
  0
TABLE
  2
APPID
  5
8
100
AcDbSymbolTable
 70
       1
  0
APPID
  5
16
100
AcDbSymbolTableRecord
100
AcDbRegAppTableRecord
  2
ACAD
 70
       0
  0
ENDTAB
  0
TABLE
  2
DIMSTYLE
  5
9
100
AcDbSymbolTable
 70
       1
  0
DIMSTYLE
105
18
100
AcDbSymbolTableRecord
100
AcDbDimStyleTableRecord
  2
STANDARD
 70
       0
  3

  4

  5

  6

  7

 40
1.0
 41
0.18
 42
0.0625
 43
0.38
 44
0.18
 45
0.0
 46
0.0
 47
0.0
 48
0.0
 71
       0
 72
       0
 73
       1
 74
       1
 75
       0
 76
       0
 77
       0
 78
       0
140
0.18
141
0.09
142
0.0
143
25.4
144
1.0
145
0.0
146
1.0
147
0.09
170
       0
171
       2
172
       0
173
       0
174
       0
175
       0
176
       0
177
       0
178
       0
270
       2
271
       4
272
       4
273
       2
274
       2
275
       0
280
       0
281
       0
282
       0
283
       1
284
       0
285
       0
286
       0
287
       0
288
       0
340
17
  0
ENDTAB
  0
TABLE
  2
BLOCK_RECORD
  5
1
100
AcDbSymbolTable
 70
       0
  0
BLOCK_RECORD
  5
A
100
AcDbSymbolTableRecord
100
AcDbBlockTableRecord
  2
*MODEL_SPACE
  0
BLOCK_RECORD
  5
B
100
AcDbSymbolTableRecord
100
AcDbBlockTableRecord
  2
*PAPER_SPACE
  0
ENDTAB
  0
ENDSEC
  0
SECTION
  2
BLOCKS
  0
BLOCK
  5
D
100
AcDbEntity
  8
0
100
AcDbBlockBegin
  2
*MODEL_SPACE
 70
       0
 10
0.0
 20
0.0
 30
0.0
  3
*MODEL_SPACE
  1

  0
ENDBLK
  5
E
100
AcDbEntity
  8
0
100
AcDbBlockEnd
  0
BLOCK
  5
F
100
AcDbEntity
 67
       1
  8
0
100
AcDbBlockBegin
  2
*PAPER_SPACE
 70
       0
 10
0.0
 20
0.0
 30
0.0
  3
*PAPER_SPACE
  1

  0
ENDBLK
  5
10
100
AcDbEntity
 67
       1
  8
0
100
AcDbBlockEnd
  0
ENDSEC
  0
SECTION
  2
ENTITIES
  0
LINE
  5
3B
100
AcDbEntity
  8
SLD-0
  6
CONTINUOUS
 62
       3
100
AcDbLine
 10
-87.13403665
 20
55.20848573
 30
0.0
 11
-87.13403665
 21
-34.79151427
 31
0.0
  0
LINE
  5
3C
100
AcDbEntity
  8
SLD-0
  6
CONTINUOUS
 62
       3
100
AcDbLine
 10
-69.13403665
 20
55.20848573
 30
0.0
 11
-69.13403665
 21
-34.79151427
 31
0.0
  0
LINE
  5
3D
100
AcDbEntity
  8
SLD-0
  6
CONTINUOUS
 62
       3
100
AcDbLine
 10
-69.13403665
 20
55.20848573
 30
0.0
 11
-87.13403665
 21
55.20848573
 31
0.0
  0
LINE
  5
3E
100
AcDbEntity
  8
SLD-0
  6
CONTINUOUS
 62
       3
100
AcDbLine
 10
-69.13403665
 20
-34.79151427
 30
0.0
 11
-87.13403665
 21
-34.79151427
 31
0.0
  0
LINE
  5
3F
100
AcDbEntity
  8
SLD-0
  6
CONTINUOUS
 62
       3
100
AcDbLine
 10
-75.1340367
 20
60.80848573
 30
0.0
 11
-81.13403745
 21
60.80848573
 31
0.0
  0
LINE
  5
40
100
AcDbEntity
  8
SLD-0
  6
CONTINUOUS
 62
       3
100
AcDbLine
 10
-75.1340367
 20
60.80848573
 30
0.0
 11
-75.1340367
 21
55.20848573
 31
0.0
  0
LINE
  5
41
100
AcDbEntity
  8
SLD-0
  6
CONTINUOUS
 62
       3
100
AcDbLine
 10
-81.13403745
 20
55.20848573
 30
0.0
 11
-81.13403745
 21
60.80848573
 31
0.0
  0
LINE
  5
42
100
AcDbEntity
  8
SLD-0
  6
CONTINUOUS
 62
       3
100
AcDbLine
 10
-87.13403665
 20
-32.45854787
 30
0.0
 11
-69.13403665
 21
-32.45854787
 31
0.0
  0
LINE
  5
43
100
AcDbEntity
  8
SLD-0
  6
CONTINUOUS
 62
       3
100
AcDbLine
 10
-69.13403665
 20
53.20848563
 30
0.0
 11
-87.13403665
 21
53.20848563
 31
0.0
  0
LINE
  5
44
100
AcDbEntity
  8
SLD-0
  6
CONTINUOUS
 62
       3
100
AcDbLine
 10
-69.13403665
 20
8.12061892
 30
0.0
 11
-87.13403665
 21
8.12061892
 31
0.0
  0
LINE
  5
45
100
AcDbEntity
  8
SLD-0
  6
CONTINUOUS
 62
       3
100
AcDbLine
 10
-87.13403665
 20
8.33274812
 30
0.0
 11
-87.13403665
 21
8.12061892
 31
0.0
  0
LINE
  5
46
100
AcDbEntity
  8
SLD-0
  6
CONTINUOUS
 62
       3
100
AcDbLine
 10
-69.13403665
 20
8.33274812
 30
0.0
 11
-69.13403665
 21
8.12061892
 31
0.0
  0
LINE
  5
47
100
AcDbEntity
  8
SLD-0
  6
CONTINUOUS
 62
       3
100
AcDbLine
 10
84.3685346
 20
50.20848573
 30
0.0
 11
91.46888576
 21
50.20848573
 31
0.0
  0
LINE
  5
48
100
AcDbEntity
  8
SLD-0
  6
CONTINUOUS
 62
       3
100
AcDbLine
 10
89.27046697
 20
52.20848718
 30
0.0
 11
84.36853628
 21
52.20848718
 31
0.0
  0
LINE
  5
49
100
AcDbEntity
  8
SLD-0
  6
CONTINUOUS
 62
       3
100
AcDbLine
 10
89.27046697
 20
52.66508205
 30
0.0
 11
89.27046697
 21
52.20848718
 31
0.0
  0
LINE
  5
4A
100
AcDbEntity
  8
SLD-0
  6
CONTINUOUS
 62
       3
100
AcDbLine
 10
91.69405888
 20
50.70669228
 30
0.0
 11
89.79562114
 21
52.86329893
 31
0.0
  0
LINE
  5
4B
100
AcDbEntity
  8
SLD-0
  6
CONTINUOUS
 62
       3
100
AcDbLine
 10
65.02049439
 20
59.06597495
 30
0.0
 11
67.22147785
 21
55.2537576
 31
0.0
  0
LINE
  5
4C
100
AcDbEntity
  8
SLD-0
  6
CONTINUOUS
 62
       3
100
AcDbLine
 10
67.22147785
 20
55.2537576
 30
0.0
 11
67.19880574
 21
55.2144867
 31
0.0
  0
LINE
  5
4D
100
AcDbEntity
  8
SLD-0
  6
CONTINUOUS
 62
       3
100
AcDbLine
 10
64.74353768
 20
59.75511919
 30
0.0
 11
65.10017835
 21
59.13740179
 31
0.0
  0
LINE
  5
4E
100
AcDbEntity
  8
SLD-0
  6
CONTINUOUS
 62
       3
100
AcDbLine
 10
65.02049439
 20
59.06597495
 30
0.0
 11
65.10017835
 21
59.13740179
 31
0.0
  0
LINE
  5
4F
100
AcDbEntity
  8
SLD-0
  6
CONTINUOUS
 62
       3
100
AcDbLine
 10
62.0685371
 20
55.20848573
 30
0.0
 11
62.0685371
 21
55.30797331
 31
0.0
  0
LINE
  5
50
100
AcDbEntity
  8
SLD-0
  6
CONTINUOUS
 62
       3
100
AcDbLine
 10
60.84642209
 20
57.50512162
 30
0.0
 11
62.02834867
 21
55.45796762
 31
0.0
  0
LINE
  5
51
100
AcDbEntity
  8
SLD-0
  6
CONTINUOUS
 62
       3
100
AcDbLine
 10
63.44449915
 20
59.00512046
 30
0.0
 11
65.63648604
 21
55.20848573
 31
0.0
  0
LINE
  5
52
100
AcDbEntity
  8
SLD-0
  6
CONTINUOUS
 62
       3
100
AcDbLine
 10
63.56853806
 20
55.20848573
 30
0.0
 11
63.56853806
 21
55.70989864
 31
0.0
  0
LINE
  5
53
100
AcDbEntity
  8
SLD-0
  6
CONTINUOUS
 62
       3
100
AcDbLine
 10
63.52834796
 20
55.85989009
 30
0.0
 11
62.14546062
 21
58.25512035
 31
0.0
  0
LINE
  5
54
100
AcDbEntity
  8
SLD-0
  6
CONTINUOUS
 62
       3
100
AcDbLine
 10
74.96821158
 20
57.21486119
 30
0.0
 11
75.70662372
 21
57.45860577
 31
0.0
  0
LINE
  5
55
100
AcDbEntity
  8
SLD-0
  6
CONTINUOUS
 62
       3
100
AcDbLine
 10
74.58242051
 20
57.8900193
 30
0.0
 11
74.96821158
 21
57.21486119
 31
0.0
  0
LINE
  5
56
100
AcDbEntity
  8
SLD-0
  6
CONTINUOUS
 62
       3
100
AcDbLine
 10
77.11981259
 20
56.25716601
 30
0.0
 11
77.87966751
 21
56.42239033
 31
0.0
  0
LINE
  5
57
100
AcDbEntity
  8
SLD-0
  6
CONTINUOUS
 62
       3
100
AcDbLine
 10
76.80670939
 20
56.96895188
 30
0.0
 11
77.11981259
 21
56.25716601
 31
0.0
  0
LINE
  5
58
100
AcDbEntity
  8
SLD-0
  6
CONTINUOUS
 62
       3
100
AcDbLine
 10
76.05654769
 20
56.76418442
 30
0.0
 11
76.80670939
 21
56.96895188
 31
0.0
  0
LINE
  5
59
100
AcDbEntity
  8
SLD-0
  6
CONTINUOUS
 62
       3
100
AcDbLine
 10
75.70662372
 20
57.45860577
 30
0.0
 11
76.05654769
 21
56.76418442
 31
0.0
  0
LINE
  5
5A
100
AcDbEntity
  8
SLD-0
  6
CONTINUOUS
 62
       3
100
AcDbLine
 10
72.72828393
 20
57.94240596
 30
0.0
 11
73.43718432
 21
58.26200165
 31
0.0
  0
LINE
  5
5B
100
AcDbEntity
  8
SLD-0
  6
CONTINUOUS
 62
       3
100
AcDbLine
 10
72.27403693
 20
58.57353953
 30
0.0
 11
72.72828393
 21
57.94240596
 31
0.0
  0
LINE
  5
5C
100
AcDbEntity
  8
SLD-0
  6
CONTINUOUS
 62
       3
100
AcDbLine
 10
73.85777704
 20
57.60796081
 30
0.0
 11
74.58242051
 21
57.8900193
 31
0.0
  0
LINE
  5
5D
100
AcDbEntity
  8
SLD-0
  6
CONTINUOUS
 62
       3
100
AcDbLine
 10
73.43718432
 20
58.26200165
 30
0.0
 11
73.85777704
 21
57.60796081
 31
0.0
  0
LINE
  5
5E
100
AcDbEntity
  8
SLD-0
  6
CONTINUOUS
 62
       3
100
AcDbLine
 10
68.08234029
 20
58.67776919
 30
0.0
 11
68.70929919
 21
59.13776874
 31
0.0
  0
LINE
  5
5F
100
AcDbEntity
  8
SLD-0
  6
CONTINUOUS
 62
       3
100
AcDbLine
 10
67.50680156
 20
59.20066701
 30
0.0
 11
68.08234029
 21
58.67776919
 31
0.0
  0
LINE
  5
60
100
AcDbEntity
  8
SLD-0
  6
CONTINUOUS
 62
       3
100
AcDbLine
 10
71.58283912
 20
58.21728
 30
0.0
 11
72.27403693
 21
58.57353953
 31
0.0
  0
LINE
  5
61
100
AcDbEntity
  8
SLD-0
  6
CONTINUOUS
 62
       3
100
AcDbLine
 10
71.09618954
 20
58.82377404
 30
0.0
 11
71.58283912
 21
58.21728
 31
0.0
  0
LINE
  5
62
100
AcDbEntity
  8
SLD-0
  6
CONTINUOUS
 62
       3
100
AcDbLine
 10
70.42458303
 20
58.43182949
 30
0.0
 11
71.09618954
 21
58.82377404
 31
0.0
  0
LINE
  5
63
100
AcDbEntity
  8
SLD-0
  6
CONTINUOUS
 62
       3
100
AcDbLine
 10
69.90685336
 20
59.01202297
 30
0.0
 11
70.42458303
 21
58.43182949
 31
0.0
  0
LINE
  5
64
100
AcDbEntity
  8
SLD-0
  6
CONTINUOUS
 62
       3
100
AcDbLine
 10
66.90477975
 20
58.70848561
 30
0.0
 11
67.50680156
 21
59.20066701
 31
0.0
  0
LINE
  5
65
100
AcDbEntity
  8
SLD-0
  6
CONTINUOUS
 62
       3
100
AcDbLine
 10
66.30266108
 20
59.20054501
 30
0.0
 11
66.90477975
 21
58.70848561
 31
0.0
  0
LINE
  5
66
100
AcDbEntity
  8
SLD-0
  6
CONTINUOUS
 62
       3
100
AcDbLine
 10
69.25668217
 20
58.58546628
 30
0.0
 11
69.90685336
 21
59.01202297
 31
0.0
  0
LINE
  5
67
100
AcDbEntity
  8
SLD-0
  6
CONTINUOUS
 62
       3
100
AcDbLine
 10
68.70929919
 20
59.13776874
 30
0.0
 11
69.25668217
 21
58.58546628
 31
0.0
  0
LINE
  5
68
100
AcDbEntity
  8
SLD-0
  6
CONTINUOUS
 62
       3
100
AcDbLine
 10
65.72722294
 20
58.677531
 30
0.0
 11
66.30266108
 21
59.20054501
 31
0.0
  0
LINE
  5
69
100
AcDbEntity
  8
SLD-0
  6
CONTINUOUS
 62
       3
100
AcDbLine
 10
65.10017835
 20
59.13740179
 30
0.0
 11
65.72722294
 21
58.677531
 31
0.0
  0
LINE
  5
6A
100
AcDbEntity
  8
SLD-0
  6
CONTINUOUS
 62
       3
100
AcDbLine
 10
77.87966751
 20
56.42239033
 30
0.0
 11
78.15508567
 21
55.69519559
 31
0.0
  0
LINE
  5
6B
100
AcDbEntity
  8
SLD-0
  6
CONTINUOUS
 62
       3
100
AcDbLine
 10
78.92254017
 20
55.82042543
 30
0.0
 11
79.11834888
 21
55.20848576
 31
0.0
  0
LINE
  5
6C
100
AcDbEntity
  8
SLD-0
  6
CONTINUOUS
 62
       3
100
AcDbLine
 10
78.15508567
 20
55.69519559
 30
0.0
 11
78.92254017
 21
55.82042543
 31
0.0
  0
LINE
  5
6D
100
AcDbEntity
  8
SLD-0
  6
CONTINUOUS
 62
       3
100
AcDbLine
 10
-5.63146186
 20
53.20848572
 30
0.0
 11
-5.63146186
 21
8.33274988
 31
0.0
  0
LINE
  5
6E
100
AcDbEntity
  8
SLD-0
  6
CONTINUOUS
 62
       3
100
AcDbLine
 10
7.86853811
 20
-34.79151785
 30
0.0
 11
7.86853811
 21
55.20848573
 31
0.0
  0
LINE
  5
6F
100
AcDbEntity
  8
SLD-0
  6
CONTINUOUS
 62
       3
100
AcDbLine
 10
5.86853499
 20
-34.79151448
 30
0.0
 11
74.268535
 21
-34.79165853
 31
0.0
  0
LINE
  5
70
100
AcDbEntity
  8
SLD-0
  6
CONTINUOUS
 62
       3
100
AcDbLine
 10
74.268535
 20
-34.79165853
 30
0.0
 11
74.26853807
 21
-28.79151427
 31
0.0
  0
LINE
  5
71
100
AcDbEntity
  8
SLD-0
  6
CONTINUOUS
 62
       3
100
AcDbLine
 10
84.36853807
 20
-16.03965166
 30
0.0
 11
84.36853461
 21
45.80848587
 31
0.0
  0
LINE
  5
72
100
AcDbEntity
  8
SLD-0
  6
CONTINUOUS
 62
       3
100
AcDbLine
 10
84.36853571
 20
-28.79151314
 30
0.0
 11
74.26853807
 21
-28.79151427
 31
0.0
  0
LINE
  5
73
100
AcDbEntity
  8
SLD-0
  6
CONTINUOUS
 62
       3
100
AcDbLine
 10
74.35470117
 20
-27.29151755
 30
0.0
 11
85.86853785
 21
-27.29151755
 31
0.0
  0
LINE
  5
74
100
AcDbEntity
  8
SLD-0
  6
CONTINUOUS
 62
       3
100
AcDbLine
 10
85.86853785
 20
-27.29151755
 30
0.0
 11
85.86853785
 21
-28.79151314
 31
0.0
  0
LINE
  5
75
100
AcDbEntity
  8
SLD-0
  6
CONTINUOUS
 62
       3
100
AcDbLine
 10
88.86853827
 20
-28.79151427
 30
0.0
 11
88.86853648
 21
-23.4128347
 31
0.0
  0
LINE
  5
76
100
AcDbEntity
  8
SLD-0
  6
CONTINUOUS
 62
       3
100
AcDbLine
 10
88.86853648
 20
-23.4128347
 30
0.0
 11
82.20695002
 21
-16.75124824
 31
0.0
  0
LINE
  5
77
100
AcDbEntity
  8
SLD-0
  6
CONTINUOUS
 62
       3
100
AcDbLine
 10
83.77193792
 20
-16.19491338
 30
0.0
 11
90.36854042
 21
-22.79151588
 31
0.0
  0
LINE
  5
78
100
AcDbEntity
  8
SLD-0
  6
CONTINUOUS
 62
       3
100
AcDbLine
 10
90.36854042
 20
-22.79151588
 30
0.0
 11
90.36854042
 21
-28.79151314
 31
0.0
  0
LINE
  5
79
100
AcDbEntity
  8
SLD-0
  6
CONTINUOUS
 62
       3
100
AcDbLine
 10
84.36853461
 20
46.40848578
 30
0.0
 11
84.36853461
 21
45.80848587
 31
0.0
  0
LINE
  5
7A
100
AcDbEntity
  8
SLD-0
  6
CONTINUOUS
 62
       3
100
AcDbLine
 10
-3.63146194
 20
55.20848573
 30
0.0
 11
84.36853461
 21
55.20848573
 31
0.0
  0
LINE
  5
7B
100
AcDbEntity
  8
SLD-0
  6
CONTINUOUS
 62
       3
100
AcDbLine
 10
84.36853461
 20
55.20848573
 30
0.0
 11
84.36853461
 21
46.40848578
 31
0.0
  0
LINE
  5
7C
100
AcDbEntity
  8
SLD-0
  6
CONTINUOUS
 62
       3
100
AcDbLine
 10
73.66853974
 20
-34.09151345
 30
0.0
 11
73.56853805
 21
-34.09151345
 31
0.0
  0
LINE
  5
7D
100
AcDbEntity
  8
SLD-0
  6
CONTINUOUS
 62
       3
100
AcDbLine
 10
8.86853806
 20
-34.79151785
 30
0.0
 11
8.86853806
 21
55.20848573
 31
0.0
  0
LINE
  5
7E
100
AcDbEntity
  8
SLD-0
  6
CONTINUOUS
 62
       3
100
AcDbLine
 10
89.57041244
 20
52.96509878
 30
0.0
 11
89.55992987
 21
52.96400415
 31
0.0
  0
LINE
  5
7F
100
AcDbEntity
  8
SLD-0
  6
CONTINUOUS
 62
       3
100
AcDbLine
 10
89.55992987
 20
52.96400415
 30
0.0
 11
89.54945979
 21
52.96286549
 31
0.0
  0
LINE
  5
80
100
AcDbEntity
  8
SLD-0
  6
CONTINUOUS
 62
       3
100
AcDbLine
 10
89.54945979
 20
52.96286549
 30
0.0
 11
89.53901472
 21
52.96163875
 31
0.0
  0
LINE
  5
81
100
AcDbEntity
  8
SLD-0
  6
CONTINUOUS
 62
       3
100
AcDbLine
 10
89.53901472
 20
52.96163875
 30
0.0
 11
89.52860716
 21
52.96027988
 31
0.0
  0
LINE
  5
82
100
AcDbEntity
  8
SLD-0
  6
CONTINUOUS
 62
       3
100
AcDbLine
 10
89.52860716
 20
52.96027988
 30
0.0
 11
89.5182496
 21
52.95874487
 31
0.0
  0
LINE
  5
83
100
AcDbEntity
  8
SLD-0
  6
CONTINUOUS
 62
       3
100
AcDbLine
 10
89.5182496
 20
52.95874487
 30
0.0
 11
89.50795455
 21
52.95698965
 31
0.0
  0
LINE
  5
84
100
AcDbEntity
  8
SLD-0
  6
CONTINUOUS
 62
       3
100
AcDbLine
 10
89.50795455
 20
52.95698965
 30
0.0
 11
89.49773451
 21
52.95497018
 31
0.0
  0
LINE
  5
85
100
AcDbEntity
  8
SLD-0
  6
CONTINUOUS
 62
       3
100
AcDbLine
 10
89.49773451
 20
52.95497018
 30
0.0
 11
89.48760199
 21
52.95264243
 31
0.0
  0
LINE
  5
86
100
AcDbEntity
  8
SLD-0
  6
CONTINUOUS
 62
       3
100
AcDbLine
 10
89.48760199
 20
52.95264243
 30
0.0
 11
89.47756948
 21
52.94996235
 31
0.0
  0
LINE
  5
87
100
AcDbEntity
  8
SLD-0
  6
CONTINUOUS
 62
       3
100
AcDbLine
 10
89.47756948
 20
52.94996235
 30
0.0
 11
89.46764948
 21
52.94688592
 31
0.0
  0
LINE
  5
88
100
AcDbEntity
  8
SLD-0
  6
CONTINUOUS
 62
       3
100
AcDbLine
 10
89.46764948
 20
52.94688592
 30
0.0
 11
89.45785443
 21
52.94337473
 31
0.0
  0
LINE
  5
89
100
AcDbEntity
  8
SLD-0
  6
CONTINUOUS
 62
       3
100
AcDbLine
 10
89.45785443
 20
52.94337473
 30
0.0
 11
89.44819623
 21
52.93943086
 31
0.0
  0
LINE
  5
8A
100
AcDbEntity
  8
SLD-0
  6
CONTINUOUS
 62
       3
100
AcDbLine
 10
89.44819623
 20
52.93943086
 30
0.0
 11
89.43868655
 21
52.93507402
 31
0.0
  0
LINE
  5
8B
100
AcDbEntity
  8
SLD-0
  6
CONTINUOUS
 62
       3
100
AcDbLine
 10
89.43868655
 20
52.93507402
 30
0.0
 11
89.42933705
 21
52.930324
 31
0.0
  0
LINE
  5
8C
100
AcDbEntity
  8
SLD-0
  6
CONTINUOUS
 62
       3
100
AcDbLine
 10
89.42933705
 20
52.930324
 30
0.0
 11
89.42015942
 21
52.92520058
 31
0.0
  0
LINE
  5
8D
100
AcDbEntity
  8
SLD-0
  6
CONTINUOUS
 62
       3
100
AcDbLine
 10
89.42015942
 20
52.92520058
 30
0.0
 11
89.41116532
 21
52.91972355
 31
0.0
  0
LINE
  5
8E
100
AcDbEntity
  8
SLD-0
  6
CONTINUOUS
 62
       3
100
AcDbLine
 10
89.41116532
 20
52.91972355
 30
0.0
 11
89.40236643
 21
52.91391271
 31
0.0
  0
LINE
  5
8F
100
AcDbEntity
  8
SLD-0
  6
CONTINUOUS
 62
       3
100
AcDbLine
 10
89.40236643
 20
52.91391271
 30
0.0
 11
89.39377441
 21
52.90778781
 31
0.0
  0
LINE
  5
90
100
AcDbEntity
  8
SLD-0
  6
CONTINUOUS
 62
       3
100
AcDbLine
 10
89.39377441
 20
52.90778781
 30
0.0
 11
89.38540094
 21
52.90136867
 31
0.0
  0
LINE
  5
91
100
AcDbEntity
  8
SLD-0
  6
CONTINUOUS
 62
       3
100
AcDbLine
 10
89.38540094
 20
52.90136867
 30
0.0
 11
89.37725768
 21
52.89467507
 31
0.0
  0
LINE
  5
92
100
AcDbEntity
  8
SLD-0
  6
CONTINUOUS
 62
       3
100
AcDbLine
 10
89.37725768
 20
52.89467507
 30
0.0
 11
89.36935631
 21
52.88772677
 31
0.0
  0
LINE
  5
93
100
AcDbEntity
  8
SLD-0
  6
CONTINUOUS
 62
       3
100
AcDbLine
 10
89.36935631
 20
52.88772677
 30
0.0
 11
89.36170798
 21
52.88054107
 31
0.0
  0
LINE
  5
94
100
AcDbEntity
  8
SLD-0
  6
CONTINUOUS
 62
       3
100
AcDbLine
 10
89.36170798
 20
52.88054107
 30
0.0
 11
89.35432122
 21
52.87312293
 31
0.0
  0
LINE
  5
95
100
AcDbEntity
  8
SLD-0
  6
CONTINUOUS
 62
       3
100
AcDbLine
 10
89.35432122
 20
52.87312293
 30
0.0
 11
89.34720381
 21
52.86547358
 31
0.0
  0
LINE
  5
96
100
AcDbEntity
  8
SLD-0
  6
CONTINUOUS
 62
       3
100
AcDbLine
 10
89.34720381
 20
52.86547358
 30
0.0
 11
89.34036351
 21
52.85759425
 31
0.0
  0
LINE
  5
97
100
AcDbEntity
  8
SLD-0
  6
CONTINUOUS
 62
       3
100
AcDbLine
 10
89.34036351
 20
52.85759425
 30
0.0
 11
89.33380809
 21
52.84948615
 31
0.0
  0
LINE
  5
98
100
AcDbEntity
  8
SLD-0
  6
CONTINUOUS
 62
       3
100
AcDbLine
 10
89.33380809
 20
52.84948615
 30
0.0
 11
89.32754529
 21
52.84115052
 31
0.0
  0
LINE
  5
99
100
AcDbEntity
  8
SLD-0
  6
CONTINUOUS
 62
       3
100
AcDbLine
 10
89.32754529
 20
52.84115052
 30
0.0
 11
89.32158097
 21
52.83259208
 31
0.0
  0
LINE
  5
9A
100
AcDbEntity
  8
SLD-0
  6
CONTINUOUS
 62
       3
100
AcDbLine
 10
89.32158097
 20
52.83259208
 30
0.0
 11
89.31591689
 21
52.82382288
 31
0.0
  0
LINE
  5
9B
100
AcDbEntity
  8
SLD-0
  6
CONTINUOUS
 62
       3
100
AcDbLine
 10
89.31591689
 20
52.82382288
 30
0.0
 11
89.31055425
 21
52.814856
 31
0.0
  0
LINE
  5
9C
100
AcDbEntity
  8
SLD-0
  6
CONTINUOUS
 62
       3
100
AcDbLine
 10
89.31055425
 20
52.814856
 30
0.0
 11
89.30549428
 21
52.80570452
 31
0.0
  0
LINE
  5
9D
100
AcDbEntity
  8
SLD-0
  6
CONTINUOUS
 62
       3
100
AcDbLine
 10
89.30549428
 20
52.80570452
 30
0.0
 11
89.30073819
 21
52.79638149
 31
0.0
  0
LINE
  5
9E
100
AcDbEntity
  8
SLD-0
  6
CONTINUOUS
 62
       3
100
AcDbLine
 10
89.30073819
 20
52.79638149
 30
0.0
 11
89.29628731
 21
52.78689998
 31
0.0
  0
LINE
  5
9F
100
AcDbEntity
  8
SLD-0
  6
CONTINUOUS
 62
       3
100
AcDbLine
 10
89.29628731
 20
52.78689998
 30
0.0
 11
89.2921514
 21
52.77727246
 31
0.0
  0
LINE
  5
A0
100
AcDbEntity
  8
SLD-0
  6
CONTINUOUS
 62
       3
100
AcDbLine
 10
89.2921514
 20
52.77727246
 30
0.0
 11
89.28835392
 21
52.76751055
 31
0.0
  0
LINE
  5
A1
100
AcDbEntity
  8
SLD-0
  6
CONTINUOUS
 62
       3
100
AcDbLine
 10
89.28835392
 20
52.76751055
 30
0.0
 11
89.28491961
 21
52.7576257
 31
0.0
  0
LINE
  5
A2
100
AcDbEntity
  8
SLD-0
  6
CONTINUOUS
 62
       3
100
AcDbLine
 10
89.28491961
 20
52.7576257
 30
0.0
 11
89.2818732
 21
52.74762943
 31
0.0
  0
LINE
  5
A3
100
AcDbEntity
  8
SLD-0
  6
CONTINUOUS
 62
       3
100
AcDbLine
 10
89.2818732
 20
52.74762943
 30
0.0
 11
89.27923942
 21
52.73753321
 31
0.0
  0
LINE
  5
A4
100
AcDbEntity
  8
SLD-0
  6
CONTINUOUS
 62
       3
100
AcDbLine
 10
89.27923942
 20
52.73753321
 30
0.0
 11
89.27704276
 21
52.72734858
 31
0.0
  0
LINE
  5
A5
100
AcDbEntity
  8
SLD-0
  6
CONTINUOUS
 62
       3
100
AcDbLine
 10
89.27704276
 20
52.72734858
 30
0.0
 11
89.27527729
 21
52.7170874
 31
0.0
  0
LINE
  5
A6
100
AcDbEntity
  8
SLD-0
  6
CONTINUOUS
 62
       3
100
AcDbLine
 10
89.27527729
 20
52.7170874
 30
0.0
 11
89.273877
 21
52.70676236
 31
0.0
  0
LINE
  5
A7
100
AcDbEntity
  8
SLD-0
  6
CONTINUOUS
 62
       3
100
AcDbLine
 10
89.273877
 20
52.70676236
 30
0.0
 11
89.27276887
 21
52.69638622
 31
0.0
  0
LINE
  5
A8
100
AcDbEntity
  8
SLD-0
  6
CONTINUOUS
 62
       3
100
AcDbLine
 10
89.27276887
 20
52.69638622
 30
0.0
 11
89.27187984
 21
52.68597177
 31
0.0
  0
LINE
  5
A9
100
AcDbEntity
  8
SLD-0
  6
CONTINUOUS
 62
       3
100
AcDbLine
 10
89.27187984
 20
52.68597177
 30
0.0
 11
89.27113689
 21
52.67553178
 31
0.0
  0
LINE
  5
AA
100
AcDbEntity
  8
SLD-0
  6
CONTINUOUS
 62
       3
100
AcDbLine
 10
89.27113689
 20
52.67553178
 30
0.0
 11
89.27046697
 21
52.66508205
 31
0.0
  0
LINE
  5
AB
100
AcDbEntity
  8
SLD-0
  6
CONTINUOUS
 62
       3
100
AcDbLine
 10
89.57041244
 20
52.96509878
 30
0.0
 11
89.57769294
 21
52.96464865
 31
0.0
  0
LINE
  5
AC
100
AcDbEntity
  8
SLD-0
  6
CONTINUOUS
 62
       3
100
AcDbLine
 10
89.57769294
 20
52.96464865
 30
0.0
 11
89.58496889
 21
52.9641731
 31
0.0
  0
LINE
  5
AD
100
AcDbEntity
  8
SLD-0
  6
CONTINUOUS
 62
       3
100
AcDbLine
 10
89.58496889
 20
52.9641731
 30
0.0
 11
89.59223578
 21
52.96364664
 31
0.0
  0
LINE
  5
AE
100
AcDbEntity
  8
SLD-0
  6
CONTINUOUS
 62
       3
100
AcDbLine
 10
89.59223578
 20
52.96364664
 30
0.0
 11
89.59948906
 21
52.96304386
 31
0.0
  0
LINE
  5
AF
100
AcDbEntity
  8
SLD-0
  6
CONTINUOUS
 62
       3
100
AcDbLine
 10
89.59948906
 20
52.96304386
 30
0.0
 11
89.6067242
 21
52.96233927
 31
0.0
  0
LINE
  5
B0
100
AcDbEntity
  8
SLD-0
  6
CONTINUOUS
 62
       3
100
AcDbLine
 10
89.6067242
 20
52.96233927
 30
0.0
 11
89.61393667
 21
52.96150746
 31
0.0
  0
LINE
  5
B1
100
AcDbEntity
  8
SLD-0
  6
CONTINUOUS
 62
       3
100
AcDbLine
 10
89.61393667
 20
52.96150746
 30
0.0
 11
89.62112193
 21
52.96052297
 31
0.0
  0
LINE
  5
B2
100
AcDbEntity
  8
SLD-0
  6
CONTINUOUS
 62
       3
100
AcDbLine
 10
89.62112193
 20
52.96052297
 30
0.0
 11
89.62827545
 21
52.95936037
 31
0.0
  0
LINE
  5
B3
100
AcDbEntity
  8
SLD-0
  6
CONTINUOUS
 62
       3
100
AcDbLine
 10
89.62827545
 20
52.95936037
 30
0.0
 11
89.63539269
 21
52.95799426
 31
0.0
  0
LINE
  5
B4
100
AcDbEntity
  8
SLD-0
  6
CONTINUOUS
 62
       3
100
AcDbLine
 10
89.63539269
 20
52.95799426
 30
0.0
 11
89.64246969
 21
52.95641031
 31
0.0
  0
LINE
  5
B5
100
AcDbEntity
  8
SLD-0
  6
CONTINUOUS
 62
       3
100
AcDbLine
 10
89.64246969
 20
52.95641031
 30
0.0
 11
89.64950362
 21
52.95461545
 31
0.0
  0
LINE
  5
B6
100
AcDbEntity
  8
SLD-0
  6
CONTINUOUS
 62
       3
100
AcDbLine
 10
89.64950362
 20
52.95461545
 30
0.0
 11
89.65649174
 21
52.95261908
 31
0.0
  0
LINE
  5
B7
100
AcDbEntity
  8
SLD-0
  6
CONTINUOUS
 62
       3
100
AcDbLine
 10
89.65649174
 20
52.95261908
 30
0.0
 11
89.66343133
 21
52.95043056
 31
0.0
  0
LINE
  5
B8
100
AcDbEntity
  8
SLD-0
  6
CONTINUOUS
 62
       3
100
AcDbLine
 10
89.66343133
 20
52.95043056
 30
0.0
 11
89.67031968
 21
52.94805932
 31
0.0
  0
LINE
  5
B9
100
AcDbEntity
  8
SLD-0
  6
CONTINUOUS
 62
       3
100
AcDbLine
 10
89.67031968
 20
52.94805932
 30
0.0
 11
89.67715406
 21
52.94551473
 31
0.0
  0
LINE
  5
BA
100
AcDbEntity
  8
SLD-0
  6
CONTINUOUS
 62
       3
100
AcDbLine
 10
89.67715406
 20
52.94551473
 30
0.0
 11
89.68393174
 21
52.94280619
 31
0.0
  0
LINE
  5
BB
100
AcDbEntity
  8
SLD-0
  6
CONTINUOUS
 62
       3
100
AcDbLine
 10
89.68393174
 20
52.94280619
 30
0.0
 11
89.69065002
 21
52.93994309
 31
0.0
  0
LINE
  5
BC
100
AcDbEntity
  8
SLD-0
  6
CONTINUOUS
 62
       3
100
AcDbLine
 10
89.69065002
 20
52.93994309
 30
0.0
 11
89.69730603
 21
52.93693455
 31
0.0
  0
LINE
  5
BD
100
AcDbEntity
  8
SLD-0
  6
CONTINUOUS
 62
       3
100
AcDbLine
 10
89.69730603
 20
52.93693455
 30
0.0
 11
89.70389399
 21
52.93378316
 31
0.0
  0
LINE
  5
BE
100
AcDbEntity
  8
SLD-0
  6
CONTINUOUS
 62
       3
100
AcDbLine
 10
89.70389399
 20
52.93378316
 30
0.0
 11
89.71040519
 21
52.93048504
 31
0.0
  0
LINE
  5
BF
100
AcDbEntity
  8
SLD-0
  6
CONTINUOUS
 62
       3
100
AcDbLine
 10
89.71040519
 20
52.93048504
 30
0.0
 11
89.71683076
 21
52.92703606
 31
0.0
  0
LINE
  5
C0
100
AcDbEntity
  8
SLD-0
  6
CONTINUOUS
 62
       3
100
AcDbLine
 10
89.71683076
 20
52.92703606
 30
0.0
 11
89.72316186
 21
52.92343201
 31
0.0
  0
LINE
  5
C1
100
AcDbEntity
  8
SLD-0
  6
CONTINUOUS
 62
       3
100
AcDbLine
 10
89.72316186
 20
52.92343201
 30
0.0
 11
89.72938963
 21
52.91966874
 31
0.0
  0
LINE
  5
C2
100
AcDbEntity
  8
SLD-0
  6
CONTINUOUS
 62
       3
100
AcDbLine
 10
89.72938963
 20
52.91966874
 30
0.0
 11
89.73550523
 21
52.91574209
 31
0.0
  0
LINE
  5
C3
100
AcDbEntity
  8
SLD-0
  6
CONTINUOUS
 62
       3
100
AcDbLine
 10
89.73550523
 20
52.91574209
 30
0.0
 11
89.74149981
 21
52.91164789
 31
0.0
  0
LINE
  5
C4
100
AcDbEntity
  8
SLD-0
  6
CONTINUOUS
 62
       3
100
AcDbLine
 10
89.74149981
 20
52.91164789
 30
0.0
 11
89.7473645
 21
52.90738195
 31
0.0
  0
LINE
  5
C5
100
AcDbEntity
  8
SLD-0
  6
CONTINUOUS
 62
       3
100
AcDbLine
 10
89.7473645
 20
52.90738195
 30
0.0
 11
89.75309223
 21
52.90294186
 31
0.0
  0
LINE
  5
C6
100
AcDbEntity
  8
SLD-0
  6
CONTINUOUS
 62
       3
100
AcDbLine
 10
89.75309223
 20
52.90294186
 30
0.0
 11
89.75869115
 21
52.89834005
 31
0.0
  0
LINE
  5
C7
100
AcDbEntity
  8
SLD-0
  6
CONTINUOUS
 62
       3
100
AcDbLine
 10
89.75869115
 20
52.89834005
 30
0.0
 11
89.76417733
 21
52.89359672
 31
0.0
  0
LINE
  5
C8
100
AcDbEntity
  8
SLD-0
  6
CONTINUOUS
 62
       3
100
AcDbLine
 10
89.76417733
 20
52.89359672
 30
0.0
 11
89.76956686
 21
52.88873204
 31
0.0
  0
LINE
  5
C9
100
AcDbEntity
  8
SLD-0
  6
CONTINUOUS
 62
       3
100
AcDbLine
 10
89.76956686
 20
52.88873204
 30
0.0
 11
89.77487585
 21
52.88376629
 31
0.0
  0
LINE
  5
CA
100
AcDbEntity
  8
SLD-0
  6
CONTINUOUS
 62
       3
100
AcDbLine
 10
89.77487585
 20
52.88376629
 30
0.0
 11
89.78012041
 21
52.87871963
 31
0.0
  0
LINE
  5
CB
100
AcDbEntity
  8
SLD-0
  6
CONTINUOUS
 62
       3
100
AcDbLine
 10
89.78012041
 20
52.87871963
 30
0.0
 11
89.78531665
 21
52.87361232
 31
0.0
  0
LINE
  5
CC
100
AcDbEntity
  8
SLD-0
  6
CONTINUOUS
 62
       3
100
AcDbLine
 10
89.78531665
 20
52.87361232
 30
0.0
 11
89.79048068
 21
52.86846456
 31
0.0
  0
LINE
  5
CD
100
AcDbEntity
  8
SLD-0
  6
CONTINUOUS
 62
       3
100
AcDbLine
 10
89.79048068
 20
52.86846456
 30
0.0
 11
89.79562114
 21
52.86329893
 31
0.0
  0
LINE
  5
CE
100
AcDbEntity
  8
SLD-0
  6
CONTINUOUS
 62
       3
100
AcDbLine
 10
62.0685371
 20
55.30797331
 30
0.0
 11
62.06811169
 21
55.31428982
 31
0.0
  0
LINE
  5
CF
100
AcDbEntity
  8
SLD-0
  6
CONTINUOUS
 62
       3
100
AcDbLine
 10
62.06811169
 20
55.31428982
 30
0.0
 11
62.06767111
 21
55.32060225
 31
0.0
  0
LINE
  5
D0
100
AcDbEntity
  8
SLD-0
  6
CONTINUOUS
 62
       3
100
AcDbLine
 10
62.06767111
 20
55.32060225
 30
0.0
 11
62.06720021
 21
55.32690657
 31
0.0
  0
LINE
  5
D1
100
AcDbEntity
  8
SLD-0
  6
CONTINUOUS
 62
       3
100
AcDbLine
 10
62.06720021
 20
55.32690657
 30
0.0
 11
62.06668381
 21
55.3331987
 31
0.0
  0
LINE
  5
D2
100
AcDbEntity
  8
SLD-0
  6
CONTINUOUS
 62
       3
100
AcDbLine
 10
62.06668381
 20
55.3331987
 30
0.0
 11
62.06610677
 21
55.33947457
 31
0.0
  0
LINE
  5
D3
100
AcDbEntity
  8
SLD-0
  6
CONTINUOUS
 62
       3
100
AcDbLine
 10
62.06610677
 20
55.33947457
 30
0.0
 11
62.0654539
 21
55.34573013
 31
0.0
  0
LINE
  5
D4
100
AcDbEntity
  8
SLD-0
  6
CONTINUOUS
 62
       3
100
AcDbLine
 10
62.0654539
 20
55.34573013
 30
0.0
 11
62.06471005
 21
55.35196131
 31
0.0
  0
LINE
  5
D5
100
AcDbEntity
  8
SLD-0
  6
CONTINUOUS
 62
       3
100
AcDbLine
 10
62.06471005
 20
55.35196131
 30
0.0
 11
62.06386006
 21
55.35816406
 31
0.0
  0
LINE
  5
D6
100
AcDbEntity
  8
SLD-0
  6
CONTINUOUS
 62
       3
100
AcDbLine
 10
62.06386006
 20
55.35816406
 30
0.0
 11
62.06288876
 21
55.36433431
 31
0.0
  0
LINE
  5
D7
100
AcDbEntity
  8
SLD-0
  6
CONTINUOUS
 62
       3
100
AcDbLine
 10
62.06288876
 20
55.36433431
 30
0.0
 11
62.06178099
 21
55.37046797
 31
0.0
  0
LINE
  5
D8
100
AcDbEntity
  8
SLD-0
  6
CONTINUOUS
 62
       3
100
AcDbLine
 10
62.06178099
 20
55.37046797
 30
0.0
 11
62.06052159
 21
55.37656103
 31
0.0
  0
LINE
  5
D9
100
AcDbEntity
  8
SLD-0
  6
CONTINUOUS
 62
       3
100
AcDbLine
 10
62.06052159
 20
55.37656103
 30
0.0
 11
62.05909538
 21
55.38260939
 31
0.0
  0
LINE
  5
DA
100
AcDbEntity
  8
SLD-0
  6
CONTINUOUS
 62
       3
100
AcDbLine
 10
62.05909538
 20
55.38260939
 30
0.0
 11
62.05748785
 21
55.38860915
 31
0.0
  0
LINE
  5
DB
100
AcDbEntity
  8
SLD-0
  6
CONTINUOUS
 62
       3
100
AcDbLine
 10
62.05748785
 20
55.38860915
 30
0.0
 11
62.05569898
 21
55.39456035
 31
0.0
  0
LINE
  5
DC
100
AcDbEntity
  8
SLD-0
  6
CONTINUOUS
 62
       3
100
AcDbLine
 10
62.05569898
 20
55.39456035
 30
0.0
 11
62.05374332
 21
55.40046684
 31
0.0
  0
LINE
  5
DD
100
AcDbEntity
  8
SLD-0
  6
CONTINUOUS
 62
       3
100
AcDbLine
 10
62.05374332
 20
55.40046684
 30
0.0
 11
62.05163602
 21
55.4063327
 31
0.0
  0
LINE
  5
DE
100
AcDbEntity
  8
SLD-0
  6
CONTINUOUS
 62
       3
100
AcDbLine
 10
62.05163602
 20
55.4063327
 30
0.0
 11
62.04939224
 21
55.41216202
 31
0.0
  0
LINE
  5
DF
100
AcDbEntity
  8
SLD-0
  6
CONTINUOUS
 62
       3
100
AcDbLine
 10
62.04939224
 20
55.41216202
 30
0.0
 11
62.04702716
 21
55.41795881
 31
0.0
  0
LINE
  5
E0
100
AcDbEntity
  8
SLD-0
  6
CONTINUOUS
 62
       3
100
AcDbLine
 10
62.04702716
 20
55.41795881
 30
0.0
 11
62.04455593
 21
55.42372717
 31
0.0
  0
LINE
  5
E1
100
AcDbEntity
  8
SLD-0
  6
CONTINUOUS
 62
       3
100
AcDbLine
 10
62.04455593
 20
55.42372717
 30
0.0
 11
62.04199372
 21
55.42947116
 31
0.0
  0
LINE
  5
E2
100
AcDbEntity
  8
SLD-0
  6
CONTINUOUS
 62
       3
100
AcDbLine
 10
62.04199372
 20
55.42947116
 30
0.0
 11
62.03935569
 21
55.43519482
 31
0.0
  0
LINE
  5
E3
100
AcDbEntity
  8
SLD-0
  6
CONTINUOUS
 62
       3
100
AcDbLine
 10
62.03935569
 20
55.43519482
 30
0.0
 11
62.03665701
 21
55.44090223
 31
0.0
  0
LINE
  5
E4
100
AcDbEntity
  8
SLD-0
  6
CONTINUOUS
 62
       3
100
AcDbLine
 10
62.03665701
 20
55.44090223
 30
0.0
 11
62.03391284
 21
55.44659746
 31
0.0
  0
LINE
  5
E5
100
AcDbEntity
  8
SLD-0
  6
CONTINUOUS
 62
       3
100
AcDbLine
 10
62.03391284
 20
55.44659746
 30
0.0
 11
62.03113833
 21
55.45228458
 31
0.0
  0
LINE
  5
E6
100
AcDbEntity
  8
SLD-0
  6
CONTINUOUS
 62
       3
100
AcDbLine
 10
62.03113833
 20
55.45228458
 30
0.0
 11
62.02834867
 21
55.45796762
 31
0.0
  0
ARC
  5
E7
100
AcDbEntity
  8
SLD-0
  6
CONTINUOUS
 62
       3
100
AcDbCircle
 10
62.7949807
 20
58.63011898
 30
0.0
 40
2.24999995
100
AcDbArc
 50
30.00000703
 51
209.99992339
  0
ARC
  5
E8
100
AcDbEntity
  8
SLD-0
  6
CONTINUOUS
 62
       3
100
AcDbCircle
 10
62.7949807
 20
58.63011898
 30
0.0
 40
0.75000021
100
AcDbArc
 50
30.00012132
 51
209.99987041
  0
ARC
  5
E9
100
AcDbEntity
  8
SLD-0
  6
CONTINUOUS
 62
       3
100
AcDbCircle
 10
-5.33146215
 20
8.33274988
 30
0.0
 40
0.2999997
100
AcDbArc
 50
180.0
 51
224.99980148
  0
ARC
  5
EA
100
AcDbEntity
  8
SLD-0
  6
CONTINUOUS
 62
       3
100
AcDbCircle
 10
-3.63146194
 20
53.20848581
 30
0.0
 40
1.99999992
100
AcDbArc
 50
90.0
 51
180.00000286
  0
ARC
  5
EB
100
AcDbEntity
  8
SLD-0
  6
CONTINUOUS
 62
       3
100
AcDbCircle
 10
87.36853806
 20
-28.79151427
 30
0.0
 40
13.09999999
100
AcDbArc
 50
103.238654
 51
180.0
  0
ARC
  5
EC
100
AcDbEntity
  8
SLD-0
  6
CONTINUOUS
 62
       3
100
AcDbCircle
 10
87.36853806
 20
-28.79151427
 30
0.0
 40
1.50000021
100
AcDbArc
 50
179.99995684
 51
360.0
  0
ARC
  5
ED
100
AcDbEntity
  8
SLD-0
  6
CONTINUOUS
 62
       3
100
AcDbCircle
 10
87.36853806
 20
-28.79151427
 30
0.0
 40
3.00000236
100
AcDbArc
 50
179.99997842
 51
360.00002158
  0
ELLIPSE
  5
EE
100
AcDbEntity
  8
SLD-0
  6
CONTINUOUS
 62
       3
100
AcDbEllipse
 10
91.46883554
 20
50.50849716
 30
0.0
 11
-0.273436141589599
 21
0.1235843222999904
 31
0.0
210
0.0
220
0.0
230
1.0
 40
0.99977559
 41
1.9953685878149223
 42
4.2878173420095189
  0
ELLIPSE
  5
EF
100
AcDbEntity
  8
SLD-0
  6
CONTINUOUS
 62
       3
100
AcDbEllipse
 10
63.26852663
 20
55.70989099
 30
0.0
 11
0.2897895743643346
 21
0.0776488824257058
 31
0.0
210
0.0
220
0.0
230
1.0
 40
0.99995919
 41
6.0214012164230288
 42
6.5449694972868055
  0
LINE
  5
F0
100
AcDbEntity
  8
SLD-0
  6
CENTERX2
 62
       3
100
AcDbLine
 10
-63.09006117
 20
10.20848574
 30
0.0
 11
-91.69405888
 21
10.20848574
 31
0.0
  0
LINE
  5
F1
100
AcDbEntity
  8
SLD-0
  6
CENTERX2
 62
       3
100
AcDbLine
 10
-78.13403665
 20
65.21185851
 30
0.0
 11
-78.13403665
 21
-36.79151427
 31
0.0
  0
LINE
  5
F2
100
AcDbEntity
  8
SLD-0
  6
CENTERX2
 62
       3
100
AcDbLine
 10
-9.1014493
 20
10.20848574
 30
0.0
 11
88.59499698
 21
10.20848574
 31
0.0
  0
LINE
  5
F3
100
AcDbEntity
  8
SLD-0_0
  6
CONTINUOUS
 62
       3
100
AcDbLine
 10
4.36853815
 20
8.12061879
 30
0.0
 11
4.36853815
 21
-33.29151448
 31
0.0
  0
ARC
  5
F4
100
AcDbEntity
  8
SLD-0_0
  6
CONTINUOUS
 62
       3
100
AcDbCircle
 10
5.86853815
 20
-33.29151448
 30
0.0
 40
1.5
100
AcDbArc
 50
180.0
 51
269.9998793
  0
LINE
  5
F5
100
AcDbEntity
  8
SLD-0_0
  6
CONTINUOUS
 62
       3
100
AcDbLine
 10
3.46874811
 20
-32.35725923
 30
0.0
 11
4.36853815
 21
-32.35725923
 31
0.0
  0
LINE
  5
F6
100
AcDbEntity
  8
SLD-0_0
  6
CONTINUOUS
 62
       3
100
AcDbLine
 10
3.46874811
 20
-2.33304537
 30
0.0
 11
4.36853815
 21
-2.33304537
 31
0.0
  0
LINE
  5
F7
100
AcDbEntity
  8
0
  6
CONTINUOUS
 62
       3
100
AcDbLine
 10
-75.32583597
 20
-27.03173399
 30
0.0
 11
-75.13873937
 21
-27.01925778
 31
0.0
  0
LINE
  5
F8
100
AcDbEntity
  8
0
  6
CONTINUOUS
 62
       3
100
AcDbLine
 10
-74.03848545
 20
-26.38415412
 30
0.0
 11
-73.92282276
 21
-26.23942349
 31
0.0
  0
LINE
  5
F9
100
AcDbEntity
  8
0
  6
CONTINUOUS
 62
       3
100
AcDbLine
 10
-73.54153296
 20
-25.28558432
 30
0.0
 11
-73.53772806
 21
-25.16208944
 31
0.0
  0
LINE
  5
FA
100
AcDbEntity
  8
0
  6
CONTINUOUS
 62
       3
100
AcDbLine
 10
-73.53772806
 20
-18.09124776
 30
0.0
 11
-73.53772806
 21
-16.60589629
 31
0.0
  0
LINE
  5
FB
100
AcDbEntity
  8
0
  6
CONTINUOUS
 62
       3
100
AcDbLine
 10
-73.53772806
 20
-15.147962
 30
0.0
 11
-73.53772806
 21
-13.76618656
 31
0.0
  0
LINE
  5
FC
100
AcDbEntity
  8
0
  6
CONTINUOUS
 62
       3
100
AcDbLine
 10
-73.54319579
 20
-9.57715795
 30
0.0
 11
-73.56700345
 21
-9.41845438
 31
0.0
  0
LINE
  5
FD
100
AcDbEntity
  8
0
  6
CONTINUOUS
 62
       3
100
AcDbLine
 10
-74.47487495
 20
-8.1406663
 30
0.0
 11
-74.63509585
 21
-8.05052749
 31
0.0
  0
LINE
  5
FE
100
AcDbEntity
  8
0
  6
CONTINUOUS
 62
       3
100
AcDbLine
 10
-74.80364187
 20
-7.97777831
 30
0.0
 11
-74.97954644
 21
-7.92433388
 31
0.0
  0
LINE
  5
FF
100
AcDbEntity
  8
0
  6
CONTINUOUS
 62
       3
100
AcDbLine
 10
-80.73829839
 20
-8.71583709
 30
0.0
 11
-80.8653813
 21
-8.73539595
 31
0.0
  0
LINE
  5
100
100
AcDbEntity
  8
0
  6
CONTINUOUS
 62
       3
100
AcDbLine
 10
-80.46431855
 20
-26.24060266
 30
0.0
 11
-80.12367082
 21
-26.29304948
 31
0.0
  0
LINE
  5
101
100
AcDbEntity
  8
0
  6
CONTINUOUS
 62
       3
100
AcDbLine
 10
-74.41023294
 20
-22.86281736
 30
0.0
 11
-74.41023294
 21
-21.83343069
 31
0.0
  0
LINE
  5
102
100
AcDbEntity
  8
0
  6
CONTINUOUS
 62
       3
100
AcDbLine
 10
-76.6380806
 20
-8.86291519
 30
0.0
 11
-76.99826233
 21
-8.92085241
 31
0.0
  0
LINE
  5
103
100
AcDbEntity
  8
0
  6
CONTINUOUS
 62
       3
100
AcDbLine
 10
-81.82063333
 20
-14.16781629
 30
0.0
 11
-81.82063333
 21
-15.20469839
 31
0.0
  0
LINE
  5
104
100
AcDbEntity
  8
0
  6
CONTINUOUS
 62
       3
100
AcDbLine
 10
-81.82063333
 20
-20.73074398
 30
0.0
 11
-81.82063333
 21
-21.64039646
 31
0.0
  0
LINE
  5
105
100
AcDbEntity
  8
0
  6
CONTINUOUS
 62
       3
100
AcDbLine
 10
-81.2409906
 20
-24.84721446
 30
0.0
 11
-81.12260236
 21
-24.97090402
 31
0.0
  0
LINE
  5
106
100
AcDbEntity
  8
0
  6
CONTINUOUS
 62
       3
100
AcDbLine
 10
-81.12260236
 20
-24.97090402
 30
0.0
 11
-80.99627815
 21
-25.07913804
 31
0.0
  0
LINE
  5
107
100
AcDbEntity
  8
0
  6
CONTINUOUS
 62
       3
100
AcDbLine
 10
-79.0376432
 20
-25.52768515
 30
0.0
 11
-78.62560593
 21
-25.59396362
 31
0.0
  0
LINE
  5
108
100
AcDbEntity
  8
0
  6
CONTINUOUS
 62
       3
100
AcDbLine
 10
-76.06400172
 20
-26.00601177
 30
0.0
 11
-75.91434458
 21
-26.03008495
 31
0.0
  0
LINE
  5
109
100
AcDbEntity
  8
0
  6
CONTINUOUS
 62
       3
100
AcDbLine
 10
-73.15745454
 20
-32.19651786
 30
0.0
 11
-73.06462804
 21
-32.13851022
 31
0.0
  0
LINE
  5
10A
100
AcDbEntity
  8
0
  6
CONTINUOUS
 62
       3
100
AcDbLine
 10
-72.62857807
 20
-31.52512376
 30
0.0
 11
-72.60401702
 21
-31.41507043
 31
0.0
  0
LINE
  5
10B
100
AcDbEntity
  8
0
  6
CONTINUOUS
 62
       3
100
AcDbLine
 10
-72.59068846
 20
-31.3012085
 30
0.0
 11
-72.58832864
 21
-31.18111331
 31
0.0
  0
LINE
  5
10C
100
AcDbEntity
  8
0
  6
CONTINUOUS
 62
       3
100
AcDbLine
 10
-72.58832864
 20
-21.12277522
 30
0.0
 11
-72.58832864
 21
-18.49638584
 31
0.0
  0
LINE
  5
10D
100
AcDbEntity
  8
0
  6
CONTINUOUS
 62
       3
100
AcDbLine
 10
-72.59171975
 20
-3.34472267
 30
0.0
 11
-72.60648518
 21
-3.23134572
 31
0.0
  0
LINE
  5
10E
100
AcDbEntity
  8
0
  6
CONTINUOUS
 62
       3
100
AcDbLine
 10
-72.63240811
 20
-3.12183961
 30
0.0
 11
-72.66888871
 21
-3.01680516
 31
0.0
  0
LINE
  5
10F
100
AcDbEntity
  8
0
  6
CONTINUOUS
 62
       3
100
AcDbLine
 10
-74.14483252
 20
-2.32378477
 30
0.0
 11
-74.61994913
 21
-2.32378477
 31
0.0
  0
LINE
  5
110
100
AcDbEntity
  8
0
  6
CONTINUOUS
 62
       3
100
AcDbLine
 10
-83.6794346
 20
-14.84048382
 30
0.0
 11
-83.6794346
 21
-17.49693072
 31
0.0
  0
LINE
  5
111
100
AcDbEntity
  8
0
  6
CONTINUOUS
 62
       3
100
AcDbLine
 10
-83.46559835
 20
-31.88271975
 30
0.0
 11
-83.39692581
 21
-31.96736197
 31
0.0
  0
LINE
  5
112
100
AcDbEntity
  8
0
  6
CONTINUOUS
 62
       3
100
AcDbLine
 10
-78.29357516
 20
-32.33652646
 30
0.0
 11
-77.44423879
 21
-32.33652646
 31
0.0
  0
LINE
  5
113
100
AcDbEntity
  8
0
  6
CONTINUOUS
 62
       3
100
AcDbLine
 10
-74.95718898
 20
-26.98317646
 30
0.0
 11
-74.78215138
 21
-26.92551097
 31
0.0
  0
LINE
  5
114
100
AcDbEntity
  8
0
  6
CONTINUOUS
 62
       3
100
AcDbLine
 10
-73.65937415
 20
-25.76869009
 30
0.0
 11
-73.60262638
 21
-25.60633495
 31
0.0
  0
LINE
  5
115
100
AcDbEntity
  8
0
  6
CONTINUOUS
 62
       3
100
AcDbLine
 10
-73.56302379
 20
-25.44462604
 30
0.0
 11
-73.54153296
 21
-25.28558432
 31
0.0
  0
LINE
  5
116
100
AcDbEntity
  8
0
  6
CONTINUOUS
 62
       3
100
AcDbLine
 10
-73.53772806
 20
-10.56523001
 30
0.0
 11
-73.53772806
 21
-9.97550663
 31
0.0
  0
LINE
  5
117
100
AcDbEntity
  8
0
  6
CONTINUOUS
 62
       3
100
AcDbLine
 10
-82.67050393
 20
-13.00584987
 30
0.0
 11
-82.67050393
 21
-13.99647779
 31
0.0
  0
LINE
  5
118
100
AcDbEntity
  8
0
  6
CONTINUOUS
 62
       3
100
AcDbLine
 10
-79.70983207
 20
-26.35676494
 30
0.0
 11
-79.24028077
 21
-26.42905803
 31
0.0
  0
LINE
  5
119
100
AcDbEntity
  8
0
  6
CONTINUOUS
 62
       3
100
AcDbLine
 10
-74.41023294
 20
-20.64832657
 30
0.0
 11
-74.41023294
 21
-19.35280463
 31
0.0
  0
LINE
  5
11A
100
AcDbEntity
  8
0
  6
CONTINUOUS
 62
       3
100
AcDbLine
 10
-77.3965601
 20
-8.9849208
 30
0.0
 11
-77.81879119
 21
-9.052839
 31
0.0
  0
LINE
  5
11B
100
AcDbEntity
  8
0
  6
CONTINUOUS
 62
       3
100
AcDbLine
 10
-79.79255163
 20
-9.37032924
 30
0.0
 11
-80.06054575
 21
-9.41343757
 31
0.0
  0
LINE
  5
11C
100
AcDbEntity
  8
0
  6
CONTINUOUS
 62
       3
100
AcDbLine
 10
-81.628554
 20
-10.55292439
 30
0.0
 11
-81.69397769
 21
-10.71961817
 31
0.0
  0
LINE
  5
11D
100
AcDbEntity
  8
0
  6
CONTINUOUS
 62
       3
100
AcDbLine
 10
-81.69397769
 20
-10.71961817
 30
0.0
 11
-81.74666823
 21
-10.8876577
 31
0.0
  0
LINE
  5
11E
100
AcDbEntity
  8
0
  6
CONTINUOUS
 62
       3
100
AcDbLine
 10
-81.82063333
 20
-16.31461972
 30
0.0
 11
-81.82063333
 21
-17.4598826
 31
0.0
  0
LINE
  5
11F
100
AcDbEntity
  8
0
  6
CONTINUOUS
 62
       3
100
AcDbLine
 10
-81.82063333
 20
-23.29968271
 30
0.0
 11
-81.8201365
 21
-23.41855497
 31
0.0
  0
LINE
  5
120
100
AcDbEntity
  8
0
  6
CONTINUOUS
 62
       3
100
AcDbLine
 10
-81.54070747
 20
-24.40644555
 30
0.0
 11
-81.45082637
 21
-24.56268191
 31
0.0
  0
LINE
  5
121
100
AcDbEntity
  8
0
  6
CONTINUOUS
 62
       3
100
AcDbLine
 10
-80.57752195
 20
-25.28807363
 30
0.0
 11
-80.42728607
 21
-25.3114523
 31
0.0
  0
LINE
  5
122
100
AcDbEntity
  8
0
  6
CONTINUOUS
 62
       3
100
AcDbLine
 10
-80.34880517
 20
-25.31677752
 30
0.0
 11
-80.23371839
 21
-25.33528986
 31
0.0
  0
LINE
  5
123
100
AcDbEntity
  8
0
  6
CONTINUOUS
 62
       3
100
AcDbLine
 10
-78.1967267
 20
-25.6629512
 30
0.0
 11
-77.76518821
 21
-25.73236655
 31
0.0
  0
LINE
  5
124
100
AcDbEntity
  8
0
  6
CONTINUOUS
 62
       3
100
AcDbLine
 10
-73.46853787
 20
-32.31292637
 30
0.0
 11
-73.3600093
 21
-32.28432529
 31
0.0
  0
LINE
  5
125
100
AcDbEntity
  8
0
  6
CONTINUOUS
 62
       3
100
AcDbLine
 10
-73.25611491
 20
-32.24532266
 30
0.0
 11
-73.15745454
 21
-32.19651786
 31
0.0
  0
LINE
  5
126
100
AcDbEntity
  8
0
  6
CONTINUOUS
 62
       3
100
AcDbLine
 10
-72.58832864
 20
-27.89801274
 30
0.0
 11
-72.58832864
 21
-25.91102872
 31
0.0
  0
LINE
  5
127
100
AcDbEntity
  8
0
  6
CONTINUOUS
 62
       3
100
AcDbLine
 10
-78.39994665
 20
-2.32378477
 30
0.0
 11
-79.24143225
 21
-2.32378477
 31
0.0
  0
LINE
  5
128
100
AcDbEntity
  8
0
  6
CONTINUOUS
 62
       3
100
AcDbLine
 10
-83.33036573
 20
-2.62486812
 30
0.0
 11
-83.4059522
 21
-2.70327471
 31
0.0
  0
LINE
  5
129
100
AcDbEntity
  8
0
  6
CONTINUOUS
 62
       3
100
AcDbLine
 10
-83.6794346
 20
-20.14791261
 30
0.0
 11
-83.6794346
 21
-22.70598945
 31
0.0
  0
LINE
  5
12A
100
AcDbEntity
  8
0
  6
CONTINUOUS
 62
       3
100
AcDbLine
 10
-76.61758241
 20
-32.33652646
 30
0.0
 11
-75.84151984
 21
-32.33652646
 31
0.0
  0
LINE
  5
12B
100
AcDbEntity
  8
0
  6
CONTINUOUS
 62
       3
100
AcDbLine
 10
-73.66762501
 20
-9.09767767
 30
0.0
 11
-73.74250575
 21
-8.93943477
 31
0.0
  0
LINE
  5
12C
100
AcDbEntity
  8
0
  6
CONTINUOUS
 62
       3
100
AcDbLine
 10
-76.72699385
 20
-8.09847225
 30
0.0
 11
-77.21784702
 21
-8.17401763
 31
0.0
  0
LINE
  5
12D
100
AcDbEntity
  8
0
  6
CONTINUOUS
 62
       3
100
AcDbLine
 10
-82.67050393
 20
-15.10555264
 30
0.0
 11
-82.67050393
 21
-16.29275206
 31
0.0
  0
LINE
  5
12E
100
AcDbEntity
  8
0
  6
CONTINUOUS
 62
       3
100
AcDbLine
 10
-78.73249535
 20
-26.50723771
 30
0.0
 11
-78.20395426
 21
-26.58861298
 31
0.0
  0
LINE
  5
12F
100
AcDbEntity
  8
0
  6
CONTINUOUS
 62
       3
100
AcDbLine
 10
-74.41023294
 20
-17.99216449
 30
0.0
 11
-74.41023294
 21
-16.61170576
 31
0.0
  0
LINE
  5
130
100
AcDbEntity
  8
0
  6
CONTINUOUS
 62
       3
100
AcDbLine
 10
-74.41023294
 20
-10.99762007
 30
0.0
 11
-74.41023294
 21
-10.44954185
 31
0.0
  0
LINE
  5
131
100
AcDbEntity
  8
0
  6
CONTINUOUS
 62
       3
100
AcDbLine
 10
-75.3006133
 20
-8.85012535
 30
0.0
 11
-75.43740952
 21
-8.80078351
 31
0.0
  0
LINE
  5
132
100
AcDbEntity
  8
0
  6
CONTINUOUS
 62
       3
100
AcDbLine
 10
-75.43740952
 20
-8.80078351
 30
0.0
 11
-75.58018988
 21
-8.7651428
 31
0.0
  0
LINE
  5
133
100
AcDbEntity
  8
0
  6
CONTINUOUS
 62
       3
100
AcDbLine
 10
-78.25077289
 20
-9.12232563
 30
0.0
 11
-78.67832249
 21
-9.19109934
 31
0.0
  0
LINE
  5
134
100
AcDbEntity
  8
0
  6
CONTINUOUS
 62
       3
100
AcDbLine
 10
-80.44630145
 20
-9.46662451
 30
0.0
 11
-80.59597978
 21
-9.49320538
 31
0.0
  0
LINE
  5
135
100
AcDbEntity
  8
0
  6
CONTINUOUS
 62
       3
100
AcDbLine
 10
-81.36371624
 20
-10.08394582
 30
0.0
 11
-81.46264007
 21
-10.23278539
 31
0.0
  0
LINE
  5
136
100
AcDbEntity
  8
0
  6
CONTINUOUS
 62
       3
100
AcDbLine
 10
-81.82050887
 20
-11.37682256
 30
0.0
 11
-81.82063333
 21
-11.5046334
 31
0.0
  0
LINE
  5
137
100
AcDbEntity
  8
0
  6
CONTINUOUS
 62
       3
100
AcDbLine
 10
-81.82063333
 20
-11.87238197
 30
0.0
 11
-81.82063333
 21
-12.46396041
 31
0.0
  0
LINE
  5
138
100
AcDbEntity
  8
0
  6
CONTINUOUS
 62
       3
100
AcDbLine
 10
-81.82063333
 20
-18.60278938
 30
0.0
 11
-81.82063333
 21
-19.7056424
 31
0.0
  0
LINE
  5
139
100
AcDbEntity
  8
0
  6
CONTINUOUS
 62
       3
100
AcDbLine
 10
-81.74080503
 20
-23.90949591
 30
0.0
 11
-81.68648001
 21
-24.07754924
 31
0.0
  0
LINE
  5
13A
100
AcDbEntity
  8
0
  6
CONTINUOUS
 62
       3
100
AcDbLine
 10
-81.61951975
 20
-24.24396689
 30
0.0
 11
-81.54070747
 21
-24.40644555
 31
0.0
  0
LINE
  5
13B
100
AcDbEntity
  8
0
  6
CONTINUOUS
 62
       3
100
AcDbLine
 10
-79.41865579
 20
-25.46639718
 30
0.0
 11
-79.0376432
 21
-25.52768515
 31
0.0
  0
LINE
  5
13C
100
AcDbEntity
  8
0
  6
CONTINUOUS
 62
       3
100
AcDbLine
 10
-72.58832864
 20
-13.21628208
 30
0.0
 11
-72.58832864
 21
-10.73744778
 31
0.0
  0
LINE
  5
13D
100
AcDbEntity
  8
0
  6
CONTINUOUS
 62
       3
100
AcDbLine
 10
-72.98866201
 20
-2.57973657
 30
0.0
 11
-73.07589181
 21
-2.51414933
 31
0.0
  0
LINE
  5
13E
100
AcDbEntity
  8
0
  6
CONTINUOUS
 62
       3
100
AcDbLine
 10
-80.04628095
 20
-2.32378477
 30
0.0
 11
-80.78657893
 21
-2.32378477
 31
0.0
  0
LINE
  5
13F
100
AcDbEntity
  8
0
  6
CONTINUOUS
 62
       3
100
AcDbLine
 10
-83.6794346
 20
-25.08372119
 30
0.0
 11
-83.6794346
 21
-27.19366778
 31
0.0
  0
LINE
  5
140
100
AcDbEntity
  8
0
  6
CONTINUOUS
 62
       3
100
AcDbLine
 10
-75.14396492
 20
-32.33652646
 30
0.0
 11
-74.55283146
 21
-32.33652646
 31
0.0
  0
LINE
  5
141
100
AcDbEntity
  8
0
  6
CONTINUOUS
 62
       3
100
AcDbLine
 10
-74.45548084
 20
-26.75351128
 30
0.0
 11
-74.30578107
 21
-26.64321896
 31
0.0
  0
LINE
  5
142
100
AcDbEntity
  8
0
  6
CONTINUOUS
 62
       3
100
AcDbLine
 10
-73.53772806
 20
-22.22438866
 30
0.0
 11
-73.53772806
 21
-20.94923562
 31
0.0
  0
LINE
  5
143
100
AcDbEntity
  8
0
  6
CONTINUOUS
 62
       3
100
AcDbLine
 10
-73.83247768
 20
-8.78517567
 30
0.0
 11
-73.93657423
 21
-8.63681549
 31
0.0
  0
LINE
  5
144
100
AcDbEntity
  8
0
  6
CONTINUOUS
 62
       3
100
AcDbLine
 10
-77.73819507
 20
-8.25410244
 30
0.0
 11
-78.27055957
 21
-8.33603667
 31
0.0
  0
LINE
  5
145
100
AcDbEntity
  8
0
  6
CONTINUOUS
 62
       3
100
AcDbLine
 10
-82.67050393
 20
-17.51775369
 30
0.0
 11
-82.67050393
 21
-18.74023517
 31
0.0
  0
LINE
  5
146
100
AcDbEntity
  8
0
  6
CONTINUOUS
 62
       3
100
AcDbLine
 10
-77.67213597
 20
-26.67049282
 30
0.0
 11
-77.15451892
 21
-26.7501862
 31
0.0
  0
LINE
  5
147
100
AcDbEntity
  8
0
  6
CONTINUOUS
 62
       3
100
AcDbLine
 10
-75.39119809
 20
-27.0216707
 30
0.0
 11
-75.32583597
 21
-27.03173399
 31
0.0
  0
LINE
  5
148
100
AcDbEntity
  8
0
  6
CONTINUOUS
 62
       3
100
AcDbLine
 10
-74.46287392
 20
-24.97663222
 30
0.0
 11
-74.43075049
 21
-24.83256705
 31
0.0
  0
LINE
  5
149
100
AcDbEntity
  8
0
  6
CONTINUOUS
 62
       3
100
AcDbLine
 10
-74.43075049
 20
-24.83256705
 30
0.0
 11
-74.41331904
 21
-24.6835098
 31
0.0
  0
LINE
  5
14A
100
AcDbEntity
  8
0
  6
CONTINUOUS
 62
       3
100
AcDbLine
 10
-74.41023294
 20
-15.25672807
 30
0.0
 11
-74.41023294
 21
-13.97253104
 31
0.0
  0
LINE
  5
14B
100
AcDbEntity
  8
0
  6
CONTINUOUS
 62
       3
100
AcDbLine
 10
-74.43397851
 20
-9.92512042
 30
0.0
 11
-74.46788339
 21
-9.78176363
 31
0.0
  0
LINE
  5
14C
100
AcDbEntity
  8
0
  6
CONTINUOUS
 62
       3
100
AcDbLine
 10
-74.93395673
 20
-9.07254011
 30
0.0
 11
-75.04810418
 21
-8.9867854
 31
0.0
  0
LINE
  5
14D
100
AcDbEntity
  8
0
  6
CONTINUOUS
 62
       3
100
AcDbLine
 10
-75.92805869
 20
-8.74870425
 30
0.0
 11
-76.08879607
 21
-8.77455975
 31
0.0
  0
LINE
  5
14E
100
AcDbEntity
  8
0
  6
CONTINUOUS
 62
       3
100
AcDbLine
 10
-76.33019761
 20
-8.81339051
 30
0.0
 11
-76.6380806
 21
-8.86291519
 31
0.0
  0
LINE
  5
14F
100
AcDbEntity
  8
0
  6
CONTINUOUS
 62
       3
100
AcDbLine
 10
-79.08725729
 20
-9.25687876
 30
0.0
 11
-79.46339457
 21
-9.31738252
 31
0.0
  0
LINE
  5
150
100
AcDbEntity
  8
0
  6
CONTINUOUS
 62
       3
100
AcDbLine
 10
-81.01247591
 20
-9.70998073
 30
0.0
 11
-81.13785095
 21
-9.82024066
 31
0.0
  0
LINE
  5
151
100
AcDbEntity
  8
0
  6
CONTINUOUS
 62
       3
100
AcDbLine
 10
-81.25519213
 20
-9.9456633
 30
0.0
 11
-81.36371624
 21
-10.08394582
 31
0.0
  0
LINE
  5
152
100
AcDbEntity
  8
0
  6
CONTINUOUS
 62
       3
100
AcDbLine
 10
-81.82063333
 20
-15.20469839
 30
0.0
 11
-81.82063333
 21
-16.31461972
 31
0.0
  0
LINE
  5
153
100
AcDbEntity
  8
0
  6
CONTINUOUS
 62
       3
100
AcDbLine
 10
-76.95086429
 20
-25.86335504
 30
0.0
 11
-76.59644428
 21
-25.92036545
 31
0.0
  0
LINE
  5
154
100
AcDbEntity
  8
0
  6
CONTINUOUS
 62
       3
100
AcDbLine
 10
-72.7636577
 20
-31.82643858
 30
0.0
 11
-72.70899826
 21
-31.7314072
 31
0.0
  0
LINE
  5
155
100
AcDbEntity
  8
0
  6
CONTINUOUS
 62
       3
100
AcDbLine
 10
-72.58832864
 20
-8.48267861
 30
0.0
 11
-72.58832864
 21
-6.53941461
 31
0.0
  0
LINE
  5
156
100
AcDbEntity
  8
0
  6
CONTINUOUS
 62
       3
100
AcDbLine
 10
-81.43441235
 20
-2.32378477
 30
0.0
 11
-81.96186739
 21
-2.32378477
 31
0.0
  0
LINE
  5
157
100
AcDbEntity
  8
0
  6
CONTINUOUS
 62
       3
100
AcDbLine
 10
-83.6794346
 20
-28.94838917
 30
0.0
 11
-83.6794346
 21
-30.26044531
 31
0.0
  0
LINE
  5
158
100
AcDbEntity
  8
0
  6
CONTINUOUS
 62
       3
100
AcDbLine
 10
-74.0960333
 20
-32.33652646
 30
0.0
 11
-73.80148426
 21
-32.33652646
 31
0.0
  0
LINE
  5
159
100
AcDbEntity
  8
0
  6
CONTINUOUS
 62
       3
100
AcDbLine
 10
-79.36279886
 20
-31.90089414
 30
0.0
 11
-80.55063333
 21
-29.84365537
 31
0.0
  0
LINE
  5
15A
100
AcDbEntity
  8
0
  6
CONTINUOUS
 62
       3
100
AcDbLine
 10
-74.16646041
 20
-26.51942626
 30
0.0
 11
-74.03848545
 21
-26.38415412
 31
0.0
  0
LINE
  5
15B
100
AcDbEntity
  8
0
  6
CONTINUOUS
 62
       3
100
AcDbLine
 10
-74.05382882
 20
-8.49626934
 30
0.0
 11
-74.18327485
 21
-8.36545235
 31
0.0
  0
LINE
  5
15C
100
AcDbEntity
  8
0
  6
CONTINUOUS
 62
       3
100
AcDbLine
 10
-78.79746204
 20
-8.41713025
 30
0.0
 11
-79.30142405
 21
-8.49469315
 31
0.0
  0
LINE
  5
15D
100
AcDbEntity
  8
0
  6
CONTINUOUS
 62
       3
100
AcDbLine
 10
-82.67050393
 20
-19.91987415
 30
0.0
 11
-82.67050393
 21
-21.01634826
 31
0.0
  0
LINE
  5
15E
100
AcDbEntity
  8
0
  6
CONTINUOUS
 62
       3
100
AcDbLine
 10
-82.66989137
 20
-23.88888787
 30
0.0
 11
-82.6554415
 21
-24.05482164
 31
0.0
  0
LINE
  5
15F
100
AcDbEntity
  8
0
  6
CONTINUOUS
 62
       3
100
AcDbLine
 10
-81.13804068
 20
-26.14236899
 30
0.0
 11
-80.95285757
 21
-26.17367686
 31
0.0
  0
LINE
  5
160
100
AcDbEntity
  8
0
  6
CONTINUOUS
 62
       3
100
AcDbLine
 10
-80.95285757
 20
-26.17367686
 30
0.0
 11
-80.85612717
 21
-26.180279
 31
0.0
  0
LINE
  5
161
100
AcDbEntity
  8
0
  6
CONTINUOUS
 62
       3
100
AcDbLine
 10
-76.66858157
 20
-26.82500212
 30
0.0
 11
-76.23180235
 21
-26.89224954
 31
0.0
  0
LINE
  5
162
100
AcDbEntity
  8
0
  6
CONTINUOUS
 62
       3
100
AcDbLine
 10
-75.41996668
 20
-25.97030542
 30
0.0
 11
-75.28397352
 21
-25.9192646
 31
0.0
  0
LINE
  5
163
100
AcDbEntity
  8
0
  6
CONTINUOUS
 62
       3
100
AcDbLine
 10
-74.63956875
 20
-25.37103827
 30
0.0
 11
-74.56806577
 21
-25.24665153
 31
0.0
  0
LINE
  5
164
100
AcDbEntity
  8
0
  6
CONTINUOUS
 62
       3
100
AcDbLine
 10
-74.41023294
 20
-23.69118697
 30
0.0
 11
-74.41023294
 21
-22.86281736
 31
0.0
  0
LINE
  5
165
100
AcDbEntity
  8
0
  6
CONTINUOUS
 62
       3
100
AcDbLine
 10
-74.41023294
 20
-21.83343069
 30
0.0
 11
-74.41023294
 21
-20.64832657
 31
0.0
  0
LINE
  5
166
100
AcDbEntity
  8
0
  6
CONTINUOUS
 62
       3
100
AcDbLine
 10
-74.41023294
 20
-12.80441428
 30
0.0
 11
-74.41023294
 21
-11.79767741
 31
0.0
  0
LINE
  5
167
100
AcDbEntity
  8
0
  6
CONTINUOUS
 62
       3
100
AcDbLine
 10
-74.64933556
 20
-9.39012196
 30
0.0
 11
-74.73378969
 21
-9.27499014
 31
0.0
  0
LINE
  5
168
100
AcDbEntity
  8
0
  6
CONTINUOUS
 62
       3
100
AcDbLine
 10
-74.82892433
 20
-9.16886894
 30
0.0
 11
-74.93395673
 21
-9.07254011
 31
0.0
  0
LINE
  5
169
100
AcDbEntity
  8
0
  6
CONTINUOUS
 62
       3
100
AcDbLine
 10
-77.81879119
 20
-9.052839
 30
0.0
 11
-78.25077289
 21
-9.12232563
 31
0.0
  0
LINE
  5
16A
100
AcDbEntity
  8
0
  6
CONTINUOUS
 62
       3
100
AcDbLine
 10
-81.82063333
 20
-21.64039646
 30
0.0
 11
-81.82063333
 21
-22.39690219
 31
0.0
  0
LINE
  5
16B
100
AcDbEntity
  8
0
  6
CONTINUOUS
 62
       3
100
AcDbLine
 10
-80.99627815
 20
-25.07913804
 30
0.0
 11
-80.86280121
 21
-25.16961318
 31
0.0
  0
LINE
  5
16C
100
AcDbEntity
  8
0
  6
CONTINUOUS
 62
       3
100
AcDbLine
 10
-76.29609585
 20
-25.96867815
 30
0.0
 11
-76.06400172
 21
-26.00601177
 31
0.0
  0
LINE
  5
16D
100
AcDbEntity
  8
0
  6
CONTINUOUS
 62
       3
100
AcDbLine
 10
-72.58832864
 20
-4.99509584
 30
0.0
 11
-72.58832864
 21
-3.93716233
 31
0.0
  0
LINE
  5
16E
100
AcDbEntity
  8
0
  6
CONTINUOUS
 62
       3
100
AcDbLine
 10
-82.34103022
 20
-2.32378477
 30
0.0
 11
-82.54398701
 21
-2.32378477
 31
0.0
  0
LINE
  5
16F
100
AcDbEntity
  8
0
  6
CONTINUOUS
 62
       3
100
AcDbLine
 10
-83.6794346
 20
-31.04239617
 30
0.0
 11
-83.67905515
 21
-31.2576507
 31
0.0
  0
LINE
  5
170
100
AcDbEntity
  8
0
  6
CONTINUOUS
 62
       3
100
AcDbLine
 10
-81.35944391
 20
-32.33652646
 30
0.0
 11
-80.69852589
 21
-32.33652646
 31
0.0
  0
LINE
  5
171
100
AcDbEntity
  8
0
  6
CONTINUOUS
 62
       3
100
AcDbLine
 10
-79.13767768
 20
-32.33652646
 30
0.0
 11
-78.29357516
 21
-32.33652646
 31
0.0
  0
LINE
  5
172
100
AcDbEntity
  8
0
  6
CONTINUOUS
 62
       3
100
AcDbLine
 10
-73.92282276
 20
-26.23942349
 30
0.0
 11
-73.82043893
 21
-26.08725531
 31
0.0
  0
LINE
  5
173
100
AcDbEntity
  8
0
  6
CONTINUOUS
 62
       3
100
AcDbLine
 10
-74.32394576
 20
-8.24627963
 30
0.0
 11
-74.47487495
 21
-8.1406663
 31
0.0
  0
LINE
  5
174
100
AcDbEntity
  8
0
  6
CONTINUOUS
 62
       3
100
AcDbLine
 10
-79.76496714
 20
-8.56603533
 30
0.0
 11
-80.17061287
 21
-8.62846674
 31
0.0
  0
LINE
  5
175
100
AcDbEntity
  8
0
  6
CONTINUOUS
 62
       3
100
AcDbLine
 10
-81.16079244
 20
-8.77731036
 30
0.0
 11
-81.33925255
 21
-8.8436744
 31
0.0
  0
LINE
  5
176
100
AcDbEntity
  8
0
  6
CONTINUOUS
 62
       3
100
AcDbLine
 10
-82.67035048
 20
-11.01242747
 30
0.0
 11
-82.67050393
 21
-11.14787123
 31
0.0
  0
LINE
  5
177
100
AcDbEntity
  8
0
  6
CONTINUOUS
 62
       3
100
AcDbLine
 10
-82.67050393
 20
-11.14787123
 30
0.0
 11
-82.67050393
 21
-11.54122423
 31
0.0
  0
LINE
  5
178
100
AcDbEntity
  8
0
  6
CONTINUOUS
 62
       3
100
AcDbLine
 10
-82.67050393
 20
-21.98933516
 30
0.0
 11
-82.67050393
 21
-22.79851247
 31
0.0
  0
LINE
  5
179
100
AcDbEntity
  8
0
  6
CONTINUOUS
 62
       3
100
AcDbLine
 10
-82.50510719
 20
-24.61884562
 30
0.0
 11
-82.4225545
 21
-24.81712598
 31
0.0
  0
LINE
  5
17A
100
AcDbEntity
  8
0
  6
CONTINUOUS
 62
       3
100
AcDbLine
 10
-81.65423192
 20
-25.86682907
 30
0.0
 11
-81.48969395
 21
-25.98540453
 31
0.0
  0
LINE
  5
17B
100
AcDbEntity
  8
0
  6
CONTINUOUS
 62
       3
100
AcDbLine
 10
-80.12367082
 20
-26.29304948
 30
0.0
 11
-79.70983207
 21
-26.35676494
 31
0.0
  0
LINE
  5
17C
100
AcDbEntity
  8
0
  6
CONTINUOUS
 62
       3
100
AcDbLine
 10
-79.24028077
 20
-26.42905803
 30
0.0
 11
-78.73249535
 21
-26.50723771
 31
0.0
  0
LINE
  5
17D
100
AcDbEntity
  8
0
  6
CONTINUOUS
 62
       3
100
AcDbLine
 10
-75.86165974
 20
-26.94923746
 30
0.0
 11
-75.57563217
 21
-26.99327485
 31
0.0
  0
LINE
  5
17E
100
AcDbEntity
  8
0
  6
CONTINUOUS
 62
       3
100
AcDbLine
 10
-74.92031315
 20
-25.69230238
 30
0.0
 11
-74.81647516
 21
-25.59464739
 31
0.0
  0
LINE
  5
17F
100
AcDbEntity
  8
0
  6
CONTINUOUS
 62
       3
100
AcDbLine
 10
-74.72263279
 20
-25.48729812
 30
0.0
 11
-74.63956875
 21
-25.37103827
 31
0.0
  0
LINE
  5
180
100
AcDbEntity
  8
0
  6
CONTINUOUS
 62
       3
100
AcDbLine
 10
-74.41023294
 20
-16.61170576
 30
0.0
 11
-74.41023294
 21
-15.25672807
 31
0.0
  0
LINE
  5
181
100
AcDbEntity
  8
0
  6
CONTINUOUS
 62
       3
100
AcDbLine
 10
-80.06054575
 20
-9.41343757
 30
0.0
 11
-80.25319422
 21
-9.44442614
 31
0.0
  0
LINE
  5
182
100
AcDbEntity
  8
0
  6
CONTINUOUS
 62
       3
100
AcDbLine
 10
-81.74666823
 20
-10.8876577
 30
0.0
 11
-81.78584242
 21
-11.05474016
 31
0.0
  0
LINE
  5
183
100
AcDbEntity
  8
0
  6
CONTINUOUS
 62
       3
100
AcDbLine
 10
-81.82063333
 20
-22.96256349
 30
0.0
 11
-81.82063333
 21
-23.29968271
 31
0.0
  0
LINE
  5
184
100
AcDbEntity
  8
0
  6
CONTINUOUS
 62
       3
100
AcDbLine
 10
-75.91434458
 20
-26.03008495
 30
0.0
 11
-75.86130716
 21
-26.03861631
 31
0.0
  0
LINE
  5
185
100
AcDbEntity
  8
0
  6
CONTINUOUS
 62
       3
100
AcDbLine
 10
-72.58832864
 20
-3.45305415
 30
0.0
 11
-72.59171975
 21
-3.34472267
 31
0.0
  0
LINE
  5
186
100
AcDbEntity
  8
0
  6
CONTINUOUS
 62
       3
100
AcDbLine
 10
-82.62911137
 20
-2.32529816
 30
0.0
 11
-82.74355666
 21
-2.33717996
 31
0.0
  0
LINE
  5
187
100
AcDbEntity
  8
0
  6
CONTINUOUS
 62
       3
100
AcDbLine
 10
-83.6794346
 20
-9.86095522
 30
0.0
 11
-83.6794346
 21
-12.26601198
 31
0.0
  0
LINE
  5
188
100
AcDbEntity
  8
0
  6
CONTINUOUS
 62
       3
100
AcDbLine
 10
-83.6794346
 20
-17.49693072
 30
0.0
 11
-83.6794346
 21
-20.14791261
 31
0.0
  0
LINE
  5
189
100
AcDbEntity
  8
0
  6
CONTINUOUS
 62
       3
100
AcDbLine
 10
-83.39692581
 20
-31.96736197
 30
0.0
 11
-83.32038895
 21
-32.0448242
 31
0.0
  0
LINE
  5
18A
100
AcDbEntity
  8
0
  6
CONTINUOUS
 62
       3
100
AcDbLine
 10
-75.84151984
 20
-32.33652646
 30
0.0
 11
-75.14396492
 21
-32.33652646
 31
0.0
  0
LINE
  5
18B
100
AcDbEntity
  8
0
  6
CONTINUOUS
 62
       3
100
AcDbLine
 10
-73.73230053
 20
-25.92967053
 30
0.0
 11
-73.65937415
 21
-25.76869009
 31
0.0
  0
LINE
  5
18C
100
AcDbEntity
  8
0
  6
CONTINUOUS
 62
       3
100
AcDbLine
 10
-74.63509585
 20
-8.05052749
 30
0.0
 11
-74.80364187
 21
-7.97777831
 31
0.0
  0
LINE
  5
18D
100
AcDbEntity
  8
0
  6
CONTINUOUS
 62
       3
100
AcDbLine
 10
-75.40809905
 20
-7.8954861
 30
0.0
 11
-75.60618816
 21
-7.92597325
 31
0.0
  0
LINE
  5
18E
100
AcDbEntity
  8
0
  6
CONTINUOUS
 62
       3
100
AcDbLine
 10
-75.60618816
 20
-7.92597325
 30
0.0
 11
-75.90368597
 21
-7.97176003
 31
0.0
  0
LINE
  5
18F
100
AcDbEntity
  8
0
  6
CONTINUOUS
 62
       3
100
AcDbLine
 10
-80.50088277
 20
-8.67929735
 30
0.0
 11
-80.73829839
 21
-8.71583709
 31
0.0
  0
LINE
  5
190
100
AcDbEntity
  8
0
  6
CONTINUOUS
 62
       3
100
AcDbLine
 10
-81.82875365
 20
-9.19761139
 30
0.0
 11
-81.97340729
 21
-9.35574974
 31
0.0
  0
LINE
  5
191
100
AcDbEntity
  8
0
  6
CONTINUOUS
 62
       3
100
AcDbLine
 10
-82.57931198
 20
-10.48568534
 30
0.0
 11
-82.62760969
 21
-10.6721165
 31
0.0
  0
LINE
  5
192
100
AcDbEntity
  8
0
  6
CONTINUOUS
 62
       3
100
AcDbLine
 10
-82.67050393
 20
-13.99647779
 30
0.0
 11
-82.67050393
 21
-15.10555264
 31
0.0
  0
LINE
  5
193
100
AcDbEntity
  8
0
  6
CONTINUOUS
 62
       3
100
AcDbLine
 10
-82.67050393
 20
-16.29275206
 30
0.0
 11
-82.67050393
 21
-17.51775369
 31
0.0
  0
LINE
  5
194
100
AcDbEntity
  8
0
  6
CONTINUOUS
 62
       3
100
AcDbLine
 10
-82.67050393
 20
-23.40355785
 30
0.0
 11
-82.67050393
 21
-23.76414893
 31
0.0
  0
LINE
  5
195
100
AcDbEntity
  8
0
  6
CONTINUOUS
 62
       3
100
AcDbLine
 10
-82.09109804
 20
-25.39321639
 30
0.0
 11
-81.95590006
 21
-25.56719444
 31
0.0
  0
LINE
  5
196
100
AcDbEntity
  8
0
  6
CONTINUOUS
 62
       3
100
AcDbLine
 10
-81.80995598
 20
-25.72624551
 30
0.0
 11
-81.65423192
 21
-25.86682907
 31
0.0
  0
LINE
  5
197
100
AcDbEntity
  8
0
  6
CONTINUOUS
 62
       3
100
AcDbLine
 10
-77.15451892
 20
-26.7501862
 30
0.0
 11
-76.66858157
 21
-26.82500212
 31
0.0
  0
LINE
  5
198
100
AcDbEntity
  8
0
  6
CONTINUOUS
 62
       3
100
AcDbLine
 10
-74.41023294
 20
-10.44954185
 30
0.0
 11
-74.41023294
 21
-10.19874239
 31
0.0
  0
LINE
  5
199
100
AcDbEntity
  8
0
  6
CONTINUOUS
 62
       3
100
AcDbLine
 10
-75.58018988
 20
-8.7651428
 30
0.0
 11
-75.72817165
 21
-8.74398496
 31
0.0
  0
LINE
  5
19A
100
AcDbEntity
  8
0
  6
CONTINUOUS
 62
       3
100
AcDbLine
 10
-80.35631434
 20
-9.46101358
 30
0.0
 11
-80.44630145
 21
-9.46662451
 31
0.0
  0
LINE
  5
19B
100
AcDbEntity
  8
0
  6
CONTINUOUS
 62
       3
100
AcDbLine
 10
-81.8201365
 20
-23.41855497
 30
0.0
 11
-81.80841648
 21
-23.57769546
 31
0.0
  0
LINE
  5
19C
100
AcDbEntity
  8
0
  6
CONTINUOUS
 62
       3
100
AcDbLine
 10
-73.58110078
 20
-32.33052654
 30
0.0
 11
-73.46853787
 21
-32.31292637
 31
0.0
  0
LINE
  5
19D
100
AcDbEntity
  8
0
  6
CONTINUOUS
 62
       3
100
AcDbLine
 10
-72.60648518
 20
-3.23134572
 30
0.0
 11
-72.63240811
 21
-3.12183961
 31
0.0
  0
LINE
  5
19E
100
AcDbEntity
  8
0
  6
CONTINUOUS
 62
       3
100
AcDbLine
 10
-76.71872006
 20
-2.32378477
 30
0.0
 11
-77.54973798
 21
-2.32378477
 31
0.0
  0
LINE
  5
19F
100
AcDbEntity
  8
0
  6
CONTINUOUS
 62
       3
100
AcDbLine
 10
-79.24143225
 20
-2.32378477
 30
0.0
 11
-80.04628095
 21
-2.32378477
 31
0.0
  0
LINE
  5
1A0
100
AcDbEntity
  8
0
  6
CONTINUOUS
 62
       3
100
AcDbLine
 10
-83.4059522
 20
-2.70327471
 30
0.0
 11
-83.47359973
 21
-2.78878155
 31
0.0
  0
LINE
  5
1A1
100
AcDbEntity
  8
0
  6
CONTINUOUS
 62
       3
100
AcDbLine
 10
-83.6794346
 20
-27.19366778
 30
0.0
 11
-83.6794346
 21
-28.94838917
 31
0.0
  0
LINE
  5
1A2
100
AcDbEntity
  8
0
  6
CONTINUOUS
 62
       3
100
AcDbLine
 10
-83.61846079
 20
-31.59170672
 30
0.0
 11
-83.57696276
 21
-31.69429277
 31
0.0
  0
LINE
  5
1A3
100
AcDbEntity
  8
0
  6
CONTINUOUS
 62
       3
100
AcDbLine
 10
-82.84063192
 20
-32.30345794
 30
0.0
 11
-82.72944441
 21
-32.3252537
 31
0.0
  0
LINE
  5
1A4
100
AcDbEntity
  8
0
  6
CONTINUOUS
 62
       3
100
AcDbLine
 10
-80.55063333
 20
-4.95711241
 30
0.0
 11
-79.36279886
 21
-2.89987364
 31
0.0
  0
LINE
  5
1A5
100
AcDbEntity
  8
0
  6
CONTINUOUS
 62
       3
100
AcDbLine
 10
-73.60262638
 20
-25.60633495
 30
0.0
 11
-73.56302379
 21
-25.44462604
 31
0.0
  0
LINE
  5
1A6
100
AcDbEntity
  8
0
  6
CONTINUOUS
 62
       3
100
AcDbLine
 10
-73.56700345
 20
-9.41845438
 30
0.0
 11
-73.60880205
 21
-9.25798925
 31
0.0
  0
LINE
  5
1A7
100
AcDbEntity
  8
0
  6
CONTINUOUS
 62
       3
100
AcDbLine
 10
-73.74250575
 20
-8.93943477
 30
0.0
 11
-73.83247768
 21
-8.78517567
 31
0.0
  0
LINE
  5
1A8
100
AcDbEntity
  8
0
  6
CONTINUOUS
 62
       3
100
AcDbLine
 10
-77.21784702
 20
-8.17401763
 30
0.0
 11
-77.73819507
 21
-8.25410244
 31
0.0
  0
LINE
  5
1A9
100
AcDbEntity
  8
0
  6
CONTINUOUS
 62
       3
100
AcDbLine
 10
-78.27055957
 20
-8.33603667
 30
0.0
 11
-78.79746204
 21
-8.41713025
 31
0.0
  0
LINE
  5
1AA
100
AcDbEntity
  8
0
  6
CONTINUOUS
 62
       3
100
AcDbLine
 10
-80.8653813
 20
-8.73539595
 30
0.0
 11
-80.97629595
 21
-8.74248159
 31
0.0
  0
LINE
  5
1AB
100
AcDbEntity
  8
0
  6
CONTINUOUS
 62
       3
100
AcDbLine
 10
-82.33830274
 20
-9.9025293
 30
0.0
 11
-82.43369241
 21
-10.09745506
 31
0.0
  0
LINE
  5
1AC
100
AcDbEntity
  8
0
  6
CONTINUOUS
 62
       3
100
AcDbLine
 10
-82.51435086
 20
-10.29298596
 30
0.0
 11
-82.57931198
 21
-10.48568534
 31
0.0
  0
LINE
  5
1AD
100
AcDbEntity
  8
0
  6
CONTINUOUS
 62
       3
100
AcDbLine
 10
-82.67050393
 20
-21.01634826
 30
0.0
 11
-82.67050393
 21
-21.98933516
 31
0.0
  0
LINE
  5
1AE
100
AcDbEntity
  8
0
  6
CONTINUOUS
 62
       3
100
AcDbLine
 10
-75.86130716
 20
-26.03861631
 30
0.0
 11
-75.70941623
 21
-26.03076498
 31
0.0
  0
LINE
  5
1AF
100
AcDbEntity
  8
0
  6
CONTINUOUS
 62
       3
100
AcDbLine
 10
-74.41331904
 20
-24.6835098
 30
0.0
 11
-74.41023294
 21
-24.56367653
 31
0.0
  0
LINE
  5
1B0
100
AcDbEntity
  8
0
  6
CONTINUOUS
 62
       3
100
AcDbLine
 10
-74.41466775
 20
-10.07357907
 30
0.0
 11
-74.43397851
 21
-9.92512042
 31
0.0
  0
LINE
  5
1B1
100
AcDbEntity
  8
0
  6
CONTINUOUS
 62
       3
100
AcDbLine
 10
-80.59597978
 20
-9.49320538
 30
0.0
 11
-80.74075711
 21
-9.54416026
 31
0.0
  0
LINE
  5
1B2
100
AcDbEntity
  8
0
  6
CONTINUOUS
 62
       3
100
AcDbLine
 10
-81.78171159
 20
-23.74211021
 30
0.0
 11
-81.74080503
 21
-23.90949591
 31
0.0
  0
LINE
  5
1B3
100
AcDbEntity
  8
0
  6
CONTINUOUS
 62
       3
100
AcDbLine
 10
-73.3600093
 20
-32.28432529
 30
0.0
 11
-73.25611491
 21
-32.24532266
 31
0.0
  0
LINE
  5
1B4
100
AcDbEntity
  8
0
  6
CONTINUOUS
 62
       3
100
AcDbLine
 10
-72.58832864
 20
-18.49638584
 30
0.0
 11
-72.58832864
 21
-15.83174145
 31
0.0
  0
LINE
  5
1B5
100
AcDbEntity
  8
0
  6
CONTINUOUS
 62
       3
100
AcDbLine
 10
-72.58832864
 20
-10.73744778
 30
0.0
 11
-72.58832864
 21
-8.48267861
 31
0.0
  0
LINE
  5
1B6
100
AcDbEntity
  8
0
  6
CONTINUOUS
 62
       3
100
AcDbLine
 10
-73.07589181
 20
-2.51414933
 30
0.0
 11
-73.16948035
 21
-2.45723951
 31
0.0
  0
LINE
  5
1B7
100
AcDbEntity
  8
0
  6
CONTINUOUS
 62
       3
100
AcDbLine
 10
-81.96186739
 20
-2.32378477
 30
0.0
 11
-82.34103022
 21
-2.32378477
 31
0.0
  0
LINE
  5
1B8
100
AcDbEntity
  8
0
  6
CONTINUOUS
 62
       3
100
AcDbLine
 10
-83.06194187
 20
-2.4382581
 30
0.0
 11
-83.15776365
 21
-2.49175899
 31
0.0
  0
LINE
  5
1B9
100
AcDbEntity
  8
0
  6
CONTINUOUS
 62
       3
100
AcDbLine
 10
-83.671861
 20
-3.30179084
 30
0.0
 11
-83.67933954
 21
-3.41728196
 31
0.0
  0
LINE
  5
1BA
100
AcDbEntity
  8
0
  6
CONTINUOUS
 62
       3
100
AcDbLine
 10
-83.64970681
 20
-31.48433813
 30
0.0
 11
-83.61846079
 21
-31.59170672
 31
0.0
  0
LINE
  5
1BB
100
AcDbEntity
  8
0
  6
CONTINUOUS
 62
       3
100
AcDbLine
 10
-82.30269868
 20
-32.33652646
 30
0.0
 11
-81.90347279
 21
-32.33652646
 31
0.0
  0
LINE
  5
1BC
100
AcDbEntity
  8
0
  6
CONTINUOUS
 62
       3
100
AcDbLine
 10
-74.78215138
 20
-26.92551097
 30
0.0
 11
-74.61459313
 21
-26.84828226
 31
0.0
  0
LINE
  5
1BD
100
AcDbEntity
  8
0
  6
CONTINUOUS
 62
       3
100
AcDbLine
 10
-74.30578107
 20
-26.64321896
 30
0.0
 11
-74.16646041
 21
-26.51942626
 31
0.0
  0
LINE
  5
1BE
100
AcDbEntity
  8
0
  6
CONTINUOUS
 62
       3
100
AcDbLine
 10
-73.53772806
 20
-20.94923562
 30
0.0
 11
-73.53772806
 21
-19.55527476
 31
0.0
  0
LINE
  5
1BF
100
AcDbEntity
  8
0
  6
CONTINUOUS
 62
       3
100
AcDbLine
 10
-74.18327485
 20
-8.36545235
 30
0.0
 11
-74.32394576
 21
-8.24627963
 31
0.0
  0
LINE
  5
1C0
100
AcDbEntity
  8
0
  6
CONTINUOUS
 62
       3
100
AcDbLine
 10
-80.17061287
 20
-8.62846674
 30
0.0
 11
-80.50088277
 21
-8.67929735
 31
0.0
  0
LINE
  5
1C1
100
AcDbEntity
  8
0
  6
CONTINUOUS
 62
       3
100
AcDbLine
 10
-82.6554415
 20
-24.05482164
 30
0.0
 11
-82.62251678
 21
-24.23415289
 31
0.0
  0
LINE
  5
1C2
100
AcDbEntity
  8
0
  6
CONTINUOUS
 62
       3
100
AcDbLine
 10
-80.85612717
 20
-26.180279
 30
0.0
 11
-80.71429682
 21
-26.20211549
 31
0.0
  0
LINE
  5
1C3
100
AcDbEntity
  8
0
  6
CONTINUOUS
 62
       3
100
AcDbLine
 10
-75.56204183
 20
-26.00773345
 30
0.0
 11
-75.41996668
 21
-25.97030542
 31
0.0
  0
LINE
  5
1C4
100
AcDbEntity
  8
0
  6
CONTINUOUS
 62
       3
100
AcDbLine
 10
-74.46788339
 20
-9.78176363
 30
0.0
 11
-74.51559968
 21
-9.64429045
 31
0.0
  0
LINE
  5
1C5
100
AcDbEntity
  8
0
  6
CONTINUOUS
 62
       3
100
AcDbLine
 10
-80.87985022
 20
-9.61718632
 30
0.0
 11
-81.01247591
 21
-9.70998073
 31
0.0
  0
LINE
  5
1C6
100
AcDbEntity
  8
0
  6
CONTINUOUS
 62
       3
100
AcDbLine
 10
-81.68648001
 20
-24.07754924
 30
0.0
 11
-81.61951975
 21
-24.24396689
 31
0.0
  0
LINE
  5
1C7
100
AcDbEntity
  8
0
  6
CONTINUOUS
 62
       3
100
AcDbLine
 10
-77.76518821
 20
-25.73236655
 30
0.0
 11
-77.34517317
 21
-25.79992828
 31
0.0
  0
LINE
  5
1C8
100
AcDbEntity
  8
0
  6
CONTINUOUS
 62
       3
100
AcDbLine
 10
-76.59644428
 20
-25.92036545
 30
0.0
 11
-76.29609585
 21
-25.96867815
 31
0.0
  0
LINE
  5
1C9
100
AcDbEntity
  8
0
  6
CONTINUOUS
 62
       3
100
AcDbLine
 10
-72.70899826
 20
-31.7314072
 30
0.0
 11
-72.66377177
 21
-31.63076914
 31
0.0
  0
LINE
  5
1CA
100
AcDbEntity
  8
0
  6
CONTINUOUS
 62
       3
100
AcDbLine
 10
-72.58832864
 20
-3.93716233
 30
0.0
 11
-72.58832864
 21
-3.45305415
 31
0.0
  0
LINE
  5
1CB
100
AcDbEntity
  8
0
  6
CONTINUOUS
 62
       3
100
AcDbLine
 10
-72.77112351
 20
-2.82255452
 30
0.0
 11
-72.83567802
 21
-2.73453998
 31
0.0
  0
LINE
  5
1CC
100
AcDbEntity
  8
0
  6
CONTINUOUS
 62
       3
100
AcDbLine
 10
-73.69879281
 20
-2.32378477
 30
0.0
 11
-73.8284758
 21
-2.32378477
 31
0.0
  0
LINE
  5
1CD
100
AcDbEntity
  8
0
  6
CONTINUOUS
 62
       3
100
AcDbLine
 10
-82.96056884
 20
-2.39426075
 30
0.0
 11
-83.06194187
 21
-2.4382581
 31
0.0
  0
LINE
  5
1CE
100
AcDbEntity
  8
0
  6
CONTINUOUS
 62
       3
100
AcDbLine
 10
-83.6794346
 20
-5.90884719
 30
0.0
 11
-83.6794346
 21
-7.71275361
 31
0.0
  0
LINE
  5
1CF
100
AcDbEntity
  8
0
  6
CONTINUOUS
 62
       3
100
AcDbLine
 10
-80.55063333
 20
-29.84365537
 30
0.0
 11
-79.36279886
 21
-27.78548643
 31
0.0
  0
LINE
  5
1D0
100
AcDbEntity
  8
0
  6
CONTINUOUS
 62
       3
100
AcDbLine
 10
-76.98526956
 20
-2.89987364
 30
0.0
 11
-75.79650491
 21
-4.95711241
 31
0.0
  0
LINE
  5
1D1
100
AcDbEntity
  8
0
  6
CONTINUOUS
 62
       3
100
AcDbLine
 10
-75.79650491
 20
-4.95711241
 30
0.0
 11
-76.98526956
 21
-7.01528135
 31
0.0
  0
LINE
  5
1D2
100
AcDbEntity
  8
0
  6
CONTINUOUS
 62
       3
100
AcDbLine
 10
-73.82043893
 20
-26.08725531
 30
0.0
 11
-73.73230053
 21
-25.92967053
 31
0.0
  0
LINE
  5
1D3
100
AcDbEntity
  8
0
  6
CONTINUOUS
 62
       3
100
AcDbLine
 10
-73.53772806
 20
-24.84958429
 30
0.0
 11
-73.53772806
 21
-24.22330466
 31
0.0
  0
LINE
  5
1D4
100
AcDbEntity
  8
0
  6
CONTINUOUS
 62
       3
100
AcDbLine
 10
-73.53772806
 20
-12.50931164
 30
0.0
 11
-73.53772806
 21
-11.4260789
 31
0.0
  0
LINE
  5
1D5
100
AcDbEntity
  8
0
  6
CONTINUOUS
 62
       3
100
AcDbLine
 10
-75.16184296
 20
-7.89210932
 30
0.0
 11
-75.32689708
 21
-7.88298861
 31
0.0
  0
LINE
  5
1D6
100
AcDbEntity
  8
0
  6
CONTINUOUS
 62
       3
100
AcDbLine
 10
-81.33925255
 20
-8.8436744
 30
0.0
 11
-81.51071018
 21
-8.93813704
 31
0.0
  0
LINE
  5
1D7
100
AcDbEntity
  8
0
  6
CONTINUOUS
 62
       3
100
AcDbLine
 10
-82.67050393
 20
-11.54122423
 30
0.0
 11
-82.67050393
 21
-12.17399123
 31
0.0
  0
LINE
  5
1D8
100
AcDbEntity
  8
0
  6
CONTINUOUS
 62
       3
100
AcDbLine
 10
-82.57208331
 20
-24.42334107
 30
0.0
 11
-82.50510719
 21
-24.61884562
 31
0.0
  0
LINE
  5
1D9
100
AcDbEntity
  8
0
  6
CONTINUOUS
 62
       3
100
AcDbLine
 10
-75.28397352
 20
-25.9192646
 30
0.0
 11
-75.15484505
 21
-25.85539468
 31
0.0
  0
LINE
  5
1DA
100
AcDbEntity
  8
0
  6
CONTINUOUS
 62
       3
100
AcDbLine
 10
-74.57634464
 20
-9.51348265
 30
0.0
 11
-74.64933556
 21
-9.39012196
 31
0.0
  0
LINE
  5
1DB
100
AcDbEntity
  8
0
  6
CONTINUOUS
 62
       3
100
AcDbLine
 10
-81.13785095
 20
-9.82024066
 30
0.0
 11
-81.25519213
 21
-9.9456633
 31
0.0
  0
LINE
  5
1DC
100
AcDbEntity
  8
0
  6
CONTINUOUS
 62
       3
100
AcDbLine
 10
-81.82063333
 20
-19.7056424
 30
0.0
 11
-81.82063333
 21
-20.73074398
 31
0.0
  0
LINE
  5
1DD
100
AcDbEntity
  8
0
  6
CONTINUOUS
 62
       3
100
AcDbLine
 10
-81.82063333
 20
-22.39690219
 30
0.0
 11
-81.82063333
 21
-22.96256349
 31
0.0
  0
LINE
  5
1DE
100
AcDbEntity
  8
0
  6
CONTINUOUS
 62
       3
100
AcDbLine
 10
-80.86280121
 20
-25.16961318
 30
0.0
 11
-80.72295474
 21
-25.24002615
 31
0.0
  0
LINE
  5
1DF
100
AcDbEntity
  8
0
  6
CONTINUOUS
 62
       3
100
AcDbLine
 10
-73.69709817
 20
-32.33652646
 30
0.0
 11
-73.58110078
 21
-32.33052654
 31
0.0
  0
LINE
  5
1E0
100
AcDbEntity
  8
0
  6
CONTINUOUS
 62
       3
100
AcDbLine
 10
-72.97823526
 20
-32.07189912
 30
0.0
 11
-72.89887605
 21
-31.9972839
 31
0.0
  0
LINE
  5
1E1
100
AcDbEntity
  8
0
  6
CONTINUOUS
 62
       3
100
AcDbLine
 10
-72.58832864
 20
-30.62049509
 30
0.0
 11
-72.58832864
 21
-29.49698154
 31
0.0
  0
LINE
  5
1E2
100
AcDbEntity
  8
0
  6
CONTINUOUS
 62
       3
100
AcDbLine
 10
-72.71532713
 20
-2.91684319
 30
0.0
 11
-72.77112351
 21
-2.82255452
 31
0.0
  0
LINE
  5
1E3
100
AcDbEntity
  8
0
  6
CONTINUOUS
 62
       3
100
AcDbLine
 10
-75.22591181
 20
-2.32378477
 30
0.0
 11
-75.93480673
 21
-2.32378477
 31
0.0
  0
LINE
  5
1E4
100
AcDbEntity
  8
0
  6
CONTINUOUS
 62
       3
100
AcDbLine
 10
-83.32038895
 20
-32.0448242
 30
0.0
 11
-83.23658467
 21
-32.11450707
 31
0.0
  0
LINE
  5
1E5
100
AcDbEntity
  8
0
  6
CONTINUOUS
 62
       3
100
AcDbLine
 10
-76.98526956
 20
-7.01528135
 30
0.0
 11
-79.36279886
 21
-7.01528135
 31
0.0
  0
LINE
  5
1E6
100
AcDbEntity
  8
0
  6
CONTINUOUS
 62
       3
100
AcDbLine
 10
-73.53772806
 20
-25.16208944
 30
0.0
 11
-73.53772806
 21
-24.84958429
 31
0.0
  0
LINE
  5
1E7
100
AcDbEntity
  8
0
  6
CONTINUOUS
 62
       3
100
AcDbLine
 10
-73.53772806
 20
-9.70565043
 30
0.0
 11
-73.54319579
 21
-9.57715795
 31
0.0
  0
LINE
  5
1E8
100
AcDbEntity
  8
0
  6
CONTINUOUS
 62
       3
100
AcDbLine
 10
-75.90368597
 20
-7.97176003
 30
0.0
 11
-76.28311401
 21
-8.03015637
 31
0.0
  0
LINE
  5
1E9
100
AcDbEntity
  8
0
  6
CONTINUOUS
 62
       3
100
AcDbLine
 10
-81.67419925
 20
-9.0572616
 30
0.0
 11
-81.82875365
 21
-9.19761139
 31
0.0
  0
LINE
  5
1EA
100
AcDbEntity
  8
0
  6
CONTINUOUS
 62
       3
100
AcDbLine
 10
-82.4225545
 20
-24.81712598
 30
0.0
 11
-82.32539136
 21
-25.0146416
 31
0.0
  0
LINE
  5
1EB
100
AcDbEntity
  8
0
  6
CONTINUOUS
 62
       3
100
AcDbLine
 10
-75.03336402
 20
-25.77947937
 30
0.0
 11
-74.92031315
 21
-25.69230238
 31
0.0
  0
LINE
  5
1EC
100
AcDbEntity
  8
0
  6
CONTINUOUS
 62
       3
100
AcDbLine
 10
-74.73378969
 20
-9.27499014
 30
0.0
 11
-74.82892433
 21
-9.16886894
 31
0.0
  0
LINE
  5
1ED
100
AcDbEntity
  8
0
  6
CONTINUOUS
 62
       3
100
AcDbLine
 10
-79.46339457
 20
-9.31738252
 30
0.0
 11
-79.79255163
 21
-9.37032924
 31
0.0
  0
LINE
  5
1EE
100
AcDbEntity
  8
0
  6
CONTINUOUS
 62
       3
100
AcDbLine
 10
-80.25319422
 20
-9.44442614
 30
0.0
 11
-80.35631434
 21
-9.46101358
 31
0.0
  0
LINE
  5
1EF
100
AcDbEntity
  8
0
  6
CONTINUOUS
 62
       3
100
AcDbLine
 10
-81.78584242
 20
-11.05474016
 30
0.0
 11
-81.81071703
 21
-11.21856272
 31
0.0
  0
LINE
  5
1F0
100
AcDbEntity
  8
0
  6
CONTINUOUS
 62
       3
100
AcDbLine
 10
-81.80841648
 20
-23.57769546
 30
0.0
 11
-81.78171159
 21
-23.74211021
 31
0.0
  0
LINE
  5
1F1
100
AcDbEntity
  8
0
  6
CONTINUOUS
 62
       3
100
AcDbLine
 10
-81.35065968
 20
-24.71037265
 30
0.0
 11
-81.2409906
 21
-24.84721446
 31
0.0
  0
LINE
  5
1F2
100
AcDbEntity
  8
0
  6
CONTINUOUS
 62
       3
100
AcDbLine
 10
-80.03087609
 20
-25.36791817
 30
0.0
 11
-79.75446099
 21
-25.41238106
 31
0.0
  0
LINE
  5
1F3
100
AcDbEntity
  8
0
  6
CONTINUOUS
 62
       3
100
AcDbLine
 10
-73.06462804
 20
-32.13851022
 30
0.0
 11
-72.97823526
 21
-32.07189912
 31
0.0
  0
LINE
  5
1F4
100
AcDbEntity
  8
0
  6
CONTINUOUS
 62
       3
100
AcDbLine
 10
-72.58832864
 20
-23.62346953
 30
0.0
 11
-72.58832864
 21
-21.12277522
 31
0.0
  0
LINE
  5
1F5
100
AcDbEntity
  8
0
  6
CONTINUOUS
 62
       3
100
AcDbLine
 10
-83.47359973
 20
-2.78878155
 30
0.0
 11
-83.53271139
 21
-2.88078783
 31
0.0
  0
LINE
  5
1F6
100
AcDbEntity
  8
0
  6
CONTINUOUS
 62
       3
100
AcDbLine
 10
-83.14610991
 20
-32.17581125
 30
0.0
 11
-83.04956159
 21
-32.22813736
 31
0.0
  0
LINE
  5
1F7
100
AcDbEntity
  8
0
  6
CONTINUOUS
 62
       3
100
AcDbLine
 10
-75.13873937
 20
-27.01925778
 30
0.0
 11
-74.95718898
 21
-26.98317646
 31
0.0
  0
LINE
  5
1F8
100
AcDbEntity
  8
0
  6
CONTINUOUS
 62
       3
100
AcDbLine
 10
-81.97340729
 20
-9.35574974
 30
0.0
 11
-82.10719408
 21
-9.52823996
 31
0.0
  0
LINE
  5
1F9
100
AcDbEntity
  8
0
  6
CONTINUOUS
 62
       3
100
AcDbLine
 10
-82.21458384
 20
-25.20785192
 30
0.0
 11
-82.09109804
 21
-25.39321639
 31
0.0
  0
LINE
  5
1FA
100
AcDbEntity
  8
0
  6
CONTINUOUS
 62
       3
100
AcDbLine
 10
-74.81647516
 20
-25.59464739
 30
0.0
 11
-74.72263279
 21
-25.48729812
 31
0.0
  0
LINE
  5
1FB
100
AcDbEntity
  8
0
  6
CONTINUOUS
 62
       3
100
AcDbLine
 10
-74.41023294
 20
-11.79767741
 30
0.0
 11
-74.41023294
 21
-10.99762007
 31
0.0
  0
LINE
  5
1FC
100
AcDbEntity
  8
0
  6
CONTINUOUS
 62
       3
100
AcDbLine
 10
-74.41023294
 20
-10.19874239
 30
0.0
 11
-74.41466775
 21
-10.07357907
 31
0.0
  0
LINE
  5
1FD
100
AcDbEntity
  8
0
  6
CONTINUOUS
 62
       3
100
AcDbLine
 10
-75.72817165
 20
-8.74398496
 30
0.0
 11
-75.86216819
 21
-8.7381054
 31
0.0
  0
LINE
  5
1FE
100
AcDbEntity
  8
0
  6
CONTINUOUS
 62
       3
100
AcDbLine
 10
-80.74075711
 20
-9.54416026
 30
0.0
 11
-80.87985022
 21
-9.61718632
 31
0.0
  0
LINE
  5
1FF
100
AcDbEntity
  8
0
  6
CONTINUOUS
 62
       3
100
AcDbLine
 10
-81.55118039
 20
-10.38987919
 30
0.0
 11
-81.628554
 21
-10.55292439
 31
0.0
  0
LINE
  5
200
100
AcDbEntity
  8
0
  6
CONTINUOUS
 62
       3
100
AcDbLine
 10
-81.82063333
 20
-13.24167107
 30
0.0
 11
-81.82063333
 21
-14.16781629
 31
0.0
  0
LINE
  5
201
100
AcDbEntity
  8
0
  6
CONTINUOUS
 62
       3
100
AcDbLine
 10
-81.45082637
 20
-24.56268191
 30
0.0
 11
-81.35065968
 21
-24.71037265
 31
0.0
  0
LINE
  5
202
100
AcDbEntity
  8
0
  6
CONTINUOUS
 62
       3
100
AcDbLine
 10
-78.62560593
 20
-25.59396362
 30
0.0
 11
-78.1967267
 21
-25.6629512
 31
0.0
  0
LINE
  5
203
100
AcDbEntity
  8
0
  6
CONTINUOUS
 62
       3
100
AcDbLine
 10
-73.16948035
 20
-2.45723951
 30
0.0
 11
-73.26882777
 21
-2.40960792
 31
0.0
  0
LINE
  5
204
100
AcDbEntity
  8
0
  6
CONTINUOUS
 62
       3
100
AcDbLine
 10
-83.58269027
 20
-2.97869272
 30
0.0
 11
-83.62293944
 21
-3.0818954
 31
0.0
  0
LINE
  5
205
100
AcDbEntity
  8
0
  6
CONTINUOUS
 62
       3
100
AcDbLine
 10
-82.94753662
 20
-32.27088604
 30
0.0
 11
-82.84063192
 21
-32.30345794
 31
0.0
  0
LINE
  5
206
100
AcDbEntity
  8
0
  6
CONTINUOUS
 62
       3
100
AcDbLine
 10
-73.53772806
 20
-19.55527476
 30
0.0
 11
-73.53772806
 21
-18.09124776
 31
0.0
  0
LINE
  5
207
100
AcDbEntity
  8
0
  6
CONTINUOUS
 62
       3
100
AcDbLine
 10
-82.22914793
 20
-9.71164537
 30
0.0
 11
-82.33830274
 21
-9.9025293
 31
0.0
  0
LINE
  5
208
100
AcDbEntity
  8
0
  6
CONTINUOUS
 62
       3
100
AcDbLine
 10
-81.95590006
 20
-25.56719444
 30
0.0
 11
-81.80995598
 21
-25.72624551
 31
0.0
  0
LINE
  5
209
100
AcDbEntity
  8
0
  6
CONTINUOUS
 62
       3
100
AcDbLine
 10
-75.57563217
 20
-26.99327485
 30
0.0
 11
-75.39119809
 21
-27.0216707
 31
0.0
  0
LINE
  5
20A
100
AcDbEntity
  8
0
  6
CONTINUOUS
 62
       3
100
AcDbLine
 10
-75.70941623
 20
-26.03076498
 30
0.0
 11
-75.56204183
 21
-26.00773345
 31
0.0
  0
LINE
  5
20B
100
AcDbEntity
  8
0
  6
CONTINUOUS
 62
       3
100
AcDbLine
 10
-74.41023294
 20
-24.56367653
 30
0.0
 11
-74.41023294
 21
-24.2732399
 31
0.0
  0
LINE
  5
20C
100
AcDbEntity
  8
0
  6
CONTINUOUS
 62
       3
100
AcDbLine
 10
-74.51559968
 20
-9.64429045
 30
0.0
 11
-74.57634464
 21
-9.51348265
 31
0.0
  0
LINE
  5
20D
100
AcDbEntity
  8
0
  6
CONTINUOUS
 62
       3
100
AcDbLine
 10
-75.17058394
 20
-8.91238656
 30
0.0
 11
-75.3006133
 21
-8.85012535
 31
0.0
  0
LINE
  5
20E
100
AcDbEntity
  8
0
  6
CONTINUOUS
 62
       3
100
AcDbLine
 10
-76.99826233
 20
-8.92085241
 30
0.0
 11
-77.3965601
 21
-8.9849208
 31
0.0
  0
LINE
  5
20F
100
AcDbEntity
  8
0
  6
CONTINUOUS
 62
       3
100
AcDbLine
 10
-81.46264007
 20
-10.23278539
 30
0.0
 11
-81.55118039
 21
-10.38987919
 31
0.0
  0
LINE
  5
210
100
AcDbEntity
  8
0
  6
CONTINUOUS
 62
       3
100
AcDbLine
 10
-81.82063333
 20
-17.4598826
 30
0.0
 11
-81.82063333
 21
-18.60278938
 31
0.0
  0
LINE
  5
211
100
AcDbEntity
  8
0
  6
CONTINUOUS
 62
       3
100
AcDbLine
 10
-72.66377177
 20
-31.63076914
 30
0.0
 11
-72.62857807
 21
-31.52512376
 31
0.0
  0
LINE
  5
212
100
AcDbEntity
  8
0
  6
CONTINUOUS
 62
       3
100
AcDbLine
 10
-73.37333424
 20
-2.37185539
 30
0.0
 11
-73.48239991
 21
-2.34458273
 31
0.0
  0
LINE
  5
213
100
AcDbEntity
  8
0
  6
CONTINUOUS
 62
       3
100
AcDbLine
 10
-83.65286199
 20
-3.18979505
 30
0.0
 11
-83.671861
 21
-3.30179084
 31
0.0
  0
LINE
  5
214
100
AcDbEntity
  8
0
  6
CONTINUOUS
 62
       3
100
AcDbLine
 10
-82.72944441
 20
-32.3252537
 30
0.0
 11
-82.61457102
 21
-32.33567395
 31
0.0
  0
LINE
  5
215
100
AcDbEntity
  8
0
  6
CONTINUOUS
 62
       3
100
AcDbLine
 10
-80.69852589
 20
-32.33652646
 30
0.0
 11
-79.94863253
 21
-32.33652646
 31
0.0
  0
LINE
  5
216
100
AcDbEntity
  8
0
  6
CONTINUOUS
 62
       3
100
AcDbLine
 10
-76.98526956
 20
-31.90089414
 30
0.0
 11
-79.36279886
 21
-31.90089414
 31
0.0
  0
LINE
  5
217
100
AcDbEntity
  8
0
  6
CONTINUOUS
 62
       3
100
AcDbLine
 10
-79.36279886
 20
-27.78548643
 30
0.0
 11
-76.98526956
 21
-27.78548643
 31
0.0
  0
LINE
  5
218
100
AcDbEntity
  8
0
  6
CONTINUOUS
 62
       3
100
AcDbLine
 10
-75.79650491
 20
-29.84365537
 30
0.0
 11
-76.98526956
 21
-31.90089414
 31
0.0
  0
LINE
  5
219
100
AcDbEntity
  8
0
  6
CONTINUOUS
 62
       3
100
AcDbLine
 10
-73.53772806
 20
-16.60589629
 30
0.0
 11
-73.53772806
 21
-15.147962
 31
0.0
  0
LINE
  5
21A
100
AcDbEntity
  8
0
  6
CONTINUOUS
 62
       3
100
AcDbLine
 10
-82.43369241
 20
-10.09745506
 30
0.0
 11
-82.51435086
 21
-10.29298596
 31
0.0
  0
LINE
  5
21B
100
AcDbEntity
  8
0
  6
CONTINUOUS
 62
       3
100
AcDbLine
 10
-82.67050393
 20
-23.76414893
 30
0.0
 11
-82.66989137
 21
-23.88888787
 31
0.0
  0
LINE
  5
21C
100
AcDbEntity
  8
0
  6
CONTINUOUS
 62
       3
100
AcDbLine
 10
-82.62251678
 20
-24.23415289
 30
0.0
 11
-82.57208331
 21
-24.42334107
 31
0.0
  0
LINE
  5
21D
100
AcDbEntity
  8
0
  6
CONTINUOUS
 62
       3
100
AcDbLine
 10
-80.71429682
 20
-26.20211549
 30
0.0
 11
-80.46431855
 21
-26.24060266
 31
0.0
  0
LINE
  5
21E
100
AcDbEntity
  8
0
  6
CONTINUOUS
 62
       3
100
AcDbLine
 10
-75.15484505
 20
-25.85539468
 30
0.0
 11
-75.03336402
 21
-25.77947937
 31
0.0
  0
LINE
  5
21F
100
AcDbEntity
  8
0
  6
CONTINUOUS
 62
       3
100
AcDbLine
 10
-74.50890659
 20
-25.11492162
 30
0.0
 11
-74.46287392
 21
-24.97663222
 31
0.0
  0
LINE
  5
220
100
AcDbEntity
  8
0
  6
CONTINUOUS
 62
       3
100
AcDbLine
 10
-74.41023294
 20
-19.35280463
 30
0.0
 11
-74.41023294
 21
-17.99216449
 31
0.0
  0
LINE
  5
221
100
AcDbEntity
  8
0
  6
CONTINUOUS
 62
       3
100
AcDbLine
 10
-75.04810418
 20
-8.9867854
 30
0.0
 11
-75.17058394
 21
-8.91238656
 31
0.0
  0
LINE
  5
222
100
AcDbEntity
  8
0
  6
CONTINUOUS
 62
       3
100
AcDbLine
 10
-78.67832249
 20
-9.19109934
 30
0.0
 11
-79.08725729
 21
-9.25687876
 31
0.0
  0
LINE
  5
223
100
AcDbEntity
  8
0
  6
CONTINUOUS
 62
       3
100
AcDbLine
 10
-80.72295474
 20
-25.24002615
 30
0.0
 11
-80.57752195
 21
-25.28807363
 31
0.0
  0
LINE
  5
224
100
AcDbEntity
  8
0
  6
CONTINUOUS
 62
       3
100
AcDbLine
 10
-72.60401702
 20
-31.41507043
 30
0.0
 11
-72.59068846
 21
-31.3012085
 31
0.0
  0
LINE
  5
225
100
AcDbEntity
  8
0
  6
CONTINUOUS
 62
       3
100
AcDbLine
 10
-73.59542493
 20
-2.32839077
 30
0.0
 11
-73.69879281
 21
-2.32378477
 31
0.0
  0
LINE
  5
226
100
AcDbEntity
  8
0
  6
CONTINUOUS
 62
       3
100
AcDbLine
 10
-83.67933954
 20
-3.41728196
 30
0.0
 11
-83.6794346
 21
-3.68368012
 31
0.0
  0
LINE
  5
227
100
AcDbEntity
  8
0
  6
CONTINUOUS
 62
       3
100
AcDbLine
 10
-83.6794346
 20
-12.26601198
 30
0.0
 11
-83.6794346
 21
-14.84048382
 31
0.0
  0
LINE
  5
228
100
AcDbEntity
  8
0
  6
CONTINUOUS
 62
       3
100
AcDbLine
 10
-83.57696276
 20
-31.69429277
 30
0.0
 11
-83.52580964
 21
-31.79149689
 31
0.0
  0
LINE
  5
229
100
AcDbEntity
  8
0
  6
CONTINUOUS
 62
       3
100
AcDbLine
 10
-83.52580964
 20
-31.79149689
 30
0.0
 11
-83.46559835
 21
-31.88271975
 31
0.0
  0
LINE
  5
22A
100
AcDbEntity
  8
0
  6
CONTINUOUS
 62
       3
100
AcDbLine
 10
-82.52920776
 20
-32.33652646
 30
0.0
 11
-82.30269868
 21
-32.33652646
 31
0.0
  0
LINE
  5
22B
100
AcDbEntity
  8
0
  6
CONTINUOUS
 62
       3
100
AcDbLine
 10
-77.44423879
 20
-32.33652646
 30
0.0
 11
-76.61758241
 21
-32.33652646
 31
0.0
  0
LINE
  5
22C
100
AcDbEntity
  8
0
  6
CONTINUOUS
 62
       3
100
AcDbLine
 10
-76.98526956
 20
-27.78548643
 30
0.0
 11
-75.79650491
 21
-29.84365537
 31
0.0
  0
LINE
  5
22D
100
AcDbEntity
  8
0
  6
CONTINUOUS
 62
       3
100
AcDbLine
 10
-73.53772806
 20
-13.76618656
 30
0.0
 11
-73.53772806
 21
-12.50931164
 31
0.0
  0
LINE
  5
22E
100
AcDbEntity
  8
0
  6
CONTINUOUS
 62
       3
100
AcDbLine
 10
-80.97629595
 20
-8.74248159
 30
0.0
 11
-81.16079244
 21
-8.77731036
 31
0.0
  0
LINE
  5
22F
100
AcDbEntity
  8
0
  6
CONTINUOUS
 62
       3
100
AcDbLine
 10
-81.51071018
 20
-8.93813704
 30
0.0
 11
-81.67419925
 21
-9.0572616
 31
0.0
  0
LINE
  5
230
100
AcDbEntity
  8
0
  6
CONTINUOUS
 62
       3
100
AcDbLine
 10
-82.67050393
 20
-12.17399123
 30
0.0
 11
-82.67050393
 21
-13.00584987
 31
0.0
  0
LINE
  5
231
100
AcDbEntity
  8
0
  6
CONTINUOUS
 62
       3
100
AcDbLine
 10
-82.32539136
 20
-25.0146416
 30
0.0
 11
-82.21458384
 21
-25.20785192
 31
0.0
  0
LINE
  5
232
100
AcDbEntity
  8
0
  6
CONTINUOUS
 62
       3
100
AcDbLine
 10
-81.31730817
 20
-26.07843136
 30
0.0
 11
-81.13804068
 21
-26.14236899
 31
0.0
  0
LINE
  5
233
100
AcDbEntity
  8
0
  6
CONTINUOUS
 62
       3
100
AcDbLine
 10
-78.20395426
 20
-26.58861298
 30
0.0
 11
-77.67213597
 21
-26.67049282
 31
0.0
  0
LINE
  5
234
100
AcDbEntity
  8
0
  6
CONTINUOUS
 62
       3
100
AcDbLine
 10
-74.56806577
 20
-25.24665153
 30
0.0
 11
-74.50890659
 21
-25.11492162
 31
0.0
  0
LINE
  5
235
100
AcDbEntity
  8
0
  6
CONTINUOUS
 62
       3
100
AcDbLine
 10
-74.41023294
 20
-13.97253104
 30
0.0
 11
-74.41023294
 21
-12.80441428
 31
0.0
  0
LINE
  5
236
100
AcDbEntity
  8
0
  6
CONTINUOUS
 62
       3
100
AcDbLine
 10
-81.81071703
 20
-11.21856272
 30
0.0
 11
-81.82050887
 21
-11.37682256
 31
0.0
  0
LINE
  5
237
100
AcDbEntity
  8
0
  6
CONTINUOUS
 62
       3
100
AcDbLine
 10
-80.42728607
 20
-25.3114523
 30
0.0
 11
-80.34880517
 21
-25.31677752
 31
0.0
  0
LINE
  5
238
100
AcDbEntity
  8
0
  6
CONTINUOUS
 62
       3
100
AcDbLine
 10
-72.58832864
 20
-31.18111331
 30
0.0
 11
-72.58832864
 21
-30.62049509
 31
0.0
  0
LINE
  5
239
100
AcDbEntity
  8
0
  6
CONTINUOUS
 62
       3
100
AcDbLine
 10
-73.8284758
 20
-2.32378477
 30
0.0
 11
-74.14483252
 21
-2.32378477
 31
0.0
  0
LINE
  5
23A
100
AcDbEntity
  8
0
  6
CONTINUOUS
 62
       3
100
AcDbLine
 10
-77.54973798
 20
-2.32378477
 30
0.0
 11
-78.39994665
 21
-2.32378477
 31
0.0
  0
LINE
  5
23B
100
AcDbEntity
  8
0
  6
CONTINUOUS
 62
       3
100
AcDbLine
 10
-83.15776365
 20
-2.49175899
 30
0.0
 11
-83.24743724
 21
-2.55416261
 31
0.0
  0
LINE
  5
23C
100
AcDbEntity
  8
0
  6
CONTINUOUS
 62
       3
100
AcDbLine
 10
-83.24743724
 20
-2.55416261
 30
0.0
 11
-83.33036573
 21
-2.62486812
 31
0.0
  0
LINE
  5
23D
100
AcDbEntity
  8
0
  6
CONTINUOUS
 62
       3
100
AcDbLine
 10
-83.6794346
 20
-4.53667601
 30
0.0
 11
-83.6794346
 21
-5.90884719
 31
0.0
  0
LINE
  5
23E
100
AcDbEntity
  8
0
  6
CONTINUOUS
 62
       3
100
AcDbLine
 10
-83.6794346
 20
-22.70598945
 30
0.0
 11
-83.6794346
 21
-25.08372119
 31
0.0
  0
LINE
  5
23F
100
AcDbEntity
  8
0
  6
CONTINUOUS
 62
       3
100
AcDbLine
 10
-83.67010391
 20
-31.37278633
 30
0.0
 11
-83.64970681
 21
-31.48433813
 31
0.0
  0
LINE
  5
240
100
AcDbEntity
  8
0
  6
CONTINUOUS
 62
       3
100
AcDbLine
 10
-83.23658467
 20
-32.11450707
 30
0.0
 11
-83.14610991
 21
-32.17581125
 31
0.0
  0
LINE
  5
241
100
AcDbEntity
  8
0
  6
CONTINUOUS
 62
       3
100
AcDbLine
 10
-83.04956159
 20
-32.22813736
 30
0.0
 11
-82.94753662
 21
-32.27088604
 31
0.0
  0
LINE
  5
242
100
AcDbEntity
  8
0
  6
CONTINUOUS
 62
       3
100
AcDbLine
 10
-81.90347279
 20
-32.33652646
 30
0.0
 11
-81.35944391
 21
-32.33652646
 31
0.0
  0
LINE
  5
243
100
AcDbEntity
  8
0
  6
CONTINUOUS
 62
       3
100
AcDbLine
 10
-74.55283146
 20
-32.33652646
 30
0.0
 11
-74.0960333
 21
-32.33652646
 31
0.0
  0
LINE
  5
244
100
AcDbEntity
  8
0
  6
CONTINUOUS
 62
       3
100
AcDbLine
 10
-73.80148426
 20
-32.33652646
 30
0.0
 11
-73.69709817
 21
-32.33652646
 31
0.0
  0
LINE
  5
245
100
AcDbEntity
  8
0
  6
CONTINUOUS
 62
       3
100
AcDbLine
 10
-79.36279886
 20
-7.01528135
 30
0.0
 11
-80.55063333
 21
-4.95711241
 31
0.0
  0
LINE
  5
246
100
AcDbEntity
  8
0
  6
CONTINUOUS
 62
       3
100
AcDbLine
 10
-79.36279886
 20
-2.89987364
 30
0.0
 11
-76.98526956
 21
-2.89987364
 31
0.0
  0
LINE
  5
247
100
AcDbEntity
  8
0
  6
CONTINUOUS
 62
       3
100
AcDbLine
 10
-73.53772806
 20
-11.4260789
 30
0.0
 11
-73.53772806
 21
-10.56523001
 31
0.0
  0
LINE
  5
248
100
AcDbEntity
  8
0
  6
CONTINUOUS
 62
       3
100
AcDbLine
 10
-73.60880205
 20
-9.25798925
 30
0.0
 11
-73.66762501
 21
-9.09767767
 31
0.0
  0
LINE
  5
249
100
AcDbEntity
  8
0
  6
CONTINUOUS
 62
       3
100
AcDbLine
 10
-76.28311401
 20
-8.03015637
 30
0.0
 11
-76.72699385
 21
-8.09847225
 31
0.0
  0
LINE
  5
24A
100
AcDbEntity
  8
0
  6
CONTINUOUS
 62
       3
100
AcDbLine
 10
-82.10719408
 20
-9.52823996
 30
0.0
 11
-82.22914793
 21
-9.71164537
 31
0.0
  0
LINE
  5
24B
100
AcDbEntity
  8
0
  6
CONTINUOUS
 62
       3
100
AcDbLine
 10
-82.65827789
 20
-10.84884277
 30
0.0
 11
-82.67035048
 21
-11.01242747
 31
0.0
  0
LINE
  5
24C
100
AcDbEntity
  8
0
  6
CONTINUOUS
 62
       3
100
AcDbLine
 10
-82.67050393
 20
-18.74023517
 30
0.0
 11
-82.67050393
 21
-19.91987415
 31
0.0
  0
LINE
  5
24D
100
AcDbEntity
  8
0
  6
CONTINUOUS
 62
       3
100
AcDbLine
 10
-81.48969395
 20
-25.98540453
 30
0.0
 11
-81.31730817
 21
-26.07843136
 31
0.0
  0
LINE
  5
24E
100
AcDbEntity
  8
0
  6
CONTINUOUS
 62
       3
100
AcDbLine
 10
-76.23180235
 20
-26.89224954
 30
0.0
 11
-75.86165974
 21
-26.94923746
 31
0.0
  0
LINE
  5
24F
100
AcDbEntity
  8
0
  6
CONTINUOUS
 62
       3
100
AcDbLine
 10
-75.86216819
 20
-8.7381054
 30
0.0
 11
-75.92805869
 21
-8.74870425
 31
0.0
  0
LINE
  5
250
100
AcDbEntity
  8
0
  6
CONTINUOUS
 62
       3
100
AcDbLine
 10
-81.82063333
 20
-11.5046334
 30
0.0
 11
-81.82063333
 21
-11.87238197
 31
0.0
  0
LINE
  5
251
100
AcDbEntity
  8
0
  6
CONTINUOUS
 62
       3
100
AcDbLine
 10
-80.23371839
 20
-25.33528986
 30
0.0
 11
-80.03087609
 21
-25.36791817
 31
0.0
  0
LINE
  5
252
100
AcDbEntity
  8
0
  6
CONTINUOUS
 62
       3
100
AcDbLine
 10
-72.58832864
 20
-29.49698154
 30
0.0
 11
-72.58832864
 21
-27.89801274
 31
0.0
  0
LINE
  5
253
100
AcDbEntity
  8
0
  6
CONTINUOUS
 62
       3
100
AcDbLine
 10
-72.58832864
 20
-15.83174145
 30
0.0
 11
-72.58832864
 21
-13.21628208
 31
0.0
  0
LINE
  5
254
100
AcDbEntity
  8
0
  6
CONTINUOUS
 62
       3
100
AcDbLine
 10
-72.83567802
 20
-2.73453998
 30
0.0
 11
-72.9083908
 21
-2.65340039
 31
0.0
  0
LINE
  5
255
100
AcDbEntity
  8
0
  6
CONTINUOUS
 62
       3
100
AcDbLine
 10
-72.9083908
 20
-2.65340039
 30
0.0
 11
-72.98866201
 21
-2.57973657
 31
0.0
  0
LINE
  5
256
100
AcDbEntity
  8
0
  6
CONTINUOUS
 62
       3
100
AcDbLine
 10
-74.61994913
 20
-2.32378477
 30
0.0
 11
-75.22591181
 21
-2.32378477
 31
0.0
  0
LINE
  5
257
100
AcDbEntity
  8
0
  6
CONTINUOUS
 62
       3
100
AcDbLine
 10
-80.78657893
 20
-2.32378477
 30
0.0
 11
-81.43441235
 21
-2.32378477
 31
0.0
  0
LINE
  5
258
100
AcDbEntity
  8
0
  6
CONTINUOUS
 62
       3
100
AcDbLine
 10
-82.85424146
 20
-2.36036776
 30
0.0
 11
-82.96056884
 21
-2.39426075
 31
0.0
  0
LINE
  5
259
100
AcDbEntity
  8
0
  6
CONTINUOUS
 62
       3
100
AcDbLine
 10
-83.53271139
 20
-2.88078783
 30
0.0
 11
-83.58269027
 21
-2.97869272
 31
0.0
  0
LINE
  5
25A
100
AcDbEntity
  8
0
  6
CONTINUOUS
 62
       3
100
AcDbLine
 10
-83.62293944
 20
-3.0818954
 30
0.0
 11
-83.65286199
 21
-3.18979505
 31
0.0
  0
LINE
  5
25B
100
AcDbEntity
  8
0
  6
CONTINUOUS
 62
       3
100
AcDbLine
 10
-83.6794346
 20
-7.71275361
 30
0.0
 11
-83.6794346
 21
-9.86095522
 31
0.0
  0
LINE
  5
25C
100
AcDbEntity
  8
0
  6
CONTINUOUS
 62
       3
100
AcDbLine
 10
-83.6794346
 20
-30.26044531
 30
0.0
 11
-83.6794346
 21
-31.04239617
 31
0.0
  0
LINE
  5
25D
100
AcDbEntity
  8
0
  6
CONTINUOUS
 62
       3
100
AcDbLine
 10
-83.67905515
 20
-31.2576507
 30
0.0
 11
-83.67010391
 21
-31.37278633
 31
0.0
  0
LINE
  5
25E
100
AcDbEntity
  8
0
  6
CONTINUOUS
 62
       3
100
AcDbLine
 10
-82.61457102
 20
-32.33567395
 30
0.0
 11
-82.52920776
 21
-32.33652646
 31
0.0
  0
LINE
  5
25F
100
AcDbEntity
  8
0
  6
CONTINUOUS
 62
       3
100
AcDbLine
 10
-74.61459313
 20
-26.84828226
 30
0.0
 11
-74.45548084
 21
-26.75351128
 31
0.0
  0
LINE
  5
260
100
AcDbEntity
  8
0
  6
CONTINUOUS
 62
       3
100
AcDbLine
 10
-73.53772806
 20
-24.22330466
 30
0.0
 11
-73.53772806
 21
-23.33199223
 31
0.0
  0
LINE
  5
261
100
AcDbEntity
  8
0
  6
CONTINUOUS
 62
       3
100
AcDbLine
 10
-73.53772806
 20
-23.33199223
 30
0.0
 11
-73.53772806
 21
-22.22438866
 31
0.0
  0
LINE
  5
262
100
AcDbEntity
  8
0
  6
CONTINUOUS
 62
       3
100
AcDbLine
 10
-73.53772806
 20
-9.97550663
 30
0.0
 11
-73.53772806
 21
-9.70565043
 31
0.0
  0
LINE
  5
263
100
AcDbEntity
  8
0
  6
CONTINUOUS
 62
       3
100
AcDbLine
 10
-73.93657423
 20
-8.63681549
 30
0.0
 11
-74.05382882
 21
-8.49626934
 31
0.0
  0
LINE
  5
264
100
AcDbEntity
  8
0
  6
CONTINUOUS
 62
       3
100
AcDbLine
 10
-74.97954644
 20
-7.92433388
 30
0.0
 11
-75.16184296
 21
-7.89210932
 31
0.0
  0
LINE
  5
265
100
AcDbEntity
  8
0
  6
CONTINUOUS
 62
       3
100
AcDbLine
 10
-75.32689708
 20
-7.88298861
 30
0.0
 11
-75.40809905
 21
-7.8954861
 31
0.0
  0
LINE
  5
266
100
AcDbEntity
  8
0
  6
CONTINUOUS
 62
       3
100
AcDbLine
 10
-79.30142405
 20
-8.49469315
 30
0.0
 11
-79.76496714
 21
-8.56603533
 31
0.0
  0
LINE
  5
267
100
AcDbEntity
  8
0
  6
CONTINUOUS
 62
       3
100
AcDbLine
 10
-82.62760969
 20
-10.6721165
 30
0.0
 11
-82.65827789
 21
-10.84884277
 31
0.0
  0
LINE
  5
268
100
AcDbEntity
  8
0
  6
CONTINUOUS
 62
       3
100
AcDbLine
 10
-82.67050393
 20
-22.79851247
 30
0.0
 11
-82.67050393
 21
-23.40355785
 31
0.0
  0
LINE
  5
269
100
AcDbEntity
  8
0
  6
CONTINUOUS
 62
       3
100
AcDbLine
 10
-74.41023294
 20
-24.2732399
 30
0.0
 11
-74.41023294
 21
-23.69118697
 31
0.0
  0
LINE
  5
26A
100
AcDbEntity
  8
0
  6
CONTINUOUS
 62
       3
100
AcDbLine
 10
-76.08879607
 20
-8.77455975
 30
0.0
 11
-76.33019761
 21
-8.81339051
 31
0.0
  0
LINE
  5
26B
100
AcDbEntity
  8
0
  6
CONTINUOUS
 62
       3
100
AcDbLine
 10
-81.82063333
 20
-12.46396041
 30
0.0
 11
-81.82063333
 21
-13.24167107
 31
0.0
  0
LINE
  5
26C
100
AcDbEntity
  8
0
  6
CONTINUOUS
 62
       3
100
AcDbLine
 10
-79.75446099
 20
-25.41238106
 30
0.0
 11
-79.41865579
 21
-25.46639718
 31
0.0
  0
LINE
  5
26D
100
AcDbEntity
  8
0
  6
CONTINUOUS
 62
       3
100
AcDbLine
 10
-77.34517317
 20
-25.79992828
 30
0.0
 11
-76.95086429
 21
-25.86335504
 31
0.0
  0
LINE
  5
26E
100
AcDbEntity
  8
0
  6
CONTINUOUS
 62
       3
100
AcDbLine
 10
-72.89887605
 20
-31.9972839
 30
0.0
 11
-72.82715025
 21
-31.91526393
 31
0.0
  0
LINE
  5
26F
100
AcDbEntity
  8
0
  6
CONTINUOUS
 62
       3
100
AcDbLine
 10
-72.82715025
 20
-31.91526393
 30
0.0
 11
-72.7636577
 21
-31.82643858
 31
0.0
  0
LINE
  5
270
100
AcDbEntity
  8
0
  6
CONTINUOUS
 62
       3
100
AcDbLine
 10
-72.58832864
 20
-25.91102872
 30
0.0
 11
-72.58832864
 21
-23.62346953
 31
0.0
  0
LINE
  5
271
100
AcDbEntity
  8
0
  6
CONTINUOUS
 62
       3
100
AcDbLine
 10
-72.58832864
 20
-6.53941461
 30
0.0
 11
-72.58832864
 21
-4.99509584
 31
0.0
  0
LINE
  5
272
100
AcDbEntity
  8
0
  6
CONTINUOUS
 62
       3
100
AcDbLine
 10
-72.66888871
 20
-3.01680516
 30
0.0
 11
-72.71532713
 21
-2.91684319
 31
0.0
  0
LINE
  5
273
100
AcDbEntity
  8
0
  6
CONTINUOUS
 62
       3
100
AcDbLine
 10
-73.26882777
 20
-2.40960792
 30
0.0
 11
-73.37333424
 21
-2.37185539
 31
0.0
  0
LINE
  5
274
100
AcDbEntity
  8
0
  6
CONTINUOUS
 62
       3
100
AcDbLine
 10
-73.48239991
 20
-2.34458273
 30
0.0
 11
-73.59542493
 21
-2.32839077
 31
0.0
  0
LINE
  5
275
100
AcDbEntity
  8
0
  6
CONTINUOUS
 62
       3
100
AcDbLine
 10
-75.93480673
 20
-2.32378477
 30
0.0
 11
-76.71872006
 21
-2.32378477
 31
0.0
  0
LINE
  5
276
100
AcDbEntity
  8
0
  6
CONTINUOUS
 62
       3
100
AcDbLine
 10
-82.54398701
 20
-2.32378477
 30
0.0
 11
-82.62911137
 21
-2.32529816
 31
0.0
  0
LINE
  5
277
100
AcDbEntity
  8
0
  6
CONTINUOUS
 62
       3
100
AcDbLine
 10
-82.74355666
 20
-2.33717996
 30
0.0
 11
-82.85424146
 21
-2.36036776
 31
0.0
  0
LINE
  5
278
100
AcDbEntity
  8
0
  6
CONTINUOUS
 62
       3
100
AcDbLine
 10
-83.6794346
 20
-3.68368012
 30
0.0
 11
-83.6794346
 21
-4.53667601
 31
0.0
  0
LINE
  5
279
100
AcDbEntity
  8
0
  6
CONTINUOUS
 62
       3
100
AcDbLine
 10
-79.94863253
 20
-32.33652646
 30
0.0
 11
-79.13767768
 21
-32.33652646
 31
0.0
  0
LINE
  5
27A
100
AcDbEntity
  8
0
  6
CONTINUOUS
 62
       3
100
AcDbLine
 10
-5.51395941
 20
-27.76994234
 30
0.0
 11
3.46812799
 21
-27.76994234
 31
0.0
  0
LINE
  5
27B
100
AcDbEntity
  8
0
  6
CONTINUOUS
 62
       3
100
AcDbLine
 10
3.46812799
 20
-31.91976656
 30
0.0
 11
-5.51395941
 21
-31.91976656
 31
0.0
  0
LINE
  5
27C
100
AcDbEntity
  8
0
  6
CONTINUOUS
 62
       3
100
AcDbLine
 10
-5.51395941
 20
-31.91976656
 30
0.0
 11
-5.51395941
 21
-27.76994234
 31
0.0
  0
LINE
  5
27D
100
AcDbEntity
  8
0
  6
CONTINUOUS
 62
       3
100
AcDbLine
 10
-5.51395941
 20
-2.7851108
 30
0.0
 11
3.46812799
 21
-2.7851108
 31
0.0
  0
LINE
  5
27E
100
AcDbEntity
  8
0
  6
CONTINUOUS
 62
       3
100
AcDbLine
 10
-5.51395941
 20
-26.90952974
 30
0.0
 11
3.46812799
 21
-26.90952974
 31
0.0
  0
LINE
  5
27F
100
AcDbEntity
  8
0
  6
CONTINUOUS
 62
       3
100
AcDbLine
 10
3.46812799
 20
-7.78139498
 30
0.0
 11
-5.51395941
 21
-7.78139498
 31
0.0
  0
LINE
  5
280
100
AcDbEntity
  8
0
  6
CONTINUOUS
 62
       3
100
AcDbLine
 10
-5.51395941
 20
-4.85103121
 30
0.0
 11
3.46874811
 21
-4.85103121
 31
0.0
  0
LINE
  5
281
100
AcDbEntity
  8
0
  6
CONTINUOUS
 62
       3
100
AcDbLine
 10
3.46812799
 20
-6.93493502
 30
0.0
 11
-5.51395941
 21
-6.93493502
 31
0.0
  0
LINE
  5
282
100
AcDbEntity
  8
0
  6
CONTINUOUS
 62
       3
100
AcDbLine
 10
-5.51395941
 20
-7.78139498
 30
0.0
 11
-5.51395941
 21
-26.90952974
 31
0.0
  0
LINE
  5
283
100
AcDbEntity
  8
0
  6
CONTINUOUS
 62
       3
100
AcDbLine
 10
-5.51395941
 20
-29.83617281
 30
0.0
 11
3.46874811
 21
-29.83555269
 31
0.0
  0
LINE
  5
284
100
AcDbEntity
  8
0
  6
CONTINUOUS
 62
       3
100
AcDbLine
 10
3.46874811
 20
-2.33304537
 30
0.0
 11
3.46874811
 21
-32.35725923
 31
0.0
  0
LINE
  5
285
100
AcDbEntity
  8
0
  6
CONTINUOUS
 62
       3
100
AcDbLine
 10
-5.51395941
 20
-6.93493502
 30
0.0
 11
-5.51395941
 21
-2.7851108
 31
0.0
  0
TEXT
  5
286
100
AcDbEntity
  8
SLD-0_0
 62
       3
100
AcDbText
 10
64.57793758
 20
-65.21185851
 30
0.0
 40
5.0
  1
000
 72
       5
 11
79.57793758
 21
-65.21185851
 31
0.0
100
AcDbText
  0
LINE
  5
287
100
AcDbEntity
  8
0
  6
CONTINUOUS
 62
       3
100
AcDbLine
 10
-5.63146186
 20
8.12061879
 30
0.0
 11
4.36853815
 21
8.12061879
 31
0.0
  0
ENDSEC
  0
SECTION
  2
OBJECTS
  0
DICTIONARY
  5
19
100
AcDbDictionary
  3
ACAD_GROUP
350
1A
  3
ACAD_MLINESTYLE
350
1B
  0
DICTIONARY
  5
1A
102
{ACAD_REACTORS
330
19
102
}
100
AcDbDictionary
  0
DICTIONARY
  5
1B
102
{ACAD_REACTORS
330
19
102
}
100
AcDbDictionary
  3
STANDARD
350
1C
  0
MLINESTYLE
  5
1C
102
{ACAD_REACTORS
330
1B
102
}
100
AcDbMlineStyle
  2
STANDARD
 70
       0
  3

 62
       0
 51
90.0
 52
90.0
 71
       2
 49
0.5
 62
     256
  6
BYLAYER
 49
-0.5
 62
     256
  6
BYLAYER
  0
ENDSEC
  0
EOF
