  0
SECTION
  2
HEADER
  9
$ACADVER
  1
AC1014
  9
$ACADMAINTVER
 70
       0
  9
$DWGCODEPAGE
  3
ANSI_932
  9
$INSBASE
 10
0.0
 20
0.0
 30
0.0
  9
$EXTMIN
 10
-93.09239684
 20
-81.35852216
 30
0.0
  9
$EXTMAX
 10
108.2399612
 20
56.52933568
 30
0.0
  9
$LIMMIN
 10
-99.38403303
 20
-85.66751772
  9
$LIMMAX
 10
114.53159739
 20
60.83833123
  9
$ORTHOMODE
 70
       0
  9
$REGENMODE
 70
       1
  9
$FILLMODE
 70
       1
  9
$QTEXTMODE
 70
       0
  9
$MIRRTEXT
 70
       1
  9
$DRAGMODE
 70
       2
  9
$LTSCALE
 40
1.0
  9
$OSMODE
 70
       0
  9
$ATTMODE
 70
       1
  9
$TEXTSIZE
 40
0.2
  9
$TRACEWID
 40
0.05
  9
$TEXTSTYLE
  7
STANDARD
  9
$CLAYER
  8
0
  9
$CELTYPE
  6
CONTINUOUS
  9
$CECOLOR
 62
     256
  9
$CELTSCALE
 40
1.0
  9
$DELOBJ
 70
       1
  9
$DISPSILH
 70
       0
  9
$DIMSCALE
 40
1.0
  9
$DIMASZ
 40
0.18
  9
$DIMEXO
 40
0.0625
  9
$DIMDLI
 40
0.38
  9
$DIMRND
 40
0.0
  9
$DIMDLE
 40
0.0
  9
$DIMEXE
 40
0.18
  9
$DIMTP
 40
0.0
  9
$DIMTM
 40
0.0
  9
$DIMTXT
 40
0.18
  9
$DIMCEN
 40
0.09
  9
$DIMTSZ
 40
0.0
  9
$DIMTOL
 70
       0
  9
$DIMLIM
 70
       0
  9
$DIMTIH
 70
       1
  9
$DIMTOH
 70
       1
  9
$DIMSE1
 70
       0
  9
$DIMSE2
 70
       0
  9
$DIMTAD
 70
       0
  9
$DIMZIN
 70
       0
  9
$DIMBLK
  1

  9
$DIMASO
 70
       1
  9
$DIMSHO
 70
       1
  9
$DIMPOST
  1

  9
$DIMAPOST
  1

  9
$DIMALT
 70
       0
  9
$DIMALTD
 70
       2
  9
$DIMALTF
 40
25.4
  9
$DIMLFAC
 40
1.0
  9
$DIMTOFL
 70
       0
  9
$DIMTVP
 40
0.0
  9
$DIMTIX
 70
       0
  9
$DIMSOXD
 70
       0
  9
$DIMSAH
 70
       0
  9
$DIMBLK1
  1

  9
$DIMBLK2
  1

  9
$DIMSTYLE
  2
STANDARD
  9
$DIMCLRD
 70
       0
  9
$DIMCLRE
 70
       0
  9
$DIMCLRT
 70
       0
  9
$DIMTFAC
 40
1.0
  9
$DIMGAP
 40
0.09
  9
$DIMJUST
 70
       0
  9
$DIMSD1
 70
       0
  9
$DIMSD2
 70
       0
  9
$DIMTOLJ
 70
       1
  9
$DIMTZIN
 70
       0
  9
$DIMALTZ
 70
       0
  9
$DIMALTTZ
 70
       0
  9
$DIMFIT
 70
       3
  9
$DIMUPT
 70
       0
  9
$DIMUNIT
 70
       2
  9
$DIMDEC
 70
       4
  9
$DIMTDEC
 70
       4
  9
$DIMALTU
 70
       2
  9
$DIMALTTD
 70
       2
  9
$DIMTXSTY
  7
STANDARD
  9
$DIMAUNIT
 70
       0
  9
$LUNITS
 70
       2
  9
$LUPREC
 70
       4
  9
$SKETCHINC
 40
0.1
  9
$FILLETRAD
 40
0.0
  9
$AUNITS
 70
       0
  9
$AUPREC
 70
       0
  9
$MENU
  1
acad
  9
$ELEVATION
 40
0.0
  9
$PELEVATION
 40
0.0
  9
$THICKNESS
 40
0.0
  9
$LIMCHECK
 70
       0
  9
$BLIPMODE
 70
       1
  9
$CHAMFERA
 40
0.0
  9
$CHAMFERB
 40
0.0
  9
$CHAMFERC
 40
0.0
  9
$CHAMFERD
 40
0.0
  9
$SKPOLY
 70
       0
  9
$TDCREATE
 40
0.000000000
  9
$TDUPDATE
 40
0.000000000
  9
$TDINDWG
 40
0.0000000000
  9
$TDUSRTIMER
 40
0.0000000000
  9
$USRTIMER
 70
       1
  9
$ANGBASE
 50
0.0
  9
$ANGDIR
 70
       0
  9
$PDMODE
 70
       0
  9
$PDSIZE
 40
1.0
  9
$PLINEWID
 40
0.0
  9
$COORDS
 70
       1
  9
$SPLFRAME
 70
       0
  9
$SPLINETYPE
 70
       6
  9
$SPLINESEGS
 70
       8
  9
$ATTDIA
 70
       0
  9
$ATTREQ
 70
       1
  9
$HANDLING
 70
       1
  9
$HANDSEED
  5
1BA
  9
$SURFTAB1
 70
       6
  9
$SURFTAB2
 70
       6
  9
$SURFTYPE
 70
       6
  9
$SURFU
 70
       6
  9
$SURFV
 70
       6
  9
$UCSNAME
  2

  9
$UCSORG
 10
0.0
 20
0.0
 30
0.0
  9
$UCSXDIR
 10
1.0
 20
0.0
 30
0.0
  9
$UCSYDIR
 10
0.0
 20
1.0
 30
0.0
  9
$PUCSNAME
  2

  9
$PUCSORG
 10
0.0
 20
0.0
 30
0.0
  9
$PUCSXDIR
 10
1.0
 20
0.0
 30
0.0
  9
$PUCSYDIR
 10
0.0
 20
1.0
 30
0.0
  9
$USERI1
 70
       0
  9
$USERI2
 70
       0
  9
$USERI3
 70
       0
  9
$USERI4
 70
       0
  9
$USERI5
 70
       0
  9
$USERR1
 40
0.0
  9
$USERR2
 40
0.0
  9
$USERR3
 40
0.0
  9
$USERR4
 40
0.0
  9
$USERR5
 40
0.0
  9
$WORLDVIEW
 70
       1
  9
$SHADEDGE
 70
       3
  9
$SHADEDIF
 70
      70
  9
$TILEMODE
 70
       1
  9
$MAXACTVP
 70
      16
  9
$PINSBASE
 10
0.0
 20
0.0
 30
0.0
  9
$PLIMCHECK
 70
       0
  9
$PEXTMIN
 10
1.00000000E+20
 20
1.00000000E+20
 30
1.00000000E+20
  9
$PEXTMAX
 10
-1.00000000E+20
 20
-1.00000000E+20
 30
-1.00000000E+20
  9
$PLIMMIN
 10
0.0
 20
0.0
  9
$PLIMMAX
 10
12.0
 20
9.0
  9
$UNITMODE
 70
       0
  9
$VISRETAIN
 70
       0
  9
$PLINEGEN
 70
       1
  9
$PSLTSCALE
 70
       0
  9
$TREEDEPTH
 70
    3020
  9
$PICKSTYLE
 70
       1
  9
$CMLSTYLE
  2
STANDARD
  9
$CMLJUST
 70
       0
  9
$CMLSCALE
 40
1.0
  9
$PROXYGRAPHICS
 70
       0
  9
$MEASUREMENT
 70
       0
  0
ENDSEC
  0
SECTION
  2
CLASSES
  0
CLASS
  1
LWPOLYLINE
  2
AcDbPolyline
  3
"AutoCAD"
 90
        0
280
       0
281
       1
  0
CLASS
  1
IMAGE
  2
AcDbRasterImage
  3
ISM
 90
      127
280
       0
281
       1
  0
CLASS
  1
OLE2FRAME
  2
AcDbOle2Frame
  3
""
 90
        0
280
       0
281
       1
  0
CLASS
  1
HATCH
  2
AcDbHatch
  3
"ACAD_SEDONA"
 90
        0
280
       0
281
       1
  0
CLASS
  1
DICTIONARYVAR
  2
AcDbDictionaryVar
  3
"AutoCAD"
 90
        0
280
       0
281
       0
  0
CLASS
  1
RASTERVARIABLES
  2
AcDbRasterVariables
  3
ISM
 90
        0
280
       0
281
       0
  0
CLASS
  1
IMAGEDEF
  2
AcDbRasterImageDef
  3
ISM
 90
        0
280
       0
281
       0
  0
CLASS
  1
IMAGEDEF_REACTOR
  2
AcDbRasterImageDefReactor
  3
ISM
 90
        1
280
       0
281
       0
  0
CLASS
  1
IDBUFFER
  2
AcDbIdBuffer
  3
"Acad"
 90
        0
280
       0
281
       0
  0
CLASS
  1
SPATIAL_FILTER
  2
AcDbSpatialFilter
  3
"Acad"
 90
        0
280
       0
281
       0
  0
CLASS
  1
XRECORD
  2
AcDbXrecord
  3
"<Built In>"
 90
        0
280
       0
281
       0
  0
CLASS
  1
SORTENTSTABLE
  2
AcDbSortentsTable
  3
"AutoCAD"
 90
        0
280
       0
281
       0
  0
CLASS
  1
LAYER_INDEX
  2
AcDbLayerIndex
  3
"Acad"
 90
        0
280
       0
281
       0
  0
CLASS
  1
SPATIAL_INDEX
  2
AcDbSpatialIndex
  3
"Acad"
 90
        0
280
       0
281
       0
  0
CLASS
  1
OBJECT_PTR
  2
CAseDLPNTableRecord
  3
"ASE-LPNTableRecord"
 90
        1
280
       0
281
       0
  0
CLASS
  1
LAYOUT
  2
AcDbLayout
  3
"AutoCAD 2000"
 90
        1
280
       0
281
       0
  0
CLASS
  1
PLOTSETTINGS
  2
AcDbPlotSettings
  3
"AutoCAD 2000"
 90
        1
280
       0
281
       0
  0
CLASS
  1
ACDBDICTIONARYWDFLT
  2
AcDbDictionaryWithDefault
  3
"AutoCAD 2000"
 90
        1
280
       0
281
       0
  0
CLASS
  1
ACDBPLACEHOLDER
  2
AcDbPlaceHolder
  3
"AutoCAD 2000"
 90
        1
280
       0
281
       0
  0
CLASS
  1
VBA_PROJECT
  2
AcDbVbaProject
  3
"acadvba"
 90
        1
280
       0
281
       0
  0
CLASS
  1
WIPEOUT
  2
AcDbWipeout
  3
WipeOut|AutoCAD Express Tool|expresstools@autodesk.com
 90
      127
280
       0
281
       1
  0
CLASS
  1
WIPEOUTVARIABLES
  2
AcDbWipeoutVariables
  3
WipeOut|AutoCAD Express Tool|expresstools@autodesk.com
 90
        0
280
       0
281
       0
  0
CLASS
  1
RTEXT
  2
RText
  3
RText|AutoCAD Express Tool|expresstools@autodesk.com
 90
        0
280
       0
281
       1
  0
CLASS
  1
ARCALIGNEDTEXT
  2
AcDbArcAlignedText
  3
ATEXT|AutoCAD Express Tool|expresstools@autodesk.com
 90
        0
280
       0
281
       1
  0
ENDSEC
  0
SECTION
  2
TABLES
  0
TABLE
  2
VPORT
  5
7
100
AcDbSymbolTable
 70
       1
  0
VPORT
  5
15
100
AcDbSymbolTableRecord
100
AcDbViewportTableRecord
  2
*ACTIVE
 70
       0
 10
0.0
 20
0.0
 11
1.0
 21
1.0
 12
7.57378218
 22
-12.41459324
 13
0.0
 23
0.0
 14
1.0
 24
1.0
 15
0.0
 25
0.0
 16
0.0
 26
0.0
 36
1.0
 17
0.0
 27
0.0
 37
0.0
 40
146.50584895
 41
1.46011666
 42
50.0
 43
0.0
 44
0.0
 50
0.0
 51
0.0
 71
       0
 72
     100
 73
       1
 74
       1
 75
       0
 76
       0
 77
       0
 78
       0
  0
ENDTAB
  0
TABLE
  2
LTYPE
  5
4
100
AcDbSymbolTable
 70
      30
  0
LTYPE
  5
11
100
AcDbSymbolTableRecord
100
AcDbLinetypeTableRecord
  2
BYBLOCK
 70
      64
  3

 72
      65
 73
       0
 40
0.0
  0
LTYPE
  5
12
100
AcDbSymbolTableRecord
100
AcDbLinetypeTableRecord
  2
BYLAYER
 70
      64
  3

 72
      65
 73
       0
 40
0.0
  0
LTYPE
  5
13
100
AcDbSymbolTableRecord
100
AcDbLinetypeTableRecord
  2
CONTINUOUS
 70
      64
  3
Solid line
 72
      65
 73
       0
 40
0.0
  0
LTYPE
  5
1D
100
AcDbSymbolTableRecord
100
AcDbLinetypeTableRecord
  2
HIDDENX2
 70
      64
  3
CADPAC LINETYPE
 72
      65
 73
       2
 40
10.62308297
 49
7.96731223
 74
       0
 49
-2.65577074
 74
       0
  0
LTYPE
  5
1E
100
AcDbSymbolTableRecord
100
AcDbLinetypeTableRecord
  2
HIDDEN
 70
      64
  3
CADPAC LINETYPE
 72
      65
 73
       2
 40
7.96731223
 49
5.31154149
 74
       0
 49
-2.65577074
 74
       0
  0
LTYPE
  5
1F
100
AcDbSymbolTableRecord
100
AcDbLinetypeTableRecord
  2
HIDDEN2
 70
      64
  3
CADPAC LINETYPE
 72
      65
 73
       2
 40
6.63942686
 49
3.98365611
 74
       0
 49
-2.65577074
 74
       0
  0
LTYPE
  5
20
100
AcDbSymbolTableRecord
100
AcDbLinetypeTableRecord
  2
DASHED
 70
      64
  3
CADPAC LINETYPE
 72
      65
 73
       2
 40
7.96731223
 49
5.31154149
 74
       0
 49
-2.65577074
 74
       0
  0
LTYPE
  5
21
100
AcDbSymbolTableRecord
100
AcDbLinetypeTableRecord
  2
DASHED2
 70
      64
  3
CADPAC LINETYPE
 72
      65
 73
       2
 40
5.97548417
 49
3.98365611
 74
       0
 49
-1.99182806
 74
       0
  0
LTYPE
  5
22
100
AcDbSymbolTableRecord
100
AcDbLinetypeTableRecord
  2
DASHEDX2
 70
      64
  3
CADPAC LINETYPE
 72
      65
 73
       2
 40
11.95096834
 49
7.96731223
 74
       0
 49
-3.98365611
 74
       0
  0
LTYPE
  5
23
100
AcDbSymbolTableRecord
100
AcDbLinetypeTableRecord
  2
DOTX2
 70
      64
  3
CADPAC LINETYPE
 72
      65
 73
       2
 40
3.31971343
 49
0.0
 74
       0
 49
-3.31971343
 74
       0
  0
LTYPE
  5
24
100
AcDbSymbolTableRecord
100
AcDbLinetypeTableRecord
  2
DOT
 70
      64
  3
CADPAC LINETYPE
 72
      65
 73
       2
 40
2.65577074
 49
0.0
 74
       0
 49
-2.65577074
 74
       0
  0
LTYPE
  5
25
100
AcDbSymbolTableRecord
100
AcDbLinetypeTableRecord
  2
DOT2
 70
      64
  3
CADPAC LINETYPE
 72
      65
 73
       2
 40
1.99182806
 49
0.0
 74
       0
 49
-1.99182806
 74
       0
  0
LTYPE
  5
26
100
AcDbSymbolTableRecord
100
AcDbLinetypeTableRecord
  2
CENTERX2
 70
      64
  3
CADPAC LINETYPE
 72
      65
 73
       4
 40
15.93462446
 49
6.63942686
 74
       0
 49
-3.31971343
 74
       0
 49
2.65577074
 74
       0
 49
-3.31971343
 74
       0
  0
LTYPE
  5
27
100
AcDbSymbolTableRecord
100
AcDbLinetypeTableRecord
  2
CENTER
 70
      64
  3
CADPAC LINETYPE
 72
      65
 73
       4
 40
12.21654542
 49
5.31154149
 74
       0
 49
-2.65577074
 74
       0
 49
1.59346245
 74
       0
 49
-2.65577074
 74
       0
  0
LTYPE
  5
28
100
AcDbSymbolTableRecord
100
AcDbLinetypeTableRecord
  2
CENTER2
 70
      64
  3
CADPAC LINETYPE
 72
      65
 73
       4
 40
8.49846638
 49
3.98365611
 74
       0
 49
-1.99182806
 74
       0
 49
0.53115415
 74
       0
 49
-1.99182806
 74
       0
  0
LTYPE
  5
29
100
AcDbSymbolTableRecord
100
AcDbLinetypeTableRecord
  2
DASHDOTX2
 70
      64
  3
CADPAC LINETYPE
 72
      65
 73
       4
 40
13.27885372
 49
6.63942686
 74
       0
 49
-3.31971343
 74
       0
 49
0.0
 74
       0
 49
-3.31971343
 74
       0
  0
LTYPE
  5
2A
100
AcDbSymbolTableRecord
100
AcDbLinetypeTableRecord
  2
DASHDOT
 70
      64
  3
CADPAC LINETYPE
 72
      65
 73
       4
 40
10.62308297
 49
5.31154149
 74
       0
 49
-2.65577074
 74
       0
 49
0.0
 74
       0
 49
-2.65577074
 74
       0
  0
LTYPE
  5
2B
100
AcDbSymbolTableRecord
100
AcDbLinetypeTableRecord
  2
DASHDOT2
 70
      64
  3
CADPAC LINETYPE
 72
      65
 73
       4
 40
7.96731223
 49
3.98365611
 74
       0
 49
-1.99182806
 74
       0
 49
0.0
 74
       0
 49
-1.99182806
 74
       0
  0
LTYPE
  5
2C
100
AcDbSymbolTableRecord
100
AcDbLinetypeTableRecord
  2
DIVIDEX2
 70
      64
  3
CADPAC LINETYPE
 72
      65
 73
       6
 40
16.59856714
 49
6.63942686
 74
       0
 49
-3.31971343
 74
       0
 49
0.0
 74
       0
 49
-3.31971343
 74
       0
 49
0.0
 74
       0
 49
-3.31971343
 74
       0
  0
LTYPE
  5
2D
100
AcDbSymbolTableRecord
100
AcDbLinetypeTableRecord
  2
DIVIDE
 70
      64
  3
CADPAC LINETYPE
 72
      65
 73
       6
 40
13.27885372
 49
5.31154149
 74
       0
 49
-2.65577074
 74
       0
 49
0.0
 74
       0
 49
-2.65577074
 74
       0
 49
0.0
 74
       0
 49
-2.65577074
 74
       0
  0
LTYPE
  5
2E
100
AcDbSymbolTableRecord
100
AcDbLinetypeTableRecord
  2
DIVIDE2
 70
      64
  3
CADPAC LINETYPE
 72
      65
 73
       6
 40
9.95914029
 49
3.98365611
 74
       0
 49
-1.99182806
 74
       0
 49
0.0
 74
       0
 49
-1.99182806
 74
       0
 49
0.0
 74
       0
 49
-1.99182806
 74
       0
  0
LTYPE
  5
2F
100
AcDbSymbolTableRecord
100
AcDbLinetypeTableRecord
  2
BORDERX2
 70
      64
  3
CADPAC LINETYPE
 72
      65
 73
       6
 40
23.237994
 49
6.63942686
 74
       0
 49
-3.31971343
 74
       0
 49
6.63942686
 74
       0
 49
-3.31971343
 74
       0
 49
0.0
 74
       0
 49
-3.31971343
 74
       0
  0
LTYPE
  5
30
100
AcDbSymbolTableRecord
100
AcDbLinetypeTableRecord
  2
BORDER
 70
      64
  3
CADPAC LINETYPE
 72
      65
 73
       6
 40
18.5903952
 49
5.31154149
 74
       0
 49
-2.65577074
 74
       0
 49
5.31154149
 74
       0
 49
-2.65577074
 74
       0
 49
0.0
 74
       0
 49
-2.65577074
 74
       0
  0
LTYPE
  5
31
100
AcDbSymbolTableRecord
100
AcDbLinetypeTableRecord
  2
BORDER2
 70
      64
  3
CADPAC LINETYPE
 72
      65
 73
       6
 40
13.9427964
 49
3.98365611
 74
       0
 49
-1.99182806
 74
       0
 49
3.98365611
 74
       0
 49
-1.99182806
 74
       0
 49
0.0
 74
       0
 49
-1.99182806
 74
       0
  0
LTYPE
  5
32
100
AcDbSymbolTableRecord
100
AcDbLinetypeTableRecord
  2
PHANTOMX2
 70
      64
  3
CADPAC LINETYPE
 72
      65
 73
       6
 40
19.91828057
 49
6.63942686
 74
       0
 49
-2.65577074
 74
       0
 49
2.65577074
 74
       0
 49
-2.65577074
 74
       0
 49
2.65577074
 74
       0
 49
-2.65577074
 74
       0
  0
LTYPE
  5
33
100
AcDbSymbolTableRecord
100
AcDbLinetypeTableRecord
  2
PHANTOM
 70
      64
  3
CADPAC LINETYPE
 72
      65
 73
       6
 40
16.46577861
 49
5.31154149
 74
       0
 49
-2.65577074
 74
       0
 49
1.59346245
 74
       0
 49
-2.65577074
 74
       0
 49
1.59346245
 74
       0
 49
-2.65577074
 74
       0
  0
LTYPE
  5
34
100
AcDbSymbolTableRecord
100
AcDbLinetypeTableRecord
  2
PHANTOM2
 70
      64
  3
CADPAC LINETYPE
 72
      65
 73
       6
 40
14.07558494
 49
3.98365611
 74
       0
 49
-2.65577074
 74
       0
 49
1.0623083
 74
       0
 49
-2.65577074
 74
       0
 49
1.0623083
 74
       0
 49
-2.65577074
 74
       0
  0
LTYPE
  5
35
100
AcDbSymbolTableRecord
100
AcDbLinetypeTableRecord
  2
ACAD_ISO06W100
 70
      64
  3
CADPAC LINETYPE
 72
      65
 73
       8
 40
17.92645252
 49
6.63942686
 74
       0
 49
-3.31971343
 74
       0
 49
0.0
 74
       0
 49
-2.65577074
 74
       0
 49
0.0
 74
       0
 49
-2.65577074
 74
       0
 49
0.0
 74
       0
 49
-2.65577074
 74
       0
  0
LTYPE
  5
36
100
AcDbSymbolTableRecord
100
AcDbLinetypeTableRecord
  2
ACAD_ISO13W100
 70
      64
  3
CADPAC LINETYPE
 72
      65
 73
       8
 40
21.24616595
 49
5.31154149
 74
       0
 49
-2.65577074
 74
       0
 49
5.31154149
 74
       0
 49
-2.65577074
 74
       0
 49
0.0
 74
       0
 49
-2.65577074
 74
       0
 49
0.0
 74
       0
 49
-2.65577074
 74
       0
  0
LTYPE
  5
37
100
AcDbSymbolTableRecord
100
AcDbLinetypeTableRecord
  2
ACAD_ISO14W100
 70
      64
  3
CADPAC LINETYPE
 72
      65
 73
       8
 40
15.93462446
 49
5.31154149
 74
       0
 49
-2.65577074
 74
       0
 49
0.0
 74
       0
 49
-2.65577074
 74
       0
 49
0.0
 74
       0
 49
-2.65577074
 74
       0
 49
0.0
 74
       0
 49
-2.65577074
 74
       0
  0
ENDTAB
  0
TABLE
  2
LAYER
  5
2
100
AcDbSymbolTable
 70
       3
  0
LAYER
  5
14
100
AcDbSymbolTableRecord
100
AcDbLayerTableRecord
  2
0
 70
       0
 62
       7
  6
CONTINUOUS
  0
LAYER
  5
38
100
AcDbSymbolTableRecord
100
AcDbLayerTableRecord
  2
SLD-0_0
 70
       0
 62
       7
  6
CONTINUOUS
  0
LAYER
  5
39
100
AcDbSymbolTableRecord
100
AcDbLayerTableRecord
  2
SLD-0
 70
       0
 62
       7
  6
CONTINUOUS
  0
ENDTAB
  0
TABLE
  2
STYLE
  5
3
100
AcDbSymbolTable
 70
       1
  0
STYLE
  5
17
100
AcDbSymbolTableRecord
100
AcDbTextStyleTableRecord
  2
STANDARD
 70
       0
 40
0.0
 41
1.0
 50
0.0
 71
       0
 42
5.0
  3
txt.shx
  4
bigfont.shx
  0
ENDTAB
  0
TABLE
  2
VIEW
  5
5
100
AcDbSymbolTable
 70
       1
  0
VIEW
  5
3A
100
AcDbSymbolTableRecord
100
AcDbViewTableRecord
  2
QQQQ
 70
       0
 40
146.50584895
 10
7.57378218
 20
-12.41459324
 41
213.91563042
 11
0.0
 21
0.0
 31
1.0
 12
100.0
 22
100.0
 32
0.0
 42
50.0
 43
0.0
 44
0.0
 50
0.0
 71
       0
  0
ENDTAB
  0
TABLE
  2
UCS
  5
6
100
AcDbSymbolTable
 70
       0
  0
ENDTAB
  0
TABLE
  2
APPID
  5
8
100
AcDbSymbolTable
 70
       1
  0
APPID
  5
16
100
AcDbSymbolTableRecord
100
AcDbRegAppTableRecord
  2
ACAD
 70
       0
  0
ENDTAB
  0
TABLE
  2
DIMSTYLE
  5
9
100
AcDbSymbolTable
 70
       1
  0
DIMSTYLE
105
18
100
AcDbSymbolTableRecord
100
AcDbDimStyleTableRecord
  2
STANDARD
 70
       0
  3

  4

  5

  6

  7

 40
1.0
 41
0.18
 42
0.0625
 43
0.38
 44
0.18
 45
0.0
 46
0.0
 47
0.0
 48
0.0
 71
       0
 72
       0
 73
       1
 74
       1
 75
       0
 76
       0
 77
       0
 78
       0
140
0.18
141
0.09
142
0.0
143
25.4
144
1.0
145
0.0
146
1.0
147
0.09
170
       0
171
       2
172
       0
173
       0
174
       0
175
       0
176
       0
177
       0
178
       0
270
       2
271
       4
272
       4
273
       2
274
       2
275
       0
280
       0
281
       0
282
       0
283
       1
284
       0
285
       0
286
       0
287
       0
288
       0
340
17
  0
ENDTAB
  0
TABLE
  2
BLOCK_RECORD
  5
1
100
AcDbSymbolTable
 70
       0
  0
BLOCK_RECORD
  5
A
100
AcDbSymbolTableRecord
100
AcDbBlockTableRecord
  2
*MODEL_SPACE
  0
BLOCK_RECORD
  5
B
100
AcDbSymbolTableRecord
100
AcDbBlockTableRecord
  2
*PAPER_SPACE
  0
ENDTAB
  0
ENDSEC
  0
SECTION
  2
BLOCKS
  0
BLOCK
  5
D
100
AcDbEntity
  8
0
100
AcDbBlockBegin
  2
*MODEL_SPACE
 70
       0
 10
0.0
 20
0.0
 30
0.0
  3
*MODEL_SPACE
  1

  0
ENDBLK
  5
E
100
AcDbEntity
  8
0
100
AcDbBlockEnd
  0
BLOCK
  5
F
100
AcDbEntity
 67
       1
  8
0
100
AcDbBlockBegin
  2
*PAPER_SPACE
 70
       0
 10
0.0
 20
0.0
 30
0.0
  3
*PAPER_SPACE
  1

  0
ENDBLK
  5
10
100
AcDbEntity
 67
       1
  8
0
100
AcDbBlockEnd
  0
ENDSEC
  0
SECTION
  2
ENTITIES
  0
LINE
  5
3B
100
AcDbEntity
  8
SLD-0
  6
CONTINUOUS
 62
       3
100
AcDbLine
 10
-83.70991044
 20
43.839406
 30
0.0
 11
-83.70991044
 21
-46.160594
 31
0.0
  0
LINE
  5
3C
100
AcDbEntity
  8
SLD-0
  6
CONTINUOUS
 62
       3
100
AcDbLine
 10
-47.20991044
 20
43.839406
 30
0.0
 11
-47.20991044
 21
-46.160594
 31
0.0
  0
LINE
  5
3D
100
AcDbEntity
  8
SLD-0
  6
CONTINUOUS
 62
       3
100
AcDbLine
 10
-47.20991044
 20
43.839406
 30
0.0
 11
-83.70991044
 21
43.839406
 31
0.0
  0
LINE
  5
3E
100
AcDbEntity
  8
SLD-0
  6
CONTINUOUS
 62
       3
100
AcDbLine
 10
-47.20991044
 20
-46.160594
 30
0.0
 11
-83.70991044
 21
-46.160594
 31
0.0
  0
LINE
  5
3F
100
AcDbEntity
  8
SLD-0
  6
CONTINUOUS
 62
       3
100
AcDbLine
 10
-53.20991049
 20
49.439406
 30
0.0
 11
-77.70991124
 21
49.439406
 31
0.0
  0
LINE
  5
40
100
AcDbEntity
  8
SLD-0
  6
CONTINUOUS
 62
       3
100
AcDbLine
 10
-53.20991049
 20
49.439406
 30
0.0
 11
-53.20991049
 21
43.839406
 31
0.0
  0
LINE
  5
41
100
AcDbEntity
  8
SLD-0
  6
CONTINUOUS
 62
       3
100
AcDbLine
 10
-77.70991124
 20
43.839406
 30
0.0
 11
-77.70991124
 21
49.439406
 31
0.0
  0
LINE
  5
42
100
AcDbEntity
  8
SLD-0
  6
CONTINUOUS
 62
       3
100
AcDbLine
 10
97.04266081
 20
38.839406
 30
0.0
 11
104.14301197
 21
38.839406
 31
0.0
  0
LINE
  5
43
100
AcDbEntity
  8
SLD-0
  6
CONTINUOUS
 62
       3
100
AcDbLine
 10
101.94459318
 20
40.83940745
 30
0.0
 11
97.04266249
 21
40.83940745
 31
0.0
  0
LINE
  5
44
100
AcDbEntity
  8
SLD-0
  6
CONTINUOUS
 62
       3
100
AcDbLine
 10
101.94459318
 20
41.29600232
 30
0.0
 11
101.94459318
 21
40.83940745
 31
0.0
  0
LINE
  5
45
100
AcDbEntity
  8
SLD-0
  6
CONTINUOUS
 62
       3
100
AcDbLine
 10
104.36818509
 20
39.33761255
 30
0.0
 11
102.46974735
 21
41.49421919
 31
0.0
  0
LINE
  5
46
100
AcDbEntity
  8
SLD-0
  6
CONTINUOUS
 62
       3
100
AcDbLine
 10
77.6946206
 20
47.69689521
 30
0.0
 11
79.89560406
 21
43.88467787
 31
0.0
  0
LINE
  5
47
100
AcDbEntity
  8
SLD-0
  6
CONTINUOUS
 62
       3
100
AcDbLine
 10
79.89560406
 20
43.88467787
 30
0.0
 11
79.87293195
 21
43.84540697
 31
0.0
  0
LINE
  5
48
100
AcDbEntity
  8
SLD-0
  6
CONTINUOUS
 62
       3
100
AcDbLine
 10
77.41766389
 20
48.38603946
 30
0.0
 11
77.77430456
 21
47.76832206
 31
0.0
  0
LINE
  5
49
100
AcDbEntity
  8
SLD-0
  6
CONTINUOUS
 62
       3
100
AcDbLine
 10
77.6946206
 20
47.69689521
 30
0.0
 11
77.77430456
 21
47.76832206
 31
0.0
  0
LINE
  5
4A
100
AcDbEntity
  8
SLD-0
  6
CONTINUOUS
 62
       3
100
AcDbLine
 10
74.74266331
 20
43.839406
 30
0.0
 11
74.74266331
 21
43.93889358
 31
0.0
  0
LINE
  5
4B
100
AcDbEntity
  8
SLD-0
  6
CONTINUOUS
 62
       3
100
AcDbLine
 10
73.5205483
 20
46.13604188
 30
0.0
 11
74.70247488
 21
44.08888788
 31
0.0
  0
LINE
  5
4C
100
AcDbEntity
  8
SLD-0
  6
CONTINUOUS
 62
       3
100
AcDbLine
 10
76.11862536
 20
47.63604073
 30
0.0
 11
78.31061225
 21
43.839406
 31
0.0
  0
LINE
  5
4D
100
AcDbEntity
  8
SLD-0
  6
CONTINUOUS
 62
       3
100
AcDbLine
 10
76.24266427
 20
43.839406
 30
0.0
 11
76.24266427
 21
44.3408189
 31
0.0
  0
LINE
  5
4E
100
AcDbEntity
  8
SLD-0
  6
CONTINUOUS
 62
       3
100
AcDbLine
 10
76.20247417
 20
44.49081036
 30
0.0
 11
74.81958683
 21
46.88604061
 31
0.0
  0
LINE
  5
4F
100
AcDbEntity
  8
SLD-0
  6
CONTINUOUS
 62
       3
100
AcDbLine
 10
87.64233779
 20
45.84578146
 30
0.0
 11
88.38074993
 21
46.08952604
 31
0.0
  0
LINE
  5
50
100
AcDbEntity
  8
SLD-0
  6
CONTINUOUS
 62
       3
100
AcDbLine
 10
87.25654672
 20
46.52093957
 30
0.0
 11
87.64233779
 21
45.84578146
 31
0.0
  0
LINE
  5
51
100
AcDbEntity
  8
SLD-0
  6
CONTINUOUS
 62
       3
100
AcDbLine
 10
89.7939388
 20
44.88808628
 30
0.0
 11
90.55379372
 21
45.05331059
 31
0.0
  0
LINE
  5
52
100
AcDbEntity
  8
SLD-0
  6
CONTINUOUS
 62
       3
100
AcDbLine
 10
89.4808356
 20
45.59987214
 30
0.0
 11
89.7939388
 21
44.88808628
 31
0.0
  0
LINE
  5
53
100
AcDbEntity
  8
SLD-0
  6
CONTINUOUS
 62
       3
100
AcDbLine
 10
88.7306739
 20
45.39510469
 30
0.0
 11
89.4808356
 21
45.59987214
 31
0.0
  0
LINE
  5
54
100
AcDbEntity
  8
SLD-0
  6
CONTINUOUS
 62
       3
100
AcDbLine
 10
88.38074993
 20
46.08952604
 30
0.0
 11
88.7306739
 21
45.39510469
 31
0.0
  0
LINE
  5
55
100
AcDbEntity
  8
SLD-0
  6
CONTINUOUS
 62
       3
100
AcDbLine
 10
85.40241014
 20
46.57332623
 30
0.0
 11
86.11131053
 21
46.89292192
 31
0.0
  0
LINE
  5
56
100
AcDbEntity
  8
SLD-0
  6
CONTINUOUS
 62
       3
100
AcDbLine
 10
84.94816314
 20
47.20445979
 30
0.0
 11
85.40241014
 21
46.57332623
 31
0.0
  0
LINE
  5
57
100
AcDbEntity
  8
SLD-0
  6
CONTINUOUS
 62
       3
100
AcDbLine
 10
86.53190325
 20
46.23888108
 30
0.0
 11
87.25654672
 21
46.52093957
 31
0.0
  0
LINE
  5
58
100
AcDbEntity
  8
SLD-0
  6
CONTINUOUS
 62
       3
100
AcDbLine
 10
86.11131053
 20
46.89292192
 30
0.0
 11
86.53190325
 21
46.23888108
 31
0.0
  0
LINE
  5
59
100
AcDbEntity
  8
SLD-0
  6
CONTINUOUS
 62
       3
100
AcDbLine
 10
80.7564665
 20
47.30868946
 30
0.0
 11
81.3834254
 21
47.768689
 31
0.0
  0
LINE
  5
5A
100
AcDbEntity
  8
SLD-0
  6
CONTINUOUS
 62
       3
100
AcDbLine
 10
80.18092777
 20
47.83158727
 30
0.0
 11
80.7564665
 21
47.30868946
 31
0.0
  0
LINE
  5
5B
100
AcDbEntity
  8
SLD-0
  6
CONTINUOUS
 62
       3
100
AcDbLine
 10
84.25696533
 20
46.84820027
 30
0.0
 11
84.94816314
 21
47.20445979
 31
0.0
  0
LINE
  5
5C
100
AcDbEntity
  8
SLD-0
  6
CONTINUOUS
 62
       3
100
AcDbLine
 10
83.77031575
 20
47.4546943
 30
0.0
 11
84.25696533
 21
46.84820027
 31
0.0
  0
LINE
  5
5D
100
AcDbEntity
  8
SLD-0
  6
CONTINUOUS
 62
       3
100
AcDbLine
 10
83.09870924
 20
47.06274975
 30
0.0
 11
83.77031575
 21
47.4546943
 31
0.0
  0
LINE
  5
5E
100
AcDbEntity
  8
SLD-0
  6
CONTINUOUS
 62
       3
100
AcDbLine
 10
82.58097957
 20
47.64294323
 30
0.0
 11
83.09870924
 21
47.06274975
 31
0.0
  0
LINE
  5
5F
100
AcDbEntity
  8
SLD-0
  6
CONTINUOUS
 62
       3
100
AcDbLine
 10
79.57890596
 20
47.33940587
 30
0.0
 11
80.18092777
 21
47.83158727
 31
0.0
  0
LINE
  5
60
100
AcDbEntity
  8
SLD-0
  6
CONTINUOUS
 62
       3
100
AcDbLine
 10
78.97678729
 20
47.83146527
 30
0.0
 11
79.57890596
 21
47.33940587
 31
0.0
  0
LINE
  5
61
100
AcDbEntity
  8
SLD-0
  6
CONTINUOUS
 62
       3
100
AcDbLine
 10
81.93080838
 20
47.21638654
 30
0.0
 11
82.58097957
 21
47.64294323
 31
0.0
  0
LINE
  5
62
100
AcDbEntity
  8
SLD-0
  6
CONTINUOUS
 62
       3
100
AcDbLine
 10
81.3834254
 20
47.768689
 30
0.0
 11
81.93080838
 21
47.21638654
 31
0.0
  0
LINE
  5
63
100
AcDbEntity
  8
SLD-0
  6
CONTINUOUS
 62
       3
100
AcDbLine
 10
78.40134915
 20
47.30845127
 30
0.0
 11
78.97678729
 21
47.83146527
 31
0.0
  0
LINE
  5
64
100
AcDbEntity
  8
SLD-0
  6
CONTINUOUS
 62
       3
100
AcDbLine
 10
77.77430456
 20
47.76832206
 30
0.0
 11
78.40134915
 21
47.30845127
 31
0.0
  0
LINE
  5
65
100
AcDbEntity
  8
SLD-0
  6
CONTINUOUS
 62
       3
100
AcDbLine
 10
90.55379372
 20
45.05331059
 30
0.0
 11
90.82921188
 21
44.32611585
 31
0.0
  0
LINE
  5
66
100
AcDbEntity
  8
SLD-0
  6
CONTINUOUS
 62
       3
100
AcDbLine
 10
91.59666638
 20
44.4513457
 30
0.0
 11
91.79247509
 21
43.83940603
 31
0.0
  0
LINE
  5
67
100
AcDbEntity
  8
SLD-0
  6
CONTINUOUS
 62
       3
100
AcDbLine
 10
90.82921188
 20
44.32611585
 30
0.0
 11
91.59666638
 21
44.4513457
 31
0.0
  0
LINE
  5
68
100
AcDbEntity
  8
SLD-0
  6
CONTINUOUS
 62
       3
100
AcDbLine
 10
7.04266435
 20
41.83940598
 30
0.0
 11
7.04266435
 21
-44.1605742
 31
0.0
  0
LINE
  5
69
100
AcDbEntity
  8
SLD-0
  6
CONTINUOUS
 62
       3
100
AcDbLine
 10
20.54266432
 20
-46.16059758
 30
0.0
 11
20.54266432
 21
43.839406
 31
0.0
  0
LINE
  5
6A
100
AcDbEntity
  8
SLD-0
  6
CONTINUOUS
 62
       3
100
AcDbLine
 10
9.04266014
 20
-46.1605742
 30
0.0
 11
86.9426612
 21
-46.16073826
 31
0.0
  0
LINE
  5
6B
100
AcDbEntity
  8
SLD-0
  6
CONTINUOUS
 62
       3
100
AcDbLine
 10
86.9426612
 20
-46.16073826
 30
0.0
 11
86.94266427
 21
-40.160594
 31
0.0
  0
LINE
  5
6C
100
AcDbEntity
  8
SLD-0
  6
CONTINUOUS
 62
       3
100
AcDbLine
 10
97.04266427
 20
-27.40873139
 30
0.0
 11
97.04266081
 21
34.43940613
 31
0.0
  0
LINE
  5
6D
100
AcDbEntity
  8
SLD-0
  6
CONTINUOUS
 62
       3
100
AcDbLine
 10
97.04266192
 20
-40.16059287
 30
0.0
 11
86.94266427
 21
-40.160594
 31
0.0
  0
LINE
  5
6E
100
AcDbEntity
  8
SLD-0
  6
CONTINUOUS
 62
       3
100
AcDbLine
 10
87.02882738
 20
-38.66059728
 30
0.0
 11
98.54266406
 21
-38.66059728
 31
0.0
  0
LINE
  5
6F
100
AcDbEntity
  8
SLD-0
  6
CONTINUOUS
 62
       3
100
AcDbLine
 10
98.54266406
 20
-38.66059728
 30
0.0
 11
98.54266406
 21
-40.16059287
 31
0.0
  0
LINE
  5
70
100
AcDbEntity
  8
SLD-0
  6
CONTINUOUS
 62
       3
100
AcDbLine
 10
101.54266448
 20
-40.160594
 30
0.0
 11
101.54266269
 21
-34.78191443
 31
0.0
  0
LINE
  5
71
100
AcDbEntity
  8
SLD-0
  6
CONTINUOUS
 62
       3
100
AcDbLine
 10
101.54266269
 20
-34.78191443
 30
0.0
 11
94.88107623
 21
-28.12032796
 31
0.0
  0
LINE
  5
72
100
AcDbEntity
  8
SLD-0
  6
CONTINUOUS
 62
       3
100
AcDbLine
 10
96.44606413
 20
-27.56399311
 30
0.0
 11
103.04266663
 21
-34.16059561
 31
0.0
  0
LINE
  5
73
100
AcDbEntity
  8
SLD-0
  6
CONTINUOUS
 62
       3
100
AcDbLine
 10
103.04266663
 20
-34.16059561
 30
0.0
 11
103.04266663
 21
-40.16059287
 31
0.0
  0
LINE
  5
74
100
AcDbEntity
  8
SLD-0
  6
CONTINUOUS
 62
       3
100
AcDbLine
 10
97.04266081
 20
35.03940605
 30
0.0
 11
97.04266081
 21
34.43940613
 31
0.0
  0
LINE
  5
75
100
AcDbEntity
  8
SLD-0
  6
CONTINUOUS
 62
       3
100
AcDbLine
 10
9.04266427
 20
43.839406
 30
0.0
 11
97.04266081
 21
43.839406
 31
0.0
  0
LINE
  5
76
100
AcDbEntity
  8
SLD-0
  6
CONTINUOUS
 62
       3
100
AcDbLine
 10
97.04266081
 20
43.839406
 30
0.0
 11
97.04266081
 21
35.03940605
 31
0.0
  0
LINE
  5
77
100
AcDbEntity
  8
SLD-0
  6
CONTINUOUS
 62
       3
100
AcDbLine
 10
86.34266595
 20
-45.46059318
 30
0.0
 11
86.24266426
 21
-45.46059318
 31
0.0
  0
LINE
  5
78
100
AcDbEntity
  8
SLD-0
  6
CONTINUOUS
 62
       3
100
AcDbLine
 10
21.54266427
 20
-46.16059758
 30
0.0
 11
21.54266427
 21
43.839406
 31
0.0
  0
LINE
  5
79
100
AcDbEntity
  8
SLD-0
  6
CONTINUOUS
 62
       3
100
AcDbLine
 10
102.24453865
 20
41.59601904
 30
0.0
 11
102.23405608
 21
41.59492442
 31
0.0
  0
LINE
  5
7A
100
AcDbEntity
  8
SLD-0
  6
CONTINUOUS
 62
       3
100
AcDbLine
 10
102.23405608
 20
41.59492442
 30
0.0
 11
102.223586
 21
41.59378576
 31
0.0
  0
LINE
  5
7B
100
AcDbEntity
  8
SLD-0
  6
CONTINUOUS
 62
       3
100
AcDbLine
 10
102.223586
 20
41.59378576
 30
0.0
 11
102.21314093
 21
41.59255902
 31
0.0
  0
LINE
  5
7C
100
AcDbEntity
  8
SLD-0
  6
CONTINUOUS
 62
       3
100
AcDbLine
 10
102.21314093
 20
41.59255902
 30
0.0
 11
102.20273337
 21
41.59120015
 31
0.0
  0
LINE
  5
7D
100
AcDbEntity
  8
SLD-0
  6
CONTINUOUS
 62
       3
100
AcDbLine
 10
102.20273337
 20
41.59120015
 30
0.0
 11
102.19237581
 21
41.58966513
 31
0.0
  0
LINE
  5
7E
100
AcDbEntity
  8
SLD-0
  6
CONTINUOUS
 62
       3
100
AcDbLine
 10
102.19237581
 20
41.58966513
 30
0.0
 11
102.18208076
 21
41.58790991
 31
0.0
  0
LINE
  5
7F
100
AcDbEntity
  8
SLD-0
  6
CONTINUOUS
 62
       3
100
AcDbLine
 10
102.18208076
 20
41.58790991
 30
0.0
 11
102.17186072
 21
41.58589044
 31
0.0
  0
LINE
  5
80
100
AcDbEntity
  8
SLD-0
  6
CONTINUOUS
 62
       3
100
AcDbLine
 10
102.17186072
 20
41.58589044
 30
0.0
 11
102.1617282
 21
41.58356269
 31
0.0
  0
LINE
  5
81
100
AcDbEntity
  8
SLD-0
  6
CONTINUOUS
 62
       3
100
AcDbLine
 10
102.1617282
 20
41.58356269
 30
0.0
 11
102.15169569
 21
41.58088262
 31
0.0
  0
LINE
  5
82
100
AcDbEntity
  8
SLD-0
  6
CONTINUOUS
 62
       3
100
AcDbLine
 10
102.15169569
 20
41.58088262
 30
0.0
 11
102.14177569
 21
41.57780619
 31
0.0
  0
LINE
  5
83
100
AcDbEntity
  8
SLD-0
  6
CONTINUOUS
 62
       3
100
AcDbLine
 10
102.14177569
 20
41.57780619
 30
0.0
 11
102.13198064
 21
41.574295
 31
0.0
  0
LINE
  5
84
100
AcDbEntity
  8
SLD-0
  6
CONTINUOUS
 62
       3
100
AcDbLine
 10
102.13198064
 20
41.574295
 30
0.0
 11
102.12232244
 21
41.57035113
 31
0.0
  0
LINE
  5
85
100
AcDbEntity
  8
SLD-0
  6
CONTINUOUS
 62
       3
100
AcDbLine
 10
102.12232244
 20
41.57035113
 30
0.0
 11
102.11281276
 21
41.56599429
 31
0.0
  0
LINE
  5
86
100
AcDbEntity
  8
SLD-0
  6
CONTINUOUS
 62
       3
100
AcDbLine
 10
102.11281276
 20
41.56599429
 30
0.0
 11
102.10346326
 21
41.56124427
 31
0.0
  0
LINE
  5
87
100
AcDbEntity
  8
SLD-0
  6
CONTINUOUS
 62
       3
100
AcDbLine
 10
102.10346326
 20
41.56124427
 30
0.0
 11
102.09428563
 21
41.55612085
 31
0.0
  0
LINE
  5
88
100
AcDbEntity
  8
SLD-0
  6
CONTINUOUS
 62
       3
100
AcDbLine
 10
102.09428563
 20
41.55612085
 30
0.0
 11
102.08529153
 21
41.55064382
 31
0.0
  0
LINE
  5
89
100
AcDbEntity
  8
SLD-0
  6
CONTINUOUS
 62
       3
100
AcDbLine
 10
102.08529153
 20
41.55064382
 30
0.0
 11
102.07649264
 21
41.54483297
 31
0.0
  0
LINE
  5
8A
100
AcDbEntity
  8
SLD-0
  6
CONTINUOUS
 62
       3
100
AcDbLine
 10
102.07649264
 20
41.54483297
 30
0.0
 11
102.06790062
 21
41.53870808
 31
0.0
  0
LINE
  5
8B
100
AcDbEntity
  8
SLD-0
  6
CONTINUOUS
 62
       3
100
AcDbLine
 10
102.06790062
 20
41.53870808
 30
0.0
 11
102.05952715
 21
41.53228893
 31
0.0
  0
LINE
  5
8C
100
AcDbEntity
  8
SLD-0
  6
CONTINUOUS
 62
       3
100
AcDbLine
 10
102.05952715
 20
41.53228893
 30
0.0
 11
102.05138389
 21
41.52559533
 31
0.0
  0
LINE
  5
8D
100
AcDbEntity
  8
SLD-0
  6
CONTINUOUS
 62
       3
100
AcDbLine
 10
102.05138389
 20
41.52559533
 30
0.0
 11
102.04348252
 21
41.51864704
 31
0.0
  0
LINE
  5
8E
100
AcDbEntity
  8
SLD-0
  6
CONTINUOUS
 62
       3
100
AcDbLine
 10
102.04348252
 20
41.51864704
 30
0.0
 11
102.03583419
 21
41.51146134
 31
0.0
  0
LINE
  5
8F
100
AcDbEntity
  8
SLD-0
  6
CONTINUOUS
 62
       3
100
AcDbLine
 10
102.03583419
 20
41.51146134
 30
0.0
 11
102.02844743
 21
41.5040432
 31
0.0
  0
LINE
  5
90
100
AcDbEntity
  8
SLD-0
  6
CONTINUOUS
 62
       3
100
AcDbLine
 10
102.02844743
 20
41.5040432
 30
0.0
 11
102.02133002
 21
41.49639385
 31
0.0
  0
LINE
  5
91
100
AcDbEntity
  8
SLD-0
  6
CONTINUOUS
 62
       3
100
AcDbLine
 10
102.02133002
 20
41.49639385
 30
0.0
 11
102.01448972
 21
41.48851451
 31
0.0
  0
LINE
  5
92
100
AcDbEntity
  8
SLD-0
  6
CONTINUOUS
 62
       3
100
AcDbLine
 10
102.01448972
 20
41.48851451
 30
0.0
 11
102.0079343
 21
41.48040641
 31
0.0
  0
LINE
  5
93
100
AcDbEntity
  8
SLD-0
  6
CONTINUOUS
 62
       3
100
AcDbLine
 10
102.0079343
 20
41.48040641
 30
0.0
 11
102.0016715
 21
41.47207079
 31
0.0
  0
LINE
  5
94
100
AcDbEntity
  8
SLD-0
  6
CONTINUOUS
 62
       3
100
AcDbLine
 10
102.0016715
 20
41.47207079
 30
0.0
 11
101.99570718
 21
41.46351234
 31
0.0
  0
LINE
  5
95
100
AcDbEntity
  8
SLD-0
  6
CONTINUOUS
 62
       3
100
AcDbLine
 10
101.99570718
 20
41.46351234
 30
0.0
 11
101.9900431
 21
41.45474315
 31
0.0
  0
LINE
  5
96
100
AcDbEntity
  8
SLD-0
  6
CONTINUOUS
 62
       3
100
AcDbLine
 10
101.9900431
 20
41.45474315
 30
0.0
 11
101.98468046
 21
41.44577627
 31
0.0
  0
LINE
  5
97
100
AcDbEntity
  8
SLD-0
  6
CONTINUOUS
 62
       3
100
AcDbLine
 10
101.98468046
 20
41.44577627
 30
0.0
 11
101.97962049
 21
41.43662479
 31
0.0
  0
LINE
  5
98
100
AcDbEntity
  8
SLD-0
  6
CONTINUOUS
 62
       3
100
AcDbLine
 10
101.97962049
 20
41.43662479
 30
0.0
 11
101.9748644
 21
41.42730176
 31
0.0
  0
LINE
  5
99
100
AcDbEntity
  8
SLD-0
  6
CONTINUOUS
 62
       3
100
AcDbLine
 10
101.9748644
 20
41.42730176
 30
0.0
 11
101.97041352
 21
41.41782025
 31
0.0
  0
LINE
  5
9A
100
AcDbEntity
  8
SLD-0
  6
CONTINUOUS
 62
       3
100
AcDbLine
 10
101.97041352
 20
41.41782025
 30
0.0
 11
101.96627761
 21
41.40819273
 31
0.0
  0
LINE
  5
9B
100
AcDbEntity
  8
SLD-0
  6
CONTINUOUS
 62
       3
100
AcDbLine
 10
101.96627761
 20
41.40819273
 30
0.0
 11
101.96248013
 21
41.39843081
 31
0.0
  0
LINE
  5
9C
100
AcDbEntity
  8
SLD-0
  6
CONTINUOUS
 62
       3
100
AcDbLine
 10
101.96248013
 20
41.39843081
 30
0.0
 11
101.95904582
 21
41.38854596
 31
0.0
  0
LINE
  5
9D
100
AcDbEntity
  8
SLD-0
  6
CONTINUOUS
 62
       3
100
AcDbLine
 10
101.95904582
 20
41.38854596
 30
0.0
 11
101.95599941
 21
41.37854969
 31
0.0
  0
LINE
  5
9E
100
AcDbEntity
  8
SLD-0
  6
CONTINUOUS
 62
       3
100
AcDbLine
 10
101.95599941
 20
41.37854969
 30
0.0
 11
101.95336563
 21
41.36845348
 31
0.0
  0
LINE
  5
9F
100
AcDbEntity
  8
SLD-0
  6
CONTINUOUS
 62
       3
100
AcDbLine
 10
101.95336563
 20
41.36845348
 30
0.0
 11
101.95116897
 21
41.35826884
 31
0.0
  0
LINE
  5
A0
100
AcDbEntity
  8
SLD-0
  6
CONTINUOUS
 62
       3
100
AcDbLine
 10
101.95116897
 20
41.35826884
 30
0.0
 11
101.9494035
 21
41.34800766
 31
0.0
  0
LINE
  5
A1
100
AcDbEntity
  8
SLD-0
  6
CONTINUOUS
 62
       3
100
AcDbLine
 10
101.9494035
 20
41.34800766
 30
0.0
 11
101.94800321
 21
41.33768262
 31
0.0
  0
LINE
  5
A2
100
AcDbEntity
  8
SLD-0
  6
CONTINUOUS
 62
       3
100
AcDbLine
 10
101.94800321
 20
41.33768262
 30
0.0
 11
101.94689508
 21
41.32730649
 31
0.0
  0
LINE
  5
A3
100
AcDbEntity
  8
SLD-0
  6
CONTINUOUS
 62
       3
100
AcDbLine
 10
101.94689508
 20
41.32730649
 30
0.0
 11
101.94600605
 21
41.31689204
 31
0.0
  0
LINE
  5
A4
100
AcDbEntity
  8
SLD-0
  6
CONTINUOUS
 62
       3
100
AcDbLine
 10
101.94600605
 20
41.31689204
 30
0.0
 11
101.9452631
 21
41.30645205
 31
0.0
  0
LINE
  5
A5
100
AcDbEntity
  8
SLD-0
  6
CONTINUOUS
 62
       3
100
AcDbLine
 10
101.9452631
 20
41.30645205
 30
0.0
 11
101.94459318
 21
41.29600232
 31
0.0
  0
LINE
  5
A6
100
AcDbEntity
  8
SLD-0
  6
CONTINUOUS
 62
       3
100
AcDbLine
 10
102.24453865
 20
41.59601904
 30
0.0
 11
102.25181915
 21
41.59556892
 31
0.0
  0
LINE
  5
A7
100
AcDbEntity
  8
SLD-0
  6
CONTINUOUS
 62
       3
100
AcDbLine
 10
102.25181915
 20
41.59556892
 30
0.0
 11
102.2590951
 21
41.59509336
 31
0.0
  0
LINE
  5
A8
100
AcDbEntity
  8
SLD-0
  6
CONTINUOUS
 62
       3
100
AcDbLine
 10
102.2590951
 20
41.59509336
 30
0.0
 11
102.26636199
 21
41.59456691
 31
0.0
  0
LINE
  5
A9
100
AcDbEntity
  8
SLD-0
  6
CONTINUOUS
 62
       3
100
AcDbLine
 10
102.26636199
 20
41.59456691
 30
0.0
 11
102.27361527
 21
41.59396412
 31
0.0
  0
LINE
  5
AA
100
AcDbEntity
  8
SLD-0
  6
CONTINUOUS
 62
       3
100
AcDbLine
 10
102.27361527
 20
41.59396412
 30
0.0
 11
102.28085041
 21
41.59325954
 31
0.0
  0
LINE
  5
AB
100
AcDbEntity
  8
SLD-0
  6
CONTINUOUS
 62
       3
100
AcDbLine
 10
102.28085041
 20
41.59325954
 30
0.0
 11
102.28806288
 21
41.59242773
 31
0.0
  0
LINE
  5
AC
100
AcDbEntity
  8
SLD-0
  6
CONTINUOUS
 62
       3
100
AcDbLine
 10
102.28806288
 20
41.59242773
 30
0.0
 11
102.29524814
 21
41.59144324
 31
0.0
  0
LINE
  5
AD
100
AcDbEntity
  8
SLD-0
  6
CONTINUOUS
 62
       3
100
AcDbLine
 10
102.29524814
 20
41.59144324
 30
0.0
 11
102.30240166
 21
41.59028063
 31
0.0
  0
LINE
  5
AE
100
AcDbEntity
  8
SLD-0
  6
CONTINUOUS
 62
       3
100
AcDbLine
 10
102.30240166
 20
41.59028063
 30
0.0
 11
102.3095189
 21
41.58891453
 31
0.0
  0
LINE
  5
AF
100
AcDbEntity
  8
SLD-0
  6
CONTINUOUS
 62
       3
100
AcDbLine
 10
102.3095189
 20
41.58891453
 30
0.0
 11
102.3165959
 21
41.58733058
 31
0.0
  0
LINE
  5
B0
100
AcDbEntity
  8
SLD-0
  6
CONTINUOUS
 62
       3
100
AcDbLine
 10
102.3165959
 20
41.58733058
 30
0.0
 11
102.32362983
 21
41.58553572
 31
0.0
  0
LINE
  5
B1
100
AcDbEntity
  8
SLD-0
  6
CONTINUOUS
 62
       3
100
AcDbLine
 10
102.32362983
 20
41.58553572
 30
0.0
 11
102.33061795
 21
41.58353934
 31
0.0
  0
LINE
  5
B2
100
AcDbEntity
  8
SLD-0
  6
CONTINUOUS
 62
       3
100
AcDbLine
 10
102.33061795
 20
41.58353934
 30
0.0
 11
102.33755754
 21
41.58135083
 31
0.0
  0
LINE
  5
B3
100
AcDbEntity
  8
SLD-0
  6
CONTINUOUS
 62
       3
100
AcDbLine
 10
102.33755754
 20
41.58135083
 30
0.0
 11
102.34444589
 21
41.57897959
 31
0.0
  0
LINE
  5
B4
100
AcDbEntity
  8
SLD-0
  6
CONTINUOUS
 62
       3
100
AcDbLine
 10
102.34444589
 20
41.57897959
 30
0.0
 11
102.35128027
 21
41.576435
 31
0.0
  0
LINE
  5
B5
100
AcDbEntity
  8
SLD-0
  6
CONTINUOUS
 62
       3
100
AcDbLine
 10
102.35128027
 20
41.576435
 30
0.0
 11
102.35805795
 21
41.57372646
 31
0.0
  0
LINE
  5
B6
100
AcDbEntity
  8
SLD-0
  6
CONTINUOUS
 62
       3
100
AcDbLine
 10
102.35805795
 20
41.57372646
 30
0.0
 11
102.36477623
 21
41.57086336
 31
0.0
  0
LINE
  5
B7
100
AcDbEntity
  8
SLD-0
  6
CONTINUOUS
 62
       3
100
AcDbLine
 10
102.36477623
 20
41.57086336
 30
0.0
 11
102.37143224
 21
41.56785481
 31
0.0
  0
LINE
  5
B8
100
AcDbEntity
  8
SLD-0
  6
CONTINUOUS
 62
       3
100
AcDbLine
 10
102.37143224
 20
41.56785481
 30
0.0
 11
102.3780202
 21
41.56470342
 31
0.0
  0
LINE
  5
B9
100
AcDbEntity
  8
SLD-0
  6
CONTINUOUS
 62
       3
100
AcDbLine
 10
102.3780202
 20
41.56470342
 30
0.0
 11
102.3845314
 21
41.56140531
 31
0.0
  0
LINE
  5
BA
100
AcDbEntity
  8
SLD-0
  6
CONTINUOUS
 62
       3
100
AcDbLine
 10
102.3845314
 20
41.56140531
 30
0.0
 11
102.39095697
 21
41.55795632
 31
0.0
  0
LINE
  5
BB
100
AcDbEntity
  8
SLD-0
  6
CONTINUOUS
 62
       3
100
AcDbLine
 10
102.39095697
 20
41.55795632
 30
0.0
 11
102.39728807
 21
41.55435228
 31
0.0
  0
LINE
  5
BC
100
AcDbEntity
  8
SLD-0
  6
CONTINUOUS
 62
       3
100
AcDbLine
 10
102.39728807
 20
41.55435228
 30
0.0
 11
102.40351584
 21
41.55058901
 31
0.0
  0
LINE
  5
BD
100
AcDbEntity
  8
SLD-0
  6
CONTINUOUS
 62
       3
100
AcDbLine
 10
102.40351584
 20
41.55058901
 30
0.0
 11
102.40963144
 21
41.54666236
 31
0.0
  0
LINE
  5
BE
100
AcDbEntity
  8
SLD-0
  6
CONTINUOUS
 62
       3
100
AcDbLine
 10
102.40963144
 20
41.54666236
 30
0.0
 11
102.41562602
 21
41.54256815
 31
0.0
  0
LINE
  5
BF
100
AcDbEntity
  8
SLD-0
  6
CONTINUOUS
 62
       3
100
AcDbLine
 10
102.41562602
 20
41.54256815
 30
0.0
 11
102.42149071
 21
41.53830222
 31
0.0
  0
LINE
  5
C0
100
AcDbEntity
  8
SLD-0
  6
CONTINUOUS
 62
       3
100
AcDbLine
 10
102.42149071
 20
41.53830222
 30
0.0
 11
102.42721844
 21
41.53386212
 31
0.0
  0
LINE
  5
C1
100
AcDbEntity
  8
SLD-0
  6
CONTINUOUS
 62
       3
100
AcDbLine
 10
102.42721844
 20
41.53386212
 30
0.0
 11
102.43281736
 21
41.52926032
 31
0.0
  0
LINE
  5
C2
100
AcDbEntity
  8
SLD-0
  6
CONTINUOUS
 62
       3
100
AcDbLine
 10
102.43281736
 20
41.52926032
 30
0.0
 11
102.43830354
 21
41.52451698
 31
0.0
  0
LINE
  5
C3
100
AcDbEntity
  8
SLD-0
  6
CONTINUOUS
 62
       3
100
AcDbLine
 10
102.43830354
 20
41.52451698
 30
0.0
 11
102.44369307
 21
41.51965231
 31
0.0
  0
LINE
  5
C4
100
AcDbEntity
  8
SLD-0
  6
CONTINUOUS
 62
       3
100
AcDbLine
 10
102.44369307
 20
41.51965231
 30
0.0
 11
102.44900206
 21
41.51468655
 31
0.0
  0
LINE
  5
C5
100
AcDbEntity
  8
SLD-0
  6
CONTINUOUS
 62
       3
100
AcDbLine
 10
102.44900206
 20
41.51468655
 30
0.0
 11
102.45424662
 21
41.5096399
 31
0.0
  0
LINE
  5
C6
100
AcDbEntity
  8
SLD-0
  6
CONTINUOUS
 62
       3
100
AcDbLine
 10
102.45424662
 20
41.5096399
 30
0.0
 11
102.45944286
 21
41.50453259
 31
0.0
  0
LINE
  5
C7
100
AcDbEntity
  8
SLD-0
  6
CONTINUOUS
 62
       3
100
AcDbLine
 10
102.45944286
 20
41.50453259
 30
0.0
 11
102.46460689
 21
41.49938483
 31
0.0
  0
LINE
  5
C8
100
AcDbEntity
  8
SLD-0
  6
CONTINUOUS
 62
       3
100
AcDbLine
 10
102.46460689
 20
41.49938483
 30
0.0
 11
102.46974735
 21
41.49421919
 31
0.0
  0
LINE
  5
C9
100
AcDbEntity
  8
SLD-0
  6
CONTINUOUS
 62
       3
100
AcDbLine
 10
74.74266331
 20
43.93889358
 30
0.0
 11
74.7422379
 21
43.94521008
 31
0.0
  0
LINE
  5
CA
100
AcDbEntity
  8
SLD-0
  6
CONTINUOUS
 62
       3
100
AcDbLine
 10
74.7422379
 20
43.94521008
 30
0.0
 11
74.74179732
 21
43.95152252
 31
0.0
  0
LINE
  5
CB
100
AcDbEntity
  8
SLD-0
  6
CONTINUOUS
 62
       3
100
AcDbLine
 10
74.74179732
 20
43.95152252
 30
0.0
 11
74.74132642
 21
43.95782684
 31
0.0
  0
LINE
  5
CC
100
AcDbEntity
  8
SLD-0
  6
CONTINUOUS
 62
       3
100
AcDbLine
 10
74.74132642
 20
43.95782684
 30
0.0
 11
74.74081002
 21
43.96411896
 31
0.0
  0
LINE
  5
CD
100
AcDbEntity
  8
SLD-0
  6
CONTINUOUS
 62
       3
100
AcDbLine
 10
74.74081002
 20
43.96411896
 30
0.0
 11
74.74023298
 21
43.97039484
 31
0.0
  0
LINE
  5
CE
100
AcDbEntity
  8
SLD-0
  6
CONTINUOUS
 62
       3
100
AcDbLine
 10
74.74023298
 20
43.97039484
 30
0.0
 11
74.73958011
 21
43.9766504
 31
0.0
  0
LINE
  5
CF
100
AcDbEntity
  8
SLD-0
  6
CONTINUOUS
 62
       3
100
AcDbLine
 10
74.73958011
 20
43.9766504
 30
0.0
 11
74.73883626
 21
43.98288158
 31
0.0
  0
LINE
  5
D0
100
AcDbEntity
  8
SLD-0
  6
CONTINUOUS
 62
       3
100
AcDbLine
 10
74.73883626
 20
43.98288158
 30
0.0
 11
74.73798627
 21
43.98908433
 31
0.0
  0
LINE
  5
D1
100
AcDbEntity
  8
SLD-0
  6
CONTINUOUS
 62
       3
100
AcDbLine
 10
74.73798627
 20
43.98908433
 30
0.0
 11
74.73701497
 21
43.99525457
 31
0.0
  0
LINE
  5
D2
100
AcDbEntity
  8
SLD-0
  6
CONTINUOUS
 62
       3
100
AcDbLine
 10
74.73701497
 20
43.99525457
 30
0.0
 11
74.7359072
 21
44.00138824
 31
0.0
  0
LINE
  5
D3
100
AcDbEntity
  8
SLD-0
  6
CONTINUOUS
 62
       3
100
AcDbLine
 10
74.7359072
 20
44.00138824
 30
0.0
 11
74.7346478
 21
44.00748129
 31
0.0
  0
LINE
  5
D4
100
AcDbEntity
  8
SLD-0
  6
CONTINUOUS
 62
       3
100
AcDbLine
 10
74.7346478
 20
44.00748129
 30
0.0
 11
74.73322159
 21
44.01352965
 31
0.0
  0
LINE
  5
D5
100
AcDbEntity
  8
SLD-0
  6
CONTINUOUS
 62
       3
100
AcDbLine
 10
74.73322159
 20
44.01352965
 30
0.0
 11
74.73161406
 21
44.01952942
 31
0.0
  0
LINE
  5
D6
100
AcDbEntity
  8
SLD-0
  6
CONTINUOUS
 62
       3
100
AcDbLine
 10
74.73161406
 20
44.01952942
 30
0.0
 11
74.72982519
 21
44.02548061
 31
0.0
  0
LINE
  5
D7
100
AcDbEntity
  8
SLD-0
  6
CONTINUOUS
 62
       3
100
AcDbLine
 10
74.72982519
 20
44.02548061
 30
0.0
 11
74.72786953
 21
44.03138711
 31
0.0
  0
LINE
  5
D8
100
AcDbEntity
  8
SLD-0
  6
CONTINUOUS
 62
       3
100
AcDbLine
 10
74.72786953
 20
44.03138711
 30
0.0
 11
74.72576223
 21
44.03725297
 31
0.0
  0
LINE
  5
D9
100
AcDbEntity
  8
SLD-0
  6
CONTINUOUS
 62
       3
100
AcDbLine
 10
74.72576223
 20
44.03725297
 30
0.0
 11
74.72351845
 21
44.04308228
 31
0.0
  0
LINE
  5
DA
100
AcDbEntity
  8
SLD-0
  6
CONTINUOUS
 62
       3
100
AcDbLine
 10
74.72351845
 20
44.04308228
 30
0.0
 11
74.72115337
 21
44.04887908
 31
0.0
  0
LINE
  5
DB
100
AcDbEntity
  8
SLD-0
  6
CONTINUOUS
 62
       3
100
AcDbLine
 10
74.72115337
 20
44.04887908
 30
0.0
 11
74.71868214
 21
44.05464744
 31
0.0
  0
LINE
  5
DC
100
AcDbEntity
  8
SLD-0
  6
CONTINUOUS
 62
       3
100
AcDbLine
 10
74.71868214
 20
44.05464744
 30
0.0
 11
74.71611993
 21
44.06039142
 31
0.0
  0
LINE
  5
DD
100
AcDbEntity
  8
SLD-0
  6
CONTINUOUS
 62
       3
100
AcDbLine
 10
74.71611993
 20
44.06039142
 30
0.0
 11
74.7134819
 21
44.06611509
 31
0.0
  0
LINE
  5
DE
100
AcDbEntity
  8
SLD-0
  6
CONTINUOUS
 62
       3
100
AcDbLine
 10
74.7134819
 20
44.06611509
 30
0.0
 11
74.71078322
 21
44.0718225
 31
0.0
  0
LINE
  5
DF
100
AcDbEntity
  8
SLD-0
  6
CONTINUOUS
 62
       3
100
AcDbLine
 10
74.71078322
 20
44.0718225
 30
0.0
 11
74.70803905
 21
44.07751773
 31
0.0
  0
LINE
  5
E0
100
AcDbEntity
  8
SLD-0
  6
CONTINUOUS
 62
       3
100
AcDbLine
 10
74.70803905
 20
44.07751773
 30
0.0
 11
74.70526454
 21
44.08320484
 31
0.0
  0
LINE
  5
E1
100
AcDbEntity
  8
SLD-0
  6
CONTINUOUS
 62
       3
100
AcDbLine
 10
74.70526454
 20
44.08320484
 30
0.0
 11
74.70247488
 21
44.08888788
 31
0.0
  0
ARC
  5
E2
100
AcDbEntity
  8
SLD-0
  6
CONTINUOUS
 62
       3
100
AcDbCircle
 10
75.46910691
 20
47.26103925
 30
0.0
 40
2.24999995
100
AcDbArc
 50
30.00000703
 51
209.99992339
  0
ARC
  5
E3
100
AcDbEntity
  8
SLD-0
  6
CONTINUOUS
 62
       3
100
AcDbCircle
 10
75.46910691
 20
47.26103925
 30
0.0
 40
0.75000021
100
AcDbArc
 50
30.00012132
 51
209.99987041
  0
ARC
  5
E4
100
AcDbEntity
  8
SLD-0
  6
CONTINUOUS
 62
       3
100
AcDbCircle
 10
9.04266427
 20
41.83940608
 30
0.0
 40
1.99999992
100
AcDbArc
 50
90.0
 51
180.00000286
  0
ARC
  5
E5
100
AcDbEntity
  8
SLD-0
  6
CONTINUOUS
 62
       3
100
AcDbCircle
 10
100.04266427
 20
-40.160594
 30
0.0
 40
13.1
100
AcDbArc
 50
103.23865404
 51
180.0
  0
ARC
  5
E6
100
AcDbEntity
  8
SLD-0
  6
CONTINUOUS
 62
       3
100
AcDbCircle
 10
100.04266427
 20
-40.160594
 30
0.0
 40
1.50000021
100
AcDbArc
 50
179.99995684
 51
360.0
  0
ARC
  5
E7
100
AcDbEntity
  8
SLD-0
  6
CONTINUOUS
 62
       3
100
AcDbCircle
 10
100.04266427
 20
-40.160594
 30
0.0
 40
3.00000236
100
AcDbArc
 50
179.99997842
 51
360.00002158
  0
ELLIPSE
  5
E8
100
AcDbEntity
  8
SLD-0
  6
CONTINUOUS
 62
       3
100
AcDbEllipse
 10
104.14296175
 20
39.13941742
 30
0.0
 11
-0.2734361415896274
 21
0.123584322299962
 31
0.0
210
0.0
220
0.0
230
1.0
 40
0.99977559
 41
1.9953685878147889
 42
4.2878173420090011
  0
ELLIPSE
  5
E9
100
AcDbEntity
  8
SLD-0
  6
CONTINUOUS
 62
       3
100
AcDbEllipse
 10
75.94265284
 20
44.34081125
 30
0.0
 11
0.2897895743643346
 21
0.0776488824257342
 31
0.0
210
0.0
220
0.0
230
1.0
 40
0.99995919
 41
6.0214012164230439
 42
6.5449694972869139
  0
LINE
  5
EA
100
AcDbEntity
  8
SLD-0
  6
CENTERX2
 62
       3
100
AcDbLine
 10
-42.07303344
 20
-1.160594
 30
0.0
 11
-89.22062073
 21
-1.160594
 31
0.0
  0
LINE
  5
EB
100
AcDbEntity
  8
SLD-0
  6
CENTERX2
 62
       3
100
AcDbLine
 10
-65.45991044
 20
53.8776461
 30
0.0
 11
-65.45991044
 21
-48.160594
 31
0.0
  0
LINE
  5
EC
100
AcDbEntity
  8
SLD-0
  6
CENTERX2
 62
       3
100
AcDbLine
 10
1.2578444
 20
-1.160594
 30
0.0
 11
101.26912319
 21
-1.160594
 31
0.0
  0
LINE
  5
ED
100
AcDbEntity
  8
SLD-0_0
  6
CONTINUOUS
 62
       3
100
AcDbLine
 10
-2.95733565
 20
33.54674486
 30
0.0
 11
-2.95733565
 21
7.02340258
 31
0.0
  0
LINE
  5
EE
100
AcDbEntity
  8
SLD-0_0
  6
CONTINUOUS
 62
       3
100
AcDbLine
 10
-48.40991044
 20
42.639406
 30
0.0
 11
-48.40991044
 21
-44.960594
 31
0.0
  0
LINE
  5
EF
100
AcDbEntity
  8
SLD-0_0
  6
CONTINUOUS
 62
       3
100
AcDbLine
 10
-48.40991044
 20
-44.960594
 30
0.0
 11
-82.50991044
 21
-44.960594
 31
0.0
  0
LINE
  5
F0
100
AcDbEntity
  8
SLD-0_0
  6
CONTINUOUS
 62
       3
100
AcDbLine
 10
-82.50991044
 20
34.539406
 30
0.0
 11
-82.50991044
 21
-44.960594
 31
0.0
  0
LINE
  5
F1
100
AcDbEntity
  8
SLD-0_0
  6
CONTINUOUS
 62
       3
100
AcDbLine
 10
-48.40991044
 20
42.639406
 30
0.0
 11
-77.90991044
 21
42.639406
 31
0.0
  0
LINE
  5
F2
100
AcDbEntity
  8
SLD-0_0
  6
CONTINUOUS
 62
       3
100
AcDbLine
 10
-77.90991044
 20
42.639406
 30
0.0
 11
-77.90991044
 21
34.539406
 31
0.0
  0
LINE
  5
F3
100
AcDbEntity
  8
SLD-0_0
  6
CONTINUOUS
 62
       3
100
AcDbLine
 10
-77.90991044
 20
34.539406
 30
0.0
 11
-82.50991044
 21
34.539406
 31
0.0
  0
ARC
  5
F4
100
AcDbEntity
  8
SLD-0_0
  6
CONTINUOUS
 62
       3
100
AcDbCircle
 10
9.04266435
 20
-44.1605742
 30
0.0
 40
2.0
100
AcDbArc
 50
180.0
 51
269.99987934
  0
LINE
  5
F5
100
AcDbEntity
  8
0
  6
CONTINUOUS
 62
       3
100
AcDbLine
 10
-1.12024824
 20
21.18377855
 30
0.0
 11
-2.10127363
 21
21.18377855
 31
0.0
  0
LINE
  5
F6
100
AcDbEntity
  8
0
  6
CONTINUOUS
 62
       3
100
AcDbLine
 10
-1.12024824
 20
24.58295091
 30
0.0
 11
-1.12024824
 21
26.32672044
 31
0.0
  0
LINE
  5
F7
100
AcDbEntity
  8
0
  6
CONTINUOUS
 62
       3
100
AcDbLine
 10
-2.10127363
 20
10.89820482
 30
0.0
 11
-2.10127363
 21
9.15443529
 31
0.0
  0
LINE
  5
F8
100
AcDbEntity
  8
0
  6
CONTINUOUS
 62
       3
100
AcDbLine
 10
7.04266435
 20
33.54674486
 30
0.0
 11
-2.95733565
 21
33.54674486
 31
0.0
  0
LINE
  5
F9
100
AcDbEntity
  8
0
  6
CONTINUOUS
 62
       3
100
AcDbLine
 10
-2.10127363
 20
9.15443529
 30
0.0
 11
-1.12024824
 21
9.15443529
 31
0.0
  0
LINE
  5
FA
100
AcDbEntity
  8
0
  6
CONTINUOUS
 62
       3
100
AcDbLine
 10
-1.18381025
 20
2.55235766
 30
0.0
 11
7.04266435
 21
2.55235766
 31
0.0
  0
LINE
  5
FB
100
AcDbEntity
  8
0
  6
CONTINUOUS
 62
       3
100
AcDbLine
 10
-2.10127363
 20
21.18377855
 30
0.0
 11
-2.10127363
 21
19.44000902
 31
0.0
  0
LINE
  5
FC
100
AcDbEntity
  8
0
  6
CONTINUOUS
 62
       3
100
AcDbLine
 10
-2.10127363
 20
31.46966234
 30
0.0
 11
-2.10127363
 21
29.72589281
 31
0.0
  0
LINE
  5
FD
100
AcDbEntity
  8
0
  6
CONTINUOUS
 62
       3
100
AcDbLine
 10
-1.12024824
 20
19.44000902
 30
0.0
 11
-1.12024824
 21
21.18377855
 31
0.0
  0
LINE
  5
FE
100
AcDbEntity
  8
0
  6
CONTINUOUS
 62
       3
100
AcDbLine
 10
-1.12024824
 20
16.04083666
 30
0.0
 11
-2.10127363
 21
16.04083666
 31
0.0
  0
LINE
  5
FF
100
AcDbEntity
  8
0
  6
CONTINUOUS
 62
       3
100
AcDbLine
 10
-2.95733565
 20
7.02340258
 30
0.0
 11
6.98871416
 21
7.02340258
 31
0.0
  0
LINE
  5
100
100
AcDbEntity
  8
0
  6
CONTINUOUS
 62
       3
100
AcDbLine
 10
7.04266435
 20
38.0168596
 30
0.0
 11
-1.1565251
 21
38.0168596
 31
0.0
  0
LINE
  5
101
100
AcDbEntity
  8
0
  6
CONTINUOUS
 62
       3
100
AcDbLine
 10
-2.10127363
 20
29.72589281
 30
0.0
 11
-1.12024824
 21
29.72589281
 31
0.0
  0
LINE
  5
102
100
AcDbEntity
  8
0
  6
CONTINUOUS
 62
       3
100
AcDbLine
 10
-0.42106611
 20
33.54674486
 30
0.0
 11
-0.42106611
 21
7.02340258
 31
0.0
  0
LINE
  5
103
100
AcDbEntity
  8
0
  6
CONTINUOUS
 62
       3
100
AcDbLine
 10
-1.12024824
 20
14.29737718
 30
0.0
 11
-1.12024824
 21
16.04083666
 31
0.0
  0
LINE
  5
104
100
AcDbEntity
  8
0
  6
CONTINUOUS
 62
       3
100
AcDbLine
 10
-2.10127363
 20
19.44000902
 30
0.0
 11
-1.12024824
 21
19.44000902
 31
0.0
  0
LINE
  5
105
100
AcDbEntity
  8
0
  6
CONTINUOUS
 62
       3
100
AcDbLine
 10
-1.12024824
 20
9.15443529
 30
0.0
 11
-1.12024824
 21
10.89820482
 31
0.0
  0
LINE
  5
106
100
AcDbEntity
  8
0
  6
CONTINUOUS
 62
       3
100
AcDbLine
 10
-2.10127363
 20
26.32672044
 30
0.0
 11
-2.10127363
 21
24.58295091
 31
0.0
  0
LINE
  5
107
100
AcDbEntity
  8
0
  6
CONTINUOUS
 62
       3
100
AcDbLine
 10
-2.10127363
 20
24.58295091
 30
0.0
 11
-1.12024824
 21
24.58295091
 31
0.0
  0
LINE
  5
108
100
AcDbEntity
  8
0
  6
CONTINUOUS
 62
       3
100
AcDbLine
 10
-1.12024824
 20
29.72589281
 30
0.0
 11
-1.12024824
 21
31.46966234
 31
0.0
  0
LINE
  5
109
100
AcDbEntity
  8
0
  6
CONTINUOUS
 62
       3
100
AcDbLine
 10
-2.10127363
 20
16.04083666
 30
0.0
 11
-2.10127363
 21
14.29737718
 31
0.0
  0
LINE
  5
10A
100
AcDbEntity
  8
0
  6
CONTINUOUS
 62
       3
100
AcDbLine
 10
-1.18381025
 20
7.02340258
 30
0.0
 11
-1.18381025
 21
2.55235766
 31
0.0
  0
LINE
  5
10B
100
AcDbEntity
  8
0
  6
CONTINUOUS
 62
       3
100
AcDbLine
 10
-1.1565251
 20
38.0168596
 30
0.0
 11
-1.1565251
 21
33.54674486
 31
0.0
  0
LINE
  5
10C
100
AcDbEntity
  8
0
  6
CONTINUOUS
 62
       3
100
AcDbLine
 10
-1.12024824
 20
10.89820482
 30
0.0
 11
-2.10127363
 21
10.89820482
 31
0.0
  0
LINE
  5
10D
100
AcDbEntity
  8
0
  6
CONTINUOUS
 62
       3
100
AcDbLine
 10
-1.12024824
 20
31.46966234
 30
0.0
 11
-2.10127363
 21
31.46966234
 31
0.0
  0
LINE
  5
10E
100
AcDbEntity
  8
0
  6
CONTINUOUS
 62
       3
100
AcDbLine
 10
-61.208387
 20
12.89529222
 30
0.0
 11
-52.65045976
 21
12.89529222
 31
0.0
  0
LINE
  5
10F
100
AcDbEntity
  8
0
  6
CONTINUOUS
 62
       3
100
AcDbLine
 10
-62.18321122
 20
33.60193529
 30
0.0
 11
-62.18321122
 21
6.9865056
 31
0.0
  0
LINE
  5
110
100
AcDbEntity
  8
0
  6
CONTINUOUS
 62
       3
100
AcDbLine
 10
-56.60114211
 20
5.22001472
 30
0.0
 11
-56.61371615
 21
5.05171344
 31
0.0
  0
LINE
  5
111
100
AcDbEntity
  8
0
  6
CONTINUOUS
 62
       3
100
AcDbLine
 10
-56.4356012
 20
4.25370208
 30
0.0
 11
-56.35690682
 21
4.11428655
 31
0.0
  0
LINE
  5
112
100
AcDbEntity
  8
0
  6
CONTINUOUS
 62
       3
100
AcDbLine
 10
-55.79242552
 20
3.56287219
 30
0.0
 11
-55.65097214
 21
3.48738494
 31
0.0
  0
LINE
  5
113
100
AcDbEntity
  8
0
  6
CONTINUOUS
 62
       3
100
AcDbLine
 10
-56.53078661
 20
34.92164232
 30
0.0
 11
-56.46538231
 21
34.77444772
 31
0.0
  0
LINE
  5
114
100
AcDbEntity
  8
0
  6
CONTINUOUS
 62
       3
100
AcDbLine
 10
-56.19272989
 20
34.38306745
 30
0.0
 11
-56.07905678
 21
34.27203273
 31
0.0
  0
LINE
  5
115
100
AcDbEntity
  8
0
  6
CONTINUOUS
 62
       3
100
AcDbLine
 10
-54.24280462
 20
34.0085064
 30
0.0
 11
-54.10135745
 21
34.08394494
 31
0.0
  0
LINE
  5
116
100
AcDbEntity
  8
0
  6
CONTINUOUS
 62
       3
100
AcDbLine
 10
-53.4580187
 20
34.77444772
 30
0.0
 11
-53.39257025
 21
34.92164232
 31
0.0
  0
LINE
  5
117
100
AcDbEntity
  8
0
  6
CONTINUOUS
 62
       3
100
AcDbLine
 10
-57.79650224
 20
12.89529222
 30
0.0
 11
-57.79650224
 21
16.99147631
 31
0.0
  0
LINE
  5
118
100
AcDbEntity
  8
0
  6
CONTINUOUS
 62
       3
100
AcDbLine
 10
-58.0169539
 20
2.50522875
 30
0.0
 11
-51.91283036
 21
2.50522875
 31
0.0
  0
LINE
  5
119
100
AcDbEntity
  8
0
  6
CONTINUOUS
 62
       3
100
AcDbLine
 10
-61.208387
 20
7.54399096
 30
0.0
 11
-52.65045976
 21
7.54399096
 31
0.0
  0
LINE
  5
11A
100
AcDbEntity
  8
0
  6
CONTINUOUS
 62
       3
100
AcDbLine
 10
-61.208387
 20
11.64110521
 30
0.0
 11
-61.208387
 21
7.54399096
 31
0.0
  0
LINE
  5
11B
100
AcDbEntity
  8
0
  6
CONTINUOUS
 62
       3
100
AcDbLine
 10
-55.98852138
 20
6.31856906
 30
0.0
 11
-56.10735315
 21
6.21289345
 31
0.0
  0
LINE
  5
11C
100
AcDbEntity
  8
0
  6
CONTINUOUS
 62
       3
100
AcDbLine
 10
-55.65097214
 20
3.48738494
 30
0.0
 11
-55.50188132
 21
3.42538388
 31
0.0
  0
LINE
  5
11D
100
AcDbEntity
  8
0
  6
CONTINUOUS
 62
       3
100
AcDbLine
 10
-53.93817279
 20
3.65103664
 30
0.0
 11
-53.81445063
 21
3.7510693
 31
0.0
  0
LINE
  5
11E
100
AcDbEntity
  8
0
  6
CONTINUOUS
 62
       3
100
AcDbLine
 10
-53.42812509
 20
4.25370208
 30
0.0
 11
-53.3627208
 21
4.40094082
 31
0.0
  0
LINE
  5
11F
100
AcDbEntity
  8
0
  6
CONTINUOUS
 62
       3
100
AcDbLine
 10
-53.33525021
 20
5.540814
 30
0.0
 11
-53.39371273
 21
5.69169488
 31
0.0
  0
LINE
  5
120
100
AcDbEntity
  8
0
  6
CONTINUOUS
 62
       3
100
AcDbLine
 10
-56.46538231
 20
34.77444772
 30
0.0
 11
-56.38669992
 21
34.6350822
 31
0.0
  0
LINE
  5
121
100
AcDbEntity
  8
0
  6
CONTINUOUS
 62
       3
100
AcDbLine
 10
-55.37610074
 20
33.8988763
 30
0.0
 11
-55.21424227
 21
33.86629927
 31
0.0
  0
LINE
  5
122
100
AcDbEntity
  8
0
  6
CONTINUOUS
 62
       3
100
AcDbLine
 10
-61.208387
 20
22.34277757
 30
0.0
 11
-61.208387
 21
18.24566332
 31
0.0
  0
LINE
  5
123
100
AcDbEntity
  8
0
  6
CONTINUOUS
 62
       3
100
AcDbLine
 10
-56.39786389
 20
5.83515182
 30
0.0
 11
-56.47001796
 21
5.69169488
 31
0.0
  0
LINE
  5
124
100
AcDbEntity
  8
0
  6
CONTINUOUS
 62
       3
100
AcDbLine
 10
-56.47001796
 20
5.69169488
 30
0.0
 11
-56.52848661
 21
5.540814
 31
0.0
  0
LINE
  5
125
100
AcDbEntity
  8
0
  6
CONTINUOUS
 62
       3
100
AcDbLine
 10
-56.26573662
 20
3.98350325
 30
0.0
 11
-56.162897
 21
3.86216117
 31
0.0
  0
LINE
  5
126
100
AcDbEntity
  8
0
  6
CONTINUOUS
 62
       3
100
AcDbLine
 10
-54.00354999
 20
6.41277791
 30
0.0
 11
-54.1408321
 21
6.49471147
 31
0.0
  0
LINE
  5
127
100
AcDbEntity
  8
0
  6
CONTINUOUS
 62
       3
100
AcDbLine
 10
-54.96194657
 20
37.21256761
 30
0.0
 11
-55.13131053
 21
37.20414564
 31
0.0
  0
LINE
  5
128
100
AcDbEntity
  8
0
  6
CONTINUOUS
 62
       3
100
AcDbLine
 10
-55.45482565
 20
37.13918777
 30
0.0
 11
-55.60736229
 21
37.08426379
 31
0.0
  0
LINE
  5
129
100
AcDbEntity
  8
0
  6
CONTINUOUS
 62
       3
100
AcDbLine
 10
-54.709636
 20
33.86629927
 30
0.0
 11
-54.54775289
 21
33.8988763
 31
0.0
  0
LINE
  5
12A
100
AcDbEntity
  8
0
  6
CONTINUOUS
 62
       3
100
AcDbLine
 10
-53.34121476
 20
35.07585873
 30
0.0
 11
-53.3047612
 21
35.2362897
 31
0.0
  0
LINE
  5
12B
100
AcDbEntity
  8
0
  6
CONTINUOUS
 62
       3
100
AcDbLine
 10
-53.3047612
 20
35.2362897
 30
0.0
 11
-53.28401858
 21
35.40212795
 31
0.0
  0
LINE
  5
12C
100
AcDbEntity
  8
0
  6
CONTINUOUS
 62
       3
100
AcDbLine
 10
-52.65045976
 20
23.59665453
 30
0.0
 11
-52.65045976
 21
27.69314867
 31
0.0
  0
LINE
  5
12D
100
AcDbEntity
  8
0
  6
CONTINUOUS
 62
       3
100
AcDbLine
 10
-54.93156083
 20
6.69194994
 30
0.0
 11
-55.10103237
 21
6.68352136
 31
0.0
  0
LINE
  5
12E
100
AcDbEntity
  8
0
  6
CONTINUOUS
 62
       3
100
AcDbLine
 10
-56.50101336
 20
4.40094082
 30
0.0
 11
-56.4356012
 21
4.25370208
 31
0.0
  0
LINE
  5
12F
100
AcDbEntity
  8
0
  6
CONTINUOUS
 62
       3
100
AcDbLine
 10
-56.35690682
 20
4.11428655
 30
0.0
 11
-56.26573662
 21
3.98350325
 31
0.0
  0
LINE
  5
130
100
AcDbEntity
  8
0
  6
CONTINUOUS
 62
       3
100
AcDbLine
 10
-54.2125352
 20
3.48738494
 30
0.0
 11
-54.07113673
 21
3.56287219
 31
0.0
  0
LINE
  5
131
100
AcDbEntity
  8
0
  6
CONTINUOUS
 62
       3
100
AcDbLine
 10
-55.7526753
 20
37.01545107
 30
0.0
 11
-55.88995742
 21
36.93355556
 31
0.0
  0
LINE
  5
132
100
AcDbEntity
  8
0
  6
CONTINUOUS
 62
       3
100
AcDbLine
 10
-56.61853186
 20
35.2362897
 30
0.0
 11
-56.58210554
 21
35.07585873
 31
0.0
  0
LINE
  5
133
100
AcDbEntity
  8
0
  6
CONTINUOUS
 62
       3
100
AcDbLine
 10
-56.58210554
 20
35.07585873
 30
0.0
 11
-56.53078661
 21
34.92164232
 31
0.0
  0
LINE
  5
134
100
AcDbEntity
  8
0
  6
CONTINUOUS
 62
       3
100
AcDbLine
 10
-53.84456202
 20
34.27203273
 30
0.0
 11
-53.73083175
 21
34.38306745
 31
0.0
  0
LINE
  5
135
100
AcDbEntity
  8
0
  6
CONTINUOUS
 62
       3
100
AcDbLine
 10
-53.73083175
 20
34.38306745
 30
0.0
 11
-53.62795844
 21
34.50435302
 31
0.0
  0
LINE
  5
136
100
AcDbEntity
  8
0
  6
CONTINUOUS
 62
       3
100
AcDbLine
 10
-53.39257025
 20
34.92164232
 30
0.0
 11
-53.34121476
 21
35.07585873
 31
0.0
  0
LINE
  5
137
100
AcDbEntity
  8
0
  6
CONTINUOUS
 62
       3
100
AcDbLine
 10
-61.208387
 20
33.04507005
 30
0.0
 11
-61.208387
 21
28.94795579
 31
0.0
  0
LINE
  5
138
100
AcDbEntity
  8
0
  6
CONTINUOUS
 62
       3
100
AcDbLine
 10
-61.208387
 20
23.59665453
 30
0.0
 11
-52.65045976
 21
23.59665453
 31
0.0
  0
LINE
  5
139
100
AcDbEntity
  8
0
  6
CONTINUOUS
 62
       3
100
AcDbLine
 10
-61.208387
 20
18.24566332
 30
0.0
 11
-52.65045976
 21
18.24566332
 31
0.0
  0
LINE
  5
13A
100
AcDbEntity
  8
0
  6
CONTINUOUS
 62
       3
100
AcDbLine
 10
-52.65045976
 20
16.99209642
 30
0.0
 11
-61.208387
 21
16.99209642
 31
0.0
  0
LINE
  5
13B
100
AcDbEntity
  8
0
  6
CONTINUOUS
 62
       3
100
AcDbLine
 10
-55.57733101
 20
6.56356115
 30
0.0
 11
-55.72270391
 21
6.49471147
 31
0.0
  0
LINE
  5
13C
100
AcDbEntity
  8
0
  6
CONTINUOUS
 62
       3
100
AcDbLine
 10
-56.61371615
 20
5.05171344
 30
0.0
 11
-56.6094926
 21
4.88150644
 31
0.0
  0
LINE
  5
13D
100
AcDbEntity
  8
0
  6
CONTINUOUS
 62
       3
100
AcDbLine
 10
-55.18401289
 20
3.34507636
 30
0.0
 11
-55.01684809
 21
3.32838789
 31
0.0
  0
LINE
  5
13E
100
AcDbEntity
  8
0
  6
CONTINUOUS
 62
       3
100
AcDbLine
 10
-54.67926513
 20
3.34507636
 30
0.0
 11
-54.51740666
 21
3.37767803
 31
0.0
  0
LINE
  5
13F
100
AcDbEntity
  8
0
  6
CONTINUOUS
 62
       3
100
AcDbLine
 10
-53.5508757
 20
5.97037627
 30
0.0
 11
-53.64796162
 21
6.09655967
 31
0.0
  0
LINE
  5
140
100
AcDbEntity
  8
0
  6
CONTINUOUS
 62
       3
100
AcDbLine
 10
-53.75630749
 20
6.21289345
 30
0.0
 11
-53.87510603
 21
6.31856906
 31
0.0
  0
LINE
  5
141
100
AcDbEntity
  8
0
  6
CONTINUOUS
 62
       3
100
AcDbLine
 10
-56.24554578
 20
36.61743194
 30
0.0
 11
-56.34263171
 21
36.49126491
 31
0.0
  0
LINE
  5
142
100
AcDbEntity
  8
0
  6
CONTINUOUS
 62
       3
100
AcDbLine
 10
-53.28401858
 20
35.40212795
 30
0.0
 11
-53.27979169
 21
35.57235885
 31
0.0
  0
LINE
  5
143
100
AcDbEntity
  8
0
  6
CONTINUOUS
 62
       3
100
AcDbLine
 10
-54.03374454
 20
36.93355556
 30
0.0
 11
-54.17107785
 21
37.01545107
 31
0.0
  0
LINE
  5
144
100
AcDbEntity
  8
0
  6
CONTINUOUS
 62
       3
100
AcDbLine
 10
-57.79650224
 20
28.94795579
 30
0.0
 11
-57.79650224
 21
33.04444993
 31
0.0
  0
LINE
  5
145
100
AcDbEntity
  8
0
  6
CONTINUOUS
 62
       3
100
AcDbLine
 10
-57.79650224
 20
23.59665453
 30
0.0
 11
-57.79650224
 21
27.69314867
 31
0.0
  0
LINE
  5
146
100
AcDbEntity
  8
0
  6
CONTINUOUS
 62
       3
100
AcDbLine
 10
-51.91283036
 20
2.50522875
 30
0.0
 11
-51.91283036
 21
6.92046312
 31
0.0
  0
LINE
  5
147
100
AcDbEntity
  8
0
  6
CONTINUOUS
 62
       3
100
AcDbLine
 10
-51.91283036
 20
6.92046312
 30
0.0
 11
-58.0169539
 21
6.92046312
 31
0.0
  0
LINE
  5
148
100
AcDbEntity
  8
0
  6
CONTINUOUS
 62
       3
100
AcDbLine
 10
-56.10735315
 20
6.21289345
 30
0.0
 11
-56.21572509
 21
6.09655967
 31
0.0
  0
LINE
  5
149
100
AcDbEntity
  8
0
  6
CONTINUOUS
 62
       3
100
AcDbLine
 10
-54.36156093
 20
3.42538388
 30
0.0
 11
-54.2125352
 21
3.48738494
 31
0.0
  0
LINE
  5
14A
100
AcDbEntity
  8
0
  6
CONTINUOUS
 62
       3
100
AcDbLine
 10
-53.25424912
 20
4.88150644
 30
0.0
 11
-53.25002563
 21
5.05171344
 31
0.0
  0
LINE
  5
14B
100
AcDbEntity
  8
0
  6
CONTINUOUS
 62
       3
100
AcDbLine
 10
-56.49979468
 20
36.21257788
 30
0.0
 11
-56.5582572
 21
36.0616698
 31
0.0
  0
LINE
  5
14C
100
AcDbEntity
  8
0
  6
CONTINUOUS
 62
       3
100
AcDbLine
 10
-53.53675109
 20
34.6350822
 30
0.0
 11
-53.4580187
 21
34.77444772
 31
0.0
  0
LINE
  5
14D
100
AcDbEntity
  8
0
  6
CONTINUOUS
 62
       3
100
AcDbLine
 10
-53.9052457
 20
36.83938323
 30
0.0
 11
-54.03374454
 21
36.93355556
 31
0.0
  0
LINE
  5
14E
100
AcDbEntity
  8
0
  6
CONTINUOUS
 62
       3
100
AcDbLine
 10
-61.208387
 20
27.69314867
 30
0.0
 11
-61.208387
 21
23.59665453
 31
0.0
  0
LINE
  5
14F
100
AcDbEntity
  8
0
  6
CONTINUOUS
 62
       3
100
AcDbLine
 10
-52.65045976
 20
11.64110521
 30
0.0
 11
-61.208387
 21
11.64110521
 31
0.0
  0
LINE
  5
150
100
AcDbEntity
  8
0
  6
CONTINUOUS
 62
       3
100
AcDbLine
 10
-51.2573665
 20
33.60193529
 30
0.0
 11
-66.75316483
 21
33.60193529
 31
0.0
  0
LINE
  5
151
100
AcDbEntity
  8
0
  6
CONTINUOUS
 62
       3
100
AcDbLine
 10
-56.162897
 20
3.86216117
 30
0.0
 11
-56.04919434
 21
3.7510693
 31
0.0
  0
LINE
  5
152
100
AcDbEntity
  8
0
  6
CONTINUOUS
 62
       3
100
AcDbLine
 10
-54.07113673
 20
3.56287219
 30
0.0
 11
-53.93817279
 21
3.65103664
 31
0.0
  0
LINE
  5
153
100
AcDbEntity
  8
0
  6
CONTINUOUS
 62
       3
100
AcDbLine
 10
-53.3627208
 20
4.40094082
 30
0.0
 11
-53.31140186
 21
4.5551938
 31
0.0
  0
LINE
  5
154
100
AcDbEntity
  8
0
  6
CONTINUOUS
 62
       3
100
AcDbLine
 10
-55.13131053
 20
37.20414564
 30
0.0
 11
-55.29587265
 21
37.17941704
 31
0.0
  0
LINE
  5
155
100
AcDbEntity
  8
0
  6
CONTINUOUS
 62
       3
100
AcDbLine
 10
-55.88995742
 20
36.93355556
 30
0.0
 11
-56.01840138
 21
36.83938323
 31
0.0
  0
LINE
  5
156
100
AcDbEntity
  8
0
  6
CONTINUOUS
 62
       3
100
AcDbLine
 10
-56.13719992
 20
36.73374003
 30
0.0
 11
-56.24554578
 21
36.61743194
 31
0.0
  0
LINE
  5
157
100
AcDbEntity
  8
0
  6
CONTINUOUS
 62
       3
100
AcDbLine
 10
-54.46901189
 20
37.13918777
 30
0.0
 11
-54.62799463
 21
37.17941704
 31
0.0
  0
LINE
  5
158
100
AcDbEntity
  8
0
  6
CONTINUOUS
 62
       3
100
AcDbLine
 10
-54.62799463
 20
37.17941704
 30
0.0
 11
-54.79257586
 21
37.20414564
 31
0.0
  0
LINE
  5
159
100
AcDbEntity
  8
0
  6
CONTINUOUS
 62
       3
100
AcDbLine
 10
-52.65045976
 20
27.69314867
 30
0.0
 11
-61.208387
 21
27.69314867
 31
0.0
  0
LINE
  5
15A
100
AcDbEntity
  8
0
  6
CONTINUOUS
 62
       3
100
AcDbLine
 10
-66.75316483
 20
6.9865056
 30
0.0
 11
-51.2573665
 21
6.9865056
 31
0.0
  0
LINE
  5
15B
100
AcDbEntity
  8
0
  6
CONTINUOUS
 62
       3
100
AcDbLine
 10
-55.92543505
 20
3.65103664
 30
0.0
 11
-55.79242552
 21
3.56287219
 31
0.0
  0
LINE
  5
15C
100
AcDbEntity
  8
0
  6
CONTINUOUS
 62
       3
100
AcDbLine
 10
-54.51740666
 20
3.37767803
 30
0.0
 11
-54.36156093
 21
3.42538388
 31
0.0
  0
LINE
  5
15D
100
AcDbEntity
  8
0
  6
CONTINUOUS
 62
       3
100
AcDbLine
 10
-53.81445063
 20
3.7510693
 30
0.0
 11
-53.70077752
 21
3.86216117
 31
0.0
  0
LINE
  5
15E
100
AcDbEntity
  8
0
  6
CONTINUOUS
 62
       3
100
AcDbLine
 10
-53.27497555
 20
4.715652
 30
0.0
 11
-53.25424912
 21
4.88150644
 31
0.0
  0
LINE
  5
15F
100
AcDbEntity
  8
0
  6
CONTINUOUS
 62
       3
100
AcDbLine
 10
-53.29127667
 20
5.38331776
 30
0.0
 11
-53.33525021
 21
5.540814
 31
0.0
  0
LINE
  5
160
100
AcDbEntity
  8
0
  6
CONTINUOUS
 62
       3
100
AcDbLine
 10
-52.65045976
 20
28.94795579
 30
0.0
 11
-52.65045976
 21
33.04507005
 31
0.0
  0
LINE
  5
161
100
AcDbEntity
  8
0
  6
CONTINUOUS
 62
       3
100
AcDbLine
 10
-52.65045976
 20
18.24566332
 30
0.0
 11
-52.65045976
 21
22.34277757
 31
0.0
  0
LINE
  5
162
100
AcDbEntity
  8
0
  6
CONTINUOUS
 62
       3
100
AcDbLine
 10
-52.65045976
 20
7.54399096
 30
0.0
 11
-52.65045976
 21
11.64110521
 31
0.0
  0
LINE
  5
163
100
AcDbEntity
  8
0
  6
CONTINUOUS
 62
       3
100
AcDbLine
 10
-55.01684809
 20
3.32838789
 30
0.0
 11
-54.84632908
 21
3.32838789
 31
0.0
  0
LINE
  5
164
100
AcDbEntity
  8
0
  6
CONTINUOUS
 62
       3
100
AcDbLine
 10
-53.87510603
 20
6.31856906
 30
0.0
 11
-54.00354999
 21
6.41277791
 31
0.0
  0
LINE
  5
165
100
AcDbEntity
  8
0
  6
CONTINUOUS
 62
       3
100
AcDbLine
 10
-56.5582572
 20
36.0616698
 30
0.0
 11
-56.60223073
 21
35.90412663
 31
0.0
  0
LINE
  5
166
100
AcDbEntity
  8
0
  6
CONTINUOUS
 62
       3
100
AcDbLine
 10
-57.79650224
 20
7.54399096
 30
0.0
 11
-57.79650224
 21
11.64110521
 31
0.0
  0
LINE
  5
167
100
AcDbEntity
  8
0
  6
CONTINUOUS
 62
       3
100
AcDbLine
 10
-61.208387
 20
16.99209642
 30
0.0
 11
-61.208387
 21
12.89529222
 31
0.0
  0
LINE
  5
168
100
AcDbEntity
  8
0
  6
CONTINUOUS
 62
       3
100
AcDbLine
 10
-53.75488847
 20
6.19337572
 30
0.0
 11
-56.133658
 21
3.81398607
 31
0.0
  0
LINE
  5
169
100
AcDbEntity
  8
0
  6
CONTINUOUS
 62
       3
100
AcDbLine
 10
-55.72270391
 20
6.49471147
 30
0.0
 11
-55.86003617
 21
6.41277791
 31
0.0
  0
LINE
  5
16A
100
AcDbEntity
  8
0
  6
CONTINUOUS
 62
       3
100
AcDbLine
 10
-55.82237068
 20
34.08394494
 30
0.0
 11
-55.68097221
 21
34.0085064
 31
0.0
  0
LINE
  5
16B
100
AcDbEntity
  8
0
  6
CONTINUOUS
 62
       3
100
AcDbLine
 10
-55.68097221
 20
34.0085064
 30
0.0
 11
-55.53194647
 21
33.94654776
 31
0.0
  0
LINE
  5
16C
100
AcDbEntity
  8
0
  6
CONTINUOUS
 62
       3
100
AcDbLine
 10
-53.42358342
 20
36.21257788
 30
0.0
 11
-53.49577497
 21
36.3560449
 31
0.0
  0
LINE
  5
16D
100
AcDbEntity
  8
0
  6
CONTINUOUS
 62
       3
100
AcDbLine
 10
-52.65045976
 20
22.34277757
 30
0.0
 11
-61.208387
 21
22.34277757
 31
0.0
  0
LINE
  5
16E
100
AcDbEntity
  8
0
  6
CONTINUOUS
 62
       3
100
AcDbLine
 10
-56.21572509
 20
6.09655967
 30
0.0
 11
-56.3128308
 21
5.97037627
 31
0.0
  0
LINE
  5
16F
100
AcDbEntity
  8
0
  6
CONTINUOUS
 62
       3
100
AcDbLine
 10
-56.04919434
 20
3.7510693
 30
0.0
 11
-55.92543505
 21
3.65103664
 31
0.0
  0
LINE
  5
170
100
AcDbEntity
  8
0
  6
CONTINUOUS
 62
       3
100
AcDbLine
 10
-55.50188132
 20
3.42538388
 30
0.0
 11
-55.34595943
 21
3.37767803
 31
0.0
  0
LINE
  5
171
100
AcDbEntity
  8
0
  6
CONTINUOUS
 62
       3
100
AcDbLine
 10
-54.43868175
 20
6.6185184
 30
0.0
 11
-54.59763476
 21
6.65877466
 31
0.0
  0
LINE
  5
172
100
AcDbEntity
  8
0
  6
CONTINUOUS
 62
       3
100
AcDbLine
 10
-54.59763476
 20
6.65877466
 30
0.0
 11
-54.76219687
 21
6.68352136
 31
0.0
  0
LINE
  5
173
100
AcDbEntity
  8
0
  6
CONTINUOUS
 62
       3
100
AcDbLine
 10
-56.63090801
 20
35.74075432
 30
0.0
 11
-56.64348178
 21
35.57235885
 31
0.0
  0
LINE
  5
174
100
AcDbEntity
  8
0
  6
CONTINUOUS
 62
       3
100
AcDbLine
 10
-56.29554669
 20
34.50435302
 30
0.0
 11
-56.19272989
 21
34.38306745
 31
0.0
  0
LINE
  5
175
100
AcDbEntity
  8
0
  6
CONTINUOUS
 62
       3
100
AcDbLine
 10
-56.07905678
 20
34.27203273
 30
0.0
 11
-55.95533462
 21
34.17205614
 31
0.0
  0
LINE
  5
176
100
AcDbEntity
  8
0
  6
CONTINUOUS
 62
       3
100
AcDbLine
 10
-55.04717833
 20
33.84962395
 30
0.0
 11
-54.87671309
 21
33.84962395
 31
0.0
  0
LINE
  5
177
100
AcDbEntity
  8
0
  6
CONTINUOUS
 62
       3
100
AcDbLine
 10
-53.96834025
 20
34.17205614
 30
0.0
 11
-53.84456202
 21
34.27203273
 31
0.0
  0
LINE
  5
178
100
AcDbEntity
  8
0
  6
CONTINUOUS
 62
       3
100
AcDbLine
 10
-53.62795844
 20
34.50435302
 30
0.0
 11
-53.53675109
 21
34.6350822
 31
0.0
  0
LINE
  5
179
100
AcDbEntity
  8
0
  6
CONTINUOUS
 62
       3
100
AcDbLine
 10
-53.29237546
 20
35.74075432
 30
0.0
 11
-53.32107467
 21
35.90412663
 31
0.0
  0
LINE
  5
17A
100
AcDbEntity
  8
0
  6
CONTINUOUS
 62
       3
100
AcDbLine
 10
-53.58084596
 20
36.49126491
 30
0.0
 11
-53.67798741
 21
36.61743194
 31
0.0
  0
LINE
  5
17B
100
AcDbEntity
  8
0
  6
CONTINUOUS
 62
       3
100
AcDbLine
 10
-53.67798741
 20
36.61743194
 30
0.0
 11
-53.78639032
 21
36.73374003
 31
0.0
  0
LINE
  5
17C
100
AcDbEntity
  8
0
  6
CONTINUOUS
 62
       3
100
AcDbLine
 10
-54.79257586
 20
37.20414564
 30
0.0
 11
-54.96194657
 21
37.21256761
 31
0.0
  0
LINE
  5
17D
100
AcDbEntity
  8
0
  6
CONTINUOUS
 62
       3
100
AcDbLine
 10
-58.0169539
 20
6.92046312
 30
0.0
 11
-58.0169539
 21
2.50522875
 31
0.0
  0
LINE
  5
17E
100
AcDbEntity
  8
0
  6
CONTINUOUS
 62
       3
100
AcDbLine
 10
-51.2573665
 20
6.9865056
 30
0.0
 11
-51.2573665
 21
33.60193529
 31
0.0
  0
LINE
  5
17F
100
AcDbEntity
  8
0
  6
CONTINUOUS
 62
       3
100
AcDbLine
 10
-56.52848661
 20
5.540814
 30
0.0
 11
-56.57246346
 21
5.38331776
 31
0.0
  0
LINE
  5
180
100
AcDbEntity
  8
0
  6
CONTINUOUS
 62
       3
100
AcDbLine
 10
-56.58876546
 20
4.715652
 30
0.0
 11
-56.55233691
 21
4.5551938
 31
0.0
  0
LINE
  5
181
100
AcDbEntity
  8
0
  6
CONTINUOUS
 62
       3
100
AcDbLine
 10
-55.34595943
 20
3.37767803
 30
0.0
 11
-55.18401289
 21
3.34507636
 31
0.0
  0
LINE
  5
182
100
AcDbEntity
  8
0
  6
CONTINUOUS
 62
       3
100
AcDbLine
 10
-53.26259939
 20
5.22001472
 30
0.0
 11
-53.29127667
 21
5.38331776
 31
0.0
  0
LINE
  5
183
100
AcDbEntity
  8
0
  6
CONTINUOUS
 62
       3
100
AcDbLine
 10
-55.29587265
 20
37.17941704
 30
0.0
 11
-55.45482565
 21
37.13918777
 31
0.0
  0
LINE
  5
184
100
AcDbEntity
  8
0
  6
CONTINUOUS
 62
       3
100
AcDbLine
 10
-55.95533462
 20
34.17205614
 30
0.0
 11
-55.82237068
 21
34.08394494
 31
0.0
  0
LINE
  5
185
100
AcDbEntity
  8
0
  6
CONTINUOUS
 62
       3
100
AcDbLine
 10
-54.39187276
 20
33.94654776
 30
0.0
 11
-54.24280462
 21
34.0085064
 31
0.0
  0
LINE
  5
186
100
AcDbEntity
  8
0
  6
CONTINUOUS
 62
       3
100
AcDbLine
 10
-54.10135745
 20
34.08394494
 30
0.0
 11
-53.96834025
 21
34.17205614
 31
0.0
  0
LINE
  5
187
100
AcDbEntity
  8
0
  6
CONTINUOUS
 62
       3
100
AcDbLine
 10
-53.32107467
 20
35.90412663
 30
0.0
 11
-53.36508032
 21
36.0616698
 31
0.0
  0
LINE
  5
188
100
AcDbEntity
  8
0
  6
CONTINUOUS
 62
       3
100
AcDbLine
 10
-53.78639032
 20
36.73374003
 30
0.0
 11
-53.9052457
 21
36.83938323
 31
0.0
  0
LINE
  5
189
100
AcDbEntity
  8
0
  6
CONTINUOUS
 62
       3
100
AcDbLine
 10
-52.65045976
 20
33.04507005
 30
0.0
 11
-61.208387
 21
33.04507005
 31
0.0
  0
LINE
  5
18A
100
AcDbEntity
  8
0
  6
CONTINUOUS
 62
       3
100
AcDbLine
 10
-51.91283036
 20
38.0168596
 30
0.0
 11
-58.0169539
 21
38.0168596
 31
0.0
  0
LINE
  5
18B
100
AcDbEntity
  8
0
  6
CONTINUOUS
 62
       3
100
AcDbLine
 10
-53.31140186
 20
4.5551938
 30
0.0
 11
-53.27497555
 21
4.715652
 31
0.0
  0
LINE
  5
18C
100
AcDbEntity
  8
0
  6
CONTINUOUS
 62
       3
100
AcDbLine
 10
-56.60223073
 20
35.90412663
 30
0.0
 11
-56.63090801
 21
35.74075432
 31
0.0
  0
LINE
  5
18D
100
AcDbEntity
  8
0
  6
CONTINUOUS
 62
       3
100
AcDbLine
 10
-53.49577497
 20
36.3560449
 30
0.0
 11
-53.58084596
 21
36.49126491
 31
0.0
  0
LINE
  5
18E
100
AcDbEntity
  8
0
  6
CONTINUOUS
 62
       3
100
AcDbLine
 10
-54.31643663
 20
37.08426379
 30
0.0
 11
-54.46901189
 21
37.13918777
 31
0.0
  0
LINE
  5
18F
100
AcDbEntity
  8
0
  6
CONTINUOUS
 62
       3
100
AcDbLine
 10
-57.79650224
 20
18.24566332
 30
0.0
 11
-57.79650224
 21
22.34277757
 31
0.0
  0
LINE
  5
190
100
AcDbEntity
  8
0
  6
CONTINUOUS
 62
       3
100
AcDbLine
 10
-53.78465409
 20
36.71461351
 30
0.0
 11
-56.16404374
 21
34.33460374
 31
0.0
  0
LINE
  5
191
100
AcDbEntity
  8
0
  6
CONTINUOUS
 62
       3
100
AcDbLine
 10
-55.10103237
 20
6.68352136
 30
0.0
 11
-55.26568885
 21
6.65877466
 31
0.0
  0
LINE
  5
192
100
AcDbEntity
  8
0
  6
CONTINUOUS
 62
       3
100
AcDbLine
 10
-55.86003617
 20
6.41277791
 30
0.0
 11
-55.98852138
 21
6.31856906
 31
0.0
  0
LINE
  5
193
100
AcDbEntity
  8
0
  6
CONTINUOUS
 62
       3
100
AcDbLine
 10
-56.57246346
 20
5.38331776
 30
0.0
 11
-56.60114211
 21
5.22001472
 31
0.0
  0
LINE
  5
194
100
AcDbEntity
  8
0
  6
CONTINUOUS
 62
       3
100
AcDbLine
 10
-54.84632908
 20
3.32838789
 30
0.0
 11
-54.67926513
 21
3.34507636
 31
0.0
  0
LINE
  5
195
100
AcDbEntity
  8
0
  6
CONTINUOUS
 62
       3
100
AcDbLine
 10
-53.70077752
 20
3.86216117
 30
0.0
 11
-53.59796071
 21
3.98350325
 31
0.0
  0
LINE
  5
196
100
AcDbEntity
  8
0
  6
CONTINUOUS
 62
       3
100
AcDbLine
 10
-53.46585698
 20
5.83515182
 30
0.0
 11
-53.5508757
 21
5.97037627
 31
0.0
  0
LINE
  5
197
100
AcDbEntity
  8
0
  6
CONTINUOUS
 62
       3
100
AcDbLine
 10
-53.64796162
 20
6.09655967
 30
0.0
 11
-53.75630749
 21
6.21289345
 31
0.0
  0
LINE
  5
198
100
AcDbEntity
  8
0
  6
CONTINUOUS
 62
       3
100
AcDbLine
 10
-56.01840138
 20
36.83938323
 30
0.0
 11
-56.13719992
 21
36.73374003
 31
0.0
  0
LINE
  5
199
100
AcDbEntity
  8
0
  6
CONTINUOUS
 62
       3
100
AcDbLine
 10
-55.53194647
 20
33.94654776
 30
0.0
 11
-55.37610074
 21
33.8988763
 31
0.0
  0
LINE
  5
19A
100
AcDbEntity
  8
0
  6
CONTINUOUS
 62
       3
100
AcDbLine
 10
-53.27979169
 20
35.57235885
 30
0.0
 11
-53.29237546
 21
35.74075432
 31
0.0
  0
LINE
  5
19B
100
AcDbEntity
  8
0
  6
CONTINUOUS
 62
       3
100
AcDbLine
 10
-61.208387
 20
28.94795579
 30
0.0
 11
-52.65045976
 21
28.94795579
 31
0.0
  0
LINE
  5
19C
100
AcDbEntity
  8
0
  6
CONTINUOUS
 62
       3
100
AcDbLine
 10
-51.91283036
 20
33.60193529
 30
0.0
 11
-51.91283036
 21
38.0168596
 31
0.0
  0
LINE
  5
19D
100
AcDbEntity
  8
0
  6
CONTINUOUS
 62
       3
100
AcDbLine
 10
-55.26568885
 20
6.65877466
 30
0.0
 11
-55.42472386
 21
6.6185184
 31
0.0
  0
LINE
  5
19E
100
AcDbEntity
  8
0
  6
CONTINUOUS
 62
       3
100
AcDbLine
 10
-55.42472386
 20
6.6185184
 30
0.0
 11
-55.57733101
 21
6.56356115
 31
0.0
  0
LINE
  5
19F
100
AcDbEntity
  8
0
  6
CONTINUOUS
 62
       3
100
AcDbLine
 10
-56.3128308
 20
5.97037627
 30
0.0
 11
-56.39786389
 21
5.83515182
 31
0.0
  0
LINE
  5
1A0
100
AcDbEntity
  8
0
  6
CONTINUOUS
 62
       3
100
AcDbLine
 10
-53.59796071
 20
3.98350325
 30
0.0
 11
-53.50680749
 21
4.11428655
 31
0.0
  0
LINE
  5
1A1
100
AcDbEntity
  8
0
  6
CONTINUOUS
 62
       3
100
AcDbLine
 10
-53.50680749
 20
4.11428655
 30
0.0
 11
-53.42812509
 21
4.25370208
 31
0.0
  0
LINE
  5
1A2
100
AcDbEntity
  8
0
  6
CONTINUOUS
 62
       3
100
AcDbLine
 10
-53.25002563
 20
5.05171344
 30
0.0
 11
-53.26259939
 21
5.22001472
 31
0.0
  0
LINE
  5
1A3
100
AcDbEntity
  8
0
  6
CONTINUOUS
 62
       3
100
AcDbLine
 10
-54.76219687
 20
6.68352136
 30
0.0
 11
-54.93156083
 21
6.69194994
 31
0.0
  0
LINE
  5
1A4
100
AcDbEntity
  8
0
  6
CONTINUOUS
 62
       3
100
AcDbLine
 10
-55.60736229
 20
37.08426379
 30
0.0
 11
-55.7526753
 21
37.01545107
 31
0.0
  0
LINE
  5
1A5
100
AcDbEntity
  8
0
  6
CONTINUOUS
 62
       3
100
AcDbLine
 10
-56.64348178
 20
35.57235885
 30
0.0
 11
-56.63925829
 21
35.40212795
 31
0.0
  0
LINE
  5
1A6
100
AcDbEntity
  8
0
  6
CONTINUOUS
 62
       3
100
AcDbLine
 10
-56.63925829
 20
35.40212795
 30
0.0
 11
-56.61853186
 21
35.2362897
 31
0.0
  0
LINE
  5
1A7
100
AcDbEntity
  8
0
  6
CONTINUOUS
 62
       3
100
AcDbLine
 10
-55.21424227
 20
33.86629927
 30
0.0
 11
-55.04717833
 21
33.84962395
 31
0.0
  0
LINE
  5
1A8
100
AcDbEntity
  8
0
  6
CONTINUOUS
 62
       3
100
AcDbLine
 10
-54.17107785
 20
37.01545107
 30
0.0
 11
-54.31643663
 21
37.08426379
 31
0.0
  0
LINE
  5
1A9
100
AcDbEntity
  8
0
  6
CONTINUOUS
 62
       3
100
AcDbLine
 10
-52.65045976
 20
12.89529222
 30
0.0
 11
-52.65045976
 21
16.99209642
 31
0.0
  0
LINE
  5
1AA
100
AcDbEntity
  8
0
  6
CONTINUOUS
 62
       3
100
AcDbLine
 10
-56.6094926
 20
4.88150644
 30
0.0
 11
-56.58876546
 21
4.715652
 31
0.0
  0
LINE
  5
1AB
100
AcDbEntity
  8
0
  6
CONTINUOUS
 62
       3
100
AcDbLine
 10
-53.39371273
 20
5.69169488
 30
0.0
 11
-53.46585698
 21
5.83515182
 31
0.0
  0
LINE
  5
1AC
100
AcDbEntity
  8
0
  6
CONTINUOUS
 62
       3
100
AcDbLine
 10
-54.28614511
 20
6.56356115
 30
0.0
 11
-54.43868175
 21
6.6185184
 31
0.0
  0
LINE
  5
1AD
100
AcDbEntity
  8
0
  6
CONTINUOUS
 62
       3
100
AcDbLine
 10
-56.34263171
 20
36.49126491
 30
0.0
 11
-56.42765042
 21
36.3560449
 31
0.0
  0
LINE
  5
1AE
100
AcDbEntity
  8
0
  6
CONTINUOUS
 62
       3
100
AcDbLine
 10
-56.42765042
 20
36.3560449
 30
0.0
 11
-56.49979468
 21
36.21257788
 31
0.0
  0
LINE
  5
1AF
100
AcDbEntity
  8
0
  6
CONTINUOUS
 62
       3
100
AcDbLine
 10
-54.87671309
 20
33.84962395
 30
0.0
 11
-54.709636
 21
33.86629927
 31
0.0
  0
LINE
  5
1B0
100
AcDbEntity
  8
0
  6
CONTINUOUS
 62
       3
100
AcDbLine
 10
-53.36508032
 20
36.0616698
 30
0.0
 11
-53.42358342
 21
36.21257788
 31
0.0
  0
LINE
  5
1B1
100
AcDbEntity
  8
0
  6
CONTINUOUS
 62
       3
100
AcDbLine
 10
-58.0169539
 20
38.0168596
 30
0.0
 11
-58.0169539
 21
33.60193529
 31
0.0
  0
LINE
  5
1B2
100
AcDbEntity
  8
0
  6
CONTINUOUS
 62
       3
100
AcDbLine
 10
-66.75316483
 20
33.60193529
 30
0.0
 11
-66.75316483
 21
6.9865056
 31
0.0
  0
LINE
  5
1B3
100
AcDbEntity
  8
0
  6
CONTINUOUS
 62
       3
100
AcDbLine
 10
-56.55233691
 20
4.5551938
 30
0.0
 11
-56.50101336
 21
4.40094082
 31
0.0
  0
LINE
  5
1B4
100
AcDbEntity
  8
0
  6
CONTINUOUS
 62
       3
100
AcDbLine
 10
-54.1408321
 20
6.49471147
 30
0.0
 11
-54.28614511
 21
6.56356115
 31
0.0
  0
LINE
  5
1B5
100
AcDbEntity
  8
0
  6
CONTINUOUS
 62
       3
100
AcDbLine
 10
-56.38669992
 20
34.6350822
 30
0.0
 11
-56.29554669
 21
34.50435302
 31
0.0
  0
LINE
  5
1B6
100
AcDbEntity
  8
0
  6
CONTINUOUS
 62
       3
100
AcDbLine
 10
-54.54775289
 20
33.8988763
 30
0.0
 11
-54.39187276
 21
33.94654776
 31
0.0
  0
LINE
  5
1B7
100
AcDbEntity
  8
0
  6
CONTINUOUS
 62
       3
100
AcDbLine
 10
-2.10127363
 20
14.29737718
 30
0.0
 11
-1.12024824
 21
14.29737718
 31
0.0
  0
LINE
  5
1B8
100
AcDbEntity
  8
0
  6
CONTINUOUS
 62
       3
100
AcDbLine
 10
-1.12024824
 20
26.32672044
 30
0.0
 11
-2.10127363
 21
26.32672044
 31
0.0
  0
TEXT
  5
1B9
100
AcDbEntity
  8
SLD-0_0
 62
       3
100
AcDbText
 10
77.25206379
 20
-78.70683259
 30
0.0
 40
5.0
  1
000
 72
       5
 11
92.25206379
 21
-78.70683259
 31
0.0
100
AcDbText
  0
ENDSEC
  0
SECTION
  2
OBJECTS
  0
DICTIONARY
  5
19
100
AcDbDictionary
  3
ACAD_GROUP
350
1A
  3
ACAD_MLINESTYLE
350
1B
  0
DICTIONARY
  5
1A
102
{ACAD_REACTORS
330
19
102
}
100
AcDbDictionary
  0
DICTIONARY
  5
1B
102
{ACAD_REACTORS
330
19
102
}
100
AcDbDictionary
  3
STANDARD
350
1C
  0
MLINESTYLE
  5
1C
102
{ACAD_REACTORS
330
1B
102
}
100
AcDbMlineStyle
  2
STANDARD
 70
       0
  3

 62
       0
 51
90.0
 52
90.0
 71
       2
 49
0.5
 62
     256
  6
BYLAYER
 49
-0.5
 62
     256
  6
BYLAYER
  0
ENDSEC
  0
EOF
