  0
SECTION
  2
HEADER
  9
$ACADVER
  1
AC1014
  9
$ACADMAINTVER
 70
       0
  9
$DWGCODEPAGE
  3
ANSI_932
  9
$INSBASE
 10
0.0
 20
0.0
 30
0.0
  9
$EXTMIN
 10
-107.07729291
 20
-63.09124203
 30
0.0
  9
$EXTMAX
 10
107.07729291
 20
63.09124203
 30
0.0
  9
$LIMMIN
 10
-113.76962372
 20
-67.03444466
  9
$LIMMAX
 10
113.76962372
 20
67.03444466
  9
$ORTHOMODE
 70
       0
  9
$REGENMODE
 70
       1
  9
$FILLMODE
 70
       1
  9
$QTEXTMODE
 70
       0
  9
$MIRRTEXT
 70
       1
  9
$DRAGMODE
 70
       2
  9
$LTSCALE
 40
1.0
  9
$OSMODE
 70
       0
  9
$ATTMODE
 70
       1
  9
$TEXTSIZE
 40
0.2
  9
$TRACEWID
 40
0.05
  9
$TEXTSTYLE
  7
STANDARD
  9
$CLAYER
  8
0
  9
$CELTYPE
  6
CONTINUOUS
  9
$CECOLOR
 62
     256
  9
$CELTSCALE
 40
1.0
  9
$DELOBJ
 70
       1
  9
$DISPSILH
 70
       0
  9
$DIMSCALE
 40
1.0
  9
$DIMASZ
 40
0.18
  9
$DIMEXO
 40
0.0625
  9
$DIMDLI
 40
0.38
  9
$DIMRND
 40
0.0
  9
$DIMDLE
 40
0.0
  9
$DIMEXE
 40
0.18
  9
$DIMTP
 40
0.0
  9
$DIMTM
 40
0.0
  9
$DIMTXT
 40
0.18
  9
$DIMCEN
 40
0.09
  9
$DIMTSZ
 40
0.0
  9
$DIMTOL
 70
       0
  9
$DIMLIM
 70
       0
  9
$DIMTIH
 70
       1
  9
$DIMTOH
 70
       1
  9
$DIMSE1
 70
       0
  9
$DIMSE2
 70
       0
  9
$DIMTAD
 70
       0
  9
$DIMZIN
 70
       0
  9
$DIMBLK
  1

  9
$DIMASO
 70
       1
  9
$DIMSHO
 70
       1
  9
$DIMPOST
  1

  9
$DIMAPOST
  1

  9
$DIMALT
 70
       0
  9
$DIMALTD
 70
       2
  9
$DIMALTF
 40
25.4
  9
$DIMLFAC
 40
1.0
  9
$DIMTOFL
 70
       0
  9
$DIMTVP
 40
0.0
  9
$DIMTIX
 70
       0
  9
$DIMSOXD
 70
       0
  9
$DIMSAH
 70
       0
  9
$DIMBLK1
  1

  9
$DIMBLK2
  1

  9
$DIMSTYLE
  2
STANDARD
  9
$DIMCLRD
 70
       0
  9
$DIMCLRE
 70
       0
  9
$DIMCLRT
 70
       0
  9
$DIMTFAC
 40
1.0
  9
$DIMGAP
 40
0.09
  9
$DIMJUST
 70
       0
  9
$DIMSD1
 70
       0
  9
$DIMSD2
 70
       0
  9
$DIMTOLJ
 70
       1
  9
$DIMTZIN
 70
       0
  9
$DIMALTZ
 70
       0
  9
$DIMALTTZ
 70
       0
  9
$DIMFIT
 70
       3
  9
$DIMUPT
 70
       0
  9
$DIMUNIT
 70
       2
  9
$DIMDEC
 70
       4
  9
$DIMTDEC
 70
       4
  9
$DIMALTU
 70
       2
  9
$DIMALTTD
 70
       2
  9
$DIMTXSTY
  7
STANDARD
  9
$DIMAUNIT
 70
       0
  9
$LUNITS
 70
       2
  9
$LUPREC
 70
       4
  9
$SKETCHINC
 40
0.1
  9
$FILLETRAD
 40
0.0
  9
$AUNITS
 70
       0
  9
$AUPREC
 70
       0
  9
$MENU
  1
acad
  9
$ELEVATION
 40
0.0
  9
$PELEVATION
 40
0.0
  9
$THICKNESS
 40
0.0
  9
$LIMCHECK
 70
       0
  9
$BLIPMODE
 70
       1
  9
$CHAMFERA
 40
0.0
  9
$CHAMFERB
 40
0.0
  9
$CHAMFERC
 40
0.0
  9
$CHAMFERD
 40
0.0
  9
$SKPOLY
 70
       0
  9
$TDCREATE
 40
0.000000000
  9
$TDUPDATE
 40
0.000000000
  9
$TDINDWG
 40
0.0000000000
  9
$TDUSRTIMER
 40
0.0000000000
  9
$USRTIMER
 70
       1
  9
$ANGBASE
 50
0.0
  9
$ANGDIR
 70
       0
  9
$PDMODE
 70
       0
  9
$PDSIZE
 40
1.0
  9
$PLINEWID
 40
0.0
  9
$COORDS
 70
       1
  9
$SPLFRAME
 70
       0
  9
$SPLINETYPE
 70
       6
  9
$SPLINESEGS
 70
       8
  9
$ATTDIA
 70
       0
  9
$ATTREQ
 70
       1
  9
$HANDLING
 70
       1
  9
$HANDSEED
  5
1DD
  9
$SURFTAB1
 70
       6
  9
$SURFTAB2
 70
       6
  9
$SURFTYPE
 70
       6
  9
$SURFU
 70
       6
  9
$SURFV
 70
       6
  9
$UCSNAME
  2

  9
$UCSORG
 10
0.0
 20
0.0
 30
0.0
  9
$UCSXDIR
 10
1.0
 20
0.0
 30
0.0
  9
$UCSYDIR
 10
0.0
 20
1.0
 30
0.0
  9
$PUCSNAME
  2

  9
$PUCSORG
 10
0.0
 20
0.0
 30
0.0
  9
$PUCSXDIR
 10
1.0
 20
0.0
 30
0.0
  9
$PUCSYDIR
 10
0.0
 20
1.0
 30
0.0
  9
$USERI1
 70
       0
  9
$USERI2
 70
       0
  9
$USERI3
 70
       0
  9
$USERI4
 70
       0
  9
$USERI5
 70
       0
  9
$USERR1
 40
0.0
  9
$USERR2
 40
0.0
  9
$USERR3
 40
0.0
  9
$USERR4
 40
0.0
  9
$USERR5
 40
0.0
  9
$WORLDVIEW
 70
       1
  9
$SHADEDGE
 70
       3
  9
$SHADEDIF
 70
      70
  9
$TILEMODE
 70
       1
  9
$MAXACTVP
 70
      16
  9
$PINSBASE
 10
0.0
 20
0.0
 30
0.0
  9
$PLIMCHECK
 70
       0
  9
$PEXTMIN
 10
1.00000000E+20
 20
1.00000000E+20
 30
1.00000000E+20
  9
$PEXTMAX
 10
-1.00000000E+20
 20
-1.00000000E+20
 30
-1.00000000E+20
  9
$PLIMMIN
 10
0.0
 20
0.0
  9
$PLIMMAX
 10
12.0
 20
9.0
  9
$UNITMODE
 70
       0
  9
$VISRETAIN
 70
       0
  9
$PLINEGEN
 70
       1
  9
$PSLTSCALE
 70
       0
  9
$TREEDEPTH
 70
    3020
  9
$PICKSTYLE
 70
       1
  9
$CMLSTYLE
  2
STANDARD
  9
$CMLJUST
 70
       0
  9
$CMLSCALE
 40
1.0
  9
$PROXYGRAPHICS
 70
       0
  9
$MEASUREMENT
 70
       0
  0
ENDSEC
  0
SECTION
  2
CLASSES
  0
CLASS
  1
LWPOLYLINE
  2
AcDbPolyline
  3
"AutoCAD"
 90
        0
280
       0
281
       1
  0
CLASS
  1
IMAGE
  2
AcDbRasterImage
  3
ISM
 90
      127
280
       0
281
       1
  0
CLASS
  1
OLE2FRAME
  2
AcDbOle2Frame
  3
""
 90
        0
280
       0
281
       1
  0
CLASS
  1
HATCH
  2
AcDbHatch
  3
"ACAD_SEDONA"
 90
        0
280
       0
281
       1
  0
CLASS
  1
DICTIONARYVAR
  2
AcDbDictionaryVar
  3
"AutoCAD"
 90
        0
280
       0
281
       0
  0
CLASS
  1
RASTERVARIABLES
  2
AcDbRasterVariables
  3
ISM
 90
        0
280
       0
281
       0
  0
CLASS
  1
IMAGEDEF
  2
AcDbRasterImageDef
  3
ISM
 90
        0
280
       0
281
       0
  0
CLASS
  1
IMAGEDEF_REACTOR
  2
AcDbRasterImageDefReactor
  3
ISM
 90
        1
280
       0
281
       0
  0
CLASS
  1
IDBUFFER
  2
AcDbIdBuffer
  3
"Acad"
 90
        0
280
       0
281
       0
  0
CLASS
  1
SPATIAL_FILTER
  2
AcDbSpatialFilter
  3
"Acad"
 90
        0
280
       0
281
       0
  0
CLASS
  1
XRECORD
  2
AcDbXrecord
  3
"<Built In>"
 90
        0
280
       0
281
       0
  0
CLASS
  1
SORTENTSTABLE
  2
AcDbSortentsTable
  3
"AutoCAD"
 90
        0
280
       0
281
       0
  0
CLASS
  1
LAYER_INDEX
  2
AcDbLayerIndex
  3
"Acad"
 90
        0
280
       0
281
       0
  0
CLASS
  1
SPATIAL_INDEX
  2
AcDbSpatialIndex
  3
"Acad"
 90
        0
280
       0
281
       0
  0
CLASS
  1
OBJECT_PTR
  2
CAseDLPNTableRecord
  3
"ASE-LPNTableRecord"
 90
        1
280
       0
281
       0
  0
CLASS
  1
LAYOUT
  2
AcDbLayout
  3
"AutoCAD 2000"
 90
        1
280
       0
281
       0
  0
CLASS
  1
PLOTSETTINGS
  2
AcDbPlotSettings
  3
"AutoCAD 2000"
 90
        1
280
       0
281
       0
  0
CLASS
  1
ACDBDICTIONARYWDFLT
  2
AcDbDictionaryWithDefault
  3
"AutoCAD 2000"
 90
        1
280
       0
281
       0
  0
CLASS
  1
ACDBPLACEHOLDER
  2
AcDbPlaceHolder
  3
"AutoCAD 2000"
 90
        1
280
       0
281
       0
  0
CLASS
  1
VBA_PROJECT
  2
AcDbVbaProject
  3
"acadvba"
 90
        1
280
       0
281
       0
  0
CLASS
  1
WIPEOUT
  2
AcDbWipeout
  3
WipeOut|AutoCAD Express Tool|expresstools@autodesk.com
 90
      127
280
       0
281
       1
  0
CLASS
  1
WIPEOUTVARIABLES
  2
AcDbWipeoutVariables
  3
WipeOut|AutoCAD Express Tool|expresstools@autodesk.com
 90
        0
280
       0
281
       0
  0
CLASS
  1
RTEXT
  2
RText
  3
RText|AutoCAD Express Tool|expresstools@autodesk.com
 90
        0
280
       0
281
       1
  0
CLASS
  1
ARCALIGNEDTEXT
  2
AcDbArcAlignedText
  3
ATEXT|AutoCAD Express Tool|expresstools@autodesk.com
 90
        0
280
       0
281
       1
  0
ENDSEC
  0
SECTION
  2
TABLES
  0
TABLE
  2
VPORT
  5
7
100
AcDbSymbolTable
 70
       1
  0
VPORT
  5
15
100
AcDbSymbolTableRecord
100
AcDbViewportTableRecord
  2
*ACTIVE
 70
       0
 10
0.0
 20
0.0
 11
1.0
 21
1.0
 12
0.0
 22
0.0
 13
0.0
 23
0.0
 14
1.0
 24
1.0
 15
0.0
 25
0.0
 16
0.0
 26
0.0
 36
1.0
 17
0.0
 27
0.0
 37
0.0
 40
134.06888932
 41
1.69718157
 42
50.0
 43
0.0
 44
0.0
 50
0.0
 51
0.0
 71
       0
 72
     100
 73
       1
 74
       1
 75
       0
 76
       0
 77
       0
 78
       0
  0
ENDTAB
  0
TABLE
  2
LTYPE
  5
4
100
AcDbSymbolTable
 70
      30
  0
LTYPE
  5
11
100
AcDbSymbolTableRecord
100
AcDbLinetypeTableRecord
  2
BYBLOCK
 70
      64
  3

 72
      65
 73
       0
 40
0.0
  0
LTYPE
  5
12
100
AcDbSymbolTableRecord
100
AcDbLinetypeTableRecord
  2
BYLAYER
 70
      64
  3

 72
      65
 73
       0
 40
0.0
  0
LTYPE
  5
13
100
AcDbSymbolTableRecord
100
AcDbLinetypeTableRecord
  2
CONTINUOUS
 70
      64
  3
Solid line
 72
      65
 73
       0
 40
0.0
  0
LTYPE
  5
1D
100
AcDbSymbolTableRecord
100
AcDbLinetypeTableRecord
  2
HIDDENX2
 70
      64
  3
CADPAC LINETYPE
 72
      65
 73
       2
 40
8.56618343
 49
6.42463757
 74
       0
 49
-2.14154586
 74
       0
  0
LTYPE
  5
1E
100
AcDbSymbolTableRecord
100
AcDbLinetypeTableRecord
  2
HIDDEN
 70
      64
  3
CADPAC LINETYPE
 72
      65
 73
       2
 40
6.42463757
 49
4.28309172
 74
       0
 49
-2.14154586
 74
       0
  0
LTYPE
  5
1F
100
AcDbSymbolTableRecord
100
AcDbLinetypeTableRecord
  2
HIDDEN2
 70
      64
  3
CADPAC LINETYPE
 72
      65
 73
       2
 40
5.35386465
 49
3.21231879
 74
       0
 49
-2.14154586
 74
       0
  0
LTYPE
  5
20
100
AcDbSymbolTableRecord
100
AcDbLinetypeTableRecord
  2
DASHED
 70
      64
  3
CADPAC LINETYPE
 72
      65
 73
       2
 40
6.42463757
 49
4.28309172
 74
       0
 49
-2.14154586
 74
       0
  0
LTYPE
  5
21
100
AcDbSymbolTableRecord
100
AcDbLinetypeTableRecord
  2
DASHED2
 70
      64
  3
CADPAC LINETYPE
 72
      65
 73
       2
 40
4.81847818
 49
3.21231879
 74
       0
 49
-1.60615939
 74
       0
  0
LTYPE
  5
22
100
AcDbSymbolTableRecord
100
AcDbLinetypeTableRecord
  2
DASHEDX2
 70
      64
  3
CADPAC LINETYPE
 72
      65
 73
       2
 40
9.63695636
 49
6.42463757
 74
       0
 49
-3.21231879
 74
       0
  0
LTYPE
  5
23
100
AcDbSymbolTableRecord
100
AcDbLinetypeTableRecord
  2
DOTX2
 70
      64
  3
CADPAC LINETYPE
 72
      65
 73
       2
 40
2.67693232
 49
0.0
 74
       0
 49
-2.67693232
 74
       0
  0
LTYPE
  5
24
100
AcDbSymbolTableRecord
100
AcDbLinetypeTableRecord
  2
DOT
 70
      64
  3
CADPAC LINETYPE
 72
      65
 73
       2
 40
2.14154586
 49
0.0
 74
       0
 49
-2.14154586
 74
       0
  0
LTYPE
  5
25
100
AcDbSymbolTableRecord
100
AcDbLinetypeTableRecord
  2
DOT2
 70
      64
  3
CADPAC LINETYPE
 72
      65
 73
       2
 40
1.60615939
 49
0.0
 74
       0
 49
-1.60615939
 74
       0
  0
LTYPE
  5
26
100
AcDbSymbolTableRecord
100
AcDbLinetypeTableRecord
  2
CENTERX2
 70
      64
  3
CADPAC LINETYPE
 72
      65
 73
       4
 40
12.84927515
 49
5.35386465
 74
       0
 49
-2.67693232
 74
       0
 49
2.14154586
 74
       0
 49
-2.67693232
 74
       0
  0
LTYPE
  5
27
100
AcDbSymbolTableRecord
100
AcDbLinetypeTableRecord
  2
CENTER
 70
      64
  3
CADPAC LINETYPE
 72
      65
 73
       4
 40
9.85111095
 49
4.28309172
 74
       0
 49
-2.14154586
 74
       0
 49
1.28492751
 74
       0
 49
-2.14154586
 74
       0
  0
LTYPE
  5
28
100
AcDbSymbolTableRecord
100
AcDbLinetypeTableRecord
  2
CENTER2
 70
      64
  3
CADPAC LINETYPE
 72
      65
 73
       4
 40
6.85294675
 49
3.21231879
 74
       0
 49
-1.60615939
 74
       0
 49
0.42830917
 74
       0
 49
-1.60615939
 74
       0
  0
LTYPE
  5
29
100
AcDbSymbolTableRecord
100
AcDbLinetypeTableRecord
  2
DASHDOTX2
 70
      64
  3
CADPAC LINETYPE
 72
      65
 73
       4
 40
10.70772929
 49
5.35386465
 74
       0
 49
-2.67693232
 74
       0
 49
0.0
 74
       0
 49
-2.67693232
 74
       0
  0
LTYPE
  5
2A
100
AcDbSymbolTableRecord
100
AcDbLinetypeTableRecord
  2
DASHDOT
 70
      64
  3
CADPAC LINETYPE
 72
      65
 73
       4
 40
8.56618343
 49
4.28309172
 74
       0
 49
-2.14154586
 74
       0
 49
0.0
 74
       0
 49
-2.14154586
 74
       0
  0
LTYPE
  5
2B
100
AcDbSymbolTableRecord
100
AcDbLinetypeTableRecord
  2
DASHDOT2
 70
      64
  3
CADPAC LINETYPE
 72
      65
 73
       4
 40
6.42463757
 49
3.21231879
 74
       0
 49
-1.60615939
 74
       0
 49
0.0
 74
       0
 49
-1.60615939
 74
       0
  0
LTYPE
  5
2C
100
AcDbSymbolTableRecord
100
AcDbLinetypeTableRecord
  2
DIVIDEX2
 70
      64
  3
CADPAC LINETYPE
 72
      65
 73
       6
 40
13.38466161
 49
5.35386465
 74
       0
 49
-2.67693232
 74
       0
 49
0.0
 74
       0
 49
-2.67693232
 74
       0
 49
0.0
 74
       0
 49
-2.67693232
 74
       0
  0
LTYPE
  5
2D
100
AcDbSymbolTableRecord
100
AcDbLinetypeTableRecord
  2
DIVIDE
 70
      64
  3
CADPAC LINETYPE
 72
      65
 73
       6
 40
10.70772929
 49
4.28309172
 74
       0
 49
-2.14154586
 74
       0
 49
0.0
 74
       0
 49
-2.14154586
 74
       0
 49
0.0
 74
       0
 49
-2.14154586
 74
       0
  0
LTYPE
  5
2E
100
AcDbSymbolTableRecord
100
AcDbLinetypeTableRecord
  2
DIVIDE2
 70
      64
  3
CADPAC LINETYPE
 72
      65
 73
       6
 40
8.03079697
 49
3.21231879
 74
       0
 49
-1.60615939
 74
       0
 49
0.0
 74
       0
 49
-1.60615939
 74
       0
 49
0.0
 74
       0
 49
-1.60615939
 74
       0
  0
LTYPE
  5
2F
100
AcDbSymbolTableRecord
100
AcDbLinetypeTableRecord
  2
BORDERX2
 70
      64
  3
CADPAC LINETYPE
 72
      65
 73
       6
 40
18.73852626
 49
5.35386465
 74
       0
 49
-2.67693232
 74
       0
 49
5.35386465
 74
       0
 49
-2.67693232
 74
       0
 49
0.0
 74
       0
 49
-2.67693232
 74
       0
  0
LTYPE
  5
30
100
AcDbSymbolTableRecord
100
AcDbLinetypeTableRecord
  2
BORDER
 70
      64
  3
CADPAC LINETYPE
 72
      65
 73
       6
 40
14.99082101
 49
4.28309172
 74
       0
 49
-2.14154586
 74
       0
 49
4.28309172
 74
       0
 49
-2.14154586
 74
       0
 49
0.0
 74
       0
 49
-2.14154586
 74
       0
  0
LTYPE
  5
31
100
AcDbSymbolTableRecord
100
AcDbLinetypeTableRecord
  2
BORDER2
 70
      64
  3
CADPAC LINETYPE
 72
      65
 73
       6
 40
11.24311576
 49
3.21231879
 74
       0
 49
-1.60615939
 74
       0
 49
3.21231879
 74
       0
 49
-1.60615939
 74
       0
 49
0.0
 74
       0
 49
-1.60615939
 74
       0
  0
LTYPE
  5
32
100
AcDbSymbolTableRecord
100
AcDbLinetypeTableRecord
  2
PHANTOMX2
 70
      64
  3
CADPAC LINETYPE
 72
      65
 73
       6
 40
16.06159394
 49
5.35386465
 74
       0
 49
-2.14154586
 74
       0
 49
2.14154586
 74
       0
 49
-2.14154586
 74
       0
 49
2.14154586
 74
       0
 49
-2.14154586
 74
       0
  0
LTYPE
  5
33
100
AcDbSymbolTableRecord
100
AcDbLinetypeTableRecord
  2
PHANTOM
 70
      64
  3
CADPAC LINETYPE
 72
      65
 73
       6
 40
13.27758432
 49
4.28309172
 74
       0
 49
-2.14154586
 74
       0
 49
1.28492751
 74
       0
 49
-2.14154586
 74
       0
 49
1.28492751
 74
       0
 49
-2.14154586
 74
       0
  0
LTYPE
  5
34
100
AcDbSymbolTableRecord
100
AcDbLinetypeTableRecord
  2
PHANTOM2
 70
      64
  3
CADPAC LINETYPE
 72
      65
 73
       6
 40
11.35019305
 49
3.21231879
 74
       0
 49
-2.14154586
 74
       0
 49
0.85661834
 74
       0
 49
-2.14154586
 74
       0
 49
0.85661834
 74
       0
 49
-2.14154586
 74
       0
  0
LTYPE
  5
35
100
AcDbSymbolTableRecord
100
AcDbLinetypeTableRecord
  2
ACAD_ISO06W100
 70
      64
  3
CADPAC LINETYPE
 72
      65
 73
       8
 40
14.45543454
 49
5.35386465
 74
       0
 49
-2.67693232
 74
       0
 49
0.0
 74
       0
 49
-2.14154586
 74
       0
 49
0.0
 74
       0
 49
-2.14154586
 74
       0
 49
0.0
 74
       0
 49
-2.14154586
 74
       0
  0
LTYPE
  5
36
100
AcDbSymbolTableRecord
100
AcDbLinetypeTableRecord
  2
ACAD_ISO13W100
 70
      64
  3
CADPAC LINETYPE
 72
      65
 73
       8
 40
17.13236687
 49
4.28309172
 74
       0
 49
-2.14154586
 74
       0
 49
4.28309172
 74
       0
 49
-2.14154586
 74
       0
 49
0.0
 74
       0
 49
-2.14154586
 74
       0
 49
0.0
 74
       0
 49
-2.14154586
 74
       0
  0
LTYPE
  5
37
100
AcDbSymbolTableRecord
100
AcDbLinetypeTableRecord
  2
ACAD_ISO14W100
 70
      64
  3
CADPAC LINETYPE
 72
      65
 73
       8
 40
12.84927515
 49
4.28309172
 74
       0
 49
-2.14154586
 74
       0
 49
0.0
 74
       0
 49
-2.14154586
 74
       0
 49
0.0
 74
       0
 49
-2.14154586
 74
       0
 49
0.0
 74
       0
 49
-2.14154586
 74
       0
  0
ENDTAB
  0
TABLE
  2
LAYER
  5
2
100
AcDbSymbolTable
 70
       4
  0
LAYER
  5
14
100
AcDbSymbolTableRecord
100
AcDbLayerTableRecord
  2
0
 70
       0
 62
       7
  6
CONTINUOUS
  0
LAYER
  5
38
100
AcDbSymbolTableRecord
100
AcDbLayerTableRecord
  2
SLD-0_0
 70
       0
 62
       7
  6
CONTINUOUS
  0
LAYER
  5
39
100
AcDbSymbolTableRecord
100
AcDbLayerTableRecord
  2
SLD-0
 70
       0
 62
       7
  6
CONTINUOUS
  0
LAYER
  5
3A
100
AcDbSymbolTableRecord
100
AcDbLayerTableRecord
  2
レイヤー_1
 70
       0
 62
       7
  6
CONTINUOUS
  0
ENDTAB
  0
TABLE
  2
STYLE
  5
3
100
AcDbSymbolTable
 70
       1
  0
STYLE
  5
17
100
AcDbSymbolTableRecord
100
AcDbTextStyleTableRecord
  2
STANDARD
 70
       0
 40
0.0
 41
1.0
 50
0.0
 71
       0
 42
5.0
  3
txt.shx
  4
bigfont.shx
  0
ENDTAB
  0
TABLE
  2
VIEW
  5
5
100
AcDbSymbolTable
 70
       1
  0
VIEW
  5
3B
100
AcDbSymbolTableRecord
100
AcDbViewTableRecord
  2
QQQQ
 70
       0
 40
134.06888932
 10
0.0
 20
0.0
 41
227.53924743
 11
0.0
 21
0.0
 31
1.0
 12
100.0
 22
100.0
 32
0.0
 42
50.0
 43
0.0
 44
0.0
 50
0.0
 71
       0
  0
ENDTAB
  0
TABLE
  2
UCS
  5
6
100
AcDbSymbolTable
 70
       0
  0
ENDTAB
  0
TABLE
  2
APPID
  5
8
100
AcDbSymbolTable
 70
       1
  0
APPID
  5
16
100
AcDbSymbolTableRecord
100
AcDbRegAppTableRecord
  2
ACAD
 70
       0
  0
ENDTAB
  0
TABLE
  2
DIMSTYLE
  5
9
100
AcDbSymbolTable
 70
       1
  0
DIMSTYLE
105
18
100
AcDbSymbolTableRecord
100
AcDbDimStyleTableRecord
  2
STANDARD
 70
       0
  3

  4

  5

  6

  7

 40
1.0
 41
0.18
 42
0.0625
 43
0.38
 44
0.18
 45
0.0
 46
0.0
 47
0.0
 48
0.0
 71
       0
 72
       0
 73
       1
 74
       1
 75
       0
 76
       0
 77
       0
 78
       0
140
0.18
141
0.09
142
0.0
143
25.4
144
1.0
145
0.0
146
1.0
147
0.09
170
       0
171
       2
172
       0
173
       0
174
       0
175
       0
176
       0
177
       0
178
       0
270
       2
271
       4
272
       4
273
       2
274
       2
275
       0
280
       0
281
       0
282
       0
283
       1
284
       0
285
       0
286
       0
287
       0
288
       0
340
17
  0
ENDTAB
  0
TABLE
  2
BLOCK_RECORD
  5
1
100
AcDbSymbolTable
 70
       0
  0
BLOCK_RECORD
  5
A
100
AcDbSymbolTableRecord
100
AcDbBlockTableRecord
  2
*MODEL_SPACE
  0
BLOCK_RECORD
  5
B
100
AcDbSymbolTableRecord
100
AcDbBlockTableRecord
  2
*PAPER_SPACE
  0
ENDTAB
  0
ENDSEC
  0
SECTION
  2
BLOCKS
  0
BLOCK
  5
D
100
AcDbEntity
  8
0
100
AcDbBlockBegin
  2
*MODEL_SPACE
 70
       0
 10
0.0
 20
0.0
 30
0.0
  3
*MODEL_SPACE
  1

  0
ENDBLK
  5
E
100
AcDbEntity
  8
0
100
AcDbBlockEnd
  0
BLOCK
  5
F
100
AcDbEntity
 67
       1
  8
0
100
AcDbBlockBegin
  2
*PAPER_SPACE
 70
       0
 10
0.0
 20
0.0
 30
0.0
  3
*PAPER_SPACE
  1

  0
ENDBLK
  5
10
100
AcDbEntity
 67
       1
  8
0
100
AcDbBlockEnd
  0
ENDSEC
  0
SECTION
  2
ENTITIES
  0
LINE
  5
3C
100
AcDbEntity
  8
SLD-0_0
  6
CONTINUOUS
 62
       7
100
AcDbLine
 10
75.42475328
 20
54.22167215
 30
0.0
 11
76.000292
 21
53.69877433
 31
0.0
  0
LINE
  5
3D
100
AcDbEntity
  8
SLD-0_0
  6
CONTINUOUS
 62
       7
100
AcDbLine
 10
92.28648978
 20
-21.01864653
 30
0.0
 11
92.28648581
 21
50.22949087
 31
0.0
  0
LINE
  5
3E
100
AcDbEntity
  8
SLD-0_0
  6
CONTINUOUS
 62
       7
100
AcDbLine
 10
97.44655886
 20
47.98128502
 30
0.0
 11
97.43620131
 21
47.97975001
 31
0.0
  0
LINE
  5
3F
100
AcDbEntity
  8
SLD-0_0
  6
CONTINUOUS
 62
       7
100
AcDbLine
 10
97.43620131
 20
47.97975001
 30
0.0
 11
97.42590626
 21
47.97799479
 31
0.0
  0
LINE
  5
40
100
AcDbEntity
  8
SLD-0_0
  6
CONTINUOUS
 62
       7
100
AcDbLine
 10
97.27227292
 20
47.89412807
 30
0.0
 11
97.26515551
 21
47.88647872
 31
0.0
  0
LINE
  5
41
100
AcDbEntity
  8
SLD-0_0
  6
CONTINUOUS
 62
       7
100
AcDbLine
 10
97.18908859
 20
47.69653692
 30
0.0
 11
97.18841867
 21
47.68608719
 31
0.0
  0
LINE
  5
42
100
AcDbEntity
  8
SLD-0_0
  6
CONTINUOUS
 62
       7
100
AcDbLine
 10
97.48836415
 20
47.98610392
 30
0.0
 11
97.49564465
 21
47.98565379
 31
0.0
  0
LINE
  5
43
100
AcDbEntity
  8
SLD-0_0
  6
CONTINUOUS
 62
       7
100
AcDbLine
 10
97.63478247
 20
47.9480412
 30
0.0
 11
97.64111356
 21
47.94443715
 31
0.0
  0
LINE
  5
44
100
AcDbEntity
  8
SLD-0_0
  6
CONTINUOUS
 62
       7
100
AcDbLine
 10
97.65345693
 20
47.93674723
 30
0.0
 11
97.65945152
 21
47.93265303
 31
0.0
  0
LINE
  5
45
100
AcDbEntity
  8
SLD-0_0
  6
CONTINUOUS
 62
       7
100
AcDbLine
 10
69.98606341
 20
50.33529496
 30
0.0
 11
69.98562282
 21
50.34160739
 31
0.0
  0
LINE
  5
46
100
AcDbEntity
  8
SLD-0_0
  6
CONTINUOUS
 62
       7
100
AcDbLine
 10
69.96734395
 20
50.43316716
 30
0.0
 11
69.96497888
 21
50.43896395
 31
0.0
  0
LINE
  5
47
100
AcDbEntity
  8
SLD-0_0
  6
CONTINUOUS
 62
       7
100
AcDbLine
 10
92.28648631
 20
45.22949087
 30
0.0
 11
99.38683747
 21
45.22949087
 31
0.0
  0
LINE
  5
48
100
AcDbEntity
  8
SLD-0_0
  6
CONTINUOUS
 62
       7
100
AcDbLine
 10
69.98648882
 20
50.22949087
 30
0.0
 11
69.98648882
 21
50.32897845
 31
0.0
  0
LINE
  5
49
100
AcDbEntity
  8
SLD-0_0
  6
CONTINUOUS
 62
       7
100
AcDbLine
 10
81.35513603
 20
53.28300679
 30
0.0
 11
81.77572876
 21
52.62896595
 31
0.0
  0
LINE
  5
4A
100
AcDbEntity
  8
SLD-0_0
  6
CONTINUOUS
 62
       7
100
AcDbLine
 10
73.64517465
 20
53.69853614
 30
0.0
 11
74.22061279
 21
54.22155015
 31
0.0
  0
LINE
  5
4B
100
AcDbEntity
  8
SLD-0_0
  6
CONTINUOUS
 62
       7
100
AcDbLine
 10
97.42590626
 20
47.97799479
 30
0.0
 11
97.41568622
 21
47.97597532
 31
0.0
  0
LINE
  5
4C
100
AcDbEntity
  8
SLD-0_0
  6
CONTINUOUS
 62
       7
100
AcDbLine
 10
97.39552118
 20
47.97096749
 30
0.0
 11
97.38560118
 21
47.96789106
 31
0.0
  0
LINE
  5
4D
100
AcDbEntity
  8
SLD-0_0
  6
CONTINUOUS
 62
       7
100
AcDbLine
 10
97.38560118
 20
47.96789106
 30
0.0
 11
97.37580613
 21
47.96437987
 31
0.0
  0
LINE
  5
4E
100
AcDbEntity
  8
SLD-0_0
  6
CONTINUOUS
 62
       7
100
AcDbLine
 10
97.30335265
 20
47.92237381
 30
0.0
 11
97.29520939
 21
47.91568021
 31
0.0
  0
LINE
  5
4F
100
AcDbEntity
  8
SLD-0_0
  6
CONTINUOUS
 62
       7
100
AcDbLine
 10
97.67104394
 20
47.923947
 30
0.0
 11
97.67664285
 21
47.91934519
 31
0.0
  0
LINE
  5
50
100
AcDbEntity
  8
SLD-0_0
  6
CONTINUOUS
 62
       7
100
AcDbLine
 10
77.82480508
 20
54.03302811
 30
0.0
 11
78.34253475
 21
53.45283463
 31
0.0
  0
LINE
  5
51
100
AcDbEntity
  8
SLD-0_0
  6
CONTINUOUS
 62
       7
100
AcDbLine
 10
85.79761922
 20
51.44339547
 30
0.0
 11
86.07303739
 21
50.71620073
 31
0.0
  0
LINE
  5
52
100
AcDbEntity
  8
SLD-0_0
  6
CONTINUOUS
 62
       7
100
AcDbLine
 10
97.2338686
 20
47.84482802
 30
0.0
 11
97.22850596
 21
47.83586114
 31
0.0
  0
LINE
  5
53
100
AcDbEntity
  8
SLD-0_0
  6
CONTINUOUS
 62
       7
100
AcDbLine
 10
97.20287131
 20
47.77863084
 30
0.0
 11
97.1998249
 21
47.76863457
 31
0.0
  0
LINE
  5
54
100
AcDbEntity
  8
SLD-0_0
  6
CONTINUOUS
 62
       7
100
AcDbLine
 10
97.68212904
 20
47.91460186
 30
0.0
 11
97.68751856
 21
47.90973718
 31
0.0
  0
LINE
  5
55
100
AcDbEntity
  8
SLD-0_0
  6
CONTINUOUS
 62
       7
100
AcDbLine
 10
69.98405848
 20
50.36047971
 30
0.0
 11
69.98340561
 21
50.36673527
 31
0.0
  0
LINE
  5
56
100
AcDbEntity
  8
SLD-0_0
  6
CONTINUOUS
 62
       7
100
AcDbLine
 10
69.9736507
 20
50.41556549
 30
0.0
 11
69.97169504
 21
50.42147198
 31
0.0
  0
LINE
  5
57
100
AcDbEntity
  8
SLD-0_0
  6
CONTINUOUS
 62
       7
100
AcDbLine
 10
69.94909004
 20
50.47328972
 30
0.0
 11
69.94630039
 21
50.47897276
 31
0.0
  0
LINE
  5
58
100
AcDbEntity
  8
SLD-0_0
  6
CONTINUOUS
 62
       7
100
AcDbLine
 10
75.13942957
 20
50.27476274
 30
0.0
 11
75.11675746
 21
50.23549184
 31
0.0
  0
LINE
  5
59
100
AcDbEntity
  8
SLD-0_0
  6
CONTINUOUS
 62
       7
100
AcDbLine
 10
83.62457544
 20
52.47961091
 30
0.0
 11
83.97449941
 21
51.78518956
 31
0.0
  0
LINE
  5
5A
100
AcDbEntity
  8
SLD-0_0
  6
CONTINUOUS
 62
       7
100
AcDbLine
 10
97.32911702
 20
47.94072869
 30
0.0
 11
97.32031813
 21
47.93491785
 31
0.0
  0
LINE
  5
5B
100
AcDbEntity
  8
SLD-0_0
  6
CONTINUOUS
 62
       7
100
AcDbLine
 10
97.19499446
 20
47.74835372
 30
0.0
 11
97.193229
 21
47.73809254
 31
0.0
  0
LINE
  5
5C
100
AcDbEntity
  8
SLD-0_0
  6
CONTINUOUS
 62
       7
100
AcDbLine
 10
97.49564465
 20
47.98565379
 30
0.0
 11
97.50292059
 21
47.98517824
 31
0.0
  0
LINE
  5
5D
100
AcDbEntity
  8
SLD-0_0
  6
CONTINUOUS
 62
       7
100
AcDbLine
 10
97.58827138
 20
47.96906446
 30
0.0
 11
97.59510577
 21
47.96651987
 31
0.0
  0
LINE
  5
5E
100
AcDbEntity
  8
SLD-0_0
  6
CONTINUOUS
 62
       7
100
AcDbLine
 10
97.61525774
 20
47.95793969
 30
0.0
 11
97.6218457
 21
47.9547883
 31
0.0
  0
LINE
  5
5F
100
AcDbEntity
  8
SLD-0_0
  6
CONTINUOUS
 62
       7
100
AcDbLine
 10
69.97543957
 20
50.40961429
 30
0.0
 11
69.9736507
 21
50.41556549
 31
0.0
  0
LINE
  5
60
100
AcDbEntity
  8
SLD-0_0
  6
CONTINUOUS
 62
       7
100
AcDbLine
 10
81.77572876
 20
52.62896595
 30
0.0
 11
82.50037222
 21
52.91102444
 31
0.0
  0
LINE
  5
61
100
AcDbEntity
  8
SLD-0_0
  6
CONTINUOUS
 62
       7
100
AcDbLine
 10
78.34253475
 20
53.45283463
 30
0.0
 11
79.01414126
 21
53.84477918
 31
0.0
  0
LINE
  5
62
100
AcDbEntity
  8
SLD-0_0
  6
CONTINUOUS
 62
       7
100
AcDbLine
 10
97.27965968
 20
47.90154621
 30
0.0
 11
97.27227292
 21
47.89412807
 31
0.0
  0
LINE
  5
63
100
AcDbEntity
  8
SLD-0_0
  6
CONTINUOUS
 62
       7
100
AcDbLine
 10
97.26515551
 20
47.88647872
 30
0.0
 11
97.25831521
 21
47.87859939
 31
0.0
  0
LINE
  5
64
100
AcDbEntity
  8
SLD-0_0
  6
CONTINUOUS
 62
       7
100
AcDbLine
 10
97.245497
 20
47.86215566
 30
0.0
 11
97.23953268
 21
47.85359722
 31
0.0
  0
LINE
  5
65
100
AcDbEntity
  8
SLD-0_0
  6
CONTINUOUS
 62
       7
100
AcDbLine
 10
97.20630563
 20
47.78851569
 30
0.0
 11
97.20287131
 21
47.77863084
 31
0.0
  0
LINE
  5
66
100
AcDbEntity
  8
SLD-0_0
  6
CONTINUOUS
 62
       7
100
AcDbLine
 10
97.19072058
 20
47.71739136
 30
0.0
 11
97.18983154
 21
47.70697691
 31
0.0
  0
LINE
  5
67
100
AcDbEntity
  8
SLD-0_0
  6
CONTINUOUS
 62
       7
100
AcDbLine
 10
69.98562282
 20
50.34160739
 30
0.0
 11
69.98515193
 21
50.34791171
 31
0.0
  0
LINE
  5
68
100
AcDbEntity
  8
SLD-0_0
  6
CONTINUOUS
 62
       7
100
AcDbLine
 10
69.98084047
 20
50.38533945
 30
0.0
 11
69.97973271
 21
50.39147311
 31
0.0
  0
LINE
  5
69
100
AcDbEntity
  8
SLD-0_0
  6
CONTINUOUS
 62
       7
100
AcDbLine
 10
69.97973271
 20
50.39147311
 30
0.0
 11
69.9784733
 21
50.39756617
 31
0.0
  0
LINE
  5
6A
100
AcDbEntity
  8
SLD-0_0
  6
CONTINUOUS
 62
       7
100
AcDbLine
 10
69.96497888
 20
50.43896395
 30
0.0
 11
69.96250765
 21
50.44473231
 31
0.0
  0
LINE
  5
6B
100
AcDbEntity
  8
SLD-0_0
  6
CONTINUOUS
 62
       7
100
AcDbLine
 10
68.7643738
 20
52.52612676
 30
0.0
 11
69.94630039
 21
50.47897276
 31
0.0
  0
LINE
  5
6C
100
AcDbEntity
  8
SLD-0_0
  6
CONTINUOUS
 62
       7
100
AcDbLine
 10
79.01414126
 20
53.84477918
 30
0.0
 11
79.50079083
 21
53.23828514
 31
0.0
  0
LINE
  5
6D
100
AcDbEntity
  8
SLD-0_0
  6
CONTINUOUS
 62
       7
100
AcDbLine
 10
82.27265288
 20
-32.27051241
 30
0.0
 11
93.78648956
 21
-32.27051241
 31
0.0
  0
LINE
  5
6E
100
AcDbEntity
  8
SLD-0_0
  6
CONTINUOUS
 62
       7
100
AcDbLine
 10
97.22344598
 20
47.82670966
 30
0.0
 11
97.21868989
 21
47.81738663
 31
0.0
  0
LINE
  5
6F
100
AcDbEntity
  8
SLD-0_0
  6
CONTINUOUS
 62
       7
100
AcDbLine
 10
97.59510577
 20
47.96651987
 30
0.0
 11
97.60188345
 21
47.96381133
 31
0.0
  0
LINE
  5
70
100
AcDbEntity
  8
SLD-0_0
  6
CONTINUOUS
 62
       7
100
AcDbLine
 10
97.70843238
 20
47.8894697
 30
0.0
 11
97.71357284
 21
47.88430407
 31
0.0
  0
LINE
  5
71
100
AcDbEntity
  8
SLD-0_0
  6
CONTINUOUS
 62
       7
100
AcDbLine
 10
71.44629967
 20
50.88089523
 30
0.0
 11
70.06341233
 21
53.27612549
 31
0.0
  0
LINE
  5
72
100
AcDbEntity
  8
SLD-0_0
  6
CONTINUOUS
 62
       7
100
AcDbLine
 10
74.82273146
 20
53.72949075
 30
0.0
 11
75.42475328
 21
54.22167215
 31
0.0
  0
LINE
  5
73
100
AcDbEntity
  8
SLD-0_0
  6
CONTINUOUS
 62
       7
100
AcDbLine
 10
86.84049188
 20
50.84143057
 30
0.0
 11
87.0363006
 21
50.2294909
 31
0.0
  0
LINE
  5
74
100
AcDbEntity
  8
SLD-0_0
  6
CONTINUOUS
 62
       7
100
AcDbLine
 10
92.28648742
 20
-33.770508
 30
0.0
 11
82.18648978
 21
-33.77050913
 31
0.0
  0
LINE
  5
75
100
AcDbEntity
  8
SLD-0_0
  6
CONTINUOUS
 62
       7
100
AcDbLine
 10
69.98340561
 20
50.36673527
 30
0.0
 11
69.98266177
 21
50.37296645
 31
0.0
  0
LINE
  5
76
100
AcDbEntity
  8
SLD-0_0
  6
CONTINUOUS
 62
       7
100
AcDbLine
 10
97.18841867
 20
47.68608719
 30
0.0
 11
97.18841867
 21
47.22949232
 31
0.0
  0
LINE
  5
77
100
AcDbEntity
  8
SLD-0_0
  6
CONTINUOUS
 62
       7
100
AcDbLine
 10
71.48648976
 20
50.22949087
 30
0.0
 11
71.48648976
 21
50.73090378
 31
0.0
  0
LINE
  5
78
100
AcDbEntity
  8
SLD-0_0
  6
CONTINUOUS
 62
       7
100
AcDbLine
 10
82.50037222
 20
52.91102444
 30
0.0
 11
82.8861633
 21
52.23586633
 31
0.0
  0
LINE
  5
79
100
AcDbEntity
  8
SLD-0_0
  6
CONTINUOUS
 62
       7
100
AcDbLine
 10
83.97449941
 20
51.78518956
 30
0.0
 11
84.72466111
 21
51.98995702
 31
0.0
  0
LINE
  5
7A
100
AcDbEntity
  8
SLD-0_0
  6
CONTINUOUS
 62
       7
100
AcDbLine
 10
77.17463389
 20
53.60647142
 30
0.0
 11
77.82480508
 21
54.03302811
 31
0.0
  0
LINE
  5
7B
100
AcDbEntity
  8
SLD-0_0
  6
CONTINUOUS
 62
       7
100
AcDbLine
 10
97.58138303
 20
47.9714357
 30
0.0
 11
97.58827138
 21
47.96906446
 31
0.0
  0
LINE
  5
7C
100
AcDbEntity
  8
SLD-0_0
  6
CONTINUOUS
 62
       7
100
AcDbLine
 10
97.69807212
 20
47.89972477
 30
0.0
 11
97.70326835
 21
47.89461746
 31
0.0
  0
LINE
  5
7D
100
AcDbEntity
  8
SLD-0_0
  6
CONTINUOUS
 62
       7
100
AcDbLine
 10
69.98515193
 20
50.34791171
 30
0.0
 11
69.98463553
 21
50.35420384
 31
0.0
  0
LINE
  5
7E
100
AcDbEntity
  8
SLD-0_0
  6
CONTINUOUS
 62
       7
100
AcDbLine
 10
71.36245087
 20
54.0261256
 30
0.0
 11
73.55443775
 21
50.22949087
 31
0.0
  0
LINE
  5
7F
100
AcDbEntity
  8
SLD-0_0
  6
CONTINUOUS
 62
       7
100
AcDbLine
 10
76.6272509
 20
54.15877388
 30
0.0
 11
77.17463389
 21
53.60647142
 31
0.0
  0
LINE
  5
80
100
AcDbEntity
  8
SLD-0_0
  6
CONTINUOUS
 62
       7
100
AcDbLine
 10
97.45696643
 20
47.98264389
 30
0.0
 11
97.44655886
 21
47.98128502
 31
0.0
  0
LINE
  5
81
100
AcDbEntity
  8
SLD-0_0
  6
CONTINUOUS
 62
       7
100
AcDbLine
 10
97.35663825
 20
47.95607916
 30
0.0
 11
97.34728876
 21
47.95132914
 31
0.0
  0
LINE
  5
82
100
AcDbEntity
  8
SLD-0_0
  6
CONTINUOUS
 62
       7
100
AcDbLine
 10
97.32031813
 20
47.93491785
 30
0.0
 11
97.31172612
 21
47.92879295
 31
0.0
  0
LINE
  5
83
100
AcDbEntity
  8
SLD-0_0
  6
CONTINUOUS
 62
       7
100
AcDbLine
 10
97.23953268
 20
47.85359722
 30
0.0
 11
97.2338686
 21
47.84482802
 31
0.0
  0
LINE
  5
84
100
AcDbEntity
  8
SLD-0_0
  6
CONTINUOUS
 62
       7
100
AcDbLine
 10
97.1998249
 20
47.76863457
 30
0.0
 11
97.19719113
 21
47.75853835
 31
0.0
  0
LINE
  5
85
100
AcDbEntity
  8
SLD-0_0
  6
CONTINUOUS
 62
       7
100
AcDbLine
 10
97.60188345
 20
47.96381133
 30
0.0
 11
97.60860173
 21
47.96094823
 31
0.0
  0
LINE
  5
86
100
AcDbEntity
  8
SLD-0_0
  6
CONTINUOUS
 62
       7
100
AcDbLine
 10
97.64111356
 20
47.94443715
 30
0.0
 11
97.64734134
 21
47.94067388
 31
0.0
  0
LINE
  5
87
100
AcDbEntity
  8
SLD-0_0
  6
CONTINUOUS
 62
       7
100
AcDbLine
 10
69.98266177
 20
50.37296645
 30
0.0
 11
69.98181178
 21
50.3791692
 31
0.0
  0
LINE
  5
88
100
AcDbEntity
  8
SLD-0_0
  6
CONTINUOUS
 62
       7
100
AcDbLine
 10
69.9573074
 20
50.45619996
 30
0.0
 11
69.95460873
 21
50.46190737
 31
0.0
  0
LINE
  5
89
100
AcDbEntity
  8
SLD-0_0
  6
CONTINUOUS
 62
       7
100
AcDbLine
 10
82.8861633
 20
52.23586633
 30
0.0
 11
83.62457544
 21
52.47961091
 31
0.0
  0
LINE
  5
8A
100
AcDbEntity
  8
SLD-0_0
  6
CONTINUOUS
 62
       7
100
AcDbLine
 10
97.28730801
 20
47.90873191
 30
0.0
 11
97.27965968
 21
47.90154621
 31
0.0
  0
LINE
  5
8B
100
AcDbEntity
  8
SLD-0_0
  6
CONTINUOUS
 62
       7
100
AcDbLine
 10
97.25831521
 20
47.87859939
 30
0.0
 11
97.2517598
 21
47.87049129
 31
0.0
  0
LINE
  5
8C
100
AcDbEntity
  8
SLD-0_0
  6
CONTINUOUS
 62
       7
100
AcDbLine
 10
97.5604214
 20
47.97741545
 30
0.0
 11
97.56745533
 21
47.97562059
 31
0.0
  0
LINE
  5
8D
100
AcDbEntity
  8
SLD-0_0
  6
CONTINUOUS
 62
       7
100
AcDbLine
 10
69.98648882
 20
50.32897845
 30
0.0
 11
69.98606341
 21
50.33529496
 31
0.0
  0
LINE
  5
8E
100
AcDbEntity
  8
SLD-0_0
  6
CONTINUOUS
 62
       7
100
AcDbLine
 10
72.66148939
 20
54.77612433
 30
0.0
 11
73.01813006
 21
54.15840693
 31
0.0
  0
LINE
  5
8F
100
AcDbEntity
  8
SLD-0_0
  6
CONTINUOUS
 62
       7
100
AcDbLine
 10
85.03776431
 20
51.27817115
 30
0.0
 11
85.79761922
 21
51.44339547
 31
0.0
  0
LINE
  5
90
100
AcDbEntity
  8
SLD-0_0
  6
CONTINUOUS
 62
       7
100
AcDbLine
 10
96.78648999
 20
-33.77050913
 30
0.0
 11
96.78648819
 21
-28.39182956
 31
0.0
  0
LINE
  5
91
100
AcDbEntity
  8
SLD-0_0
  6
CONTINUOUS
 62
       7
100
AcDbLine
 10
96.78648819
 20
-28.39182956
 30
0.0
 11
90.12490173
 21
-21.7302431
 31
0.0
  0
LINE
  5
92
100
AcDbEntity
  8
SLD-0_0
  6
CONTINUOUS
 62
       7
100
AcDbLine
 10
91.68988962
 20
-21.17390824
 30
0.0
 11
98.28649213
 21
-27.77051074
 31
0.0
  0
LINE
  5
93
100
AcDbEntity
  8
SLD-0_0
  6
CONTINUOUS
 62
       7
100
AcDbLine
 10
97.36614793
 20
47.960436
 30
0.0
 11
97.35663825
 21
47.95607916
 31
0.0
  0
LINE
  5
94
100
AcDbEntity
  8
SLD-0_0
  6
CONTINUOUS
 62
       7
100
AcDbLine
 10
97.21868989
 20
47.81738663
 30
0.0
 11
97.21423901
 21
47.80790512
 31
0.0
  0
LINE
  5
95
100
AcDbEntity
  8
SLD-0_0
  6
CONTINUOUS
 62
       7
100
AcDbLine
 10
97.60860173
 20
47.96094823
 30
0.0
 11
97.61525774
 21
47.95793969
 31
0.0
  0
LINE
  5
96
100
AcDbEntity
  8
SLD-0_0
  6
CONTINUOUS
 62
       7
100
AcDbLine
 10
97.6218457
 20
47.9547883
 30
0.0
 11
97.6283569
 21
47.95149018
 31
0.0
  0
LINE
  5
97
100
AcDbEntity
  8
SLD-0_0
  6
CONTINUOUS
 62
       7
100
AcDbLine
 10
97.65945152
 20
47.93265303
 30
0.0
 11
97.6653162
 21
47.92838709
 31
0.0
  0
LINE
  5
98
100
AcDbEntity
  8
SLD-0_0
  6
CONTINUOUS
 62
       7
100
AcDbLine
 10
72.93844611
 20
54.08698009
 30
0.0
 11
75.13942957
 21
50.27476274
 31
0.0
  0
LINE
  5
99
100
AcDbEntity
  8
SLD-0_0
  6
CONTINUOUS
 62
       7
100
AcDbLine
 10
80.64623565
 20
52.9634111
 30
0.0
 11
81.35513603
 21
53.28300679
 31
0.0
  0
LINE
  5
9A
100
AcDbEntity
  8
SLD-0_0
  6
CONTINUOUS
 62
       7
100
AcDbLine
 10
82.18648671
 20
-39.77050913
 30
0.0
 11
82.18648978
 21
-33.77050913
 31
0.0
  0
LINE
  5
9B
100
AcDbEntity
  8
SLD-0_0
  6
CONTINUOUS
 62
       7
100
AcDbLine
 10
93.78648956
 20
-32.27051241
 30
0.0
 11
93.78648956
 21
-33.770508
 31
0.0
  0
LINE
  5
9C
100
AcDbEntity
  8
SLD-0_0
  6
CONTINUOUS
 62
       7
100
AcDbLine
 10
81.58649144
 20
-39.07050831
 30
0.0
 11
81.48648975
 21
-39.07050831
 31
0.0
  0
LINE
  5
9D
100
AcDbEntity
  8
SLD-0_0
  6
CONTINUOUS
 62
       7
100
AcDbLine
 10
97.48836415
 20
47.98610392
 30
0.0
 11
97.47788158
 21
47.98500929
 31
0.0
  0
LINE
  5
9E
100
AcDbEntity
  8
SLD-0_0
  6
CONTINUOUS
 62
       7
100
AcDbLine
 10
97.21423901
 20
47.80790512
 30
0.0
 11
97.21010311
 21
47.7982776
 31
0.0
  0
LINE
  5
9F
100
AcDbEntity
  8
SLD-0_0
  6
CONTINUOUS
 62
       7
100
AcDbLine
 10
97.1918287
 20
47.7277675
 30
0.0
 11
97.19072058
 21
47.71739136
 31
0.0
  0
LINE
  5
A0
100
AcDbEntity
  8
SLD-0_0
  6
CONTINUOUS
 62
       7
100
AcDbLine
 10
97.5246759
 20
47.98334441
 30
0.0
 11
97.53188838
 21
47.9825126
 31
0.0
  0
LINE
  5
A1
100
AcDbEntity
  8
SLD-0_0
  6
CONTINUOUS
 62
       7
100
AcDbLine
 10
97.53907364
 20
47.98152811
 30
0.0
 11
97.54622716
 21
47.98036551
 31
0.0
  0
LINE
  5
A2
100
AcDbEntity
  8
SLD-0_0
  6
CONTINUOUS
 62
       7
100
AcDbLine
 10
69.98463553
 20
50.35420384
 30
0.0
 11
69.98405848
 21
50.36047971
 31
0.0
  0
LINE
  5
A3
100
AcDbEntity
  8
SLD-0_0
  6
CONTINUOUS
 62
       7
100
AcDbLine
 10
69.9784733
 20
50.39756617
 30
0.0
 11
69.9770471
 21
50.40361453
 31
0.0
  0
LINE
  5
A4
100
AcDbEntity
  8
SLD-0_0
  6
CONTINUOUS
 62
       7
100
AcDbLine
 10
69.97169504
 20
50.42147198
 30
0.0
 11
69.96958773
 21
50.42733784
 31
0.0
  0
LINE
  5
A5
100
AcDbEntity
  8
SLD-0_0
  6
CONTINUOUS
 62
       7
100
AcDbLine
 10
74.22061279
 20
54.22155015
 30
0.0
 11
74.82273146
 21
53.72949075
 31
0.0
  0
LINE
  5
A6
100
AcDbEntity
  8
SLD-0_0
  6
CONTINUOUS
 62
       7
100
AcDbLine
 10
97.47788158
 20
47.98500929
 30
0.0
 11
97.4674115
 21
47.98387063
 31
0.0
  0
LINE
  5
A7
100
AcDbEntity
  8
SLD-0_0
  6
CONTINUOUS
 62
       7
100
AcDbLine
 10
97.33811112
 20
47.94620572
 30
0.0
 11
97.32911702
 21
47.94072869
 31
0.0
  0
LINE
  5
A8
100
AcDbEntity
  8
SLD-0_0
  6
CONTINUOUS
 62
       7
100
AcDbLine
 10
97.21010311
 20
47.7982776
 30
0.0
 11
97.20630563
 21
47.78851569
 31
0.0
  0
LINE
  5
A9
100
AcDbEntity
  8
SLD-0_0
  6
CONTINUOUS
 62
       7
100
AcDbLine
 10
97.50292059
 20
47.98517824
 30
0.0
 11
97.51018749
 21
47.98465178
 31
0.0
  0
LINE
  5
AA
100
AcDbEntity
  8
SLD-0_0
  6
CONTINUOUS
 62
       7
100
AcDbLine
 10
97.53188838
 20
47.9825126
 30
0.0
 11
97.53907364
 21
47.98152811
 31
0.0
  0
LINE
  5
AB
100
AcDbEntity
  8
SLD-0_0
  6
CONTINUOUS
 62
       7
100
AcDbLine
 10
97.54622716
 20
47.98036551
 30
0.0
 11
97.55334439
 21
47.9789994
 31
0.0
  0
LINE
  5
AC
100
AcDbEntity
  8
SLD-0_0
  6
CONTINUOUS
 62
       7
100
AcDbLine
 10
97.6653162
 20
47.92838709
 30
0.0
 11
97.67104394
 21
47.923947
 31
0.0
  0
LINE
  5
AD
100
AcDbEntity
  8
SLD-0_0
  6
CONTINUOUS
 62
       7
100
AcDbLine
 10
97.70326835
 20
47.89461746
 30
0.0
 11
97.70843238
 21
47.8894697
 31
0.0
  0
LINE
  5
AE
100
AcDbEntity
  8
SLD-0_0
  6
CONTINUOUS
 62
       7
100
AcDbLine
 10
69.98181178
 20
50.3791692
 30
0.0
 11
69.98084047
 21
50.38533945
 31
0.0
  0
LINE
  5
AF
100
AcDbEntity
  8
SLD-0_0
  6
CONTINUOUS
 62
       7
100
AcDbLine
 10
69.96250765
 20
50.44473231
 30
0.0
 11
69.95994543
 21
50.4504763
 31
0.0
  0
LINE
  5
B0
100
AcDbEntity
  8
SLD-0_0
  6
CONTINUOUS
 62
       7
100
AcDbLine
 10
99.61201058
 20
45.72769742
 30
0.0
 11
97.71357284
 21
47.88430407
 31
0.0
  0
LINE
  5
B1
100
AcDbEntity
  8
SLD-0_0
  6
CONTINUOUS
 62
       7
100
AcDbLine
 10
80.19198864
 20
53.59454467
 30
0.0
 11
80.64623565
 21
52.9634111
 31
0.0
  0
LINE
  5
B2
100
AcDbEntity
  8
SLD-0_0
  6
CONTINUOUS
 62
       7
100
AcDbLine
 10
98.28649213
 20
-27.77051074
 30
0.0
 11
98.28649213
 21
-33.770508
 31
0.0
  0
LINE
  5
B3
100
AcDbEntity
  8
SLD-0_0
  6
CONTINUOUS
 62
       7
100
AcDbLine
 10
97.4674115
 20
47.98387063
 30
0.0
 11
97.45696643
 21
47.98264389
 31
0.0
  0
LINE
  5
B4
100
AcDbEntity
  8
SLD-0_0
  6
CONTINUOUS
 62
       7
100
AcDbLine
 10
97.31172612
 20
47.92879295
 30
0.0
 11
97.30335265
 21
47.92237381
 31
0.0
  0
LINE
  5
B5
100
AcDbEntity
  8
SLD-0_0
  6
CONTINUOUS
 62
       7
100
AcDbLine
 10
97.2517598
 20
47.87049129
 30
0.0
 11
97.245497
 21
47.86215566
 31
0.0
  0
LINE
  5
B6
100
AcDbEntity
  8
SLD-0_0
  6
CONTINUOUS
 62
       7
100
AcDbLine
 10
97.22850596
 20
47.83586114
 30
0.0
 11
97.22344598
 21
47.82670966
 31
0.0
  0
LINE
  5
B7
100
AcDbEntity
  8
SLD-0_0
  6
CONTINUOUS
 62
       7
100
AcDbLine
 10
97.18983154
 20
47.70697691
 30
0.0
 11
97.18908859
 21
47.69653692
 31
0.0
  0
LINE
  5
B8
100
AcDbEntity
  8
SLD-0_0
  6
CONTINUOUS
 62
       7
100
AcDbLine
 10
97.56745533
 20
47.97562059
 30
0.0
 11
97.57444344
 21
47.97362422
 31
0.0
  0
LINE
  5
B9
100
AcDbEntity
  8
SLD-0_0
  6
CONTINUOUS
 62
       7
100
AcDbLine
 10
97.6283569
 20
47.95149018
 30
0.0
 11
97.63478247
 21
47.9480412
 31
0.0
  0
LINE
  5
BA
100
AcDbEntity
  8
SLD-0_0
  6
CONTINUOUS
 62
       7
100
AcDbLine
 10
97.69282755
 20
47.90477143
 30
0.0
 11
97.69807212
 21
47.89972477
 31
0.0
  0
LINE
  5
BB
100
AcDbEntity
  8
SLD-0_0
  6
CONTINUOUS
 62
       7
100
AcDbLine
 10
69.95994543
 20
50.4504763
 30
0.0
 11
69.9573074
 21
50.45619996
 31
0.0
  0
LINE
  5
BC
100
AcDbEntity
  8
SLD-0_0
  6
CONTINUOUS
 62
       7
100
AcDbLine
 10
69.95460873
 20
50.46190737
 30
0.0
 11
69.95186456
 21
50.4676026
 31
0.0
  0
LINE
  5
BD
100
AcDbEntity
  8
SLD-0_0
  6
CONTINUOUS
 62
       7
100
AcDbLine
 10
97.18841867
 20
47.22949232
 30
0.0
 11
92.28648798
 21
47.22949232
 31
0.0
  0
LINE
  5
BE
100
AcDbEntity
  8
SLD-0_0
  6
CONTINUOUS
 62
       7
100
AcDbLine
 10
79.50079083
 20
53.23828514
 30
0.0
 11
80.19198864
 21
53.59454467
 31
0.0
  0
LINE
  5
BF
100
AcDbEntity
  8
SLD-0_0
  6
CONTINUOUS
 62
       7
100
AcDbLine
 10
73.01813006
 20
54.15840693
 30
0.0
 11
73.64517465
 21
53.69853614
 31
0.0
  0
LINE
  5
C0
100
AcDbEntity
  8
SLD-0_0
  6
CONTINUOUS
 62
       7
100
AcDbLine
 10
97.41568622
 20
47.97597532
 30
0.0
 11
97.40555369
 21
47.97364757
 31
0.0
  0
LINE
  5
C1
100
AcDbEntity
  8
SLD-0_0
  6
CONTINUOUS
 62
       7
100
AcDbLine
 10
97.40555369
 20
47.97364757
 30
0.0
 11
97.39552118
 21
47.97096749
 31
0.0
  0
LINE
  5
C2
100
AcDbEntity
  8
SLD-0_0
  6
CONTINUOUS
 62
       7
100
AcDbLine
 10
97.19719113
 20
47.75853835
 30
0.0
 11
97.19499446
 21
47.74835372
 31
0.0
  0
LINE
  5
C3
100
AcDbEntity
  8
SLD-0_0
  6
CONTINUOUS
 62
       7
100
AcDbLine
 10
97.193229
 20
47.73809254
 30
0.0
 11
97.1918287
 21
47.7277675
 31
0.0
  0
LINE
  5
C4
100
AcDbEntity
  8
SLD-0_0
  6
CONTINUOUS
 62
       7
100
AcDbLine
 10
97.51018749
 20
47.98465178
 30
0.0
 11
97.51744077
 21
47.984049
 31
0.0
  0
LINE
  5
C5
100
AcDbEntity
  8
SLD-0_0
  6
CONTINUOUS
 62
       7
100
AcDbLine
 10
97.64734134
 20
47.94067388
 30
0.0
 11
97.65345693
 21
47.93674723
 31
0.0
  0
LINE
  5
C6
100
AcDbEntity
  8
SLD-0_0
  6
CONTINUOUS
 62
       7
100
AcDbLine
 10
97.67664285
 20
47.91934519
 30
0.0
 11
97.68212904
 21
47.91460186
 31
0.0
  0
LINE
  5
C7
100
AcDbEntity
  8
SLD-0_0
  6
CONTINUOUS
 62
       7
100
AcDbLine
 10
72.93844611
 20
54.08698009
 30
0.0
 11
73.01813006
 21
54.15840693
 31
0.0
  0
LINE
  5
C8
100
AcDbEntity
  8
SLD-0_0
  6
CONTINUOUS
 62
       7
100
AcDbLine
 10
76.000292
 20
53.69877433
 30
0.0
 11
76.6272509
 21
54.15877388
 31
0.0
  0
LINE
  5
C9
100
AcDbEntity
  8
SLD-0_0
  6
CONTINUOUS
 62
       7
100
AcDbLine
 10
97.34728876
 20
47.95132914
 30
0.0
 11
97.33811112
 21
47.94620572
 31
0.0
  0
LINE
  5
CA
100
AcDbEntity
  8
SLD-0_0
  6
CONTINUOUS
 62
       7
100
AcDbLine
 10
97.29520939
 20
47.91568021
 30
0.0
 11
97.28730801
 21
47.90873191
 31
0.0
  0
LINE
  5
CB
100
AcDbEntity
  8
SLD-0_0
  6
CONTINUOUS
 62
       7
100
AcDbLine
 10
97.51744077
 20
47.984049
 30
0.0
 11
97.5246759
 21
47.98334441
 31
0.0
  0
LINE
  5
CC
100
AcDbEntity
  8
SLD-0_0
  6
CONTINUOUS
 62
       7
100
AcDbLine
 10
97.57444344
 20
47.97362422
 30
0.0
 11
97.58138303
 21
47.9714357
 31
0.0
  0
LINE
  5
CD
100
AcDbEntity
  8
SLD-0_0
  6
CONTINUOUS
 62
       7
100
AcDbLine
 10
69.96958773
 20
50.42733784
 30
0.0
 11
69.96734395
 21
50.43316716
 31
0.0
  0
LINE
  5
CE
100
AcDbEntity
  8
SLD-0_0
  6
CONTINUOUS
 62
       7
100
AcDbLine
 10
69.95186456
 20
50.4676026
 30
0.0
 11
69.94909004
 21
50.47328972
 31
0.0
  0
LINE
  5
CF
100
AcDbEntity
  8
SLD-0_0
  6
CONTINUOUS
 62
       7
100
AcDbLine
 10
84.72466111
 20
51.98995702
 30
0.0
 11
85.03776431
 21
51.27817115
 31
0.0
  0
LINE
  5
D0
100
AcDbEntity
  8
SLD-0_0
  6
CONTINUOUS
 62
       7
100
AcDbLine
 10
86.07303739
 20
50.71620073
 30
0.0
 11
86.84049188
 21
50.84143057
 31
0.0
  0
LINE
  5
D1
100
AcDbEntity
  8
SLD-0_0
  6
CONTINUOUS
 62
       7
100
AcDbLine
 10
97.37580613
 20
47.96437987
 30
0.0
 11
97.36614793
 21
47.960436
 31
0.0
  0
LINE
  5
D2
100
AcDbEntity
  8
SLD-0_0
  6
CONTINUOUS
 62
       7
100
AcDbLine
 10
97.55334439
 20
47.9789994
 30
0.0
 11
97.5604214
 21
47.97741545
 31
0.0
  0
LINE
  5
D3
100
AcDbEntity
  8
SLD-0_0
  6
CONTINUOUS
 62
       7
100
AcDbLine
 10
97.68751856
 20
47.90973718
 30
0.0
 11
97.69282755
 21
47.90477143
 31
0.0
  0
LINE
  5
D4
100
AcDbEntity
  8
SLD-0_0
  6
CONTINUOUS
 62
       7
100
AcDbLine
 10
69.9770471
 20
50.40361453
 30
0.0
 11
69.97543957
 21
50.40961429
 31
0.0
  0
LINE
  5
D5
100
AcDbEntity
  8
SLD-0_0
  6
CONTINUOUS
 62
       7
100
AcDbLine
 10
-86.59049347
 20
55.82949087
 30
0.0
 11
-86.59049347
 21
50.22949087
 31
0.0
  0
LINE
  5
D6
100
AcDbEntity
  8
SLD-0_0
  6
CONTINUOUS
 62
       7
100
AcDbLine
 10
-92.59049422
 20
50.22949087
 30
0.0
 11
-92.59049422
 21
55.82949087
 31
0.0
  0
LINE
  5
D7
100
AcDbEntity
  8
SLD-0_0
  6
CONTINUOUS
 62
       7
100
AcDbLine
 10
-86.59049347
 20
55.82949087
 30
0.0
 11
-92.59049422
 21
55.82949087
 31
0.0
  0
ARC
  5
D8
100
AcDbEntity
  8
SLD-0_0
  6
CONTINUOUS
 62
       7
100
AcDbCircle
 10
95.28648977
 20
-33.77050913
 30
0.0
 40
13.09999999
100
AcDbArc
 50
103.238654
 51
180.0
  0
ARC
  5
D9
100
AcDbEntity
  8
SLD-0_0
  6
CONTINUOUS
 62
       7
100
AcDbCircle
 10
95.28648977
 20
-33.77050913
 30
0.0
 40
3.00000236
100
AcDbArc
 50
179.99997842
 51
360.00002158
  0
ARC
  5
DA
100
AcDbEntity
  8
SLD-0_0
  6
CONTINUOUS
 62
       7
100
AcDbCircle
 10
70.71293242
 20
53.65112412
 30
0.0
 40
0.75000022
100
AcDbArc
 50
30.00012094
 51
209.99986974
  0
ARC
  5
DB
100
AcDbEntity
  8
SLD-0_0
  6
CONTINUOUS
 62
       7
100
AcDbCircle
 10
95.28648977
 20
-33.77050913
 30
0.0
 40
1.50000022
100
AcDbArc
 50
179.99995684
 51
360.0
  0
ARC
  5
DC
100
AcDbEntity
  8
SLD-0_0
  6
CONTINUOUS
 62
       7
100
AcDbCircle
 10
70.71293242
 20
53.65112412
 30
0.0
 40
2.24999994
100
AcDbArc
 50
30.00000703
 51
209.99992317
  0
ELLIPSE
  5
DD
100
AcDbEntity
  8
SLD-0_0
  6
CONTINUOUS
 62
       7
100
AcDbEllipse
 10
71.18647834
 20
50.73089613
 30
0.0
 11
0.289789574364363
 21
0.0776488824257058
 31
0.0
210
0.0
220
0.0
230
1.0
 40
0.99995919
 41
6.0214012164227686
 42
6.5449694685205806
  0
ELLIPSE
  5
DE
100
AcDbEntity
  8
SLD-0_0
  6
CONTINUOUS
 62
       7
100
AcDbEllipse
 10
99.38678725
 20
45.5295023
 30
0.0
 11
-0.2734361415895705
 21
0.1235843223000757
 31
0.0
210
0.0
220
0.0
230
1.0
 40
0.99977559
 41
1.9953685878181566
 42
4.2878173392277876
  0
LINE
  5
DF
100
AcDbEntity
  8
SLD-0
  6
CONTINUOUS
 62
       7
100
AcDbLine
 10
-6.21350982
 20
-28.15700389
 30
0.0
 11
-6.21351247
 21
19.29529348
 31
0.0
  0
LINE
  5
E0
100
AcDbEntity
  8
SLD-0
  6
CONTINUOUS
 62
       7
100
AcDbLine
 10
-80.59049343
 20
27.78655597
 30
0.0
 11
-98.59049343
 21
27.78655597
 31
0.0
  0
ARC
  5
E1
100
AcDbEntity
  8
SLD-0
  6
CONTINUOUS
 62
       7
100
AcDbCircle
 10
4.28648592
 20
48.22949087
 30
0.0
 40
2.0
100
AcDbArc
 50
90.0
 51
180.0000032
  0
ARC
  5
E2
100
AcDbEntity
  8
SLD-0
  6
CONTINUOUS
 62
       7
100
AcDbCircle
 10
4.28649072
 20
-37.77050913
 30
0.0
 40
2.0
100
AcDbArc
 50
180.0000032
 51
270.0
  0
LINE
  5
E3
100
AcDbEntity
  8
SLD-0
  6
CONTINUOUS
 62
       7
100
AcDbLine
 10
-80.59049343
 20
50.22949087
 30
0.0
 11
-98.59049343
 21
50.22949087
 31
0.0
  0
LINE
  5
E4
100
AcDbEntity
  8
SLD-0
  6
CONTINUOUS
 62
       7
100
AcDbLine
 10
-98.59049343
 20
50.22949087
 30
0.0
 11
-98.59049343
 21
-39.77050913
 31
0.0
  0
LINE
  5
E5
100
AcDbEntity
  8
SLD-0
  6
CONTINUOUS
 62
       7
100
AcDbLine
 10
-80.59049343
 20
50.22949087
 30
0.0
 11
-80.59049343
 21
-39.77050913
 31
0.0
  0
LINE
  5
E6
100
AcDbEntity
  8
SLD-0
  6
CENTERX2
 62
       7
100
AcDbLine
 10
-89.59049343
 20
60.6646558
 30
0.0
 11
-89.59049343
 21
-44.86457377
 31
0.0
  0
LINE
  5
E7
100
AcDbEntity
  8
SLD-0
  6
PHANTOM2
 62
       7
100
AcDbLine
 10
-80.59049343
 20
-39.77050913
 30
0.0
 11
-98.59049343
 21
-39.77050913
 31
0.0
  0
LINE
  5
E8
100
AcDbEntity
  8
0
  6
CONTINUOUS
 62
       7
100
AcDbLine
 10
2.28648706
 20
27.78655597
 30
0.0
 11
-34.71351168
 21
27.78655597
 31
0.0
  0
LINE
  5
E9
100
AcDbEntity
  8
0
  6
CONTINUOUS
 62
       7
100
AcDbLine
 10
-44.71351168
 20
17.78655597
 30
0.0
 11
-44.71351168
 21
-39.80466716
 31
0.0
  0
LINE
  5
EA
100
AcDbEntity
  8
0
  6
CONTINUOUS
 62
       7
100
AcDbLine
 10
-44.71351168
 20
-39.80466716
 30
0.0
 11
2.28649083
 21
-39.80466716
 31
0.0
  0
LINE
  5
EB
100
AcDbEntity
  8
0
  6
CONTINUOUS
 62
       7
100
AcDbLine
 10
2.28649066
 20
-36.69159577
 30
0.0
 11
-6.21350982
 21
-28.15700389
 31
0.0
  0
LINE
  5
EC
100
AcDbEntity
  8
0
  6
CONTINUOUS
 62
       7
100
AcDbLine
 10
-6.21351247
 20
19.29529348
 30
0.0
 11
2.24333518
 21
27.78655861
 31
0.0
  0
ARC
  5
ED
100
AcDbEntity
  8
0
  6
CONTINUOUS
 62
       7
100
AcDbCircle
 10
-34.71351168
 20
17.78655597
 30
0.0
 40
10.0
100
AcDbArc
 50
90.0
 51
180.0
  0
LINE
  5
EE
100
AcDbEntity
  8
0
  6
CONTINUOUS
 62
       7
100
AcDbLine
 10
2.28649066
 20
-36.69159577
 30
0.0
 11
2.28649066
 21
-39.80466716
 31
0.0
  0
LINE
  5
EF
100
AcDbEntity
  8
0
  6
CONTINUOUS
 62
       7
100
AcDbLine
 10
2.28648592
 20
48.22949076
 30
0.0
 11
2.28648592
 21
27.78655861
 31
0.0
  0
LINE
  5
F0
100
AcDbEntity
  8
0
  6
PHANTOM2
 62
       7
100
AcDbLine
 10
-88.9961111
 20
-28.15699838
 30
0.0
 11
-90.18425563
 21
-28.15699838
 31
0.0
  0
LINE
  5
F1
100
AcDbEntity
  8
0
  6
PHANTOM2
 62
       7
100
AcDbLine
 10
-93.68605739
 20
-6.20888071
 30
0.0
 11
-93.68605739
 21
-16.23989633
 31
0.0
  0
LINE
  5
F2
100
AcDbEntity
  8
0
  6
PHANTOM2
 62
       7
100
AcDbLine
 10
-90.18425563
 20
4.55108267
 30
0.0
 11
-97.59217555
 21
4.55108267
 31
0.0
  0
LINE
  5
F3
100
AcDbEntity
  8
0
  6
PHANTOM2
 62
       7
100
AcDbLine
 10
-90.18425563
 20
10.23445669
 30
0.0
 11
-97.59217555
 21
10.23445669
 31
0.0
  0
LINE
  5
F4
100
AcDbEntity
  8
0
  6
PHANTOM2
 62
       7
100
AcDbLine
 10
-81.5888113
 20
-1.59427866
 30
0.0
 11
-88.9961111
 21
-1.59427866
 31
0.0
  0
LINE
  5
F5
100
AcDbEntity
  8
0
  6
PHANTOM2
 62
       7
100
AcDbLine
 10
-93.68605739
 20
-16.23989633
 30
0.0
 11
-85.4946194
 21
-16.23989633
 31
0.0
  0
LINE
  5
F6
100
AcDbEntity
  8
0
  6
PHANTOM2
 62
       7
100
AcDbLine
 10
-97.59217555
 20
-33.12723764
 30
0.0
 11
-90.18425563
 21
-33.12723764
 31
0.0
  0
LINE
  5
F7
100
AcDbEntity
  8
0
  6
PHANTOM2
 62
       7
100
AcDbLine
 10
-90.18425563
 20
-21.29850229
 30
0.0
 11
-97.59217555
 21
-21.29850229
 31
0.0
  0
LINE
  5
F8
100
AcDbEntity
  8
0
  6
PHANTOM2
 62
       7
100
AcDbLine
 10
-90.18425563
 20
-33.12723764
 30
0.0
 11
-90.18425563
 21
-21.29850229
 31
0.0
  0
LINE
  5
F9
100
AcDbEntity
  8
0
  6
PHANTOM2
 62
       7
100
AcDbLine
 10
-81.5888113
 20
-39.80465951
 30
0.0
 11
-81.5888113
 21
19.29529897
 31
0.0
  0
LINE
  5
FA
100
AcDbEntity
  8
0
  6
PHANTOM2
 62
       7
100
AcDbLine
 10
-85.4946194
 20
-6.20888071
 30
0.0
 11
-93.68605739
 21
-6.20888071
 31
0.0
  0
LINE
  5
FB
100
AcDbEntity
  8
0
  6
PHANTOM2
 62
       7
100
AcDbLine
 10
-88.9961111
 20
-33.12723764
 30
0.0
 11
-88.9961111
 21
-21.29850229
 31
0.0
  0
LINE
  5
FC
100
AcDbEntity
  8
0
  6
PHANTOM2
 62
       7
100
AcDbLine
 10
-93.68605739
 20
15.40964468
 30
0.0
 11
-85.4946194
 21
15.40964468
 31
0.0
  0
LINE
  5
FD
100
AcDbEntity
  8
0
  6
PHANTOM2
 62
       7
100
AcDbLine
 10
-81.5888113
 20
-4.43069467
 30
0.0
 11
-97.59217555
 21
-4.43069467
 31
0.0
  0
LINE
  5
FE
100
AcDbEntity
  8
0
  6
PHANTOM2
 62
       7
100
AcDbLine
 10
-88.9961111
 20
-1.59427866
 30
0.0
 11
-88.9961111
 21
10.23445669
 31
0.0
  0
LINE
  5
FF
100
AcDbEntity
  8
0
  6
PHANTOM2
 62
       7
100
AcDbLine
 10
-90.18425563
 20
-26.98156625
 30
0.0
 11
-97.59217555
 21
-26.98156625
 31
0.0
  0
LINE
  5
100
100
AcDbEntity
  8
0
  6
PHANTOM2
 62
       7
100
AcDbLine
 10
-85.4946194
 20
25.44097036
 30
0.0
 11
-93.68605739
 21
25.44097036
 31
0.0
  0
LINE
  5
101
100
AcDbEntity
  8
0
  6
PHANTOM2
 62
       7
100
AcDbLine
 10
-93.68605739
 20
25.44097036
 30
0.0
 11
-93.68605739
 21
15.40964468
 31
0.0
  0
LINE
  5
102
100
AcDbEntity
  8
0
  6
PHANTOM2
 62
       7
100
AcDbLine
 10
-81.5888113
 20
19.29529897
 30
0.0
 11
-85.4946194
 21
19.29529897
 31
0.0
  0
LINE
  5
103
100
AcDbEntity
  8
0
  6
PHANTOM2
 62
       7
100
AcDbLine
 10
-88.9961111
 20
3.3759606
 30
0.0
 11
-90.18425563
 21
3.3759606
 31
0.0
  0
LINE
  5
104
100
AcDbEntity
  8
0
  6
PHANTOM2
 62
       7
100
AcDbLine
 10
-81.5888113
 20
11.38632437
 30
0.0
 11
-97.59217555
 21
11.38632437
 31
0.0
  0
LINE
  5
105
100
AcDbEntity
  8
0
  6
PHANTOM2
 62
       7
100
AcDbLine
 10
-88.9961111
 20
10.23445669
 30
0.0
 11
-81.5888113
 21
10.23445669
 31
0.0
  0
LINE
  5
106
100
AcDbEntity
  8
0
  6
PHANTOM2
 62
       7
100
AcDbLine
 10
-81.5888113
 20
4.55108267
 30
0.0
 11
-88.9961111
 21
4.55108267
 31
0.0
  0
LINE
  5
107
100
AcDbEntity
  8
0
  6
PHANTOM2
 62
       7
100
AcDbLine
 10
-81.5888113
 20
-33.12723764
 30
0.0
 11
-88.9961111
 21
-33.12723764
 31
0.0
  0
LINE
  5
108
100
AcDbEntity
  8
0
  6
PHANTOM2
 62
       7
100
AcDbLine
 10
-97.59217555
 20
19.29529897
 30
0.0
 11
-97.59217555
 21
-39.80465951
 31
0.0
  0
LINE
  5
109
100
AcDbEntity
  8
0
  6
PHANTOM2
 62
       7
100
AcDbLine
 10
-85.4946194
 20
15.40964468
 30
0.0
 11
-85.4946194
 21
25.44097036
 31
0.0
  0
LINE
  5
10A
100
AcDbEntity
  8
0
  6
PHANTOM2
 62
       7
100
AcDbLine
 10
-85.4946194
 20
21.55531606
 30
0.0
 11
-93.68605739
 21
21.55531606
 31
0.0
  0
LINE
  5
10B
100
AcDbEntity
  8
0
  6
PHANTOM2
 62
       7
100
AcDbLine
 10
-85.4946194
 20
-16.23989633
 30
0.0
 11
-85.4946194
 21
-6.20888071
 31
0.0
  0
LINE
  5
10C
100
AcDbEntity
  8
0
  6
PHANTOM2
 62
       7
100
AcDbLine
 10
-85.4946194
 20
-10.094535
 30
0.0
 11
-93.68605739
 21
-10.094535
 31
0.0
  0
LINE
  5
10D
100
AcDbEntity
  8
0
  6
PHANTOM2
 62
       7
100
AcDbLine
 10
-88.9961111
 20
-21.29850229
 30
0.0
 11
-81.5888113
 21
-21.29850229
 31
0.0
  0
LINE
  5
10E
100
AcDbEntity
  8
0
  6
PHANTOM2
 62
       7
100
AcDbLine
 10
-90.18425563
 20
-1.59427866
 30
0.0
 11
-90.18425563
 21
10.23445669
 31
0.0
  0
LINE
  5
10F
100
AcDbEntity
  8
0
  6
PHANTOM2
 62
       7
100
AcDbLine
 10
-81.5888113
 20
-20.24802377
 30
0.0
 11
-97.59217555
 21
-20.24802377
 31
0.0
  0
LINE
  5
110
100
AcDbEntity
  8
0
  6
PHANTOM2
 62
       7
100
AcDbLine
 10
-97.59217555
 20
-1.59427866
 30
0.0
 11
-90.18425563
 21
-1.59427866
 31
0.0
  0
LINE
  5
111
100
AcDbEntity
  8
0
  6
PHANTOM2
 62
       7
100
AcDbLine
 10
-81.5888113
 20
-26.98156625
 30
0.0
 11
-88.9961111
 21
-26.98156625
 31
0.0
  0
LINE
  5
112
100
AcDbEntity
  8
0
  6
PHANTOM2
 62
       7
100
AcDbLine
 10
-93.68605739
 20
19.29529897
 30
0.0
 11
-97.59217555
 21
19.29529897
 31
0.0
  0
LINE
  5
113
100
AcDbEntity
  8
レイヤー_1
  6
CONTINUOUS
 62
       7
100
AcDbLine
 10
16.02039995
 20
-39.77050913
 30
0.0
 11
16.02039995
 21
50.22949087
 31
0.0
  0
LINE
  5
114
100
AcDbEntity
  8
レイヤー_1
  6
CONTINUOUS
 62
       7
100
AcDbLine
 10
17.08994082
 20
50.22949087
 30
0.0
 11
17.08994082
 21
-39.77050913
 31
0.0
  0
LINE
  5
115
100
AcDbEntity
  8
レイヤー_1
  6
CONTINUOUS
 62
       7
100
AcDbLine
 10
37.98381301
 20
29.06753515
 30
0.0
 11
37.98381301
 21
30.57597907
 31
0.0
  0
LINE
  5
116
100
AcDbEntity
  8
レイヤー_1
  6
CONTINUOUS
 62
       7
100
AcDbLine
 10
37.98381301
 20
30.57597907
 30
0.0
 11
33.1069675
 21
30.57597907
 31
0.0
  0
LINE
  5
117
100
AcDbEntity
  8
レイヤー_1
  6
CONTINUOUS
 62
       7
100
AcDbLine
 10
33.1069675
 20
30.57597907
 30
0.0
 11
33.1069675
 21
29.06753515
 31
0.0
  0
LINE
  5
118
100
AcDbEntity
  8
レイヤー_1
  6
CONTINUOUS
 62
       7
100
AcDbLine
 10
33.1069675
 20
29.06753515
 30
0.0
 11
37.98381301
 21
29.06753515
 31
0.0
  0
LINE
  5
119
100
AcDbEntity
  8
レイヤー_1
  6
CONTINUOUS
 62
       7
100
AcDbLine
 10
37.98381301
 20
32.07855356
 30
0.0
 11
37.98381301
 21
33.58504101
 31
0.0
  0
LINE
  5
11A
100
AcDbEntity
  8
レイヤー_1
  6
CONTINUOUS
 62
       7
100
AcDbLine
 10
37.98381301
 20
33.58504101
 30
0.0
 11
33.1069675
 21
33.58504101
 31
0.0
  0
LINE
  5
11B
100
AcDbEntity
  8
レイヤー_1
  6
CONTINUOUS
 62
       7
100
AcDbLine
 10
33.1069675
 20
33.58504101
 30
0.0
 11
33.1069675
 21
32.07855356
 31
0.0
  0
LINE
  5
11C
100
AcDbEntity
  8
レイヤー_1
  6
CONTINUOUS
 62
       7
100
AcDbLine
 10
33.1069675
 20
32.07855356
 30
0.0
 11
37.98381301
 21
32.07855356
 31
0.0
  0
LINE
  5
11D
100
AcDbEntity
  8
レイヤー_1
  6
CONTINUOUS
 62
       7
100
AcDbLine
 10
37.98381301
 20
35.08631118
 30
0.0
 11
37.98381301
 21
36.59279862
 31
0.0
  0
LINE
  5
11E
100
AcDbEntity
  8
レイヤー_1
  6
CONTINUOUS
 62
       7
100
AcDbLine
 10
37.98381301
 20
36.59279862
 30
0.0
 11
33.1069675
 21
36.59279862
 31
0.0
  0
LINE
  5
11F
100
AcDbEntity
  8
レイヤー_1
  6
CONTINUOUS
 62
       7
100
AcDbLine
 10
33.1069675
 20
36.59279862
 30
0.0
 11
33.1069675
 21
35.08631118
 31
0.0
  0
LINE
  5
120
100
AcDbEntity
  8
レイヤー_1
  6
CONTINUOUS
 62
       7
100
AcDbLine
 10
33.1069675
 20
35.08631118
 30
0.0
 11
37.98381301
 21
35.08631118
 31
0.0
  0
LINE
  5
121
100
AcDbEntity
  8
レイヤー_1
  6
CONTINUOUS
 62
       7
100
AcDbLine
 10
37.98381301
 20
38.09537311
 30
0.0
 11
37.98381301
 21
39.60316487
 31
0.0
  0
LINE
  5
122
100
AcDbEntity
  8
レイヤー_1
  6
CONTINUOUS
 62
       7
100
AcDbLine
 10
37.98381301
 20
39.60316487
 30
0.0
 11
33.1069675
 21
39.60316487
 31
0.0
  0
LINE
  5
123
100
AcDbEntity
  8
レイヤー_1
  6
CONTINUOUS
 62
       7
100
AcDbLine
 10
33.1069675
 20
39.60316487
 30
0.0
 11
33.1069675
 21
38.09537311
 31
0.0
  0
LINE
  5
124
100
AcDbEntity
  8
レイヤー_1
  6
CONTINUOUS
 62
       7
100
AcDbLine
 10
33.1069675
 20
38.09537311
 30
0.0
 11
37.98381301
 21
38.09537311
 31
0.0
  0
LINE
  5
125
100
AcDbEntity
  8
レイヤー_1
  6
CONTINUOUS
 62
       7
100
AcDbLine
 10
37.98381301
 20
41.10443505
 30
0.0
 11
37.98381301
 21
42.61092249
 31
0.0
  0
LINE
  5
126
100
AcDbEntity
  8
レイヤー_1
  6
CONTINUOUS
 62
       7
100
AcDbLine
 10
37.98381301
 20
42.61092249
 30
0.0
 11
33.1069675
 21
42.61092249
 31
0.0
  0
LINE
  5
127
100
AcDbEntity
  8
レイヤー_1
  6
CONTINUOUS
 62
       7
100
AcDbLine
 10
33.1069675
 20
42.61092249
 30
0.0
 11
33.1069675
 21
41.10443505
 31
0.0
  0
LINE
  5
128
100
AcDbEntity
  8
レイヤー_1
  6
CONTINUOUS
 62
       7
100
AcDbLine
 10
33.1069675
 20
41.10443505
 30
0.0
 11
37.98381301
 21
41.10443505
 31
0.0
  0
LINE
  5
129
100
AcDbEntity
  8
レイヤー_1
  6
CONTINUOUS
 62
       7
100
AcDbLine
 10
37.98381301
 20
44.11219266
 30
0.0
 11
37.98381301
 21
45.61998442
 31
0.0
  0
LINE
  5
12A
100
AcDbEntity
  8
レイヤー_1
  6
CONTINUOUS
 62
       7
100
AcDbLine
 10
37.98381301
 20
45.61998442
 30
0.0
 11
33.1069675
 21
45.61998442
 31
0.0
  0
LINE
  5
12B
100
AcDbEntity
  8
レイヤー_1
  6
CONTINUOUS
 62
       7
100
AcDbLine
 10
33.1069675
 20
45.61998442
 30
0.0
 11
33.1069675
 21
44.11219266
 31
0.0
  0
LINE
  5
12C
100
AcDbEntity
  8
レイヤー_1
  6
CONTINUOUS
 62
       7
100
AcDbLine
 10
33.1069675
 20
44.11219266
 30
0.0
 11
37.98381301
 21
44.11219266
 31
0.0
  0
LINE
  5
12D
100
AcDbEntity
  8
レイヤー_1
  6
CONTINUOUS
 62
       7
100
AcDbLine
 10
37.98381301
 20
47.12255891
 30
0.0
 11
37.98381301
 21
48.62904636
 31
0.0
  0
LINE
  5
12E
100
AcDbEntity
  8
レイヤー_1
  6
CONTINUOUS
 62
       7
100
AcDbLine
 10
37.98381301
 20
48.62904636
 30
0.0
 11
33.1069675
 21
48.62904636
 31
0.0
  0
LINE
  5
12F
100
AcDbEntity
  8
レイヤー_1
  6
CONTINUOUS
 62
       7
100
AcDbLine
 10
33.1069675
 20
48.62904636
 30
0.0
 11
33.1069675
 21
47.12255891
 31
0.0
  0
LINE
  5
130
100
AcDbEntity
  8
レイヤー_1
  6
CONTINUOUS
 62
       7
100
AcDbLine
 10
33.1069675
 20
47.12255891
 30
0.0
 11
37.98381301
 21
47.12255891
 31
0.0
  0
LINE
  5
131
100
AcDbEntity
  8
レイヤー_1
  6
CONTINUOUS
 62
       7
100
AcDbLine
 10
38.97509479
 20
21.38510135
 30
0.0
 11
38.97509479
 21
50.29466061
 31
0.0
  0
LINE
  5
132
100
AcDbEntity
  8
レイヤー_1
  6
CONTINUOUS
 62
       7
100
AcDbLine
 10
32.11568573
 20
50.29466061
 30
0.0
 11
32.11568573
 21
21.38510135
 31
0.0
  0
LINE
  5
133
100
AcDbEntity
  8
レイヤー_1
  6
CONTINUOUS
 62
       7
100
AcDbLine
 10
32.11568573
 20
21.38510135
 30
0.0
 11
38.97509479
 21
21.38510135
 31
0.0
  0
LINE
  5
134
100
AcDbEntity
  8
レイヤー_1
  6
CONTINUOUS
 62
       7
100
AcDbLine
 10
52.89216927
 20
23.0507156
 30
0.0
 11
52.89216927
 21
24.55720305
 31
0.0
  0
LINE
  5
135
100
AcDbEntity
  8
レイヤー_1
  6
CONTINUOUS
 62
       7
100
AcDbLine
 10
52.89216927
 20
24.55720305
 30
0.0
 11
48.01401945
 21
24.55720305
 31
0.0
  0
LINE
  5
136
100
AcDbEntity
  8
レイヤー_1
  6
CONTINUOUS
 62
       7
100
AcDbLine
 10
48.01401945
 20
24.55720305
 30
0.0
 11
48.01401945
 21
23.0507156
 31
0.0
  0
LINE
  5
137
100
AcDbEntity
  8
レイヤー_1
  6
CONTINUOUS
 62
       7
100
AcDbLine
 10
48.01401945
 20
23.0507156
 30
0.0
 11
52.89216927
 21
23.0507156
 31
0.0
  0
LINE
  5
138
100
AcDbEntity
  8
レイヤー_1
  6
CONTINUOUS
 62
       7
100
AcDbLine
 10
52.89216927
 20
26.05977754
 30
0.0
 11
52.89216927
 21
27.56626498
 31
0.0
  0
LINE
  5
139
100
AcDbEntity
  8
レイヤー_1
  6
CONTINUOUS
 62
       7
100
AcDbLine
 10
52.89216927
 20
27.56626498
 30
0.0
 11
48.01401945
 21
27.56626498
 31
0.0
  0
LINE
  5
13A
100
AcDbEntity
  8
レイヤー_1
  6
CONTINUOUS
 62
       7
100
AcDbLine
 10
48.01401945
 20
27.56626498
 30
0.0
 11
48.01401945
 21
26.05977754
 31
0.0
  0
LINE
  5
13B
100
AcDbEntity
  8
レイヤー_1
  6
CONTINUOUS
 62
       7
100
AcDbLine
 10
48.01401945
 20
26.05977754
 30
0.0
 11
52.89216927
 21
26.05977754
 31
0.0
  0
LINE
  5
13C
100
AcDbEntity
  8
レイヤー_1
  6
CONTINUOUS
 62
       7
100
AcDbLine
 10
52.89216927
 20
29.06753515
 30
0.0
 11
52.89216927
 21
30.57597907
 31
0.0
  0
LINE
  5
13D
100
AcDbEntity
  8
レイヤー_1
  6
CONTINUOUS
 62
       7
100
AcDbLine
 10
52.89216927
 20
30.57597907
 30
0.0
 11
48.01401945
 21
30.57597907
 31
0.0
  0
LINE
  5
13E
100
AcDbEntity
  8
レイヤー_1
  6
CONTINUOUS
 62
       7
100
AcDbLine
 10
48.01401945
 20
30.57597907
 30
0.0
 11
48.01401945
 21
29.06753515
 31
0.0
  0
LINE
  5
13F
100
AcDbEntity
  8
レイヤー_1
  6
CONTINUOUS
 62
       7
100
AcDbLine
 10
48.01401945
 20
29.06753515
 30
0.0
 11
52.89216927
 21
29.06753515
 31
0.0
  0
LINE
  5
140
100
AcDbEntity
  8
レイヤー_1
  6
CONTINUOUS
 62
       7
100
AcDbLine
 10
52.89216927
 20
32.07855356
 30
0.0
 11
52.89216927
 21
33.58504101
 31
0.0
  0
LINE
  5
141
100
AcDbEntity
  8
レイヤー_1
  6
CONTINUOUS
 62
       7
100
AcDbLine
 10
52.89216927
 20
33.58504101
 30
0.0
 11
48.01401945
 21
33.58504101
 31
0.0
  0
LINE
  5
142
100
AcDbEntity
  8
レイヤー_1
  6
CONTINUOUS
 62
       7
100
AcDbLine
 10
48.01401945
 20
33.58504101
 30
0.0
 11
48.01401945
 21
32.07855356
 31
0.0
  0
LINE
  5
143
100
AcDbEntity
  8
レイヤー_1
  6
CONTINUOUS
 62
       7
100
AcDbLine
 10
48.01401945
 20
32.07855356
 30
0.0
 11
52.89216927
 21
32.07855356
 31
0.0
  0
LINE
  5
144
100
AcDbEntity
  8
レイヤー_1
  6
CONTINUOUS
 62
       7
100
AcDbLine
 10
52.89216927
 20
35.08631118
 30
0.0
 11
52.89216927
 21
36.59279862
 31
0.0
  0
LINE
  5
145
100
AcDbEntity
  8
レイヤー_1
  6
CONTINUOUS
 62
       7
100
AcDbLine
 10
52.89216927
 20
36.59279862
 30
0.0
 11
48.01401945
 21
36.59279862
 31
0.0
  0
LINE
  5
146
100
AcDbEntity
  8
レイヤー_1
  6
CONTINUOUS
 62
       7
100
AcDbLine
 10
48.01401945
 20
36.59279862
 30
0.0
 11
48.01401945
 21
35.08631118
 31
0.0
  0
LINE
  5
147
100
AcDbEntity
  8
レイヤー_1
  6
CONTINUOUS
 62
       7
100
AcDbLine
 10
48.01401945
 20
35.08631118
 30
0.0
 11
52.89216927
 21
35.08631118
 31
0.0
  0
LINE
  5
148
100
AcDbEntity
  8
レイヤー_1
  6
CONTINUOUS
 62
       7
100
AcDbLine
 10
52.89216927
 20
38.09537311
 30
0.0
 11
52.89216927
 21
39.60316487
 31
0.0
  0
LINE
  5
149
100
AcDbEntity
  8
レイヤー_1
  6
CONTINUOUS
 62
       7
100
AcDbLine
 10
52.89216927
 20
39.60316487
 30
0.0
 11
48.01401945
 21
39.60316487
 31
0.0
  0
LINE
  5
14A
100
AcDbEntity
  8
レイヤー_1
  6
CONTINUOUS
 62
       7
100
AcDbLine
 10
48.01401945
 20
39.60316487
 30
0.0
 11
48.01401945
 21
38.09537311
 31
0.0
  0
LINE
  5
14B
100
AcDbEntity
  8
レイヤー_1
  6
CONTINUOUS
 62
       7
100
AcDbLine
 10
48.01401945
 20
38.09537311
 30
0.0
 11
52.89216927
 21
38.09537311
 31
0.0
  0
LINE
  5
14C
100
AcDbEntity
  8
レイヤー_1
  6
CONTINUOUS
 62
       7
100
AcDbLine
 10
52.89216927
 20
41.10443505
 30
0.0
 11
52.89216927
 21
42.61092249
 31
0.0
  0
LINE
  5
14D
100
AcDbEntity
  8
レイヤー_1
  6
CONTINUOUS
 62
       7
100
AcDbLine
 10
52.89216927
 20
42.61092249
 30
0.0
 11
48.01401945
 21
42.61092249
 31
0.0
  0
LINE
  5
14E
100
AcDbEntity
  8
レイヤー_1
  6
CONTINUOUS
 62
       7
100
AcDbLine
 10
48.01401945
 20
42.61092249
 30
0.0
 11
48.01401945
 21
41.10443505
 31
0.0
  0
LINE
  5
14F
100
AcDbEntity
  8
レイヤー_1
  6
CONTINUOUS
 62
       7
100
AcDbLine
 10
48.01401945
 20
41.10443505
 30
0.0
 11
52.89216927
 21
41.10443505
 31
0.0
  0
LINE
  5
150
100
AcDbEntity
  8
レイヤー_1
  6
CONTINUOUS
 62
       7
100
AcDbLine
 10
52.89216927
 20
44.11219266
 30
0.0
 11
52.89216927
 21
45.61998442
 31
0.0
  0
LINE
  5
151
100
AcDbEntity
  8
レイヤー_1
  6
CONTINUOUS
 62
       7
100
AcDbLine
 10
52.89216927
 20
45.61998442
 30
0.0
 11
48.01401945
 21
45.61998442
 31
0.0
  0
LINE
  5
152
100
AcDbEntity
  8
レイヤー_1
  6
CONTINUOUS
 62
       7
100
AcDbLine
 10
48.01401945
 20
45.61998442
 30
0.0
 11
48.01401945
 21
44.11219266
 31
0.0
  0
LINE
  5
153
100
AcDbEntity
  8
レイヤー_1
  6
CONTINUOUS
 62
       7
100
AcDbLine
 10
48.01401945
 20
44.11219266
 30
0.0
 11
52.89216927
 21
44.11219266
 31
0.0
  0
LINE
  5
154
100
AcDbEntity
  8
レイヤー_1
  6
CONTINUOUS
 62
       7
100
AcDbLine
 10
52.89216927
 20
47.12255891
 30
0.0
 11
52.89216927
 21
48.62904636
 31
0.0
  0
LINE
  5
155
100
AcDbEntity
  8
レイヤー_1
  6
CONTINUOUS
 62
       7
100
AcDbLine
 10
52.89216927
 20
48.62904636
 30
0.0
 11
48.01401945
 21
48.62904636
 31
0.0
  0
LINE
  5
156
100
AcDbEntity
  8
レイヤー_1
  6
CONTINUOUS
 62
       7
100
AcDbLine
 10
48.01401945
 20
48.62904636
 30
0.0
 11
48.01401945
 21
47.12255891
 31
0.0
  0
LINE
  5
157
100
AcDbEntity
  8
レイヤー_1
  6
CONTINUOUS
 62
       7
100
AcDbLine
 10
48.01401945
 20
47.12255891
 30
0.0
 11
52.89216927
 21
47.12255891
 31
0.0
  0
LINE
  5
158
100
AcDbEntity
  8
レイヤー_1
  6
CONTINUOUS
 62
       7
100
AcDbLine
 10
53.88214674
 20
21.38510135
 30
0.0
 11
53.88214674
 21
50.29466061
 31
0.0
  0
LINE
  5
159
100
AcDbEntity
  8
レイヤー_1
  6
CONTINUOUS
 62
       7
100
AcDbLine
 10
47.02273768
 20
50.29466061
 30
0.0
 11
47.02273768
 21
21.38510135
 31
0.0
  0
LINE
  5
15A
100
AcDbEntity
  8
レイヤー_1
  6
CONTINUOUS
 62
       7
100
AcDbLine
 10
47.02273768
 20
21.38510135
 30
0.0
 11
53.88214674
 21
21.38510135
 31
0.0
  0
LINE
  5
15B
100
AcDbEntity
  8
レイヤー_1
  6
CONTINUOUS
 62
       7
100
AcDbLine
 10
45.43799114
 20
23.0507156
 30
0.0
 11
45.43799114
 21
24.55720305
 31
0.0
  0
LINE
  5
15C
100
AcDbEntity
  8
レイヤー_1
  6
CONTINUOUS
 62
       7
100
AcDbLine
 10
45.43799114
 20
24.55720305
 30
0.0
 11
40.56114564
 21
24.55720305
 31
0.0
  0
LINE
  5
15D
100
AcDbEntity
  8
レイヤー_1
  6
CONTINUOUS
 62
       7
100
AcDbLine
 10
40.56114564
 20
24.55720305
 30
0.0
 11
40.56114564
 21
23.0507156
 31
0.0
  0
LINE
  5
15E
100
AcDbEntity
  8
レイヤー_1
  6
CONTINUOUS
 62
       7
100
AcDbLine
 10
40.56114564
 20
23.0507156
 30
0.0
 11
45.43799114
 21
23.0507156
 31
0.0
  0
LINE
  5
15F
100
AcDbEntity
  8
レイヤー_1
  6
CONTINUOUS
 62
       7
100
AcDbLine
 10
45.43799114
 20
26.05977754
 30
0.0
 11
45.43799114
 21
27.56626498
 31
0.0
  0
LINE
  5
160
100
AcDbEntity
  8
レイヤー_1
  6
CONTINUOUS
 62
       7
100
AcDbLine
 10
45.43799114
 20
27.56626498
 30
0.0
 11
40.56114564
 21
27.56626498
 31
0.0
  0
LINE
  5
161
100
AcDbEntity
  8
レイヤー_1
  6
CONTINUOUS
 62
       7
100
AcDbLine
 10
40.56114564
 20
27.56626498
 30
0.0
 11
40.56114564
 21
26.05977754
 31
0.0
  0
LINE
  5
162
100
AcDbEntity
  8
レイヤー_1
  6
CONTINUOUS
 62
       7
100
AcDbLine
 10
40.56114564
 20
26.05977754
 30
0.0
 11
45.43799114
 21
26.05977754
 31
0.0
  0
LINE
  5
163
100
AcDbEntity
  8
レイヤー_1
  6
CONTINUOUS
 62
       7
100
AcDbLine
 10
45.43799114
 20
29.06753515
 30
0.0
 11
45.43799114
 21
30.57597907
 31
0.0
  0
LINE
  5
164
100
AcDbEntity
  8
レイヤー_1
  6
CONTINUOUS
 62
       7
100
AcDbLine
 10
45.43799114
 20
30.57597907
 30
0.0
 11
40.56114564
 21
30.57597907
 31
0.0
  0
LINE
  5
165
100
AcDbEntity
  8
レイヤー_1
  6
CONTINUOUS
 62
       7
100
AcDbLine
 10
40.56114564
 20
30.57597907
 30
0.0
 11
40.56114564
 21
29.06753515
 31
0.0
  0
LINE
  5
166
100
AcDbEntity
  8
レイヤー_1
  6
CONTINUOUS
 62
       7
100
AcDbLine
 10
40.56114564
 20
29.06753515
 30
0.0
 11
45.43799114
 21
29.06753515
 31
0.0
  0
LINE
  5
167
100
AcDbEntity
  8
レイヤー_1
  6
CONTINUOUS
 62
       7
100
AcDbLine
 10
45.43799114
 20
32.07855356
 30
0.0
 11
45.43799114
 21
33.58504101
 31
0.0
  0
LINE
  5
168
100
AcDbEntity
  8
レイヤー_1
  6
CONTINUOUS
 62
       7
100
AcDbLine
 10
45.43799114
 20
33.58504101
 30
0.0
 11
40.56114564
 21
33.58504101
 31
0.0
  0
LINE
  5
169
100
AcDbEntity
  8
レイヤー_1
  6
CONTINUOUS
 62
       7
100
AcDbLine
 10
40.56114564
 20
33.58504101
 30
0.0
 11
40.56114564
 21
32.07855356
 31
0.0
  0
LINE
  5
16A
100
AcDbEntity
  8
レイヤー_1
  6
CONTINUOUS
 62
       7
100
AcDbLine
 10
40.56114564
 20
32.07855356
 30
0.0
 11
45.43799114
 21
32.07855356
 31
0.0
  0
LINE
  5
16B
100
AcDbEntity
  8
レイヤー_1
  6
CONTINUOUS
 62
       7
100
AcDbLine
 10
45.43799114
 20
35.08631118
 30
0.0
 11
45.43799114
 21
36.59279862
 31
0.0
  0
LINE
  5
16C
100
AcDbEntity
  8
レイヤー_1
  6
CONTINUOUS
 62
       7
100
AcDbLine
 10
45.43799114
 20
36.59279862
 30
0.0
 11
40.56114564
 21
36.59279862
 31
0.0
  0
LINE
  5
16D
100
AcDbEntity
  8
レイヤー_1
  6
CONTINUOUS
 62
       7
100
AcDbLine
 10
40.56114564
 20
36.59279862
 30
0.0
 11
40.56114564
 21
35.08631118
 31
0.0
  0
LINE
  5
16E
100
AcDbEntity
  8
レイヤー_1
  6
CONTINUOUS
 62
       7
100
AcDbLine
 10
40.56114564
 20
35.08631118
 30
0.0
 11
45.43799114
 21
35.08631118
 31
0.0
  0
LINE
  5
16F
100
AcDbEntity
  8
レイヤー_1
  6
CONTINUOUS
 62
       7
100
AcDbLine
 10
45.43799114
 20
38.09537311
 30
0.0
 11
45.43799114
 21
39.60316487
 31
0.0
  0
LINE
  5
170
100
AcDbEntity
  8
レイヤー_1
  6
CONTINUOUS
 62
       7
100
AcDbLine
 10
45.43799114
 20
39.60316487
 30
0.0
 11
40.56114564
 21
39.60316487
 31
0.0
  0
LINE
  5
171
100
AcDbEntity
  8
レイヤー_1
  6
CONTINUOUS
 62
       7
100
AcDbLine
 10
40.56114564
 20
39.60316487
 30
0.0
 11
40.56114564
 21
38.09537311
 31
0.0
  0
LINE
  5
172
100
AcDbEntity
  8
レイヤー_1
  6
CONTINUOUS
 62
       7
100
AcDbLine
 10
40.56114564
 20
38.09537311
 30
0.0
 11
45.43799114
 21
38.09537311
 31
0.0
  0
LINE
  5
173
100
AcDbEntity
  8
レイヤー_1
  6
CONTINUOUS
 62
       7
100
AcDbLine
 10
45.43799114
 20
41.10443505
 30
0.0
 11
45.43799114
 21
42.61092249
 31
0.0
  0
LINE
  5
174
100
AcDbEntity
  8
レイヤー_1
  6
CONTINUOUS
 62
       7
100
AcDbLine
 10
45.43799114
 20
42.61092249
 30
0.0
 11
40.56114564
 21
42.61092249
 31
0.0
  0
LINE
  5
175
100
AcDbEntity
  8
レイヤー_1
  6
CONTINUOUS
 62
       7
100
AcDbLine
 10
40.56114564
 20
42.61092249
 30
0.0
 11
40.56114564
 21
41.10443505
 31
0.0
  0
LINE
  5
176
100
AcDbEntity
  8
レイヤー_1
  6
CONTINUOUS
 62
       7
100
AcDbLine
 10
40.56114564
 20
41.10443505
 30
0.0
 11
45.43799114
 21
41.10443505
 31
0.0
  0
LINE
  5
177
100
AcDbEntity
  8
レイヤー_1
  6
CONTINUOUS
 62
       7
100
AcDbLine
 10
45.43799114
 20
44.11219266
 30
0.0
 11
45.43799114
 21
45.61998442
 31
0.0
  0
LINE
  5
178
100
AcDbEntity
  8
レイヤー_1
  6
CONTINUOUS
 62
       7
100
AcDbLine
 10
45.43799114
 20
45.61998442
 30
0.0
 11
40.56114564
 21
45.61998442
 31
0.0
  0
LINE
  5
179
100
AcDbEntity
  8
レイヤー_1
  6
CONTINUOUS
 62
       7
100
AcDbLine
 10
40.56114564
 20
45.61998442
 30
0.0
 11
40.56114564
 21
44.11219266
 31
0.0
  0
LINE
  5
17A
100
AcDbEntity
  8
レイヤー_1
  6
CONTINUOUS
 62
       7
100
AcDbLine
 10
40.56114564
 20
44.11219266
 30
0.0
 11
45.43799114
 21
44.11219266
 31
0.0
  0
LINE
  5
17B
100
AcDbEntity
  8
レイヤー_1
  6
CONTINUOUS
 62
       7
100
AcDbLine
 10
45.43799114
 20
47.12255891
 30
0.0
 11
45.43799114
 21
48.62904636
 31
0.0
  0
LINE
  5
17C
100
AcDbEntity
  8
レイヤー_1
  6
CONTINUOUS
 62
       7
100
AcDbLine
 10
45.43799114
 20
48.62904636
 30
0.0
 11
40.56114564
 21
48.62904636
 31
0.0
  0
LINE
  5
17D
100
AcDbEntity
  8
レイヤー_1
  6
CONTINUOUS
 62
       7
100
AcDbLine
 10
40.56114564
 20
48.62904636
 30
0.0
 11
40.56114564
 21
47.12255891
 31
0.0
  0
LINE
  5
17E
100
AcDbEntity
  8
レイヤー_1
  6
CONTINUOUS
 62
       7
100
AcDbLine
 10
40.56114564
 20
47.12255891
 30
0.0
 11
45.43799114
 21
47.12255891
 31
0.0
  0
LINE
  5
17F
100
AcDbEntity
  8
レイヤー_1
  6
CONTINUOUS
 62
       7
100
AcDbLine
 10
46.42796861
 20
21.38510135
 30
0.0
 11
46.42796861
 21
50.29466061
 31
0.0
  0
LINE
  5
180
100
AcDbEntity
  8
レイヤー_1
  6
CONTINUOUS
 62
       7
100
AcDbLine
 10
39.56986385
 20
50.29466061
 30
0.0
 11
39.56986385
 21
21.38510135
 31
0.0
  0
LINE
  5
181
100
AcDbEntity
  8
レイヤー_1
  6
CONTINUOUS
 62
       7
100
AcDbLine
 10
39.56986385
 20
21.38510135
 30
0.0
 11
46.42796861
 21
21.38510135
 31
0.0
  0
LINE
  5
182
100
AcDbEntity
  8
レイヤー_1
  6
CONTINUOUS
 62
       7
100
AcDbLine
 10
37.98381301
 20
23.0507156
 30
0.0
 11
37.98381301
 21
24.55720305
 31
0.0
  0
LINE
  5
183
100
AcDbEntity
  8
レイヤー_1
  6
CONTINUOUS
 62
       7
100
AcDbLine
 10
37.98381301
 20
24.55720305
 30
0.0
 11
33.1069675
 21
24.55720305
 31
0.0
  0
LINE
  5
184
100
AcDbEntity
  8
レイヤー_1
  6
CONTINUOUS
 62
       7
100
AcDbLine
 10
33.1069675
 20
24.55720305
 30
0.0
 11
33.1069675
 21
23.0507156
 31
0.0
  0
LINE
  5
185
100
AcDbEntity
  8
レイヤー_1
  6
CONTINUOUS
 62
       7
100
AcDbLine
 10
33.1069675
 20
23.0507156
 30
0.0
 11
37.98381301
 21
23.0507156
 31
0.0
  0
LINE
  5
186
100
AcDbEntity
  8
レイヤー_1
  6
CONTINUOUS
 62
       7
100
AcDbLine
 10
37.98381301
 20
26.05977754
 30
0.0
 11
37.98381301
 21
27.56626498
 31
0.0
  0
LINE
  5
187
100
AcDbEntity
  8
レイヤー_1
  6
CONTINUOUS
 62
       7
100
AcDbLine
 10
37.98381301
 20
27.56626498
 30
0.0
 11
33.1069675
 21
27.56626498
 31
0.0
  0
LINE
  5
188
100
AcDbEntity
  8
レイヤー_1
  6
CONTINUOUS
 62
       7
100
AcDbLine
 10
33.1069675
 20
27.56626498
 30
0.0
 11
33.1069675
 21
26.05977754
 31
0.0
  0
LINE
  5
189
100
AcDbEntity
  8
レイヤー_1
  6
CONTINUOUS
 62
       7
100
AcDbLine
 10
33.1069675
 20
26.05977754
 30
0.0
 11
37.98381301
 21
26.05977754
 31
0.0
  0
LINE
  5
18A
100
AcDbEntity
  8
レイヤー_1
  6
CONTINUOUS
 62
       7
100
AcDbLine
 10
67.79661259
 20
23.0507156
 30
0.0
 11
67.79661259
 21
24.55720305
 31
0.0
  0
LINE
  5
18B
100
AcDbEntity
  8
レイヤー_1
  6
CONTINUOUS
 62
       7
100
AcDbLine
 10
67.79661259
 20
24.55720305
 30
0.0
 11
62.92107139
 21
24.55720305
 31
0.0
  0
LINE
  5
18C
100
AcDbEntity
  8
レイヤー_1
  6
CONTINUOUS
 62
       7
100
AcDbLine
 10
62.92107139
 20
24.55720305
 30
0.0
 11
62.92107139
 21
23.0507156
 31
0.0
  0
LINE
  5
18D
100
AcDbEntity
  8
レイヤー_1
  6
CONTINUOUS
 62
       7
100
AcDbLine
 10
62.92107139
 20
23.0507156
 30
0.0
 11
67.79661259
 21
23.0507156
 31
0.0
  0
LINE
  5
18E
100
AcDbEntity
  8
レイヤー_1
  6
CONTINUOUS
 62
       7
100
AcDbLine
 10
67.79661259
 20
26.05977754
 30
0.0
 11
67.79661259
 21
27.56626498
 31
0.0
  0
LINE
  5
18F
100
AcDbEntity
  8
レイヤー_1
  6
CONTINUOUS
 62
       7
100
AcDbLine
 10
67.79661259
 20
27.56626498
 30
0.0
 11
62.92107139
 21
27.56626498
 31
0.0
  0
LINE
  5
190
100
AcDbEntity
  8
レイヤー_1
  6
CONTINUOUS
 62
       7
100
AcDbLine
 10
62.92107139
 20
27.56626498
 30
0.0
 11
62.92107139
 21
26.05977754
 31
0.0
  0
LINE
  5
191
100
AcDbEntity
  8
レイヤー_1
  6
CONTINUOUS
 62
       7
100
AcDbLine
 10
62.92107139
 20
26.05977754
 30
0.0
 11
67.79661259
 21
26.05977754
 31
0.0
  0
LINE
  5
192
100
AcDbEntity
  8
レイヤー_1
  6
CONTINUOUS
 62
       7
100
AcDbLine
 10
67.79661259
 20
29.06753515
 30
0.0
 11
67.79661259
 21
30.57597907
 31
0.0
  0
LINE
  5
193
100
AcDbEntity
  8
レイヤー_1
  6
CONTINUOUS
 62
       7
100
AcDbLine
 10
67.79661259
 20
30.57597907
 30
0.0
 11
62.92107139
 21
30.57597907
 31
0.0
  0
LINE
  5
194
100
AcDbEntity
  8
レイヤー_1
  6
CONTINUOUS
 62
       7
100
AcDbLine
 10
62.92107139
 20
30.57597907
 30
0.0
 11
62.92107139
 21
29.06753515
 31
0.0
  0
LINE
  5
195
100
AcDbEntity
  8
レイヤー_1
  6
CONTINUOUS
 62
       7
100
AcDbLine
 10
62.92107139
 20
29.06753515
 30
0.0
 11
67.79661259
 21
29.06753515
 31
0.0
  0
LINE
  5
196
100
AcDbEntity
  8
レイヤー_1
  6
CONTINUOUS
 62
       7
100
AcDbLine
 10
67.79661259
 20
32.07855356
 30
0.0
 11
67.79661259
 21
33.58504101
 31
0.0
  0
LINE
  5
197
100
AcDbEntity
  8
レイヤー_1
  6
CONTINUOUS
 62
       7
100
AcDbLine
 10
67.79661259
 20
33.58504101
 30
0.0
 11
62.92107139
 21
33.58504101
 31
0.0
  0
LINE
  5
198
100
AcDbEntity
  8
レイヤー_1
  6
CONTINUOUS
 62
       7
100
AcDbLine
 10
62.92107139
 20
33.58504101
 30
0.0
 11
62.92107139
 21
32.07855356
 31
0.0
  0
LINE
  5
199
100
AcDbEntity
  8
レイヤー_1
  6
CONTINUOUS
 62
       7
100
AcDbLine
 10
62.92107139
 20
32.07855356
 30
0.0
 11
67.79661259
 21
32.07855356
 31
0.0
  0
LINE
  5
19A
100
AcDbEntity
  8
レイヤー_1
  6
CONTINUOUS
 62
       7
100
AcDbLine
 10
67.79661259
 20
35.08631118
 30
0.0
 11
67.79661259
 21
36.59279862
 31
0.0
  0
LINE
  5
19B
100
AcDbEntity
  8
レイヤー_1
  6
CONTINUOUS
 62
       7
100
AcDbLine
 10
67.79661259
 20
36.59279862
 30
0.0
 11
62.92107139
 21
36.59279862
 31
0.0
  0
LINE
  5
19C
100
AcDbEntity
  8
レイヤー_1
  6
CONTINUOUS
 62
       7
100
AcDbLine
 10
62.92107139
 20
36.59279862
 30
0.0
 11
62.92107139
 21
35.08631118
 31
0.0
  0
LINE
  5
19D
100
AcDbEntity
  8
レイヤー_1
  6
CONTINUOUS
 62
       7
100
AcDbLine
 10
62.92107139
 20
35.08631118
 30
0.0
 11
67.79661259
 21
35.08631118
 31
0.0
  0
LINE
  5
19E
100
AcDbEntity
  8
レイヤー_1
  6
CONTINUOUS
 62
       7
100
AcDbLine
 10
67.79661259
 20
38.09537311
 30
0.0
 11
67.79661259
 21
39.60316487
 31
0.0
  0
LINE
  5
19F
100
AcDbEntity
  8
レイヤー_1
  6
CONTINUOUS
 62
       7
100
AcDbLine
 10
67.79661259
 20
39.60316487
 30
0.0
 11
62.92107139
 21
39.60316487
 31
0.0
  0
LINE
  5
1A0
100
AcDbEntity
  8
レイヤー_1
  6
CONTINUOUS
 62
       7
100
AcDbLine
 10
62.92107139
 20
39.60316487
 30
0.0
 11
62.92107139
 21
38.09537311
 31
0.0
  0
LINE
  5
1A1
100
AcDbEntity
  8
レイヤー_1
  6
CONTINUOUS
 62
       7
100
AcDbLine
 10
62.92107139
 20
38.09537311
 30
0.0
 11
67.79661259
 21
38.09537311
 31
0.0
  0
LINE
  5
1A2
100
AcDbEntity
  8
レイヤー_1
  6
CONTINUOUS
 62
       7
100
AcDbLine
 10
67.79661259
 20
41.10443505
 30
0.0
 11
67.79661259
 21
42.61092249
 31
0.0
  0
LINE
  5
1A3
100
AcDbEntity
  8
レイヤー_1
  6
CONTINUOUS
 62
       7
100
AcDbLine
 10
67.79661259
 20
42.61092249
 30
0.0
 11
62.92107139
 21
42.61092249
 31
0.0
  0
LINE
  5
1A4
100
AcDbEntity
  8
レイヤー_1
  6
CONTINUOUS
 62
       7
100
AcDbLine
 10
62.92107139
 20
42.61092249
 30
0.0
 11
62.92107139
 21
41.10443505
 31
0.0
  0
LINE
  5
1A5
100
AcDbEntity
  8
レイヤー_1
  6
CONTINUOUS
 62
       7
100
AcDbLine
 10
62.92107139
 20
41.10443505
 30
0.0
 11
67.79661259
 21
41.10443505
 31
0.0
  0
LINE
  5
1A6
100
AcDbEntity
  8
レイヤー_1
  6
CONTINUOUS
 62
       7
100
AcDbLine
 10
67.79661259
 20
44.11219266
 30
0.0
 11
67.79661259
 21
45.61998442
 31
0.0
  0
LINE
  5
1A7
100
AcDbEntity
  8
レイヤー_1
  6
CONTINUOUS
 62
       7
100
AcDbLine
 10
67.79661259
 20
45.61998442
 30
0.0
 11
62.92107139
 21
45.61998442
 31
0.0
  0
LINE
  5
1A8
100
AcDbEntity
  8
レイヤー_1
  6
CONTINUOUS
 62
       7
100
AcDbLine
 10
62.92107139
 20
45.61998442
 30
0.0
 11
62.92107139
 21
44.11219266
 31
0.0
  0
LINE
  5
1A9
100
AcDbEntity
  8
レイヤー_1
  6
CONTINUOUS
 62
       7
100
AcDbLine
 10
62.92107139
 20
44.11219266
 30
0.0
 11
67.79661259
 21
44.11219266
 31
0.0
  0
LINE
  5
1AA
100
AcDbEntity
  8
レイヤー_1
  6
CONTINUOUS
 62
       7
100
AcDbLine
 10
67.79661259
 20
48.62904636
 30
0.0
 11
62.92107139
 21
48.62904636
 31
0.0
  0
LINE
  5
1AB
100
AcDbEntity
  8
レイヤー_1
  6
CONTINUOUS
 62
       7
100
AcDbLine
 10
62.92107139
 20
48.62904636
 30
0.0
 11
62.92107139
 21
47.12255891
 31
0.0
  0
LINE
  5
1AC
100
AcDbEntity
  8
レイヤー_1
  6
CONTINUOUS
 62
       7
100
AcDbLine
 10
62.92107139
 20
47.12255891
 30
0.0
 11
67.79661259
 21
47.12255891
 31
0.0
  0
LINE
  5
1AD
100
AcDbEntity
  8
レイヤー_1
  6
CONTINUOUS
 62
       7
100
AcDbLine
 10
68.78789436
 20
21.38510135
 30
0.0
 11
68.78789436
 21
50.29466061
 31
0.0
  0
LINE
  5
1AE
100
AcDbEntity
  8
レイヤー_1
  6
CONTINUOUS
 62
       7
100
AcDbLine
 10
61.92978962
 20
50.29466061
 30
0.0
 11
61.92978962
 21
21.38510135
 31
0.0
  0
LINE
  5
1AF
100
AcDbEntity
  8
レイヤー_1
  6
CONTINUOUS
 62
       7
100
AcDbLine
 10
61.92978962
 20
21.38510135
 30
0.0
 11
68.78789436
 21
21.38510135
 31
0.0
  0
LINE
  5
1B0
100
AcDbEntity
  8
レイヤー_1
  6
CONTINUOUS
 62
       7
100
AcDbLine
 10
60.34373876
 20
23.0507156
 30
0.0
 11
60.34373876
 21
24.55720305
 31
0.0
  0
LINE
  5
1B1
100
AcDbEntity
  8
レイヤー_1
  6
CONTINUOUS
 62
       7
100
AcDbLine
 10
60.34373876
 20
24.55720305
 30
0.0
 11
55.46819758
 21
24.55720305
 31
0.0
  0
LINE
  5
1B2
100
AcDbEntity
  8
レイヤー_1
  6
CONTINUOUS
 62
       7
100
AcDbLine
 10
55.46819758
 20
24.55720305
 30
0.0
 11
55.46819758
 21
23.0507156
 31
0.0
  0
LINE
  5
1B3
100
AcDbEntity
  8
レイヤー_1
  6
CONTINUOUS
 62
       7
100
AcDbLine
 10
55.46819758
 20
23.0507156
 30
0.0
 11
60.34373876
 21
23.0507156
 31
0.0
  0
LINE
  5
1B4
100
AcDbEntity
  8
レイヤー_1
  6
CONTINUOUS
 62
       7
100
AcDbLine
 10
60.34373876
 20
26.05977754
 30
0.0
 11
60.34373876
 21
27.56626498
 31
0.0
  0
LINE
  5
1B5
100
AcDbEntity
  8
レイヤー_1
  6
CONTINUOUS
 62
       7
100
AcDbLine
 10
60.34373876
 20
27.56626498
 30
0.0
 11
55.46819758
 21
27.56626498
 31
0.0
  0
LINE
  5
1B6
100
AcDbEntity
  8
レイヤー_1
  6
CONTINUOUS
 62
       7
100
AcDbLine
 10
55.46819758
 20
27.56626498
 30
0.0
 11
55.46819758
 21
26.05977754
 31
0.0
  0
LINE
  5
1B7
100
AcDbEntity
  8
レイヤー_1
  6
CONTINUOUS
 62
       7
100
AcDbLine
 10
55.46819758
 20
26.05977754
 30
0.0
 11
60.34373876
 21
26.05977754
 31
0.0
  0
LINE
  5
1B8
100
AcDbEntity
  8
レイヤー_1
  6
CONTINUOUS
 62
       7
100
AcDbLine
 10
60.34373876
 20
29.06753515
 30
0.0
 11
60.34373876
 21
30.57597907
 31
0.0
  0
LINE
  5
1B9
100
AcDbEntity
  8
レイヤー_1
  6
CONTINUOUS
 62
       7
100
AcDbLine
 10
60.34373876
 20
30.57597907
 30
0.0
 11
55.46819758
 21
30.57597907
 31
0.0
  0
LINE
  5
1BA
100
AcDbEntity
  8
レイヤー_1
  6
CONTINUOUS
 62
       7
100
AcDbLine
 10
55.46819758
 20
30.57597907
 30
0.0
 11
55.46819758
 21
29.06753515
 31
0.0
  0
LINE
  5
1BB
100
AcDbEntity
  8
レイヤー_1
  6
CONTINUOUS
 62
       7
100
AcDbLine
 10
55.46819758
 20
29.06753515
 30
0.0
 11
60.34373876
 21
29.06753515
 31
0.0
  0
LINE
  5
1BC
100
AcDbEntity
  8
レイヤー_1
  6
CONTINUOUS
 62
       7
100
AcDbLine
 10
60.34373876
 20
32.07855356
 30
0.0
 11
60.34373876
 21
33.58504101
 31
0.0
  0
LINE
  5
1BD
100
AcDbEntity
  8
レイヤー_1
  6
CONTINUOUS
 62
       7
100
AcDbLine
 10
60.34373876
 20
33.58504101
 30
0.0
 11
55.46819758
 21
33.58504101
 31
0.0
  0
LINE
  5
1BE
100
AcDbEntity
  8
レイヤー_1
  6
CONTINUOUS
 62
       7
100
AcDbLine
 10
55.46819758
 20
33.58504101
 30
0.0
 11
55.46819758
 21
32.07855356
 31
0.0
  0
LINE
  5
1BF
100
AcDbEntity
  8
レイヤー_1
  6
CONTINUOUS
 62
       7
100
AcDbLine
 10
55.46819758
 20
32.07855356
 30
0.0
 11
60.34373876
 21
32.07855356
 31
0.0
  0
LINE
  5
1C0
100
AcDbEntity
  8
レイヤー_1
  6
CONTINUOUS
 62
       7
100
AcDbLine
 10
60.34373876
 20
35.08631118
 30
0.0
 11
60.34373876
 21
36.59279862
 31
0.0
  0
LINE
  5
1C1
100
AcDbEntity
  8
レイヤー_1
  6
CONTINUOUS
 62
       7
100
AcDbLine
 10
60.34373876
 20
36.59279862
 30
0.0
 11
55.46819758
 21
36.59279862
 31
0.0
  0
LINE
  5
1C2
100
AcDbEntity
  8
レイヤー_1
  6
CONTINUOUS
 62
       7
100
AcDbLine
 10
55.46819758
 20
36.59279862
 30
0.0
 11
55.46819758
 21
35.08631118
 31
0.0
  0
LINE
  5
1C3
100
AcDbEntity
  8
レイヤー_1
  6
CONTINUOUS
 62
       7
100
AcDbLine
 10
55.46819758
 20
35.08631118
 30
0.0
 11
60.34373876
 21
35.08631118
 31
0.0
  0
LINE
  5
1C4
100
AcDbEntity
  8
レイヤー_1
  6
CONTINUOUS
 62
       7
100
AcDbLine
 10
60.34373876
 20
38.09537311
 30
0.0
 11
60.34373876
 21
39.60316487
 31
0.0
  0
LINE
  5
1C5
100
AcDbEntity
  8
レイヤー_1
  6
CONTINUOUS
 62
       7
100
AcDbLine
 10
60.34373876
 20
39.60316487
 30
0.0
 11
55.46819758
 21
39.60316487
 31
0.0
  0
LINE
  5
1C6
100
AcDbEntity
  8
レイヤー_1
  6
CONTINUOUS
 62
       7
100
AcDbLine
 10
55.46819758
 20
39.60316487
 30
0.0
 11
55.46819758
 21
38.09537311
 31
0.0
  0
LINE
  5
1C7
100
AcDbEntity
  8
レイヤー_1
  6
CONTINUOUS
 62
       7
100
AcDbLine
 10
55.46819758
 20
38.09537311
 30
0.0
 11
60.34373876
 21
38.09537311
 31
0.0
  0
LINE
  5
1C8
100
AcDbEntity
  8
レイヤー_1
  6
CONTINUOUS
 62
       7
100
AcDbLine
 10
60.34373876
 20
41.10443505
 30
0.0
 11
60.34373876
 21
42.61092249
 31
0.0
  0
LINE
  5
1C9
100
AcDbEntity
  8
レイヤー_1
  6
CONTINUOUS
 62
       7
100
AcDbLine
 10
60.34373876
 20
42.61092249
 30
0.0
 11
55.46819758
 21
42.61092249
 31
0.0
  0
LINE
  5
1CA
100
AcDbEntity
  8
レイヤー_1
  6
CONTINUOUS
 62
       7
100
AcDbLine
 10
55.46819758
 20
42.61092249
 30
0.0
 11
55.46819758
 21
41.10443505
 31
0.0
  0
LINE
  5
1CB
100
AcDbEntity
  8
レイヤー_1
  6
CONTINUOUS
 62
       7
100
AcDbLine
 10
55.46819758
 20
41.10443505
 30
0.0
 11
60.34373876
 21
41.10443505
 31
0.0
  0
LINE
  5
1CC
100
AcDbEntity
  8
レイヤー_1
  6
CONTINUOUS
 62
       7
100
AcDbLine
 10
60.34373876
 20
44.11219266
 30
0.0
 11
60.34373876
 21
45.61998442
 31
0.0
  0
LINE
  5
1CD
100
AcDbEntity
  8
レイヤー_1
  6
CONTINUOUS
 62
       7
100
AcDbLine
 10
60.34373876
 20
45.61998442
 30
0.0
 11
55.46819758
 21
45.61998442
 31
0.0
  0
LINE
  5
1CE
100
AcDbEntity
  8
レイヤー_1
  6
CONTINUOUS
 62
       7
100
AcDbLine
 10
55.46819758
 20
45.61998442
 30
0.0
 11
55.46819758
 21
44.11219266
 31
0.0
  0
LINE
  5
1CF
100
AcDbEntity
  8
レイヤー_1
  6
CONTINUOUS
 62
       7
100
AcDbLine
 10
55.46819758
 20
44.11219266
 30
0.0
 11
60.34373876
 21
44.11219266
 31
0.0
  0
LINE
  5
1D0
100
AcDbEntity
  8
レイヤー_1
  6
CONTINUOUS
 62
       7
100
AcDbLine
 10
60.34373876
 20
47.12255891
 30
0.0
 11
60.34373876
 21
48.62904636
 31
0.0
  0
LINE
  5
1D1
100
AcDbEntity
  8
レイヤー_1
  6
CONTINUOUS
 62
       7
100
AcDbLine
 10
60.34373876
 20
48.62904636
 30
0.0
 11
55.46819758
 21
48.62904636
 31
0.0
  0
LINE
  5
1D2
100
AcDbEntity
  8
レイヤー_1
  6
CONTINUOUS
 62
       7
100
AcDbLine
 10
55.46819758
 20
48.62904636
 30
0.0
 11
55.46819758
 21
47.12255891
 31
0.0
  0
LINE
  5
1D3
100
AcDbEntity
  8
レイヤー_1
  6
CONTINUOUS
 62
       7
100
AcDbLine
 10
55.46819758
 20
47.12255891
 30
0.0
 11
60.34373876
 21
47.12255891
 31
0.0
  0
LINE
  5
1D4
100
AcDbEntity
  8
レイヤー_1
  6
CONTINUOUS
 62
       7
100
AcDbLine
 10
61.33502055
 20
21.38510135
 30
0.0
 11
61.33502055
 21
50.29466061
 31
0.0
  0
LINE
  5
1D5
100
AcDbEntity
  8
レイヤー_1
  6
CONTINUOUS
 62
       7
100
AcDbLine
 10
54.47691581
 20
50.29466061
 30
0.0
 11
54.47691581
 21
21.38510135
 31
0.0
  0
LINE
  5
1D6
100
AcDbEntity
  8
レイヤー_1
  6
CONTINUOUS
 62
       7
100
AcDbLine
 10
54.47691581
 20
21.38510135
 30
0.0
 11
61.33502055
 21
21.38510135
 31
0.0
  0
LINE
  5
1D7
100
AcDbEntity
  8
レイヤー_1
  6
CONTINUOUS
 62
       7
100
AcDbLine
 10
4.28649072
 20
-39.77050913
 30
0.0
 11
82.18648671
 21
-39.77050913
 31
0.0
  0
LINE
  5
1D8
100
AcDbEntity
  8
レイヤー_1
  6
CONTINUOUS
 62
       7
100
AcDbLine
 10
4.28648592
 20
50.22949087
 30
0.0
 11
92.28648581
 21
50.22949087
 31
0.0
  0
LINE
  5
1D9
100
AcDbEntity
  8
レイヤー_1
  6
CONTINUOUS
 62
       7
100
AcDbLine
 10
67.79661259
 20
47.1212546
 30
0.0
 11
67.79661259
 21
48.62904636
 31
0.0
  0
LINE
  5
1DA
100
AcDbEntity
  8
レイヤー_1
  6
CENTERX2
 62
       7
100
AcDbLine
 10
-77.80808182
 20
5.22949087
 30
0.0
 11
-102.95893549
 21
5.22949087
 31
0.0
  0
LINE
  5
1DB
100
AcDbEntity
  8
レイヤー_1
  6
CENTERX2
 62
       7
100
AcDbLine
 10
-49.73184815
 20
5.22948318
 30
0.0
 11
102.95893549
 21
5.22949087
 31
0.0
  0
TEXT
  5
1DC
100
AcDbEntity
  8
SLD-0
 62
       7
100
AcDbText
 10
85.90480569
 20
-60.6646558
 30
0.0
 40
5.0
  1
000
 72
       5
 11
100.90480569
 21
-60.6646558
 31
0.0
100
AcDbText
  0
ENDSEC
  0
SECTION
  2
OBJECTS
  0
DICTIONARY
  5
19
100
AcDbDictionary
  3
ACAD_GROUP
350
1A
  3
ACAD_MLINESTYLE
350
1B
  0
DICTIONARY
  5
1A
102
{ACAD_REACTORS
330
19
102
}
100
AcDbDictionary
  0
DICTIONARY
  5
1B
102
{ACAD_REACTORS
330
19
102
}
100
AcDbDictionary
  3
STANDARD
350
1C
  0
MLINESTYLE
  5
1C
102
{ACAD_REACTORS
330
1B
102
}
100
AcDbMlineStyle
  2
STANDARD
 70
       0
  3

 62
       0
 51
90.0
 52
90.0
 71
       2
 49
0.5
 62
     256
  6
BYLAYER
 49
-0.5
 62
     256
  6
BYLAYER
  0
ENDSEC
  0
EOF
