  0
SECTION
  2
HEADER
  9
$ACADVER
  1
AC1015
  9
$ACADMAINTVER
 70
     6
  9
$DWGCODEPAGE
  3
DOS932
  9
$INSBASE
 10
0.0
 20
0.0
 30
0.0
  9
$EXTMIN
 10
0.0
 20
0.0
 30
0.0
  9
$EXTMAX
 10
297.0
 20
210.0
 30
0.0
  9
$LIMMIN
 10
0.0
 20
0.0
  9
$LIMMAX
 10
297.0
 20
210.0
  9
$ORTHOMODE
 70
     0
  9
$REGENMODE
 70
     1
  9
$FILLMODE
 70
     1
  9
$QTEXTMODE
 70
     0
  9
$MIRRTEXT
 70
     1
  9
$LTSCALE
 40
1.0
  9
$ATTMODE
 70
     1
  9
$TEXTSIZE
 40
3.5
  9
$TRACEWID
 40
1.0
  9
$TEXTSTYLE
  7
Standard
  9
$CLAYER
  8
0
  9
$CELTYPE
  6
ByLayer
  9
$CECOLOR
 62
   256
  9
$CELTSCALE
 40
1.0
  9
$DISPSILH
 70
     0
  9
$DIMSCALE
 40
1.0
  9
$DIMASZ
 40
4.0
  9
$DIMEXO
 40
1.0
  9
$DIMDLI
 40
3.75
  9
$DIMRND
 40
0.0
  9
$DIMDLE
 40
0.0
  9
$DIMEXE
 40
1.0
  9
$DIMTP
 40
0.0
  9
$DIMTM
 40
0.0
  9
$DIMTXT
 40
3.5
  9
$DIMCEN
 40
2.5
  9
$DIMTSZ
 40
0.0
  9
$DIMTOL
 70
     0
  9
$DIMLIM
 70
     0
  9
$DIMTIH
 70
     1
  9
$DIMTOH
 70
     1
  9
$DIMSE1
 70
     0
  9
$DIMSE2
 70
     0
  9
$DIMTAD
 70
     1
  9
$DIMZIN
 70
     1
  9
$DIMBLK
  1

  9
$DIMASO
 70
     1
  9
$DIMSHO
 70
     1
  9
$DIMPOST
  1

  9
$DIMAPOST
  1

  9
$DIMALT
 70
     0
  9
$DIMALTD
 70
     3
  9
$DIMALTF
 40
0.0393700787
  9
$DIMLFAC
 40
1.0
  9
$DIMTOFL
 70
     1
  9
$DIMTVP
 40
0.0
  9
$DIMTIX
 70
     0
  9
$DIMSOXD
 70
     0
  9
$DIMSAH
 70
     0
  9
$DIMBLK1
  1

  9
$DIMBLK2
  1

  9
$DIMSTYLE
  2
ISO-25
  9
$DIMCLRD
 70
     0
  9
$DIMCLRE
 70
     0
  9
$DIMCLRT
 70
     0
  9
$DIMTFAC
 40
1.0
  9
$DIMGAP
 40
1.524
  9
$DIMJUST
 70
     0
  9
$DIMSD1
 70
     0
  9
$DIMSD2
 70
     0
  9
$DIMTOLJ
 70
     0
  9
$DIMTZIN
 70
     1
  9
$DIMALTZ
 70
     0
  9
$DIMALTTZ
 70
     0
  9
$DIMUPT
 70
     0
  9
$DIMDEC
 70
     4
  9
$DIMTDEC
 70
     4
  9
$DIMALTU
 70
     2
  9
$DIMALTTD
 70
     3
  9
$DIMTXSTY
  7
Standard
  9
$DIMAUNIT
 70
     0
  9
$DIMADEC
 70
     0
  9
$DIMALTRND
 40
0.0
  9
$DIMAZIN
 70
     0
  9
$DIMDSEP
 70
    44
  9
$DIMATFIT
 70
     3
  9
$DIMFRAC
 70
     0
  9
$DIMLDRBLK
  1

  9
$DIMLUNIT
 70
     2
  9
$DIMLWD
 70
    -2
  9
$DIMLWE
 70
    -2
  9
$DIMTMOVE
 70
     0
  9
$LUNITS
 70
     2
  9
$LUPREC
 70
     4
  9
$SKETCHINC
 40
1.0
  9
$FILLETRAD
 40
10.0
  9
$AUNITS
 70
     0
  9
$AUPREC
 70
     0
  9
$MENU
  1
.
  9
$ELEVATION
 40
0.0
  9
$PELEVATION
 40
0.0
  9
$THICKNESS
 40
0.0
  9
$LIMCHECK
 70
     0
  9
$CHAMFERA
 40
10.0
  9
$CHAMFERB
 40
10.0
  9
$CHAMFERC
 40
20.0
  9
$CHAMFERD
 40
0.0
  9
$SKPOLY
 70
     0
  9
$TDCREATE
 40
2456360.562636458
  9
$TDUCREATE
 40
2456360.187636458
  9
$TDUPDATE
 40
2456360.562636644
  9
$TDUUPDATE
 40
2456360.187636644
  9
$TDINDWG
 40
0.0000000116
  9
$TDUSRTIMER
 40
0.0000000116
  9
$USRTIMER
 70
     1
  9
$ANGBASE
 50
0.0
  9
$ANGDIR
 70
     0
  9
$PDMODE
 70
     0
  9
$PDSIZE
 40
-1.0
  9
$PLINEWID
 40
0.0
  9
$SPLFRAME
 70
     0
  9
$SPLINETYPE
 70
     6
  9
$SPLINESEGS
 70
     8
  9
$HANDSEED
  5
20B
  9
$SURFTAB1
 70
     6
  9
$SURFTAB2
 70
     6
  9
$SURFTYPE
 70
     6
  9
$SURFU
 70
     6
  9
$SURFV
 70
     6
  9
$UCSBASE
  2

  9
$UCSNAME
  2

  9
$UCSORG
 10
0.0
 20
0.0
 30
0.0
  9
$UCSXDIR
 10
1.0
 20
0.0
 30
0.0
  9
$UCSYDIR
 10
0.0
 20
1.0
 30
0.0
  9
$UCSORTHOREF
  2

  9
$UCSORTHOVIEW
 70
     0
  9
$UCSORGTOP
 10
0.0
 20
0.0
 30
0.0
  9
$UCSORGBOTTOM
 10
0.0
 20
0.0
 30
0.0
  9
$UCSORGLEFT
 10
0.0
 20
0.0
 30
0.0
  9
$UCSORGRIGHT
 10
0.0
 20
0.0
 30
0.0
  9
$UCSORGFRONT
 10
0.0
 20
0.0
 30
0.0
  9
$UCSORGBACK
 10
0.0
 20
0.0
 30
0.0
  9
$PUCSBASE
  2

  9
$PUCSNAME
  2

  9
$PUCSORG
 10
0.0
 20
0.0
 30
0.0
  9
$PUCSXDIR
 10
1.0
 20
0.0
 30
0.0
  9
$PUCSYDIR
 10
0.0
 20
1.0
 30
0.0
  9
$PUCSORTHOREF
  2

  9
$PUCSORTHOVIEW
 70
     0
  9
$PUCSORGTOP
 10
0.0
 20
0.0
 30
0.0
  9
$PUCSORGBOTTOM
 10
0.0
 20
0.0
 30
0.0
  9
$PUCSORGLEFT
 10
0.0
 20
0.0
 30
0.0
  9
$PUCSORGRIGHT
 10
0.0
 20
0.0
 30
0.0
  9
$PUCSORGFRONT
 10
0.0
 20
0.0
 30
0.0
  9
$PUCSORGBACK
 10
0.0
 20
0.0
 30
0.0
  9
$USERI1
 70
     0
  9
$USERI2
 70
     0
  9
$USERI3
 70
     0
  9
$USERI4
 70
     0
  9
$USERI5
 70
     0
  9
$USERR1
 40
0.0
  9
$USERR2
 40
0.0
  9
$USERR3
 40
0.0
  9
$USERR4
 40
0.0
  9
$USERR5
 40
0.0
  9
$WORLDVIEW
 70
     1
  9
$SHADEDGE
 70
     3
  9
$SHADEDIF
 70
    70
  9
$TILEMODE
 70
     1
  9
$MAXACTVP
 70
    64
  9
$PINSBASE
 10
0.0
 20
0.0
 30
0.0
  9
$PLIMCHECK
 70
     0
  9
$PEXTMIN
 10
1.0000000000E+20
 20
1.0000000000E+20
 30
1.0000000000E+20
  9
$PEXTMAX
 10
-1.0000000000E+20
 20
-1.0000000000E+20
 30
-1.0000000000E+20
  9
$PLIMMIN
 10
0.0
 20
0.0
  9
$PLIMMAX
 10
420.0
 20
297.0
  9
$UNITMODE
 70
     0
  9
$VISRETAIN
 70
     1
  9
$PLINEGEN
 70
     0
  9
$PSLTSCALE
 70
     1
  9
$TREEDEPTH
 70
  3020
  9
$CMLSTYLE
  2
Standard
  9
$CMLJUST
 70
     0
  9
$CMLSCALE
 40
20.0
  9
$PROXYGRAPHICS
 70
     1
  9
$MEASUREMENT
 70
     1
  9
$CELWEIGHT
370
    -1
  9
$ENDCAPS
280
     0
  9
$JOINSTYLE
280
     0
  9
$LWDISPLAY
290
     1
  9
$INSUNITS
 70
     4
  9
$HYPERLINKBASE
  1

  9
$STYLESHEET
  1

  9
$XEDIT
290
     1
  9
$CEPSNTYPE
380
     0
  9
$PSTYLEMODE
290
     1
  9
$FINGERPRINTGUID
  2
{F3E50B4F-521F-43F0-9455-12DC4889FBB1}
  9
$VERSIONGUID
  2
{FAEB1C32-E019-11D5-929B-00C0DF256EC4}
  9
$EXTNAMES
290
     1
  9
$PSVPSCALE
 40
0.0
  9
$OLESTARTUP
290
     0
  0
ENDSEC
  0
SECTION
  2
CLASSES
  0
CLASS
  1
ACDBDICTIONARYWDFLT
  2
AcDbDictionaryWithDefault
  3
ObjectDBX Classes
 90
        0
280
     0
281
     0
  0
CLASS
  1
VISUALSTYLE
  2
AcDbVisualStyle
  3
ObjectDBX Classes
 90
     4095
280
     0
281
     0
  0
CLASS
  1
MATERIAL
  2
AcDbMaterial
  3
ObjectDBX Classes
 90
     1153
280
     0
281
     0
  0
CLASS
  1
ACDBPLACEHOLDER
  2
AcDbPlaceHolder
  3
ObjectDBX Classes
 90
        0
280
     0
281
     0
  0
CLASS
  1
LAYOUT
  2
AcDbLayout
  3
ObjectDBX Classes
 90
        0
280
     0
281
     0
  0
ENDSEC
  0
SECTION
  2
TABLES
  0
TABLE
  2
VPORT
  5
8
330
0
100
AcDbSymbolTable
 70
     1
  0
VPORT
  5
29
330
8
100
AcDbSymbolTableRecord
100
AcDbViewportTableRecord
  2
*Active
 70
     0
 10
0.0
 20
0.0
 11
1.0
 21
1.0
 12
148.5
 22
105.0
 13
0.0
 23
0.0
 14
10.0
 24
10.0
 15
10.0
 25
10.0
 16
0.0
 26
0.0
 36
1.0
 17
0.0
 27
0.0
 37
0.0
 40
210.0
 41
1.4142857143
 42
50.0
 43
0.0
 44
0.0
 50
0.0
 51
0.0
 71
     0
 72
  2000
 73
     1
 74
     3
 75
     0
 76
     0
 77
     0
 78
     0
281
     0
 65
     1
110
0.0
120
0.0
130
0.0
111
1.0
121
0.0
131
0.0
112
0.0
122
1.0
132
0.0
 79
     0
146
0.0
  0
ENDTAB
  0
TABLE
  2
LTYPE
  5
5
330
0
100
AcDbSymbolTable
 70
     6
  0
LTYPE
  5
14
330
5
100
AcDbSymbolTableRecord
100
AcDbLinetypeTableRecord
  2
ByBlock
 70
     0
  3

 72
    65
 73
     0
 40
0.0
  0
LTYPE
  5
15
330
5
100
AcDbSymbolTableRecord
100
AcDbLinetypeTableRecord
  2
ByLayer
 70
     0
  3

 72
    65
 73
     0
 40
0.0
  0
LTYPE
  5
16
330
5
100
AcDbSymbolTableRecord
100
AcDbLinetypeTableRecord
  2
Continuous
 70
     0
  3
Solid line
 72
    65
 73
     0
 40
0.0
  0
LTYPE
  5
3F
330
5
100
AcDbSymbolTableRecord
100
AcDbLinetypeTableRecord
  2
HIDDEN
 70
     0
  3
Hidden __ __ __ __ __ __ __ __ __ __ __ __ __ __
 72
    65
 73
     2
 40
1.905
 49
1.27
 74
     0
 49
-0.635
 74
     0
  0
LTYPE
  5
40
330
5
100
AcDbSymbolTableRecord
100
AcDbLinetypeTableRecord
  2
PHANTOM
 70
     0
  3
Phantom ______  __  __  ______  __  __  ______
 72
    65
 73
     6
 40
12.7
 49
6.35
 74
     0
 49
-1.27
 74
     0
 49
1.27
 74
     0
 49
-1.27
 74
     0
 49
1.27
 74
     0
 49
-1.27
 74
     0
  0
LTYPE
  5
41
330
5
100
AcDbSymbolTableRecord
100
AcDbLinetypeTableRecord
  2
CENTER
 70
     0
  3
Center ____ _ ____ _ ____ _ ____ _ ____ _ ____
 72
    65
 73
     4
 40
10.16
 49
6.35
 74
     0
 49
-1.27
 74
     0
 49
1.27
 74
     0
 49
-1.27
 74
     0
  0
LTYPE
  5
42
330
5
100
AcDbSymbolTableRecord
100
AcDbLinetypeTableRecord
  2
CENTERX2
 70
     0
  3
Center (2x) ________  __  ________  __  _____
 72
    65
 73
     4
 40
20.32
 49
12.7
 74
     0
 49
-2.54
 74
     0
 49
2.54
 74
     0
 49
-2.54
 74
     0
  0
LTYPE
  5
43
330
5
100
AcDbSymbolTableRecord
100
AcDbLinetypeTableRecord
  2
DOT2
 70
     0
  3
Dot (.5x) ........................................
 72
    65
 73
     2
 40
0.635
 49
0.0
 74
     0
 49
-0.635
 74
     0
  0
ENDTAB
  0
TABLE
  2
LAYER
  5
2
330
0
100
AcDbSymbolTable
 70
     3
  0
LAYER
  5
10
330
2
100
AcDbSymbolTableRecord
100
AcDbLayerTableRecord
  2
0
 70
     0
 62
     7
  6
Continuous
370
    -3
390
F
  0
LAYER
  5
44
330
2
100
AcDbSymbolTableRecord
100
AcDbLayerTableRecord
  2
SLD-0_0
 70
     0
 62
   179
  6
Continuous
370
    -3
390
F
  0
LAYER
  5
45
330
2
100
AcDbSymbolTableRecord
100
AcDbLayerTableRecord
  2
SLD-0
 70
     0
 62
   179
  6
Continuous
370
    -3
390
F
  0
ENDTAB
  0
TABLE
  2
STYLE
  5
3
330
0
100
AcDbSymbolTable
 70
     2
  0
STYLE
  5
11
330
3
100
AcDbSymbolTableRecord
100
AcDbTextStyleTableRecord
  2
Standard
 70
     0
 40
0.0
 41
1.0
 50
0.0
 71
     0
 42
3.5
  3
txt
  4
bigfont
  0
STYLE
  5
209
330
3
100
AcDbSymbolTableRecord
100
AcDbTextStyleTableRecord
  2
SLDTEXTSTYLE0
 70
     0
 40
0.0
 41
0.9452307692
 50
0.0
 71
     0
 42
0.2
  3
TXT
  4
bigfont
  0
ENDTAB
  0
TABLE
  2
VIEW
  5
6
330
0
100
AcDbSymbolTable
 70
     0
  0
ENDTAB
  0
TABLE
  2
UCS
  5
7
330
0
100
AcDbSymbolTable
 70
     0
  0
ENDTAB
  0
TABLE
  2
APPID
  5
9
330
0
100
AcDbSymbolTable
 70
     1
  0
APPID
  5
12
330
9
100
AcDbSymbolTableRecord
100
AcDbRegAppTableRecord
  2
ACAD
 70
     0
  0
ENDTAB
  0
TABLE
  2
DIMSTYLE
  5
A
330
0
100
AcDbSymbolTable
 70
     1
100
AcDbDimStyleTable
  0
DIMSTYLE
105
27
330
A
100
AcDbSymbolTableRecord
100
AcDbDimStyleTableRecord
  2
ISO-25
 70
     0
 41
2.5
 42
0.625
 43
3.75
 44
1.25
 73
     0
 74
     0
 77
     1
 78
     8
140
2.5
141
2.5
143
0.0393700787
147
0.625
171
     3
172
     1
178
     0
271
     2
272
     2
274
     3
278
    44
283
     0
284
     8
340
11
  0
ENDTAB
  0
TABLE
  2
BLOCK_RECORD
  5
1
330
0
100
AcDbSymbolTable
 70
    10
  0
BLOCK_RECORD
  5
1F
330
1
100
AcDbSymbolTableRecord
100
AcDbBlockTableRecord
  2
*Model_Space
340
22
  0
BLOCK_RECORD
  5
1B
330
1
100
AcDbSymbolTableRecord
100
AcDbBlockTableRecord
  2
*Paper_Space
340
1E
  0
BLOCK_RECORD
  5
23
330
1
100
AcDbSymbolTableRecord
100
AcDbBlockTableRecord
  2
*Paper_Space0
340
26
  0
BLOCK_RECORD
  5
46
330
1
100
AcDbSymbolTableRecord
100
AcDbBlockTableRecord
  2
GROUP_1
340
0
102
{BLKREFS
331
200
102
}
  0
BLOCK_RECORD
  5
85
330
1
100
AcDbSymbolTableRecord
100
AcDbBlockTableRecord
  2
GROUP_2
340
0
102
{BLKREFS
331
201
102
}
  0
BLOCK_RECORD
  5
BA
330
1
100
AcDbSymbolTableRecord
100
AcDbBlockTableRecord
  2
GROUP_3
340
0
102
{BLKREFS
331
202
102
}
  0
BLOCK_RECORD
  5
F9
330
1
100
AcDbSymbolTableRecord
100
AcDbBlockTableRecord
  2
GROUP_4
340
0
102
{BLKREFS
331
203
102
}
  0
BLOCK_RECORD
  5
11A
330
1
100
AcDbSymbolTableRecord
100
AcDbBlockTableRecord
  2
GROUP_5
340
0
102
{BLKREFS
331
204
102
}
  0
BLOCK_RECORD
  5
131
330
1
100
AcDbSymbolTableRecord
100
AcDbBlockTableRecord
  2
GROUP_6
340
0
102
{BLKREFS
331
206
102
}
  0
BLOCK_RECORD
  5
148
330
1
100
AcDbSymbolTableRecord
100
AcDbBlockTableRecord
  2
GROUP_7
340
0
102
{BLKREFS
331
205
102
}
  0
BLOCK_RECORD
  5
15F
330
1
100
AcDbSymbolTableRecord
100
AcDbBlockTableRecord
  2
GROUP_8
340
0
102
{BLKREFS
331
207
102
}
  0
BLOCK_RECORD
  5
176
330
1
100
AcDbSymbolTableRecord
100
AcDbBlockTableRecord
  2
GROUP_9
340
0
102
{BLKREFS
331
208
102
}
  0
ENDTAB
  0
ENDSEC
  0
SECTION
  2
BLOCKS
  0
BLOCK
  5
20
330
1F
100
AcDbEntity
  8
0
100
AcDbBlockBegin
  2
*Model_Space
 70
     0
 10
0.0
 20
0.0
 30
0.0
  3
*Model_Space
  1

  0
ENDBLK
  5
21
330
1F
100
AcDbEntity
  8
0
100
AcDbBlockEnd
  0
BLOCK
  5
1C
330
1B
100
AcDbEntity
 67
     1
  8
0
100
AcDbBlockBegin
  2
*Paper_Space
 70
     0
 10
0.0
 20
0.0
 30
0.0
  3
*Paper_Space
  1

  0
ENDBLK
  5
1D
330
1B
100
AcDbEntity
 67
     1
  8
0
100
AcDbBlockEnd
  0
BLOCK
  5
24
330
23
100
AcDbEntity
  8
0
100
AcDbBlockBegin
  2
*Paper_Space0
 70
     0
 10
0.0
 20
0.0
 30
0.0
  3
*Paper_Space0
  1

  0
ENDBLK
  5
25
330
23
100
AcDbEntity
  8
0
100
AcDbBlockEnd
  0
BLOCK
  5
47
330
46
100
AcDbEntity
  8
0
100
AcDbBlockBegin
  2
GROUP_1
 70
     0
 10
0.0
 20
0.0
 30
0.0
  3
GROUP_1
  1

  0
LINE
  5
49
330
46
100
AcDbEntity
  8
SLD-0
  6
Continuous
 62
     3
100
AcDbLine
 10
9.37836988
 20
2.40387035
 30
0.0
 11
9.45574329
 21
2.41781244
 31
0.0
  0
LINE
  5
4A
330
46
100
AcDbEntity
  8
SLD-0
  6
Continuous
 62
     3
100
AcDbLine
 10
9.45574329
 20
2.41781244
 30
0.0
 11
9.53302716
 21
2.43210877
 31
0.0
  0
LINE
  5
4B
330
46
100
AcDbEntity
  8
SLD-0
  6
Continuous
 62
     3
100
AcDbLine
 10
9.53302716
 20
2.43210877
 30
0.0
 11
9.61021973
 21
2.44676638
 31
0.0
  0
LINE
  5
4C
330
46
100
AcDbEntity
  8
SLD-0
  6
Continuous
 62
     3
100
AcDbLine
 10
9.61021973
 20
2.44676638
 30
0.0
 11
9.68731922
 21
2.46179229
 31
0.0
  0
LINE
  5
4D
330
46
100
AcDbEntity
  8
SLD-0
  6
Continuous
 62
     3
100
AcDbLine
 10
9.68731922
 20
2.46179229
 30
0.0
 11
9.76432388
 21
2.47719353
 31
0.0
  0
LINE
  5
4E
330
46
100
AcDbEntity
  8
SLD-0
  6
Continuous
 62
     3
100
AcDbLine
 10
9.76432388
 20
2.47719353
 30
0.0
 11
9.84123194
 21
2.49297712
 31
0.0
  0
LINE
  5
4F
330
46
100
AcDbEntity
  8
SLD-0
  6
Continuous
 62
     3
100
AcDbLine
 10
9.84123194
 20
2.49297712
 30
0.0
 11
9.91804163
 21
2.5091501
 31
0.0
  0
LINE
  5
50
330
46
100
AcDbEntity
  8
SLD-0
  6
Continuous
 62
     3
100
AcDbLine
 10
9.91804163
 20
2.5091501
 30
0.0
 11
9.99475119
 21
2.52571948
 31
0.0
  0
LINE
  5
51
330
46
100
AcDbEntity
  8
SLD-0
  6
Continuous
 62
     3
100
AcDbLine
 10
9.99475119
 20
2.52571948
 30
0.0
 11
10.07135885
 21
2.5426923
 31
0.0
  0
LINE
  5
52
330
46
100
AcDbEntity
  8
SLD-0
  6
Continuous
 62
     3
100
AcDbLine
 10
10.07135885
 20
2.5426923
 30
0.0
 11
10.14786286
 21
2.56007559
 31
0.0
  0
LINE
  5
53
330
46
100
AcDbEntity
  8
SLD-0
  6
Continuous
 62
     3
100
AcDbLine
 10
10.14786286
 20
2.56007559
 30
0.0
 11
10.22426144
 21
2.57787636
 31
0.0
  0
LINE
  5
54
330
46
100
AcDbEntity
  8
SLD-0
  6
Continuous
 62
     3
100
AcDbLine
 10
10.22426144
 20
2.57787636
 30
0.0
 11
10.30055283
 21
2.59610164
 31
0.0
  0
LINE
  5
55
330
46
100
AcDbEntity
  8
SLD-0
  6
Continuous
 62
     3
100
AcDbLine
 10
10.30055283
 20
2.59610164
 30
0.0
 11
10.37673527
 21
2.61475847
 31
0.0
  0
LINE
  5
56
330
46
100
AcDbEntity
  8
SLD-0
  6
Continuous
 62
     3
100
AcDbLine
 10
10.37673527
 20
2.61475847
 30
0.0
 11
10.45280699
 21
2.63385387
 31
0.0
  0
LINE
  5
57
330
46
100
AcDbEntity
  8
SLD-0
  6
Continuous
 62
     3
100
AcDbLine
 10
10.45280699
 20
2.63385387
 30
0.0
 11
10.52876623
 21
2.65339486
 31
0.0
  0
LINE
  5
58
330
46
100
AcDbEntity
  8
SLD-0
  6
Continuous
 62
     3
100
AcDbLine
 10
10.52876623
 20
2.65339486
 30
0.0
 11
10.60463298
 21
2.67339397
 31
0.0
  0
LINE
  5
59
330
46
100
AcDbEntity
  8
SLD-0
  6
Continuous
 62
     3
100
AcDbLine
 10
10.60463298
 20
2.67339397
 30
0.0
 11
10.6804174
 21
2.69386663
 31
0.0
  0
LINE
  5
5A
330
46
100
AcDbEntity
  8
SLD-0
  6
Continuous
 62
     3
100
AcDbLine
 10
10.6804174
 20
2.69386663
 30
0.0
 11
10.75610295
 21
2.7148242
 31
0.0
  0
LINE
  5
5B
330
46
100
AcDbEntity
  8
SLD-0
  6
Continuous
 62
     3
100
AcDbLine
 10
10.75610295
 20
2.7148242
 30
0.0
 11
10.8316731
 21
2.73627809
 31
0.0
  0
LINE
  5
5C
330
46
100
AcDbEntity
  8
SLD-0
  6
Continuous
 62
     3
100
AcDbLine
 10
10.8316731
 20
2.73627809
 30
0.0
 11
10.90711133
 21
2.75823965
 31
0.0
  0
LINE
  5
5D
330
46
100
AcDbEntity
  8
SLD-0
  6
Continuous
 62
     3
100
AcDbLine
 10
10.90711133
 20
2.75823965
 30
0.0
 11
10.9824011
 21
2.78072028
 31
0.0
  0
LINE
  5
5E
330
46
100
AcDbEntity
  8
SLD-0
  6
Continuous
 62
     3
100
AcDbLine
 10
10.9824011
 20
2.78072028
 30
0.0
 11
11.05752587
 21
2.80373135
 31
0.0
  0
LINE
  5
5F
330
46
100
AcDbEntity
  8
SLD-0
  6
Continuous
 62
     3
100
AcDbLine
 10
11.05752587
 20
2.80373135
 30
0.0
 11
11.13246911
 21
2.82728424
 31
0.0
  0
LINE
  5
60
330
46
100
AcDbEntity
  8
SLD-0
  6
Continuous
 62
     3
100
AcDbLine
 10
11.13246911
 20
2.82728424
 30
0.0
 11
11.2072143
 21
2.85139033
 31
0.0
  0
LINE
  5
61
330
46
100
AcDbEntity
  8
SLD-0
  6
Continuous
 62
     3
100
AcDbLine
 10
11.2072143
 20
2.85139033
 30
0.0
 11
11.2817449
 21
2.87606101
 31
0.0
  0
LINE
  5
62
330
46
100
AcDbEntity
  8
SLD-0
  6
Continuous
 62
     3
100
AcDbLine
 10
11.2817449
 20
2.87606101
 30
0.0
 11
11.35604438
 21
2.90130764
 31
0.0
  0
LINE
  5
63
330
46
100
AcDbEntity
  8
SLD-0
  6
Continuous
 62
     3
100
AcDbLine
 10
11.35604438
 20
2.90130764
 30
0.0
 11
11.4300962
 21
2.92714162
 31
0.0
  0
LINE
  5
64
330
46
100
AcDbEntity
  8
SLD-0
  6
Continuous
 62
     3
100
AcDbLine
 10
11.4300962
 20
2.92714162
 30
0.0
 11
11.50388384
 21
2.95357432
 31
0.0
  0
LINE
  5
65
330
46
100
AcDbEntity
  8
SLD-0
  6
Continuous
 62
     3
100
AcDbLine
 10
11.50388384
 20
2.95357432
 30
0.0
 11
11.57739076
 21
2.98061711
 31
0.0
  0
LINE
  5
66
330
46
100
AcDbEntity
  8
SLD-0
  6
Continuous
 62
     3
100
AcDbLine
 10
11.57739076
 20
2.98061711
 30
0.0
 11
11.65060043
 21
3.00828139
 31
0.0
  0
LINE
  5
67
330
46
100
AcDbEntity
  8
SLD-0
  6
Continuous
 62
     3
100
AcDbLine
 10
11.65060043
 20
3.00828139
 30
0.0
 11
11.72350502
 21
3.03656124
 31
0.0
  0
LINE
  5
68
330
46
100
AcDbEntity
  8
SLD-0
  6
Continuous
 62
     3
100
AcDbLine
 10
11.72350502
 20
3.03656124
 30
0.0
 11
11.79609463
 21
3.06546939
 31
0.0
  0
LINE
  5
69
330
46
100
AcDbEntity
  8
SLD-0
  6
Continuous
 62
     3
100
AcDbLine
 10
11.79609463
 20
3.06546939
 30
0.0
 11
11.86834958
 21
3.09504519
 31
0.0
  0
LINE
  5
6A
330
46
100
AcDbEntity
  8
SLD-0
  6
Continuous
 62
     3
100
AcDbLine
 10
11.86834958
 20
3.09504519
 30
0.0
 11
11.94025018
 21
3.12532796
 31
0.0
  0
LINE
  5
6B
330
46
100
AcDbEntity
  8
SLD-0
  6
Continuous
 62
     3
100
AcDbLine
 10
11.94025018
 20
3.12532796
 30
0.0
 11
12.01177679
 21
3.15635705
 31
0.0
  0
LINE
  5
6C
330
46
100
AcDbEntity
  8
SLD-0
  6
Continuous
 62
     3
100
AcDbLine
 10
12.01177679
 20
3.15635705
 30
0.0
 11
12.08290971
 21
3.18817177
 31
0.0
  0
LINE
  5
6D
330
46
100
AcDbEntity
  8
SLD-0
  6
Continuous
 62
     3
100
AcDbLine
 10
12.08290971
 20
3.18817177
 30
0.0
 11
12.15362927
 21
3.22081148
 31
0.0
  0
LINE
  5
6E
330
46
100
AcDbEntity
  8
SLD-0
  6
Continuous
 62
     3
100
AcDbLine
 10
12.15362927
 20
3.22081148
 30
0.0
 11
12.22391581
 21
3.2543155
 31
0.0
  0
LINE
  5
6F
330
46
100
AcDbEntity
  8
SLD-0
  6
Continuous
 62
     3
100
AcDbLine
 10
12.22391581
 20
3.2543155
 30
0.0
 11
12.29374966
 21
3.28872316
 31
0.0
  0
LINE
  5
70
330
46
100
AcDbEntity
  8
SLD-0
  6
Continuous
 62
     3
100
AcDbLine
 10
12.29374966
 20
3.28872316
 30
0.0
 11
12.36311113
 21
3.3240738
 31
0.0
  0
LINE
  5
71
330
46
100
AcDbEntity
  8
SLD-0
  6
Continuous
 62
     3
100
AcDbLine
 10
12.36311113
 20
3.3240738
 30
0.0
 11
12.43198056
 21
3.36040676
 31
0.0
  0
LINE
  5
72
330
46
100
AcDbEntity
  8
SLD-0
  6
Continuous
 62
     3
100
AcDbLine
 10
12.43198056
 20
3.36040676
 30
0.0
 11
12.50033827
 21
3.39776137
 31
0.0
  0
LINE
  5
73
330
46
100
AcDbEntity
  8
SLD-0
  6
Continuous
 62
     3
100
AcDbLine
 10
12.50033827
 20
3.39776137
 30
0.0
 11
12.56816459
 21
3.43617696
 31
0.0
  0
LINE
  5
74
330
46
100
AcDbEntity
  8
SLD-0
  6
Continuous
 62
     3
100
AcDbLine
 10
12.56816459
 20
3.43617696
 30
0.0
 11
12.63543986
 21
3.47569287
 31
0.0
  0
LINE
  5
75
330
46
100
AcDbEntity
  8
SLD-0
  6
Continuous
 62
     3
100
AcDbLine
 10
12.63543986
 20
3.47569287
 30
0.0
 11
12.70214439
 21
3.51634843
 31
0.0
  0
LINE
  5
76
330
46
100
AcDbEntity
  8
SLD-0
  6
Continuous
 62
     3
100
AcDbLine
 10
12.70214439
 20
3.51634843
 30
0.0
 11
12.76833022
 21
3.55828314
 31
0.0
  0
LINE
  5
77
330
46
100
AcDbEntity
  8
SLD-0
  6
Continuous
 62
     3
100
AcDbLine
 10
12.76833022
 20
3.55828314
 30
0.0
 11
12.83394708
 21
3.60162902
 31
0.0
  0
LINE
  5
78
330
46
100
AcDbEntity
  8
SLD-0
  6
Continuous
 62
     3
100
AcDbLine
 10
12.83394708
 20
3.60162902
 30
0.0
 11
12.89882177
 21
3.64641424
 31
0.0
  0
LINE
  5
79
330
46
100
AcDbEntity
  8
SLD-0
  6
Continuous
 62
     3
100
AcDbLine
 10
12.89882177
 20
3.64641424
 30
0.0
 11
12.96278111
 21
3.69266693
 31
0.0
  0
LINE
  5
7A
330
46
100
AcDbEntity
  8
SLD-0
  6
Continuous
 62
     3
100
AcDbLine
 10
12.96278111
 20
3.69266693
 30
0.0
 11
13.02565192
 21
3.74041524
 31
0.0
  0
LINE
  5
7B
330
46
100
AcDbEntity
  8
SLD-0
  6
Continuous
 62
     3
100
AcDbLine
 10
13.02565192
 20
3.74041524
 30
0.0
 11
13.08726101
 21
3.78968733
 31
0.0
  0
LINE
  5
7C
330
46
100
AcDbEntity
  8
SLD-0
  6
Continuous
 62
     3
100
AcDbLine
 10
13.08726101
 20
3.78968733
 30
0.0
 11
13.14743521
 21
3.84051132
 31
0.0
  0
LINE
  5
7D
330
46
100
AcDbEntity
  8
SLD-0
  6
Continuous
 62
     3
100
AcDbLine
 10
13.14743521
 20
3.84051132
 30
0.0
 11
13.20601262
 21
3.89290258
 31
0.0
  0
LINE
  5
7E
330
46
100
AcDbEntity
  8
SLD-0
  6
Continuous
 62
     3
100
AcDbLine
 10
13.20601262
 20
3.89290258
 30
0.0
 11
13.26287347
 21
3.94687456
 31
0.0
  0
LINE
  5
7F
330
46
100
AcDbEntity
  8
SLD-0
  6
Continuous
 62
     3
100
AcDbLine
 10
13.26287347
 20
3.94687456
 30
0.0
 11
13.31781925
 21
4.00260136
 31
0.0
  0
LINE
  5
80
330
46
100
AcDbEntity
  8
SLD-0
  6
Continuous
 62
     3
100
AcDbLine
 10
13.31781925
 20
4.00260136
 30
0.0
 11
13.37063853
 21
4.0602768
 31
0.0
  0
LINE
  5
81
330
46
100
AcDbEntity
  8
SLD-0
  6
Continuous
 62
     3
100
AcDbLine
 10
13.37063853
 20
4.0602768
 30
0.0
 11
13.42111991
 21
4.12009471
 31
0.0
  0
LINE
  5
82
330
46
100
AcDbEntity
  8
SLD-0
  6
Continuous
 62
     3
100
AcDbLine
 10
13.42111991
 20
4.12009471
 30
0.0
 11
13.46905198
 21
4.18224888
 31
0.0
  0
LINE
  5
83
330
46
100
AcDbEntity
  8
SLD-0
  6
Continuous
 62
     3
100
AcDbLine
 10
13.46905198
 20
4.18224888
 30
0.0
 11
13.51422332
 21
4.24693315
 31
0.0
  0
LINE
  5
84
330
46
100
AcDbEntity
  8
SLD-0
  6
Continuous
 62
     3
100
AcDbLine
 10
13.51422332
 20
4.24693315
 30
0.0
 11
13.55642251
 21
4.31434132
 31
0.0
  0
ENDBLK
  5
48
330
46
100
AcDbEntity
  8
0
100
AcDbBlockEnd
  0
BLOCK
  5
86
330
85
100
AcDbEntity
  8
0
100
AcDbBlockBegin
  2
GROUP_2
 70
     0
 10
0.0
 20
0.0
 30
0.0
  3
GROUP_2
  1

  0
LINE
  5
88
330
85
100
AcDbEntity
  8
SLD-0
  6
Continuous
 62
     3
100
AcDbLine
 10
9.37836988
 20
2.40387035
 30
0.0
 11
9.2326797
 21
2.37868821
 31
0.0
  0
LINE
  5
89
330
85
100
AcDbEntity
  8
SLD-0
  6
Continuous
 62
     3
100
AcDbLine
 10
9.2326797
 20
2.37868821
 30
0.0
 11
9.08686025
 21
2.35490721
 31
0.0
  0
LINE
  5
8A
330
85
100
AcDbEntity
  8
SLD-0
  6
Continuous
 62
     3
100
AcDbLine
 10
9.08686025
 20
2.35490721
 30
0.0
 11
8.94091462
 21
2.33248555
 31
0.0
  0
LINE
  5
8B
330
85
100
AcDbEntity
  8
SLD-0
  6
Continuous
 62
     3
100
AcDbLine
 10
8.94091462
 20
2.33248555
 30
0.0
 11
8.79484593
 21
2.31138143
 31
0.0
  0
LINE
  5
8C
330
85
100
AcDbEntity
  8
SLD-0
  6
Continuous
 62
     3
100
AcDbLine
 10
8.79484593
 20
2.31138143
 30
0.0
 11
8.64865729
 21
2.29155306
 31
0.0
  0
LINE
  5
8D
330
85
100
AcDbEntity
  8
SLD-0
  6
Continuous
 62
     3
100
AcDbLine
 10
8.64865729
 20
2.29155306
 30
0.0
 11
8.5023518
 21
2.27295862
 31
0.0
  0
LINE
  5
8E
330
85
100
AcDbEntity
  8
SLD-0
  6
Continuous
 62
     3
100
AcDbLine
 10
8.5023518
 20
2.27295862
 30
0.0
 11
8.35593257
 21
2.25555631
 31
0.0
  0
LINE
  5
8F
330
85
100
AcDbEntity
  8
SLD-0
  6
Continuous
 62
     3
100
AcDbLine
 10
8.35593257
 20
2.25555631
 30
0.0
 11
8.2094027
 21
2.23930434
 31
0.0
  0
LINE
  5
90
330
85
100
AcDbEntity
  8
SLD-0
  6
Continuous
 62
     3
100
AcDbLine
 10
8.2094027
 20
2.23930434
 30
0.0
 11
8.06276532
 21
2.2241609
 31
0.0
  0
LINE
  5
91
330
85
100
AcDbEntity
  8
SLD-0
  6
Continuous
 62
     3
100
AcDbLine
 10
8.06276532
 20
2.2241609
 30
0.0
 11
7.91602352
 21
2.21008418
 31
0.0
  0
LINE
  5
92
330
85
100
AcDbEntity
  8
SLD-0
  6
Continuous
 62
     3
100
AcDbLine
 10
7.91602352
 20
2.21008418
 30
0.0
 11
7.76918042
 21
2.19703239
 31
0.0
  0
LINE
  5
93
330
85
100
AcDbEntity
  8
SLD-0
  6
Continuous
 62
     3
100
AcDbLine
 10
7.76918042
 20
2.19703239
 30
0.0
 11
7.62223912
 21
2.18496372
 31
0.0
  0
LINE
  5
94
330
85
100
AcDbEntity
  8
SLD-0
  6
Continuous
 62
     3
100
AcDbLine
 10
7.62223912
 20
2.18496372
 30
0.0
 11
7.47519657
 21
2.17384053
 31
0.0
  0
LINE
  5
95
330
85
100
AcDbEntity
  8
SLD-0
  6
Continuous
 62
     3
100
AcDbLine
 10
7.47519657
 20
2.17384053
 30
0.0
 11
7.32802427
 21
2.16365819
 31
0.0
  0
LINE
  5
96
330
85
100
AcDbEntity
  8
SLD-0
  6
Continuous
 62
     3
100
AcDbLine
 10
7.32802427
 20
2.16365819
 30
0.0
 11
7.18073291
 21
2.15441043
 31
0.0
  0
LINE
  5
97
330
85
100
AcDbEntity
  8
SLD-0
  6
Continuous
 62
     3
100
AcDbLine
 10
7.18073291
 20
2.15441043
 30
0.0
 11
7.03333994
 21
2.14608819
 31
0.0
  0
LINE
  5
98
330
85
100
AcDbEntity
  8
SLD-0
  6
Continuous
 62
     3
100
AcDbLine
 10
7.03333994
 20
2.14608819
 30
0.0
 11
6.88586281
 21
2.13868241
 31
0.0
  0
LINE
  5
99
330
85
100
AcDbEntity
  8
SLD-0
  6
Continuous
 62
     3
100
AcDbLine
 10
6.88586281
 20
2.13868241
 30
0.0
 11
6.73831895
 21
2.13218402
 31
0.0
  0
LINE
  5
9A
330
85
100
AcDbEntity
  8
SLD-0
  6
Continuous
 62
     3
100
AcDbLine
 10
6.73831895
 20
2.13218402
 30
0.0
 11
6.59072584
 21
2.12658396
 31
0.0
  0
LINE
  5
9B
330
85
100
AcDbEntity
  8
SLD-0
  6
Continuous
 62
     3
100
AcDbLine
 10
6.59072584
 20
2.12658396
 30
0.0
 11
6.4431009
 21
2.12187318
 31
0.0
  0
LINE
  5
9C
330
85
100
AcDbEntity
  8
SLD-0
  6
Continuous
 62
     3
100
AcDbLine
 10
6.4431009
 20
2.12187318
 30
0.0
 11
6.29546159
 21
2.1180426
 31
0.0
  0
LINE
  5
9D
330
85
100
AcDbEntity
  8
SLD-0
  6
Continuous
 62
     3
100
AcDbLine
 10
6.29546159
 20
2.1180426
 30
0.0
 11
6.14782536
 21
2.11508316
 31
0.0
  0
LINE
  5
9E
330
85
100
AcDbEntity
  8
SLD-0
  6
Continuous
 62
     3
100
AcDbLine
 10
6.14782536
 20
2.11508316
 30
0.0
 11
6.00020966
 21
2.11298582
 31
0.0
  0
LINE
  5
9F
330
85
100
AcDbEntity
  8
SLD-0
  6
Continuous
 62
     3
100
AcDbLine
 10
6.00020966
 20
2.11298582
 30
0.0
 11
5.85263194
 21
2.11174149
 31
0.0
  0
LINE
  5
A0
330
85
100
AcDbEntity
  8
SLD-0
  6
Continuous
 62
     3
100
AcDbLine
 10
5.85263194
 20
2.11174149
 30
0.0
 11
5.70510964
 21
2.11134112
 31
0.0
  0
LINE
  5
A1
330
85
100
AcDbEntity
  8
SLD-0
  6
Continuous
 62
     3
100
AcDbLine
 10
5.70510964
 20
2.11134112
 30
0.0
 11
5.55765093
 21
2.11177623
 31
0.0
  0
LINE
  5
A2
330
85
100
AcDbEntity
  8
SLD-0
  6
Continuous
 62
     3
100
AcDbLine
 10
5.55765093
 20
2.11177623
 30
0.0
 11
5.41025267
 21
2.11305049
 31
0.0
  0
LINE
  5
A3
330
85
100
AcDbEntity
  8
SLD-0
  6
Continuous
 62
     3
100
AcDbLine
 10
5.41025267
 20
2.11305049
 30
0.0
 11
5.2629153
 21
2.11517309
 31
0.0
  0
LINE
  5
A4
330
85
100
AcDbEntity
  8
SLD-0
  6
Continuous
 62
     3
100
AcDbLine
 10
5.2629153
 20
2.11517309
 30
0.0
 11
5.1156393
 21
2.11815323
 31
0.0
  0
LINE
  5
A5
330
85
100
AcDbEntity
  8
SLD-0
  6
Continuous
 62
     3
100
AcDbLine
 10
5.1156393
 20
2.11815323
 30
0.0
 11
4.96842511
 21
2.12200008
 31
0.0
  0
LINE
  5
A6
330
85
100
AcDbEntity
  8
SLD-0
  6
Continuous
 62
     3
100
AcDbLine
 10
4.96842511
 20
2.12200008
 30
0.0
 11
4.8212732
 21
2.12672283
 31
0.0
  0
LINE
  5
A7
330
85
100
AcDbEntity
  8
SLD-0
  6
Continuous
 62
     3
100
AcDbLine
 10
4.8212732
 20
2.12672283
 30
0.0
 11
4.67418403
 21
2.13233067
 31
0.0
  0
LINE
  5
A8
330
85
100
AcDbEntity
  8
SLD-0
  6
Continuous
 62
     3
100
AcDbLine
 10
4.67418403
 20
2.13233067
 30
0.0
 11
4.52715805
 21
2.13883279
 31
0.0
  0
LINE
  5
A9
330
85
100
AcDbEntity
  8
SLD-0
  6
Continuous
 62
     3
100
AcDbLine
 10
4.52715805
 20
2.13883279
 30
0.0
 11
4.38019573
 21
2.14623837
 31
0.0
  0
LINE
  5
AA
330
85
100
AcDbEntity
  8
SLD-0
  6
Continuous
 62
     3
100
AcDbLine
 10
4.38019573
 20
2.14623837
 30
0.0
 11
4.23329752
 21
2.15455661
 31
0.0
  0
LINE
  5
AB
330
85
100
AcDbEntity
  8
SLD-0
  6
Continuous
 62
     3
100
AcDbLine
 10
4.23329752
 20
2.15455661
 30
0.0
 11
4.08646389
 21
2.16379668
 31
0.0
  0
LINE
  5
AC
330
85
100
AcDbEntity
  8
SLD-0
  6
Continuous
 62
     3
100
AcDbLine
 10
4.08646389
 20
2.16379668
 30
0.0
 11
3.9396953
 21
2.17396777
 31
0.0
  0
LINE
  5
AD
330
85
100
AcDbEntity
  8
SLD-0
  6
Continuous
 62
     3
100
AcDbLine
 10
3.9396953
 20
2.17396777
 30
0.0
 11
3.79299205
 21
2.18507638
 31
0.0
  0
LINE
  5
AE
330
85
100
AcDbEntity
  8
SLD-0
  6
Continuous
 62
     3
100
AcDbLine
 10
3.79299205
 20
2.18507638
 30
0.0
 11
3.64635443
 21
2.19712799
 31
0.0
  0
LINE
  5
AF
330
85
100
AcDbEntity
  8
SLD-0
  6
Continuous
 62
     3
100
AcDbLine
 10
3.64635443
 20
2.19712799
 30
0.0
 11
3.49978443
 21
2.21016121
 31
0.0
  0
LINE
  5
B0
330
85
100
AcDbEntity
  8
SLD-0
  6
Continuous
 62
     3
100
AcDbLine
 10
3.49978443
 20
2.21016121
 30
0.0
 11
3.35328424
 21
2.22421869
 31
0.0
  0
LINE
  5
B1
330
85
100
AcDbEntity
  8
SLD-0
  6
Continuous
 62
     3
100
AcDbLine
 10
3.35328424
 20
2.22421869
 30
0.0
 11
3.20685608
 21
2.23934313
 31
0.0
  0
LINE
  5
B2
330
85
100
AcDbEntity
  8
SLD-0
  6
Continuous
 62
     3
100
AcDbLine
 10
3.20685608
 20
2.23934313
 30
0.0
 11
3.06050213
 21
2.2555772
 31
0.0
  0
LINE
  5
B3
330
85
100
AcDbEntity
  8
SLD-0
  6
Continuous
 62
     3
100
AcDbLine
 10
3.06050213
 20
2.2555772
 30
0.0
 11
2.91422461
 21
2.27296357
 31
0.0
  0
LINE
  5
B4
330
85
100
AcDbEntity
  8
SLD-0
  6
Continuous
 62
     3
100
AcDbLine
 10
2.91422461
 20
2.27296357
 30
0.0
 11
2.76802572
 21
2.29154494
 31
0.0
  0
LINE
  5
B5
330
85
100
AcDbEntity
  8
SLD-0
  6
Continuous
 62
     3
100
AcDbLine
 10
2.76802572
 20
2.29154494
 30
0.0
 11
2.62190766
 21
2.31136397
 31
0.0
  0
LINE
  5
B6
330
85
100
AcDbEntity
  8
SLD-0
  6
Continuous
 62
     3
100
AcDbLine
 10
2.62190766
 20
2.31136397
 30
0.0
 11
2.47587264
 21
2.33246335
 31
0.0
  0
LINE
  5
B7
330
85
100
AcDbEntity
  8
SLD-0
  6
Continuous
 62
     3
100
AcDbLine
 10
2.47587264
 20
2.33246335
 30
0.0
 11
2.32992285
 21
2.35488575
 31
0.0
  0
LINE
  5
B8
330
85
100
AcDbEntity
  8
SLD-0
  6
Continuous
 62
     3
100
AcDbLine
 10
2.32992285
 20
2.35488575
 30
0.0
 11
2.18406051
 21
2.37867386
 31
0.0
  0
LINE
  5
B9
330
85
100
AcDbEntity
  8
SLD-0
  6
Continuous
 62
     3
100
AcDbLine
 10
2.18406051
 20
2.37867386
 30
0.0
 11
2.0382878
 21
2.40387035
 31
0.0
  0
ENDBLK
  5
87
330
85
100
AcDbEntity
  8
0
100
AcDbBlockEnd
  0
BLOCK
  5
BB
330
BA
100
AcDbEntity
  8
0
100
AcDbBlockBegin
  2
GROUP_3
 70
     0
 10
0.0
 20
0.0
 30
0.0
  3
GROUP_3
  1

  0
LINE
  5
BD
330
BA
100
AcDbEntity
  8
SLD-0
  6
Continuous
 62
     3
100
AcDbLine
 10
-2.13976484
 20
4.31434132
 30
0.0
 11
-2.09770303
 21
4.24717354
 31
0.0
  0
LINE
  5
BE
330
BA
100
AcDbEntity
  8
SLD-0
  6
Continuous
 62
     3
100
AcDbLine
 10
-2.09770303
 20
4.24717354
 30
0.0
 11
-2.05253099
 21
4.18252027
 31
0.0
  0
LINE
  5
BF
330
BA
100
AcDbEntity
  8
SLD-0
  6
Continuous
 62
     3
100
AcDbLine
 10
-2.05253099
 20
4.18252027
 30
0.0
 11
-2.00447706
 21
4.12022996
 31
0.0
  0
LINE
  5
C0
330
BA
100
AcDbEntity
  8
SLD-0
  6
Continuous
 62
     3
100
AcDbLine
 10
-2.00447706
 20
4.12022996
 30
0.0
 11
-1.95376956
 21
4.06015109
 31
0.0
  0
LINE
  5
C1
330
BA
100
AcDbEntity
  8
SLD-0
  6
Continuous
 62
     3
100
AcDbLine
 10
-1.95376956
 20
4.06015109
 30
0.0
 11
-1.90063684
 21
4.00213211
 31
0.0
  0
LINE
  5
C2
330
BA
100
AcDbEntity
  8
SLD-0
  6
Continuous
 62
     3
100
AcDbLine
 10
-1.90063684
 20
4.00213211
 30
0.0
 11
-1.84530722
 21
3.9460215
 31
0.0
  0
LINE
  5
C3
330
BA
100
AcDbEntity
  8
SLD-0
  6
Continuous
 62
     3
100
AcDbLine
 10
-1.84530722
 20
3.9460215
 30
0.0
 11
-1.78800903
 21
3.89166771
 31
0.0
  0
LINE
  5
C4
330
BA
100
AcDbEntity
  8
SLD-0
  6
Continuous
 62
     3
100
AcDbLine
 10
-1.78800903
 20
3.89166771
 30
0.0
 11
-1.7290114
 21
3.83896921
 31
0.0
  0
LINE
  5
C5
330
BA
100
AcDbEntity
  8
SLD-0
  6
Continuous
 62
     3
100
AcDbLine
 10
-1.7290114
 20
3.83896921
 30
0.0
 11
-1.66872837
 21
3.78809111
 31
0.0
  0
LINE
  5
C6
330
BA
100
AcDbEntity
  8
SLD-0
  6
Continuous
 62
     3
100
AcDbLine
 10
-1.66872837
 20
3.78809111
 30
0.0
 11
-1.60727834
 21
3.73897426
 31
0.0
  0
LINE
  5
C7
330
BA
100
AcDbEntity
  8
SLD-0
  6
Continuous
 62
     3
100
AcDbLine
 10
-1.60727834
 20
3.73897426
 30
0.0
 11
-1.54473238
 21
3.69151134
 31
0.0
  0
LINE
  5
C8
330
BA
100
AcDbEntity
  8
SLD-0
  6
Continuous
 62
     3
100
AcDbLine
 10
-1.54473238
 20
3.69151134
 30
0.0
 11
-1.48116154
 21
3.64559504
 31
0.0
  0
LINE
  5
C9
330
BA
100
AcDbEntity
  8
SLD-0
  6
Continuous
 62
     3
100
AcDbLine
 10
-1.48116154
 20
3.64559504
 30
0.0
 11
-1.41663689
 21
3.60111804
 31
0.0
  0
LINE
  5
CA
330
BA
100
AcDbEntity
  8
SLD-0
  6
Continuous
 62
     3
100
AcDbLine
 10
-1.41663689
 20
3.60111804
 30
0.0
 11
-1.35122948
 21
3.55797303
 31
0.0
  0
LINE
  5
CB
330
BA
100
AcDbEntity
  8
SLD-0
  6
Continuous
 62
     3
100
AcDbLine
 10
-1.35122948
 20
3.55797303
 30
0.0
 11
-1.28501037
 21
3.51605269
 31
0.0
  0
LINE
  5
CC
330
BA
100
AcDbEntity
  8
SLD-0
  6
Continuous
 62
     3
100
AcDbLine
 10
-1.28501037
 20
3.51605269
 30
0.0
 11
-1.21803298
 21
3.47525958
 31
0.0
  0
LINE
  5
CD
330
BA
100
AcDbEntity
  8
SLD-0
  6
Continuous
 62
     3
100
AcDbLine
 10
-1.21803298
 20
3.47525958
 30
0.0
 11
-1.15033341
 21
3.43554884
 31
0.0
  0
LINE
  5
CE
330
BA
100
AcDbEntity
  8
SLD-0
  6
Continuous
 62
     3
100
AcDbLine
 10
-1.15033341
 20
3.43554884
 30
0.0
 11
-1.08195678
 21
3.39689207
 31
0.0
  0
LINE
  5
CF
330
BA
100
AcDbEntity
  8
SLD-0
  6
Continuous
 62
     3
100
AcDbLine
 10
-1.08195678
 20
3.39689207
 30
0.0
 11
-1.01294817
 21
3.35926085
 31
0.0
  0
LINE
  5
D0
330
BA
100
AcDbEntity
  8
SLD-0
  6
Continuous
 62
     3
100
AcDbLine
 10
-1.01294817
 20
3.35926085
 30
0.0
 11
-0.94335269
 21
3.32262678
 31
0.0
  0
LINE
  5
D1
330
BA
100
AcDbEntity
  8
SLD-0
  6
Continuous
 62
     3
100
AcDbLine
 10
-0.94335269
 20
3.32262678
 30
0.0
 11
-0.87321544
 21
3.28696144
 31
0.0
  0
LINE
  5
D2
330
BA
100
AcDbEntity
  8
SLD-0
  6
Continuous
 62
     3
100
AcDbLine
 10
-0.87321544
 20
3.28696144
 30
0.0
 11
-0.80258152
 21
3.25223642
 31
0.0
  0
LINE
  5
D3
330
BA
100
AcDbEntity
  8
SLD-0
  6
Continuous
 62
     3
100
AcDbLine
 10
-0.80258152
 20
3.25223642
 30
0.0
 11
-0.73149605
 21
3.21842331
 31
0.0
  0
LINE
  5
D4
330
BA
100
AcDbEntity
  8
SLD-0
  6
Continuous
 62
     3
100
AcDbLine
 10
-0.73149605
 20
3.21842331
 30
0.0
 11
-0.6600041
 21
3.1854937
 31
0.0
  0
LINE
  5
D5
330
BA
100
AcDbEntity
  8
SLD-0
  6
Continuous
 62
     3
100
AcDbLine
 10
-0.6600041
 20
3.1854937
 30
0.0
 11
-0.5881508
 21
3.15341917
 31
0.0
  0
LINE
  5
D6
330
BA
100
AcDbEntity
  8
SLD-0
  6
Continuous
 62
     3
100
AcDbLine
 10
-0.5881508
 20
3.15341917
 30
0.0
 11
-0.51598124
 21
3.12217132
 31
0.0
  0
LINE
  5
D7
330
BA
100
AcDbEntity
  8
SLD-0
  6
Continuous
 62
     3
100
AcDbLine
 10
-0.51598124
 20
3.12217132
 30
0.0
 11
-0.44354052
 21
3.09172173
 31
0.0
  0
LINE
  5
D8
330
BA
100
AcDbEntity
  8
SLD-0
  6
Continuous
 62
     3
100
AcDbLine
 10
-0.44354052
 20
3.09172173
 30
0.0
 11
-0.37087375
 21
3.062042
 31
0.0
  0
LINE
  5
D9
330
BA
100
AcDbEntity
  8
SLD-0
  6
Continuous
 62
     3
100
AcDbLine
 10
-0.37087375
 20
3.062042
 30
0.0
 11
-0.29802603
 21
3.0331037
 31
0.0
  0
LINE
  5
DA
330
BA
100
AcDbEntity
  8
SLD-0
  6
Continuous
 62
     3
100
AcDbLine
 10
-0.29802603
 20
3.0331037
 30
0.0
 11
-0.22504245
 21
3.00487844
 31
0.0
  0
LINE
  5
DB
330
BA
100
AcDbEntity
  8
SLD-0
  6
Continuous
 62
     3
100
AcDbLine
 10
-0.22504245
 20
3.00487844
 30
0.0
 11
-0.15190514
 21
2.977329
 31
0.0
  0
LINE
  5
DC
330
BA
100
AcDbEntity
  8
SLD-0
  6
Continuous
 62
     3
100
AcDbLine
 10
-0.15190514
 20
2.977329
 30
0.0
 11
-0.07856927
 21
2.95042692
 31
0.0
  0
LINE
  5
DD
330
BA
100
AcDbEntity
  8
SLD-0
  6
Continuous
 62
     3
100
AcDbLine
 10
-0.07856927
 20
2.95042692
 30
0.0
 11
-0.00503952
 21
2.92415692
 31
0.0
  0
LINE
  5
DE
330
BA
100
AcDbEntity
  8
SLD-0
  6
Continuous
 62
     3
100
AcDbLine
 10
-0.00503952
 20
2.92415692
 30
0.0
 11
0.06867944
 21
2.89850371
 31
0.0
  0
LINE
  5
DF
330
BA
100
AcDbEntity
  8
SLD-0
  6
Continuous
 62
     3
100
AcDbLine
 10
0.06867944
 20
2.89850371
 30
0.0
 11
0.14258294
 21
2.873452
 31
0.0
  0
LINE
  5
E0
330
BA
100
AcDbEntity
  8
SLD-0
  6
Continuous
 62
     3
100
AcDbLine
 10
0.14258294
 20
2.873452
 30
0.0
 11
0.21666629
 21
2.8489865
 31
0.0
  0
LINE
  5
E1
330
BA
100
AcDbEntity
  8
SLD-0
  6
Continuous
 62
     3
100
AcDbLine
 10
0.21666629
 20
2.8489865
 30
0.0
 11
0.29092482
 21
2.82509192
 31
0.0
  0
LINE
  5
E2
330
BA
100
AcDbEntity
  8
SLD-0
  6
Continuous
 62
     3
100
AcDbLine
 10
0.29092482
 20
2.82509192
 30
0.0
 11
0.36535386
 21
2.80175298
 31
0.0
  0
LINE
  5
E3
330
BA
100
AcDbEntity
  8
SLD-0
  6
Continuous
 62
     3
100
AcDbLine
 10
0.36535386
 20
2.80175298
 30
0.0
 11
0.43994873
 21
2.77895437
 31
0.0
  0
LINE
  5
E4
330
BA
100
AcDbEntity
  8
SLD-0
  6
Continuous
 62
     3
100
AcDbLine
 10
0.43994873
 20
2.77895437
 30
0.0
 11
0.51470476
 21
2.75668082
 31
0.0
  0
LINE
  5
E5
330
BA
100
AcDbEntity
  8
SLD-0
  6
Continuous
 62
     3
100
AcDbLine
 10
0.51470476
 20
2.75668082
 30
0.0
 11
0.58961727
 21
2.73491704
 31
0.0
  0
LINE
  5
E6
330
BA
100
AcDbEntity
  8
SLD-0
  6
Continuous
 62
     3
100
AcDbLine
 10
0.58961727
 20
2.73491704
 30
0.0
 11
0.66468158
 21
2.71364773
 31
0.0
  0
LINE
  5
E7
330
BA
100
AcDbEntity
  8
SLD-0
  6
Continuous
 62
     3
100
AcDbLine
 10
0.66468158
 20
2.71364773
 30
0.0
 11
0.73989302
 21
2.69285761
 31
0.0
  0
LINE
  5
E8
330
BA
100
AcDbEntity
  8
SLD-0
  6
Continuous
 62
     3
100
AcDbLine
 10
0.73989302
 20
2.69285761
 30
0.0
 11
0.81524691
 21
2.67253138
 31
0.0
  0
LINE
  5
E9
330
BA
100
AcDbEntity
  8
SLD-0
  6
Continuous
 62
     3
100
AcDbLine
 10
0.81524691
 20
2.67253138
 30
0.0
 11
0.89073858
 21
2.65265377
 31
0.0
  0
LINE
  5
EA
330
BA
100
AcDbEntity
  8
SLD-0
  6
Continuous
 62
     3
100
AcDbLine
 10
0.89073858
 20
2.65265377
 30
0.0
 11
0.96636522
 21
2.63321556
 31
0.0
  0
LINE
  5
EB
330
BA
100
AcDbEntity
  8
SLD-0
  6
Continuous
 62
     3
100
AcDbLine
 10
0.96636522
 20
2.63321556
 30
0.0
 11
1.0421258
 21
2.61421335
 31
0.0
  0
LINE
  5
EC
330
BA
100
AcDbEntity
  8
SLD-0
  6
Continuous
 62
     3
100
AcDbLine
 10
1.0421258
 20
2.61421335
 30
0.0
 11
1.11801831
 21
2.59564058
 31
0.0
  0
LINE
  5
ED
330
BA
100
AcDbEntity
  8
SLD-0
  6
Continuous
 62
     3
100
AcDbLine
 10
1.11801831
 20
2.59564058
 30
0.0
 11
1.19404074
 21
2.57749067
 31
0.0
  0
LINE
  5
EE
330
BA
100
AcDbEntity
  8
SLD-0
  6
Continuous
 62
     3
100
AcDbLine
 10
1.19404074
 20
2.57749067
 30
0.0
 11
1.27019108
 21
2.55975705
 31
0.0
  0
LINE
  5
EF
330
BA
100
AcDbEntity
  8
SLD-0
  6
Continuous
 62
     3
100
AcDbLine
 10
1.27019108
 20
2.55975705
 30
0.0
 11
1.34646732
 21
2.54243314
 31
0.0
  0
LINE
  5
F0
330
BA
100
AcDbEntity
  8
SLD-0
  6
Continuous
 62
     3
100
AcDbLine
 10
1.34646732
 20
2.54243314
 30
0.0
 11
1.42286746
 21
2.52551237
 31
0.0
  0
LINE
  5
F1
330
BA
100
AcDbEntity
  8
SLD-0
  6
Continuous
 62
     3
100
AcDbLine
 10
1.42286746
 20
2.52551237
 30
0.0
 11
1.49938949
 21
2.50898817
 31
0.0
  0
LINE
  5
F2
330
BA
100
AcDbEntity
  8
SLD-0
  6
Continuous
 62
     3
100
AcDbLine
 10
1.49938949
 20
2.50898817
 30
0.0
 11
1.5760314
 21
2.49285396
 31
0.0
  0
LINE
  5
F3
330
BA
100
AcDbEntity
  8
SLD-0
  6
Continuous
 62
     3
100
AcDbLine
 10
1.5760314
 20
2.49285396
 30
0.0
 11
1.65279117
 21
2.47710316
 31
0.0
  0
LINE
  5
F4
330
BA
100
AcDbEntity
  8
SLD-0
  6
Continuous
 62
     3
100
AcDbLine
 10
1.65279117
 20
2.47710316
 30
0.0
 11
1.72966681
 21
2.46172921
 31
0.0
  0
LINE
  5
F5
330
BA
100
AcDbEntity
  8
SLD-0
  6
Continuous
 62
     3
100
AcDbLine
 10
1.72966681
 20
2.46172921
 30
0.0
 11
1.8066563
 21
2.44672552
 31
0.0
  0
LINE
  5
F6
330
BA
100
AcDbEntity
  8
SLD-0
  6
Continuous
 62
     3
100
AcDbLine
 10
1.8066563
 20
2.44672552
 30
0.0
 11
1.88375763
 21
2.43208554
 31
0.0
  0
LINE
  5
F7
330
BA
100
AcDbEntity
  8
SLD-0
  6
Continuous
 62
     3
100
AcDbLine
 10
1.88375763
 20
2.43208554
 30
0.0
 11
1.9609688
 21
2.41780267
 31
0.0
  0
LINE
  5
F8
330
BA
100
AcDbEntity
  8
SLD-0
  6
Continuous
 62
     3
100
AcDbLine
 10
1.9609688
 20
2.41780267
 30
0.0
 11
2.0382878
 21
2.40387035
 31
0.0
  0
ENDBLK
  5
BC
330
BA
100
AcDbEntity
  8
0
100
AcDbBlockEnd
  0
BLOCK
  5
FA
330
F9
100
AcDbEntity
  8
0
100
AcDbBlockBegin
  2
GROUP_4
 70
     0
 10
0.0
 20
0.0
 30
0.0
  3
GROUP_4
  1

  0
LINE
  5
FC
330
F9
100
AcDbEntity
  8
SLD-0
  6
Continuous
 62
     3
100
AcDbLine
 10
52.10202295
 20
2.40387041
 30
0.0
 11
52.04249438
 21
2.81073139
 31
0.0
  0
LINE
  5
FD
330
F9
100
AcDbEntity
  8
SLD-0
  6
Continuous
 62
     3
100
AcDbLine
 10
52.04249438
 20
2.81073139
 30
0.0
 11
51.98537178
 21
3.21784983
 31
0.0
  0
LINE
  5
FE
330
F9
100
AcDbEntity
  8
SLD-0
  6
Continuous
 62
     3
100
AcDbLine
 10
51.98537178
 20
3.21784983
 30
0.0
 11
51.93062893
 21
3.62521766
 31
0.0
  0
LINE
  5
FF
330
F9
100
AcDbEntity
  8
SLD-0
  6
Continuous
 62
     3
100
AcDbLine
 10
51.93062893
 20
3.62521766
 30
0.0
 11
51.87823962
 21
4.0328268
 31
0.0
  0
LINE
  5
100
330
F9
100
AcDbEntity
  8
SLD-0
  6
Continuous
 62
     3
100
AcDbLine
 10
51.87823962
 20
4.0328268
 30
0.0
 11
51.82817766
 21
4.44066916
 31
0.0
  0
LINE
  5
101
330
F9
100
AcDbEntity
  8
SLD-0
  6
Continuous
 62
     3
100
AcDbLine
 10
51.82817766
 20
4.44066916
 30
0.0
 11
51.78041682
 21
4.84873665
 31
0.0
  0
LINE
  5
102
330
F9
100
AcDbEntity
  8
SLD-0
  6
Continuous
 62
     3
100
AcDbLine
 10
51.78041682
 20
4.84873665
 30
0.0
 11
51.73493089
 21
5.25702121
 31
0.0
  0
LINE
  5
103
330
F9
100
AcDbEntity
  8
SLD-0
  6
Continuous
 62
     3
100
AcDbLine
 10
51.73493089
 20
5.25702121
 30
0.0
 11
51.69169368
 21
5.66551474
 31
0.0
  0
LINE
  5
104
330
F9
100
AcDbEntity
  8
SLD-0
  6
Continuous
 62
     3
100
AcDbLine
 10
51.69169368
 20
5.66551474
 30
0.0
 11
51.65067897
 21
6.07420916
 31
0.0
  0
LINE
  5
105
330
F9
100
AcDbEntity
  8
SLD-0
  6
Continuous
 62
     3
100
AcDbLine
 10
51.65067897
 20
6.07420916
 30
0.0
 11
51.61186055
 21
6.48309639
 31
0.0
  0
LINE
  5
106
330
F9
100
AcDbEntity
  8
SLD-0
  6
Continuous
 62
     3
100
AcDbLine
 10
51.61186055
 20
6.48309639
 30
0.0
 11
51.57521221
 21
6.89216836
 31
0.0
  0
LINE
  5
107
330
F9
100
AcDbEntity
  8
SLD-0
  6
Continuous
 62
     3
100
AcDbLine
 10
51.57521221
 20
6.89216836
 30
0.0
 11
51.54070775
 21
7.30141697
 31
0.0
  0
LINE
  5
108
330
F9
100
AcDbEntity
  8
SLD-0
  6
Continuous
 62
     3
100
AcDbLine
 10
51.54070775
 20
7.30141697
 30
0.0
 11
51.50832095
 21
7.71083415
 31
0.0
  0
LINE
  5
109
330
F9
100
AcDbEntity
  8
SLD-0
  6
Continuous
 62
     3
100
AcDbLine
 10
51.50832095
 20
7.71083415
 30
0.0
 11
51.4780256
 21
8.12041181
 31
0.0
  0
LINE
  5
10A
330
F9
100
AcDbEntity
  8
SLD-0
  6
Continuous
 62
     3
100
AcDbLine
 10
51.4780256
 20
8.12041181
 30
0.0
 11
51.44979551
 21
8.53014188
 31
0.0
  0
LINE
  5
10B
330
F9
100
AcDbEntity
  8
SLD-0
  6
Continuous
 62
     3
100
AcDbLine
 10
51.44979551
 20
8.53014188
 30
0.0
 11
51.42360445
 21
8.94001626
 31
0.0
  0
LINE
  5
10C
330
F9
100
AcDbEntity
  8
SLD-0
  6
Continuous
 62
     3
100
AcDbLine
 10
51.42360445
 20
8.94001626
 30
0.0
 11
51.39942622
 21
9.35002688
 31
0.0
  0
LINE
  5
10D
330
F9
100
AcDbEntity
  8
SLD-0
  6
Continuous
 62
     3
100
AcDbLine
 10
51.39942622
 20
9.35002688
 30
0.0
 11
51.37723461
 21
9.76016566
 31
0.0
  0
LINE
  5
10E
330
F9
100
AcDbEntity
  8
SLD-0
  6
Continuous
 62
     3
100
AcDbLine
 10
51.37723461
 20
9.76016566
 30
0.0
 11
51.35702615
 21
10.17041506
 31
0.0
  0
LINE
  5
10F
330
F9
100
AcDbEntity
  8
SLD-0
  6
Continuous
 62
     3
100
AcDbLine
 10
51.35702615
 20
10.17041506
 30
0.0
 11
51.33882546
 21
10.58075424
 31
0.0
  0
LINE
  5
110
330
F9
100
AcDbEntity
  8
SLD-0
  6
Continuous
 62
     3
100
AcDbLine
 10
51.33882546
 20
10.58075424
 30
0.0
 11
51.32263912
 21
10.99117511
 31
0.0
  0
LINE
  5
111
330
F9
100
AcDbEntity
  8
SLD-0
  6
Continuous
 62
     3
100
AcDbLine
 10
51.32263912
 20
10.99117511
 30
0.0
 11
51.30847358
 21
11.40166968
 31
0.0
  0
LINE
  5
112
330
F9
100
AcDbEntity
  8
SLD-0
  6
Continuous
 62
     3
100
AcDbLine
 10
51.30847358
 20
11.40166968
 30
0.0
 11
51.29633526
 21
11.81222991
 31
0.0
  0
LINE
  5
113
330
F9
100
AcDbEntity
  8
SLD-0
  6
Continuous
 62
     3
100
AcDbLine
 10
51.29633526
 20
11.81222991
 30
0.0
 11
51.28623061
 21
12.22284779
 31
0.0
  0
LINE
  5
114
330
F9
100
AcDbEntity
  8
SLD-0
  6
Continuous
 62
     3
100
AcDbLine
 10
51.28623061
 20
12.22284779
 30
0.0
 11
51.27816607
 21
12.63351532
 31
0.0
  0
LINE
  5
115
330
F9
100
AcDbEntity
  8
SLD-0
  6
Continuous
 62
     3
100
AcDbLine
 10
51.27816607
 20
12.63351532
 30
0.0
 11
51.27214807
 21
13.04422448
 31
0.0
  0
LINE
  5
116
330
F9
100
AcDbEntity
  8
SLD-0
  6
Continuous
 62
     3
100
AcDbLine
 10
51.27214807
 20
13.04422448
 30
0.0
 11
51.26818305
 21
13.45496726
 31
0.0
  0
LINE
  5
117
330
F9
100
AcDbEntity
  8
SLD-0
  6
Continuous
 62
     3
100
AcDbLine
 10
51.26818305
 20
13.45496726
 30
0.0
 11
51.26627746
 21
13.86573563
 31
0.0
  0
LINE
  5
118
330
F9
100
AcDbEntity
  8
SLD-0
  6
Continuous
 62
     3
100
AcDbLine
 10
51.26627746
 20
13.86573563
 30
0.0
 11
51.26643773
 21
14.2765216
 31
0.0
  0
LINE
  5
119
330
F9
100
AcDbEntity
  8
SLD-0
  6
Continuous
 62
     3
100
AcDbLine
 10
51.26643773
 20
14.2765216
 30
0.0
 11
51.26867029
 21
14.68731714
 31
0.0
  0
ENDBLK
  5
FB
330
F9
100
AcDbEntity
  8
0
100
AcDbBlockEnd
  0
BLOCK
  5
11B
330
11A
100
AcDbEntity
  8
0
100
AcDbBlockBegin
  2
GROUP_5
 70
     0
 10
0.0
 20
0.0
 30
0.0
  3
GROUP_5
  1

  0
LINE
  5
11D
330
11A
100
AcDbEntity
  8
SLD-0
  6
Continuous
 62
     3
100
AcDbLine
 10
51.58121986
 20
21.28731714
 30
0.0
 11
51.60940444
 21
21.60578876
 31
0.0
  0
LINE
  5
11E
330
11A
100
AcDbEntity
  8
SLD-0
  6
Continuous
 62
     3
100
AcDbLine
 10
51.60940444
 20
21.60578876
 30
0.0
 11
51.6388162
 21
21.92414595
 31
0.0
  0
LINE
  5
11F
330
11A
100
AcDbEntity
  8
SLD-0
  6
Continuous
 62
     3
100
AcDbLine
 10
51.6388162
 20
21.92414595
 30
0.0
 11
51.66948026
 21
22.24238195
 31
0.0
  0
LINE
  5
120
330
11A
100
AcDbEntity
  8
SLD-0
  6
Continuous
 62
     3
100
AcDbLine
 10
51.66948026
 20
22.24238195
 30
0.0
 11
51.70142174
 21
22.56049002
 31
0.0
  0
LINE
  5
121
330
11A
100
AcDbEntity
  8
SLD-0
  6
Continuous
 62
     3
100
AcDbLine
 10
51.70142174
 20
22.56049002
 30
0.0
 11
51.73466574
 21
22.87846342
 31
0.0
  0
LINE
  5
122
330
11A
100
AcDbEntity
  8
SLD-0
  6
Continuous
 62
     3
100
AcDbLine
 10
51.73466574
 20
22.87846342
 30
0.0
 11
51.7692374
 21
23.19629539
 31
0.0
  0
LINE
  5
123
330
11A
100
AcDbEntity
  8
SLD-0
  6
Continuous
 62
     3
100
AcDbLine
 10
51.7692374
 20
23.19629539
 30
0.0
 11
51.80516181
 21
23.51397919
 31
0.0
  0
LINE
  5
124
330
11A
100
AcDbEntity
  8
SLD-0
  6
Continuous
 62
     3
100
AcDbLine
 10
51.80516181
 20
23.51397919
 30
0.0
 11
51.8424641
 21
23.83150808
 31
0.0
  0
LINE
  5
125
330
11A
100
AcDbEntity
  8
SLD-0
  6
Continuous
 62
     3
100
AcDbLine
 10
51.8424641
 20
23.83150808
 30
0.0
 11
51.88116939
 21
24.1488753
 31
0.0
  0
LINE
  5
126
330
11A
100
AcDbEntity
  8
SLD-0
  6
Continuous
 62
     3
100
AcDbLine
 10
51.88116939
 20
24.1488753
 30
0.0
 11
51.92130278
 21
24.46607412
 31
0.0
  0
LINE
  5
127
330
11A
100
AcDbEntity
  8
SLD-0
  6
Continuous
 62
     3
100
AcDbLine
 10
51.92130278
 20
24.46607412
 30
0.0
 11
51.9628894
 21
24.78309778
 31
0.0
  0
LINE
  5
128
330
11A
100
AcDbEntity
  8
SLD-0
  6
Continuous
 62
     3
100
AcDbLine
 10
51.9628894
 20
24.78309778
 30
0.0
 11
52.00595435
 21
25.09993954
 31
0.0
  0
LINE
  5
129
330
11A
100
AcDbEntity
  8
SLD-0
  6
Continuous
 62
     3
100
AcDbLine
 10
52.00595435
 20
25.09993954
 30
0.0
 11
52.05052276
 21
25.41659266
 31
0.0
  0
LINE
  5
12A
330
11A
100
AcDbEntity
  8
SLD-0
  6
Continuous
 62
     3
100
AcDbLine
 10
52.05052276
 20
25.41659266
 30
0.0
 11
52.09661974
 21
25.73305038
 31
0.0
  0
LINE
  5
12B
330
11A
100
AcDbEntity
  8
SLD-0
  6
Continuous
 62
     3
100
AcDbLine
 10
52.09661974
 20
25.73305038
 30
0.0
 11
52.14427041
 21
26.04930596
 31
0.0
  0
LINE
  5
12C
330
11A
100
AcDbEntity
  8
SLD-0
  6
Continuous
 62
     3
100
AcDbLine
 10
52.14427041
 20
26.04930596
 30
0.0
 11
52.19349988
 21
26.36535266
 31
0.0
  0
LINE
  5
12D
330
11A
100
AcDbEntity
  8
SLD-0
  6
Continuous
 62
     3
100
AcDbLine
 10
52.19349988
 20
26.36535266
 30
0.0
 11
52.24433326
 21
26.68118373
 31
0.0
  0
LINE
  5
12E
330
11A
100
AcDbEntity
  8
SLD-0
  6
Continuous
 62
     3
100
AcDbLine
 10
52.24433326
 20
26.68118373
 30
0.0
 11
52.29679567
 21
26.99679241
 31
0.0
  0
LINE
  5
12F
330
11A
100
AcDbEntity
  8
SLD-0
  6
Continuous
 62
     3
100
AcDbLine
 10
52.29679567
 20
26.99679241
 30
0.0
 11
52.35091223
 21
27.31217198
 31
0.0
  0
LINE
  5
130
330
11A
100
AcDbEntity
  8
SLD-0
  6
Continuous
 62
     3
100
AcDbLine
 10
52.35091223
 20
27.31217198
 30
0.0
 11
52.40670806
 21
27.62731567
 31
0.0
  0
ENDBLK
  5
11C
330
11A
100
AcDbEntity
  8
0
100
AcDbBlockEnd
  0
BLOCK
  5
132
330
131
100
AcDbEntity
  8
0
100
AcDbBlockBegin
  2
GROUP_6
 70
     0
 10
0.0
 20
0.0
 30
0.0
  3
GROUP_6
  1

  0
LINE
  5
134
330
131
100
AcDbEntity
  8
SLD-0
  6
Continuous
 62
     3
100
AcDbLine
 10
51.86237617
 20
23.99623235
 30
0.0
 11
51.87796413
 21
24.12296899
 31
0.0
  0
LINE
  5
135
330
131
100
AcDbEntity
  8
SLD-0
  6
Continuous
 62
     3
100
AcDbLine
 10
51.87796413
 20
24.12296899
 30
0.0
 11
51.89335831
 21
24.24625725
 31
0.0
  0
LINE
  5
136
330
131
100
AcDbEntity
  8
SLD-0
  6
Continuous
 62
     3
100
AcDbLine
 10
51.89335831
 20
24.24625725
 30
0.0
 11
51.90853924
 21
24.36606102
 31
0.0
  0
LINE
  5
137
330
131
100
AcDbEntity
  8
SLD-0
  6
Continuous
 62
     3
100
AcDbLine
 10
51.90853924
 20
24.36606102
 30
0.0
 11
51.92348745
 21
24.48234419
 31
0.0
  0
LINE
  5
138
330
131
100
AcDbEntity
  8
SLD-0
  6
Continuous
 62
     3
100
AcDbLine
 10
51.92348745
 20
24.48234419
 30
0.0
 11
51.93818349
 21
24.59507065
 31
0.0
  0
LINE
  5
139
330
131
100
AcDbEntity
  8
SLD-0
  6
Continuous
 62
     3
100
AcDbLine
 10
51.93818349
 20
24.59507065
 30
0.0
 11
51.95260788
 21
24.70420426
 31
0.0
  0
LINE
  5
13A
330
131
100
AcDbEntity
  8
SLD-0
  6
Continuous
 62
     3
100
AcDbLine
 10
51.95260788
 20
24.70420426
 30
0.0
 11
51.96674115
 21
24.80970893
 31
0.0
  0
LINE
  5
13B
330
131
100
AcDbEntity
  8
SLD-0
  6
Continuous
 62
     3
100
AcDbLine
 10
51.96674115
 20
24.80970893
 30
0.0
 11
51.98056386
 21
24.91154854
 31
0.0
  0
LINE
  5
13C
330
131
100
AcDbEntity
  8
SLD-0
  6
Continuous
 62
     3
100
AcDbLine
 10
51.98056386
 20
24.91154854
 30
0.0
 11
51.99405652
 21
25.00968696
 31
0.0
  0
LINE
  5
13D
330
131
100
AcDbEntity
  8
SLD-0
  6
Continuous
 62
     3
100
AcDbLine
 10
51.99405652
 20
25.00968696
 30
0.0
 11
52.00719967
 21
25.1040881
 31
0.0
  0
LINE
  5
13E
330
131
100
AcDbEntity
  8
SLD-0
  6
Continuous
 62
     3
100
AcDbLine
 10
52.00719967
 20
25.1040881
 30
0.0
 11
52.01997385
 21
25.19471582
 31
0.0
  0
LINE
  5
13F
330
131
100
AcDbEntity
  8
SLD-0
  6
Continuous
 62
     3
100
AcDbLine
 10
52.01997385
 20
25.19471582
 30
0.0
 11
52.03235959
 21
25.28153403
 31
0.0
  0
LINE
  5
140
330
131
100
AcDbEntity
  8
SLD-0
  6
Continuous
 62
     3
100
AcDbLine
 10
52.03235959
 20
25.28153403
 30
0.0
 11
52.04433743
 21
25.36450659
 31
0.0
  0
LINE
  5
141
330
131
100
AcDbEntity
  8
SLD-0
  6
Continuous
 62
     3
100
AcDbLine
 10
52.04433743
 20
25.36450659
 30
0.0
 11
52.05588789
 21
25.4435974
 31
0.0
  0
LINE
  5
142
330
131
100
AcDbEntity
  8
SLD-0
  6
Continuous
 62
     3
100
AcDbLine
 10
52.05588789
 20
25.4435974
 30
0.0
 11
52.06699152
 21
25.51877035
 31
0.0
  0
LINE
  5
143
330
131
100
AcDbEntity
  8
SLD-0
  6
Continuous
 62
     3
100
AcDbLine
 10
52.06699152
 20
25.51877035
 30
0.0
 11
52.07762885
 21
25.58998931
 31
0.0
  0
LINE
  5
144
330
131
100
AcDbEntity
  8
SLD-0
  6
Continuous
 62
     3
100
AcDbLine
 10
52.07762885
 20
25.58998931
 30
0.0
 11
52.08778041
 21
25.65721817
 31
0.0
  0
LINE
  5
145
330
131
100
AcDbEntity
  8
SLD-0
  6
Continuous
 62
     3
100
AcDbLine
 10
52.08778041
 20
25.65721817
 30
0.0
 11
52.09742674
 21
25.72042082
 31
0.0
  0
LINE
  5
146
330
131
100
AcDbEntity
  8
SLD-0
  6
Continuous
 62
     3
100
AcDbLine
 10
52.09742674
 20
25.72042082
 30
0.0
 11
52.10654837
 21
25.77956115
 31
0.0
  0
LINE
  5
147
330
131
100
AcDbEntity
  8
SLD-0
  6
Continuous
 62
     3
100
AcDbLine
 10
52.10654837
 20
25.77956115
 30
0.0
 11
52.11512583
 21
25.83460303
 31
0.0
  0
ENDBLK
  5
133
330
131
100
AcDbEntity
  8
0
100
AcDbBlockEnd
  0
BLOCK
  5
149
330
148
100
AcDbEntity
  8
0
100
AcDbBlockBegin
  2
GROUP_7
 70
     0
 10
0.0
 20
0.0
 30
0.0
  3
GROUP_7
  1

  0
LINE
  5
14B
330
148
100
AcDbEntity
  8
SLD-0
  6
Continuous
 62
     3
100
AcDbLine
 10
51.89490108
 20
24.25851961
 30
0.0
 11
51.90505476
 21
24.33876937
 31
0.0
  0
LINE
  5
14C
330
148
100
AcDbEntity
  8
SLD-0
  6
Continuous
 62
     3
100
AcDbLine
 10
51.90505476
 20
24.33876937
 30
0.0
 11
51.91529675
 21
24.41900778
 31
0.0
  0
LINE
  5
14D
330
148
100
AcDbEntity
  8
SLD-0
  6
Continuous
 62
     3
100
AcDbLine
 10
51.91529675
 20
24.41900778
 30
0.0
 11
51.92563097
 21
24.49923418
 31
0.0
  0
LINE
  5
14E
330
148
100
AcDbEntity
  8
SLD-0
  6
Continuous
 62
     3
100
AcDbLine
 10
51.92563097
 20
24.49923418
 30
0.0
 11
51.93606132
 21
24.57944788
 31
0.0
  0
LINE
  5
14F
330
148
100
AcDbEntity
  8
SLD-0
  6
Continuous
 62
     3
100
AcDbLine
 10
51.93606132
 20
24.57944788
 30
0.0
 11
51.94659171
 21
24.65964822
 31
0.0
  0
LINE
  5
150
330
148
100
AcDbEntity
  8
SLD-0
  6
Continuous
 62
     3
100
AcDbLine
 10
51.94659171
 20
24.65964822
 30
0.0
 11
51.95722603
 21
24.73983452
 31
0.0
  0
LINE
  5
151
330
148
100
AcDbEntity
  8
SLD-0
  6
Continuous
 62
     3
100
AcDbLine
 10
51.95722603
 20
24.73983452
 30
0.0
 11
51.96796819
 21
24.82000611
 31
0.0
  0
LINE
  5
152
330
148
100
AcDbEntity
  8
SLD-0
  6
Continuous
 62
     3
100
AcDbLine
 10
51.96796819
 20
24.82000611
 30
0.0
 11
51.97882209
 21
24.90016232
 31
0.0
  0
LINE
  5
153
330
148
100
AcDbEntity
  8
SLD-0
  6
Continuous
 62
     3
100
AcDbLine
 10
51.97882209
 20
24.90016232
 30
0.0
 11
51.98979165
 21
24.98030246
 31
0.0
  0
LINE
  5
154
330
148
100
AcDbEntity
  8
SLD-0
  6
Continuous
 62
     3
100
AcDbLine
 10
51.98979165
 20
24.98030246
 30
0.0
 11
52.00088075
 21
25.06042589
 31
0.0
  0
LINE
  5
155
330
148
100
AcDbEntity
  8
SLD-0
  6
Continuous
 62
     3
100
AcDbLine
 10
52.00088075
 20
25.06042589
 30
0.0
 11
52.01209331
 21
25.1405319
 31
0.0
  0
LINE
  5
156
330
148
100
AcDbEntity
  8
SLD-0
  6
Continuous
 62
     3
100
AcDbLine
 10
52.01209331
 20
25.1405319
 30
0.0
 11
52.02343324
 21
25.22061985
 31
0.0
  0
LINE
  5
157
330
148
100
AcDbEntity
  8
SLD-0
  6
Continuous
 62
     3
100
AcDbLine
 10
52.02343324
 20
25.22061985
 30
0.0
 11
52.03490442
 21
25.30068904
 31
0.0
  0
LINE
  5
158
330
148
100
AcDbEntity
  8
SLD-0
  6
Continuous
 62
     3
100
AcDbLine
 10
52.03490442
 20
25.30068904
 30
0.0
 11
52.04651077
 21
25.38073881
 31
0.0
  0
LINE
  5
159
330
148
100
AcDbEntity
  8
SLD-0
  6
Continuous
 62
     3
100
AcDbLine
 10
52.04651077
 20
25.38073881
 30
0.0
 11
52.0582562
 21
25.46076849
 31
0.0
  0
LINE
  5
15A
330
148
100
AcDbEntity
  8
SLD-0
  6
Continuous
 62
     3
100
AcDbLine
 10
52.0582562
 20
25.46076849
 30
0.0
 11
52.07014459
 21
25.54077741
 31
0.0
  0
LINE
  5
15B
330
148
100
AcDbEntity
  8
SLD-0
  6
Continuous
 62
     3
100
AcDbLine
 10
52.07014459
 20
25.54077741
 30
0.0
 11
52.08217987
 21
25.62076488
 31
0.0
  0
LINE
  5
15C
330
148
100
AcDbEntity
  8
SLD-0
  6
Continuous
 62
     3
100
AcDbLine
 10
52.08217987
 20
25.62076488
 30
0.0
 11
52.09436593
 21
25.70073024
 31
0.0
  0
LINE
  5
15D
330
148
100
AcDbEntity
  8
SLD-0
  6
Continuous
 62
     3
100
AcDbLine
 10
52.09436593
 20
25.70073024
 30
0.0
 11
52.10670668
 21
25.78067282
 31
0.0
  0
LINE
  5
15E
330
148
100
AcDbEntity
  8
SLD-0
  6
Continuous
 62
     3
100
AcDbLine
 10
52.10670668
 20
25.78067282
 30
0.0
 11
52.11920601
 21
25.86059194
 31
0.0
  0
ENDBLK
  5
14A
330
148
100
AcDbEntity
  8
0
100
AcDbBlockEnd
  0
BLOCK
  5
160
330
15F
100
AcDbEntity
  8
0
100
AcDbBlockBegin
  2
GROUP_8
 70
     0
 10
0.0
 20
0.0
 30
0.0
  3
GROUP_8
  1

  0
LINE
  5
162
330
15F
100
AcDbEntity
  8
SLD-0
  6
Continuous
 62
     3
100
AcDbLine
 10
52.17976864
 20
24.11958085
 30
0.0
 11
52.16879697
 21
24.12493207
 31
0.0
  0
LINE
  5
163
330
15F
100
AcDbEntity
  8
SLD-0
  6
Continuous
 62
     3
100
AcDbLine
 10
52.16879697
 20
24.12493207
 30
0.0
 11
52.15785804
 21
24.13026732
 31
0.0
  0
LINE
  5
164
330
15F
100
AcDbEntity
  8
SLD-0
  6
Continuous
 62
     3
100
AcDbLine
 10
52.15785804
 20
24.13026732
 30
0.0
 11
52.14696469
 21
24.13558034
 31
0.0
  0
LINE
  5
165
330
15F
100
AcDbEntity
  8
SLD-0
  6
Continuous
 62
     3
100
AcDbLine
 10
52.14696469
 20
24.13558034
 30
0.0
 11
52.13612979
 21
24.14086485
 31
0.0
  0
LINE
  5
166
330
15F
100
AcDbEntity
  8
SLD-0
  6
Continuous
 62
     3
100
AcDbLine
 10
52.13612979
 20
24.14086485
 30
0.0
 11
52.12536617
 21
24.14611459
 31
0.0
  0
LINE
  5
167
330
15F
100
AcDbEntity
  8
SLD-0
  6
Continuous
 62
     3
100
AcDbLine
 10
52.12536617
 20
24.14611459
 30
0.0
 11
52.11468669
 21
24.1513233
 31
0.0
  0
LINE
  5
168
330
15F
100
AcDbEntity
  8
SLD-0
  6
Continuous
 62
     3
100
AcDbLine
 10
52.11468669
 20
24.1513233
 30
0.0
 11
52.10410419
 21
24.1564847
 31
0.0
  0
LINE
  5
169
330
15F
100
AcDbEntity
  8
SLD-0
  6
Continuous
 62
     3
100
AcDbLine
 10
52.10410419
 20
24.1564847
 30
0.0
 11
52.09363153
 21
24.16159254
 31
0.0
  0
LINE
  5
16A
330
15F
100
AcDbEntity
  8
SLD-0
  6
Continuous
 62
     3
100
AcDbLine
 10
52.09363153
 20
24.16159254
 30
0.0
 11
52.08328155
 21
24.16664054
 31
0.0
  0
LINE
  5
16B
330
15F
100
AcDbEntity
  8
SLD-0
  6
Continuous
 62
     3
100
AcDbLine
 10
52.08328155
 20
24.16664054
 30
0.0
 11
52.07306709
 21
24.17162244
 31
0.0
  0
LINE
  5
16C
330
15F
100
AcDbEntity
  8
SLD-0
  6
Continuous
 62
     3
100
AcDbLine
 10
52.07306709
 20
24.17162244
 30
0.0
 11
52.06300102
 21
24.17653197
 31
0.0
  0
LINE
  5
16D
330
15F
100
AcDbEntity
  8
SLD-0
  6
Continuous
 62
     3
100
AcDbLine
 10
52.06300102
 20
24.17653197
 30
0.0
 11
52.05309617
 21
24.18136287
 31
0.0
  0
LINE
  5
16E
330
15F
100
AcDbEntity
  8
SLD-0
  6
Continuous
 62
     3
100
AcDbLine
 10
52.05309617
 20
24.18136287
 30
0.0
 11
52.0433654
 21
24.18610886
 31
0.0
  0
LINE
  5
16F
330
15F
100
AcDbEntity
  8
SLD-0
  6
Continuous
 62
     3
100
AcDbLine
 10
52.0433654
 20
24.18610886
 30
0.0
 11
52.03382156
 21
24.19076368
 31
0.0
  0
LINE
  5
170
330
15F
100
AcDbEntity
  8
SLD-0
  6
Continuous
 62
     3
100
AcDbLine
 10
52.03382156
 20
24.19076368
 30
0.0
 11
52.02447748
 21
24.19532107
 31
0.0
  0
LINE
  5
171
330
15F
100
AcDbEntity
  8
SLD-0
  6
Continuous
 62
     3
100
AcDbLine
 10
52.02447748
 20
24.19532107
 30
0.0
 11
52.01534603
 21
24.19977476
 31
0.0
  0
LINE
  5
172
330
15F
100
AcDbEntity
  8
SLD-0
  6
Continuous
 62
     3
100
AcDbLine
 10
52.01534603
 20
24.19977476
 30
0.0
 11
52.00644005
 21
24.20411847
 31
0.0
  0
LINE
  5
173
330
15F
100
AcDbEntity
  8
SLD-0
  6
Continuous
 62
     3
100
AcDbLine
 10
52.00644005
 20
24.20411847
 30
0.0
 11
51.99777239
 21
24.20834596
 31
0.0
  0
LINE
  5
174
330
15F
100
AcDbEntity
  8
SLD-0
  6
Continuous
 62
     3
100
AcDbLine
 10
51.99777239
 20
24.20834596
 30
0.0
 11
51.9893559
 21
24.21245094
 31
0.0
  0
LINE
  5
175
330
15F
100
AcDbEntity
  8
SLD-0
  6
Continuous
 62
     3
100
AcDbLine
 10
51.9893559
 20
24.21245094
 30
0.0
 11
51.98120342
 21
24.21642715
 31
0.0
  0
ENDBLK
  5
161
330
15F
100
AcDbEntity
  8
0
100
AcDbBlockEnd
  0
BLOCK
  5
177
330
176
100
AcDbEntity
  8
0
100
AcDbBlockBegin
  2
GROUP_9
 70
     0
 10
0.0
 20
0.0
 30
0.0
  3
GROUP_9
  1

  0
LINE
  5
179
330
176
100
AcDbEntity
  8
SLD-0
  6
Continuous
 62
     3
100
AcDbLine
 10
51.98120342
 20
24.21642715
 30
0.0
 11
51.9741694
 21
24.21985787
 31
0.0
  0
LINE
  5
17A
330
176
100
AcDbEntity
  8
SLD-0
  6
Continuous
 62
     3
100
AcDbLine
 10
51.9741694
 20
24.21985787
 30
0.0
 11
51.9673183
 21
24.22319937
 31
0.0
  0
LINE
  5
17B
330
176
100
AcDbEntity
  8
SLD-0
  6
Continuous
 62
     3
100
AcDbLine
 10
51.9673183
 20
24.22319937
 30
0.0
 11
51.96065015
 21
24.22645165
 31
0.0
  0
LINE
  5
17C
330
176
100
AcDbEntity
  8
SLD-0
  6
Continuous
 62
     3
100
AcDbLine
 10
51.96065015
 20
24.22645165
 30
0.0
 11
51.95416492
 21
24.2296147
 31
0.0
  0
LINE
  5
17D
330
176
100
AcDbEntity
  8
SLD-0
  6
Continuous
 62
     3
100
AcDbLine
 10
51.95416492
 20
24.2296147
 30
0.0
 11
51.94786263
 21
24.23268854
 31
0.0
  0
LINE
  5
17E
330
176
100
AcDbEntity
  8
SLD-0
  6
Continuous
 62
     3
100
AcDbLine
 10
51.94786263
 20
24.23268854
 30
0.0
 11
51.94174327
 21
24.23567315
 31
0.0
  0
LINE
  5
17F
330
176
100
AcDbEntity
  8
SLD-0
  6
Continuous
 62
     3
100
AcDbLine
 10
51.94174327
 20
24.23567315
 30
0.0
 11
51.93580685
 21
24.23856853
 31
0.0
  0
LINE
  5
180
330
176
100
AcDbEntity
  8
SLD-0
  6
Continuous
 62
     3
100
AcDbLine
 10
51.93580685
 20
24.23856853
 30
0.0
 11
51.93005336
 21
24.2413747
 31
0.0
  0
LINE
  5
181
330
176
100
AcDbEntity
  8
SLD-0
  6
Continuous
 62
     3
100
AcDbLine
 10
51.93005336
 20
24.2413747
 30
0.0
 11
51.92448281
 21
24.24409164
 31
0.0
  0
LINE
  5
182
330
176
100
AcDbEntity
  8
SLD-0
  6
Continuous
 62
     3
100
AcDbLine
 10
51.92448281
 20
24.24409164
 30
0.0
 11
51.91909518
 21
24.24671936
 31
0.0
  0
LINE
  5
183
330
176
100
AcDbEntity
  8
SLD-0
  6
Continuous
 62
     3
100
AcDbLine
 10
51.91909518
 20
24.24671936
 30
0.0
 11
51.9138905
 21
24.24925785
 31
0.0
  0
LINE
  5
184
330
176
100
AcDbEntity
  8
SLD-0
  6
Continuous
 62
     3
100
AcDbLine
 10
51.9138905
 20
24.24925785
 30
0.0
 11
51.90886874
 21
24.25170713
 31
0.0
  0
LINE
  5
185
330
176
100
AcDbEntity
  8
SLD-0
  6
Continuous
 62
     3
100
AcDbLine
 10
51.90886874
 20
24.25170713
 30
0.0
 11
51.90402992
 21
24.25406718
 31
0.0
  0
LINE
  5
186
330
176
100
AcDbEntity
  8
SLD-0
  6
Continuous
 62
     3
100
AcDbLine
 10
51.90402992
 20
24.25406718
 30
0.0
 11
51.89937403
 21
24.25633801
 31
0.0
  0
LINE
  5
187
330
176
100
AcDbEntity
  8
SLD-0
  6
Continuous
 62
     3
100
AcDbLine
 10
51.89937403
 20
24.25633801
 30
0.0
 11
51.89490108
 21
24.25851961
 31
0.0
  0
ENDBLK
  5
178
330
176
100
AcDbEntity
  8
0
100
AcDbBlockEnd
  0
ENDSEC
  0
SECTION
  2
ENTITIES
  0
LINE
  5
188
330
1F
100
AcDbEntity
  8
SLD-0
  6
Continuous
 62
     3
100
AcDbLine
 10
167.70832509
 20
124.16628193
 30
0.0
 11
52.70832511
 21
124.16628193
 31
0.0
  0
LINE
  5
189
330
1F
100
AcDbEntity
  8
SLD-0
  6
Continuous
 62
     3
100
AcDbLine
 10
200.9067080607
 20
151.0023156693
 30
0.0
 11
252.2583279807
 21
151.0023156693
 31
0.0
  0
LINE
  5
18A
330
1F
100
AcDbEntity
  8
SLD-0
  6
Continuous
 62
     3
100
AcDbLine
 10
222.6318152
 20
101.00231871
 30
0.0
 11
251.6318152
 21
101.00231871
 31
0.0
  0
LINE
  5
18B
330
1F
100
AcDbEntity
  8
SLD-0
  6
Continuous
 62
     3
100
AcDbLine
 10
222.13181522
 20
124.16628193
 30
0.0
 11
222.13181522
 21
101.50231871
 31
0.0
  0
LINE
  5
18C
330
1F
100
AcDbEntity
  8
SLD-0
  6
Continuous
 62
     3
100
AcDbLine
 10
200.6093138963
 20
125.7788704057
 30
0.0
 11
200.6020229463
 21
125.7788704057
 31
0.0
  0
LINE
  5
18D
330
1F
100
AcDbEntity
  8
SLD-0
  6
Continuous
 62
     3
100
AcDbLine
 10
167.7083252
 20
127.68930968
 30
0.0
 11
52.70832501
 21
127.68930968
 31
0.0
  0
LINE
  5
18E
330
1F
100
AcDbEntity
  8
SLD-0
  6
Continuous
 62
     3
100
AcDbLine
 10
167.70832577
 20
147.37123235
 30
0.0
 11
52.70832444
 21
147.37123235
 31
0.0
  0
LINE
  5
18F
330
1F
100
AcDbEntity
  8
SLD-0
  6
Continuous
 62
     3
100
AcDbLine
 10
167.7083255
 20
138.06230078
 30
0.0
 11
52.70832471
 21
138.06231795
 31
0.0
  0
LINE
  5
190
330
1F
100
AcDbEntity
  8
SLD-0
  6
Continuous
 62
     3
100
AcDbLine
 10
167.70832569
 20
144.66233692
 30
0.0
 11
52.70832452
 21
144.6623174
 31
0.0
  0
LINE
  5
191
330
1F
100
AcDbEntity
  8
SLD-0
  6
Continuous
 62
     3
100
AcDbLine
 10
167.20832586
 20
151.00231693
 30
0.0
 11
53.20832435
 21
151.00231693
 31
0.0
  0
LINE
  5
192
330
1F
100
AcDbEntity
  8
SLD-0
  6
Continuous
 62
     3
100
AcDbLine
 10
52.70832577
 20
101.5023181955
 30
0.0
 11
52.70832435
 21
150.5023169155
 31
0.0
  0
LINE
  5
193
330
1F
100
AcDbEntity
  8
SLD-0
  6
Continuous
 62
     3
100
AcDbLine
 10
167.70832586
 20
150.5023169155
 30
0.0
 11
167.70832444
 21
101.5023181955
 31
0.0
  0
LINE
  5
194
330
1F
100
AcDbEntity
  8
SLD-0
  6
Continuous
 62
     3
100
AcDbLine
 10
167.20832444
 20
101.00231821
 30
0.0
 11
53.20832577
 21
101.00231821
 31
0.0
  0
LINE
  5
195
330
1F
100
AcDbEntity
  8
SLD-0
  6
Continuous
 62
     3
100
AcDbLine
 10
117.1083251
 20
100.95252503
 30
0.0
 11
117.1083251
 21
101.00231853
 31
0.0
  0
LINE
  5
196
330
1F
100
AcDbEntity
  8
SLD-0
  6
Continuous
 62
     3
100
AcDbLine
 10
103.3083251
 20
100.95252503
 30
0.0
 11
103.3083251
 21
101.00231853
 31
0.0
  0
LINE
  5
197
330
1F
100
AcDbEntity
  8
SLD-0
  6
Continuous
 62
     3
100
AcDbLine
 10
101.8083251
 20
100.00231789
 30
0.0
 11
101.8083254
 21
101.00231853
 31
0.0
  0
LINE
  5
198
330
1F
100
AcDbEntity
  8
SLD-0
  6
Continuous
 62
     3
100
AcDbLine
 10
118.6083251
 20
100.00231789
 30
0.0
 11
118.6083248
 21
101.00231853
 31
0.0
  0
LINE
  5
199
330
1F
100
AcDbEntity
  8
SLD-0
  6
Continuous
 62
     3
100
AcDbLine
 10
249.03181546
 20
98.00231804
 30
0.0
 11
251.63181552
 21
98.00231804
 31
0.0
  0
LINE
  5
19A
330
1F
100
AcDbEntity
  8
SLD-0
  6
Continuous
 62
     3
100
AcDbLine
 10
200.0625860309
 20
144.5319637316
 30
0.0
 11
200.1285138709
 21
144.5342662216
 31
0.0
  0
LINE
  5
19B
330
1F
100
AcDbEntity
  8
SLD-0
  6
Continuous
 62
     3
100
AcDbLine
 10
199.8350355
 20
138.20061799
 30
0.0
 11
199.76019545
 21
138.20323177
 31
0.0
  0
LINE
  5
19C
330
1F
100
AcDbEntity
  8
SLD-0
  6
Continuous
 62
     3
100
AcDbLine
 10
200.36237617
 20
147.37123235
 30
0.0
 11
200.35635107
 21
147.32173533
 31
0.0
  0
LINE
  5
19D
330
1F
100
AcDbEntity
  8
SLD-0
  6
Continuous
 62
     3
100
AcDbLine
 10
235.53181581
 20
151.00231567
 30
0.0
 11
235.53181581
 21
149.50231709
 31
0.0
  0
LINE
  5
19E
330
1F
100
AcDbEntity
  8
SLD-0
  6
Continuous
 62
     3
100
AcDbLine
 10
230.83181634
 20
149.46130164
 30
0.0
 11
235.53181581
 21
149.50231709
 31
0.0
  0
LINE
  5
19F
330
1F
100
AcDbEntity
  8
SLD-0
  6
Continuous
 62
     3
100
AcDbLine
 10
230.83181634
 20
149.46130164
 30
0.0
 11
230.83181634
 21
144.4023183
 31
0.0
  0
LINE
  5
1A0
330
1F
100
AcDbEntity
  8
SLD-0
  6
Continuous
 62
     3
100
AcDbLine
 10
230.83181634
 20
144.4023183
 30
0.0
 11
209.02178019
 21
144.4023183
 31
0.0
  0
LINE
  5
1A1
330
1F
100
AcDbEntity
  8
SLD-0
  6
Continuous
 62
     3
100
AcDbLine
 10
209.02178019
 20
144.4023183
 30
0.0
 11
209.02178019
 21
136.40231792
 31
0.0
  0
LINE
  5
1A2
330
1F
100
AcDbEntity
  8
SLD-0
  6
Continuous
 62
     3
100
AcDbLine
 10
209.02178019
 20
136.40231792
 30
0.0
 11
230.83181601
 21
136.40231792
 31
0.0
  0
LINE
  5
1A3
330
1F
100
AcDbEntity
  8
SLD-0
  6
Continuous
 62
     3
100
AcDbLine
 10
230.83181601
 20
136.40231792
 30
0.0
 11
230.83181601
 21
102.54333381
 31
0.0
  0
LINE
  5
1A4
330
1F
100
AcDbEntity
  8
SLD-0
  6
Continuous
 62
     3
100
AcDbLine
 10
230.83181601
 20
102.54333381
 30
0.0
 11
235.53181548
 21
102.50231836
 31
0.0
  0
LINE
  5
1A5
330
1F
100
AcDbEntity
  8
SLD-0
  6
Continuous
 62
     3
100
AcDbLine
 10
235.53181548
 20
102.50231836
 30
0.0
 11
235.53181548
 21
101.0023182
 31
0.0
  0
LINE
  5
1A6
330
1F
100
AcDbEntity
  8
SLD-0
  6
Continuous
 62
     3
100
AcDbLine
 10
203.43181446
 20
128.402318
 30
0.0
 11
203.43181446
 21
146.15231812
 31
0.0
  0
LINE
  5
1A7
330
1F
100
AcDbEntity
  8
SLD-0
  6
Continuous
 62
     3
100
AcDbLine
 10
200.34343784
 20
127.68930968
 30
0.0
 11
203.43181446
 21
128.402318
 31
0.0
  0
LINE
  5
1A8
330
1F
100
AcDbEntity
  8
SLD-0
  6
Continuous
 62
     3
100
AcDbLine
 10
203.43181446
 20
146.15231812
 30
0.0
 11
200.67976864
 21
147.49458085
 31
0.0
  0
LINE
  5
1A9
330
1F
100
AcDbEntity
  8
SLD-0
  6
Continuous
 62
     3
100
AcDbLine
 10
222.13181522
 20
124.16628193
 30
0.0
 11
202.0642194
 21
124.51656314
 31
0.0
  0
LINE
  5
1AA
330
1F
100
AcDbEntity
  8
SLD-0
  6
Continuous
 62
     3
100
AcDbLine
 10
209.03181612
 20
144.20231864
 30
0.0
 11
209.03181612
 21
136.60231758
 31
0.0
  0
LINE
  5
1AB
330
1F
100
AcDbEntity
  8
SLD-0
  6
Continuous
 62
     3
100
AcDbLine
 10
251.63181552
 20
100.00231837
 30
0.0
 11
249.03181546
 21
100.00231837
 31
0.0
  0
LINE
  5
1AC
330
1F
100
AcDbEntity
  8
SLD-0
  6
Continuous
 62
     3
100
AcDbLine
 10
249.03181546
 20
98.00231804
 30
0.0
 11
249.03181546
 21
100.00231837
 31
0.0
  0
LINE
  5
1AD
330
1F
100
AcDbEntity
  8
SLD-0
  6
Continuous
 62
     3
100
AcDbLine
 10
251.63181552
 20
98.00231804
 30
0.0
 11
251.63181552
 21
100.00231837
 31
0.0
  0
LINE
  5
1AE
330
1F
100
AcDbEntity
  8
SLD-0
  6
Continuous
 62
     3
100
AcDbLine
 10
249.03181546
 20
100.00231837
 30
0.0
 11
249.03181546
 21
101.00231853
 31
0.0
  0
LINE
  5
1AF
330
1F
100
AcDbEntity
  8
SLD-0
  6
Continuous
 62
     3
100
AcDbLine
 10
252.1318152
 20
108.71226111
 30
0.0
 11
249.15832789
 21
108.71226046
 31
0.0
  0
LINE
  5
1B0
330
1F
100
AcDbEntity
  8
SLD-0
  6
Continuous
 62
     3
100
AcDbLine
 10
250.25832848
 20
108.7122607
 30
0.0
 11
250.25832848
 21
110.21226156
 31
0.0
  0
LINE
  5
1B1
330
1F
100
AcDbEntity
  8
SLD-0
  6
Continuous
 62
     3
100
AcDbLine
 10
250.55832856
 20
110.21226156
 30
0.0
 11
250.25832848
 21
110.21226156
 31
0.0
  0
LINE
  5
1B2
330
1F
100
AcDbEntity
  8
SLD-0
  6
Continuous
 62
     3
100
AcDbLine
 10
251.75832856
 20
108.71226039
 30
0.0
 11
250.55832856
 21
110.21226156
 31
0.0
  0
LINE
  5
1B3
330
1F
100
AcDbEntity
  8
SLD-0
  6
Continuous
 62
     3
100
AcDbLine
 10
251.63181552
 20
100.00231837
 30
0.0
 11
251.6318152
 21
101.00231871
 31
0.0
  0
LINE
  5
1B4
330
1F
100
AcDbEntity
  8
SLD-0
  6
Continuous
 62
     3
100
AcDbLine
 10
251.95832796
 20
144.26113557
 30
0.0
 11
249.15832789
 21
144.21226162
 31
0.0
  0
LINE
  5
1B5
330
1F
100
AcDbEntity
  8
SLD-0
  6
Continuous
 62
     3
100
AcDbLine
 10
252.2583279807
 20
151.0023156693
 30
0.0
 11
252.2583279807
 21
144.5611816193
 31
0.0
  0
LINE
  5
1B6
330
1F
100
AcDbEntity
  8
SLD-0
  6
Continuous
 62
     3
100
AcDbLine
 10
251.9635637
 20
144.26122661
 30
0.0
 11
251.95832796
 21
144.26113557
 31
0.0
  0
LINE
  5
1B7
330
1F
100
AcDbEntity
  8
SLD-0
  6
Continuous
 62
     3
100
AcDbLine
 10
252.1318152
 20
108.71226111
 30
0.0
 11
252.1318152
 21
101.50231871
 31
0.0
  0
LINE
  5
1B8
330
1F
100
AcDbEntity
  8
SLD-0
  6
Continuous
 62
     3
100
AcDbLine
 10
249.15832789
 20
108.71226046
 30
0.0
 11
249.15832789
 21
144.21226162
 31
0.0
  0
LINE
  5
1B9
330
1F
100
AcDbEntity
  8
SLD-0
  6
Continuous
 62
     3
100
AcDbLine
 10
250.2583279837
 20
144.2314616748
 30
0.0
 11
250.3474965337
 21
143.2122613648
 31
0.0
  0
LINE
  5
1BA
330
1F
100
AcDbEntity
  8
SLD-0
  6
Continuous
 62
     3
100
AcDbLine
 10
250.6754854137
 20
142.7122603548
 30
0.0
 11
250.3912408737
 21
142.7122603548
 31
0.0
  0
LINE
  5
1BB
330
1F
100
AcDbEntity
  8
SLD-0
  6
Continuous
 62
     3
100
AcDbLine
 10
250.3912408737
 20
142.7122603548
 30
0.0
 11
250.3905763737
 21
142.7198562248
 31
0.0
  0
LINE
  5
1BC
330
1F
100
AcDbEntity
  8
SLD-0
  6
Continuous
 62
     3
100
AcDbLine
 10
250.3905763737
 20
142.7198562248
 30
0.0
 11
250.3886027837
 21
142.7424147148
 31
0.0
  0
LINE
  5
1BD
330
1F
100
AcDbEntity
  8
SLD-0
  6
Continuous
 62
     3
100
AcDbLine
 10
250.3886027837
 20
142.7424147148
 30
0.0
 11
250.3853802937
 21
142.7792485248
 31
0.0
  0
LINE
  5
1BE
330
1F
100
AcDbEntity
  8
SLD-0
  6
Continuous
 62
     3
100
AcDbLine
 10
250.3853802937
 20
142.7792485248
 30
0.0
 11
250.3810066837
 21
142.8292381948
 31
0.0
  0
LINE
  5
1BF
330
1F
100
AcDbEntity
  8
SLD-0
  6
Continuous
 62
     3
100
AcDbLine
 10
250.3810066837
 20
142.8292381948
 30
0.0
 11
250.3756149037
 21
142.8908675348
 31
0.0
  0
LINE
  5
1C0
330
1F
100
AcDbEntity
  8
SLD-0
  6
Continuous
 62
     3
100
AcDbLine
 10
250.3756149037
 20
142.8908675348
 30
0.0
 11
250.3693687637
 21
142.9622608648
 31
0.0
  0
LINE
  5
1C1
330
1F
100
AcDbEntity
  8
SLD-0
  6
Continuous
 62
     3
100
AcDbLine
 10
250.3693687637
 20
142.9622608648
 30
0.0
 11
250.3624579937
 21
143.0412500548
 31
0.0
  0
LINE
  5
1C2
330
1F
100
AcDbEntity
  8
SLD-0
  6
Continuous
 62
     3
100
AcDbLine
 10
250.3624579937
 20
143.0412500548
 30
0.0
 11
250.3550927537
 21
143.1254360248
 31
0.0
  0
LINE
  5
1C3
330
1F
100
AcDbEntity
  8
SLD-0
  6
Continuous
 62
     3
100
AcDbLine
 10
250.3550927537
 20
143.1254360248
 30
0.0
 11
250.3474965337
 21
143.2122613648
 31
0.0
  0
LINE
  5
1C4
330
1F
100
AcDbEntity
  8
SLD-0
  6
Continuous
 62
     3
100
AcDbLine
 10
251.116906672
 20
143.0708400888
 30
0.0
 11
251.064812212
 21
143.0187456288
 31
0.0
  0
LINE
  5
1C5
330
1F
100
AcDbEntity
  8
SLD-0
  6
Continuous
 62
     3
100
AcDbLine
 10
251.064812212
 20
143.0187456288
 30
0.0
 11
251.014300652
 21
142.9682344188
 31
0.0
  0
LINE
  5
1C6
330
1F
100
AcDbEntity
  8
SLD-0
  6
Continuous
 62
     3
100
AcDbLine
 10
251.014300652
 20
142.9682344188
 30
0.0
 11
250.966906692
 21
142.9208394188
 31
0.0
  0
LINE
  5
1C7
330
1F
100
AcDbEntity
  8
SLD-0
  6
Continuous
 62
     3
100
AcDbLine
 10
250.966906692
 20
142.9208394188
 30
0.0
 11
250.924070402
 21
142.8780041688
 31
0.0
  0
LINE
  5
1C8
330
1F
100
AcDbEntity
  8
SLD-0
  6
Continuous
 62
     3
100
AcDbLine
 10
250.924070402
 20
142.8780041688
 30
0.0
 11
250.887093402
 21
142.8410269288
 31
0.0
  0
LINE
  5
1C9
330
1F
100
AcDbEntity
  8
SLD-0
  6
Continuous
 62
     3
100
AcDbLine
 10
250.887093402
 20
142.8410269288
 30
0.0
 11
250.857099112
 21
142.8110327588
 31
0.0
  0
LINE
  5
1CA
330
1F
100
AcDbEntity
  8
SLD-0
  6
Continuous
 62
     3
100
AcDbLine
 10
250.857099112
 20
142.8110327588
 30
0.0
 11
250.834998942
 21
142.7889324688
 31
0.0
  0
LINE
  5
1CB
330
1F
100
AcDbEntity
  8
SLD-0
  6
Continuous
 62
     3
100
AcDbLine
 10
250.834998942
 20
142.7889324688
 30
0.0
 11
250.821464382
 21
142.7753966288
 31
0.0
  0
LINE
  5
1CC
330
1F
100
AcDbEntity
  8
SLD-0
  6
Continuous
 62
     3
100
AcDbLine
 10
250.821464382
 20
142.7753966288
 30
0.0
 11
250.816906722
 21
142.7708387388
 31
0.0
  0
LINE
  5
1CD
330
1F
100
AcDbEntity
  8
SLD-0
  6
Continuous
 62
     3
100
AcDbLine
 10
252.170460092
 20
144.1243931688
 30
0.0
 11
251.116906672
 21
143.0708400888
 31
0.0
  0
LINE
  5
1CE
330
1F
100
AcDbEntity
  8
SLD-0
  6
Continuous
 62
     3
100
AcDbLine
 10
252.2583279807
 20
144.5611816193
 30
0.0
 11
252.2583279807
 21
144.3365251093
 31
0.0
  0
LINE
  5
1CF
330
1F
100
AcDbEntity
  8
SLD-0
  6
PHANTOM
 62
     3
100
AcDbLine
 10
201.9818163928
 20
114.3013166313
 30
0.0
 11
203.1818156928
 21
114.3013166313
 31
0.0
  0
LINE
  5
1D0
330
1F
100
AcDbEntity
  8
SLD-0
  6
PHANTOM
 62
     3
100
AcDbLine
 10
119.45832436
 20
104.64926496
 30
0.0
 11
119.45832436
 21
123.65131699
 31
0.0
  0
LINE
  5
1D1
330
1F
100
AcDbEntity
  8
SLD-0
  6
PHANTOM
 62
     3
100
AcDbLine
 10
162.45832668
 20
123.65131699
 30
0.0
 11
162.45832668
 21
104.64926496
 31
0.0
  0
LINE
  5
1D2
330
1F
100
AcDbEntity
  8
SLD-0
  6
PHANTOM
 62
     3
100
AcDbLine
 10
162.45832668
 20
104.64926496
 30
0.0
 11
119.45832436
 21
104.64926496
 31
0.0
  0
LINE
  5
1D3
330
1F
100
AcDbEntity
  8
SLD-0
  6
PHANTOM
 62
     3
100
AcDbLine
 10
119.45832436
 20
123.65131699
 30
0.0
 11
162.45832668
 21
123.65131699
 31
0.0
  0
LINE
  5
1D4
330
1F
100
AcDbEntity
  8
SLD-0
  6
PHANTOM
 62
     3
100
AcDbLine
 10
55.45532332
 20
104.64936554
 30
0.0
 11
55.45532332
 21
123.6550616
 31
0.0
  0
LINE
  5
1D5
330
1F
100
AcDbEntity
  8
SLD-0
  6
PHANTOM
 62
     3
100
AcDbLine
 10
90.95532448
 20
123.6550616
 30
0.0
 11
90.95532448
 21
104.64936554
 31
0.0
  0
LINE
  5
1D6
330
1F
100
AcDbEntity
  8
SLD-0
  6
PHANTOM
 62
     3
100
AcDbLine
 10
90.95532448
 20
104.64936554
 30
0.0
 11
55.45532332
 21
104.64936554
 31
0.0
  0
LINE
  5
1D7
330
1F
100
AcDbEntity
  8
SLD-0
  6
PHANTOM
 62
     3
100
AcDbLine
 10
90.95532448
 20
123.6550616
 30
0.0
 11
55.45532332
 21
123.6550616
 31
0.0
  0
LINE
  5
1D8
330
1F
100
AcDbEntity
  8
SLD-0
  6
PHANTOM
 62
     3
100
AcDbLine
 10
201.87403953
 20
104.65332734
 30
0.0
 11
199.6991078
 21
104.64926475
 31
0.0
  0
LINE
  5
1D9
330
1F
100
AcDbEntity
  8
SLD-0
  6
PHANTOM
 62
     3
100
AcDbLine
 10
220.48181747
 20
113.10131774
 30
0.0
 11
220.48181747
 21
104.65131813
 31
0.0
  0
LINE
  5
1DA
330
1F
100
AcDbEntity
  8
SLD-0
  6
PHANTOM
 62
     3
100
AcDbLine
 10
222.13181522
 20
113.10131774
 30
0.0
 11
220.48181747
 21
113.10131774
 31
0.0
  0
LINE
  5
1DB
330
1F
100
AcDbEntity
  8
SLD-0
  6
PHANTOM
 62
     3
100
AcDbLine
 10
222.13181522
 20
104.65131813
 30
0.0
 11
220.48181747
 21
104.65131813
 31
0.0
  0
LINE
  5
1DC
330
1F
100
AcDbEntity
  8
SLD-0
  6
PHANTOM
 62
     3
100
AcDbLine
 10
220.48181747
 20
113.10131774
 30
0.0
 11
201.8290166
 21
113.10131721
 31
0.0
  0
LINE
  5
1DD
330
1F
100
AcDbEntity
  8
SLD-0
  6
PHANTOM
 62
     3
100
AcDbLine
 10
203.1818156928
 20
114.3013166313
 30
0.0
 11
203.1818163928
 21
113.1013177413
 31
0.0
  0
LINE
  5
1DE
330
1F
100
AcDbEntity
  8
SLD-0
  6
PHANTOM
 62
     3
100
AcDbLine
 10
201.3818145128
 20
118.9513172413
 30
0.0
 11
201.3818159328
 21
114.9013170913
 31
0.0
  0
LINE
  5
1DF
330
1F
100
AcDbEntity
  8
SLD-0
  6
PHANTOM
 62
     3
100
AcDbLine
 10
199.6526167128
 20
120.3511444313
 30
0.0
 11
201.3818145128
 21
118.9513172413
 31
0.0
  0
LINE
  5
1E0
330
1F
100
AcDbEntity
  8
SLD-0
  6
PHANTOM
 62
     3
100
AcDbLine
 10
199.28181583
 20
123.1513169
 30
0.0
 11
199.28181555
 21
121.12838892
 31
0.0
  0
LINE
  5
1E1
330
1F
100
AcDbEntity
  8
SLD-0
  6
PHANTOM
 62
     3
100
AcDbLine
 10
222.131815215
 20
123.651316765
 30
0.0
 11
199.781815685
 21
123.651316765
 31
0.0
  0
LINE
  5
1E2
330
1F
100
AcDbEntity
  8
SLD-0
  6
PHANTOM
 62
     3
100
AcDbLine
 10
215.58181648
 20
113.10131774
 30
0.0
 11
215.58181594
 21
105.75131744
 31
0.0
  0
LINE
  5
1E3
330
1F
100
AcDbEntity
  8
SLD-0
  6
PHANTOM
 62
     3
100
AcDbLine
 10
216.68181594
 20
104.65131744
 30
0.0
 11
220.48181747
 21
104.65131813
 31
0.0
  0
LINE
  5
1E4
330
1F
100
AcDbEntity
  8
SLD-0
  6
PHANTOM
 62
     3
100
AcDbLine
 10
201.8290166
 20
113.10131721
 30
0.0
 11
201.87403953
 21
104.65332734
 31
0.0
  0
LINE
  5
1E5
330
1F
100
AcDbEntity
  8
SLD-0
  6
PHANTOM
 62
     3
100
AcDbLine
 10
222.13181522
 20
123.6550616
 30
0.0
 11
199.78181555
 21
123.6550616
 31
0.0
  0
LINE
  5
1E6
330
1F
100
AcDbEntity
  8
SLD-0
  6
CENTERX2
 62
     3
100
AcDbLine
 10
173.48758542
 20
126.00231821
 30
0.0
 11
44.74167202
 21
126.00231821
 31
0.0
  0
LINE
  5
1E7
330
1F
100
AcDbEntity
  8
SLD-0
  6
CENTERX2
 62
     3
100
AcDbLine
 10
197.38473872
 20
126.00231871
 30
0.0
 11
251.6318152
 21
126.00231871
 31
0.0
  0
LINE
  5
1E8
330
1F
100
AcDbEntity
  8
SLD-0
  6
CENTERX2
 62
     3
100
AcDbLine
 10
110.20832602
 20
156.00955001
 30
0.0
 11
110.20832413
 21
90.74044999
 31
0.0
  0
ARC
  5
1E9
330
1F
100
AcDbEntity
  8
SLD-0
  6
Continuous
 62
     3
100
AcDbCircle
 10
251.6318152
 20
101.50231871
 30
0.0
 40
0.5
100
AcDbArc
 50
270.0
 51
0.0
  0
ARC
  5
1EA
330
1F
100
AcDbEntity
  8
SLD-0
  6
Continuous
 62
     3
100
AcDbCircle
 10
53.20832435
 20
150.50231693
 30
0.0
 40
0.5000000000000002
100
AcDbArc
 50
90.0
 51
180.00000166
  0
ARC
  5
1EB
330
1F
100
AcDbEntity
  8
SLD-0
  6
Continuous
 62
     3
100
AcDbCircle
 10
167.20832586
 20
150.50231693
 30
0.0
 40
0.5000000000000002
100
AcDbArc
 50
359.99999834
 51
90.0
  0
ARC
  5
1EC
330
1F
100
AcDbEntity
  8
SLD-0
  6
Continuous
 62
     3
100
AcDbCircle
 10
222.63181522
 20
101.50231871
 30
0.0
 40
0.5000000000000004
100
AcDbArc
 50
180.0
 51
269.9999977082
  0
ARC
  5
1ED
330
1F
100
AcDbEntity
  8
SLD-0
  6
Continuous
 62
     3
100
AcDbCircle
 10
167.20832444
 20
101.50231821
 30
0.0
 40
0.5000000000000002
100
AcDbArc
 50
270.0
 51
359.99999834
  0
ARC
  5
1EE
330
1F
100
AcDbEntity
  8
SLD-0
  6
Continuous
 62
     3
100
AcDbCircle
 10
53.20832577
 20
101.50231821
 30
0.0
 40
0.5000000000000002
100
AcDbArc
 50
180.00000166
 51
270.0
  0
ARC
  5
1EF
330
1F
100
AcDbEntity
  8
SLD-0
  6
Continuous
 62
     3
100
AcDbCircle
 10
110.2083251
 20
116.64231789
 30
0.0
 40
17.13999999969974
100
AcDbArc
 50
246.2612416493
 51
293.7387583507
  0
ARC
  5
1F0
330
1F
100
AcDbEntity
  8
SLD-0
  6
Continuous
 62
     3
100
AcDbCircle
 10
110.2083251
 20
116.64231789
 30
0.0
 40
18.64
100
AcDbArc
 50
243.2150044925
 51
296.7849955075
  0
ARC
  5
1F1
330
1F
100
AcDbEntity
  8
SLD-0
  6
Continuous
 62
     3
100
AcDbCircle
 10
211.3344097735
 20
140.8217991008
 30
0.0
 40
11.86673215641558
100
AcDbArc
 50
161.7808387435
 51
177.43765835
  0
ARC
  5
1F2
330
1F
100
AcDbEntity
  8
SLD-0
  6
Continuous
 62
     3
100
AcDbCircle
 10
211.3344097735
 20
140.8217991008
 30
0.0
 40
11.8667321564156
100
AcDbArc
 50
177.43765835
 51
192.7480692873
  0
ARC
  5
1F3
330
1F
100
AcDbEntity
  8
SLD-0
  6
Continuous
 62
     3
100
AcDbCircle
 10
192.31832095
 20
141.72253639
 30
0.0
 40
8.300898160000033
100
AcDbArc
 50
333.83596459
 51
20.74148918
  0
ARC
  5
1F4
330
1F
100
AcDbEntity
  8
SLD-0
  6
Continuous
 62
     3
100
AcDbCircle
 10
202.0903981899
 20
126.0163346663
 30
0.0
 40
1.499999986684419
100
AcDbArc
 50
189.1087876519
 51
268.9999931039
  0
ARC
  5
1F5
330
1F
100
AcDbEntity
  8
SLD-0
  6
Continuous
 62
     3
100
AcDbCircle
 10
251.95832798
 20
144.5611809193
 30
0.0
 40
0.3000000007099781
100
AcDbArc
 50
270.9999996264
 51
0.0001336902
  0
ARC
  5
1F6
330
1F
100
AcDbEntity
  8
SLD-0
  6
Continuous
 62
     3
100
AcDbCircle
 10
250.6754853637
 20
142.9122609871
 30
0.0
 40
0.2000006323236283
100
AcDbArc
 50
270.0000143239
 51
314.9998197122
  0
ARC
  5
1F7
330
1F
100
AcDbEntity
  8
SLD-0
  6
Continuous
 62
     3
100
AcDbCircle
 10
251.9583280215
 20
144.3365251093
 30
0.0
 40
0.2999999592421716
100
AcDbArc
 50
315.0000175562
 51
0.0
  0
ARC
  5
1F8
330
1F
100
AcDbEntity
  8
SLD-0
  6
PHANTOM
 62
     3
100
AcDbCircle
 10
231.6348219383
 20
113.4589248378
 30
0.0
 40
33.49999999999999
100
AcDbArc
 50
167.88334717
 51
194.58452094
  0
ARC
  5
1F9
330
1F
100
AcDbEntity
  8
SLD-0
  6
PHANTOM
 62
     3
100
AcDbCircle
 10
199.69817303
 20
105.1492636982
 30
0.0
 40
0.4999998220326309
100
AcDbArc
 50
194.5845218469
 51
270.1071168518
  0
ARC
  5
1FA
330
1F
100
AcDbEntity
  8
SLD-0
  6
PHANTOM
 62
     3
100
AcDbCircle
 10
231.6348219383
 20
113.4589248378
 30
0.0
 40
33.5
100
AcDbArc
 50
164.96363983
 51
167.88334717
  0
ARC
  5
1FB
330
1F
100
AcDbEntity
  8
SLD-0
  6
PHANTOM
 62
     3
100
AcDbCircle
 10
201.9818163928
 20
114.9013170913
 30
0.0
 40
0.6000004600000182
100
AcDbArc
 50
180.0
 51
270.0
  0
ARC
  5
1FC
330
1F
100
AcDbEntity
  8
SLD-0
  6
PHANTOM
 62
     3
100
AcDbCircle
 10
200.2818157817
 20
121.12838892
 30
0.0
 40
1.000000231731029
100
AcDbArc
 50
180.0
 51
231.0089547659
  0
ARC
  5
1FD
330
1F
100
AcDbEntity
  8
SLD-0
  6
PHANTOM
 62
     3
100
AcDbCircle
 10
199.781815685
 20
123.15131691
 30
0.0
 40
0.4999998549999844
100
AcDbArc
 50
90.0
 51
180.0000011459
  0
ARC
  5
1FE
330
1F
100
AcDbEntity
  8
SLD-0
  6
PHANTOM
 62
     3
100
AcDbCircle
 10
216.68181594
 20
105.75131744
 30
0.0
 40
1.100000000000023
100
AcDbArc
 50
180.0
 51
270.0
  0
ARC
  5
1FF
330
1F
100
AcDbEntity
  8
SLD-0
  6
PHANTOM
 62
     3
100
AcDbCircle
 10
199.78181555
 20
123.1550616
 30
0.0
 40
0.5
100
AcDbArc
 50
90.0
 51
180.0
  0
INSERT
  5
200
330
1F
100
AcDbEntity
  8
0
  6
Continuous
 62
     7
100
AcDbBlockReference
  2
GROUP_1
 10
148.5
 20
123.375
 30
0.0
  0
INSERT
  5
201
330
1F
100
AcDbEntity
  8
0
  6
Continuous
 62
     7
100
AcDbBlockReference
  2
GROUP_2
 10
148.5
 20
123.375
 30
0.0
  0
INSERT
  5
202
330
1F
100
AcDbEntity
  8
0
  6
Continuous
 62
     7
100
AcDbBlockReference
  2
GROUP_3
 10
148.5
 20
123.375
 30
0.0
  0
INSERT
  5
203
330
1F
100
AcDbEntity
  8
0
  6
Continuous
 62
     7
100
AcDbBlockReference
  2
GROUP_4
 10
148.5
 20
123.375
 30
0.0
  0
INSERT
  5
204
330
1F
100
AcDbEntity
  8
0
  6
Continuous
 62
     7
100
AcDbBlockReference
  2
GROUP_5
 10
148.5
 20
123.375
 30
0.0
  0
INSERT
  5
205
330
1F
100
AcDbEntity
  8
0
  6
Continuous
 62
     7
100
AcDbBlockReference
  2
GROUP_7
 10
148.5
 20
123.375
 30
0.0
  0
INSERT
  5
206
330
1F
100
AcDbEntity
  8
0
  6
Continuous
 62
     7
100
AcDbBlockReference
  2
GROUP_6
 10
148.5
 20
123.375
 30
0.0
  0
INSERT
  5
207
330
1F
100
AcDbEntity
  8
0
  6
Continuous
 62
     7
100
AcDbBlockReference
  2
GROUP_8
 10
148.5
 20
123.375
 30
0.0
  0
INSERT
  5
208
330
1F
100
AcDbEntity
  8
0
  6
Continuous
 62
     7
100
AcDbBlockReference
  2
GROUP_9
 10
148.5
 20
123.375
 30
0.0
  0
MTEXT
  5
20A
330
1F
100
AcDbEntity
  8
SLD-0_0
 62
   179
100
AcDbMText
 10
214.22174563
 20
58.4510074696
 30
0.0
 40
5.0
 41
0.0
 71
     1
 72
     1
  1
000
  7
SLDTEXTSTYLE0
 73
     1
 44
1.0
  0
ENDSEC
  0
SECTION
  2
OBJECTS
  0
DICTIONARY
  5
C
330
0
100
AcDbDictionary
281
     1
  3
ACAD_GROUP
350
D
  3
ACAD_LAYOUT
350
1A
  3
ACAD_MLINESTYLE
350
17
  3
ACAD_PLOTSETTINGS
350
19
  3
ACAD_PLOTSTYLENAME
350
E
  0
DICTIONARY
  5
D
102
{ACAD_REACTORS
330
C
102
}
330
C
100
AcDbDictionary
281
     1
  0
DICTIONARY
  5
1A
102
{ACAD_REACTORS
330
C
102
}
330
C
100
AcDbDictionary
281
     1
  3
Layout1
350
1E
  3
Layout2
350
26
  3
Model
350
22
  0
DICTIONARY
  5
17
102
{ACAD_REACTORS
330
C
102
}
330
C
100
AcDbDictionary
281
     1
  3
Standard
350
18
  0
DICTIONARY
  5
19
102
{ACAD_REACTORS
330
C
102
}
330
C
100
AcDbDictionary
281
     1
  0
ACDBDICTIONARYWDFLT
  5
E
102
{ACAD_REACTORS
330
C
102
}
330
C
100
AcDbDictionary
281
     1
  3
Normal
350
F
100
AcDbDictionaryWithDefault
340
F
  0
LAYOUT
  5
1E
102
{ACAD_REACTORS
330
1A
102
}
330
1A
100
AcDbPlotSettings
  1

  2
none_device
  4

  6

 40
0.0
 41
0.0
 42
0.0
 43
0.0
 44
0.0
 45
0.0
 46
0.0
 47
0.0
 48
0.0
 49
0.0
140
0.0
141
0.0
142
1.0
143
1.0
 70
   688
 72
     0
 73
     0
 74
     5
  7

 75
    16
147
1.0
148
0.0
149
0.0
100
AcDbLayout
  1
Layout1
 70
     1
 71
     1
 10
0.0
 20
0.0
 11
420.0
 21
297.0
 12
0.0
 22
0.0
 32
0.0
 14
1.0000000000E+20
 24
1.0000000000E+20
 34
1.0000000000E+20
 15
-1.0000000000E+20
 25
-1.0000000000E+20
 35
-1.0000000000E+20
146
0.0
 13
0.0
 23
0.0
 33
0.0
 16
1.0
 26
0.0
 36
0.0
 17
0.0
 27
1.0
 37
0.0
 76
     0
330
1B
  0
LAYOUT
  5
26
102
{ACAD_REACTORS
330
1A
102
}
330
1A
100
AcDbPlotSettings
  1

  2
none_device
  4

  6

 40
0.0
 41
0.0
 42
0.0
 43
0.0
 44
0.0
 45
0.0
 46
0.0
 47
0.0
 48
0.0
 49
0.0
140
0.0
141
0.0
142
1.0
143
1.0
 70
   688
 72
     0
 73
     0
 74
     5
  7

 75
    16
147
1.0
148
0.0
149
0.0
100
AcDbLayout
  1
Layout2
 70
     1
 71
     2
 10
0.0
 20
0.0
 11
0.0
 21
0.0
 12
0.0
 22
0.0
 32
0.0
 14
0.0
 24
0.0
 34
0.0
 15
0.0
 25
0.0
 35
0.0
146
0.0
 13
0.0
 23
0.0
 33
0.0
 16
1.0
 26
0.0
 36
0.0
 17
0.0
 27
1.0
 37
0.0
 76
     0
330
23
  0
LAYOUT
  5
22
102
{ACAD_REACTORS
330
1A
102
}
330
1A
100
AcDbPlotSettings
  1

  2
none_device
  4

  6

 40
0.0
 41
0.0
 42
0.0
 43
0.0
 44
0.0
 45
0.0
 46
0.0
 47
0.0
 48
0.0
 49
0.0
140
0.0
141
0.0
142
1.0
143
1.0
 70
  1712
 72
     0
 73
     0
 74
     0
  7

 75
     0
147
1.0
148
0.0
149
0.0
100
AcDbLayout
  1
Model
 70
     1
 71
     0
 10
0.0
 20
0.0
 11
297.0
 21
210.0
 12
0.0
 22
0.0
 32
0.0
 14
0.0
 24
0.0
 34
0.0
 15
297.0
 25
210.0
 35
0.0
146
0.0
 13
0.0
 23
0.0
 33
0.0
 16
1.0
 26
0.0
 36
0.0
 17
0.0
 27
1.0
 37
0.0
 76
     0
330
1F
331
29
  0
MLINESTYLE
  5
18
102
{ACAD_REACTORS
330
17
102
}
330
17
100
AcDbMlineStyle
  2
Standard
 70
     0
  3

 62
   256
 51
90.0
 52
90.0
 71
     2
 49
0.5
 62
   256
  6
BYLAYER
 49
-0.5
 62
   256
  6
BYLAYER
  0
ACDBPLACEHOLDER
  5
F
102
{ACAD_REACTORS
330
E
102
}
330
E
  0
ENDSEC
  0
EOF
