  0
SECTION
  2
HEADER
  9
$ACADVER
  1
AC1014
  9
$ACADMAINTVER
 70
       0
  9
$DWGCODEPAGE
  3
ANSI_932
  9
$INSBASE
 10
0.0
 20
0.0
 30
0.0
  9
$EXTMIN
 10
-95.04500198
 20
-53.28044212
 30
0.0
  9
$EXTMAX
 10
103.59500189
 20
50.78044212
 30
0.0
  9
$LIMMIN
 10
-101.2525021
 20
-56.53234475
  9
$LIMMAX
 10
109.80250201
 20
54.03234475
  9
$ORTHOMODE
 70
       0
  9
$REGENMODE
 70
       1
  9
$FILLMODE
 70
       1
  9
$QTEXTMODE
 70
       0
  9
$MIRRTEXT
 70
       1
  9
$DRAGMODE
 70
       2
  9
$LTSCALE
 40
1.0
  9
$OSMODE
 70
       0
  9
$ATTMODE
 70
       1
  9
$TEXTSIZE
 40
0.2
  9
$TRACEWID
 40
0.05
  9
$TEXTSTYLE
  7
STANDARD
  9
$CLAYER
  8
0
  9
$CELTYPE
  6
CONTINUOUS
  9
$CECOLOR
 62
     256
  9
$CELTSCALE
 40
1.0
  9
$DELOBJ
 70
       1
  9
$DISPSILH
 70
       0
  9
$DIMSCALE
 40
1.0
  9
$DIMASZ
 40
0.18
  9
$DIMEXO
 40
0.0625
  9
$DIMDLI
 40
0.38
  9
$DIMRND
 40
0.0
  9
$DIMDLE
 40
0.0
  9
$DIMEXE
 40
0.18
  9
$DIMTP
 40
0.0
  9
$DIMTM
 40
0.0
  9
$DIMTXT
 40
0.18
  9
$DIMCEN
 40
0.09
  9
$DIMTSZ
 40
0.0
  9
$DIMTOL
 70
       0
  9
$DIMLIM
 70
       0
  9
$DIMTIH
 70
       1
  9
$DIMTOH
 70
       1
  9
$DIMSE1
 70
       0
  9
$DIMSE2
 70
       0
  9
$DIMTAD
 70
       0
  9
$DIMZIN
 70
       0
  9
$DIMBLK
  1

  9
$DIMASO
 70
       1
  9
$DIMSHO
 70
       1
  9
$DIMPOST
  1

  9
$DIMAPOST
  1

  9
$DIMALT
 70
       0
  9
$DIMALTD
 70
       2
  9
$DIMALTF
 40
25.4
  9
$DIMLFAC
 40
1.0
  9
$DIMTOFL
 70
       0
  9
$DIMTVP
 40
0.0
  9
$DIMTIX
 70
       0
  9
$DIMSOXD
 70
       0
  9
$DIMSAH
 70
       0
  9
$DIMBLK1
  1

  9
$DIMBLK2
  1

  9
$DIMSTYLE
  2
STANDARD
  9
$DIMCLRD
 70
       0
  9
$DIMCLRE
 70
       0
  9
$DIMCLRT
 70
       0
  9
$DIMTFAC
 40
1.0
  9
$DIMGAP
 40
0.09
  9
$DIMJUST
 70
       0
  9
$DIMSD1
 70
       0
  9
$DIMSD2
 70
       0
  9
$DIMTOLJ
 70
       1
  9
$DIMTZIN
 70
       0
  9
$DIMALTZ
 70
       0
  9
$DIMALTTZ
 70
       0
  9
$DIMFIT
 70
       3
  9
$DIMUPT
 70
       0
  9
$DIMUNIT
 70
       2
  9
$DIMDEC
 70
       4
  9
$DIMTDEC
 70
       4
  9
$DIMALTU
 70
       2
  9
$DIMALTTD
 70
       2
  9
$DIMTXSTY
  7
STANDARD
  9
$DIMAUNIT
 70
       0
  9
$LUNITS
 70
       2
  9
$LUPREC
 70
       4
  9
$SKETCHINC
 40
0.1
  9
$FILLETRAD
 40
0.0
  9
$AUNITS
 70
       0
  9
$AUPREC
 70
       0
  9
$MENU
  1
acad
  9
$ELEVATION
 40
0.0
  9
$PELEVATION
 40
0.0
  9
$THICKNESS
 40
0.0
  9
$LIMCHECK
 70
       0
  9
$BLIPMODE
 70
       1
  9
$CHAMFERA
 40
0.0
  9
$CHAMFERB
 40
0.0
  9
$CHAMFERC
 40
0.0
  9
$CHAMFERD
 40
0.0
  9
$SKPOLY
 70
       0
  9
$TDCREATE
 40
0.000000000
  9
$TDUPDATE
 40
0.000000000
  9
$TDINDWG
 40
0.0000000000
  9
$TDUSRTIMER
 40
0.0000000000
  9
$USRTIMER
 70
       1
  9
$ANGBASE
 50
0.0
  9
$ANGDIR
 70
       0
  9
$PDMODE
 70
       0
  9
$PDSIZE
 40
1.0
  9
$PLINEWID
 40
0.0
  9
$COORDS
 70
       1
  9
$SPLFRAME
 70
       0
  9
$SPLINETYPE
 70
       6
  9
$SPLINESEGS
 70
       8
  9
$ATTDIA
 70
       0
  9
$ATTREQ
 70
       1
  9
$HANDLING
 70
       1
  9
$HANDSEED
  5
22B
  9
$SURFTAB1
 70
       6
  9
$SURFTAB2
 70
       6
  9
$SURFTYPE
 70
       6
  9
$SURFU
 70
       6
  9
$SURFV
 70
       6
  9
$UCSNAME
  2

  9
$UCSORG
 10
0.0
 20
0.0
 30
0.0
  9
$UCSXDIR
 10
1.0
 20
0.0
 30
0.0
  9
$UCSYDIR
 10
0.0
 20
1.0
 30
0.0
  9
$PUCSNAME
  2

  9
$PUCSORG
 10
0.0
 20
0.0
 30
0.0
  9
$PUCSXDIR
 10
1.0
 20
0.0
 30
0.0
  9
$PUCSYDIR
 10
0.0
 20
1.0
 30
0.0
  9
$USERI1
 70
       0
  9
$USERI2
 70
       0
  9
$USERI3
 70
       0
  9
$USERI4
 70
       0
  9
$USERI5
 70
       0
  9
$USERR1
 40
0.0
  9
$USERR2
 40
0.0
  9
$USERR3
 40
0.0
  9
$USERR4
 40
0.0
  9
$USERR5
 40
0.0
  9
$WORLDVIEW
 70
       1
  9
$SHADEDGE
 70
       3
  9
$SHADEDIF
 70
      70
  9
$TILEMODE
 70
       1
  9
$MAXACTVP
 70
      16
  9
$PINSBASE
 10
0.0
 20
0.0
 30
0.0
  9
$PLIMCHECK
 70
       0
  9
$PEXTMIN
 10
1.00000000E+20
 20
1.00000000E+20
 30
1.00000000E+20
  9
$PEXTMAX
 10
-1.00000000E+20
 20
-1.00000000E+20
 30
-1.00000000E+20
  9
$PLIMMIN
 10
0.0
 20
0.0
  9
$PLIMMAX
 10
12.0
 20
9.0
  9
$UNITMODE
 70
       0
  9
$VISRETAIN
 70
       0
  9
$PLINEGEN
 70
       1
  9
$PSLTSCALE
 70
       0
  9
$TREEDEPTH
 70
    3020
  9
$PICKSTYLE
 70
       1
  9
$CMLSTYLE
  2
STANDARD
  9
$CMLJUST
 70
       0
  9
$CMLSCALE
 40
1.0
  9
$PROXYGRAPHICS
 70
       0
  9
$MEASUREMENT
 70
       0
  0
ENDSEC
  0
SECTION
  2
CLASSES
  0
CLASS
  1
LWPOLYLINE
  2
AcDbPolyline
  3
"AutoCAD"
 90
        0
280
       0
281
       1
  0
CLASS
  1
IMAGE
  2
AcDbRasterImage
  3
ISM
 90
      127
280
       0
281
       1
  0
CLASS
  1
OLE2FRAME
  2
AcDbOle2Frame
  3
""
 90
        0
280
       0
281
       1
  0
CLASS
  1
HATCH
  2
AcDbHatch
  3
"ACAD_SEDONA"
 90
        0
280
       0
281
       1
  0
CLASS
  1
DICTIONARYVAR
  2
AcDbDictionaryVar
  3
"AutoCAD"
 90
        0
280
       0
281
       0
  0
CLASS
  1
RASTERVARIABLES
  2
AcDbRasterVariables
  3
ISM
 90
        0
280
       0
281
       0
  0
CLASS
  1
IMAGEDEF
  2
AcDbRasterImageDef
  3
ISM
 90
        0
280
       0
281
       0
  0
CLASS
  1
IMAGEDEF_REACTOR
  2
AcDbRasterImageDefReactor
  3
ISM
 90
        1
280
       0
281
       0
  0
CLASS
  1
IDBUFFER
  2
AcDbIdBuffer
  3
"Acad"
 90
        0
280
       0
281
       0
  0
CLASS
  1
SPATIAL_FILTER
  2
AcDbSpatialFilter
  3
"Acad"
 90
        0
280
       0
281
       0
  0
CLASS
  1
XRECORD
  2
AcDbXrecord
  3
"<Built In>"
 90
        0
280
       0
281
       0
  0
CLASS
  1
SORTENTSTABLE
  2
AcDbSortentsTable
  3
"AutoCAD"
 90
        0
280
       0
281
       0
  0
CLASS
  1
LAYER_INDEX
  2
AcDbLayerIndex
  3
"Acad"
 90
        0
280
       0
281
       0
  0
CLASS
  1
SPATIAL_INDEX
  2
AcDbSpatialIndex
  3
"Acad"
 90
        0
280
       0
281
       0
  0
CLASS
  1
OBJECT_PTR
  2
CAseDLPNTableRecord
  3
"ASE-LPNTableRecord"
 90
        1
280
       0
281
       0
  0
CLASS
  1
LAYOUT
  2
AcDbLayout
  3
"AutoCAD 2000"
 90
        1
280
       0
281
       0
  0
CLASS
  1
PLOTSETTINGS
  2
AcDbPlotSettings
  3
"AutoCAD 2000"
 90
        1
280
       0
281
       0
  0
CLASS
  1
ACDBDICTIONARYWDFLT
  2
AcDbDictionaryWithDefault
  3
"AutoCAD 2000"
 90
        1
280
       0
281
       0
  0
CLASS
  1
ACDBPLACEHOLDER
  2
AcDbPlaceHolder
  3
"AutoCAD 2000"
 90
        1
280
       0
281
       0
  0
CLASS
  1
VBA_PROJECT
  2
AcDbVbaProject
  3
"acadvba"
 90
        1
280
       0
281
       0
  0
CLASS
  1
WIPEOUT
  2
AcDbWipeout
  3
WipeOut|AutoCAD Express Tool|expresstools@autodesk.com
 90
      127
280
       0
281
       1
  0
CLASS
  1
WIPEOUTVARIABLES
  2
AcDbWipeoutVariables
  3
WipeOut|AutoCAD Express Tool|expresstools@autodesk.com
 90
        0
280
       0
281
       0
  0
CLASS
  1
RTEXT
  2
RText
  3
RText|AutoCAD Express Tool|expresstools@autodesk.com
 90
        0
280
       0
281
       1
  0
CLASS
  1
ARCALIGNEDTEXT
  2
AcDbArcAlignedText
  3
ATEXT|AutoCAD Express Tool|expresstools@autodesk.com
 90
        0
280
       0
281
       1
  0
ENDSEC
  0
SECTION
  2
TABLES
  0
TABLE
  2
VPORT
  5
7
100
AcDbSymbolTable
 70
       1
  0
VPORT
  5
15
100
AcDbSymbolTableRecord
100
AcDbViewportTableRecord
  2
*ACTIVE
 70
       0
 10
0.0
 20
0.0
 11
1.0
 21
1.0
 12
4.27499995
 22
-1.25
 13
0.0
 23
0.0
 14
1.0
 24
1.0
 15
0.0
 25
0.0
 16
0.0
 26
0.0
 36
1.0
 17
0.0
 27
0.0
 37
0.0
 40
110.56468951
 41
1.90888253
 42
50.0
 43
0.0
 44
0.0
 50
0.0
 51
0.0
 71
       0
 72
     100
 73
       1
 74
       1
 75
       0
 76
       0
 77
       0
 78
       0
  0
ENDTAB
  0
TABLE
  2
LTYPE
  5
4
100
AcDbSymbolTable
 70
      30
  0
LTYPE
  5
11
100
AcDbSymbolTableRecord
100
AcDbLinetypeTableRecord
  2
BYBLOCK
 70
      64
  3

 72
      65
 73
       0
 40
0.0
  0
LTYPE
  5
12
100
AcDbSymbolTableRecord
100
AcDbLinetypeTableRecord
  2
BYLAYER
 70
      64
  3

 72
      65
 73
       0
 40
0.0
  0
LTYPE
  5
13
100
AcDbSymbolTableRecord
100
AcDbLinetypeTableRecord
  2
CONTINUOUS
 70
      64
  3
Solid line
 72
      65
 73
       0
 40
0.0
  0
LTYPE
  5
1D
100
AcDbSymbolTableRecord
100
AcDbLinetypeTableRecord
  2
HIDDENX2
 70
      64
  3
CADPAC LINETYPE
 72
      65
 73
       2
 40
8.30128015
 49
6.22596011
 74
       0
 49
-2.07532004
 74
       0
  0
LTYPE
  5
1E
100
AcDbSymbolTableRecord
100
AcDbLinetypeTableRecord
  2
HIDDEN
 70
      64
  3
CADPAC LINETYPE
 72
      65
 73
       2
 40
6.22596011
 49
4.15064008
 74
       0
 49
-2.07532004
 74
       0
  0
LTYPE
  5
1F
100
AcDbSymbolTableRecord
100
AcDbLinetypeTableRecord
  2
HIDDEN2
 70
      64
  3
CADPAC LINETYPE
 72
      65
 73
       2
 40
5.18830009
 49
3.11298006
 74
       0
 49
-2.07532004
 74
       0
  0
LTYPE
  5
20
100
AcDbSymbolTableRecord
100
AcDbLinetypeTableRecord
  2
DASHED
 70
      64
  3
CADPAC LINETYPE
 72
      65
 73
       2
 40
6.22596011
 49
4.15064008
 74
       0
 49
-2.07532004
 74
       0
  0
LTYPE
  5
21
100
AcDbSymbolTableRecord
100
AcDbLinetypeTableRecord
  2
DASHED2
 70
      64
  3
CADPAC LINETYPE
 72
      65
 73
       2
 40
4.66947008
 49
3.11298006
 74
       0
 49
-1.55649003
 74
       0
  0
LTYPE
  5
22
100
AcDbSymbolTableRecord
100
AcDbLinetypeTableRecord
  2
DASHEDX2
 70
      64
  3
CADPAC LINETYPE
 72
      65
 73
       2
 40
9.33894017
 49
6.22596011
 74
       0
 49
-3.11298006
 74
       0
  0
LTYPE
  5
23
100
AcDbSymbolTableRecord
100
AcDbLinetypeTableRecord
  2
DOTX2
 70
      64
  3
CADPAC LINETYPE
 72
      65
 73
       2
 40
2.59415005
 49
0.0
 74
       0
 49
-2.59415005
 74
       0
  0
LTYPE
  5
24
100
AcDbSymbolTableRecord
100
AcDbLinetypeTableRecord
  2
DOT
 70
      64
  3
CADPAC LINETYPE
 72
      65
 73
       2
 40
2.07532004
 49
0.0
 74
       0
 49
-2.07532004
 74
       0
  0
LTYPE
  5
25
100
AcDbSymbolTableRecord
100
AcDbLinetypeTableRecord
  2
DOT2
 70
      64
  3
CADPAC LINETYPE
 72
      65
 73
       2
 40
1.55649003
 49
0.0
 74
       0
 49
-1.55649003
 74
       0
  0
LTYPE
  5
26
100
AcDbSymbolTableRecord
100
AcDbLinetypeTableRecord
  2
CENTERX2
 70
      64
  3
CADPAC LINETYPE
 72
      65
 73
       4
 40
12.45192023
 49
5.18830009
 74
       0
 49
-2.59415005
 74
       0
 49
2.07532004
 74
       0
 49
-2.59415005
 74
       0
  0
LTYPE
  5
27
100
AcDbSymbolTableRecord
100
AcDbLinetypeTableRecord
  2
CENTER
 70
      64
  3
CADPAC LINETYPE
 72
      65
 73
       4
 40
9.54647217
 49
4.15064008
 74
       0
 49
-2.07532004
 74
       0
 49
1.24519202
 74
       0
 49
-2.07532004
 74
       0
  0
LTYPE
  5
28
100
AcDbSymbolTableRecord
100
AcDbLinetypeTableRecord
  2
CENTER2
 70
      64
  3
CADPAC LINETYPE
 72
      65
 73
       4
 40
6.64102412
 49
3.11298006
 74
       0
 49
-1.55649003
 74
       0
 49
0.41506401
 74
       0
 49
-1.55649003
 74
       0
  0
LTYPE
  5
29
100
AcDbSymbolTableRecord
100
AcDbLinetypeTableRecord
  2
DASHDOTX2
 70
      64
  3
CADPAC LINETYPE
 72
      65
 73
       4
 40
10.37660019
 49
5.18830009
 74
       0
 49
-2.59415005
 74
       0
 49
0.0
 74
       0
 49
-2.59415005
 74
       0
  0
LTYPE
  5
2A
100
AcDbSymbolTableRecord
100
AcDbLinetypeTableRecord
  2
DASHDOT
 70
      64
  3
CADPAC LINETYPE
 72
      65
 73
       4
 40
8.30128015
 49
4.15064008
 74
       0
 49
-2.07532004
 74
       0
 49
0.0
 74
       0
 49
-2.07532004
 74
       0
  0
LTYPE
  5
2B
100
AcDbSymbolTableRecord
100
AcDbLinetypeTableRecord
  2
DASHDOT2
 70
      64
  3
CADPAC LINETYPE
 72
      65
 73
       4
 40
6.22596011
 49
3.11298006
 74
       0
 49
-1.55649003
 74
       0
 49
0.0
 74
       0
 49
-1.55649003
 74
       0
  0
LTYPE
  5
2C
100
AcDbSymbolTableRecord
100
AcDbLinetypeTableRecord
  2
DIVIDEX2
 70
      64
  3
CADPAC LINETYPE
 72
      65
 73
       6
 40
12.97075024
 49
5.18830009
 74
       0
 49
-2.59415005
 74
       0
 49
0.0
 74
       0
 49
-2.59415005
 74
       0
 49
0.0
 74
       0
 49
-2.59415005
 74
       0
  0
LTYPE
  5
2D
100
AcDbSymbolTableRecord
100
AcDbLinetypeTableRecord
  2
DIVIDE
 70
      64
  3
CADPAC LINETYPE
 72
      65
 73
       6
 40
10.37660019
 49
4.15064008
 74
       0
 49
-2.07532004
 74
       0
 49
0.0
 74
       0
 49
-2.07532004
 74
       0
 49
0.0
 74
       0
 49
-2.07532004
 74
       0
  0
LTYPE
  5
2E
100
AcDbSymbolTableRecord
100
AcDbLinetypeTableRecord
  2
DIVIDE2
 70
      64
  3
CADPAC LINETYPE
 72
      65
 73
       6
 40
7.78245014
 49
3.11298006
 74
       0
 49
-1.55649003
 74
       0
 49
0.0
 74
       0
 49
-1.55649003
 74
       0
 49
0.0
 74
       0
 49
-1.55649003
 74
       0
  0
LTYPE
  5
2F
100
AcDbSymbolTableRecord
100
AcDbLinetypeTableRecord
  2
BORDERX2
 70
      64
  3
CADPAC LINETYPE
 72
      65
 73
       6
 40
18.15905033
 49
5.18830009
 74
       0
 49
-2.59415005
 74
       0
 49
5.18830009
 74
       0
 49
-2.59415005
 74
       0
 49
0.0
 74
       0
 49
-2.59415005
 74
       0
  0
LTYPE
  5
30
100
AcDbSymbolTableRecord
100
AcDbLinetypeTableRecord
  2
BORDER
 70
      64
  3
CADPAC LINETYPE
 72
      65
 73
       6
 40
14.52724026
 49
4.15064008
 74
       0
 49
-2.07532004
 74
       0
 49
4.15064008
 74
       0
 49
-2.07532004
 74
       0
 49
0.0
 74
       0
 49
-2.07532004
 74
       0
  0
LTYPE
  5
31
100
AcDbSymbolTableRecord
100
AcDbLinetypeTableRecord
  2
BORDER2
 70
      64
  3
CADPAC LINETYPE
 72
      65
 73
       6
 40
10.8954302
 49
3.11298006
 74
       0
 49
-1.55649003
 74
       0
 49
3.11298006
 74
       0
 49
-1.55649003
 74
       0
 49
0.0
 74
       0
 49
-1.55649003
 74
       0
  0
LTYPE
  5
32
100
AcDbSymbolTableRecord
100
AcDbLinetypeTableRecord
  2
PHANTOMX2
 70
      64
  3
CADPAC LINETYPE
 72
      65
 73
       6
 40
15.56490028
 49
5.18830009
 74
       0
 49
-2.07532004
 74
       0
 49
2.07532004
 74
       0
 49
-2.07532004
 74
       0
 49
2.07532004
 74
       0
 49
-2.07532004
 74
       0
  0
LTYPE
  5
33
100
AcDbSymbolTableRecord
100
AcDbLinetypeTableRecord
  2
PHANTOM
 70
      64
  3
CADPAC LINETYPE
 72
      65
 73
       6
 40
12.86698423
 49
4.15064008
 74
       0
 49
-2.07532004
 74
       0
 49
1.24519202
 74
       0
 49
-2.07532004
 74
       0
 49
1.24519202
 74
       0
 49
-2.07532004
 74
       0
  0
LTYPE
  5
34
100
AcDbSymbolTableRecord
100
AcDbLinetypeTableRecord
  2
PHANTOM2
 70
      64
  3
CADPAC LINETYPE
 72
      65
 73
       6
 40
10.9991962
 49
3.11298006
 74
       0
 49
-2.07532004
 74
       0
 49
0.83012802
 74
       0
 49
-2.07532004
 74
       0
 49
0.83012802
 74
       0
 49
-2.07532004
 74
       0
  0
LTYPE
  5
35
100
AcDbSymbolTableRecord
100
AcDbLinetypeTableRecord
  2
ACAD_ISO06W100
 70
      64
  3
CADPAC LINETYPE
 72
      65
 73
       8
 40
14.00841025
 49
5.18830009
 74
       0
 49
-2.59415005
 74
       0
 49
0.0
 74
       0
 49
-2.07532004
 74
       0
 49
0.0
 74
       0
 49
-2.07532004
 74
       0
 49
0.0
 74
       0
 49
-2.07532004
 74
       0
  0
LTYPE
  5
36
100
AcDbSymbolTableRecord
100
AcDbLinetypeTableRecord
  2
ACAD_ISO13W100
 70
      64
  3
CADPAC LINETYPE
 72
      65
 73
       8
 40
16.6025603
 49
4.15064008
 74
       0
 49
-2.07532004
 74
       0
 49
4.15064008
 74
       0
 49
-2.07532004
 74
       0
 49
0.0
 74
       0
 49
-2.07532004
 74
       0
 49
0.0
 74
       0
 49
-2.07532004
 74
       0
  0
LTYPE
  5
37
100
AcDbSymbolTableRecord
100
AcDbLinetypeTableRecord
  2
ACAD_ISO14W100
 70
      64
  3
CADPAC LINETYPE
 72
      65
 73
       8
 40
12.45192023
 49
4.15064008
 74
       0
 49
-2.07532004
 74
       0
 49
0.0
 74
       0
 49
-2.07532004
 74
       0
 49
0.0
 74
       0
 49
-2.07532004
 74
       0
 49
0.0
 74
       0
 49
-2.07532004
 74
       0
  0
ENDTAB
  0
TABLE
  2
LAYER
  5
2
100
AcDbSymbolTable
 70
       3
  0
LAYER
  5
14
100
AcDbSymbolTableRecord
100
AcDbLayerTableRecord
  2
0
 70
       0
 62
       7
  6
CONTINUOUS
  0
LAYER
  5
38
100
AcDbSymbolTableRecord
100
AcDbLayerTableRecord
  2
SLD-0_0
 70
       0
 62
       7
  6
CONTINUOUS
  0
LAYER
  5
39
100
AcDbSymbolTableRecord
100
AcDbLayerTableRecord
  2
SLD-0
 70
       0
 62
       7
  6
CONTINUOUS
  0
ENDTAB
  0
TABLE
  2
STYLE
  5
3
100
AcDbSymbolTable
 70
       1
  0
STYLE
  5
17
100
AcDbSymbolTableRecord
100
AcDbTextStyleTableRecord
  2
STANDARD
 70
       0
 40
0.0
 41
1.0
 50
0.0
 71
       0
 42
5.0
  3
txt.shx
  4
bigfont.shx
  0
ENDTAB
  0
TABLE
  2
VIEW
  5
5
100
AcDbSymbolTable
 70
       1
  0
VIEW
  5
3A
100
AcDbSymbolTableRecord
100
AcDbViewTableRecord
  2
QQQQ
 70
       0
 40
110.56468951
 10
4.27499995
 20
-1.25
 41
211.05500411
 11
0.0
 21
0.0
 31
1.0
 12
100.0
 22
100.0
 32
0.0
 42
50.0
 43
0.0
 44
0.0
 50
0.0
 71
       0
  0
ENDTAB
  0
TABLE
  2
UCS
  5
6
100
AcDbSymbolTable
 70
       0
  0
ENDTAB
  0
TABLE
  2
APPID
  5
8
100
AcDbSymbolTable
 70
       1
  0
APPID
  5
16
100
AcDbSymbolTableRecord
100
AcDbRegAppTableRecord
  2
ACAD
 70
       0
  0
ENDTAB
  0
TABLE
  2
DIMSTYLE
  5
9
100
AcDbSymbolTable
 70
       1
  0
DIMSTYLE
105
18
100
AcDbSymbolTableRecord
100
AcDbDimStyleTableRecord
  2
STANDARD
 70
       0
  3

  4

  5

  6

  7

 40
1.0
 41
0.18
 42
0.0625
 43
0.38
 44
0.18
 45
0.0
 46
0.0
 47
0.0
 48
0.0
 71
       0
 72
       0
 73
       1
 74
       1
 75
       0
 76
       0
 77
       0
 78
       0
140
0.18
141
0.09
142
0.0
143
25.4
144
1.0
145
0.0
146
1.0
147
0.09
170
       0
171
       2
172
       0
173
       0
174
       0
175
       0
176
       0
177
       0
178
       0
270
       2
271
       4
272
       4
273
       2
274
       2
275
       0
280
       0
281
       0
282
       0
283
       1
284
       0
285
       0
286
       0
287
       0
288
       0
340
17
  0
ENDTAB
  0
TABLE
  2
BLOCK_RECORD
  5
1
100
AcDbSymbolTable
 70
       9
  0
BLOCK_RECORD
  5
A
100
AcDbSymbolTableRecord
100
AcDbBlockTableRecord
  2
*MODEL_SPACE
  0
BLOCK_RECORD
  5
B
100
AcDbSymbolTableRecord
100
AcDbBlockTableRecord
  2
*PAPER_SPACE
  0
BLOCK_RECORD
  5
3B
100
AcDbSymbolTableRecord
100
AcDbBlockTableRecord
  2
GROUP_1
  0
BLOCK_RECORD
  5
3C
100
AcDbSymbolTableRecord
100
AcDbBlockTableRecord
  2
GROUP_2
  0
BLOCK_RECORD
  5
3D
100
AcDbSymbolTableRecord
100
AcDbBlockTableRecord
  2
GROUP_3
  0
BLOCK_RECORD
  5
3E
100
AcDbSymbolTableRecord
100
AcDbBlockTableRecord
  2
GROUP_4
  0
BLOCK_RECORD
  5
3F
100
AcDbSymbolTableRecord
100
AcDbBlockTableRecord
  2
GROUP_5
  0
BLOCK_RECORD
  5
40
100
AcDbSymbolTableRecord
100
AcDbBlockTableRecord
  2
GROUP_6
  0
BLOCK_RECORD
  5
41
100
AcDbSymbolTableRecord
100
AcDbBlockTableRecord
  2
GROUP_7
  0
BLOCK_RECORD
  5
42
100
AcDbSymbolTableRecord
100
AcDbBlockTableRecord
  2
GROUP_8
  0
BLOCK_RECORD
  5
43
100
AcDbSymbolTableRecord
100
AcDbBlockTableRecord
  2
GROUP_9
  0
ENDTAB
  0
ENDSEC
  0
SECTION
  2
BLOCKS
  0
BLOCK
  5
D
100
AcDbEntity
  8
0
100
AcDbBlockBegin
  2
*MODEL_SPACE
 70
       0
 10
0.0
 20
0.0
 30
0.0
  3
*MODEL_SPACE
  1

  0
ENDBLK
  5
E
100
AcDbEntity
  8
0
100
AcDbBlockEnd
  0
BLOCK
  5
F
100
AcDbEntity
 67
       1
  8
0
100
AcDbBlockBegin
  2
*PAPER_SPACE
 70
       0
 10
0.0
 20
0.0
 30
0.0
  3
*PAPER_SPACE
  1

  0
ENDBLK
  5
10
100
AcDbEntity
 67
       1
  8
0
100
AcDbBlockEnd
  0
BLOCK
  5
44
100
AcDbEntity
  8
0
100
AcDbBlockBegin
  2
GROUP_1
 70
       0
 10
0.0
 20
0.0
 30
0.0
  3
GROUP_1
  1

  0
LINE
  5
45
100
AcDbEntity
  8
SLD-0
  6
CONTINUOUS
 62
       3
100
AcDbLine
 10
47.59789369
 20
37.4320384
 30
0.0
 11
47.62607827
 21
37.75051002
 31
0.0
  0
LINE
  5
46
100
AcDbEntity
  8
SLD-0
  6
CONTINUOUS
 62
       3
100
AcDbLine
 10
47.62607827
 20
37.75051002
 30
0.0
 11
47.65549003
 21
38.06886721
 31
0.0
  0
LINE
  5
47
100
AcDbEntity
  8
SLD-0
  6
CONTINUOUS
 62
       3
100
AcDbLine
 10
47.65549003
 20
38.06886721
 30
0.0
 11
47.68615409
 21
38.38710321
 31
0.0
  0
LINE
  5
48
100
AcDbEntity
  8
SLD-0
  6
CONTINUOUS
 62
       3
100
AcDbLine
 10
47.68615409
 20
38.38710321
 30
0.0
 11
47.71809557
 21
38.70521128
 31
0.0
  0
LINE
  5
49
100
AcDbEntity
  8
SLD-0
  6
CONTINUOUS
 62
       3
100
AcDbLine
 10
47.71809557
 20
38.70521128
 30
0.0
 11
47.75133957
 21
39.02318468
 31
0.0
  0
LINE
  5
4A
100
AcDbEntity
  8
SLD-0
  6
CONTINUOUS
 62
       3
100
AcDbLine
 10
47.75133957
 20
39.02318468
 30
0.0
 11
47.78591123
 21
39.34101665
 31
0.0
  0
LINE
  5
4B
100
AcDbEntity
  8
SLD-0
  6
CONTINUOUS
 62
       3
100
AcDbLine
 10
47.78591123
 20
39.34101665
 30
0.0
 11
47.82183564
 21
39.65870045
 31
0.0
  0
LINE
  5
4C
100
AcDbEntity
  8
SLD-0
  6
CONTINUOUS
 62
       3
100
AcDbLine
 10
47.82183564
 20
39.65870045
 30
0.0
 11
47.85913793
 21
39.97622934
 31
0.0
  0
LINE
  5
4D
100
AcDbEntity
  8
SLD-0
  6
CONTINUOUS
 62
       3
100
AcDbLine
 10
47.85913793
 20
39.97622934
 30
0.0
 11
47.89784322
 21
40.29359656
 31
0.0
  0
LINE
  5
4E
100
AcDbEntity
  8
SLD-0
  6
CONTINUOUS
 62
       3
100
AcDbLine
 10
47.89784322
 20
40.29359656
 30
0.0
 11
47.93797661
 21
40.61079538
 31
0.0
  0
LINE
  5
4F
100
AcDbEntity
  8
SLD-0
  6
CONTINUOUS
 62
       3
100
AcDbLine
 10
47.93797661
 20
40.61079538
 30
0.0
 11
47.97956323
 21
40.92781904
 31
0.0
  0
LINE
  5
50
100
AcDbEntity
  8
SLD-0
  6
CONTINUOUS
 62
       3
100
AcDbLine
 10
47.97956323
 20
40.92781904
 30
0.0
 11
48.02262818
 21
41.2446608
 31
0.0
  0
LINE
  5
51
100
AcDbEntity
  8
SLD-0
  6
CONTINUOUS
 62
       3
100
AcDbLine
 10
48.02262818
 20
41.2446608
 30
0.0
 11
48.06719659
 21
41.56131392
 31
0.0
  0
LINE
  5
52
100
AcDbEntity
  8
SLD-0
  6
CONTINUOUS
 62
       3
100
AcDbLine
 10
48.06719659
 20
41.56131392
 30
0.0
 11
48.11329357
 21
41.87777164
 31
0.0
  0
LINE
  5
53
100
AcDbEntity
  8
SLD-0
  6
CONTINUOUS
 62
       3
100
AcDbLine
 10
48.11329357
 20
41.87777164
 30
0.0
 11
48.16094424
 21
42.19402722
 31
0.0
  0
LINE
  5
54
100
AcDbEntity
  8
SLD-0
  6
CONTINUOUS
 62
       3
100
AcDbLine
 10
48.16094424
 20
42.19402722
 30
0.0
 11
48.21017371
 21
42.51007392
 31
0.0
  0
LINE
  5
55
100
AcDbEntity
  8
SLD-0
  6
CONTINUOUS
 62
       3
100
AcDbLine
 10
48.21017371
 20
42.51007392
 30
0.0
 11
48.26100709
 21
42.82590499
 31
0.0
  0
LINE
  5
56
100
AcDbEntity
  8
SLD-0
  6
CONTINUOUS
 62
       3
100
AcDbLine
 10
48.26100709
 20
42.82590499
 30
0.0
 11
48.3134695
 21
43.14151367
 31
0.0
  0
LINE
  5
57
100
AcDbEntity
  8
SLD-0
  6
CONTINUOUS
 62
       3
100
AcDbLine
 10
48.3134695
 20
43.14151367
 30
0.0
 11
48.36758606
 21
43.45689324
 31
0.0
  0
LINE
  5
58
100
AcDbEntity
  8
SLD-0
  6
CONTINUOUS
 62
       3
100
AcDbLine
 10
48.36758606
 20
43.45689324
 30
0.0
 11
48.42338189
 21
43.77203693
 31
0.0
  0
ENDBLK
  5
59
100
AcDbEntity
  8
0
100
AcDbBlockEnd
  0
BLOCK
  5
5A
100
AcDbEntity
  8
0
100
AcDbBlockBegin
  2
GROUP_2
 70
       0
 10
0.0
 20
0.0
 30
0.0
  3
GROUP_2
  1

  0
LINE
  5
5B
100
AcDbEntity
  8
SLD-0
  6
CONTINUOUS
 62
       3
100
AcDbLine
 10
5.39504371
 20
18.54859161
 30
0.0
 11
5.47241712
 21
18.5625337
 31
0.0
  0
LINE
  5
5C
100
AcDbEntity
  8
SLD-0
  6
CONTINUOUS
 62
       3
100
AcDbLine
 10
5.47241712
 20
18.5625337
 30
0.0
 11
5.54970099
 21
18.57683003
 31
0.0
  0
LINE
  5
5D
100
AcDbEntity
  8
SLD-0
  6
CONTINUOUS
 62
       3
100
AcDbLine
 10
5.54970099
 20
18.57683003
 30
0.0
 11
5.62689356
 21
18.59148764
 31
0.0
  0
LINE
  5
5E
100
AcDbEntity
  8
SLD-0
  6
CONTINUOUS
 62
       3
100
AcDbLine
 10
5.62689356
 20
18.59148764
 30
0.0
 11
5.70399305
 21
18.60651355
 31
0.0
  0
LINE
  5
5F
100
AcDbEntity
  8
SLD-0
  6
CONTINUOUS
 62
       3
100
AcDbLine
 10
5.70399305
 20
18.60651355
 30
0.0
 11
5.78099771
 21
18.62191479
 31
0.0
  0
LINE
  5
60
100
AcDbEntity
  8
SLD-0
  6
CONTINUOUS
 62
       3
100
AcDbLine
 10
5.78099771
 20
18.62191479
 30
0.0
 11
5.85790577
 21
18.63769838
 31
0.0
  0
LINE
  5
61
100
AcDbEntity
  8
SLD-0
  6
CONTINUOUS
 62
       3
100
AcDbLine
 10
5.85790577
 20
18.63769838
 30
0.0
 11
5.93471546
 21
18.65387136
 31
0.0
  0
LINE
  5
62
100
AcDbEntity
  8
SLD-0
  6
CONTINUOUS
 62
       3
100
AcDbLine
 10
5.93471546
 20
18.65387136
 30
0.0
 11
6.01142502
 21
18.67044074
 31
0.0
  0
LINE
  5
63
100
AcDbEntity
  8
SLD-0
  6
CONTINUOUS
 62
       3
100
AcDbLine
 10
6.01142502
 20
18.67044074
 30
0.0
 11
6.08803268
 21
18.68741356
 31
0.0
  0
LINE
  5
64
100
AcDbEntity
  8
SLD-0
  6
CONTINUOUS
 62
       3
100
AcDbLine
 10
6.08803268
 20
18.68741356
 30
0.0
 11
6.16453669
 21
18.70479685
 31
0.0
  0
LINE
  5
65
100
AcDbEntity
  8
SLD-0
  6
CONTINUOUS
 62
       3
100
AcDbLine
 10
6.16453669
 20
18.70479685
 30
0.0
 11
6.24093527
 21
18.72259762
 31
0.0
  0
LINE
  5
66
100
AcDbEntity
  8
SLD-0
  6
CONTINUOUS
 62
       3
100
AcDbLine
 10
6.24093527
 20
18.72259762
 30
0.0
 11
6.31722666
 21
18.7408229
 31
0.0
  0
LINE
  5
67
100
AcDbEntity
  8
SLD-0
  6
CONTINUOUS
 62
       3
100
AcDbLine
 10
6.31722666
 20
18.7408229
 30
0.0
 11
6.3934091
 21
18.75947973
 31
0.0
  0
LINE
  5
68
100
AcDbEntity
  8
SLD-0
  6
CONTINUOUS
 62
       3
100
AcDbLine
 10
6.3934091
 20
18.75947973
 30
0.0
 11
6.46948082
 21
18.77857513
 31
0.0
  0
LINE
  5
69
100
AcDbEntity
  8
SLD-0
  6
CONTINUOUS
 62
       3
100
AcDbLine
 10
6.46948082
 20
18.77857513
 30
0.0
 11
6.54544006
 21
18.79811612
 31
0.0
  0
LINE
  5
6A
100
AcDbEntity
  8
SLD-0
  6
CONTINUOUS
 62
       3
100
AcDbLine
 10
6.54544006
 20
18.79811612
 30
0.0
 11
6.62130681
 21
18.81811523
 31
0.0
  0
LINE
  5
6B
100
AcDbEntity
  8
SLD-0
  6
CONTINUOUS
 62
       3
100
AcDbLine
 10
6.62130681
 20
18.81811523
 30
0.0
 11
6.69709123
 21
18.83858789
 31
0.0
  0
LINE
  5
6C
100
AcDbEntity
  8
SLD-0
  6
CONTINUOUS
 62
       3
100
AcDbLine
 10
6.69709123
 20
18.83858789
 30
0.0
 11
6.77277678
 21
18.85954546
 31
0.0
  0
LINE
  5
6D
100
AcDbEntity
  8
SLD-0
  6
CONTINUOUS
 62
       3
100
AcDbLine
 10
6.77277678
 20
18.85954546
 30
0.0
 11
6.84834693
 21
18.88099935
 31
0.0
  0
LINE
  5
6E
100
AcDbEntity
  8
SLD-0
  6
CONTINUOUS
 62
       3
100
AcDbLine
 10
6.84834693
 20
18.88099935
 30
0.0
 11
6.92378516
 21
18.90296091
 31
0.0
  0
LINE
  5
6F
100
AcDbEntity
  8
SLD-0
  6
CONTINUOUS
 62
       3
100
AcDbLine
 10
6.92378516
 20
18.90296091
 30
0.0
 11
6.99907493
 21
18.92544154
 31
0.0
  0
LINE
  5
70
100
AcDbEntity
  8
SLD-0
  6
CONTINUOUS
 62
       3
100
AcDbLine
 10
6.99907493
 20
18.92544154
 30
0.0
 11
7.0741997
 21
18.94845261
 31
0.0
  0
LINE
  5
71
100
AcDbEntity
  8
SLD-0
  6
CONTINUOUS
 62
       3
100
AcDbLine
 10
7.0741997
 20
18.94845261
 30
0.0
 11
7.14914294
 21
18.9720055
 31
0.0
  0
LINE
  5
72
100
AcDbEntity
  8
SLD-0
  6
CONTINUOUS
 62
       3
100
AcDbLine
 10
7.14914294
 20
18.9720055
 30
0.0
 11
7.22388813
 21
18.99611159
 31
0.0
  0
LINE
  5
73
100
AcDbEntity
  8
SLD-0
  6
CONTINUOUS
 62
       3
100
AcDbLine
 10
7.22388813
 20
18.99611159
 30
0.0
 11
7.29841873
 21
19.02078227
 31
0.0
  0
LINE
  5
74
100
AcDbEntity
  8
SLD-0
  6
CONTINUOUS
 62
       3
100
AcDbLine
 10
7.29841873
 20
19.02078227
 30
0.0
 11
7.37271821
 21
19.0460289
 31
0.0
  0
LINE
  5
75
100
AcDbEntity
  8
SLD-0
  6
CONTINUOUS
 62
       3
100
AcDbLine
 10
7.37271821
 20
19.0460289
 30
0.0
 11
7.44677003
 21
19.07186288
 31
0.0
  0
LINE
  5
76
100
AcDbEntity
  8
SLD-0
  6
CONTINUOUS
 62
       3
100
AcDbLine
 10
7.44677003
 20
19.07186288
 30
0.0
 11
7.52055767
 21
19.09829558
 31
0.0
  0
LINE
  5
77
100
AcDbEntity
  8
SLD-0
  6
CONTINUOUS
 62
       3
100
AcDbLine
 10
7.52055767
 20
19.09829558
 30
0.0
 11
7.59406459
 21
19.12533837
 31
0.0
  0
LINE
  5
78
100
AcDbEntity
  8
SLD-0
  6
CONTINUOUS
 62
       3
100
AcDbLine
 10
7.59406459
 20
19.12533837
 30
0.0
 11
7.66727426
 21
19.15300265
 31
0.0
  0
LINE
  5
79
100
AcDbEntity
  8
SLD-0
  6
CONTINUOUS
 62
       3
100
AcDbLine
 10
7.66727426
 20
19.15300265
 30
0.0
 11
7.74017885
 21
19.1812825
 31
0.0
  0
LINE
  5
7A
100
AcDbEntity
  8
SLD-0
  6
CONTINUOUS
 62
       3
100
AcDbLine
 10
7.74017885
 20
19.1812825
 30
0.0
 11
7.81276846
 21
19.21019065
 31
0.0
  0
LINE
  5
7B
100
AcDbEntity
  8
SLD-0
  6
CONTINUOUS
 62
       3
100
AcDbLine
 10
7.81276846
 20
19.21019065
 30
0.0
 11
7.88502341
 21
19.23976645
 31
0.0
  0
LINE
  5
7C
100
AcDbEntity
  8
SLD-0
  6
CONTINUOUS
 62
       3
100
AcDbLine
 10
7.88502341
 20
19.23976645
 30
0.0
 11
7.95692401
 21
19.27004922
 31
0.0
  0
LINE
  5
7D
100
AcDbEntity
  8
SLD-0
  6
CONTINUOUS
 62
       3
100
AcDbLine
 10
7.95692401
 20
19.27004922
 30
0.0
 11
8.02845062
 21
19.30107831
 31
0.0
  0
LINE
  5
7E
100
AcDbEntity
  8
SLD-0
  6
CONTINUOUS
 62
       3
100
AcDbLine
 10
8.02845062
 20
19.30107831
 30
0.0
 11
8.09958354
 21
19.33289303
 31
0.0
  0
LINE
  5
7F
100
AcDbEntity
  8
SLD-0
  6
CONTINUOUS
 62
       3
100
AcDbLine
 10
8.09958354
 20
19.33289303
 30
0.0
 11
8.1703031
 21
19.36553274
 31
0.0
  0
LINE
  5
80
100
AcDbEntity
  8
SLD-0
  6
CONTINUOUS
 62
       3
100
AcDbLine
 10
8.1703031
 20
19.36553274
 30
0.0
 11
8.24058964
 21
19.39903676
 31
0.0
  0
LINE
  5
81
100
AcDbEntity
  8
SLD-0
  6
CONTINUOUS
 62
       3
100
AcDbLine
 10
8.24058964
 20
19.39903676
 30
0.0
 11
8.31042349
 21
19.43344442
 31
0.0
  0
LINE
  5
82
100
AcDbEntity
  8
SLD-0
  6
CONTINUOUS
 62
       3
100
AcDbLine
 10
8.31042349
 20
19.43344442
 30
0.0
 11
8.37978496
 21
19.46879506
 31
0.0
  0
LINE
  5
83
100
AcDbEntity
  8
SLD-0
  6
CONTINUOUS
 62
       3
100
AcDbLine
 10
8.37978496
 20
19.46879506
 30
0.0
 11
8.44865439
 21
19.50512802
 31
0.0
  0
LINE
  5
84
100
AcDbEntity
  8
SLD-0
  6
CONTINUOUS
 62
       3
100
AcDbLine
 10
8.44865439
 20
19.50512802
 30
0.0
 11
8.5170121
 21
19.54248263
 31
0.0
  0
LINE
  5
85
100
AcDbEntity
  8
SLD-0
  6
CONTINUOUS
 62
       3
100
AcDbLine
 10
8.5170121
 20
19.54248263
 30
0.0
 11
8.58483842
 21
19.58089822
 31
0.0
  0
LINE
  5
86
100
AcDbEntity
  8
SLD-0
  6
CONTINUOUS
 62
       3
100
AcDbLine
 10
8.58483842
 20
19.58089822
 30
0.0
 11
8.65211369
 21
19.62041413
 31
0.0
  0
LINE
  5
87
100
AcDbEntity
  8
SLD-0
  6
CONTINUOUS
 62
       3
100
AcDbLine
 10
8.65211369
 20
19.62041413
 30
0.0
 11
8.71881822
 21
19.66106969
 31
0.0
  0
LINE
  5
88
100
AcDbEntity
  8
SLD-0
  6
CONTINUOUS
 62
       3
100
AcDbLine
 10
8.71881822
 20
19.66106969
 30
0.0
 11
8.78500405
 21
19.7030044
 31
0.0
  0
LINE
  5
89
100
AcDbEntity
  8
SLD-0
  6
CONTINUOUS
 62
       3
100
AcDbLine
 10
8.78500405
 20
19.7030044
 30
0.0
 11
8.85062091
 21
19.74635028
 31
0.0
  0
LINE
  5
8A
100
AcDbEntity
  8
SLD-0
  6
CONTINUOUS
 62
       3
100
AcDbLine
 10
8.85062091
 20
19.74635028
 30
0.0
 11
8.9154956
 21
19.7911355
 31
0.0
  0
LINE
  5
8B
100
AcDbEntity
  8
SLD-0
  6
CONTINUOUS
 62
       3
100
AcDbLine
 10
8.9154956
 20
19.7911355
 30
0.0
 11
8.97945494
 21
19.83738819
 31
0.0
  0
LINE
  5
8C
100
AcDbEntity
  8
SLD-0
  6
CONTINUOUS
 62
       3
100
AcDbLine
 10
8.97945494
 20
19.83738819
 30
0.0
 11
9.04232575
 21
19.8851365
 31
0.0
  0
LINE
  5
8D
100
AcDbEntity
  8
SLD-0
  6
CONTINUOUS
 62
       3
100
AcDbLine
 10
9.04232575
 20
19.8851365
 30
0.0
 11
9.10393484
 21
19.93440859
 31
0.0
  0
LINE
  5
8E
100
AcDbEntity
  8
SLD-0
  6
CONTINUOUS
 62
       3
100
AcDbLine
 10
9.10393484
 20
19.93440859
 30
0.0
 11
9.16410904
 21
19.98523258
 31
0.0
  0
LINE
  5
8F
100
AcDbEntity
  8
SLD-0
  6
CONTINUOUS
 62
       3
100
AcDbLine
 10
9.16410904
 20
19.98523258
 30
0.0
 11
9.22268645
 21
20.03762384
 31
0.0
  0
LINE
  5
90
100
AcDbEntity
  8
SLD-0
  6
CONTINUOUS
 62
       3
100
AcDbLine
 10
9.22268645
 20
20.03762384
 30
0.0
 11
9.2795473
 21
20.09159582
 31
0.0
  0
LINE
  5
91
100
AcDbEntity
  8
SLD-0
  6
CONTINUOUS
 62
       3
100
AcDbLine
 10
9.2795473
 20
20.09159582
 30
0.0
 11
9.33449308
 21
20.14732262
 31
0.0
  0
LINE
  5
92
100
AcDbEntity
  8
SLD-0
  6
CONTINUOUS
 62
       3
100
AcDbLine
 10
9.33449308
 20
20.14732262
 30
0.0
 11
9.38731236
 21
20.20499806
 31
0.0
  0
LINE
  5
93
100
AcDbEntity
  8
SLD-0
  6
CONTINUOUS
 62
       3
100
AcDbLine
 10
9.38731236
 20
20.20499806
 30
0.0
 11
9.43779374
 21
20.26481597
 31
0.0
  0
LINE
  5
94
100
AcDbEntity
  8
SLD-0
  6
CONTINUOUS
 62
       3
100
AcDbLine
 10
9.43779374
 20
20.26481597
 30
0.0
 11
9.48572581
 21
20.32697014
 31
0.0
  0
LINE
  5
95
100
AcDbEntity
  8
SLD-0
  6
CONTINUOUS
 62
       3
100
AcDbLine
 10
9.48572581
 20
20.32697014
 30
0.0
 11
9.53089715
 21
20.39165441
 31
0.0
  0
LINE
  5
96
100
AcDbEntity
  8
SLD-0
  6
CONTINUOUS
 62
       3
100
AcDbLine
 10
9.53089715
 20
20.39165441
 30
0.0
 11
9.57309634
 21
20.45906258
 31
0.0
  0
ENDBLK
  5
97
100
AcDbEntity
  8
0
100
AcDbBlockEnd
  0
BLOCK
  5
98
100
AcDbEntity
  8
0
100
AcDbBlockBegin
  2
GROUP_3
 70
       0
 10
0.0
 20
0.0
 30
0.0
  3
GROUP_3
  1

  0
LINE
  5
99
100
AcDbEntity
  8
SLD-0
  6
CONTINUOUS
 62
       3
100
AcDbLine
 10
5.39504371
 20
18.54859161
 30
0.0
 11
5.24935353
 21
18.52340947
 31
0.0
  0
LINE
  5
9A
100
AcDbEntity
  8
SLD-0
  6
CONTINUOUS
 62
       3
100
AcDbLine
 10
5.24935353
 20
18.52340947
 30
0.0
 11
5.10353408
 21
18.49962847
 31
0.0
  0
LINE
  5
9B
100
AcDbEntity
  8
SLD-0
  6
CONTINUOUS
 62
       3
100
AcDbLine
 10
5.10353408
 20
18.49962847
 30
0.0
 11
4.95758845
 21
18.47720681
 31
0.0
  0
LINE
  5
9C
100
AcDbEntity
  8
SLD-0
  6
CONTINUOUS
 62
       3
100
AcDbLine
 10
4.95758845
 20
18.47720681
 30
0.0
 11
4.81151976
 21
18.45610269
 31
0.0
  0
LINE
  5
9D
100
AcDbEntity
  8
SLD-0
  6
CONTINUOUS
 62
       3
100
AcDbLine
 10
4.81151976
 20
18.45610269
 30
0.0
 11
4.66533112
 21
18.43627432
 31
0.0
  0
LINE
  5
9E
100
AcDbEntity
  8
SLD-0
  6
CONTINUOUS
 62
       3
100
AcDbLine
 10
4.66533112
 20
18.43627432
 30
0.0
 11
4.51902563
 21
18.41767988
 31
0.0
  0
LINE
  5
9F
100
AcDbEntity
  8
SLD-0
  6
CONTINUOUS
 62
       3
100
AcDbLine
 10
4.51902563
 20
18.41767988
 30
0.0
 11
4.3726064
 21
18.40027757
 31
0.0
  0
LINE
  5
A0
100
AcDbEntity
  8
SLD-0
  6
CONTINUOUS
 62
       3
100
AcDbLine
 10
4.3726064
 20
18.40027757
 30
0.0
 11
4.22607653
 21
18.3840256
 31
0.0
  0
LINE
  5
A1
100
AcDbEntity
  8
SLD-0
  6
CONTINUOUS
 62
       3
100
AcDbLine
 10
4.22607653
 20
18.3840256
 30
0.0
 11
4.07943915
 21
18.36888216
 31
0.0
  0
LINE
  5
A2
100
AcDbEntity
  8
SLD-0
  6
CONTINUOUS
 62
       3
100
AcDbLine
 10
4.07943915
 20
18.36888216
 30
0.0
 11
3.93269735
 21
18.35480544
 31
0.0
  0
LINE
  5
A3
100
AcDbEntity
  8
SLD-0
  6
CONTINUOUS
 62
       3
100
AcDbLine
 10
3.93269735
 20
18.35480544
 30
0.0
 11
3.78585425
 21
18.34175365
 31
0.0
  0
LINE
  5
A4
100
AcDbEntity
  8
SLD-0
  6
CONTINUOUS
 62
       3
100
AcDbLine
 10
3.78585425
 20
18.34175365
 30
0.0
 11
3.63891295
 21
18.32968498
 31
0.0
  0
LINE
  5
A5
100
AcDbEntity
  8
SLD-0
  6
CONTINUOUS
 62
       3
100
AcDbLine
 10
3.63891295
 20
18.32968498
 30
0.0
 11
3.4918704
 21
18.31856179
 31
0.0
  0
LINE
  5
A6
100
AcDbEntity
  8
SLD-0
  6
CONTINUOUS
 62
       3
100
AcDbLine
 10
3.4918704
 20
18.31856179
 30
0.0
 11
3.3446981
 21
18.30837945
 31
0.0
  0
LINE
  5
A7
100
AcDbEntity
  8
SLD-0
  6
CONTINUOUS
 62
       3
100
AcDbLine
 10
3.3446981
 20
18.30837945
 30
0.0
 11
3.19740674
 21
18.29913169
 31
0.0
  0
LINE
  5
A8
100
AcDbEntity
  8
SLD-0
  6
CONTINUOUS
 62
       3
100
AcDbLine
 10
3.19740674
 20
18.29913169
 30
0.0
 11
3.05001377
 21
18.29080945
 31
0.0
  0
LINE
  5
A9
100
AcDbEntity
  8
SLD-0
  6
CONTINUOUS
 62
       3
100
AcDbLine
 10
3.05001377
 20
18.29080945
 30
0.0
 11
2.90253664
 21
18.28340367
 31
0.0
  0
LINE
  5
AA
100
AcDbEntity
  8
SLD-0
  6
CONTINUOUS
 62
       3
100
AcDbLine
 10
2.90253664
 20
18.28340367
 30
0.0
 11
2.75499278
 21
18.27690528
 31
0.0
  0
LINE
  5
AB
100
AcDbEntity
  8
SLD-0
  6
CONTINUOUS
 62
       3
100
AcDbLine
 10
2.75499278
 20
18.27690528
 30
0.0
 11
2.60739967
 21
18.27130522
 31
0.0
  0
LINE
  5
AC
100
AcDbEntity
  8
SLD-0
  6
CONTINUOUS
 62
       3
100
AcDbLine
 10
2.60739967
 20
18.27130522
 30
0.0
 11
2.45977473
 21
18.26659444
 31
0.0
  0
LINE
  5
AD
100
AcDbEntity
  8
SLD-0
  6
CONTINUOUS
 62
       3
100
AcDbLine
 10
2.45977473
 20
18.26659444
 30
0.0
 11
2.31213542
 21
18.26276386
 31
0.0
  0
LINE
  5
AE
100
AcDbEntity
  8
SLD-0
  6
CONTINUOUS
 62
       3
100
AcDbLine
 10
2.31213542
 20
18.26276386
 30
0.0
 11
2.16449919
 21
18.25980442
 31
0.0
  0
LINE
  5
AF
100
AcDbEntity
  8
SLD-0
  6
CONTINUOUS
 62
       3
100
AcDbLine
 10
2.16449919
 20
18.25980442
 30
0.0
 11
2.01688349
 21
18.25770708
 31
0.0
  0
LINE
  5
B0
100
AcDbEntity
  8
SLD-0
  6
CONTINUOUS
 62
       3
100
AcDbLine
 10
2.01688349
 20
18.25770708
 30
0.0
 11
1.86930577
 21
18.25646275
 31
0.0
  0
LINE
  5
B1
100
AcDbEntity
  8
SLD-0
  6
CONTINUOUS
 62
       3
100
AcDbLine
 10
1.86930577
 20
18.25646275
 30
0.0
 11
1.72178347
 21
18.25606238
 31
0.0
  0
LINE
  5
B2
100
AcDbEntity
  8
SLD-0
  6
CONTINUOUS
 62
       3
100
AcDbLine
 10
1.72178347
 20
18.25606238
 30
0.0
 11
1.57432476
 21
18.25649749
 31
0.0
  0
LINE
  5
B3
100
AcDbEntity
  8
SLD-0
  6
CONTINUOUS
 62
       3
100
AcDbLine
 10
1.57432476
 20
18.25649749
 30
0.0
 11
1.4269265
 21
18.25777175
 31
0.0
  0
LINE
  5
B4
100
AcDbEntity
  8
SLD-0
  6
CONTINUOUS
 62
       3
100
AcDbLine
 10
1.4269265
 20
18.25777175
 30
0.0
 11
1.27958913
 21
18.25989435
 31
0.0
  0
LINE
  5
B5
100
AcDbEntity
  8
SLD-0
  6
CONTINUOUS
 62
       3
100
AcDbLine
 10
1.27958913
 20
18.25989435
 30
0.0
 11
1.13231313
 21
18.26287449
 31
0.0
  0
LINE
  5
B6
100
AcDbEntity
  8
SLD-0
  6
CONTINUOUS
 62
       3
100
AcDbLine
 10
1.13231313
 20
18.26287449
 30
0.0
 11
0.98509894
 21
18.26672134
 31
0.0
  0
LINE
  5
B7
100
AcDbEntity
  8
SLD-0
  6
CONTINUOUS
 62
       3
100
AcDbLine
 10
0.98509894
 20
18.26672134
 30
0.0
 11
0.83794703
 21
18.27144409
 31
0.0
  0
LINE
  5
B8
100
AcDbEntity
  8
SLD-0
  6
CONTINUOUS
 62
       3
100
AcDbLine
 10
0.83794703
 20
18.27144409
 30
0.0
 11
0.69085786
 21
18.27705193
 31
0.0
  0
LINE
  5
B9
100
AcDbEntity
  8
SLD-0
  6
CONTINUOUS
 62
       3
100
AcDbLine
 10
0.69085786
 20
18.27705193
 30
0.0
 11
0.54383188
 21
18.28355405
 31
0.0
  0
LINE
  5
BA
100
AcDbEntity
  8
SLD-0
  6
CONTINUOUS
 62
       3
100
AcDbLine
 10
0.54383188
 20
18.28355405
 30
0.0
 11
0.39686956
 21
18.29095963
 31
0.0
  0
LINE
  5
BB
100
AcDbEntity
  8
SLD-0
  6
CONTINUOUS
 62
       3
100
AcDbLine
 10
0.39686956
 20
18.29095963
 30
0.0
 11
0.24997135
 21
18.29927787
 31
0.0
  0
LINE
  5
BC
100
AcDbEntity
  8
SLD-0
  6
CONTINUOUS
 62
       3
100
AcDbLine
 10
0.24997135
 20
18.29927787
 30
0.0
 11
0.10313772
 21
18.30851794
 31
0.0
  0
LINE
  5
BD
100
AcDbEntity
  8
SLD-0
  6
CONTINUOUS
 62
       3
100
AcDbLine
 10
0.10313772
 20
18.30851794
 30
0.0
 11
-0.04363087
 21
18.31868903
 31
0.0
  0
LINE
  5
BE
100
AcDbEntity
  8
SLD-0
  6
CONTINUOUS
 62
       3
100
AcDbLine
 10
-0.04363087
 20
18.31868903
 30
0.0
 11
-0.19033412
 21
18.32979764
 31
0.0
  0
LINE
  5
BF
100
AcDbEntity
  8
SLD-0
  6
CONTINUOUS
 62
       3
100
AcDbLine
 10
-0.19033412
 20
18.32979764
 30
0.0
 11
-0.33697174
 21
18.34184925
 31
0.0
  0
LINE
  5
C0
100
AcDbEntity
  8
SLD-0
  6
CONTINUOUS
 62
       3
100
AcDbLine
 10
-0.33697174
 20
18.34184925
 30
0.0
 11
-0.48354174
 21
18.35488247
 31
0.0
  0
LINE
  5
C1
100
AcDbEntity
  8
SLD-0
  6
CONTINUOUS
 62
       3
100
AcDbLine
 10
-0.48354174
 20
18.35488247
 30
0.0
 11
-0.63004193
 21
18.36893995
 31
0.0
  0
LINE
  5
C2
100
AcDbEntity
  8
SLD-0
  6
CONTINUOUS
 62
       3
100
AcDbLine
 10
-0.63004193
 20
18.36893995
 30
0.0
 11
-0.77647009
 21
18.38406439
 31
0.0
  0
LINE
  5
C3
100
AcDbEntity
  8
SLD-0
  6
CONTINUOUS
 62
       3
100
AcDbLine
 10
-0.77647009
 20
18.38406439
 30
0.0
 11
-0.92282404
 21
18.40029846
 31
0.0
  0
LINE
  5
C4
100
AcDbEntity
  8
SLD-0
  6
CONTINUOUS
 62
       3
100
AcDbLine
 10
-0.92282404
 20
18.40029846
 30
0.0
 11
-1.06910156
 21
18.41768483
 31
0.0
  0
LINE
  5
C5
100
AcDbEntity
  8
SLD-0
  6
CONTINUOUS
 62
       3
100
AcDbLine
 10
-1.06910156
 20
18.41768483
 30
0.0
 11
-1.21530045
 21
18.4362662
 31
0.0
  0
LINE
  5
C6
100
AcDbEntity
  8
SLD-0
  6
CONTINUOUS
 62
       3
100
AcDbLine
 10
-1.21530045
 20
18.4362662
 30
0.0
 11
-1.36141851
 21
18.45608523
 31
0.0
  0
LINE
  5
C7
100
AcDbEntity
  8
SLD-0
  6
CONTINUOUS
 62
       3
100
AcDbLine
 10
-1.36141851
 20
18.45608523
 30
0.0
 11
-1.50745353
 21
18.47718461
 31
0.0
  0
LINE
  5
C8
100
AcDbEntity
  8
SLD-0
  6
CONTINUOUS
 62
       3
100
AcDbLine
 10
-1.50745353
 20
18.47718461
 30
0.0
 11
-1.65340332
 21
18.49960701
 31
0.0
  0
LINE
  5
C9
100
AcDbEntity
  8
SLD-0
  6
CONTINUOUS
 62
       3
100
AcDbLine
 10
-1.65340332
 20
18.49960701
 30
0.0
 11
-1.79926566
 21
18.52339512
 31
0.0
  0
LINE
  5
CA
100
AcDbEntity
  8
SLD-0
  6
CONTINUOUS
 62
       3
100
AcDbLine
 10
-1.79926566
 20
18.52339512
 30
0.0
 11
-1.94503837
 21
18.54859161
 31
0.0
  0
ENDBLK
  5
CB
100
AcDbEntity
  8
0
100
AcDbBlockEnd
  0
BLOCK
  5
CC
100
AcDbEntity
  8
0
100
AcDbBlockBegin
  2
GROUP_4
 70
       0
 10
0.0
 20
0.0
 30
0.0
  3
GROUP_4
  1

  0
LINE
  5
CD
100
AcDbEntity
  8
SLD-0
  6
CONTINUOUS
 62
       3
100
AcDbLine
 10
48.11869678
 20
18.54859167
 30
0.0
 11
48.05916821
 21
18.95545265
 31
0.0
  0
LINE
  5
CE
100
AcDbEntity
  8
SLD-0
  6
CONTINUOUS
 62
       3
100
AcDbLine
 10
48.05916821
 20
18.95545265
 30
0.0
 11
48.00204561
 21
19.36257109
 31
0.0
  0
LINE
  5
CF
100
AcDbEntity
  8
SLD-0
  6
CONTINUOUS
 62
       3
100
AcDbLine
 10
48.00204561
 20
19.36257109
 30
0.0
 11
47.94730276
 21
19.76993892
 31
0.0
  0
LINE
  5
D0
100
AcDbEntity
  8
SLD-0
  6
CONTINUOUS
 62
       3
100
AcDbLine
 10
47.94730276
 20
19.76993892
 30
0.0
 11
47.89491345
 21
20.17754806
 31
0.0
  0
LINE
  5
D1
100
AcDbEntity
  8
SLD-0
  6
CONTINUOUS
 62
       3
100
AcDbLine
 10
47.89491345
 20
20.17754806
 30
0.0
 11
47.84485149
 21
20.58539042
 31
0.0
  0
LINE
  5
D2
100
AcDbEntity
  8
SLD-0
  6
CONTINUOUS
 62
       3
100
AcDbLine
 10
47.84485149
 20
20.58539042
 30
0.0
 11
47.79709065
 21
20.99345791
 31
0.0
  0
LINE
  5
D3
100
AcDbEntity
  8
SLD-0
  6
CONTINUOUS
 62
       3
100
AcDbLine
 10
47.79709065
 20
20.99345791
 30
0.0
 11
47.75160472
 21
21.40174247
 31
0.0
  0
LINE
  5
D4
100
AcDbEntity
  8
SLD-0
  6
CONTINUOUS
 62
       3
100
AcDbLine
 10
47.75160472
 20
21.40174247
 30
0.0
 11
47.70836751
 21
21.810236
 31
0.0
  0
LINE
  5
D5
100
AcDbEntity
  8
SLD-0
  6
CONTINUOUS
 62
       3
100
AcDbLine
 10
47.70836751
 20
21.810236
 30
0.0
 11
47.6673528
 21
22.21893042
 31
0.0
  0
LINE
  5
D6
100
AcDbEntity
  8
SLD-0
  6
CONTINUOUS
 62
       3
100
AcDbLine
 10
47.6673528
 20
22.21893042
 30
0.0
 11
47.62853438
 21
22.62781765
 31
0.0
  0
LINE
  5
D7
100
AcDbEntity
  8
SLD-0
  6
CONTINUOUS
 62
       3
100
AcDbLine
 10
47.62853438
 20
22.62781765
 30
0.0
 11
47.59188604
 21
23.03688962
 31
0.0
  0
LINE
  5
D8
100
AcDbEntity
  8
SLD-0
  6
CONTINUOUS
 62
       3
100
AcDbLine
 10
47.59188604
 20
23.03688962
 30
0.0
 11
47.55738158
 21
23.44613823
 31
0.0
  0
LINE
  5
D9
100
AcDbEntity
  8
SLD-0
  6
CONTINUOUS
 62
       3
100
AcDbLine
 10
47.55738158
 20
23.44613823
 30
0.0
 11
47.52499478
 21
23.85555541
 31
0.0
  0
LINE
  5
DA
100
AcDbEntity
  8
SLD-0
  6
CONTINUOUS
 62
       3
100
AcDbLine
 10
47.52499478
 20
23.85555541
 30
0.0
 11
47.49469943
 21
24.26513307
 31
0.0
  0
LINE
  5
DB
100
AcDbEntity
  8
SLD-0
  6
CONTINUOUS
 62
       3
100
AcDbLine
 10
47.49469943
 20
24.26513307
 30
0.0
 11
47.46646934
 21
24.67486314
 31
0.0
  0
LINE
  5
DC
100
AcDbEntity
  8
SLD-0
  6
CONTINUOUS
 62
       3
100
AcDbLine
 10
47.46646934
 20
24.67486314
 30
0.0
 11
47.44027828
 21
25.08473752
 31
0.0
  0
LINE
  5
DD
100
AcDbEntity
  8
SLD-0
  6
CONTINUOUS
 62
       3
100
AcDbLine
 10
47.44027828
 20
25.08473752
 30
0.0
 11
47.41610005
 21
25.49474814
 31
0.0
  0
LINE
  5
DE
100
AcDbEntity
  8
SLD-0
  6
CONTINUOUS
 62
       3
100
AcDbLine
 10
47.41610005
 20
25.49474814
 30
0.0
 11
47.39390844
 21
25.90488692
 31
0.0
  0
LINE
  5
DF
100
AcDbEntity
  8
SLD-0
  6
CONTINUOUS
 62
       3
100
AcDbLine
 10
47.39390844
 20
25.90488692
 30
0.0
 11
47.37369998
 21
26.31513632
 31
0.0
  0
LINE
  5
E0
100
AcDbEntity
  8
SLD-0
  6
CONTINUOUS
 62
       3
100
AcDbLine
 10
47.37369998
 20
26.31513632
 30
0.0
 11
47.35549929
 21
26.7254755
 31
0.0
  0
LINE
  5
E1
100
AcDbEntity
  8
SLD-0
  6
CONTINUOUS
 62
       3
100
AcDbLine
 10
47.35549929
 20
26.7254755
 30
0.0
 11
47.33931295
 21
27.13589637
 31
0.0
  0
LINE
  5
E2
100
AcDbEntity
  8
SLD-0
  6
CONTINUOUS
 62
       3
100
AcDbLine
 10
47.33931295
 20
27.13589637
 30
0.0
 11
47.32514741
 21
27.54639094
 31
0.0
  0
LINE
  5
E3
100
AcDbEntity
  8
SLD-0
  6
CONTINUOUS
 62
       3
100
AcDbLine
 10
47.32514741
 20
27.54639094
 30
0.0
 11
47.31300909
 21
27.95695117
 31
0.0
  0
LINE
  5
E4
100
AcDbEntity
  8
SLD-0
  6
CONTINUOUS
 62
       3
100
AcDbLine
 10
47.31300909
 20
27.95695117
 30
0.0
 11
47.30290444
 21
28.36756905
 31
0.0
  0
LINE
  5
E5
100
AcDbEntity
  8
SLD-0
  6
CONTINUOUS
 62
       3
100
AcDbLine
 10
47.30290444
 20
28.36756905
 30
0.0
 11
47.2948399
 21
28.77823658
 31
0.0
  0
LINE
  5
E6
100
AcDbEntity
  8
SLD-0
  6
CONTINUOUS
 62
       3
100
AcDbLine
 10
47.2948399
 20
28.77823658
 30
0.0
 11
47.2888219
 21
29.18894574
 31
0.0
  0
LINE
  5
E7
100
AcDbEntity
  8
SLD-0
  6
CONTINUOUS
 62
       3
100
AcDbLine
 10
47.2888219
 20
29.18894574
 30
0.0
 11
47.28485688
 21
29.59968852
 31
0.0
  0
LINE
  5
E8
100
AcDbEntity
  8
SLD-0
  6
CONTINUOUS
 62
       3
100
AcDbLine
 10
47.28485688
 20
29.59968852
 30
0.0
 11
47.28295129
 21
30.01045689
 31
0.0
  0
LINE
  5
E9
100
AcDbEntity
  8
SLD-0
  6
CONTINUOUS
 62
       3
100
AcDbLine
 10
47.28295129
 20
30.01045689
 30
0.0
 11
47.28311156
 21
30.42124286
 31
0.0
  0
LINE
  5
EA
100
AcDbEntity
  8
SLD-0
  6
CONTINUOUS
 62
       3
100
AcDbLine
 10
47.28311156
 20
30.42124286
 30
0.0
 11
47.28534412
 21
30.8320384
 31
0.0
  0
ENDBLK
  5
EB
100
AcDbEntity
  8
0
100
AcDbBlockEnd
  0
BLOCK
  5
EC
100
AcDbEntity
  8
0
100
AcDbBlockBegin
  2
GROUP_5
 70
       0
 10
0.0
 20
0.0
 30
0.0
  3
GROUP_5
  1

  0
LINE
  5
ED
100
AcDbEntity
  8
SLD-0
  6
CONTINUOUS
 62
       3
100
AcDbLine
 10
-6.12309101
 20
20.45906258
 30
0.0
 11
-6.0810292
 21
20.3918948
 31
0.0
  0
LINE
  5
EE
100
AcDbEntity
  8
SLD-0
  6
CONTINUOUS
 62
       3
100
AcDbLine
 10
-6.0810292
 20
20.3918948
 30
0.0
 11
-6.03585716
 21
20.32724153
 31
0.0
  0
LINE
  5
EF
100
AcDbEntity
  8
SLD-0
  6
CONTINUOUS
 62
       3
100
AcDbLine
 10
-6.03585716
 20
20.32724153
 30
0.0
 11
-5.98780323
 21
20.26495122
 31
0.0
  0
LINE
  5
F0
100
AcDbEntity
  8
SLD-0
  6
CONTINUOUS
 62
       3
100
AcDbLine
 10
-5.98780323
 20
20.26495122
 30
0.0
 11
-5.93709573
 21
20.20487235
 31
0.0
  0
LINE
  5
F1
100
AcDbEntity
  8
SLD-0
  6
CONTINUOUS
 62
       3
100
AcDbLine
 10
-5.93709573
 20
20.20487235
 30
0.0
 11
-5.88396301
 21
20.14685337
 31
0.0
  0
LINE
  5
F2
100
AcDbEntity
  8
SLD-0
  6
CONTINUOUS
 62
       3
100
AcDbLine
 10
-5.88396301
 20
20.14685337
 30
0.0
 11
-5.82863339
 21
20.09074276
 31
0.0
  0
LINE
  5
F3
100
AcDbEntity
  8
SLD-0
  6
CONTINUOUS
 62
       3
100
AcDbLine
 10
-5.82863339
 20
20.09074276
 30
0.0
 11
-5.7713352
 21
20.03638897
 31
0.0
  0
LINE
  5
F4
100
AcDbEntity
  8
SLD-0
  6
CONTINUOUS
 62
       3
100
AcDbLine
 10
-5.7713352
 20
20.03638897
 30
0.0
 11
-5.71233757
 21
19.98369047
 31
0.0
  0
LINE
  5
F5
100
AcDbEntity
  8
SLD-0
  6
CONTINUOUS
 62
       3
100
AcDbLine
 10
-5.71233757
 20
19.98369047
 30
0.0
 11
-5.65205454
 21
19.93281237
 31
0.0
  0
LINE
  5
F6
100
AcDbEntity
  8
SLD-0
  6
CONTINUOUS
 62
       3
100
AcDbLine
 10
-5.65205454
 20
19.93281237
 30
0.0
 11
-5.59060451
 21
19.88369552
 31
0.0
  0
LINE
  5
F7
100
AcDbEntity
  8
SLD-0
  6
CONTINUOUS
 62
       3
100
AcDbLine
 10
-5.59060451
 20
19.88369552
 30
0.0
 11
-5.52805855
 21
19.8362326
 31
0.0
  0
LINE
  5
F8
100
AcDbEntity
  8
SLD-0
  6
CONTINUOUS
 62
       3
100
AcDbLine
 10
-5.52805855
 20
19.8362326
 30
0.0
 11
-5.46448771
 21
19.7903163
 31
0.0
  0
LINE
  5
F9
100
AcDbEntity
  8
SLD-0
  6
CONTINUOUS
 62
       3
100
AcDbLine
 10
-5.46448771
 20
19.7903163
 30
0.0
 11
-5.39996306
 21
19.7458393
 31
0.0
  0
LINE
  5
FA
100
AcDbEntity
  8
SLD-0
  6
CONTINUOUS
 62
       3
100
AcDbLine
 10
-5.39996306
 20
19.7458393
 30
0.0
 11
-5.33455565
 21
19.70269429
 31
0.0
  0
LINE
  5
FB
100
AcDbEntity
  8
SLD-0
  6
CONTINUOUS
 62
       3
100
AcDbLine
 10
-5.33455565
 20
19.70269429
 30
0.0
 11
-5.26833654
 21
19.66077395
 31
0.0
  0
LINE
  5
FC
100
AcDbEntity
  8
SLD-0
  6
CONTINUOUS
 62
       3
100
AcDbLine
 10
-5.26833654
 20
19.66077395
 30
0.0
 11
-5.20135915
 21
19.61998084
 31
0.0
  0
LINE
  5
FD
100
AcDbEntity
  8
SLD-0
  6
CONTINUOUS
 62
       3
100
AcDbLine
 10
-5.20135915
 20
19.61998084
 30
0.0
 11
-5.13365958
 21
19.5802701
 31
0.0
  0
LINE
  5
FE
100
AcDbEntity
  8
SLD-0
  6
CONTINUOUS
 62
       3
100
AcDbLine
 10
-5.13365958
 20
19.5802701
 30
0.0
 11
-5.06528295
 21
19.54161333
 31
0.0
  0
LINE
  5
FF
100
AcDbEntity
  8
SLD-0
  6
CONTINUOUS
 62
       3
100
AcDbLine
 10
-5.06528295
 20
19.54161333
 30
0.0
 11
-4.99627434
 21
19.50398211
 31
0.0
  0
LINE
  5
100
100
AcDbEntity
  8
SLD-0
  6
CONTINUOUS
 62
       3
100
AcDbLine
 10
-4.99627434
 20
19.50398211
 30
0.0
 11
-4.92667886
 21
19.46734804
 31
0.0
  0
LINE
  5
101
100
AcDbEntity
  8
SLD-0
  6
CONTINUOUS
 62
       3
100
AcDbLine
 10
-4.92667886
 20
19.46734804
 30
0.0
 11
-4.85654161
 21
19.4316827
 31
0.0
  0
LINE
  5
102
100
AcDbEntity
  8
SLD-0
  6
CONTINUOUS
 62
       3
100
AcDbLine
 10
-4.85654161
 20
19.4316827
 30
0.0
 11
-4.78590769
 21
19.39695768
 31
0.0
  0
LINE
  5
103
100
AcDbEntity
  8
SLD-0
  6
CONTINUOUS
 62
       3
100
AcDbLine
 10
-4.78590769
 20
19.39695768
 30
0.0
 11
-4.71482222
 21
19.36314457
 31
0.0
  0
LINE
  5
104
100
AcDbEntity
  8
SLD-0
  6
CONTINUOUS
 62
       3
100
AcDbLine
 10
-4.71482222
 20
19.36314457
 30
0.0
 11
-4.64333027
 21
19.33021496
 31
0.0
  0
LINE
  5
105
100
AcDbEntity
  8
SLD-0
  6
CONTINUOUS
 62
       3
100
AcDbLine
 10
-4.64333027
 20
19.33021496
 30
0.0
 11
-4.57147697
 21
19.29814043
 31
0.0
  0
LINE
  5
106
100
AcDbEntity
  8
SLD-0
  6
CONTINUOUS
 62
       3
100
AcDbLine
 10
-4.57147697
 20
19.29814043
 30
0.0
 11
-4.49930741
 21
19.26689258
 31
0.0
  0
LINE
  5
107
100
AcDbEntity
  8
SLD-0
  6
CONTINUOUS
 62
       3
100
AcDbLine
 10
-4.49930741
 20
19.26689258
 30
0.0
 11
-4.42686669
 21
19.23644299
 31
0.0
  0
LINE
  5
108
100
AcDbEntity
  8
SLD-0
  6
CONTINUOUS
 62
       3
100
AcDbLine
 10
-4.42686669
 20
19.23644299
 30
0.0
 11
-4.35419992
 21
19.20676326
 31
0.0
  0
LINE
  5
109
100
AcDbEntity
  8
SLD-0
  6
CONTINUOUS
 62
       3
100
AcDbLine
 10
-4.35419992
 20
19.20676326
 30
0.0
 11
-4.2813522
 21
19.17782496
 31
0.0
  0
LINE
  5
10A
100
AcDbEntity
  8
SLD-0
  6
CONTINUOUS
 62
       3
100
AcDbLine
 10
-4.2813522
 20
19.17782496
 30
0.0
 11
-4.20836862
 21
19.1495997
 31
0.0
  0
LINE
  5
10B
100
AcDbEntity
  8
SLD-0
  6
CONTINUOUS
 62
       3
100
AcDbLine
 10
-4.20836862
 20
19.1495997
 30
0.0
 11
-4.13523131
 21
19.12205026
 31
0.0
  0
LINE
  5
10C
100
AcDbEntity
  8
SLD-0
  6
CONTINUOUS
 62
       3
100
AcDbLine
 10
-4.13523131
 20
19.12205026
 30
0.0
 11
-4.06189544
 21
19.09514818
 31
0.0
  0
LINE
  5
10D
100
AcDbEntity
  8
SLD-0
  6
CONTINUOUS
 62
       3
100
AcDbLine
 10
-4.06189544
 20
19.09514818
 30
0.0
 11
-3.98836569
 21
19.06887818
 31
0.0
  0
LINE
  5
10E
100
AcDbEntity
  8
SLD-0
  6
CONTINUOUS
 62
       3
100
AcDbLine
 10
-3.98836569
 20
19.06887818
 30
0.0
 11
-3.91464673
 21
19.04322497
 31
0.0
  0
LINE
  5
10F
100
AcDbEntity
  8
SLD-0
  6
CONTINUOUS
 62
       3
100
AcDbLine
 10
-3.91464673
 20
19.04322497
 30
0.0
 11
-3.84074323
 21
19.01817326
 31
0.0
  0
LINE
  5
110
100
AcDbEntity
  8
SLD-0
  6
CONTINUOUS
 62
       3
100
AcDbLine
 10
-3.84074323
 20
19.01817326
 30
0.0
 11
-3.76665988
 21
18.99370776
 31
0.0
  0
LINE
  5
111
100
AcDbEntity
  8
SLD-0
  6
CONTINUOUS
 62
       3
100
AcDbLine
 10
-3.76665988
 20
18.99370776
 30
0.0
 11
-3.69240135
 21
18.96981318
 31
0.0
  0
LINE
  5
112
100
AcDbEntity
  8
SLD-0
  6
CONTINUOUS
 62
       3
100
AcDbLine
 10
-3.69240135
 20
18.96981318
 30
0.0
 11
-3.61797231
 21
18.94647424
 31
0.0
  0
LINE
  5
113
100
AcDbEntity
  8
SLD-0
  6
CONTINUOUS
 62
       3
100
AcDbLine
 10
-3.61797231
 20
18.94647424
 30
0.0
 11
-3.54337744
 21
18.92367563
 31
0.0
  0
LINE
  5
114
100
AcDbEntity
  8
SLD-0
  6
CONTINUOUS
 62
       3
100
AcDbLine
 10
-3.54337744
 20
18.92367563
 30
0.0
 11
-3.46862141
 21
18.90140208
 31
0.0
  0
LINE
  5
115
100
AcDbEntity
  8
SLD-0
  6
CONTINUOUS
 62
       3
100
AcDbLine
 10
-3.46862141
 20
18.90140208
 30
0.0
 11
-3.3937089
 21
18.8796383
 31
0.0
  0
LINE
  5
116
100
AcDbEntity
  8
SLD-0
  6
CONTINUOUS
 62
       3
100
AcDbLine
 10
-3.3937089
 20
18.8796383
 30
0.0
 11
-3.31864459
 21
18.85836899
 31
0.0
  0
LINE
  5
117
100
AcDbEntity
  8
SLD-0
  6
CONTINUOUS
 62
       3
100
AcDbLine
 10
-3.31864459
 20
18.85836899
 30
0.0
 11
-3.24343315
 21
18.83757887
 31
0.0
  0
LINE
  5
118
100
AcDbEntity
  8
SLD-0
  6
CONTINUOUS
 62
       3
100
AcDbLine
 10
-3.24343315
 20
18.83757887
 30
0.0
 11
-3.16807926
 21
18.81725264
 31
0.0
  0
LINE
  5
119
100
AcDbEntity
  8
SLD-0
  6
CONTINUOUS
 62
       3
100
AcDbLine
 10
-3.16807926
 20
18.81725264
 30
0.0
 11
-3.09258759
 21
18.79737503
 31
0.0
  0
LINE
  5
11A
100
AcDbEntity
  8
SLD-0
  6
CONTINUOUS
 62
       3
100
AcDbLine
 10
-3.09258759
 20
18.79737503
 30
0.0
 11
-3.01696095
 21
18.77793682
 31
0.0
  0
LINE
  5
11B
100
AcDbEntity
  8
SLD-0
  6
CONTINUOUS
 62
       3
100
AcDbLine
 10
-3.01696095
 20
18.77793682
 30
0.0
 11
-2.94120037
 21
18.75893461
 31
0.0
  0
LINE
  5
11C
100
AcDbEntity
  8
SLD-0
  6
CONTINUOUS
 62
       3
100
AcDbLine
 10
-2.94120037
 20
18.75893461
 30
0.0
 11
-2.86530786
 21
18.74036184
 31
0.0
  0
LINE
  5
11D
100
AcDbEntity
  8
SLD-0
  6
CONTINUOUS
 62
       3
100
AcDbLine
 10
-2.86530786
 20
18.74036184
 30
0.0
 11
-2.78928543
 21
18.72221193
 31
0.0
  0
LINE
  5
11E
100
AcDbEntity
  8
SLD-0
  6
CONTINUOUS
 62
       3
100
AcDbLine
 10
-2.78928543
 20
18.72221193
 30
0.0
 11
-2.71313509
 21
18.70447831
 31
0.0
  0
LINE
  5
11F
100
AcDbEntity
  8
SLD-0
  6
CONTINUOUS
 62
       3
100
AcDbLine
 10
-2.71313509
 20
18.70447831
 30
0.0
 11
-2.63685885
 21
18.6871544
 31
0.0
  0
LINE
  5
120
100
AcDbEntity
  8
SLD-0
  6
CONTINUOUS
 62
       3
100
AcDbLine
 10
-2.63685885
 20
18.6871544
 30
0.0
 11
-2.56045871
 21
18.67023363
 31
0.0
  0
LINE
  5
121
100
AcDbEntity
  8
SLD-0
  6
CONTINUOUS
 62
       3
100
AcDbLine
 10
-2.56045871
 20
18.67023363
 30
0.0
 11
-2.48393668
 21
18.65370943
 31
0.0
  0
LINE
  5
122
100
AcDbEntity
  8
SLD-0
  6
CONTINUOUS
 62
       3
100
AcDbLine
 10
-2.48393668
 20
18.65370943
 30
0.0
 11
-2.40729477
 21
18.63757522
 31
0.0
  0
LINE
  5
123
100
AcDbEntity
  8
SLD-0
  6
CONTINUOUS
 62
       3
100
AcDbLine
 10
-2.40729477
 20
18.63757522
 30
0.0
 11
-2.330535
 21
18.62182442
 31
0.0
  0
LINE
  5
124
100
AcDbEntity
  8
SLD-0
  6
CONTINUOUS
 62
       3
100
AcDbLine
 10
-2.330535
 20
18.62182442
 30
0.0
 11
-2.25365936
 21
18.60645047
 31
0.0
  0
LINE
  5
125
100
AcDbEntity
  8
SLD-0
  6
CONTINUOUS
 62
       3
100
AcDbLine
 10
-2.25365936
 20
18.60645047
 30
0.0
 11
-2.17666987
 21
18.59144678
 31
0.0
  0
LINE
  5
126
100
AcDbEntity
  8
SLD-0
  6
CONTINUOUS
 62
       3
100
AcDbLine
 10
-2.17666987
 20
18.59144678
 30
0.0
 11
-2.09956854
 21
18.5768068
 31
0.0
  0
LINE
  5
127
100
AcDbEntity
  8
SLD-0
  6
CONTINUOUS
 62
       3
100
AcDbLine
 10
-2.09956854
 20
18.5768068
 30
0.0
 11
-2.02235737
 21
18.56252393
 31
0.0
  0
LINE
  5
128
100
AcDbEntity
  8
SLD-0
  6
CONTINUOUS
 62
       3
100
AcDbLine
 10
-2.02235737
 20
18.56252393
 30
0.0
 11
-1.94503837
 21
18.54859161
 31
0.0
  0
ENDBLK
  5
129
100
AcDbEntity
  8
0
100
AcDbBlockEnd
  0
BLOCK
  5
12A
100
AcDbEntity
  8
0
100
AcDbBlockBegin
  2
GROUP_6
 70
       0
 10
0.0
 20
0.0
 30
0.0
  3
GROUP_6
  1

  0
LINE
  5
12B
100
AcDbEntity
  8
SLD-0
  6
CONTINUOUS
 62
       3
100
AcDbLine
 10
47.87905
 20
40.14095361
 30
0.0
 11
47.89463796
 21
40.26769025
 31
0.0
  0
LINE
  5
12C
100
AcDbEntity
  8
SLD-0
  6
CONTINUOUS
 62
       3
100
AcDbLine
 10
47.89463796
 20
40.26769025
 30
0.0
 11
47.91003214
 21
40.39097851
 31
0.0
  0
LINE
  5
12D
100
AcDbEntity
  8
SLD-0
  6
CONTINUOUS
 62
       3
100
AcDbLine
 10
47.91003214
 20
40.39097851
 30
0.0
 11
47.92521307
 21
40.51078228
 31
0.0
  0
LINE
  5
12E
100
AcDbEntity
  8
SLD-0
  6
CONTINUOUS
 62
       3
100
AcDbLine
 10
47.92521307
 20
40.51078228
 30
0.0
 11
47.94016128
 21
40.62706545
 31
0.0
  0
LINE
  5
12F
100
AcDbEntity
  8
SLD-0
  6
CONTINUOUS
 62
       3
100
AcDbLine
 10
47.94016128
 20
40.62706545
 30
0.0
 11
47.95485732
 21
40.73979191
 31
0.0
  0
LINE
  5
130
100
AcDbEntity
  8
SLD-0
  6
CONTINUOUS
 62
       3
100
AcDbLine
 10
47.95485732
 20
40.73979191
 30
0.0
 11
47.96928171
 21
40.84892552
 31
0.0
  0
LINE
  5
131
100
AcDbEntity
  8
SLD-0
  6
CONTINUOUS
 62
       3
100
AcDbLine
 10
47.96928171
 20
40.84892552
 30
0.0
 11
47.98341498
 21
40.95443019
 31
0.0
  0
LINE
  5
132
100
AcDbEntity
  8
SLD-0
  6
CONTINUOUS
 62
       3
100
AcDbLine
 10
47.98341498
 20
40.95443019
 30
0.0
 11
47.99723769
 21
41.0562698
 31
0.0
  0
LINE
  5
133
100
AcDbEntity
  8
SLD-0
  6
CONTINUOUS
 62
       3
100
AcDbLine
 10
47.99723769
 20
41.0562698
 30
0.0
 11
48.01073035
 21
41.15440822
 31
0.0
  0
LINE
  5
134
100
AcDbEntity
  8
SLD-0
  6
CONTINUOUS
 62
       3
100
AcDbLine
 10
48.01073035
 20
41.15440822
 30
0.0
 11
48.0238735
 21
41.24880936
 31
0.0
  0
LINE
  5
135
100
AcDbEntity
  8
SLD-0
  6
CONTINUOUS
 62
       3
100
AcDbLine
 10
48.0238735
 20
41.24880936
 30
0.0
 11
48.03664768
 21
41.33943708
 31
0.0
  0
LINE
  5
136
100
AcDbEntity
  8
SLD-0
  6
CONTINUOUS
 62
       3
100
AcDbLine
 10
48.03664768
 20
41.33943708
 30
0.0
 11
48.04903342
 21
41.42625529
 31
0.0
  0
LINE
  5
137
100
AcDbEntity
  8
SLD-0
  6
CONTINUOUS
 62
       3
100
AcDbLine
 10
48.04903342
 20
41.42625529
 30
0.0
 11
48.06101126
 21
41.50922785
 31
0.0
  0
LINE
  5
138
100
AcDbEntity
  8
SLD-0
  6
CONTINUOUS
 62
       3
100
AcDbLine
 10
48.06101126
 20
41.50922785
 30
0.0
 11
48.07256172
 21
41.58831866
 31
0.0
  0
LINE
  5
139
100
AcDbEntity
  8
SLD-0
  6
CONTINUOUS
 62
       3
100
AcDbLine
 10
48.07256172
 20
41.58831866
 30
0.0
 11
48.08366535
 21
41.66349161
 31
0.0
  0
LINE
  5
13A
100
AcDbEntity
  8
SLD-0
  6
CONTINUOUS
 62
       3
100
AcDbLine
 10
48.08366535
 20
41.66349161
 30
0.0
 11
48.09430268
 21
41.73471057
 31
0.0
  0
LINE
  5
13B
100
AcDbEntity
  8
SLD-0
  6
CONTINUOUS
 62
       3
100
AcDbLine
 10
48.09430268
 20
41.73471057
 30
0.0
 11
48.10445424
 21
41.80193943
 31
0.0
  0
LINE
  5
13C
100
AcDbEntity
  8
SLD-0
  6
CONTINUOUS
 62
       3
100
AcDbLine
 10
48.10445424
 20
41.80193943
 30
0.0
 11
48.11410057
 21
41.86514208
 31
0.0
  0
LINE
  5
13D
100
AcDbEntity
  8
SLD-0
  6
CONTINUOUS
 62
       3
100
AcDbLine
 10
48.11410057
 20
41.86514208
 30
0.0
 11
48.1232222
 21
41.92428241
 31
0.0
  0
LINE
  5
13E
100
AcDbEntity
  8
SLD-0
  6
CONTINUOUS
 62
       3
100
AcDbLine
 10
48.1232222
 20
41.92428241
 30
0.0
 11
48.13179966
 21
41.97932429
 31
0.0
  0
ENDBLK
  5
13F
100
AcDbEntity
  8
0
100
AcDbBlockEnd
  0
BLOCK
  5
140
100
AcDbEntity
  8
0
100
AcDbBlockBegin
  2
GROUP_7
 70
       0
 10
0.0
 20
0.0
 30
0.0
  3
GROUP_7
  1

  0
LINE
  5
141
100
AcDbEntity
  8
SLD-0
  6
CONTINUOUS
 62
       3
100
AcDbLine
 10
48.19644247
 20
40.26430211
 30
0.0
 11
48.1854708
 21
40.26965333
 31
0.0
  0
LINE
  5
142
100
AcDbEntity
  8
SLD-0
  6
CONTINUOUS
 62
       3
100
AcDbLine
 10
48.1854708
 20
40.26965333
 30
0.0
 11
48.17453187
 21
40.27498858
 31
0.0
  0
LINE
  5
143
100
AcDbEntity
  8
SLD-0
  6
CONTINUOUS
 62
       3
100
AcDbLine
 10
48.17453187
 20
40.27498858
 30
0.0
 11
48.16363852
 21
40.2803016
 31
0.0
  0
LINE
  5
144
100
AcDbEntity
  8
SLD-0
  6
CONTINUOUS
 62
       3
100
AcDbLine
 10
48.16363852
 20
40.2803016
 30
0.0
 11
48.15280362
 21
40.28558611
 31
0.0
  0
LINE
  5
145
100
AcDbEntity
  8
SLD-0
  6
CONTINUOUS
 62
       3
100
AcDbLine
 10
48.15280362
 20
40.28558611
 30
0.0
 11
48.14204
 21
40.29083585
 31
0.0
  0
LINE
  5
146
100
AcDbEntity
  8
SLD-0
  6
CONTINUOUS
 62
       3
100
AcDbLine
 10
48.14204
 20
40.29083585
 30
0.0
 11
48.13136052
 21
40.29604456
 31
0.0
  0
LINE
  5
147
100
AcDbEntity
  8
SLD-0
  6
CONTINUOUS
 62
       3
100
AcDbLine
 10
48.13136052
 20
40.29604456
 30
0.0
 11
48.12077802
 21
40.30120596
 31
0.0
  0
LINE
  5
148
100
AcDbEntity
  8
SLD-0
  6
CONTINUOUS
 62
       3
100
AcDbLine
 10
48.12077802
 20
40.30120596
 30
0.0
 11
48.11030536
 21
40.3063138
 31
0.0
  0
LINE
  5
149
100
AcDbEntity
  8
SLD-0
  6
CONTINUOUS
 62
       3
100
AcDbLine
 10
48.11030536
 20
40.3063138
 30
0.0
 11
48.09995538
 21
40.3113618
 31
0.0
  0
LINE
  5
14A
100
AcDbEntity
  8
SLD-0
  6
CONTINUOUS
 62
       3
100
AcDbLine
 10
48.09995538
 20
40.3113618
 30
0.0
 11
48.08974092
 21
40.3163437
 31
0.0
  0
LINE
  5
14B
100
AcDbEntity
  8
SLD-0
  6
CONTINUOUS
 62
       3
100
AcDbLine
 10
48.08974092
 20
40.3163437
 30
0.0
 11
48.07967485
 21
40.32125323
 31
0.0
  0
LINE
  5
14C
100
AcDbEntity
  8
SLD-0
  6
CONTINUOUS
 62
       3
100
AcDbLine
 10
48.07967485
 20
40.32125323
 30
0.0
 11
48.06977
 21
40.32608413
 31
0.0
  0
LINE
  5
14D
100
AcDbEntity
  8
SLD-0
  6
CONTINUOUS
 62
       3
100
AcDbLine
 10
48.06977
 20
40.32608413
 30
0.0
 11
48.06003923
 21
40.33083012
 31
0.0
  0
LINE
  5
14E
100
AcDbEntity
  8
SLD-0
  6
CONTINUOUS
 62
       3
100
AcDbLine
 10
48.06003923
 20
40.33083012
 30
0.0
 11
48.05049539
 21
40.33548494
 31
0.0
  0
LINE
  5
14F
100
AcDbEntity
  8
SLD-0
  6
CONTINUOUS
 62
       3
100
AcDbLine
 10
48.05049539
 20
40.33548494
 30
0.0
 11
48.04115131
 21
40.34004233
 31
0.0
  0
LINE
  5
150
100
AcDbEntity
  8
SLD-0
  6
CONTINUOUS
 62
       3
100
AcDbLine
 10
48.04115131
 20
40.34004233
 30
0.0
 11
48.03201986
 21
40.34449602
 31
0.0
  0
LINE
  5
151
100
AcDbEntity
  8
SLD-0
  6
CONTINUOUS
 62
       3
100
AcDbLine
 10
48.03201986
 20
40.34449602
 30
0.0
 11
48.02311388
 21
40.34883973
 31
0.0
  0
LINE
  5
152
100
AcDbEntity
  8
SLD-0
  6
CONTINUOUS
 62
       3
100
AcDbLine
 10
48.02311388
 20
40.34883973
 30
0.0
 11
48.01444622
 21
40.35306722
 31
0.0
  0
LINE
  5
153
100
AcDbEntity
  8
SLD-0
  6
CONTINUOUS
 62
       3
100
AcDbLine
 10
48.01444622
 20
40.35306722
 30
0.0
 11
48.00602973
 21
40.3571722
 31
0.0
  0
LINE
  5
154
100
AcDbEntity
  8
SLD-0
  6
CONTINUOUS
 62
       3
100
AcDbLine
 10
48.00602973
 20
40.3571722
 30
0.0
 11
47.99787725
 21
40.36114841
 31
0.0
  0
ENDBLK
  5
155
100
AcDbEntity
  8
0
100
AcDbBlockEnd
  0
BLOCK
  5
156
100
AcDbEntity
  8
0
100
AcDbBlockBegin
  2
GROUP_8
 70
       0
 10
0.0
 20
0.0
 30
0.0
  3
GROUP_8
  1

  0
LINE
  5
157
100
AcDbEntity
  8
SLD-0
  6
CONTINUOUS
 62
       3
100
AcDbLine
 10
47.99787725
 20
40.36114841
 30
0.0
 11
47.99084323
 21
40.36457913
 31
0.0
  0
LINE
  5
158
100
AcDbEntity
  8
SLD-0
  6
CONTINUOUS
 62
       3
100
AcDbLine
 10
47.99084323
 20
40.36457913
 30
0.0
 11
47.98399213
 21
40.36792063
 31
0.0
  0
LINE
  5
159
100
AcDbEntity
  8
SLD-0
  6
CONTINUOUS
 62
       3
100
AcDbLine
 10
47.98399213
 20
40.36792063
 30
0.0
 11
47.97732398
 21
40.37117291
 31
0.0
  0
LINE
  5
15A
100
AcDbEntity
  8
SLD-0
  6
CONTINUOUS
 62
       3
100
AcDbLine
 10
47.97732398
 20
40.37117291
 30
0.0
 11
47.97083875
 21
40.37433596
 31
0.0
  0
LINE
  5
15B
100
AcDbEntity
  8
SLD-0
  6
CONTINUOUS
 62
       3
100
AcDbLine
 10
47.97083875
 20
40.37433596
 30
0.0
 11
47.96453646
 21
40.3774098
 31
0.0
  0
LINE
  5
15C
100
AcDbEntity
  8
SLD-0
  6
CONTINUOUS
 62
       3
100
AcDbLine
 10
47.96453646
 20
40.3774098
 30
0.0
 11
47.9584171
 21
40.38039441
 31
0.0
  0
LINE
  5
15D
100
AcDbEntity
  8
SLD-0
  6
CONTINUOUS
 62
       3
100
AcDbLine
 10
47.9584171
 20
40.38039441
 30
0.0
 11
47.95248068
 21
40.38328979
 31
0.0
  0
LINE
  5
15E
100
AcDbEntity
  8
SLD-0
  6
CONTINUOUS
 62
       3
100
AcDbLine
 10
47.95248068
 20
40.38328979
 30
0.0
 11
47.94672719
 21
40.38609596
 31
0.0
  0
LINE
  5
15F
100
AcDbEntity
  8
SLD-0
  6
CONTINUOUS
 62
       3
100
AcDbLine
 10
47.94672719
 20
40.38609596
 30
0.0
 11
47.94115664
 21
40.3888129
 31
0.0
  0
LINE
  5
160
100
AcDbEntity
  8
SLD-0
  6
CONTINUOUS
 62
       3
100
AcDbLine
 10
47.94115664
 20
40.3888129
 30
0.0
 11
47.93576901
 21
40.39144062
 31
0.0
  0
LINE
  5
161
100
AcDbEntity
  8
SLD-0
  6
CONTINUOUS
 62
       3
100
AcDbLine
 10
47.93576901
 20
40.39144062
 30
0.0
 11
47.93056433
 21
40.39397911
 31
0.0
  0
LINE
  5
162
100
AcDbEntity
  8
SLD-0
  6
CONTINUOUS
 62
       3
100
AcDbLine
 10
47.93056433
 20
40.39397911
 30
0.0
 11
47.92554257
 21
40.39642839
 31
0.0
  0
LINE
  5
163
100
AcDbEntity
  8
SLD-0
  6
CONTINUOUS
 62
       3
100
AcDbLine
 10
47.92554257
 20
40.39642839
 30
0.0
 11
47.92070375
 21
40.39878844
 31
0.0
  0
LINE
  5
164
100
AcDbEntity
  8
SLD-0
  6
CONTINUOUS
 62
       3
100
AcDbLine
 10
47.92070375
 20
40.39878844
 30
0.0
 11
47.91604786
 21
40.40105927
 31
0.0
  0
LINE
  5
165
100
AcDbEntity
  8
SLD-0
  6
CONTINUOUS
 62
       3
100
AcDbLine
 10
47.91604786
 20
40.40105927
 30
0.0
 11
47.91157491
 21
40.40324087
 31
0.0
  0
ENDBLK
  5
166
100
AcDbEntity
  8
0
100
AcDbBlockEnd
  0
BLOCK
  5
167
100
AcDbEntity
  8
0
100
AcDbBlockBegin
  2
GROUP_9
 70
       0
 10
0.0
 20
0.0
 30
0.0
  3
GROUP_9
  1

  0
LINE
  5
168
100
AcDbEntity
  8
SLD-0
  6
CONTINUOUS
 62
       3
100
AcDbLine
 10
47.91157491
 20
40.40324087
 30
0.0
 11
47.92172859
 21
40.48349063
 31
0.0
  0
LINE
  5
169
100
AcDbEntity
  8
SLD-0
  6
CONTINUOUS
 62
       3
100
AcDbLine
 10
47.92172859
 20
40.48349063
 30
0.0
 11
47.93197058
 21
40.56372904
 31
0.0
  0
LINE
  5
16A
100
AcDbEntity
  8
SLD-0
  6
CONTINUOUS
 62
       3
100
AcDbLine
 10
47.93197058
 20
40.56372904
 30
0.0
 11
47.9423048
 21
40.64395544
 31
0.0
  0
LINE
  5
16B
100
AcDbEntity
  8
SLD-0
  6
CONTINUOUS
 62
       3
100
AcDbLine
 10
47.9423048
 20
40.64395544
 30
0.0
 11
47.95273515
 21
40.72416914
 31
0.0
  0
LINE
  5
16C
100
AcDbEntity
  8
SLD-0
  6
CONTINUOUS
 62
       3
100
AcDbLine
 10
47.95273515
 20
40.72416914
 30
0.0
 11
47.96326554
 21
40.80436948
 31
0.0
  0
LINE
  5
16D
100
AcDbEntity
  8
SLD-0
  6
CONTINUOUS
 62
       3
100
AcDbLine
 10
47.96326554
 20
40.80436948
 30
0.0
 11
47.97389986
 21
40.88455578
 31
0.0
  0
LINE
  5
16E
100
AcDbEntity
  8
SLD-0
  6
CONTINUOUS
 62
       3
100
AcDbLine
 10
47.97389986
 20
40.88455578
 30
0.0
 11
47.98464202
 21
40.96472737
 31
0.0
  0
LINE
  5
16F
100
AcDbEntity
  8
SLD-0
  6
CONTINUOUS
 62
       3
100
AcDbLine
 10
47.98464202
 20
40.96472737
 30
0.0
 11
47.99549592
 21
41.04488358
 31
0.0
  0
LINE
  5
170
100
AcDbEntity
  8
SLD-0
  6
CONTINUOUS
 62
       3
100
AcDbLine
 10
47.99549592
 20
41.04488358
 30
0.0
 11
48.00646548
 21
41.12502372
 31
0.0
  0
LINE
  5
171
100
AcDbEntity
  8
SLD-0
  6
CONTINUOUS
 62
       3
100
AcDbLine
 10
48.00646548
 20
41.12502372
 30
0.0
 11
48.01755458
 21
41.20514715
 31
0.0
  0
LINE
  5
172
100
AcDbEntity
  8
SLD-0
  6
CONTINUOUS
 62
       3
100
AcDbLine
 10
48.01755458
 20
41.20514715
 30
0.0
 11
48.02876714
 21
41.28525316
 31
0.0
  0
LINE
  5
173
100
AcDbEntity
  8
SLD-0
  6
CONTINUOUS
 62
       3
100
AcDbLine
 10
48.02876714
 20
41.28525316
 30
0.0
 11
48.04010707
 21
41.36534111
 31
0.0
  0
LINE
  5
174
100
AcDbEntity
  8
SLD-0
  6
CONTINUOUS
 62
       3
100
AcDbLine
 10
48.04010707
 20
41.36534111
 30
0.0
 11
48.05157825
 21
41.4454103
 31
0.0
  0
LINE
  5
175
100
AcDbEntity
  8
SLD-0
  6
CONTINUOUS
 62
       3
100
AcDbLine
 10
48.05157825
 20
41.4454103
 30
0.0
 11
48.0631846
 21
41.52546007
 31
0.0
  0
LINE
  5
176
100
AcDbEntity
  8
SLD-0
  6
CONTINUOUS
 62
       3
100
AcDbLine
 10
48.0631846
 20
41.52546007
 30
0.0
 11
48.07493003
 21
41.60548975
 31
0.0
  0
LINE
  5
177
100
AcDbEntity
  8
SLD-0
  6
CONTINUOUS
 62
       3
100
AcDbLine
 10
48.07493003
 20
41.60548975
 30
0.0
 11
48.08681842
 21
41.68549867
 31
0.0
  0
LINE
  5
178
100
AcDbEntity
  8
SLD-0
  6
CONTINUOUS
 62
       3
100
AcDbLine
 10
48.08681842
 20
41.68549867
 30
0.0
 11
48.0988537
 21
41.76548614
 31
0.0
  0
LINE
  5
179
100
AcDbEntity
  8
SLD-0
  6
CONTINUOUS
 62
       3
100
AcDbLine
 10
48.0988537
 20
41.76548614
 30
0.0
 11
48.11103976
 21
41.8454515
 31
0.0
  0
LINE
  5
17A
100
AcDbEntity
  8
SLD-0
  6
CONTINUOUS
 62
       3
100
AcDbLine
 10
48.11103976
 20
41.8454515
 30
0.0
 11
48.12338051
 21
41.92539408
 31
0.0
  0
LINE
  5
17B
100
AcDbEntity
  8
SLD-0
  6
CONTINUOUS
 62
       3
100
AcDbLine
 10
48.12338051
 20
41.92539408
 30
0.0
 11
48.13587984
 21
42.0053132
 31
0.0
  0
ENDBLK
  5
17C
100
AcDbEntity
  8
0
100
AcDbBlockEnd
  0
ENDSEC
  0
SECTION
  2
ENTITIES
  0
LINE
  5
17D
100
AcDbEntity
  8
SLD-0
  6
CONTINUOUS
 62
       3
100
AcDbLine
 10
15.22499892
 20
16.93600319
 30
0.0
 11
-79.77500105
 21
16.93600319
 31
0.0
  0
LINE
  5
17E
100
AcDbEntity
  8
SLD-0
  6
CONTINUOUS
 62
       3
100
AcDbLine
 10
48.4233819
 20
43.77203693
 30
0.0
 11
99.77500182
 21
43.77203693
 31
0.0
  0
LINE
  5
17F
100
AcDbEntity
  8
SLD-0
  6
CONTINUOUS
 62
       3
100
AcDbLine
 10
70.14848903
 20
-6.22796003
 30
0.0
 11
99.14848903
 21
-6.22796003
 31
0.0
  0
LINE
  5
180
100
AcDbEntity
  8
SLD-0
  6
CONTINUOUS
 62
       3
100
AcDbLine
 10
69.64848905
 20
16.93600319
 30
0.0
 11
69.64848905
 21
-5.72796003
 31
0.0
  0
LINE
  5
181
100
AcDbEntity
  8
SLD-0
  6
CONTINUOUS
 62
       3
100
AcDbLine
 10
48.12598773
 20
18.54859167
 30
0.0
 11
48.11869678
 21
18.54859167
 31
0.0
  0
LINE
  5
182
100
AcDbEntity
  8
SLD-0
  6
CONTINUOUS
 62
       3
100
AcDbLine
 10
15.22499903
 20
20.45903094
 30
0.0
 11
-79.77500115
 21
20.45903094
 31
0.0
  0
LINE
  5
183
100
AcDbEntity
  8
SLD-0
  6
CONTINUOUS
 62
       3
100
AcDbLine
 10
15.2249996
 20
40.14095361
 30
0.0
 11
-79.77500172
 21
40.14095361
 31
0.0
  0
LINE
  5
184
100
AcDbEntity
  8
SLD-0
  6
CONTINUOUS
 62
       3
100
AcDbLine
 10
15.22499933
 20
30.83202204
 30
0.0
 11
-79.77500145
 21
30.83203622
 31
0.0
  0
LINE
  5
185
100
AcDbEntity
  8
SLD-0
  6
CONTINUOUS
 62
       3
100
AcDbLine
 10
15.22499952
 20
37.43205818
 30
0.0
 11
-79.77500165
 21
37.43204205
 31
0.0
  0
LINE
  5
186
100
AcDbEntity
  8
SLD-0
  6
CONTINUOUS
 62
       3
100
AcDbLine
 10
14.72499969
 20
43.77203819
 30
0.0
 11
-79.27500182
 21
43.77203819
 31
0.0
  0
LINE
  5
187
100
AcDbEntity
  8
SLD-0
  6
CONTINUOUS
 62
       3
100
AcDbLine
 10
-79.7750004
 20
-5.7279606
 30
0.0
 11
-79.77500182
 21
43.27203818
 31
0.0
  0
LINE
  5
188
100
AcDbEntity
  8
SLD-0
  6
CONTINUOUS
 62
       3
100
AcDbLine
 10
15.22499969
 20
43.27203818
 30
0.0
 11
15.22499827
 21
-5.72796054
 31
0.0
  0
LINE
  5
189
100
AcDbEntity
  8
SLD-0
  6
CONTINUOUS
 62
       3
100
AcDbLine
 10
14.72499827
 20
-6.22796053
 30
0.0
 11
-79.2750004
 21
-6.22796059
 31
0.0
  0
LINE
  5
18A
100
AcDbEntity
  8
SLD-0
  6
CONTINUOUS
 62
       3
100
AcDbLine
 10
-25.37500107
 20
-6.27775371
 30
0.0
 11
-25.37500107
 21
-6.22796021
 31
0.0
  0
LINE
  5
18B
100
AcDbEntity
  8
SLD-0
  6
CONTINUOUS
 62
       3
100
AcDbLine
 10
-39.17500107
 20
-6.27775371
 30
0.0
 11
-39.17500107
 21
-6.22796021
 31
0.0
  0
LINE
  5
18C
100
AcDbEntity
  8
SLD-0
  6
CONTINUOUS
 62
       3
100
AcDbLine
 10
-40.67500107
 20
-7.22796085
 30
0.0
 11
-40.67500077
 21
-6.22796021
 31
0.0
  0
LINE
  5
18D
100
AcDbEntity
  8
SLD-0
  6
CONTINUOUS
 62
       3
100
AcDbLine
 10
-23.87500107
 20
-7.22796085
 30
0.0
 11
-23.87500137
 21
-6.22796021
 31
0.0
  0
LINE
  5
18E
100
AcDbEntity
  8
SLD-0
  6
CONTINUOUS
 62
       3
100
AcDbLine
 10
96.54848929
 20
-9.2279607
 30
0.0
 11
99.14848935
 21
-9.2279607
 31
0.0
  0
LINE
  5
18F
100
AcDbEntity
  8
SLD-0
  6
CONTINUOUS
 62
       3
100
AcDbLine
 10
47.57925987
 20
37.30168499
 30
0.0
 11
47.64518771
 21
37.30398748
 31
0.0
  0
LINE
  5
190
100
AcDbEntity
  8
SLD-0
  6
CONTINUOUS
 62
       3
100
AcDbLine
 10
47.35170933
 20
30.97033925
 30
0.0
 11
47.27686928
 21
30.97295303
 31
0.0
  0
LINE
  5
191
100
AcDbEntity
  8
SLD-0
  6
CONTINUOUS
 62
       3
100
AcDbLine
 10
47.87905
 20
40.14095361
 30
0.0
 11
47.8730249
 21
40.09145659
 31
0.0
  0
LINE
  5
192
100
AcDbEntity
  8
SLD-0
  6
CONTINUOUS
 62
       3
100
AcDbLine
 10
83.04848931
 20
43.77203693
 30
0.0
 11
83.04848931
 21
-6.22796054
 31
0.0
  0
LINE
  5
193
100
AcDbEntity
  8
SLD-0
  6
CONTINUOUS
 62
       3
100
AcDbLine
 10
50.94848829
 20
21.17203926
 30
0.0
 11
50.94848829
 21
38.92203938
 31
0.0
  0
LINE
  5
194
100
AcDbEntity
  8
SLD-0
  6
CONTINUOUS
 62
       3
100
AcDbLine
 10
47.86011167
 20
20.45903094
 30
0.0
 11
50.94848829
 21
21.17203926
 31
0.0
  0
LINE
  5
195
100
AcDbEntity
  8
SLD-0
  6
CONTINUOUS
 62
       3
100
AcDbLine
 10
50.94848829
 20
38.92203938
 30
0.0
 11
48.19644247
 21
40.26430211
 31
0.0
  0
LINE
  5
196
100
AcDbEntity
  8
SLD-0
  6
CONTINUOUS
 62
       3
100
AcDbLine
 10
69.64848905
 20
16.93600319
 30
0.0
 11
49.58089323
 21
17.2862844
 31
0.0
  0
LINE
  5
197
100
AcDbEntity
  8
SLD-0
  6
CONTINUOUS
 62
       3
100
AcDbLine
 10
99.14848935
 20
-7.22796037
 30
0.0
 11
96.54848929
 21
-7.22796037
 31
0.0
  0
LINE
  5
198
100
AcDbEntity
  8
SLD-0
  6
CONTINUOUS
 62
       3
100
AcDbLine
 10
96.54848929
 20
-9.2279607
 30
0.0
 11
96.54848929
 21
-7.22796037
 31
0.0
  0
LINE
  5
199
100
AcDbEntity
  8
SLD-0
  6
CONTINUOUS
 62
       3
100
AcDbLine
 10
99.14848935
 20
-9.2279607
 30
0.0
 11
99.14848935
 21
-7.22796037
 31
0.0
  0
LINE
  5
19A
100
AcDbEntity
  8
SLD-0
  6
CONTINUOUS
 62
       3
100
AcDbLine
 10
96.54848929
 20
-7.22796037
 30
0.0
 11
96.54848929
 21
-6.22796021
 31
0.0
  0
LINE
  5
19B
100
AcDbEntity
  8
SLD-0
  6
CONTINUOUS
 62
       3
100
AcDbLine
 10
99.64848903
 20
1.48198237
 30
0.0
 11
96.67500172
 21
1.48198172
 31
0.0
  0
LINE
  5
19C
100
AcDbEntity
  8
SLD-0
  6
CONTINUOUS
 62
       3
100
AcDbLine
 10
97.77500231
 20
1.48198196
 30
0.0
 11
97.77500231
 21
2.98198282
 31
0.0
  0
LINE
  5
19D
100
AcDbEntity
  8
SLD-0
  6
CONTINUOUS
 62
       3
100
AcDbLine
 10
98.07500239
 20
2.98198282
 30
0.0
 11
97.77500231
 21
2.98198282
 31
0.0
  0
LINE
  5
19E
100
AcDbEntity
  8
SLD-0
  6
CONTINUOUS
 62
       3
100
AcDbLine
 10
99.27500239
 20
1.48198165
 30
0.0
 11
98.07500239
 21
2.98198282
 31
0.0
  0
LINE
  5
19F
100
AcDbEntity
  8
SLD-0
  6
CONTINUOUS
 62
       3
100
AcDbLine
 10
99.14848935
 20
-7.22796037
 30
0.0
 11
99.14848903
 21
-6.22796003
 31
0.0
  0
LINE
  5
1A0
100
AcDbEntity
  8
SLD-0
  6
CONTINUOUS
 62
       3
100
AcDbLine
 10
99.47500179
 20
37.03085683
 30
0.0
 11
96.67500172
 21
36.98198288
 31
0.0
  0
LINE
  5
1A1
100
AcDbEntity
  8
SLD-0
  6
CONTINUOUS
 62
       3
100
AcDbLine
 10
99.77500182
 20
43.77203693
 30
0.0
 11
99.77500182
 21
37.33090288
 31
0.0
  0
LINE
  5
1A2
100
AcDbEntity
  8
SLD-0
  6
CONTINUOUS
 62
       3
100
AcDbLine
 10
99.48023753
 20
37.03094787
 30
0.0
 11
99.47500179
 21
37.03085683
 31
0.0
  0
LINE
  5
1A3
100
AcDbEntity
  8
SLD-0
  6
CONTINUOUS
 62
       3
100
AcDbLine
 10
99.64848903
 20
1.48198237
 30
0.0
 11
99.64848903
 21
-5.72796003
 31
0.0
  0
LINE
  5
1A4
100
AcDbEntity
  8
SLD-0
  6
CONTINUOUS
 62
       3
100
AcDbLine
 10
96.67500172
 20
1.48198172
 30
0.0
 11
96.67500172
 21
36.98198288
 31
0.0
  0
LINE
  5
1A5
100
AcDbEntity
  8
SLD-0
  6
CONTINUOUS
 62
       3
100
AcDbLine
 10
97.77500182
 20
37.00118293
 30
0.0
 11
97.86417037
 21
35.98198263
 31
0.0
  0
LINE
  5
1A6
100
AcDbEntity
  8
SLD-0
  6
CONTINUOUS
 62
       3
100
AcDbLine
 10
98.19215925
 20
35.48198161
 30
0.0
 11
97.90791471
 21
35.48198161
 31
0.0
  0
LINE
  5
1A7
100
AcDbEntity
  8
SLD-0
  6
CONTINUOUS
 62
       3
100
AcDbLine
 10
97.90791471
 20
35.48198161
 30
0.0
 11
97.90725021
 21
35.48957748
 31
0.0
  0
LINE
  5
1A8
100
AcDbEntity
  8
SLD-0
  6
CONTINUOUS
 62
       3
100
AcDbLine
 10
97.90725021
 20
35.48957748
 30
0.0
 11
97.90527662
 21
35.51213597
 31
0.0
  0
LINE
  5
1A9
100
AcDbEntity
  8
SLD-0
  6
CONTINUOUS
 62
       3
100
AcDbLine
 10
97.90527662
 20
35.51213597
 30
0.0
 11
97.90205413
 21
35.54896978
 31
0.0
  0
LINE
  5
1AA
100
AcDbEntity
  8
SLD-0
  6
CONTINUOUS
 62
       3
100
AcDbLine
 10
97.90205413
 20
35.54896978
 30
0.0
 11
97.89768052
 21
35.59895945
 31
0.0
  0
LINE
  5
1AB
100
AcDbEntity
  8
SLD-0
  6
CONTINUOUS
 62
       3
100
AcDbLine
 10
97.89768052
 20
35.59895945
 30
0.0
 11
97.89228874
 21
35.66058879
 31
0.0
  0
LINE
  5
1AC
100
AcDbEntity
  8
SLD-0
  6
CONTINUOUS
 62
       3
100
AcDbLine
 10
97.89228874
 20
35.66058879
 30
0.0
 11
97.8860426
 21
35.73198212
 31
0.0
  0
LINE
  5
1AD
100
AcDbEntity
  8
SLD-0
  6
CONTINUOUS
 62
       3
100
AcDbLine
 10
97.8860426
 20
35.73198212
 30
0.0
 11
97.87913183
 21
35.81097131
 31
0.0
  0
LINE
  5
1AE
100
AcDbEntity
  8
SLD-0
  6
CONTINUOUS
 62
       3
100
AcDbLine
 10
97.87913183
 20
35.81097131
 30
0.0
 11
97.87176659
 21
35.89515728
 31
0.0
  0
LINE
  5
1AF
100
AcDbEntity
  8
SLD-0
  6
CONTINUOUS
 62
       3
100
AcDbLine
 10
97.87176659
 20
35.89515728
 30
0.0
 11
97.86417037
 21
35.98198263
 31
0.0
  0
LINE
  5
1B0
100
AcDbEntity
  8
SLD-0
  6
CONTINUOUS
 62
       3
100
AcDbLine
 10
98.63358051
 20
35.84056135
 30
0.0
 11
98.58148605
 21
35.78846689
 31
0.0
  0
LINE
  5
1B1
100
AcDbEntity
  8
SLD-0
  6
CONTINUOUS
 62
       3
100
AcDbLine
 10
98.58148605
 20
35.78846689
 30
0.0
 11
98.53097449
 21
35.73795568
 31
0.0
  0
LINE
  5
1B2
100
AcDbEntity
  8
SLD-0
  6
CONTINUOUS
 62
       3
100
AcDbLine
 10
98.53097449
 20
35.73795568
 30
0.0
 11
98.48358053
 21
35.69056068
 31
0.0
  0
LINE
  5
1B3
100
AcDbEntity
  8
SLD-0
  6
CONTINUOUS
 62
       3
100
AcDbLine
 10
98.48358053
 20
35.69056068
 30
0.0
 11
98.44074424
 21
35.64772543
 31
0.0
  0
LINE
  5
1B4
100
AcDbEntity
  8
SLD-0
  6
CONTINUOUS
 62
       3
100
AcDbLine
 10
98.44074424
 20
35.64772543
 30
0.0
 11
98.40376724
 21
35.61074819
 31
0.0
  0
LINE
  5
1B5
100
AcDbEntity
  8
SLD-0
  6
CONTINUOUS
 62
       3
100
AcDbLine
 10
98.40376724
 20
35.61074819
 30
0.0
 11
98.37377295
 21
35.58075402
 31
0.0
  0
LINE
  5
1B6
100
AcDbEntity
  8
SLD-0
  6
CONTINUOUS
 62
       3
100
AcDbLine
 10
98.37377295
 20
35.58075402
 30
0.0
 11
98.35167278
 21
35.55865373
 31
0.0
  0
LINE
  5
1B7
100
AcDbEntity
  8
SLD-0
  6
CONTINUOUS
 62
       3
100
AcDbLine
 10
98.35167278
 20
35.55865373
 30
0.0
 11
98.33813822
 21
35.54511789
 31
0.0
  0
LINE
  5
1B8
100
AcDbEntity
  8
SLD-0
  6
CONTINUOUS
 62
       3
100
AcDbLine
 10
98.33813822
 20
35.54511789
 30
0.0
 11
98.33358056
 21
35.54056
 31
0.0
  0
LINE
  5
1B9
100
AcDbEntity
  8
SLD-0
  6
CONTINUOUS
 62
       3
100
AcDbLine
 10
99.68713393
 20
36.89411443
 30
0.0
 11
98.63358051
 21
35.84056135
 31
0.0
  0
LINE
  5
1BA
100
AcDbEntity
  8
SLD-0
  6
CONTINUOUS
 62
       3
100
AcDbLine
 10
99.77500182
 20
37.33090288
 30
0.0
 11
99.77500182
 21
37.10624637
 31
0.0
  0
ARC
  5
1BB
100
AcDbEntity
  8
SLD-0
  6
CONTINUOUS
 62
       3
100
AcDbCircle
 10
99.14848903
 20
-5.72796003
 30
0.0
 40
0.5
100
AcDbArc
 50
270.0
 51
360.0
  0
ARC
  5
1BC
100
AcDbEntity
  8
SLD-0
  6
CONTINUOUS
 62
       3
100
AcDbCircle
 10
14.72499969
 20
43.27203819
 30
0.0
 40
0.5
100
AcDbArc
 50
359.99999834
 51
450.0
  0
ARC
  5
1BD
100
AcDbEntity
  8
SLD-0
  6
CONTINUOUS
 62
       3
100
AcDbCircle
 10
70.14848905
 20
-5.72796003
 30
0.0
 40
0.5
100
AcDbArc
 50
180.0
 51
269.99999771
  0
ARC
  5
1BE
100
AcDbEntity
  8
SLD-0
  6
CONTINUOUS
 62
       3
100
AcDbCircle
 10
14.72499827
 20
-5.72796053
 30
0.0
 40
0.5
100
AcDbArc
 50
270.0
 51
359.99999834
  0
ARC
  5
1BF
100
AcDbEntity
  8
SLD-0
  6
CONTINUOUS
 62
       3
100
AcDbCircle
 10
-32.27500107
 20
9.41203915
 30
0.0
 40
17.14
100
AcDbArc
 50
246.26124165
 51
293.73875835
  0
ARC
  5
1C0
100
AcDbEntity
  8
SLD-0
  6
CONTINUOUS
 62
       3
100
AcDbCircle
 10
-32.27500107
 20
9.41203915
 30
0.0
 40
18.64
100
AcDbArc
 50
243.21500449
 51
296.78499551
  0
ARC
  5
1C1
100
AcDbEntity
  8
SLD-0
  6
CONTINUOUS
 62
       3
100
AcDbCircle
 10
58.85108361
 20
33.59152036
 30
0.0
 40
11.86673216
100
AcDbArc
 50
161.78083874
 51
177.43765835
  0
ARC
  5
1C2
100
AcDbEntity
  8
SLD-0
  6
CONTINUOUS
 62
       3
100
AcDbCircle
 10
58.85108361
 20
33.59152036
 30
0.0
 40
11.86673216
100
AcDbArc
 50
177.43765835
 51
192.74806929
  0
ARC
  5
1C3
100
AcDbEntity
  8
SLD-0
  6
CONTINUOUS
 62
       3
100
AcDbCircle
 10
39.83499478
 20
34.49225765
 30
0.0
 40
8.30089816
100
AcDbArc
 50
333.83596459
 51
380.74148918
  0
ARC
  5
1C4
100
AcDbEntity
  8
SLD-0
  6
CONTINUOUS
 62
       3
100
AcDbCircle
 10
49.60707202
 20
18.78605593
 30
0.0
 40
1.49999999
100
AcDbArc
 50
189.10878765
 51
268.9999931
  0
ARC
  5
1C5
100
AcDbEntity
  8
SLD-0
  6
CONTINUOUS
 62
       3
100
AcDbCircle
 10
99.47500181
 20
37.33090218
 30
0.0
 40
0.3
100
AcDbArc
 50
270.99999963
 51
360.00013369
  0
ARC
  5
1C6
100
AcDbEntity
  8
SLD-0
  6
CONTINUOUS
 62
       3
100
AcDbCircle
 10
98.1921592
 20
35.68198225
 30
0.0
 40
0.20000063
100
AcDbArc
 50
270.00001432
 51
314.99981971
  0
ARC
  5
1C7
100
AcDbEntity
  8
SLD-0
  6
CONTINUOUS
 62
       3
100
AcDbCircle
 10
99.47500186
 20
37.10624637
 30
0.0
 40
0.29999996
100
AcDbArc
 50
315.00001756
 51
360.0
  0
ARC
  5
1C8
100
AcDbEntity
  8
SLD-0
  6
CONTINUOUS
 62
       3
100
AcDbCircle
 10
-79.27500182
 20
43.27203819
 30
0.0
 40
0.5
100
AcDbArc
 50
90.0
 51
180.00000166
  0
ARC
  5
1C9
100
AcDbEntity
  8
SLD-0
  6
CONTINUOUS
 62
       3
100
AcDbCircle
 10
-79.2750004
 20
-5.72796059
 30
0.0
 40
0.5
100
AcDbArc
 50
180.00000166
 51
270.0
  0
LINE
  5
1CA
100
AcDbEntity
  8
SLD-0
  6
PHANTOM
 62
       3
100
AcDbLine
 10
49.49849023
 20
7.07103789
 30
0.0
 11
50.69848953
 21
7.07103789
 31
0.0
  0
LINE
  5
1CB
100
AcDbEntity
  8
SLD-0
  6
PHANTOM
 62
       3
100
AcDbLine
 10
-61.02500181
 20
-2.58101378
 30
0.0
 11
-61.02500181
 21
16.42103825
 31
0.0
  0
LINE
  5
1CC
100
AcDbEntity
  8
SLD-0
  6
PHANTOM
 62
       3
100
AcDbLine
 10
9.97500051
 20
16.42103825
 30
0.0
 11
9.97500051
 21
-2.58101378
 31
0.0
  0
LINE
  5
1CD
100
AcDbEntity
  8
SLD-0
  6
PHANTOM
 62
       3
100
AcDbLine
 10
9.97500051
 20
-2.58101378
 30
0.0
 11
-61.02500181
 21
-2.58101378
 31
0.0
  0
LINE
  5
1CE
100
AcDbEntity
  8
SLD-0
  6
PHANTOM
 62
       3
100
AcDbLine
 10
-61.02500181
 20
16.42103825
 30
0.0
 11
9.97500051
 21
16.42103825
 31
0.0
  0
LINE
  5
1CF
100
AcDbEntity
  8
SLD-0
  6
PHANTOM
 62
       3
100
AcDbLine
 10
49.39071336
 20
-2.5769514
 30
0.0
 11
47.21578163
 21
-2.58101399
 31
0.0
  0
LINE
  5
1D0
100
AcDbEntity
  8
SLD-0
  6
PHANTOM
 62
       3
100
AcDbLine
 10
67.9984913
 20
5.871039
 30
0.0
 11
67.9984913
 21
-2.57896061
 31
0.0
  0
LINE
  5
1D1
100
AcDbEntity
  8
SLD-0
  6
PHANTOM
 62
       3
100
AcDbLine
 10
69.64848905
 20
5.871039
 30
0.0
 11
67.9984913
 21
5.871039
 31
0.0
  0
LINE
  5
1D2
100
AcDbEntity
  8
SLD-0
  6
PHANTOM
 62
       3
100
AcDbLine
 10
69.64848905
 20
-2.57896061
 30
0.0
 11
67.9984913
 21
-2.57896061
 31
0.0
  0
LINE
  5
1D3
100
AcDbEntity
  8
SLD-0
  6
PHANTOM
 62
       3
100
AcDbLine
 10
67.9984913
 20
5.871039
 30
0.0
 11
49.34569043
 21
5.87103847
 31
0.0
  0
LINE
  5
1D4
100
AcDbEntity
  8
SLD-0
  6
PHANTOM
 62
       3
100
AcDbLine
 10
50.69848953
 20
7.07103789
 30
0.0
 11
50.69849023
 21
5.871039
 31
0.0
  0
LINE
  5
1D5
100
AcDbEntity
  8
SLD-0
  6
PHANTOM
 62
       3
100
AcDbLine
 10
48.89848835
 20
11.7210385
 30
0.0
 11
48.89848977
 21
7.67103835
 31
0.0
  0
LINE
  5
1D6
100
AcDbEntity
  8
SLD-0
  6
PHANTOM
 62
       3
100
AcDbLine
 10
47.16929055
 20
13.12086569
 30
0.0
 11
48.89848835
 21
11.7210385
 31
0.0
  0
LINE
  5
1D7
100
AcDbEntity
  8
SLD-0
  6
PHANTOM
 62
       3
100
AcDbLine
 10
46.79848966
 20
15.92103816
 30
0.0
 11
46.79848938
 21
13.89811018
 31
0.0
  0
LINE
  5
1D8
100
AcDbEntity
  8
SLD-0
  6
PHANTOM
 62
       3
100
AcDbLine
 10
69.64848905
 20
16.42103803
 30
0.0
 11
47.29848952
 21
16.42103803
 31
0.0
  0
LINE
  5
1D9
100
AcDbEntity
  8
SLD-0
  6
PHANTOM
 62
       3
100
AcDbLine
 10
63.09849031
 20
5.871039
 30
0.0
 11
63.09848977
 21
-1.4789613
 31
0.0
  0
LINE
  5
1DA
100
AcDbEntity
  8
SLD-0
  6
PHANTOM
 62
       3
100
AcDbLine
 10
64.19848977
 20
-2.5789613
 30
0.0
 11
67.9984913
 21
-2.57896061
 31
0.0
  0
LINE
  5
1DB
100
AcDbEntity
  8
SLD-0
  6
PHANTOM
 62
       3
100
AcDbLine
 10
49.34569043
 20
5.87103847
 30
0.0
 11
49.39071336
 21
-2.5769514
 31
0.0
  0
LINE
  5
1DC
100
AcDbEntity
  8
SLD-0
  6
PHANTOM
 62
       3
100
AcDbLine
 10
69.64848905
 20
16.42478286
 30
0.0
 11
47.29848938
 21
16.42478286
 31
0.0
  0
ARC
  5
1DD
100
AcDbEntity
  8
SLD-0
  6
PHANTOM
 62
       3
100
AcDbCircle
 10
79.15149577
 20
6.2286461
 30
0.0
 40
33.5
100
AcDbArc
 50
167.88334717
 51
194.58452094
  0
ARC
  5
1DE
100
AcDbEntity
  8
SLD-0
  6
PHANTOM
 62
       3
100
AcDbCircle
 10
47.21484686
 20
-2.08101504
 30
0.0
 40
0.49999982
100
AcDbArc
 50
194.58452185
 51
270.10711685
  0
ARC
  5
1DF
100
AcDbEntity
  8
SLD-0
  6
PHANTOM
 62
       3
100
AcDbCircle
 10
79.15149577
 20
6.2286461
 30
0.0
 40
33.5
100
AcDbArc
 50
164.96363983
 51
167.88334717
  0
ARC
  5
1E0
100
AcDbEntity
  8
SLD-0
  6
PHANTOM
 62
       3
100
AcDbCircle
 10
49.49849023
 20
7.67103835
 30
0.0
 40
0.60000046
100
AcDbArc
 50
180.0
 51
270.0
  0
ARC
  5
1E1
100
AcDbEntity
  8
SLD-0
  6
PHANTOM
 62
       3
100
AcDbCircle
 10
47.79848962
 20
13.89811018
 30
0.0
 40
1.00000023
100
AcDbArc
 50
180.0
 51
231.00895477
  0
ARC
  5
1E2
100
AcDbEntity
  8
SLD-0
  6
PHANTOM
 62
       3
100
AcDbCircle
 10
47.29848952
 20
15.92103817
 30
0.0
 40
0.49999985
100
AcDbArc
 50
90.0
 51
180.00000115
  0
ARC
  5
1E3
100
AcDbEntity
  8
SLD-0
  6
PHANTOM
 62
       3
100
AcDbCircle
 10
64.19848977
 20
-1.4789613
 30
0.0
 40
1.1
100
AcDbArc
 50
180.0
 51
270.0
  0
ARC
  5
1E4
100
AcDbEntity
  8
SLD-0
  6
PHANTOM
 62
       3
100
AcDbCircle
 10
47.29848938
 20
15.92478286
 30
0.0
 40
0.5
100
AcDbArc
 50
90.0
 51
180.0
  0
LINE
  5
1E5
100
AcDbEntity
  8
SLD-0
  6
CENTERX2
 62
       3
100
AcDbLine
 10
21.00425925
 20
18.77203947
 30
0.0
 11
-90.99480166
 21
18.77203947
 31
0.0
  0
LINE
  5
1E6
100
AcDbEntity
  8
SLD-0
  6
CENTERX2
 62
       3
100
AcDbLine
 10
44.90141255
 20
18.77203997
 30
0.0
 11
99.14848903
 21
18.77203997
 31
0.0
  0
LINE
  5
1E7
100
AcDbEntity
  8
SLD-0
  6
CENTERX2
 62
       3
100
AcDbLine
 10
-32.27500015
 20
48.77927127
 30
0.0
 11
-32.27500204
 21
-16.48982875
 31
0.0
  0
LINE
  5
1E8
100
AcDbEntity
  8
SLD-0_0
  6
CONTINUOUS
 62
       3
100
AcDbLine
 10
-79.77500241
 20
39.77203219
 30
0.0
 11
-81.57849367
 21
39.80351276
 31
0.0
  0
LINE
  5
1E9
100
AcDbEntity
  8
SLD-0_0
  6
CONTINUOUS
 62
       3
100
AcDbLine
 10
-81.57849336
 20
41.24055369
 30
0.0
 11
-79.7750021
 21
41.27203425
 31
0.0
  0
LINE
  5
1EA
100
AcDbEntity
  8
SLD-0_0
  6
CONTINUOUS
 62
       3
100
AcDbLine
 10
-79.77500229
 20
18.9220326
 30
0.0
 11
-81.57849355
 21
18.95351264
 31
0.0
  0
LINE
  5
1EB
100
AcDbEntity
  8
SLD-0_0
  6
CONTINUOUS
 62
       3
100
AcDbLine
 10
-81.57849352
 20
20.39055353
 30
0.0
 11
-79.77500226
 21
20.42203351
 31
0.0
  0
LINE
  5
1EC
100
AcDbEntity
  8
SLD-0_0
  6
CONTINUOUS
 62
       3
100
AcDbLine
 10
-81.77500213
 20
40.94059861
 30
0.0
 11
-81.77500213
 21
41.04058354
 31
0.0
  0
LINE
  5
1ED
100
AcDbEntity
  8
SLD-0_0
  6
CONTINUOUS
 62
       3
100
AcDbLine
 10
-81.77500213
 20
19.25346741
 30
0.0
 11
-81.77500213
 21
20.09059876
 31
0.0
  0
LINE
  5
1EE
100
AcDbEntity
  8
SLD-0_0
  6
CONTINUOUS
 62
       3
100
AcDbLine
 10
-81.77500213
 20
40.10346814
 30
0.0
 11
-81.77500213
 21
40.94059861
 31
0.0
  0
LINE
  5
1EF
100
AcDbEntity
  8
SLD-0_0
  6
CONTINUOUS
 62
       3
100
AcDbLine
 10
-81.77500213
 20
19.15348266
 30
0.0
 11
-81.77500213
 21
19.25346741
 31
0.0
  0
LINE
  5
1F0
100
AcDbEntity
  8
SLD-0_0
  6
CONTINUOUS
 62
       3
100
AcDbLine
 10
-81.77500213
 20
20.09059876
 30
0.0
 11
-81.77500213
 21
20.19058345
 31
0.0
  0
LINE
  5
1F1
100
AcDbEntity
  8
SLD-0_0
  6
CONTINUOUS
 62
       3
100
AcDbLine
 10
-81.77500213
 20
40.00348321
 30
0.0
 11
-81.77500213
 21
40.10346814
 31
0.0
  0
LINE
  5
1F2
100
AcDbEntity
  8
SLD-0_0
  6
CONTINUOUS
 62
       3
100
AcDbLine
 10
-86.67499939
 20
30.42203284
 30
0.0
 11
-79.7750018
 21
30.42203284
 31
0.0
  0
LINE
  5
1F3
100
AcDbEntity
  8
SLD-0_0
  6
CONTINUOUS
 62
       3
100
AcDbLine
 10
-86.67499939
 20
30.42203284
 30
0.0
 11
-86.67499939
 21
31.6808522
 31
0.0
  0
LINE
  5
1F4
100
AcDbEntity
  8
SLD-0_0
  6
CONTINUOUS
 62
       3
100
AcDbLine
 10
-86.67499939
 20
31.6808522
 30
0.0
 11
-86.67499939
 21
35.18085277
 31
0.0
  0
LINE
  5
1F5
100
AcDbEntity
  8
SLD-0_0
  6
CONTINUOUS
 62
       3
100
AcDbLine
 10
-86.67499939
 20
35.92203281
 30
0.0
 11
-79.7750018
 21
35.92203281
 31
0.0
  0
LINE
  5
1F6
100
AcDbEntity
  8
SLD-0_0
  6
CONTINUOUS
 62
       3
100
AcDbLine
 10
-86.67499939
 20
35.18085277
 30
0.0
 11
-86.67499939
 21
35.92203281
 31
0.0
  0
LINE
  5
1F7
100
AcDbEntity
  8
SLD-0_0
  6
CONTINUOUS
 62
       3
100
AcDbLine
 10
-82.42500195
 20
40.47203346
 30
0.0
 11
-82.42500195
 21
38.72203364
 31
0.0
  0
LINE
  5
1F8
100
AcDbEntity
  8
SLD-0_0
  6
CONTINUOUS
 62
       3
100
AcDbLine
 10
-81.77500213
 20
40.47203346
 30
0.0
 11
-82.42500195
 21
40.47203346
 31
0.0
  0
LINE
  5
1F9
100
AcDbEntity
  8
SLD-0_0
  6
CONTINUOUS
 62
       3
100
AcDbLine
 10
-79.7750018
 20
38.72203364
 30
0.0
 11
-82.42500195
 21
38.72203364
 31
0.0
  0
LINE
  5
1FA
100
AcDbEntity
  8
SLD-0_0
  6
CONTINUOUS
 62
       3
100
AcDbLine
 10
-79.7750018
 20
-2.92796732
 30
0.0
 11
-82.42500195
 21
-2.92796732
 31
0.0
  0
LINE
  5
1FB
100
AcDbEntity
  8
SLD-0_0
  6
CONTINUOUS
 62
       3
100
AcDbLine
 10
-82.42500195
 20
-2.92796732
 30
0.0
 11
-82.42500195
 21
-1.1779675
 31
0.0
  0
LINE
  5
1FC
100
AcDbEntity
  8
SLD-0_0
  6
CONTINUOUS
 62
       3
100
AcDbLine
 10
-79.7750018
 20
-1.1779675
 30
0.0
 11
-82.42500195
 21
-1.1779675
 31
0.0
  0
LINE
  5
1FD
100
AcDbEntity
  8
SLD-0_0
  6
CONTINUOUS
 62
       3
100
AcDbLine
 10
-91.22500191
 20
39.27203364
 30
0.0
 11
-82.42500195
 21
39.27203364
 31
0.0
  0
LINE
  5
1FE
100
AcDbEntity
  8
SLD-0_0
  6
CONTINUOUS
 62
       3
100
AcDbLine
 10
-91.22500191
 20
40.57203329
 30
0.0
 11
-90.72500089
 21
41.07203244
 31
0.0
  0
LINE
  5
1FF
100
AcDbEntity
  8
SLD-0_0
  6
CONTINUOUS
 62
       3
100
AcDbLine
 10
-81.77500213
 20
41.02203346
 30
0.0
 11
-84.87500245
 21
41.02203346
 31
0.0
  0
LINE
  5
200
100
AcDbEntity
  8
SLD-0_0
  6
CONTINUOUS
 62
       3
100
AcDbLine
 10
-89.27500243
 20
41.07203244
 30
0.0
 11
-90.72500089
 21
41.07203244
 31
0.0
  0
LINE
  5
201
100
AcDbEntity
  8
SLD-0_0
  6
CONTINUOUS
 62
       3
100
AcDbLine
 10
-87.05827961
 20
43.02274718
 30
0.0
 11
-89.27500243
 21
41.07203244
 31
0.0
  0
LINE
  5
202
100
AcDbEntity
  8
SLD-0_0
  6
CONTINUOUS
 62
       3
100
AcDbLine
 10
-91.22500191
 20
40.57203329
 30
0.0
 11
-91.22500191
 21
39.27203364
 31
0.0
  0
LINE
  5
203
100
AcDbEntity
  8
SLD-0_0
  6
CONTINUOUS
 62
       3
100
AcDbLine
 10
-84.87500245
 20
41.02203346
 30
0.0
 11
-84.87500245
 21
43.27203243
 31
0.0
  0
LINE
  5
204
100
AcDbEntity
  8
SLD-0_0
  6
CONTINUOUS
 62
       3
100
AcDbLine
 10
-84.87500245
 20
43.27203243
 30
0.0
 11
-86.39765153
 21
43.27203243
 31
0.0
  0
LINE
  5
205
100
AcDbEntity
  8
SLD-0_0
  6
CONTINUOUS
 62
       3
100
AcDbLine
 10
-91.22500191
 20
-3.02796715
 30
0.0
 11
-90.72500089
 21
-3.5279663
 31
0.0
  0
LINE
  5
206
100
AcDbEntity
  8
SLD-0_0
  6
CONTINUOUS
 62
       3
100
AcDbLine
 10
-79.7750018
 20
-3.47796732
 30
0.0
 11
-84.87500245
 21
-3.47796732
 31
0.0
  0
LINE
  5
207
100
AcDbEntity
  8
SLD-0_0
  6
CONTINUOUS
 62
       3
100
AcDbLine
 10
-84.87500245
 20
-3.47796732
 30
0.0
 11
-84.87500245
 21
-5.72796629
 31
0.0
  0
LINE
  5
208
100
AcDbEntity
  8
SLD-0_0
  6
CONTINUOUS
 62
       3
100
AcDbLine
 10
-84.87500245
 20
-5.72796629
 30
0.0
 11
-86.39765153
 21
-5.72796629
 31
0.0
  0
LINE
  5
209
100
AcDbEntity
  8
SLD-0_0
  6
CONTINUOUS
 62
       3
100
AcDbLine
 10
-87.05827961
 20
-5.47868104
 30
0.0
 11
-89.27500243
 21
-3.5279663
 31
0.0
  0
LINE
  5
20A
100
AcDbEntity
  8
SLD-0_0
  6
CONTINUOUS
 62
       3
100
AcDbLine
 10
-89.27500243
 20
-3.5279663
 30
0.0
 11
-90.72500089
 21
-3.5279663
 31
0.0
  0
LINE
  5
20B
100
AcDbEntity
  8
SLD-0_0
  6
CONTINUOUS
 62
       3
100
AcDbLine
 10
-91.22500191
 20
-3.02796715
 30
0.0
 11
-91.22500191
 21
-1.7279675
 31
0.0
  0
LINE
  5
20C
100
AcDbEntity
  8
SLD-0_0
  6
CONTINUOUS
 62
       3
100
AcDbLine
 10
-91.22500191
 20
-1.7279675
 30
0.0
 11
-82.42500195
 21
-1.7279675
 31
0.0
  0
LINE
  5
20D
100
AcDbEntity
  8
SLD-0_0
  6
CONTINUOUS
 62
       3
100
AcDbLine
 10
-84.47500349
 20
25.97203304
 30
0.0
 11
-84.47500349
 21
25.97223933
 31
0.0
  0
LINE
  5
20E
100
AcDbEntity
  8
SLD-0_0
  6
CONTINUOUS
 62
       3
100
AcDbLine
 10
-84.47500115
 20
26.17203323
 30
0.0
 11
-79.7750018
 21
26.17203323
 31
0.0
  0
LINE
  5
20F
100
AcDbEntity
  8
SLD-0_0
  6
CONTINUOUS
 62
       3
100
AcDbLine
 10
-84.47500349
 20
11.57203329
 30
0.0
 11
-84.47500349
 21
25.97203304
 31
0.0
  0
LINE
  5
210
100
AcDbEntity
  8
SLD-0_0
  6
CONTINUOUS
 62
       3
100
AcDbLine
 10
-84.47500349
 20
11.571827
 30
0.0
 11
-84.47500349
 21
11.57203329
 31
0.0
  0
LINE
  5
211
100
AcDbEntity
  8
SLD-0_0
  6
CONTINUOUS
 62
       3
100
AcDbLine
 10
-79.7750018
 20
11.3720331
 30
0.0
 11
-84.47500115
 21
11.3720331
 31
0.0
  0
LINE
  5
212
100
AcDbEntity
  8
SLD-0_0
  6
CONTINUOUS
 62
       3
100
AcDbLine
 10
-85.98408098
 20
26.10343856
 30
0.0
 11
-84.47500115
 21
26.17203323
 31
0.0
  0
LINE
  5
213
100
AcDbEntity
  8
SLD-0_0
  6
CONTINUOUS
 62
       3
100
AcDbLine
 10
-84.47500115
 20
11.3720331
 30
0.0
 11
-85.98408098
 21
11.44062777
 31
0.0
  0
LINE
  5
214
100
AcDbEntity
  8
SLD-0_0
  6
CONTINUOUS
 62
       3
100
AcDbLine
 10
-86.17500152
 20
11.64042216
 30
0.0
 11
-86.17500057
 21
25.9036453
 31
0.0
  0
ARC
  5
215
100
AcDbEntity
  8
SLD-0_0
  6
CONTINUOUS
 62
       3
100
AcDbCircle
 10
-81.57500144
 20
41.04058349
 30
0.0
 40
0.20000069
100
AcDbArc
 50
91.00040858
 51
179.99998485
  0
ARC
  5
216
100
AcDbEntity
  8
SLD-0_0
  6
CONTINUOUS
 62
       3
100
AcDbCircle
 10
-81.57500163
 20
19.15348265
 30
0.0
 40
0.2000005
100
AcDbArc
 50
179.99999877
 51
268.99958954
  0
ARC
  5
217
100
AcDbEntity
  8
SLD-0_0
  6
CONTINUOUS
 62
       3
100
AcDbCircle
 10
-81.5750016
 20
20.19058349
 30
0.0
 40
0.20000053
100
AcDbArc
 50
91.00041018
 51
180.00001008
  0
ARC
  5
218
100
AcDbEntity
  8
SLD-0_0
  6
CONTINUOUS
 62
       3
100
AcDbCircle
 10
-81.57500175
 20
40.00348265
 30
0.0
 40
0.20000038
100
AcDbArc
 50
179.99984015
 51
268.99958837
  0
ARC
  5
219
100
AcDbEntity
  8
SLD-0_0
  6
CONTINUOUS
 62
       3
100
AcDbCircle
 10
-86.39765335
 20
42.27203307
 30
0.0
 40
0.99999936
100
AcDbArc
 50
89.99989569
 51
131.34768451
  0
ARC
  5
21A
100
AcDbEntity
  8
SLD-0_0
  6
CONTINUOUS
 62
       3
100
AcDbCircle
 10
-86.39765335
 20
-4.72796693
 30
0.0
 40
0.99999936
100
AcDbArc
 50
228.6523155
 51
270.00010431
  0
ARC
  5
21B
100
AcDbEntity
  8
SLD-0_0
  6
CONTINUOUS
 62
       3
100
AcDbCircle
 10
-85.97500065
 20
25.90364487
 30
0.0
 40
0.19999992
100
AcDbArc
 50
92.6022179
 51
179.99987683
  0
ARC
  5
21C
100
AcDbEntity
  8
SLD-0_0
  6
CONTINUOUS
 62
       3
100
AcDbCircle
 10
-85.97500113
 20
11.64042195
 30
0.0
 40
0.2000004
100
AcDbArc
 50
179.99993864
 51
267.39792504
  0
ARC
  5
21D
100
AcDbEntity
  8
SLD-0_0
  6
CONTINUOUS
 62
       3
100
AcDbCircle
 10
-82.27500115
 20
43.07203307
 30
0.0
 40
4.25
100
AcDbArc
 50
243.39531831
 51
268.66724374
  0
ARC
  5
21E
100
AcDbEntity
  8
SLD-0_0
  6
CONTINUOUS
 62
       3
100
AcDbCircle
 10
-82.27500115
 20
-5.52796693
 30
0.0
 40
4.25
100
AcDbArc
 50
91.33275626
 51
116.60468169
  0
ELLIPSE
  5
21F
100
AcDbEntity
  8
SLD-0_0
  6
CONTINUOUS
 62
       3
100
AcDbEllipse
 10
-84.47045804
 20
25.97203325
 30
0.0
 11
-0.0045431085054872
 21
0.1999999734296694
 31
0.0
210
0.0
220
0.0
230
1.0
 40
0.02269214
 41
0.0
 42
1.5692505042505187
  0
ELLIPSE
  5
220
100
AcDbEntity
  8
SLD-0_0
  6
CONTINUOUS
 62
       3
100
AcDbEllipse
 10
-84.47045804
 20
11.57203307
 30
0.0
 11
0.004543108505473
 21
0.1999999734296836
 31
0.0
210
0.0
220
0.0
230
1.0
 40
0.02269214
 41
1.5723421498388575
 42
3.1415926535710006
  0
INSERT
  5
221
100
AcDbEntity
  8
0
  6
CONTINUOUS
100
AcDbBlockReference
  2
GROUP_1
 10
0.0
 20
0.0
 30
0.0
  0
INSERT
  5
222
100
AcDbEntity
  8
0
  6
CONTINUOUS
100
AcDbBlockReference
  2
GROUP_2
 10
0.0
 20
0.0
 30
0.0
  0
INSERT
  5
223
100
AcDbEntity
  8
0
  6
CONTINUOUS
100
AcDbBlockReference
  2
GROUP_3
 10
0.0
 20
0.0
 30
0.0
  0
INSERT
  5
224
100
AcDbEntity
  8
0
  6
CONTINUOUS
100
AcDbBlockReference
  2
GROUP_4
 10
0.0
 20
0.0
 30
0.0
  0
INSERT
  5
225
100
AcDbEntity
  8
0
  6
CONTINUOUS
100
AcDbBlockReference
  2
GROUP_5
 10
0.0
 20
0.0
 30
0.0
  0
INSERT
  5
226
100
AcDbEntity
  8
0
  6
CONTINUOUS
100
AcDbBlockReference
  2
GROUP_6
 10
0.0
 20
0.0
 30
0.0
  0
INSERT
  5
227
100
AcDbEntity
  8
0
  6
CONTINUOUS
100
AcDbBlockReference
  2
GROUP_7
 10
0.0
 20
0.0
 30
0.0
  0
INSERT
  5
228
100
AcDbEntity
  8
0
  6
CONTINUOUS
100
AcDbBlockReference
  2
GROUP_8
 10
0.0
 20
0.0
 30
0.0
  0
INSERT
  5
229
100
AcDbEntity
  8
0
  6
CONTINUOUS
100
AcDbBlockReference
  2
GROUP_9
 10
0.0
 20
0.0
 30
0.0
  0
TEXT
  5
22A
100
AcDbEntity
  8
SLD-0_0
 62
       7
100
AcDbText
 10
61.73841946
 20
-51.27927127
 30
0.0
 40
5.0
  1
000
 72
       5
 11
76.73841946
 21
-51.27927127
 31
0.0
100
AcDbText
  0
ENDSEC
  0
SECTION
  2
OBJECTS
  0
DICTIONARY
  5
19
100
AcDbDictionary
  3
ACAD_GROUP
350
1A
  3
ACAD_MLINESTYLE
350
1B
  0
DICTIONARY
  5
1A
102
{ACAD_REACTORS
330
19
102
}
100
AcDbDictionary
  0
DICTIONARY
  5
1B
102
{ACAD_REACTORS
330
19
102
}
100
AcDbDictionary
  3
STANDARD
350
1C
  0
MLINESTYLE
  5
1C
102
{ACAD_REACTORS
330
1B
102
}
100
AcDbMlineStyle
  2
STANDARD
 70
       0
  3

 62
       0
 51
90.0
 52
90.0
 71
       2
 49
0.5
 62
     256
  6
BYLAYER
 49
-0.5
 62
     256
  6
BYLAYER
  0
ENDSEC
  0
EOF
