  0
SECTION
  2
HEADER
  9
$ACADVER
  1
AC1014
  9
$ACADMAINTVER
 70
       0
  9
$DWGCODEPAGE
  3
ANSI_932
  9
$INSBASE
 10
0.0
 20
0.0
 30
0.0
  9
$EXTMIN
 10
-84.24000193
 20
-47.36028575
 30
0.0
  9
$EXTMAX
 10
84.24000193
 20
44.86028575
 30
0.0
  9
$LIMMIN
 10
-89.50500206
 20
-50.24217861
  9
$LIMMAX
 10
89.50500206
 20
47.74217861
  9
$ORTHOMODE
 70
       0
  9
$REGENMODE
 70
       1
  9
$FILLMODE
 70
       1
  9
$QTEXTMODE
 70
       0
  9
$MIRRTEXT
 70
       1
  9
$DRAGMODE
 70
       2
  9
$LTSCALE
 40
1.0
  9
$OSMODE
 70
       0
  9
$ATTMODE
 70
       1
  9
$TEXTSIZE
 40
0.2
  9
$TRACEWID
 40
0.05
  9
$TEXTSTYLE
  7
STANDARD
  9
$CLAYER
  8
0
  9
$CELTYPE
  6
CONTINUOUS
  9
$CECOLOR
 62
     256
  9
$CELTSCALE
 40
1.0
  9
$DELOBJ
 70
       1
  9
$DISPSILH
 70
       0
  9
$DIMSCALE
 40
1.0
  9
$DIMASZ
 40
0.18
  9
$DIMEXO
 40
0.0625
  9
$DIMDLI
 40
0.38
  9
$DIMRND
 40
0.0
  9
$DIMDLE
 40
0.0
  9
$DIMEXE
 40
0.18
  9
$DIMTP
 40
0.0
  9
$DIMTM
 40
0.0
  9
$DIMTXT
 40
0.18
  9
$DIMCEN
 40
0.09
  9
$DIMTSZ
 40
0.0
  9
$DIMTOL
 70
       0
  9
$DIMLIM
 70
       0
  9
$DIMTIH
 70
       1
  9
$DIMTOH
 70
       1
  9
$DIMSE1
 70
       0
  9
$DIMSE2
 70
       0
  9
$DIMTAD
 70
       0
  9
$DIMZIN
 70
       0
  9
$DIMBLK
  1

  9
$DIMASO
 70
       1
  9
$DIMSHO
 70
       1
  9
$DIMPOST
  1

  9
$DIMAPOST
  1

  9
$DIMALT
 70
       0
  9
$DIMALTD
 70
       2
  9
$DIMALTF
 40
25.4
  9
$DIMLFAC
 40
1.0
  9
$DIMTOFL
 70
       0
  9
$DIMTVP
 40
0.0
  9
$DIMTIX
 70
       0
  9
$DIMSOXD
 70
       0
  9
$DIMSAH
 70
       0
  9
$DIMBLK1
  1

  9
$DIMBLK2
  1

  9
$DIMSTYLE
  2
STANDARD
  9
$DIMCLRD
 70
       0
  9
$DIMCLRE
 70
       0
  9
$DIMCLRT
 70
       0
  9
$DIMTFAC
 40
1.0
  9
$DIMGAP
 40
0.09
  9
$DIMJUST
 70
       0
  9
$DIMSD1
 70
       0
  9
$DIMSD2
 70
       0
  9
$DIMTOLJ
 70
       1
  9
$DIMTZIN
 70
       0
  9
$DIMALTZ
 70
       0
  9
$DIMALTTZ
 70
       0
  9
$DIMFIT
 70
       3
  9
$DIMUPT
 70
       0
  9
$DIMUNIT
 70
       2
  9
$DIMDEC
 70
       4
  9
$DIMTDEC
 70
       4
  9
$DIMALTU
 70
       2
  9
$DIMALTTD
 70
       2
  9
$DIMTXSTY
  7
STANDARD
  9
$DIMAUNIT
 70
       0
  9
$LUNITS
 70
       2
  9
$LUPREC
 70
       4
  9
$SKETCHINC
 40
0.1
  9
$FILLETRAD
 40
0.0
  9
$AUNITS
 70
       0
  9
$AUPREC
 70
       0
  9
$MENU
  1
acad
  9
$ELEVATION
 40
0.0
  9
$PELEVATION
 40
0.0
  9
$THICKNESS
 40
0.0
  9
$LIMCHECK
 70
       0
  9
$BLIPMODE
 70
       1
  9
$CHAMFERA
 40
0.0
  9
$CHAMFERB
 40
0.0
  9
$CHAMFERC
 40
0.0
  9
$CHAMFERD
 40
0.0
  9
$SKPOLY
 70
       0
  9
$TDCREATE
 40
0.000000000
  9
$TDUPDATE
 40
0.000000000
  9
$TDINDWG
 40
0.0000000000
  9
$TDUSRTIMER
 40
0.0000000000
  9
$USRTIMER
 70
       1
  9
$ANGBASE
 50
0.0
  9
$ANGDIR
 70
       0
  9
$PDMODE
 70
       0
  9
$PDSIZE
 40
1.0
  9
$PLINEWID
 40
0.0
  9
$COORDS
 70
       1
  9
$SPLFRAME
 70
       0
  9
$SPLINETYPE
 70
       6
  9
$SPLINESEGS
 70
       8
  9
$ATTDIA
 70
       0
  9
$ATTREQ
 70
       1
  9
$HANDLING
 70
       1
  9
$HANDSEED
  5
DE
  9
$SURFTAB1
 70
       6
  9
$SURFTAB2
 70
       6
  9
$SURFTYPE
 70
       6
  9
$SURFU
 70
       6
  9
$SURFV
 70
       6
  9
$UCSNAME
  2

  9
$UCSORG
 10
0.0
 20
0.0
 30
0.0
  9
$UCSXDIR
 10
1.0
 20
0.0
 30
0.0
  9
$UCSYDIR
 10
0.0
 20
1.0
 30
0.0
  9
$PUCSNAME
  2

  9
$PUCSORG
 10
0.0
 20
0.0
 30
0.0
  9
$PUCSXDIR
 10
1.0
 20
0.0
 30
0.0
  9
$PUCSYDIR
 10
0.0
 20
1.0
 30
0.0
  9
$USERI1
 70
       0
  9
$USERI2
 70
       0
  9
$USERI3
 70
       0
  9
$USERI4
 70
       0
  9
$USERI5
 70
       0
  9
$USERR1
 40
0.0
  9
$USERR2
 40
0.0
  9
$USERR3
 40
0.0
  9
$USERR4
 40
0.0
  9
$USERR5
 40
0.0
  9
$WORLDVIEW
 70
       1
  9
$SHADEDGE
 70
       3
  9
$SHADEDIF
 70
      70
  9
$TILEMODE
 70
       1
  9
$MAXACTVP
 70
      16
  9
$PINSBASE
 10
0.0
 20
0.0
 30
0.0
  9
$PLIMCHECK
 70
       0
  9
$PEXTMIN
 10
1.00000000E+20
 20
1.00000000E+20
 30
1.00000000E+20
  9
$PEXTMAX
 10
-1.00000000E+20
 20
-1.00000000E+20
 30
-1.00000000E+20
  9
$PLIMMIN
 10
0.0
 20
0.0
  9
$PLIMMAX
 10
12.0
 20
9.0
  9
$UNITMODE
 70
       0
  9
$VISRETAIN
 70
       0
  9
$PLINEGEN
 70
       1
  9
$PSLTSCALE
 70
       0
  9
$TREEDEPTH
 70
    3020
  9
$PICKSTYLE
 70
       1
  9
$CMLSTYLE
  2
STANDARD
  9
$CMLJUST
 70
       0
  9
$CMLSCALE
 40
1.0
  9
$PROXYGRAPHICS
 70
       0
  9
$MEASUREMENT
 70
       0
  0
ENDSEC
  0
SECTION
  2
CLASSES
  0
CLASS
  1
LWPOLYLINE
  2
AcDbPolyline
  3
"AutoCAD"
 90
        0
280
       0
281
       1
  0
CLASS
  1
IMAGE
  2
AcDbRasterImage
  3
ISM
 90
      127
280
       0
281
       1
  0
CLASS
  1
OLE2FRAME
  2
AcDbOle2Frame
  3
""
 90
        0
280
       0
281
       1
  0
CLASS
  1
HATCH
  2
AcDbHatch
  3
"ACAD_SEDONA"
 90
        0
280
       0
281
       1
  0
CLASS
  1
DICTIONARYVAR
  2
AcDbDictionaryVar
  3
"AutoCAD"
 90
        0
280
       0
281
       0
  0
CLASS
  1
RASTERVARIABLES
  2
AcDbRasterVariables
  3
ISM
 90
        0
280
       0
281
       0
  0
CLASS
  1
IMAGEDEF
  2
AcDbRasterImageDef
  3
ISM
 90
        0
280
       0
281
       0
  0
CLASS
  1
IMAGEDEF_REACTOR
  2
AcDbRasterImageDefReactor
  3
ISM
 90
        1
280
       0
281
       0
  0
CLASS
  1
IDBUFFER
  2
AcDbIdBuffer
  3
"Acad"
 90
        0
280
       0
281
       0
  0
CLASS
  1
SPATIAL_FILTER
  2
AcDbSpatialFilter
  3
"Acad"
 90
        0
280
       0
281
       0
  0
CLASS
  1
XRECORD
  2
AcDbXrecord
  3
"<Built In>"
 90
        0
280
       0
281
       0
  0
CLASS
  1
SORTENTSTABLE
  2
AcDbSortentsTable
  3
"AutoCAD"
 90
        0
280
       0
281
       0
  0
CLASS
  1
LAYER_INDEX
  2
AcDbLayerIndex
  3
"Acad"
 90
        0
280
       0
281
       0
  0
CLASS
  1
SPATIAL_INDEX
  2
AcDbSpatialIndex
  3
"Acad"
 90
        0
280
       0
281
       0
  0
CLASS
  1
OBJECT_PTR
  2
CAseDLPNTableRecord
  3
"ASE-LPNTableRecord"
 90
        1
280
       0
281
       0
  0
CLASS
  1
LAYOUT
  2
AcDbLayout
  3
"AutoCAD 2000"
 90
        1
280
       0
281
       0
  0
CLASS
  1
PLOTSETTINGS
  2
AcDbPlotSettings
  3
"AutoCAD 2000"
 90
        1
280
       0
281
       0
  0
CLASS
  1
ACDBDICTIONARYWDFLT
  2
AcDbDictionaryWithDefault
  3
"AutoCAD 2000"
 90
        1
280
       0
281
       0
  0
CLASS
  1
ACDBPLACEHOLDER
  2
AcDbPlaceHolder
  3
"AutoCAD 2000"
 90
        1
280
       0
281
       0
  0
CLASS
  1
VBA_PROJECT
  2
AcDbVbaProject
  3
"acadvba"
 90
        1
280
       0
281
       0
  0
CLASS
  1
WIPEOUT
  2
AcDbWipeout
  3
WipeOut|AutoCAD Express Tool|expresstools@autodesk.com
 90
      127
280
       0
281
       1
  0
CLASS
  1
WIPEOUTVARIABLES
  2
AcDbWipeoutVariables
  3
WipeOut|AutoCAD Express Tool|expresstools@autodesk.com
 90
        0
280
       0
281
       0
  0
CLASS
  1
RTEXT
  2
RText
  3
RText|AutoCAD Express Tool|expresstools@autodesk.com
 90
        0
280
       0
281
       1
  0
CLASS
  1
ARCALIGNEDTEXT
  2
AcDbArcAlignedText
  3
ATEXT|AutoCAD Express Tool|expresstools@autodesk.com
 90
        0
280
       0
281
       1
  0
ENDSEC
  0
SECTION
  2
TABLES
  0
TABLE
  2
VPORT
  5
7
100
AcDbSymbolTable
 70
       1
  0
VPORT
  5
15
100
AcDbSymbolTableRecord
100
AcDbViewportTableRecord
  2
*ACTIVE
 70
       0
 10
0.0
 20
0.0
 11
1.0
 21
1.0
 12
0.0
 22
-1.25
 13
0.0
 23
0.0
 14
1.0
 24
1.0
 15
0.0
 25
0.0
 16
0.0
 26
0.0
 36
1.0
 17
0.0
 27
0.0
 37
0.0
 40
97.98435722
 41
1.82692431
 42
50.0
 43
0.0
 44
0.0
 50
0.0
 51
0.0
 71
       0
 72
     100
 73
       1
 74
       1
 75
       0
 76
       0
 77
       0
 78
       0
  0
ENDTAB
  0
TABLE
  2
LTYPE
  5
4
100
AcDbSymbolTable
 70
      30
  0
LTYPE
  5
11
100
AcDbSymbolTableRecord
100
AcDbLinetypeTableRecord
  2
BYBLOCK
 70
      64
  3

 72
      65
 73
       0
 40
0.0
  0
LTYPE
  5
12
100
AcDbSymbolTableRecord
100
AcDbLinetypeTableRecord
  2
BYLAYER
 70
      64
  3

 72
      65
 73
       0
 40
0.0
  0
LTYPE
  5
13
100
AcDbSymbolTableRecord
100
AcDbLinetypeTableRecord
  2
CONTINUOUS
 70
      64
  3
Solid line
 72
      65
 73
       0
 40
0.0
  0
LTYPE
  5
1D
100
AcDbSymbolTableRecord
100
AcDbLinetypeTableRecord
  2
HIDDENX2
 70
      64
  3
CADPAC LINETYPE
 72
      65
 73
       2
 40
6.73920015
 49
5.05440012
 74
       0
 49
-1.68480004
 74
       0
  0
LTYPE
  5
1E
100
AcDbSymbolTableRecord
100
AcDbLinetypeTableRecord
  2
HIDDEN
 70
      64
  3
CADPAC LINETYPE
 72
      65
 73
       2
 40
5.05440012
 49
3.36960008
 74
       0
 49
-1.68480004
 74
       0
  0
LTYPE
  5
1F
100
AcDbSymbolTableRecord
100
AcDbLinetypeTableRecord
  2
HIDDEN2
 70
      64
  3
CADPAC LINETYPE
 72
      65
 73
       2
 40
4.2120001
 49
2.52720006
 74
       0
 49
-1.68480004
 74
       0
  0
LTYPE
  5
20
100
AcDbSymbolTableRecord
100
AcDbLinetypeTableRecord
  2
DASHED
 70
      64
  3
CADPAC LINETYPE
 72
      65
 73
       2
 40
5.05440012
 49
3.36960008
 74
       0
 49
-1.68480004
 74
       0
  0
LTYPE
  5
21
100
AcDbSymbolTableRecord
100
AcDbLinetypeTableRecord
  2
DASHED2
 70
      64
  3
CADPAC LINETYPE
 72
      65
 73
       2
 40
3.79080009
 49
2.52720006
 74
       0
 49
-1.26360003
 74
       0
  0
LTYPE
  5
22
100
AcDbSymbolTableRecord
100
AcDbLinetypeTableRecord
  2
DASHEDX2
 70
      64
  3
CADPAC LINETYPE
 72
      65
 73
       2
 40
7.58160017
 49
5.05440012
 74
       0
 49
-2.52720006
 74
       0
  0
LTYPE
  5
23
100
AcDbSymbolTableRecord
100
AcDbLinetypeTableRecord
  2
DOTX2
 70
      64
  3
CADPAC LINETYPE
 72
      65
 73
       2
 40
2.10600005
 49
0.0
 74
       0
 49
-2.10600005
 74
       0
  0
LTYPE
  5
24
100
AcDbSymbolTableRecord
100
AcDbLinetypeTableRecord
  2
DOT
 70
      64
  3
CADPAC LINETYPE
 72
      65
 73
       2
 40
1.68480004
 49
0.0
 74
       0
 49
-1.68480004
 74
       0
  0
LTYPE
  5
25
100
AcDbSymbolTableRecord
100
AcDbLinetypeTableRecord
  2
DOT2
 70
      64
  3
CADPAC LINETYPE
 72
      65
 73
       2
 40
1.26360003
 49
0.0
 74
       0
 49
-1.26360003
 74
       0
  0
LTYPE
  5
26
100
AcDbSymbolTableRecord
100
AcDbLinetypeTableRecord
  2
CENTERX2
 70
      64
  3
CADPAC LINETYPE
 72
      65
 73
       4
 40
10.10880023
 49
4.2120001
 74
       0
 49
-2.10600005
 74
       0
 49
1.68480004
 74
       0
 49
-2.10600005
 74
       0
  0
LTYPE
  5
27
100
AcDbSymbolTableRecord
100
AcDbLinetypeTableRecord
  2
CENTER
 70
      64
  3
CADPAC LINETYPE
 72
      65
 73
       4
 40
7.75008018
 49
3.36960008
 74
       0
 49
-1.68480004
 74
       0
 49
1.01088002
 74
       0
 49
-1.68480004
 74
       0
  0
LTYPE
  5
28
100
AcDbSymbolTableRecord
100
AcDbLinetypeTableRecord
  2
CENTER2
 70
      64
  3
CADPAC LINETYPE
 72
      65
 73
       4
 40
5.39136012
 49
2.52720006
 74
       0
 49
-1.26360003
 74
       0
 49
0.33696001
 74
       0
 49
-1.26360003
 74
       0
  0
LTYPE
  5
29
100
AcDbSymbolTableRecord
100
AcDbLinetypeTableRecord
  2
DASHDOTX2
 70
      64
  3
CADPAC LINETYPE
 72
      65
 73
       4
 40
8.42400019
 49
4.2120001
 74
       0
 49
-2.10600005
 74
       0
 49
0.0
 74
       0
 49
-2.10600005
 74
       0
  0
LTYPE
  5
2A
100
AcDbSymbolTableRecord
100
AcDbLinetypeTableRecord
  2
DASHDOT
 70
      64
  3
CADPAC LINETYPE
 72
      65
 73
       4
 40
6.73920015
 49
3.36960008
 74
       0
 49
-1.68480004
 74
       0
 49
0.0
 74
       0
 49
-1.68480004
 74
       0
  0
LTYPE
  5
2B
100
AcDbSymbolTableRecord
100
AcDbLinetypeTableRecord
  2
DASHDOT2
 70
      64
  3
CADPAC LINETYPE
 72
      65
 73
       4
 40
5.05440012
 49
2.52720006
 74
       0
 49
-1.26360003
 74
       0
 49
0.0
 74
       0
 49
-1.26360003
 74
       0
  0
LTYPE
  5
2C
100
AcDbSymbolTableRecord
100
AcDbLinetypeTableRecord
  2
DIVIDEX2
 70
      64
  3
CADPAC LINETYPE
 72
      65
 73
       6
 40
10.53000024
 49
4.2120001
 74
       0
 49
-2.10600005
 74
       0
 49
0.0
 74
       0
 49
-2.10600005
 74
       0
 49
0.0
 74
       0
 49
-2.10600005
 74
       0
  0
LTYPE
  5
2D
100
AcDbSymbolTableRecord
100
AcDbLinetypeTableRecord
  2
DIVIDE
 70
      64
  3
CADPAC LINETYPE
 72
      65
 73
       6
 40
8.42400019
 49
3.36960008
 74
       0
 49
-1.68480004
 74
       0
 49
0.0
 74
       0
 49
-1.68480004
 74
       0
 49
0.0
 74
       0
 49
-1.68480004
 74
       0
  0
LTYPE
  5
2E
100
AcDbSymbolTableRecord
100
AcDbLinetypeTableRecord
  2
DIVIDE2
 70
      64
  3
CADPAC LINETYPE
 72
      65
 73
       6
 40
6.31800015
 49
2.52720006
 74
       0
 49
-1.26360003
 74
       0
 49
0.0
 74
       0
 49
-1.26360003
 74
       0
 49
0.0
 74
       0
 49
-1.26360003
 74
       0
  0
LTYPE
  5
2F
100
AcDbSymbolTableRecord
100
AcDbLinetypeTableRecord
  2
BORDERX2
 70
      64
  3
CADPAC LINETYPE
 72
      65
 73
       6
 40
14.74200034
 49
4.2120001
 74
       0
 49
-2.10600005
 74
       0
 49
4.2120001
 74
       0
 49
-2.10600005
 74
       0
 49
0.0
 74
       0
 49
-2.10600005
 74
       0
  0
LTYPE
  5
30
100
AcDbSymbolTableRecord
100
AcDbLinetypeTableRecord
  2
BORDER
 70
      64
  3
CADPAC LINETYPE
 72
      65
 73
       6
 40
11.79360027
 49
3.36960008
 74
       0
 49
-1.68480004
 74
       0
 49
3.36960008
 74
       0
 49
-1.68480004
 74
       0
 49
0.0
 74
       0
 49
-1.68480004
 74
       0
  0
LTYPE
  5
31
100
AcDbSymbolTableRecord
100
AcDbLinetypeTableRecord
  2
BORDER2
 70
      64
  3
CADPAC LINETYPE
 72
      65
 73
       6
 40
8.8452002
 49
2.52720006
 74
       0
 49
-1.26360003
 74
       0
 49
2.52720006
 74
       0
 49
-1.26360003
 74
       0
 49
0.0
 74
       0
 49
-1.26360003
 74
       0
  0
LTYPE
  5
32
100
AcDbSymbolTableRecord
100
AcDbLinetypeTableRecord
  2
PHANTOMX2
 70
      64
  3
CADPAC LINETYPE
 72
      65
 73
       6
 40
12.63600029
 49
4.2120001
 74
       0
 49
-1.68480004
 74
       0
 49
1.68480004
 74
       0
 49
-1.68480004
 74
       0
 49
1.68480004
 74
       0
 49
-1.68480004
 74
       0
  0
LTYPE
  5
33
100
AcDbSymbolTableRecord
100
AcDbLinetypeTableRecord
  2
PHANTOM
 70
      64
  3
CADPAC LINETYPE
 72
      65
 73
       6
 40
10.44576024
 49
3.36960008
 74
       0
 49
-1.68480004
 74
       0
 49
1.01088002
 74
       0
 49
-1.68480004
 74
       0
 49
1.01088002
 74
       0
 49
-1.68480004
 74
       0
  0
LTYPE
  5
34
100
AcDbSymbolTableRecord
100
AcDbLinetypeTableRecord
  2
PHANTOM2
 70
      64
  3
CADPAC LINETYPE
 72
      65
 73
       6
 40
8.92944021
 49
2.52720006
 74
       0
 49
-1.68480004
 74
       0
 49
0.67392002
 74
       0
 49
-1.68480004
 74
       0
 49
0.67392002
 74
       0
 49
-1.68480004
 74
       0
  0
LTYPE
  5
35
100
AcDbSymbolTableRecord
100
AcDbLinetypeTableRecord
  2
ACAD_ISO06W100
 70
      64
  3
CADPAC LINETYPE
 72
      65
 73
       8
 40
11.37240026
 49
4.2120001
 74
       0
 49
-2.10600005
 74
       0
 49
0.0
 74
       0
 49
-1.68480004
 74
       0
 49
0.0
 74
       0
 49
-1.68480004
 74
       0
 49
0.0
 74
       0
 49
-1.68480004
 74
       0
  0
LTYPE
  5
36
100
AcDbSymbolTableRecord
100
AcDbLinetypeTableRecord
  2
ACAD_ISO13W100
 70
      64
  3
CADPAC LINETYPE
 72
      65
 73
       8
 40
13.47840031
 49
3.36960008
 74
       0
 49
-1.68480004
 74
       0
 49
3.36960008
 74
       0
 49
-1.68480004
 74
       0
 49
0.0
 74
       0
 49
-1.68480004
 74
       0
 49
0.0
 74
       0
 49
-1.68480004
 74
       0
  0
LTYPE
  5
37
100
AcDbSymbolTableRecord
100
AcDbLinetypeTableRecord
  2
ACAD_ISO14W100
 70
      64
  3
CADPAC LINETYPE
 72
      65
 73
       8
 40
10.10880023
 49
3.36960008
 74
       0
 49
-1.68480004
 74
       0
 49
0.0
 74
       0
 49
-1.68480004
 74
       0
 49
0.0
 74
       0
 49
-1.68480004
 74
       0
 49
0.0
 74
       0
 49
-1.68480004
 74
       0
  0
ENDTAB
  0
TABLE
  2
LAYER
  5
2
100
AcDbSymbolTable
 70
       3
  0
LAYER
  5
14
100
AcDbSymbolTableRecord
100
AcDbLayerTableRecord
  2
0
 70
       0
 62
       7
  6
CONTINUOUS
  0
LAYER
  5
38
100
AcDbSymbolTableRecord
100
AcDbLayerTableRecord
  2
SLD-0_0
 70
       0
 62
       7
  6
CONTINUOUS
  0
LAYER
  5
39
100
AcDbSymbolTableRecord
100
AcDbLayerTableRecord
  2
SLD-0
 70
       0
 62
       7
  6
CONTINUOUS
  0
ENDTAB
  0
TABLE
  2
STYLE
  5
3
100
AcDbSymbolTable
 70
       1
  0
STYLE
  5
17
100
AcDbSymbolTableRecord
100
AcDbTextStyleTableRecord
  2
STANDARD
 70
       0
 40
0.0
 41
1.0
 50
0.0
 71
       0
 42
5.0
  3
txt.shx
  4
bigfont.shx
  0
ENDTAB
  0
TABLE
  2
VIEW
  5
5
100
AcDbSymbolTable
 70
       1
  0
VIEW
  5
3A
100
AcDbSymbolTableRecord
100
AcDbViewTableRecord
  2
QQQQ
 70
       0
 40
97.98435722
 10
0.0
 20
-1.25
 41
179.01000411
 11
0.0
 21
0.0
 31
1.0
 12
100.0
 22
100.0
 32
0.0
 42
50.0
 43
0.0
 44
0.0
 50
0.0
 71
       0
  0
ENDTAB
  0
TABLE
  2
UCS
  5
6
100
AcDbSymbolTable
 70
       0
  0
ENDTAB
  0
TABLE
  2
APPID
  5
8
100
AcDbSymbolTable
 70
       1
  0
APPID
  5
16
100
AcDbSymbolTableRecord
100
AcDbRegAppTableRecord
  2
ACAD
 70
       0
  0
ENDTAB
  0
TABLE
  2
DIMSTYLE
  5
9
100
AcDbSymbolTable
 70
       1
  0
DIMSTYLE
105
18
100
AcDbSymbolTableRecord
100
AcDbDimStyleTableRecord
  2
STANDARD
 70
       0
  3

  4

  5

  6

  7

 40
1.0
 41
0.18
 42
0.0625
 43
0.38
 44
0.18
 45
0.0
 46
0.0
 47
0.0
 48
0.0
 71
       0
 72
       0
 73
       1
 74
       1
 75
       0
 76
       0
 77
       0
 78
       0
140
0.18
141
0.09
142
0.0
143
25.4
144
1.0
145
0.0
146
1.0
147
0.09
170
       0
171
       2
172
       0
173
       0
174
       0
175
       0
176
       0
177
       0
178
       0
270
       2
271
       4
272
       4
273
       2
274
       2
275
       0
280
       0
281
       0
282
       0
283
       1
284
       0
285
       0
286
       0
287
       0
288
       0
340
17
  0
ENDTAB
  0
TABLE
  2
BLOCK_RECORD
  5
1
100
AcDbSymbolTable
 70
       0
  0
BLOCK_RECORD
  5
A
100
AcDbSymbolTableRecord
100
AcDbBlockTableRecord
  2
*MODEL_SPACE
  0
BLOCK_RECORD
  5
B
100
AcDbSymbolTableRecord
100
AcDbBlockTableRecord
  2
*PAPER_SPACE
  0
ENDTAB
  0
ENDSEC
  0
SECTION
  2
BLOCKS
  0
BLOCK
  5
D
100
AcDbEntity
  8
0
100
AcDbBlockBegin
  2
*MODEL_SPACE
 70
       0
 10
0.0
 20
0.0
 30
0.0
  3
*MODEL_SPACE
  1

  0
ENDBLK
  5
E
100
AcDbEntity
  8
0
100
AcDbBlockEnd
  0
BLOCK
  5
F
100
AcDbEntity
 67
       1
  8
0
100
AcDbBlockBegin
  2
*PAPER_SPACE
 70
       0
 10
0.0
 20
0.0
 30
0.0
  3
*PAPER_SPACE
  1

  0
ENDBLK
  5
10
100
AcDbEntity
 67
       1
  8
0
100
AcDbBlockEnd
  0
ENDSEC
  0
SECTION
  2
ENTITIES
  0
LINE
  5
3B
100
AcDbEntity
  8
SLD-0
  6
CONTINUOUS
 62
       3
100
AcDbLine
 10
-4.55000102
 20
16.25077822
 30
0.0
 11
-69.55000101
 21
16.25077822
 31
0.0
  0
LINE
  5
3C
100
AcDbEntity
  8
SLD-0
  6
CONTINUOUS
 62
       3
100
AcDbLine
 10
29.64837466
 20
43.08619412
 30
0.0
 11
81.00000186
 21
43.08619412
 31
0.0
  0
LINE
  5
3D
100
AcDbEntity
  8
SLD-0
  6
CONTINUOUS
 62
       3
100
AcDbLine
 10
51.37348908
 20
-6.913185
 30
0.0
 11
80.37348908
 21
-6.913185
 31
0.0
  0
LINE
  5
3E
100
AcDbEntity
  8
SLD-0
  6
CONTINUOUS
 62
       3
100
AcDbLine
 10
50.8734891
 20
16.25077822
 30
0.0
 11
50.8734891
 21
-6.413185
 31
0.0
  0
LINE
  5
3F
100
AcDbEntity
  8
SLD-0
  6
CONTINUOUS
 62
       3
100
AcDbLine
 10
-4.55000092
 20
19.77380597
 30
0.0
 11
-69.55000111
 21
19.77380597
 31
0.0
  0
LINE
  5
40
100
AcDbEntity
  8
SLD-0
  6
CONTINUOUS
 62
       3
100
AcDbLine
 10
-4.55000035
 20
39.45572864
 30
0.0
 11
-69.55000168
 21
39.45572864
 31
0.0
  0
LINE
  5
41
100
AcDbEntity
  8
SLD-0
  6
CONTINUOUS
 62
       3
100
AcDbLine
 10
-4.55000062
 20
30.14679722
 30
0.0
 11
-69.55000141
 21
30.14680692
 31
0.0
  0
LINE
  5
42
100
AcDbEntity
  8
SLD-0
  6
CONTINUOUS
 62
       3
100
AcDbLine
 10
-4.55000043
 20
36.74683304
 30
0.0
 11
-69.5500016
 21
36.746822
 31
0.0
  0
LINE
  5
43
100
AcDbEntity
  8
SLD-0
  6
CONTINUOUS
 62
       3
100
AcDbLine
 10
-5.05000026
 20
43.08681322
 30
0.0
 11
-69.05000177
 21
43.08681322
 31
0.0
  0
LINE
  5
44
100
AcDbEntity
  8
SLD-0
  6
CONTINUOUS
 62
       3
100
AcDbLine
 10
-69.55000035
 20
-6.41318557
 30
0.0
 11
-69.55000177
 21
42.58681321
 31
0.0
  0
LINE
  5
45
100
AcDbEntity
  8
SLD-0
  6
CONTINUOUS
 62
       3
100
AcDbLine
 10
-4.55000026
 20
42.58681315
 30
0.0
 11
-4.55000168
 21
-6.41318557
 31
0.0
  0
LINE
  5
46
100
AcDbEntity
  8
SLD-0
  6
CONTINUOUS
 62
       3
100
AcDbLine
 10
-5.05000168
 20
-6.91318556
 30
0.0
 11
-69.05000035
 21
-6.91318556
 31
0.0
  0
LINE
  5
47
100
AcDbEntity
  8
SLD-0
  6
CONTINUOUS
 62
       3
100
AcDbLine
 10
-29.65000102
 20
-6.96297868
 30
0.0
 11
-29.65000102
 21
-6.91318518
 31
0.0
  0
LINE
  5
48
100
AcDbEntity
  8
SLD-0
  6
CONTINUOUS
 62
       3
100
AcDbLine
 10
-43.45000102
 20
-6.96297868
 30
0.0
 11
-43.45000102
 21
-6.91318518
 31
0.0
  0
LINE
  5
49
100
AcDbEntity
  8
SLD-0
  6
CONTINUOUS
 62
       3
100
AcDbLine
 10
-44.95000102
 20
-7.91318582
 30
0.0
 11
-44.95000072
 21
-6.91318518
 31
0.0
  0
LINE
  5
4A
100
AcDbEntity
  8
SLD-0
  6
CONTINUOUS
 62
       3
100
AcDbLine
 10
-28.15000102
 20
-7.91318582
 30
0.0
 11
-28.15000132
 21
-6.91318518
 31
0.0
  0
LINE
  5
4B
100
AcDbEntity
  8
SLD-0
  6
CONTINUOUS
 62
       3
100
AcDbLine
 10
77.77348934
 20
-9.91318567
 30
0.0
 11
80.3734894
 21
-9.91318567
 31
0.0
  0
LINE
  5
4C
100
AcDbEntity
  8
SLD-0
  6
CONTINUOUS
 62
       3
100
AcDbLine
 10
64.27348936
 20
43.08681196
 30
0.0
 11
64.27348936
 21
-6.91318551
 31
0.0
  0
LINE
  5
4D
100
AcDbEntity
  8
SLD-0
  6
CONTINUOUS
 62
       3
100
AcDbLine
 10
32.17348834
 20
20.48681429
 30
0.0
 11
32.17348834
 21
38.23681441
 31
0.0
  0
LINE
  5
4E
100
AcDbEntity
  8
SLD-0
  6
CONTINUOUS
 62
       3
100
AcDbLine
 10
29.08511172
 20
19.77380597
 30
0.0
 11
32.17348834
 21
20.48681429
 31
0.0
  0
LINE
  5
4F
100
AcDbEntity
  8
SLD-0
  6
CONTINUOUS
 62
       3
100
AcDbLine
 10
32.17348834
 20
38.23681441
 30
0.0
 11
29.42144252
 21
39.57907714
 31
0.0
  0
LINE
  5
50
100
AcDbEntity
  8
SLD-0
  6
CONTINUOUS
 62
       3
100
AcDbLine
 10
50.8734891
 20
16.25077822
 30
0.0
 11
30.80589328
 21
16.60105943
 31
0.0
  0
LINE
  5
51
100
AcDbEntity
  8
SLD-0
  6
CONTINUOUS
 62
       3
100
AcDbLine
 10
80.3734894
 20
-7.91318534
 30
0.0
 11
77.77348934
 21
-7.91318534
 31
0.0
  0
LINE
  5
52
100
AcDbEntity
  8
SLD-0
  6
CONTINUOUS
 62
       3
100
AcDbLine
 10
77.77348934
 20
-9.91318567
 30
0.0
 11
77.77348934
 21
-7.91318534
 31
0.0
  0
LINE
  5
53
100
AcDbEntity
  8
SLD-0
  6
CONTINUOUS
 62
       3
100
AcDbLine
 10
80.3734894
 20
-9.91318567
 30
0.0
 11
80.3734894
 21
-7.91318534
 31
0.0
  0
LINE
  5
54
100
AcDbEntity
  8
SLD-0
  6
CONTINUOUS
 62
       3
100
AcDbLine
 10
77.77348934
 20
-7.91318534
 30
0.0
 11
77.77348934
 21
-6.91318518
 31
0.0
  0
LINE
  5
55
100
AcDbEntity
  8
SLD-0
  6
CONTINUOUS
 62
       3
100
AcDbLine
 10
80.87348908
 20
0.7967574
 30
0.0
 11
77.90000177
 21
0.79675675
 31
0.0
  0
LINE
  5
56
100
AcDbEntity
  8
SLD-0
  6
CONTINUOUS
 62
       3
100
AcDbLine
 10
79.00000236
 20
0.79675699
 30
0.0
 11
79.00000236
 21
2.29675785
 31
0.0
  0
LINE
  5
57
100
AcDbEntity
  8
SLD-0
  6
CONTINUOUS
 62
       3
100
AcDbLine
 10
79.30000244
 20
2.29675785
 30
0.0
 11
79.00000236
 21
2.29675785
 31
0.0
  0
LINE
  5
58
100
AcDbEntity
  8
SLD-0
  6
CONTINUOUS
 62
       3
100
AcDbLine
 10
80.50000244
 20
0.79675668
 30
0.0
 11
79.30000244
 21
2.29675785
 31
0.0
  0
LINE
  5
59
100
AcDbEntity
  8
SLD-0
  6
CONTINUOUS
 62
       3
100
AcDbLine
 10
80.3734894
 20
-7.91318534
 30
0.0
 11
80.37348908
 21
-6.913185
 31
0.0
  0
LINE
  5
5A
100
AcDbEntity
  8
SLD-0
  6
CONTINUOUS
 62
       3
100
AcDbLine
 10
80.70000184
 20
36.34563186
 30
0.0
 11
77.90000177
 21
36.29675791
 31
0.0
  0
LINE
  5
5B
100
AcDbEntity
  8
SLD-0
  6
CONTINUOUS
 62
       3
100
AcDbLine
 10
81.00000186
 20
43.08619412
 30
0.0
 11
81.00000186
 21
36.64567791
 31
0.0
  0
LINE
  5
5C
100
AcDbEntity
  8
SLD-0
  6
CONTINUOUS
 62
       3
100
AcDbLine
 10
80.70523758
 20
36.3457229
 30
0.0
 11
80.70000184
 21
36.34563186
 31
0.0
  0
LINE
  5
5D
100
AcDbEntity
  8
SLD-0
  6
CONTINUOUS
 62
       3
100
AcDbLine
 10
80.87348908
 20
0.7967574
 30
0.0
 11
80.87348908
 21
-6.413185
 31
0.0
  0
LINE
  5
5E
100
AcDbEntity
  8
SLD-0
  6
CONTINUOUS
 62
       3
100
AcDbLine
 10
77.90000177
 20
0.79675675
 30
0.0
 11
77.90000177
 21
36.29675791
 31
0.0
  0
LINE
  5
5F
100
AcDbEntity
  8
SLD-0
  6
CONTINUOUS
 62
       3
100
AcDbLine
 10
79.00000186
 20
36.31595797
 30
0.0
 11
79.08917041
 21
35.29675767
 31
0.0
  0
LINE
  5
60
100
AcDbEntity
  8
SLD-0
  6
CONTINUOUS
 62
       3
100
AcDbLine
 10
79.41715929
 20
34.79675665
 30
0.0
 11
79.13291475
 21
34.79675665
 31
0.0
  0
LINE
  5
61
100
AcDbEntity
  8
SLD-0
  6
CONTINUOUS
 62
       3
100
AcDbLine
 10
79.13291475
 20
34.79675665
 30
0.0
 11
79.13225025
 21
34.80435252
 31
0.0
  0
LINE
  5
62
100
AcDbEntity
  8
SLD-0
  6
CONTINUOUS
 62
       3
100
AcDbLine
 10
79.13225025
 20
34.80435252
 30
0.0
 11
79.13027666
 21
34.82691101
 31
0.0
  0
LINE
  5
63
100
AcDbEntity
  8
SLD-0
  6
CONTINUOUS
 62
       3
100
AcDbLine
 10
79.13027666
 20
34.82691101
 30
0.0
 11
79.12705417
 21
34.86374482
 31
0.0
  0
LINE
  5
64
100
AcDbEntity
  8
SLD-0
  6
CONTINUOUS
 62
       3
100
AcDbLine
 10
79.12705417
 20
34.86374482
 30
0.0
 11
79.12268056
 21
34.91373449
 31
0.0
  0
LINE
  5
65
100
AcDbEntity
  8
SLD-0
  6
CONTINUOUS
 62
       3
100
AcDbLine
 10
79.12268056
 20
34.91373449
 30
0.0
 11
79.11728878
 21
34.97536383
 31
0.0
  0
LINE
  5
66
100
AcDbEntity
  8
SLD-0
  6
CONTINUOUS
 62
       3
100
AcDbLine
 10
79.11728878
 20
34.97536383
 30
0.0
 11
79.11104264
 21
35.04675716
 31
0.0
  0
LINE
  5
67
100
AcDbEntity
  8
SLD-0
  6
CONTINUOUS
 62
       3
100
AcDbLine
 10
79.11104264
 20
35.04675716
 30
0.0
 11
79.10413187
 21
35.12574635
 31
0.0
  0
LINE
  5
68
100
AcDbEntity
  8
SLD-0
  6
CONTINUOUS
 62
       3
100
AcDbLine
 10
79.10413187
 20
35.12574635
 30
0.0
 11
79.09676663
 21
35.20993232
 31
0.0
  0
LINE
  5
69
100
AcDbEntity
  8
SLD-0
  6
CONTINUOUS
 62
       3
100
AcDbLine
 10
79.09676663
 20
35.20993232
 30
0.0
 11
79.08917041
 21
35.29675767
 31
0.0
  0
LINE
  5
6A
100
AcDbEntity
  8
SLD-0
  6
CONTINUOUS
 62
       3
100
AcDbLine
 10
79.85858055
 20
35.15533638
 30
0.0
 11
79.80648609
 21
35.10324192
 31
0.0
  0
LINE
  5
6B
100
AcDbEntity
  8
SLD-0
  6
CONTINUOUS
 62
       3
100
AcDbLine
 10
79.80648609
 20
35.10324192
 30
0.0
 11
79.75597453
 21
35.05273071
 31
0.0
  0
LINE
  5
6C
100
AcDbEntity
  8
SLD-0
  6
CONTINUOUS
 62
       3
100
AcDbLine
 10
79.75597453
 20
35.05273071
 30
0.0
 11
79.70858057
 21
35.00533571
 31
0.0
  0
LINE
  5
6D
100
AcDbEntity
  8
SLD-0
  6
CONTINUOUS
 62
       3
100
AcDbLine
 10
79.70858057
 20
35.00533571
 30
0.0
 11
79.66574428
 21
34.96250046
 31
0.0
  0
LINE
  5
6E
100
AcDbEntity
  8
SLD-0
  6
CONTINUOUS
 62
       3
100
AcDbLine
 10
79.66574428
 20
34.96250046
 30
0.0
 11
79.62876728
 21
34.92552322
 31
0.0
  0
LINE
  5
6F
100
AcDbEntity
  8
SLD-0
  6
CONTINUOUS
 62
       3
100
AcDbLine
 10
79.62876728
 20
34.92552322
 30
0.0
 11
79.59877299
 21
34.89552905
 31
0.0
  0
LINE
  5
70
100
AcDbEntity
  8
SLD-0
  6
CONTINUOUS
 62
       3
100
AcDbLine
 10
79.59877299
 20
34.89552905
 30
0.0
 11
79.57667282
 21
34.87342876
 31
0.0
  0
LINE
  5
71
100
AcDbEntity
  8
SLD-0
  6
CONTINUOUS
 62
       3
100
AcDbLine
 10
79.57667282
 20
34.87342876
 30
0.0
 11
79.56313826
 21
34.85989292
 31
0.0
  0
LINE
  5
72
100
AcDbEntity
  8
SLD-0
  6
CONTINUOUS
 62
       3
100
AcDbLine
 10
79.56313826
 20
34.85989292
 30
0.0
 11
79.5585806
 21
34.85533503
 31
0.0
  0
LINE
  5
73
100
AcDbEntity
  8
SLD-0
  6
CONTINUOUS
 62
       3
100
AcDbLine
 10
80.91213397
 20
36.20888946
 30
0.0
 11
79.85858055
 21
35.15533638
 31
0.0
  0
LINE
  5
74
100
AcDbEntity
  8
SLD-0
  6
CONTINUOUS
 62
       3
100
AcDbLine
 10
81.00000186
 20
36.64567791
 30
0.0
 11
81.00000186
 21
36.4210214
 31
0.0
  0
ARC
  5
75
100
AcDbEntity
  8
SLD-0
  6
CONTINUOUS
 62
       3
100
AcDbCircle
 10
80.37348908
 20
-6.413185
 30
0.0
 40
0.5
100
AcDbArc
 50
270.0
 51
360.0
  0
ARC
  5
76
100
AcDbEntity
  8
SLD-0
  6
CONTINUOUS
 62
       3
100
AcDbCircle
 10
-5.05000026
 20
42.58681322
 30
0.0
 40
0.5
100
AcDbArc
 50
359.99999198
 51
450.0
  0
ARC
  5
77
100
AcDbEntity
  8
SLD-0
  6
CONTINUOUS
 62
       3
100
AcDbCircle
 10
51.3734891
 20
-6.413185
 30
0.0
 40
0.5
100
AcDbArc
 50
180.0
 51
269.99999771
  0
ARC
  5
78
100
AcDbEntity
  8
SLD-0
  6
CONTINUOUS
 62
       3
100
AcDbCircle
 10
-5.05000168
 20
-6.41318556
 30
0.0
 40
0.5
100
AcDbArc
 50
270.0
 51
359.99999885
  0
ARC
  5
79
100
AcDbEntity
  8
SLD-0
  6
CONTINUOUS
 62
       3
100
AcDbCircle
 10
-36.55000102
 20
8.72681418
 30
0.0
 40
17.14
100
AcDbArc
 50
246.26124165
 51
293.73875835
  0
ARC
  5
7A
100
AcDbEntity
  8
SLD-0
  6
CONTINUOUS
 62
       3
100
AcDbCircle
 10
-36.55000102
 20
8.72681418
 30
0.0
 40
18.64
100
AcDbArc
 50
243.21500449
 51
296.78499551
  0
ARC
  5
7B
100
AcDbEntity
  8
SLD-0
  6
CONTINUOUS
 62
       3
100
AcDbCircle
 10
40.07608366
 20
32.90629539
 30
0.0
 40
11.86673216
100
AcDbArc
 50
161.29572389
 51
177.43765835
  0
ARC
  5
7C
100
AcDbEntity
  8
SLD-0
  6
CONTINUOUS
 62
       3
100
AcDbCircle
 10
40.07608366
 20
32.90629539
 30
0.0
 40
11.86673216
100
AcDbArc
 50
177.43765835
 51
193.28045836
  0
ARC
  5
7D
100
AcDbEntity
  8
SLD-0
  6
CONTINUOUS
 62
       3
100
AcDbCircle
 10
21.05999483
 20
33.80703268
 30
0.0
 40
8.30089816
100
AcDbArc
 50
334.13531839
 51
380.40927527
  0
ARC
  5
7E
100
AcDbEntity
  8
SLD-0
  6
CONTINUOUS
 62
       3
100
AcDbCircle
 10
30.83207207
 20
18.10083096
 30
0.0
 40
1.49999999
100
AcDbArc
 50
189.10878759
 51
268.9999931
  0
ARC
  5
7F
100
AcDbEntity
  8
SLD-0
  6
CONTINUOUS
 62
       3
100
AcDbCircle
 10
80.70000186
 20
36.64567721
 30
0.0
 40
0.3
100
AcDbArc
 50
270.99999963
 51
360.00013369
  0
ARC
  5
80
100
AcDbEntity
  8
SLD-0
  6
CONTINUOUS
 62
       3
100
AcDbCircle
 10
79.41715924
 20
34.99675729
 30
0.0
 40
0.20000064
100
AcDbArc
 50
270.00001432
 51
314.99981769
  0
ARC
  5
81
100
AcDbEntity
  8
SLD-0
  6
CONTINUOUS
 62
       3
100
AcDbCircle
 10
80.7000019
 20
36.4210214
 30
0.0
 40
0.29999996
100
AcDbArc
 50
315.00001756
 51
360.0
  0
ARC
  5
82
100
AcDbEntity
  8
SLD-0
  6
CONTINUOUS
 62
       3
100
AcDbCircle
 10
-69.05000177
 20
42.58681322
 30
0.0
 40
0.5
100
AcDbArc
 50
90.0
 51
180.00000115
  0
ARC
  5
83
100
AcDbEntity
  8
SLD-0
  6
CONTINUOUS
 62
       3
100
AcDbCircle
 10
-69.05000035
 20
-6.41318556
 30
0.0
 40
0.5
100
AcDbArc
 50
180.00000115
 51
270.0
  0
LINE
  5
84
100
AcDbEntity
  8
SLD-0
  6
PHANTOM
 62
       3
100
AcDbLine
 10
30.72349027
 20
6.38581292
 30
0.0
 11
31.92348957
 21
6.38581292
 31
0.0
  0
LINE
  5
85
100
AcDbEntity
  8
SLD-0
  6
PHANTOM
 62
       3
100
AcDbLine
 10
-51.80000176
 20
-3.26623875
 30
0.0
 11
-51.80000176
 21
15.73581328
 31
0.0
  0
LINE
  5
86
100
AcDbEntity
  8
SLD-0
  6
PHANTOM
 62
       3
100
AcDbLine
 10
-8.79999944
 20
15.73581328
 30
0.0
 11
-8.79999944
 21
-3.26623875
 31
0.0
  0
LINE
  5
87
100
AcDbEntity
  8
SLD-0
  6
PHANTOM
 62
       3
100
AcDbLine
 10
-8.79999944
 20
-3.26623875
 30
0.0
 11
-51.80000176
 21
-3.26623875
 31
0.0
  0
LINE
  5
88
100
AcDbEntity
  8
SLD-0
  6
PHANTOM
 62
       3
100
AcDbLine
 10
-51.80000176
 20
15.73581328
 30
0.0
 11
-8.79999944
 21
15.73581328
 31
0.0
  0
LINE
  5
89
100
AcDbEntity
  8
SLD-0
  6
PHANTOM
 62
       3
100
AcDbLine
 10
30.61571341
 20
-3.26217637
 30
0.0
 11
28.44078168
 21
-3.26623896
 31
0.0
  0
LINE
  5
8A
100
AcDbEntity
  8
SLD-0
  6
PHANTOM
 62
       3
100
AcDbLine
 10
49.22349135
 20
5.18581403
 30
0.0
 11
49.22349135
 21
-3.26418558
 31
0.0
  0
LINE
  5
8B
100
AcDbEntity
  8
SLD-0
  6
PHANTOM
 62
       3
100
AcDbLine
 10
50.8734891
 20
5.18581403
 30
0.0
 11
49.22349135
 21
5.18581403
 31
0.0
  0
LINE
  5
8C
100
AcDbEntity
  8
SLD-0
  6
PHANTOM
 62
       3
100
AcDbLine
 10
50.8734891
 20
-3.26418558
 30
0.0
 11
49.22349135
 21
-3.26418558
 31
0.0
  0
LINE
  5
8D
100
AcDbEntity
  8
SLD-0
  6
PHANTOM
 62
       3
100
AcDbLine
 10
49.22349135
 20
5.18581403
 30
0.0
 11
30.57069048
 21
5.1858135
 31
0.0
  0
LINE
  5
8E
100
AcDbEntity
  8
SLD-0
  6
PHANTOM
 62
       3
100
AcDbLine
 10
31.92348957
 20
6.38581292
 30
0.0
 11
31.92349027
 21
5.18581403
 31
0.0
  0
LINE
  5
8F
100
AcDbEntity
  8
SLD-0
  6
PHANTOM
 62
       3
100
AcDbLine
 10
30.12348839
 20
11.03581353
 30
0.0
 11
30.12348981
 21
6.98581338
 31
0.0
  0
LINE
  5
90
100
AcDbEntity
  8
SLD-0
  6
PHANTOM
 62
       3
100
AcDbLine
 10
28.39429059
 20
12.43564072
 30
0.0
 11
30.12348839
 21
11.03581353
 31
0.0
  0
LINE
  5
91
100
AcDbEntity
  8
SLD-0
  6
PHANTOM
 62
       3
100
AcDbLine
 10
28.02348971
 20
15.23581319
 30
0.0
 11
28.02348943
 21
13.21288521
 31
0.0
  0
LINE
  5
92
100
AcDbEntity
  8
SLD-0
  6
PHANTOM
 62
       3
100
AcDbLine
 10
50.8734891
 20
15.73581306
 30
0.0
 11
28.52348957
 21
15.73581306
 31
0.0
  0
LINE
  5
93
100
AcDbEntity
  8
SLD-0
  6
PHANTOM
 62
       3
100
AcDbLine
 10
44.32349036
 20
5.18581403
 30
0.0
 11
44.32348982
 21
-2.16418627
 31
0.0
  0
LINE
  5
94
100
AcDbEntity
  8
SLD-0
  6
PHANTOM
 62
       3
100
AcDbLine
 10
45.42348982
 20
-3.26418627
 30
0.0
 11
49.22349135
 21
-3.26418558
 31
0.0
  0
LINE
  5
95
100
AcDbEntity
  8
SLD-0
  6
PHANTOM
 62
       3
100
AcDbLine
 10
30.57069048
 20
5.1858135
 30
0.0
 11
30.61571341
 21
-3.26217637
 31
0.0
  0
LINE
  5
96
100
AcDbEntity
  8
SLD-0
  6
PHANTOM
 62
       3
100
AcDbLine
 10
50.8734891
 20
15.73955789
 30
0.0
 11
28.52348943
 21
15.73955789
 31
0.0
  0
ARC
  5
97
100
AcDbEntity
  8
SLD-0
  6
PHANTOM
 62
       3
100
AcDbCircle
 10
60.37649582
 20
5.54342113
 30
0.0
 40
33.5
100
AcDbArc
 50
167.88334717
 51
194.58452094
  0
ARC
  5
98
100
AcDbEntity
  8
SLD-0
  6
PHANTOM
 62
       3
100
AcDbCircle
 10
28.43984691
 20
-2.76624001
 30
0.0
 40
0.49999982
100
AcDbArc
 50
194.58452185
 51
270.10711685
  0
ARC
  5
99
100
AcDbEntity
  8
SLD-0
  6
PHANTOM
 62
       3
100
AcDbCircle
 10
60.37649582
 20
5.54342113
 30
0.0
 40
33.5
100
AcDbArc
 50
164.96363983
 51
167.88334717
  0
ARC
  5
9A
100
AcDbEntity
  8
SLD-0
  6
PHANTOM
 62
       3
100
AcDbCircle
 10
30.72349027
 20
6.98581338
 30
0.0
 40
0.60000046
100
AcDbArc
 50
180.0
 51
270.0
  0
ARC
  5
9B
100
AcDbEntity
  8
SLD-0
  6
PHANTOM
 62
       3
100
AcDbCircle
 10
29.02348966
 20
13.21288521
 30
0.0
 40
1.00000023
100
AcDbArc
 50
180.0
 51
231.00895477
  0
ARC
  5
9C
100
AcDbEntity
  8
SLD-0
  6
PHANTOM
 62
       3
100
AcDbCircle
 10
28.52348957
 20
15.2358132
 30
0.0
 40
0.49999986
100
AcDbArc
 50
90.0
 51
180.00000115
  0
ARC
  5
9D
100
AcDbEntity
  8
SLD-0
  6
PHANTOM
 62
       3
100
AcDbCircle
 10
45.42348982
 20
-2.16418627
 30
0.0
 40
1.1
100
AcDbArc
 50
180.0
 51
270.0
  0
ARC
  5
9E
100
AcDbEntity
  8
SLD-0
  6
PHANTOM
 62
       3
100
AcDbCircle
 10
28.52348943
 20
15.23955789
 30
0.0
 40
0.5
100
AcDbArc
 50
90.0
 51
180.0
  0
LINE
  5
9F
100
AcDbEntity
  8
SLD-0
  6
CENTERX2
 62
       3
100
AcDbLine
 10
2.2292593
 20
18.0868145
 30
0.0
 11
-80.22674209
 21
18.0868145
 31
0.0
  0
LINE
  5
A0
100
AcDbEntity
  8
SLD-0
  6
CENTERX2
 62
       3
100
AcDbLine
 10
26.1264126
 20
18.086815
 30
0.0
 11
80.37348908
 21
18.086815
 31
0.0
  0
LINE
  5
A1
100
AcDbEntity
  8
SLD-0_0
  6
CONTINUOUS
 62
       3
100
AcDbLine
 10
-69.55000236
 20
39.08680722
 30
0.0
 11
-71.35349362
 21
39.11828779
 31
0.0
  0
LINE
  5
A2
100
AcDbEntity
  8
SLD-0_0
  6
CONTINUOUS
 62
       3
100
AcDbLine
 10
-71.35349331
 20
40.55532872
 30
0.0
 11
-69.55000205
 21
40.58680928
 31
0.0
  0
LINE
  5
A3
100
AcDbEntity
  8
SLD-0_0
  6
CONTINUOUS
 62
       3
100
AcDbLine
 10
-69.55000224
 20
18.23680763
 30
0.0
 11
-71.3534935
 21
18.26828767
 31
0.0
  0
LINE
  5
A4
100
AcDbEntity
  8
SLD-0_0
  6
CONTINUOUS
 62
       3
100
AcDbLine
 10
-71.35349347
 20
19.70532856
 30
0.0
 11
-69.55000221
 21
19.73680854
 31
0.0
  0
LINE
  5
A5
100
AcDbEntity
  8
SLD-0_0
  6
CONTINUOUS
 62
       3
100
AcDbLine
 10
-71.55000208
 20
40.25537364
 30
0.0
 11
-71.55000208
 21
40.35535857
 31
0.0
  0
LINE
  5
A6
100
AcDbEntity
  8
SLD-0_0
  6
CONTINUOUS
 62
       3
100
AcDbLine
 10
-71.55000208
 20
18.56824244
 30
0.0
 11
-71.55000208
 21
19.40537379
 31
0.0
  0
LINE
  5
A7
100
AcDbEntity
  8
SLD-0_0
  6
CONTINUOUS
 62
       3
100
AcDbLine
 10
-71.55000208
 20
39.41824317
 30
0.0
 11
-71.55000208
 21
40.25537364
 31
0.0
  0
LINE
  5
A8
100
AcDbEntity
  8
SLD-0_0
  6
CONTINUOUS
 62
       3
100
AcDbLine
 10
-71.55000208
 20
18.46825769
 30
0.0
 11
-71.55000208
 21
18.56824244
 31
0.0
  0
LINE
  5
A9
100
AcDbEntity
  8
SLD-0_0
  6
CONTINUOUS
 62
       3
100
AcDbLine
 10
-71.55000208
 20
19.40537379
 30
0.0
 11
-71.55000208
 21
19.50535848
 31
0.0
  0
LINE
  5
AA
100
AcDbEntity
  8
SLD-0_0
  6
CONTINUOUS
 62
       3
100
AcDbLine
 10
-71.55000208
 20
39.31825824
 30
0.0
 11
-71.55000208
 21
39.41824317
 31
0.0
  0
LINE
  5
AB
100
AcDbEntity
  8
SLD-0_0
  6
CONTINUOUS
 62
       3
100
AcDbLine
 10
-76.44999934
 20
29.73680787
 30
0.0
 11
-69.55000175
 21
29.73680787
 31
0.0
  0
LINE
  5
AC
100
AcDbEntity
  8
SLD-0_0
  6
CONTINUOUS
 62
       3
100
AcDbLine
 10
-76.44999934
 20
29.73680787
 30
0.0
 11
-76.44999934
 21
30.99562723
 31
0.0
  0
LINE
  5
AD
100
AcDbEntity
  8
SLD-0_0
  6
CONTINUOUS
 62
       3
100
AcDbLine
 10
-76.44999934
 20
30.99562723
 30
0.0
 11
-76.44999934
 21
34.4956278
 31
0.0
  0
LINE
  5
AE
100
AcDbEntity
  8
SLD-0_0
  6
CONTINUOUS
 62
       3
100
AcDbLine
 10
-76.44999934
 20
35.23680784
 30
0.0
 11
-69.55000175
 21
35.23680784
 31
0.0
  0
LINE
  5
AF
100
AcDbEntity
  8
SLD-0_0
  6
CONTINUOUS
 62
       3
100
AcDbLine
 10
-76.44999934
 20
34.4956278
 30
0.0
 11
-76.44999934
 21
35.23680784
 31
0.0
  0
LINE
  5
B0
100
AcDbEntity
  8
SLD-0_0
  6
CONTINUOUS
 62
       3
100
AcDbLine
 10
-72.2000019
 20
39.78680849
 30
0.0
 11
-72.2000019
 21
38.03680867
 31
0.0
  0
LINE
  5
B1
100
AcDbEntity
  8
SLD-0_0
  6
CONTINUOUS
 62
       3
100
AcDbLine
 10
-71.55000208
 20
39.78680849
 30
0.0
 11
-72.2000019
 21
39.78680849
 31
0.0
  0
LINE
  5
B2
100
AcDbEntity
  8
SLD-0_0
  6
CONTINUOUS
 62
       3
100
AcDbLine
 10
-69.55000175
 20
38.03680867
 30
0.0
 11
-72.2000019
 21
38.03680867
 31
0.0
  0
LINE
  5
B3
100
AcDbEntity
  8
SLD-0_0
  6
CONTINUOUS
 62
       3
100
AcDbLine
 10
-69.55000175
 20
-3.61319229
 30
0.0
 11
-72.2000019
 21
-3.61319229
 31
0.0
  0
LINE
  5
B4
100
AcDbEntity
  8
SLD-0_0
  6
CONTINUOUS
 62
       3
100
AcDbLine
 10
-72.2000019
 20
-3.61319229
 30
0.0
 11
-72.2000019
 21
-1.86319247
 31
0.0
  0
LINE
  5
B5
100
AcDbEntity
  8
SLD-0_0
  6
CONTINUOUS
 62
       3
100
AcDbLine
 10
-69.55000175
 20
-1.86319247
 30
0.0
 11
-72.2000019
 21
-1.86319247
 31
0.0
  0
LINE
  5
B6
100
AcDbEntity
  8
SLD-0_0
  6
CONTINUOUS
 62
       3
100
AcDbLine
 10
-81.00000186
 20
38.58680867
 30
0.0
 11
-72.2000019
 21
38.58680867
 31
0.0
  0
LINE
  5
B7
100
AcDbEntity
  8
SLD-0_0
  6
CONTINUOUS
 62
       3
100
AcDbLine
 10
-81.00000186
 20
39.88680832
 30
0.0
 11
-80.50000084
 21
40.38680747
 31
0.0
  0
LINE
  5
B8
100
AcDbEntity
  8
SLD-0_0
  6
CONTINUOUS
 62
       3
100
AcDbLine
 10
-71.55000208
 20
40.33680849
 30
0.0
 11
-74.6500024
 21
40.33680849
 31
0.0
  0
LINE
  5
B9
100
AcDbEntity
  8
SLD-0_0
  6
CONTINUOUS
 62
       3
100
AcDbLine
 10
-79.05000238
 20
40.38680747
 30
0.0
 11
-80.50000084
 21
40.38680747
 31
0.0
  0
LINE
  5
BA
100
AcDbEntity
  8
SLD-0_0
  6
CONTINUOUS
 62
       3
100
AcDbLine
 10
-76.83327956
 20
42.33752221
 30
0.0
 11
-79.05000238
 21
40.38680747
 31
0.0
  0
LINE
  5
BB
100
AcDbEntity
  8
SLD-0_0
  6
CONTINUOUS
 62
       3
100
AcDbLine
 10
-81.00000186
 20
39.88680832
 30
0.0
 11
-81.00000186
 21
38.58680867
 31
0.0
  0
LINE
  5
BC
100
AcDbEntity
  8
SLD-0_0
  6
CONTINUOUS
 62
       3
100
AcDbLine
 10
-74.6500024
 20
40.33680849
 30
0.0
 11
-74.6500024
 21
42.58680746
 31
0.0
  0
LINE
  5
BD
100
AcDbEntity
  8
SLD-0_0
  6
CONTINUOUS
 62
       3
100
AcDbLine
 10
-74.6500024
 20
42.58680746
 30
0.0
 11
-76.17265148
 21
42.58680746
 31
0.0
  0
LINE
  5
BE
100
AcDbEntity
  8
SLD-0_0
  6
CONTINUOUS
 62
       3
100
AcDbLine
 10
-81.00000186
 20
-3.71319212
 30
0.0
 11
-80.50000084
 21
-4.21319127
 31
0.0
  0
LINE
  5
BF
100
AcDbEntity
  8
SLD-0_0
  6
CONTINUOUS
 62
       3
100
AcDbLine
 10
-69.55000175
 20
-4.16319229
 30
0.0
 11
-74.6500024
 21
-4.16319229
 31
0.0
  0
LINE
  5
C0
100
AcDbEntity
  8
SLD-0_0
  6
CONTINUOUS
 62
       3
100
AcDbLine
 10
-74.6500024
 20
-4.16319229
 30
0.0
 11
-74.6500024
 21
-6.41319126
 31
0.0
  0
LINE
  5
C1
100
AcDbEntity
  8
SLD-0_0
  6
CONTINUOUS
 62
       3
100
AcDbLine
 10
-74.6500024
 20
-6.41319126
 30
0.0
 11
-76.17265148
 21
-6.41319126
 31
0.0
  0
LINE
  5
C2
100
AcDbEntity
  8
SLD-0_0
  6
CONTINUOUS
 62
       3
100
AcDbLine
 10
-76.83327956
 20
-6.16390601
 30
0.0
 11
-79.05000238
 21
-4.21319127
 31
0.0
  0
LINE
  5
C3
100
AcDbEntity
  8
SLD-0_0
  6
CONTINUOUS
 62
       3
100
AcDbLine
 10
-79.05000238
 20
-4.21319127
 30
0.0
 11
-80.50000084
 21
-4.21319127
 31
0.0
  0
LINE
  5
C4
100
AcDbEntity
  8
SLD-0_0
  6
CONTINUOUS
 62
       3
100
AcDbLine
 10
-81.00000186
 20
-3.71319212
 30
0.0
 11
-81.00000186
 21
-2.41319247
 31
0.0
  0
LINE
  5
C5
100
AcDbEntity
  8
SLD-0_0
  6
CONTINUOUS
 62
       3
100
AcDbLine
 10
-81.00000186
 20
-2.41319247
 30
0.0
 11
-72.2000019
 21
-2.41319247
 31
0.0
  0
LINE
  5
C6
100
AcDbEntity
  8
SLD-0_0
  6
CONTINUOUS
 62
       3
100
AcDbLine
 10
-74.25000344
 20
25.28680807
 30
0.0
 11
-74.25000344
 21
25.28701436
 31
0.0
  0
LINE
  5
C7
100
AcDbEntity
  8
SLD-0_0
  6
CONTINUOUS
 62
       3
100
AcDbLine
 10
-74.2500011
 20
25.48680825
 30
0.0
 11
-69.55000175
 21
25.48680825
 31
0.0
  0
LINE
  5
C8
100
AcDbEntity
  8
SLD-0_0
  6
CONTINUOUS
 62
       3
100
AcDbLine
 10
-74.25000344
 20
10.88680832
 30
0.0
 11
-74.25000344
 21
25.28680807
 31
0.0
  0
LINE
  5
C9
100
AcDbEntity
  8
SLD-0_0
  6
CONTINUOUS
 62
       3
100
AcDbLine
 10
-74.25000344
 20
10.88660203
 30
0.0
 11
-74.25000344
 21
10.88680832
 31
0.0
  0
LINE
  5
CA
100
AcDbEntity
  8
SLD-0_0
  6
CONTINUOUS
 62
       3
100
AcDbLine
 10
-69.55000175
 20
10.68680813
 30
0.0
 11
-74.2500011
 21
10.68680813
 31
0.0
  0
LINE
  5
CB
100
AcDbEntity
  8
SLD-0_0
  6
CONTINUOUS
 62
       3
100
AcDbLine
 10
-75.75908093
 20
25.41821358
 30
0.0
 11
-74.2500011
 21
25.48680825
 31
0.0
  0
LINE
  5
CC
100
AcDbEntity
  8
SLD-0_0
  6
CONTINUOUS
 62
       3
100
AcDbLine
 10
-74.2500011
 20
10.68680813
 30
0.0
 11
-75.75908093
 21
10.7554028
 31
0.0
  0
LINE
  5
CD
100
AcDbEntity
  8
SLD-0_0
  6
CONTINUOUS
 62
       3
100
AcDbLine
 10
-75.95000147
 20
10.95519718
 30
0.0
 11
-75.95000052
 21
25.21842032
 31
0.0
  0
ARC
  5
CE
100
AcDbEntity
  8
SLD-0_0
  6
CONTINUOUS
 62
       3
100
AcDbCircle
 10
-71.35000139
 20
40.35535852
 30
0.0
 40
0.20000069
100
AcDbArc
 50
91.00040879
 51
179.99998568
  0
ARC
  5
CF
100
AcDbEntity
  8
SLD-0_0
  6
CONTINUOUS
 62
       3
100
AcDbCircle
 10
-71.35000158
 20
18.46825768
 30
0.0
 40
0.2000005
100
AcDbArc
 50
179.99999714
 51
268.99959026
  0
ARC
  5
D0
100
AcDbEntity
  8
SLD-0_0
  6
CONTINUOUS
 62
       3
100
AcDbCircle
 10
-71.35000155
 20
19.50535852
 30
0.0
 40
0.20000053
100
AcDbArc
 50
91.00040959
 51
180.00001146
  0
ARC
  5
D1
100
AcDbEntity
  8
SLD-0_0
  6
CONTINUOUS
 62
       3
100
AcDbCircle
 10
-71.3500017
 20
39.31825768
 30
0.0
 40
0.20000038
100
AcDbArc
 50
179.99983957
 51
268.99958966
  0
ARC
  5
D2
100
AcDbEntity
  8
SLD-0_0
  6
CONTINUOUS
 62
       3
100
AcDbCircle
 10
-76.1726533
 20
41.5868081
 30
0.0
 40
0.99999936
100
AcDbArc
 50
89.99989572
 51
131.34768445
  0
ARC
  5
D3
100
AcDbEntity
  8
SLD-0_0
  6
CONTINUOUS
 62
       3
100
AcDbCircle
 10
-76.1726533
 20
-5.4131919
 30
0.0
 40
0.99999936
100
AcDbArc
 50
228.65231555
 51
270.00010428
  0
ARC
  5
D4
100
AcDbEntity
  8
SLD-0_0
  6
CONTINUOUS
 62
       3
100
AcDbCircle
 10
-75.7500006
 20
25.2184199
 30
0.0
 40
0.19999992
100
AcDbArc
 50
92.6022188
 51
179.9998805
  0
ARC
  5
D5
100
AcDbEntity
  8
SLD-0_0
  6
CONTINUOUS
 62
       3
100
AcDbCircle
 10
-75.75000108
 20
10.95519697
 30
0.0
 40
0.20000039
100
AcDbArc
 50
179.99993984
 51
267.39792522
  0
ARC
  5
D6
100
AcDbEntity
  8
SLD-0_0
  6
CONTINUOUS
 62
       3
100
AcDbCircle
 10
-72.0500011
 20
42.3868081
 30
0.0
 40
4.25
100
AcDbArc
 50
243.39531831
 51
268.66724374
  0
ARC
  5
D7
100
AcDbEntity
  8
SLD-0_0
  6
CONTINUOUS
 62
       3
100
AcDbCircle
 10
-72.0500011
 20
-6.2131919
 30
0.0
 40
4.25
100
AcDbArc
 50
91.33275626
 51
116.60468169
  0
ELLIPSE
  5
D8
100
AcDbEntity
  8
SLD-0_0
  6
CONTINUOUS
 62
       3
100
AcDbEllipse
 10
-74.24545799
 20
25.28680828
 30
0.0
 11
-0.0045431085054872
 21
0.1999999734296978
 31
0.0
210
0.0
220
0.0
230
1.0
 40
0.02269214
 41
0.0000003462857208
 42
1.5692504617519496
  0
ELLIPSE
  5
D9
100
AcDbEntity
  8
SLD-0_0
  6
CONTINUOUS
 62
       3
100
AcDbEllipse
 10
-74.24545799
 20
10.8868081
 30
0.0
 11
0.0045431085054588
 21
0.199999973429712
 31
0.0
210
0.0
220
0.0
230
1.0
 40
0.02269214
 41
1.5723421418634254
 42
3.1415923072977261
  0
ARC
  5
DA
100
AcDbEntity
  8
SLD-0_0
  6
CONTINUOUS
 62
       3
100
AcDbCircle
 10
-17.04999729
 20
32.65754422
 30
0.0
 40
15.08583675
100
AcDbArc
 50
238.652369
 51
301.347631
  0
ARC
  5
DB
100
AcDbEntity
  8
SLD-0_0
  6
CONTINUOUS
 62
       3
100
AcDbCircle
 10
111.2266145
 20
29.51118828
 30
0.0
 40
82.7
100
AcDbArc
 50
179.53262141
 51
188.09670376
  0
ARC
  5
DC
100
AcDbEntity
  8
SLD-0_0
  6
CONTINUOUS
 62
       3
100
AcDbCircle
 10
111.2266145
 20
29.51118828
 30
0.0
 40
82.7
100
AcDbArc
 50
170.55228006
 51
175.01197225
  0
TEXT
  5
DD
100
AcDbEntity
  8
SLD-0_0
 62
       3
100
AcDbText
 10
42.96341951
 20
-45.58681322
 30
0.0
 40
5.0
  1
000
 72
       5
 11
57.96341951
 21
-45.58681322
 31
0.0
100
AcDbText
  0
ENDSEC
  0
SECTION
  2
OBJECTS
  0
DICTIONARY
  5
19
100
AcDbDictionary
  3
ACAD_GROUP
350
1A
  3
ACAD_MLINESTYLE
350
1B
  0
DICTIONARY
  5
1A
102
{ACAD_REACTORS
330
19
102
}
100
AcDbDictionary
  0
DICTIONARY
  5
1B
102
{ACAD_REACTORS
330
19
102
}
100
AcDbDictionary
  3
STANDARD
350
1C
  0
MLINESTYLE
  5
1C
102
{ACAD_REACTORS
330
1B
102
}
100
AcDbMlineStyle
  2
STANDARD
 70
       0
  3

 62
       0
 51
90.0
 52
90.0
 71
       2
 49
0.5
 62
     256
  6
BYLAYER
 49
-0.5
 62
     256
  6
BYLAYER
  0
ENDSEC
  0
EOF
