  0
SECTION
  2
HEADER
  9
$ACADVER
  1
AC1014
  9
$ACADMAINTVER
 70
       0
  9
$DWGCODEPAGE
  3
ANSI_932
  9
$INSBASE
 10
0.0
 20
0.0
 30
0.0
  9
$EXTMIN
 10
-133.9086611
 20
-50.14644854
 30
0.0
  9
$EXTMAX
 10
133.9086611
 20
47.64644854
 30
0.0
  9
$LIMMIN
 10
-142.27795242
 20
-53.20247657
  9
$LIMMAX
 10
142.27795242
 20
50.70247657
  9
$ORTHOMODE
 70
       0
  9
$REGENMODE
 70
       1
  9
$FILLMODE
 70
       1
  9
$QTEXTMODE
 70
       0
  9
$MIRRTEXT
 70
       1
  9
$DRAGMODE
 70
       2
  9
$LTSCALE
 40
1.0
  9
$OSMODE
 70
       0
  9
$ATTMODE
 70
       1
  9
$TEXTSIZE
 40
0.2
  9
$TRACEWID
 40
0.05
  9
$TEXTSTYLE
  7
STANDARD
  9
$CLAYER
  8
0
  9
$CELTYPE
  6
CONTINUOUS
  9
$CECOLOR
 62
     256
  9
$CELTSCALE
 40
1.0
  9
$DELOBJ
 70
       1
  9
$DISPSILH
 70
       0
  9
$DIMSCALE
 40
1.0
  9
$DIMASZ
 40
0.18
  9
$DIMEXO
 40
0.0625
  9
$DIMDLI
 40
0.38
  9
$DIMRND
 40
0.0
  9
$DIMDLE
 40
0.0
  9
$DIMEXE
 40
0.18
  9
$DIMTP
 40
0.0
  9
$DIMTM
 40
0.0
  9
$DIMTXT
 40
0.18
  9
$DIMCEN
 40
0.09
  9
$DIMTSZ
 40
0.0
  9
$DIMTOL
 70
       0
  9
$DIMLIM
 70
       0
  9
$DIMTIH
 70
       1
  9
$DIMTOH
 70
       1
  9
$DIMSE1
 70
       0
  9
$DIMSE2
 70
       0
  9
$DIMTAD
 70
       0
  9
$DIMZIN
 70
       0
  9
$DIMBLK
  1

  9
$DIMASO
 70
       1
  9
$DIMSHO
 70
       1
  9
$DIMPOST
  1

  9
$DIMAPOST
  1

  9
$DIMALT
 70
       0
  9
$DIMALTD
 70
       2
  9
$DIMALTF
 40
25.4
  9
$DIMLFAC
 40
1.0
  9
$DIMTOFL
 70
       0
  9
$DIMTVP
 40
0.0
  9
$DIMTIX
 70
       0
  9
$DIMSOXD
 70
       0
  9
$DIMSAH
 70
       0
  9
$DIMBLK1
  1

  9
$DIMBLK2
  1

  9
$DIMSTYLE
  2
STANDARD
  9
$DIMCLRD
 70
       0
  9
$DIMCLRE
 70
       0
  9
$DIMCLRT
 70
       0
  9
$DIMTFAC
 40
1.0
  9
$DIMGAP
 40
0.09
  9
$DIMJUST
 70
       0
  9
$DIMSD1
 70
       0
  9
$DIMSD2
 70
       0
  9
$DIMTOLJ
 70
       1
  9
$DIMTZIN
 70
       0
  9
$DIMALTZ
 70
       0
  9
$DIMALTTZ
 70
       0
  9
$DIMFIT
 70
       3
  9
$DIMUPT
 70
       0
  9
$DIMUNIT
 70
       2
  9
$DIMDEC
 70
       4
  9
$DIMTDEC
 70
       4
  9
$DIMALTU
 70
       2
  9
$DIMALTTD
 70
       2
  9
$DIMTXSTY
  7
STANDARD
  9
$DIMAUNIT
 70
       0
  9
$LUNITS
 70
       2
  9
$LUPREC
 70
       4
  9
$SKETCHINC
 40
0.1
  9
$FILLETRAD
 40
0.0
  9
$AUNITS
 70
       0
  9
$AUPREC
 70
       0
  9
$MENU
  1
acad
  9
$ELEVATION
 40
0.0
  9
$PELEVATION
 40
0.0
  9
$THICKNESS
 40
0.0
  9
$LIMCHECK
 70
       0
  9
$BLIPMODE
 70
       1
  9
$CHAMFERA
 40
0.0
  9
$CHAMFERB
 40
0.0
  9
$CHAMFERC
 40
0.0
  9
$CHAMFERD
 40
0.0
  9
$SKPOLY
 70
       0
  9
$TDCREATE
 40
0.000000000
  9
$TDUPDATE
 40
0.000000000
  9
$TDINDWG
 40
0.0000000000
  9
$TDUSRTIMER
 40
0.0000000000
  9
$USRTIMER
 70
       1
  9
$ANGBASE
 50
0.0
  9
$ANGDIR
 70
       0
  9
$PDMODE
 70
       0
  9
$PDSIZE
 40
1.0
  9
$PLINEWID
 40
0.0
  9
$COORDS
 70
       1
  9
$SPLFRAME
 70
       0
  9
$SPLINETYPE
 70
       6
  9
$SPLINESEGS
 70
       8
  9
$ATTDIA
 70
       0
  9
$ATTREQ
 70
       1
  9
$HANDLING
 70
       1
  9
$HANDSEED
  5
17E
  9
$SURFTAB1
 70
       6
  9
$SURFTAB2
 70
       6
  9
$SURFTYPE
 70
       6
  9
$SURFU
 70
       6
  9
$SURFV
 70
       6
  9
$UCSNAME
  2

  9
$UCSORG
 10
0.0
 20
0.0
 30
0.0
  9
$UCSXDIR
 10
1.0
 20
0.0
 30
0.0
  9
$UCSYDIR
 10
0.0
 20
1.0
 30
0.0
  9
$PUCSNAME
  2

  9
$PUCSORG
 10
0.0
 20
0.0
 30
0.0
  9
$PUCSXDIR
 10
1.0
 20
0.0
 30
0.0
  9
$PUCSYDIR
 10
0.0
 20
1.0
 30
0.0
  9
$USERI1
 70
       0
  9
$USERI2
 70
       0
  9
$USERI3
 70
       0
  9
$USERI4
 70
       0
  9
$USERI5
 70
       0
  9
$USERR1
 40
0.0
  9
$USERR2
 40
0.0
  9
$USERR3
 40
0.0
  9
$USERR4
 40
0.0
  9
$USERR5
 40
0.0
  9
$WORLDVIEW
 70
       1
  9
$SHADEDGE
 70
       3
  9
$SHADEDIF
 70
      70
  9
$TILEMODE
 70
       1
  9
$MAXACTVP
 70
      16
  9
$PINSBASE
 10
0.0
 20
0.0
 30
0.0
  9
$PLIMCHECK
 70
       0
  9
$PEXTMIN
 10
1.00000000E+20
 20
1.00000000E+20
 30
1.00000000E+20
  9
$PEXTMAX
 10
-1.00000000E+20
 20
-1.00000000E+20
 30
-1.00000000E+20
  9
$PLIMMIN
 10
0.0
 20
0.0
  9
$PLIMMAX
 10
12.0
 20
9.0
  9
$UNITMODE
 70
       0
  9
$VISRETAIN
 70
       0
  9
$PLINEGEN
 70
       1
  9
$PSLTSCALE
 70
       0
  9
$TREEDEPTH
 70
    3020
  9
$PICKSTYLE
 70
       1
  9
$CMLSTYLE
  2
STANDARD
  9
$CMLJUST
 70
       0
  9
$CMLSCALE
 40
1.0
  9
$PROXYGRAPHICS
 70
       0
  9
$MEASUREMENT
 70
       0
  0
ENDSEC
  0
SECTION
  2
CLASSES
  0
CLASS
  1
LWPOLYLINE
  2
AcDbPolyline
  3
"AutoCAD"
 90
        0
280
       0
281
       1
  0
CLASS
  1
IMAGE
  2
AcDbRasterImage
  3
ISM
 90
      127
280
       0
281
       1
  0
CLASS
  1
OLE2FRAME
  2
AcDbOle2Frame
  3
""
 90
        0
280
       0
281
       1
  0
CLASS
  1
HATCH
  2
AcDbHatch
  3
"ACAD_SEDONA"
 90
        0
280
       0
281
       1
  0
CLASS
  1
DICTIONARYVAR
  2
AcDbDictionaryVar
  3
"AutoCAD"
 90
        0
280
       0
281
       0
  0
CLASS
  1
RASTERVARIABLES
  2
AcDbRasterVariables
  3
ISM
 90
        0
280
       0
281
       0
  0
CLASS
  1
IMAGEDEF
  2
AcDbRasterImageDef
  3
ISM
 90
        0
280
       0
281
       0
  0
CLASS
  1
IMAGEDEF_REACTOR
  2
AcDbRasterImageDefReactor
  3
ISM
 90
        1
280
       0
281
       0
  0
CLASS
  1
IDBUFFER
  2
AcDbIdBuffer
  3
"Acad"
 90
        0
280
       0
281
       0
  0
CLASS
  1
SPATIAL_FILTER
  2
AcDbSpatialFilter
  3
"Acad"
 90
        0
280
       0
281
       0
  0
CLASS
  1
XRECORD
  2
AcDbXrecord
  3
"<Built In>"
 90
        0
280
       0
281
       0
  0
CLASS
  1
SORTENTSTABLE
  2
AcDbSortentsTable
  3
"AutoCAD"
 90
        0
280
       0
281
       0
  0
CLASS
  1
LAYER_INDEX
  2
AcDbLayerIndex
  3
"Acad"
 90
        0
280
       0
281
       0
  0
CLASS
  1
SPATIAL_INDEX
  2
AcDbSpatialIndex
  3
"Acad"
 90
        0
280
       0
281
       0
  0
CLASS
  1
OBJECT_PTR
  2
CAseDLPNTableRecord
  3
"ASE-LPNTableRecord"
 90
        1
280
       0
281
       0
  0
CLASS
  1
LAYOUT
  2
AcDbLayout
  3
"AutoCAD 2000"
 90
        1
280
       0
281
       0
  0
CLASS
  1
PLOTSETTINGS
  2
AcDbPlotSettings
  3
"AutoCAD 2000"
 90
        1
280
       0
281
       0
  0
CLASS
  1
ACDBDICTIONARYWDFLT
  2
AcDbDictionaryWithDefault
  3
"AutoCAD 2000"
 90
        1
280
       0
281
       0
  0
CLASS
  1
ACDBPLACEHOLDER
  2
AcDbPlaceHolder
  3
"AutoCAD 2000"
 90
        1
280
       0
281
       0
  0
CLASS
  1
VBA_PROJECT
  2
AcDbVbaProject
  3
"acadvba"
 90
        1
280
       0
281
       0
  0
CLASS
  1
WIPEOUT
  2
AcDbWipeout
  3
WipeOut|AutoCAD Express Tool|expresstools@autodesk.com
 90
      127
280
       0
281
       1
  0
CLASS
  1
WIPEOUTVARIABLES
  2
AcDbWipeoutVariables
  3
WipeOut|AutoCAD Express Tool|expresstools@autodesk.com
 90
        0
280
       0
281
       0
  0
CLASS
  1
RTEXT
  2
RText
  3
RText|AutoCAD Express Tool|expresstools@autodesk.com
 90
        0
280
       0
281
       1
  0
CLASS
  1
ARCALIGNEDTEXT
  2
AcDbArcAlignedText
  3
ATEXT|AutoCAD Express Tool|expresstools@autodesk.com
 90
        0
280
       0
281
       1
  0
ENDSEC
  0
SECTION
  2
TABLES
  0
TABLE
  2
VPORT
  5
7
100
AcDbSymbolTable
 70
       1
  0
VPORT
  5
15
100
AcDbSymbolTableRecord
100
AcDbViewportTableRecord
  2
*ACTIVE
 70
       0
 10
0.0
 20
0.0
 11
1.0
 21
1.0
 12
0.0
 22
-1.25
 13
0.0
 23
0.0
 14
1.0
 24
1.0
 15
0.0
 25
0.0
 16
0.0
 26
0.0
 36
1.0
 17
0.0
 27
0.0
 37
0.0
 40
103.90495314
 41
2.73861733
 42
50.0
 43
0.0
 44
0.0
 50
0.0
 51
0.0
 71
       0
 72
     100
 73
       1
 74
       1
 75
       0
 76
       0
 77
       0
 78
       0
  0
ENDTAB
  0
TABLE
  2
LTYPE
  5
4
100
AcDbSymbolTable
 70
      30
  0
LTYPE
  5
11
100
AcDbSymbolTableRecord
100
AcDbLinetypeTableRecord
  2
BYBLOCK
 70
      64
  3

 72
      65
 73
       0
 40
0.0
  0
LTYPE
  5
12
100
AcDbSymbolTableRecord
100
AcDbLinetypeTableRecord
  2
BYLAYER
 70
      64
  3

 72
      65
 73
       0
 40
0.0
  0
LTYPE
  5
13
100
AcDbSymbolTableRecord
100
AcDbLinetypeTableRecord
  2
CONTINUOUS
 70
      64
  3
Solid line
 72
      65
 73
       0
 40
0.0
  0
LTYPE
  5
1D
100
AcDbSymbolTableRecord
100
AcDbLinetypeTableRecord
  2
HIDDENX2
 70
      64
  3
CADPAC LINETYPE
 72
      65
 73
       2
 40
10.71269289
 49
8.03451967
 74
       0
 49
-2.67817322
 74
       0
  0
LTYPE
  5
1E
100
AcDbSymbolTableRecord
100
AcDbLinetypeTableRecord
  2
HIDDEN
 70
      64
  3
CADPAC LINETYPE
 72
      65
 73
       2
 40
8.03451967
 49
5.35634644
 74
       0
 49
-2.67817322
 74
       0
  0
LTYPE
  5
1F
100
AcDbSymbolTableRecord
100
AcDbLinetypeTableRecord
  2
HIDDEN2
 70
      64
  3
CADPAC LINETYPE
 72
      65
 73
       2
 40
6.69543305
 49
4.01725983
 74
       0
 49
-2.67817322
 74
       0
  0
LTYPE
  5
20
100
AcDbSymbolTableRecord
100
AcDbLinetypeTableRecord
  2
DASHED
 70
      64
  3
CADPAC LINETYPE
 72
      65
 73
       2
 40
8.03451967
 49
5.35634644
 74
       0
 49
-2.67817322
 74
       0
  0
LTYPE
  5
21
100
AcDbSymbolTableRecord
100
AcDbLinetypeTableRecord
  2
DASHED2
 70
      64
  3
CADPAC LINETYPE
 72
      65
 73
       2
 40
6.02588975
 49
4.01725983
 74
       0
 49
-2.00862992
 74
       0
  0
LTYPE
  5
22
100
AcDbSymbolTableRecord
100
AcDbLinetypeTableRecord
  2
DASHEDX2
 70
      64
  3
CADPAC LINETYPE
 72
      65
 73
       2
 40
12.0517795
 49
8.03451967
 74
       0
 49
-4.01725983
 74
       0
  0
LTYPE
  5
23
100
AcDbSymbolTableRecord
100
AcDbLinetypeTableRecord
  2
DOTX2
 70
      64
  3
CADPAC LINETYPE
 72
      65
 73
       2
 40
3.34771653
 49
0.0
 74
       0
 49
-3.34771653
 74
       0
  0
LTYPE
  5
24
100
AcDbSymbolTableRecord
100
AcDbLinetypeTableRecord
  2
DOT
 70
      64
  3
CADPAC LINETYPE
 72
      65
 73
       2
 40
2.67817322
 49
0.0
 74
       0
 49
-2.67817322
 74
       0
  0
LTYPE
  5
25
100
AcDbSymbolTableRecord
100
AcDbLinetypeTableRecord
  2
DOT2
 70
      64
  3
CADPAC LINETYPE
 72
      65
 73
       2
 40
2.00862992
 49
0.0
 74
       0
 49
-2.00862992
 74
       0
  0
LTYPE
  5
26
100
AcDbSymbolTableRecord
100
AcDbLinetypeTableRecord
  2
CENTERX2
 70
      64
  3
CADPAC LINETYPE
 72
      65
 73
       4
 40
16.06903933
 49
6.69543305
 74
       0
 49
-3.34771653
 74
       0
 49
2.67817322
 74
       0
 49
-3.34771653
 74
       0
  0
LTYPE
  5
27
100
AcDbSymbolTableRecord
100
AcDbLinetypeTableRecord
  2
CENTER
 70
      64
  3
CADPAC LINETYPE
 72
      65
 73
       4
 40
12.31959682
 49
5.35634644
 74
       0
 49
-2.67817322
 74
       0
 49
1.60690393
 74
       0
 49
-2.67817322
 74
       0
  0
LTYPE
  5
28
100
AcDbSymbolTableRecord
100
AcDbLinetypeTableRecord
  2
CENTER2
 70
      64
  3
CADPAC LINETYPE
 72
      65
 73
       4
 40
8.57015431
 49
4.01725983
 74
       0
 49
-2.00862992
 74
       0
 49
0.53563464
 74
       0
 49
-2.00862992
 74
       0
  0
LTYPE
  5
29
100
AcDbSymbolTableRecord
100
AcDbLinetypeTableRecord
  2
DASHDOTX2
 70
      64
  3
CADPAC LINETYPE
 72
      65
 73
       4
 40
13.39086611
 49
6.69543305
 74
       0
 49
-3.34771653
 74
       0
 49
0.0
 74
       0
 49
-3.34771653
 74
       0
  0
LTYPE
  5
2A
100
AcDbSymbolTableRecord
100
AcDbLinetypeTableRecord
  2
DASHDOT
 70
      64
  3
CADPAC LINETYPE
 72
      65
 73
       4
 40
10.71269289
 49
5.35634644
 74
       0
 49
-2.67817322
 74
       0
 49
0.0
 74
       0
 49
-2.67817322
 74
       0
  0
LTYPE
  5
2B
100
AcDbSymbolTableRecord
100
AcDbLinetypeTableRecord
  2
DASHDOT2
 70
      64
  3
CADPAC LINETYPE
 72
      65
 73
       4
 40
8.03451967
 49
4.01725983
 74
       0
 49
-2.00862992
 74
       0
 49
0.0
 74
       0
 49
-2.00862992
 74
       0
  0
LTYPE
  5
2C
100
AcDbSymbolTableRecord
100
AcDbLinetypeTableRecord
  2
DIVIDEX2
 70
      64
  3
CADPAC LINETYPE
 72
      65
 73
       6
 40
16.73858264
 49
6.69543305
 74
       0
 49
-3.34771653
 74
       0
 49
0.0
 74
       0
 49
-3.34771653
 74
       0
 49
0.0
 74
       0
 49
-3.34771653
 74
       0
  0
LTYPE
  5
2D
100
AcDbSymbolTableRecord
100
AcDbLinetypeTableRecord
  2
DIVIDE
 70
      64
  3
CADPAC LINETYPE
 72
      65
 73
       6
 40
13.39086611
 49
5.35634644
 74
       0
 49
-2.67817322
 74
       0
 49
0.0
 74
       0
 49
-2.67817322
 74
       0
 49
0.0
 74
       0
 49
-2.67817322
 74
       0
  0
LTYPE
  5
2E
100
AcDbSymbolTableRecord
100
AcDbLinetypeTableRecord
  2
DIVIDE2
 70
      64
  3
CADPAC LINETYPE
 72
      65
 73
       6
 40
10.04314958
 49
4.01725983
 74
       0
 49
-2.00862992
 74
       0
 49
0.0
 74
       0
 49
-2.00862992
 74
       0
 49
0.0
 74
       0
 49
-2.00862992
 74
       0
  0
LTYPE
  5
2F
100
AcDbSymbolTableRecord
100
AcDbLinetypeTableRecord
  2
BORDERX2
 70
      64
  3
CADPAC LINETYPE
 72
      65
 73
       6
 40
23.43401569
 49
6.69543305
 74
       0
 49
-3.34771653
 74
       0
 49
6.69543305
 74
       0
 49
-3.34771653
 74
       0
 49
0.0
 74
       0
 49
-3.34771653
 74
       0
  0
LTYPE
  5
30
100
AcDbSymbolTableRecord
100
AcDbLinetypeTableRecord
  2
BORDER
 70
      64
  3
CADPAC LINETYPE
 72
      65
 73
       6
 40
18.74721255
 49
5.35634644
 74
       0
 49
-2.67817322
 74
       0
 49
5.35634644
 74
       0
 49
-2.67817322
 74
       0
 49
0.0
 74
       0
 49
-2.67817322
 74
       0
  0
LTYPE
  5
31
100
AcDbSymbolTableRecord
100
AcDbLinetypeTableRecord
  2
BORDER2
 70
      64
  3
CADPAC LINETYPE
 72
      65
 73
       6
 40
14.06040942
 49
4.01725983
 74
       0
 49
-2.00862992
 74
       0
 49
4.01725983
 74
       0
 49
-2.00862992
 74
       0
 49
0.0
 74
       0
 49
-2.00862992
 74
       0
  0
LTYPE
  5
32
100
AcDbSymbolTableRecord
100
AcDbLinetypeTableRecord
  2
PHANTOMX2
 70
      64
  3
CADPAC LINETYPE
 72
      65
 73
       6
 40
20.08629916
 49
6.69543305
 74
       0
 49
-2.67817322
 74
       0
 49
2.67817322
 74
       0
 49
-2.67817322
 74
       0
 49
2.67817322
 74
       0
 49
-2.67817322
 74
       0
  0
LTYPE
  5
33
100
AcDbSymbolTableRecord
100
AcDbLinetypeTableRecord
  2
PHANTOM
 70
      64
  3
CADPAC LINETYPE
 72
      65
 73
       6
 40
16.60467398
 49
5.35634644
 74
       0
 49
-2.67817322
 74
       0
 49
1.60690393
 74
       0
 49
-2.67817322
 74
       0
 49
1.60690393
 74
       0
 49
-2.67817322
 74
       0
  0
LTYPE
  5
34
100
AcDbSymbolTableRecord
100
AcDbLinetypeTableRecord
  2
PHANTOM2
 70
      64
  3
CADPAC LINETYPE
 72
      65
 73
       6
 40
14.19431808
 49
4.01725983
 74
       0
 49
-2.67817322
 74
       0
 49
1.07126929
 74
       0
 49
-2.67817322
 74
       0
 49
1.07126929
 74
       0
 49
-2.67817322
 74
       0
  0
LTYPE
  5
35
100
AcDbSymbolTableRecord
100
AcDbLinetypeTableRecord
  2
ACAD_ISO06W100
 70
      64
  3
CADPAC LINETYPE
 72
      65
 73
       8
 40
18.07766925
 49
6.69543305
 74
       0
 49
-3.34771653
 74
       0
 49
0.0
 74
       0
 49
-2.67817322
 74
       0
 49
0.0
 74
       0
 49
-2.67817322
 74
       0
 49
0.0
 74
       0
 49
-2.67817322
 74
       0
  0
LTYPE
  5
36
100
AcDbSymbolTableRecord
100
AcDbLinetypeTableRecord
  2
ACAD_ISO13W100
 70
      64
  3
CADPAC LINETYPE
 72
      65
 73
       8
 40
21.42538578
 49
5.35634644
 74
       0
 49
-2.67817322
 74
       0
 49
5.35634644
 74
       0
 49
-2.67817322
 74
       0
 49
0.0
 74
       0
 49
-2.67817322
 74
       0
 49
0.0
 74
       0
 49
-2.67817322
 74
       0
  0
LTYPE
  5
37
100
AcDbSymbolTableRecord
100
AcDbLinetypeTableRecord
  2
ACAD_ISO14W100
 70
      64
  3
CADPAC LINETYPE
 72
      65
 73
       8
 40
16.06903933
 49
5.35634644
 74
       0
 49
-2.67817322
 74
       0
 49
0.0
 74
       0
 49
-2.67817322
 74
       0
 49
0.0
 74
       0
 49
-2.67817322
 74
       0
 49
0.0
 74
       0
 49
-2.67817322
 74
       0
  0
ENDTAB
  0
TABLE
  2
LAYER
  5
2
100
AcDbSymbolTable
 70
       3
  0
LAYER
  5
14
100
AcDbSymbolTableRecord
100
AcDbLayerTableRecord
  2
0
 70
       0
 62
       7
  6
CONTINUOUS
  0
LAYER
  5
38
100
AcDbSymbolTableRecord
100
AcDbLayerTableRecord
  2
SLD-0_0
 70
       0
 62
       7
  6
CONTINUOUS
  0
LAYER
  5
39
100
AcDbSymbolTableRecord
100
AcDbLayerTableRecord
  2
SLD-0
 70
       0
 62
       7
  6
CONTINUOUS
  0
ENDTAB
  0
TABLE
  2
STYLE
  5
3
100
AcDbSymbolTable
 70
       1
  0
STYLE
  5
17
100
AcDbSymbolTableRecord
100
AcDbTextStyleTableRecord
  2
STANDARD
 70
       0
 40
0.0
 41
1.0
 50
0.0
 71
       0
 42
5.0
  3
txt.shx
  4
bigfont.shx
  0
ENDTAB
  0
TABLE
  2
VIEW
  5
5
100
AcDbSymbolTable
 70
       1
  0
VIEW
  5
3A
100
AcDbSymbolTableRecord
100
AcDbViewTableRecord
  2
QQQQ
 70
       0
 40
103.90495314
 10
0.0
 20
-1.25
 41
284.55590484
 11
0.0
 21
0.0
 31
1.0
 12
100.0
 22
100.0
 32
0.0
 42
50.0
 43
0.0
 44
0.0
 50
0.0
 71
       0
  0
ENDTAB
  0
TABLE
  2
UCS
  5
6
100
AcDbSymbolTable
 70
       0
  0
ENDTAB
  0
TABLE
  2
APPID
  5
8
100
AcDbSymbolTable
 70
       1
  0
APPID
  5
16
100
AcDbSymbolTableRecord
100
AcDbRegAppTableRecord
  2
ACAD
 70
       0
  0
ENDTAB
  0
TABLE
  2
DIMSTYLE
  5
9
100
AcDbSymbolTable
 70
       1
  0
DIMSTYLE
105
18
100
AcDbSymbolTableRecord
100
AcDbDimStyleTableRecord
  2
STANDARD
 70
       0
  3

  4

  5

  6

  7

 40
1.0
 41
0.18
 42
0.0625
 43
0.38
 44
0.18
 45
0.0
 46
0.0
 47
0.0
 48
0.0
 71
       0
 72
       0
 73
       1
 74
       1
 75
       0
 76
       0
 77
       0
 78
       0
140
0.18
141
0.09
142
0.0
143
25.4
144
1.0
145
0.0
146
1.0
147
0.09
170
       0
171
       2
172
       0
173
       0
174
       0
175
       0
176
       0
177
       0
178
       0
270
       2
271
       4
272
       4
273
       2
274
       2
275
       0
280
       0
281
       0
282
       0
283
       1
284
       0
285
       0
286
       0
287
       0
288
       0
340
17
  0
ENDTAB
  0
TABLE
  2
BLOCK_RECORD
  5
1
100
AcDbSymbolTable
 70
       3
  0
BLOCK_RECORD
  5
A
100
AcDbSymbolTableRecord
100
AcDbBlockTableRecord
  2
*MODEL_SPACE
  0
BLOCK_RECORD
  5
B
100
AcDbSymbolTableRecord
100
AcDbBlockTableRecord
  2
*PAPER_SPACE
  0
BLOCK_RECORD
  5
3B
100
AcDbSymbolTableRecord
100
AcDbBlockTableRecord
  2
GROUP_1
  0
BLOCK_RECORD
  5
3C
100
AcDbSymbolTableRecord
100
AcDbBlockTableRecord
  2
GROUP_2
  0
BLOCK_RECORD
  5
3D
100
AcDbSymbolTableRecord
100
AcDbBlockTableRecord
  2
GROUP_3
  0
ENDTAB
  0
ENDSEC
  0
SECTION
  2
BLOCKS
  0
BLOCK
  5
D
100
AcDbEntity
  8
0
100
AcDbBlockBegin
  2
*MODEL_SPACE
 70
       0
 10
0.0
 20
0.0
 30
0.0
  3
*MODEL_SPACE
  1

  0
ENDBLK
  5
E
100
AcDbEntity
  8
0
100
AcDbBlockEnd
  0
BLOCK
  5
F
100
AcDbEntity
 67
       1
  8
0
100
AcDbBlockBegin
  2
*PAPER_SPACE
 70
       0
 10
0.0
 20
0.0
 30
0.0
  3
*PAPER_SPACE
  1

  0
ENDBLK
  5
10
100
AcDbEntity
 67
       1
  8
0
100
AcDbBlockEnd
  0
BLOCK
  5
3E
100
AcDbEntity
  8
0
100
AcDbBlockBegin
  2
GROUP_1
 70
       0
 10
0.0
 20
0.0
 30
0.0
  3
GROUP_1
  1

  0
LINE
  5
3F
100
AcDbEntity
  8
SLD-0
  6
CONTINUOUS
 62
       3
100
AcDbLine
 10
37.8602338
 20
22.45284029
 30
0.0
 11
37.90229561
 21
22.38567251
 31
0.0
  0
LINE
  5
40
100
AcDbEntity
  8
SLD-0
  6
CONTINUOUS
 62
       3
100
AcDbLine
 10
37.90229561
 20
22.38567251
 30
0.0
 11
37.94746765
 21
22.32101924
 31
0.0
  0
LINE
  5
41
100
AcDbEntity
  8
SLD-0
  6
CONTINUOUS
 62
       3
100
AcDbLine
 10
37.94746765
 20
22.32101924
 30
0.0
 11
37.99552158
 21
22.25872893
 31
0.0
  0
LINE
  5
42
100
AcDbEntity
  8
SLD-0
  6
CONTINUOUS
 62
       3
100
AcDbLine
 10
37.99552158
 20
22.25872893
 30
0.0
 11
38.04622908
 21
22.19865006
 31
0.0
  0
LINE
  5
43
100
AcDbEntity
  8
SLD-0
  6
CONTINUOUS
 62
       3
100
AcDbLine
 10
38.04622908
 20
22.19865006
 30
0.0
 11
38.0993618
 21
22.14063108
 31
0.0
  0
LINE
  5
44
100
AcDbEntity
  8
SLD-0
  6
CONTINUOUS
 62
       3
100
AcDbLine
 10
38.0993618
 20
22.14063108
 30
0.0
 11
38.15469142
 21
22.08452047
 31
0.0
  0
LINE
  5
45
100
AcDbEntity
  8
SLD-0
  6
CONTINUOUS
 62
       3
100
AcDbLine
 10
38.15469142
 20
22.08452047
 30
0.0
 11
38.21198961
 21
22.03016668
 31
0.0
  0
LINE
  5
46
100
AcDbEntity
  8
SLD-0
  6
CONTINUOUS
 62
       3
100
AcDbLine
 10
38.21198961
 20
22.03016668
 30
0.0
 11
38.27098724
 21
21.97746818
 31
0.0
  0
LINE
  5
47
100
AcDbEntity
  8
SLD-0
  6
CONTINUOUS
 62
       3
100
AcDbLine
 10
38.27098724
 20
21.97746818
 30
0.0
 11
38.33127027
 21
21.92659008
 31
0.0
  0
LINE
  5
48
100
AcDbEntity
  8
SLD-0
  6
CONTINUOUS
 62
       3
100
AcDbLine
 10
38.33127027
 20
21.92659008
 30
0.0
 11
38.3927203
 21
21.87747323
 31
0.0
  0
LINE
  5
49
100
AcDbEntity
  8
SLD-0
  6
CONTINUOUS
 62
       3
100
AcDbLine
 10
38.3927203
 20
21.87747323
 30
0.0
 11
38.45526626
 21
21.83001031
 31
0.0
  0
LINE
  5
4A
100
AcDbEntity
  8
SLD-0
  6
CONTINUOUS
 62
       3
100
AcDbLine
 10
38.45526626
 20
21.83001031
 30
0.0
 11
38.5188371
 21
21.78409401
 31
0.0
  0
LINE
  5
4B
100
AcDbEntity
  8
SLD-0
  6
CONTINUOUS
 62
       3
100
AcDbLine
 10
38.5188371
 20
21.78409401
 30
0.0
 11
38.58336175
 21
21.73961701
 31
0.0
  0
LINE
  5
4C
100
AcDbEntity
  8
SLD-0
  6
CONTINUOUS
 62
       3
100
AcDbLine
 10
38.58336175
 20
21.73961701
 30
0.0
 11
38.64876916
 21
21.696472
 31
0.0
  0
LINE
  5
4D
100
AcDbEntity
  8
SLD-0
  6
CONTINUOUS
 62
       3
100
AcDbLine
 10
38.64876916
 20
21.696472
 30
0.0
 11
38.71498827
 21
21.65455166
 31
0.0
  0
LINE
  5
4E
100
AcDbEntity
  8
SLD-0
  6
CONTINUOUS
 62
       3
100
AcDbLine
 10
38.71498827
 20
21.65455166
 30
0.0
 11
38.78196566
 21
21.61375855
 31
0.0
  0
LINE
  5
4F
100
AcDbEntity
  8
SLD-0
  6
CONTINUOUS
 62
       3
100
AcDbLine
 10
38.78196566
 20
21.61375855
 30
0.0
 11
38.84966523
 21
21.57404781
 31
0.0
  0
LINE
  5
50
100
AcDbEntity
  8
SLD-0
  6
CONTINUOUS
 62
       3
100
AcDbLine
 10
38.84966523
 20
21.57404781
 30
0.0
 11
38.91804186
 21
21.53539104
 31
0.0
  0
LINE
  5
51
100
AcDbEntity
  8
SLD-0
  6
CONTINUOUS
 62
       3
100
AcDbLine
 10
38.91804186
 20
21.53539104
 30
0.0
 11
38.98705047
 21
21.49775982
 31
0.0
  0
LINE
  5
52
100
AcDbEntity
  8
SLD-0
  6
CONTINUOUS
 62
       3
100
AcDbLine
 10
38.98705047
 20
21.49775982
 30
0.0
 11
39.05664595
 21
21.46112575
 31
0.0
  0
LINE
  5
53
100
AcDbEntity
  8
SLD-0
  6
CONTINUOUS
 62
       3
100
AcDbLine
 10
39.05664595
 20
21.46112575
 30
0.0
 11
39.1267832
 21
21.42546041
 31
0.0
  0
LINE
  5
54
100
AcDbEntity
  8
SLD-0
  6
CONTINUOUS
 62
       3
100
AcDbLine
 10
39.1267832
 20
21.42546041
 30
0.0
 11
39.19741712
 21
21.39073539
 31
0.0
  0
LINE
  5
55
100
AcDbEntity
  8
SLD-0
  6
CONTINUOUS
 62
       3
100
AcDbLine
 10
39.19741712
 20
21.39073539
 30
0.0
 11
39.26850259
 21
21.35692228
 31
0.0
  0
LINE
  5
56
100
AcDbEntity
  8
SLD-0
  6
CONTINUOUS
 62
       3
100
AcDbLine
 10
39.26850259
 20
21.35692228
 30
0.0
 11
39.33999454
 21
21.32399267
 31
0.0
  0
LINE
  5
57
100
AcDbEntity
  8
SLD-0
  6
CONTINUOUS
 62
       3
100
AcDbLine
 10
39.33999454
 20
21.32399267
 30
0.0
 11
39.41184784
 21
21.29191814
 31
0.0
  0
LINE
  5
58
100
AcDbEntity
  8
SLD-0
  6
CONTINUOUS
 62
       3
100
AcDbLine
 10
39.41184784
 20
21.29191814
 30
0.0
 11
39.4840174
 21
21.26067029
 31
0.0
  0
LINE
  5
59
100
AcDbEntity
  8
SLD-0
  6
CONTINUOUS
 62
       3
100
AcDbLine
 10
39.4840174
 20
21.26067029
 30
0.0
 11
39.55645812
 21
21.2302207
 31
0.0
  0
LINE
  5
5A
100
AcDbEntity
  8
SLD-0
  6
CONTINUOUS
 62
       3
100
AcDbLine
 10
39.55645812
 20
21.2302207
 30
0.0
 11
39.62912489
 21
21.20054097
 31
0.0
  0
LINE
  5
5B
100
AcDbEntity
  8
SLD-0
  6
CONTINUOUS
 62
       3
100
AcDbLine
 10
39.62912489
 20
21.20054097
 30
0.0
 11
39.70197261
 21
21.17160267
 31
0.0
  0
LINE
  5
5C
100
AcDbEntity
  8
SLD-0
  6
CONTINUOUS
 62
       3
100
AcDbLine
 10
39.70197261
 20
21.17160267
 30
0.0
 11
39.77495619
 21
21.14337741
 31
0.0
  0
LINE
  5
5D
100
AcDbEntity
  8
SLD-0
  6
CONTINUOUS
 62
       3
100
AcDbLine
 10
39.77495619
 20
21.14337741
 30
0.0
 11
39.8480935
 21
21.11582797
 31
0.0
  0
LINE
  5
5E
100
AcDbEntity
  8
SLD-0
  6
CONTINUOUS
 62
       3
100
AcDbLine
 10
39.8480935
 20
21.11582797
 30
0.0
 11
39.92142937
 21
21.08892589
 31
0.0
  0
LINE
  5
5F
100
AcDbEntity
  8
SLD-0
  6
CONTINUOUS
 62
       3
100
AcDbLine
 10
39.92142937
 20
21.08892589
 30
0.0
 11
39.99495912
 21
21.06265589
 31
0.0
  0
LINE
  5
60
100
AcDbEntity
  8
SLD-0
  6
CONTINUOUS
 62
       3
100
AcDbLine
 10
39.99495912
 20
21.06265589
 30
0.0
 11
40.06867808
 21
21.03700268
 31
0.0
  0
LINE
  5
61
100
AcDbEntity
  8
SLD-0
  6
CONTINUOUS
 62
       3
100
AcDbLine
 10
40.06867808
 20
21.03700268
 30
0.0
 11
40.14258158
 21
21.01195097
 31
0.0
  0
LINE
  5
62
100
AcDbEntity
  8
SLD-0
  6
CONTINUOUS
 62
       3
100
AcDbLine
 10
40.14258158
 20
21.01195097
 30
0.0
 11
40.21666493
 21
20.98748547
 31
0.0
  0
LINE
  5
63
100
AcDbEntity
  8
SLD-0
  6
CONTINUOUS
 62
       3
100
AcDbLine
 10
40.21666493
 20
20.98748547
 30
0.0
 11
40.29092346
 21
20.96359089
 31
0.0
  0
LINE
  5
64
100
AcDbEntity
  8
SLD-0
  6
CONTINUOUS
 62
       3
100
AcDbLine
 10
40.29092346
 20
20.96359089
 30
0.0
 11
40.3653525
 21
20.94025195
 31
0.0
  0
LINE
  5
65
100
AcDbEntity
  8
SLD-0
  6
CONTINUOUS
 62
       3
100
AcDbLine
 10
40.3653525
 20
20.94025195
 30
0.0
 11
40.43994737
 21
20.91745334
 31
0.0
  0
LINE
  5
66
100
AcDbEntity
  8
SLD-0
  6
CONTINUOUS
 62
       3
100
AcDbLine
 10
40.43994737
 20
20.91745334
 30
0.0
 11
40.5147034
 21
20.89517979
 31
0.0
  0
LINE
  5
67
100
AcDbEntity
  8
SLD-0
  6
CONTINUOUS
 62
       3
100
AcDbLine
 10
40.5147034
 20
20.89517979
 30
0.0
 11
40.58961591
 21
20.87341601
 31
0.0
  0
LINE
  5
68
100
AcDbEntity
  8
SLD-0
  6
CONTINUOUS
 62
       3
100
AcDbLine
 10
40.58961591
 20
20.87341601
 30
0.0
 11
40.66468022
 21
20.8521467
 31
0.0
  0
LINE
  5
69
100
AcDbEntity
  8
SLD-0
  6
CONTINUOUS
 62
       3
100
AcDbLine
 10
40.66468022
 20
20.8521467
 30
0.0
 11
40.73989166
 21
20.83135658
 31
0.0
  0
LINE
  5
6A
100
AcDbEntity
  8
SLD-0
  6
CONTINUOUS
 62
       3
100
AcDbLine
 10
40.73989166
 20
20.83135658
 30
0.0
 11
40.81524555
 21
20.81103035
 31
0.0
  0
LINE
  5
6B
100
AcDbEntity
  8
SLD-0
  6
CONTINUOUS
 62
       3
100
AcDbLine
 10
40.81524555
 20
20.81103035
 30
0.0
 11
40.89073722
 21
20.79115274
 31
0.0
  0
LINE
  5
6C
100
AcDbEntity
  8
SLD-0
  6
CONTINUOUS
 62
       3
100
AcDbLine
 10
40.89073722
 20
20.79115274
 30
0.0
 11
40.96636386
 21
20.77171453
 31
0.0
  0
LINE
  5
6D
100
AcDbEntity
  8
SLD-0
  6
CONTINUOUS
 62
       3
100
AcDbLine
 10
40.96636386
 20
20.77171453
 30
0.0
 11
41.04212444
 21
20.75271232
 31
0.0
  0
LINE
  5
6E
100
AcDbEntity
  8
SLD-0
  6
CONTINUOUS
 62
       3
100
AcDbLine
 10
41.04212444
 20
20.75271232
 30
0.0
 11
41.11801695
 21
20.73413955
 31
0.0
  0
LINE
  5
6F
100
AcDbEntity
  8
SLD-0
  6
CONTINUOUS
 62
       3
100
AcDbLine
 10
41.11801695
 20
20.73413955
 30
0.0
 11
41.19403938
 21
20.71598964
 31
0.0
  0
LINE
  5
70
100
AcDbEntity
  8
SLD-0
  6
CONTINUOUS
 62
       3
100
AcDbLine
 10
41.19403938
 20
20.71598964
 30
0.0
 11
41.27018972
 21
20.69825602
 31
0.0
  0
LINE
  5
71
100
AcDbEntity
  8
SLD-0
  6
CONTINUOUS
 62
       3
100
AcDbLine
 10
41.27018972
 20
20.69825602
 30
0.0
 11
41.34646596
 21
20.68093211
 31
0.0
  0
LINE
  5
72
100
AcDbEntity
  8
SLD-0
  6
CONTINUOUS
 62
       3
100
AcDbLine
 10
41.34646596
 20
20.68093211
 30
0.0
 11
41.4228661
 21
20.66401134
 31
0.0
  0
LINE
  5
73
100
AcDbEntity
  8
SLD-0
  6
CONTINUOUS
 62
       3
100
AcDbLine
 10
41.4228661
 20
20.66401134
 30
0.0
 11
41.49938813
 21
20.64748714
 31
0.0
  0
LINE
  5
74
100
AcDbEntity
  8
SLD-0
  6
CONTINUOUS
 62
       3
100
AcDbLine
 10
41.49938813
 20
20.64748714
 30
0.0
 11
41.57603004
 21
20.63135293
 31
0.0
  0
LINE
  5
75
100
AcDbEntity
  8
SLD-0
  6
CONTINUOUS
 62
       3
100
AcDbLine
 10
41.57603004
 20
20.63135293
 30
0.0
 11
41.65278981
 21
20.61560213
 31
0.0
  0
LINE
  5
76
100
AcDbEntity
  8
SLD-0
  6
CONTINUOUS
 62
       3
100
AcDbLine
 10
41.65278981
 20
20.61560213
 30
0.0
 11
41.72966545
 21
20.60022818
 31
0.0
  0
LINE
  5
77
100
AcDbEntity
  8
SLD-0
  6
CONTINUOUS
 62
       3
100
AcDbLine
 10
41.72966545
 20
20.60022818
 30
0.0
 11
41.80665494
 21
20.58522449
 31
0.0
  0
LINE
  5
78
100
AcDbEntity
  8
SLD-0
  6
CONTINUOUS
 62
       3
100
AcDbLine
 10
41.80665494
 20
20.58522449
 30
0.0
 11
41.88375627
 21
20.57058451
 31
0.0
  0
LINE
  5
79
100
AcDbEntity
  8
SLD-0
  6
CONTINUOUS
 62
       3
100
AcDbLine
 10
41.88375627
 20
20.57058451
 30
0.0
 11
41.96096744
 21
20.55630164
 31
0.0
  0
LINE
  5
7A
100
AcDbEntity
  8
SLD-0
  6
CONTINUOUS
 62
       3
100
AcDbLine
 10
41.96096744
 20
20.55630164
 30
0.0
 11
42.03828644
 21
20.54236932
 31
0.0
  0
ENDBLK
  5
7B
100
AcDbEntity
  8
0
100
AcDbBlockEnd
  0
BLOCK
  5
7C
100
AcDbEntity
  8
0
100
AcDbBlockBegin
  2
GROUP_2
 70
       0
 10
0.0
 20
0.0
 30
0.0
  3
GROUP_2
  1

  0
LINE
  5
7D
100
AcDbEntity
  8
SLD-0
  6
CONTINUOUS
 62
       3
100
AcDbLine
 10
49.37836852
 20
20.54236932
 30
0.0
 11
49.23267834
 21
20.51718718
 31
0.0
  0
LINE
  5
7E
100
AcDbEntity
  8
SLD-0
  6
CONTINUOUS
 62
       3
100
AcDbLine
 10
49.23267834
 20
20.51718718
 30
0.0
 11
49.08685889
 21
20.49340618
 31
0.0
  0
LINE
  5
7F
100
AcDbEntity
  8
SLD-0
  6
CONTINUOUS
 62
       3
100
AcDbLine
 10
49.08685889
 20
20.49340618
 30
0.0
 11
48.94091326
 21
20.47098452
 31
0.0
  0
LINE
  5
80
100
AcDbEntity
  8
SLD-0
  6
CONTINUOUS
 62
       3
100
AcDbLine
 10
48.94091326
 20
20.47098452
 30
0.0
 11
48.79484457
 21
20.4498804
 31
0.0
  0
LINE
  5
81
100
AcDbEntity
  8
SLD-0
  6
CONTINUOUS
 62
       3
100
AcDbLine
 10
48.79484457
 20
20.4498804
 30
0.0
 11
48.64865593
 21
20.43005203
 31
0.0
  0
LINE
  5
82
100
AcDbEntity
  8
SLD-0
  6
CONTINUOUS
 62
       3
100
AcDbLine
 10
48.64865593
 20
20.43005203
 30
0.0
 11
48.50235044
 21
20.41145759
 31
0.0
  0
LINE
  5
83
100
AcDbEntity
  8
SLD-0
  6
CONTINUOUS
 62
       3
100
AcDbLine
 10
48.50235044
 20
20.41145759
 30
0.0
 11
48.35593121
 21
20.39405528
 31
0.0
  0
LINE
  5
84
100
AcDbEntity
  8
SLD-0
  6
CONTINUOUS
 62
       3
100
AcDbLine
 10
48.35593121
 20
20.39405528
 30
0.0
 11
48.20940134
 21
20.37780331
 31
0.0
  0
LINE
  5
85
100
AcDbEntity
  8
SLD-0
  6
CONTINUOUS
 62
       3
100
AcDbLine
 10
48.20940134
 20
20.37780331
 30
0.0
 11
48.06276396
 21
20.36265987
 31
0.0
  0
LINE
  5
86
100
AcDbEntity
  8
SLD-0
  6
CONTINUOUS
 62
       3
100
AcDbLine
 10
48.06276396
 20
20.36265987
 30
0.0
 11
47.91602216
 21
20.34858315
 31
0.0
  0
LINE
  5
87
100
AcDbEntity
  8
SLD-0
  6
CONTINUOUS
 62
       3
100
AcDbLine
 10
47.91602216
 20
20.34858315
 30
0.0
 11
47.76917906
 21
20.33553136
 31
0.0
  0
LINE
  5
88
100
AcDbEntity
  8
SLD-0
  6
CONTINUOUS
 62
       3
100
AcDbLine
 10
47.76917906
 20
20.33553136
 30
0.0
 11
47.62223776
 21
20.32346269
 31
0.0
  0
LINE
  5
89
100
AcDbEntity
  8
SLD-0
  6
CONTINUOUS
 62
       3
100
AcDbLine
 10
47.62223776
 20
20.32346269
 30
0.0
 11
47.47519521
 21
20.3123395
 31
0.0
  0
LINE
  5
8A
100
AcDbEntity
  8
SLD-0
  6
CONTINUOUS
 62
       3
100
AcDbLine
 10
47.47519521
 20
20.3123395
 30
0.0
 11
47.32802291
 21
20.30215716
 31
0.0
  0
LINE
  5
8B
100
AcDbEntity
  8
SLD-0
  6
CONTINUOUS
 62
       3
100
AcDbLine
 10
47.32802291
 20
20.30215716
 30
0.0
 11
47.18073155
 21
20.2929094
 31
0.0
  0
LINE
  5
8C
100
AcDbEntity
  8
SLD-0
  6
CONTINUOUS
 62
       3
100
AcDbLine
 10
47.18073155
 20
20.2929094
 30
0.0
 11
47.03333858
 21
20.28458716
 31
0.0
  0
LINE
  5
8D
100
AcDbEntity
  8
SLD-0
  6
CONTINUOUS
 62
       3
100
AcDbLine
 10
47.03333858
 20
20.28458716
 30
0.0
 11
46.88586145
 21
20.27718138
 31
0.0
  0
LINE
  5
8E
100
AcDbEntity
  8
SLD-0
  6
CONTINUOUS
 62
       3
100
AcDbLine
 10
46.88586145
 20
20.27718138
 30
0.0
 11
46.73831759
 21
20.27068299
 31
0.0
  0
LINE
  5
8F
100
AcDbEntity
  8
SLD-0
  6
CONTINUOUS
 62
       3
100
AcDbLine
 10
46.73831759
 20
20.27068299
 30
0.0
 11
46.59072448
 21
20.26508293
 31
0.0
  0
LINE
  5
90
100
AcDbEntity
  8
SLD-0
  6
CONTINUOUS
 62
       3
100
AcDbLine
 10
46.59072448
 20
20.26508293
 30
0.0
 11
46.44309954
 21
20.26037215
 31
0.0
  0
LINE
  5
91
100
AcDbEntity
  8
SLD-0
  6
CONTINUOUS
 62
       3
100
AcDbLine
 10
46.44309954
 20
20.26037215
 30
0.0
 11
46.29546023
 21
20.25654157
 31
0.0
  0
LINE
  5
92
100
AcDbEntity
  8
SLD-0
  6
CONTINUOUS
 62
       3
100
AcDbLine
 10
46.29546023
 20
20.25654157
 30
0.0
 11
46.147824
 21
20.25358213
 31
0.0
  0
LINE
  5
93
100
AcDbEntity
  8
SLD-0
  6
CONTINUOUS
 62
       3
100
AcDbLine
 10
46.147824
 20
20.25358213
 30
0.0
 11
46.0002083
 21
20.25148479
 31
0.0
  0
LINE
  5
94
100
AcDbEntity
  8
SLD-0
  6
CONTINUOUS
 62
       3
100
AcDbLine
 10
46.0002083
 20
20.25148479
 30
0.0
 11
45.85263058
 21
20.25024046
 31
0.0
  0
LINE
  5
95
100
AcDbEntity
  8
SLD-0
  6
CONTINUOUS
 62
       3
100
AcDbLine
 10
45.85263058
 20
20.25024046
 30
0.0
 11
45.70510828
 21
20.24984009
 31
0.0
  0
LINE
  5
96
100
AcDbEntity
  8
SLD-0
  6
CONTINUOUS
 62
       3
100
AcDbLine
 10
45.70510828
 20
20.24984009
 30
0.0
 11
45.55764957
 21
20.2502752
 31
0.0
  0
LINE
  5
97
100
AcDbEntity
  8
SLD-0
  6
CONTINUOUS
 62
       3
100
AcDbLine
 10
45.55764957
 20
20.2502752
 30
0.0
 11
45.41025131
 21
20.25154946
 31
0.0
  0
LINE
  5
98
100
AcDbEntity
  8
SLD-0
  6
CONTINUOUS
 62
       3
100
AcDbLine
 10
45.41025131
 20
20.25154946
 30
0.0
 11
45.26291394
 21
20.25367206
 31
0.0
  0
LINE
  5
99
100
AcDbEntity
  8
SLD-0
  6
CONTINUOUS
 62
       3
100
AcDbLine
 10
45.26291394
 20
20.25367206
 30
0.0
 11
45.11563794
 21
20.2566522
 31
0.0
  0
LINE
  5
9A
100
AcDbEntity
  8
SLD-0
  6
CONTINUOUS
 62
       3
100
AcDbLine
 10
45.11563794
 20
20.2566522
 30
0.0
 11
44.96842375
 21
20.26049905
 31
0.0
  0
LINE
  5
9B
100
AcDbEntity
  8
SLD-0
  6
CONTINUOUS
 62
       3
100
AcDbLine
 10
44.96842375
 20
20.26049905
 30
0.0
 11
44.82127184
 21
20.2652218
 31
0.0
  0
LINE
  5
9C
100
AcDbEntity
  8
SLD-0
  6
CONTINUOUS
 62
       3
100
AcDbLine
 10
44.82127184
 20
20.2652218
 30
0.0
 11
44.67418267
 21
20.27082964
 31
0.0
  0
LINE
  5
9D
100
AcDbEntity
  8
SLD-0
  6
CONTINUOUS
 62
       3
100
AcDbLine
 10
44.67418267
 20
20.27082964
 30
0.0
 11
44.52715669
 21
20.27733176
 31
0.0
  0
LINE
  5
9E
100
AcDbEntity
  8
SLD-0
  6
CONTINUOUS
 62
       3
100
AcDbLine
 10
44.52715669
 20
20.27733176
 30
0.0
 11
44.38019437
 21
20.28473734
 31
0.0
  0
LINE
  5
9F
100
AcDbEntity
  8
SLD-0
  6
CONTINUOUS
 62
       3
100
AcDbLine
 10
44.38019437
 20
20.28473734
 30
0.0
 11
44.23329616
 21
20.29305558
 31
0.0
  0
LINE
  5
A0
100
AcDbEntity
  8
SLD-0
  6
CONTINUOUS
 62
       3
100
AcDbLine
 10
44.23329616
 20
20.29305558
 30
0.0
 11
44.08646253
 21
20.30229565
 31
0.0
  0
LINE
  5
A1
100
AcDbEntity
  8
SLD-0
  6
CONTINUOUS
 62
       3
100
AcDbLine
 10
44.08646253
 20
20.30229565
 30
0.0
 11
43.93969394
 21
20.31246674
 31
0.0
  0
LINE
  5
A2
100
AcDbEntity
  8
SLD-0
  6
CONTINUOUS
 62
       3
100
AcDbLine
 10
43.93969394
 20
20.31246674
 30
0.0
 11
43.79299069
 21
20.32357535
 31
0.0
  0
LINE
  5
A3
100
AcDbEntity
  8
SLD-0
  6
CONTINUOUS
 62
       3
100
AcDbLine
 10
43.79299069
 20
20.32357535
 30
0.0
 11
43.64635307
 21
20.33562696
 31
0.0
  0
LINE
  5
A4
100
AcDbEntity
  8
SLD-0
  6
CONTINUOUS
 62
       3
100
AcDbLine
 10
43.64635307
 20
20.33562696
 30
0.0
 11
43.49978307
 21
20.34866018
 31
0.0
  0
LINE
  5
A5
100
AcDbEntity
  8
SLD-0
  6
CONTINUOUS
 62
       3
100
AcDbLine
 10
43.49978307
 20
20.34866018
 30
0.0
 11
43.35328288
 21
20.36271766
 31
0.0
  0
LINE
  5
A6
100
AcDbEntity
  8
SLD-0
  6
CONTINUOUS
 62
       3
100
AcDbLine
 10
43.35328288
 20
20.36271766
 30
0.0
 11
43.20685472
 21
20.3778421
 31
0.0
  0
LINE
  5
A7
100
AcDbEntity
  8
SLD-0
  6
CONTINUOUS
 62
       3
100
AcDbLine
 10
43.20685472
 20
20.3778421
 30
0.0
 11
43.06050077
 21
20.39407617
 31
0.0
  0
LINE
  5
A8
100
AcDbEntity
  8
SLD-0
  6
CONTINUOUS
 62
       3
100
AcDbLine
 10
43.06050077
 20
20.39407617
 30
0.0
 11
42.91422325
 21
20.41146254
 31
0.0
  0
LINE
  5
A9
100
AcDbEntity
  8
SLD-0
  6
CONTINUOUS
 62
       3
100
AcDbLine
 10
42.91422325
 20
20.41146254
 30
0.0
 11
42.76802436
 21
20.43004391
 31
0.0
  0
LINE
  5
AA
100
AcDbEntity
  8
SLD-0
  6
CONTINUOUS
 62
       3
100
AcDbLine
 10
42.76802436
 20
20.43004391
 30
0.0
 11
42.6219063
 21
20.44986294
 31
0.0
  0
LINE
  5
AB
100
AcDbEntity
  8
SLD-0
  6
CONTINUOUS
 62
       3
100
AcDbLine
 10
42.6219063
 20
20.44986294
 30
0.0
 11
42.47587128
 21
20.47096232
 31
0.0
  0
LINE
  5
AC
100
AcDbEntity
  8
SLD-0
  6
CONTINUOUS
 62
       3
100
AcDbLine
 10
42.47587128
 20
20.47096232
 30
0.0
 11
42.32992149
 21
20.49338472
 31
0.0
  0
LINE
  5
AD
100
AcDbEntity
  8
SLD-0
  6
CONTINUOUS
 62
       3
100
AcDbLine
 10
42.32992149
 20
20.49338472
 30
0.0
 11
42.18405915
 21
20.51717283
 31
0.0
  0
LINE
  5
AE
100
AcDbEntity
  8
SLD-0
  6
CONTINUOUS
 62
       3
100
AcDbLine
 10
42.18405915
 20
20.51717283
 30
0.0
 11
42.03828644
 21
20.54236932
 31
0.0
  0
ENDBLK
  5
AF
100
AcDbEntity
  8
0
100
AcDbBlockEnd
  0
BLOCK
  5
B0
100
AcDbEntity
  8
0
100
AcDbBlockBegin
  2
GROUP_3
 70
       0
 10
0.0
 20
0.0
 30
0.0
  3
GROUP_3
  1

  0
LINE
  5
B1
100
AcDbEntity
  8
SLD-0
  6
CONTINUOUS
 62
       3
100
AcDbLine
 10
49.37836852
 20
20.54236932
 30
0.0
 11
49.45574193
 21
20.55631141
 31
0.0
  0
LINE
  5
B2
100
AcDbEntity
  8
SLD-0
  6
CONTINUOUS
 62
       3
100
AcDbLine
 10
49.45574193
 20
20.55631141
 30
0.0
 11
49.5330258
 21
20.57060774
 31
0.0
  0
LINE
  5
B3
100
AcDbEntity
  8
SLD-0
  6
CONTINUOUS
 62
       3
100
AcDbLine
 10
49.5330258
 20
20.57060774
 30
0.0
 11
49.61021837
 21
20.58526535
 31
0.0
  0
LINE
  5
B4
100
AcDbEntity
  8
SLD-0
  6
CONTINUOUS
 62
       3
100
AcDbLine
 10
49.61021837
 20
20.58526535
 30
0.0
 11
49.68731786
 21
20.60029126
 31
0.0
  0
LINE
  5
B5
100
AcDbEntity
  8
SLD-0
  6
CONTINUOUS
 62
       3
100
AcDbLine
 10
49.68731786
 20
20.60029126
 30
0.0
 11
49.76432252
 21
20.6156925
 31
0.0
  0
LINE
  5
B6
100
AcDbEntity
  8
SLD-0
  6
CONTINUOUS
 62
       3
100
AcDbLine
 10
49.76432252
 20
20.6156925
 30
0.0
 11
49.84123058
 21
20.63147609
 31
0.0
  0
LINE
  5
B7
100
AcDbEntity
  8
SLD-0
  6
CONTINUOUS
 62
       3
100
AcDbLine
 10
49.84123058
 20
20.63147609
 30
0.0
 11
49.91804027
 21
20.64764907
 31
0.0
  0
LINE
  5
B8
100
AcDbEntity
  8
SLD-0
  6
CONTINUOUS
 62
       3
100
AcDbLine
 10
49.91804027
 20
20.64764907
 30
0.0
 11
49.99474983
 21
20.66421845
 31
0.0
  0
LINE
  5
B9
100
AcDbEntity
  8
SLD-0
  6
CONTINUOUS
 62
       3
100
AcDbLine
 10
49.99474983
 20
20.66421845
 30
0.0
 11
50.07135749
 21
20.68119127
 31
0.0
  0
LINE
  5
BA
100
AcDbEntity
  8
SLD-0
  6
CONTINUOUS
 62
       3
100
AcDbLine
 10
50.07135749
 20
20.68119127
 30
0.0
 11
50.1478615
 21
20.69857456
 31
0.0
  0
LINE
  5
BB
100
AcDbEntity
  8
SLD-0
  6
CONTINUOUS
 62
       3
100
AcDbLine
 10
50.1478615
 20
20.69857456
 30
0.0
 11
50.22426008
 21
20.71637533
 31
0.0
  0
LINE
  5
BC
100
AcDbEntity
  8
SLD-0
  6
CONTINUOUS
 62
       3
100
AcDbLine
 10
50.22426008
 20
20.71637533
 30
0.0
 11
50.30055147
 21
20.73460061
 31
0.0
  0
LINE
  5
BD
100
AcDbEntity
  8
SLD-0
  6
CONTINUOUS
 62
       3
100
AcDbLine
 10
50.30055147
 20
20.73460061
 30
0.0
 11
50.37673391
 21
20.75325744
 31
0.0
  0
LINE
  5
BE
100
AcDbEntity
  8
SLD-0
  6
CONTINUOUS
 62
       3
100
AcDbLine
 10
50.37673391
 20
20.75325744
 30
0.0
 11
50.45280563
 21
20.77235284
 31
0.0
  0
LINE
  5
BF
100
AcDbEntity
  8
SLD-0
  6
CONTINUOUS
 62
       3
100
AcDbLine
 10
50.45280563
 20
20.77235284
 30
0.0
 11
50.52876487
 21
20.79189383
 31
0.0
  0
LINE
  5
C0
100
AcDbEntity
  8
SLD-0
  6
CONTINUOUS
 62
       3
100
AcDbLine
 10
50.52876487
 20
20.79189383
 30
0.0
 11
50.60463162
 21
20.81189294
 31
0.0
  0
LINE
  5
C1
100
AcDbEntity
  8
SLD-0
  6
CONTINUOUS
 62
       3
100
AcDbLine
 10
50.60463162
 20
20.81189294
 30
0.0
 11
50.68041604
 21
20.8323656
 31
0.0
  0
LINE
  5
C2
100
AcDbEntity
  8
SLD-0
  6
CONTINUOUS
 62
       3
100
AcDbLine
 10
50.68041604
 20
20.8323656
 30
0.0
 11
50.75610159
 21
20.85332317
 31
0.0
  0
LINE
  5
C3
100
AcDbEntity
  8
SLD-0
  6
CONTINUOUS
 62
       3
100
AcDbLine
 10
50.75610159
 20
20.85332317
 30
0.0
 11
50.83167174
 21
20.87477706
 31
0.0
  0
LINE
  5
C4
100
AcDbEntity
  8
SLD-0
  6
CONTINUOUS
 62
       3
100
AcDbLine
 10
50.83167174
 20
20.87477706
 30
0.0
 11
50.90710997
 21
20.89673862
 31
0.0
  0
LINE
  5
C5
100
AcDbEntity
  8
SLD-0
  6
CONTINUOUS
 62
       3
100
AcDbLine
 10
50.90710997
 20
20.89673862
 30
0.0
 11
50.98239974
 21
20.91921925
 31
0.0
  0
LINE
  5
C6
100
AcDbEntity
  8
SLD-0
  6
CONTINUOUS
 62
       3
100
AcDbLine
 10
50.98239974
 20
20.91921925
 30
0.0
 11
51.05752451
 21
20.94223032
 31
0.0
  0
LINE
  5
C7
100
AcDbEntity
  8
SLD-0
  6
CONTINUOUS
 62
       3
100
AcDbLine
 10
51.05752451
 20
20.94223032
 30
0.0
 11
51.13246775
 21
20.96578321
 31
0.0
  0
LINE
  5
C8
100
AcDbEntity
  8
SLD-0
  6
CONTINUOUS
 62
       3
100
AcDbLine
 10
51.13246775
 20
20.96578321
 30
0.0
 11
51.20721294
 21
20.9898893
 31
0.0
  0
LINE
  5
C9
100
AcDbEntity
  8
SLD-0
  6
CONTINUOUS
 62
       3
100
AcDbLine
 10
51.20721294
 20
20.9898893
 30
0.0
 11
51.28174354
 21
21.01455998
 31
0.0
  0
LINE
  5
CA
100
AcDbEntity
  8
SLD-0
  6
CONTINUOUS
 62
       3
100
AcDbLine
 10
51.28174354
 20
21.01455998
 30
0.0
 11
51.35604302
 21
21.03980661
 31
0.0
  0
LINE
  5
CB
100
AcDbEntity
  8
SLD-0
  6
CONTINUOUS
 62
       3
100
AcDbLine
 10
51.35604302
 20
21.03980661
 30
0.0
 11
51.43009484
 21
21.06564059
 31
0.0
  0
LINE
  5
CC
100
AcDbEntity
  8
SLD-0
  6
CONTINUOUS
 62
       3
100
AcDbLine
 10
51.43009484
 20
21.06564059
 30
0.0
 11
51.50388248
 21
21.09207329
 31
0.0
  0
LINE
  5
CD
100
AcDbEntity
  8
SLD-0
  6
CONTINUOUS
 62
       3
100
AcDbLine
 10
51.50388248
 20
21.09207329
 30
0.0
 11
51.5773894
 21
21.11911608
 31
0.0
  0
LINE
  5
CE
100
AcDbEntity
  8
SLD-0
  6
CONTINUOUS
 62
       3
100
AcDbLine
 10
51.5773894
 20
21.11911608
 30
0.0
 11
51.65059907
 21
21.14678036
 31
0.0
  0
LINE
  5
CF
100
AcDbEntity
  8
SLD-0
  6
CONTINUOUS
 62
       3
100
AcDbLine
 10
51.65059907
 20
21.14678036
 30
0.0
 11
51.72350366
 21
21.17506021
 31
0.0
  0
LINE
  5
D0
100
AcDbEntity
  8
SLD-0
  6
CONTINUOUS
 62
       3
100
AcDbLine
 10
51.72350366
 20
21.17506021
 30
0.0
 11
51.79609327
 21
21.20396836
 31
0.0
  0
LINE
  5
D1
100
AcDbEntity
  8
SLD-0
  6
CONTINUOUS
 62
       3
100
AcDbLine
 10
51.79609327
 20
21.20396836
 30
0.0
 11
51.86834822
 21
21.23354416
 31
0.0
  0
LINE
  5
D2
100
AcDbEntity
  8
SLD-0
  6
CONTINUOUS
 62
       3
100
AcDbLine
 10
51.86834822
 20
21.23354416
 30
0.0
 11
51.94024882
 21
21.26382693
 31
0.0
  0
LINE
  5
D3
100
AcDbEntity
  8
SLD-0
  6
CONTINUOUS
 62
       3
100
AcDbLine
 10
51.94024882
 20
21.26382693
 30
0.0
 11
52.01177543
 21
21.29485602
 31
0.0
  0
LINE
  5
D4
100
AcDbEntity
  8
SLD-0
  6
CONTINUOUS
 62
       3
100
AcDbLine
 10
52.01177543
 20
21.29485602
 30
0.0
 11
52.08290835
 21
21.32667074
 31
0.0
  0
LINE
  5
D5
100
AcDbEntity
  8
SLD-0
  6
CONTINUOUS
 62
       3
100
AcDbLine
 10
52.08290835
 20
21.32667074
 30
0.0
 11
52.15362791
 21
21.35931045
 31
0.0
  0
LINE
  5
D6
100
AcDbEntity
  8
SLD-0
  6
CONTINUOUS
 62
       3
100
AcDbLine
 10
52.15362791
 20
21.35931045
 30
0.0
 11
52.22391445
 21
21.39281447
 31
0.0
  0
LINE
  5
D7
100
AcDbEntity
  8
SLD-0
  6
CONTINUOUS
 62
       3
100
AcDbLine
 10
52.22391445
 20
21.39281447
 30
0.0
 11
52.2937483
 21
21.42722213
 31
0.0
  0
LINE
  5
D8
100
AcDbEntity
  8
SLD-0
  6
CONTINUOUS
 62
       3
100
AcDbLine
 10
52.2937483
 20
21.42722213
 30
0.0
 11
52.36310977
 21
21.46257277
 31
0.0
  0
LINE
  5
D9
100
AcDbEntity
  8
SLD-0
  6
CONTINUOUS
 62
       3
100
AcDbLine
 10
52.36310977
 20
21.46257277
 30
0.0
 11
52.4319792
 21
21.49890573
 31
0.0
  0
LINE
  5
DA
100
AcDbEntity
  8
SLD-0
  6
CONTINUOUS
 62
       3
100
AcDbLine
 10
52.4319792
 20
21.49890573
 30
0.0
 11
52.50033691
 21
21.53626034
 31
0.0
  0
LINE
  5
DB
100
AcDbEntity
  8
SLD-0
  6
CONTINUOUS
 62
       3
100
AcDbLine
 10
52.50033691
 20
21.53626034
 30
0.0
 11
52.56816323
 21
21.57467593
 31
0.0
  0
LINE
  5
DC
100
AcDbEntity
  8
SLD-0
  6
CONTINUOUS
 62
       3
100
AcDbLine
 10
52.56816323
 20
21.57467593
 30
0.0
 11
52.6354385
 21
21.61419184
 31
0.0
  0
LINE
  5
DD
100
AcDbEntity
  8
SLD-0
  6
CONTINUOUS
 62
       3
100
AcDbLine
 10
52.6354385
 20
21.61419184
 30
0.0
 11
52.70214303
 21
21.6548474
 31
0.0
  0
LINE
  5
DE
100
AcDbEntity
  8
SLD-0
  6
CONTINUOUS
 62
       3
100
AcDbLine
 10
52.70214303
 20
21.6548474
 30
0.0
 11
52.76832886
 21
21.69678211
 31
0.0
  0
LINE
  5
DF
100
AcDbEntity
  8
SLD-0
  6
CONTINUOUS
 62
       3
100
AcDbLine
 10
52.76832886
 20
21.69678211
 30
0.0
 11
52.83394572
 21
21.74012799
 31
0.0
  0
LINE
  5
E0
100
AcDbEntity
  8
SLD-0
  6
CONTINUOUS
 62
       3
100
AcDbLine
 10
52.83394572
 20
21.74012799
 30
0.0
 11
52.89882041
 21
21.78491321
 31
0.0
  0
LINE
  5
E1
100
AcDbEntity
  8
SLD-0
  6
CONTINUOUS
 62
       3
100
AcDbLine
 10
52.89882041
 20
21.78491321
 30
0.0
 11
52.96277975
 21
21.8311659
 31
0.0
  0
LINE
  5
E2
100
AcDbEntity
  8
SLD-0
  6
CONTINUOUS
 62
       3
100
AcDbLine
 10
52.96277975
 20
21.8311659
 30
0.0
 11
53.02565056
 21
21.87891421
 31
0.0
  0
LINE
  5
E3
100
AcDbEntity
  8
SLD-0
  6
CONTINUOUS
 62
       3
100
AcDbLine
 10
53.02565056
 20
21.87891421
 30
0.0
 11
53.08725965
 21
21.9281863
 31
0.0
  0
LINE
  5
E4
100
AcDbEntity
  8
SLD-0
  6
CONTINUOUS
 62
       3
100
AcDbLine
 10
53.08725965
 20
21.9281863
 30
0.0
 11
53.14743385
 21
21.97901029
 31
0.0
  0
LINE
  5
E5
100
AcDbEntity
  8
SLD-0
  6
CONTINUOUS
 62
       3
100
AcDbLine
 10
53.14743385
 20
21.97901029
 30
0.0
 11
53.20601126
 21
22.03140155
 31
0.0
  0
LINE
  5
E6
100
AcDbEntity
  8
SLD-0
  6
CONTINUOUS
 62
       3
100
AcDbLine
 10
53.20601126
 20
22.03140155
 30
0.0
 11
53.26287211
 21
22.08537353
 31
0.0
  0
LINE
  5
E7
100
AcDbEntity
  8
SLD-0
  6
CONTINUOUS
 62
       3
100
AcDbLine
 10
53.26287211
 20
22.08537353
 30
0.0
 11
53.31781789
 21
22.14110033
 31
0.0
  0
LINE
  5
E8
100
AcDbEntity
  8
SLD-0
  6
CONTINUOUS
 62
       3
100
AcDbLine
 10
53.31781789
 20
22.14110033
 30
0.0
 11
53.37063717
 21
22.19877577
 31
0.0
  0
LINE
  5
E9
100
AcDbEntity
  8
SLD-0
  6
CONTINUOUS
 62
       3
100
AcDbLine
 10
53.37063717
 20
22.19877577
 30
0.0
 11
53.42111855
 21
22.25859368
 31
0.0
  0
LINE
  5
EA
100
AcDbEntity
  8
SLD-0
  6
CONTINUOUS
 62
       3
100
AcDbLine
 10
53.42111855
 20
22.25859368
 30
0.0
 11
53.46905062
 21
22.32074785
 31
0.0
  0
LINE
  5
EB
100
AcDbEntity
  8
SLD-0
  6
CONTINUOUS
 62
       3
100
AcDbLine
 10
53.46905062
 20
22.32074785
 30
0.0
 11
53.51422196
 21
22.38543212
 31
0.0
  0
LINE
  5
EC
100
AcDbEntity
  8
SLD-0
  6
CONTINUOUS
 62
       3
100
AcDbLine
 10
53.51422196
 20
22.38543212
 30
0.0
 11
53.55642115
 21
22.45284029
 31
0.0
  0
ENDBLK
  5
ED
100
AcDbEntity
  8
0
100
AcDbBlockEnd
  0
ENDSEC
  0
SECTION
  2
ENTITIES
  0
LINE
  5
EE
100
AcDbEntity
  8
SLD-0
  6
CONTINUOUS
 62
       3
100
AcDbLine
 10
-5.79167491
 20
18.92978084
 30
0.0
 11
-120.79167489
 21
18.92978084
 31
0.0
  0
LINE
  5
EF
100
AcDbEntity
  8
SLD-0
  6
CONTINUOUS
 62
       3
100
AcDbLine
 10
77.40670806
 20
45.76581458
 30
0.0
 11
128.75832798
 21
45.76581458
 31
0.0
  0
LINE
  5
F0
100
AcDbEntity
  8
SLD-0
  6
CONTINUOUS
 62
       3
100
AcDbLine
 10
99.1318152
 20
-4.23418238
 30
0.0
 11
128.1318152
 21
-4.23418238
 31
0.0
  0
LINE
  5
F1
100
AcDbEntity
  8
SLD-0
  6
CONTINUOUS
 62
       3
100
AcDbLine
 10
98.63181522
 20
18.92978084
 30
0.0
 11
98.63181522
 21
-3.73418238
 31
0.0
  0
LINE
  5
F2
100
AcDbEntity
  8
SLD-0
  6
CONTINUOUS
 62
       3
100
AcDbLine
 10
-5.7916748
 20
22.45280859
 30
0.0
 11
-120.79167499
 21
22.45280859
 31
0.0
  0
LINE
  5
F3
100
AcDbEntity
  8
SLD-0
  6
CONTINUOUS
 62
       3
100
AcDbLine
 10
-5.79167423
 20
42.13473126
 30
0.0
 11
-120.79167556
 21
42.13473126
 31
0.0
  0
LINE
  5
F4
100
AcDbEntity
  8
SLD-0
  6
CONTINUOUS
 62
       3
100
AcDbLine
 10
-5.7916745
 20
32.82579969
 30
0.0
 11
-120.79167529
 21
32.82581686
 31
0.0
  0
LINE
  5
F5
100
AcDbEntity
  8
SLD-0
  6
CONTINUOUS
 62
       3
100
AcDbLine
 10
-5.79167431
 20
39.42583583
 30
0.0
 11
-120.79167548
 21
39.42581631
 31
0.0
  0
LINE
  5
F6
100
AcDbEntity
  8
SLD-0
  6
CONTINUOUS
 62
       3
100
AcDbLine
 10
-6.29167414
 20
45.76581584
 30
0.0
 11
-120.29167565
 21
45.76581584
 31
0.0
  0
LINE
  5
F7
100
AcDbEntity
  8
SLD-0
  6
CONTINUOUS
 62
       3
100
AcDbLine
 10
-120.79167423
 20
-3.73418289
 30
0.0
 11
-120.79167565
 21
45.26581583
 31
0.0
  0
LINE
  5
F8
100
AcDbEntity
  8
SLD-0
  6
CONTINUOUS
 62
       3
100
AcDbLine
 10
-5.79167414
 20
45.26581583
 30
0.0
 11
-5.79167559
 21
-3.73418289
 31
0.0
  0
LINE
  5
F9
100
AcDbEntity
  8
SLD-0
  6
CONTINUOUS
 62
       3
100
AcDbLine
 10
-6.29167556
 20
-4.23418288
 30
0.0
 11
-120.29167423
 21
-4.23418288
 31
0.0
  0
LINE
  5
FA
100
AcDbEntity
  8
SLD-0
  6
CONTINUOUS
 62
       3
100
AcDbLine
 10
-56.3916749
 20
-4.28397606
 30
0.0
 11
-56.3916749
 21
-4.23418256
 31
0.0
  0
LINE
  5
FB
100
AcDbEntity
  8
SLD-0
  6
CONTINUOUS
 62
       3
100
AcDbLine
 10
-70.1916749
 20
-4.28397606
 30
0.0
 11
-70.1916749
 21
-4.23418256
 31
0.0
  0
LINE
  5
FC
100
AcDbEntity
  8
SLD-0
  6
CONTINUOUS
 62
       3
100
AcDbLine
 10
-71.6916749
 20
-5.2341832
 30
0.0
 11
-71.6916746
 21
-4.23418256
 31
0.0
  0
LINE
  5
FD
100
AcDbEntity
  8
SLD-0
  6
CONTINUOUS
 62
       3
100
AcDbLine
 10
-54.8916749
 20
-5.2341832
 30
0.0
 11
-54.8916752
 21
-4.23418256
 31
0.0
  0
LINE
  5
FE
100
AcDbEntity
  8
SLD-0
  6
CONTINUOUS
 62
       3
100
AcDbLine
 10
125.53181546
 20
-7.23418305
 30
0.0
 11
128.13181552
 21
-7.23418305
 31
0.0
  0
LINE
  5
FF
100
AcDbEntity
  8
SLD-0
  6
CONTINUOUS
 62
       3
100
AcDbLine
 10
112.03181548
 20
45.76581458
 30
0.0
 11
112.03181548
 21
-4.23418289
 31
0.0
  0
LINE
  5
100
100
AcDbEntity
  8
SLD-0
  6
CONTINUOUS
 62
       3
100
AcDbLine
 10
79.93181446
 20
23.16581691
 30
0.0
 11
79.93181446
 21
40.91581703
 31
0.0
  0
LINE
  5
101
100
AcDbEntity
  8
SLD-0
  6
CONTINUOUS
 62
       3
100
AcDbLine
 10
76.84343784
 20
22.45280859
 30
0.0
 11
79.93181446
 21
23.16581691
 31
0.0
  0
LINE
  5
102
100
AcDbEntity
  8
SLD-0
  6
CONTINUOUS
 62
       3
100
AcDbLine
 10
76.92361605
 20
42.38301376
 30
0.0
 11
79.93181446
 21
40.91581703
 31
0.0
  0
LINE
  5
103
100
AcDbEntity
  8
SLD-0
  6
CONTINUOUS
 62
       3
100
AcDbLine
 10
98.63181522
 20
18.92978084
 30
0.0
 11
78.5642194
 21
19.28006205
 31
0.0
  0
LINE
  5
104
100
AcDbEntity
  8
SLD-0
  6
CONTINUOUS
 62
       3
100
AcDbLine
 10
128.13181552
 20
-5.23418272
 30
0.0
 11
125.53181546
 21
-5.23418272
 31
0.0
  0
LINE
  5
105
100
AcDbEntity
  8
SLD-0
  6
CONTINUOUS
 62
       3
100
AcDbLine
 10
125.53181546
 20
-7.23418305
 30
0.0
 11
125.53181546
 21
-5.23418272
 31
0.0
  0
LINE
  5
106
100
AcDbEntity
  8
SLD-0
  6
CONTINUOUS
 62
       3
100
AcDbLine
 10
128.13181552
 20
-7.23418305
 30
0.0
 11
128.13181552
 21
-5.23418272
 31
0.0
  0
LINE
  5
107
100
AcDbEntity
  8
SLD-0
  6
CONTINUOUS
 62
       3
100
AcDbLine
 10
125.53181546
 20
-5.23418272
 30
0.0
 11
125.53181546
 21
-4.23418256
 31
0.0
  0
LINE
  5
108
100
AcDbEntity
  8
SLD-0
  6
CONTINUOUS
 62
       3
100
AcDbLine
 10
128.6318152
 20
3.47576002
 30
0.0
 11
125.65832789
 21
3.47575937
 31
0.0
  0
LINE
  5
109
100
AcDbEntity
  8
SLD-0
  6
CONTINUOUS
 62
       3
100
AcDbLine
 10
126.75832848
 20
3.47575961
 30
0.0
 11
126.75832848
 21
4.97576047
 31
0.0
  0
LINE
  5
10A
100
AcDbEntity
  8
SLD-0
  6
CONTINUOUS
 62
       3
100
AcDbLine
 10
127.05832856
 20
4.97576047
 30
0.0
 11
126.75832848
 21
4.97576047
 31
0.0
  0
LINE
  5
10B
100
AcDbEntity
  8
SLD-0
  6
CONTINUOUS
 62
       3
100
AcDbLine
 10
128.25832856
 20
3.4757593
 30
0.0
 11
127.05832856
 21
4.97576047
 31
0.0
  0
LINE
  5
10C
100
AcDbEntity
  8
SLD-0
  6
CONTINUOUS
 62
       3
100
AcDbLine
 10
128.13181552
 20
-5.23418272
 30
0.0
 11
128.1318152
 21
-4.23418238
 31
0.0
  0
LINE
  5
10D
100
AcDbEntity
  8
SLD-0
  6
CONTINUOUS
 62
       3
100
AcDbLine
 10
128.45832796
 20
39.02463448
 30
0.0
 11
125.65832789
 21
38.97576053
 31
0.0
  0
LINE
  5
10E
100
AcDbEntity
  8
SLD-0
  6
CONTINUOUS
 62
       3
100
AcDbLine
 10
128.75832798
 20
45.76581458
 30
0.0
 11
128.75832798
 21
39.32468053
 31
0.0
  0
LINE
  5
10F
100
AcDbEntity
  8
SLD-0
  6
CONTINUOUS
 62
       3
100
AcDbLine
 10
128.4635637
 20
39.02472552
 30
0.0
 11
128.45832796
 21
39.02463448
 31
0.0
  0
LINE
  5
110
100
AcDbEntity
  8
SLD-0
  6
CONTINUOUS
 62
       3
100
AcDbLine
 10
128.6318152
 20
3.47576002
 30
0.0
 11
128.6318152
 21
-3.73418238
 31
0.0
  0
LINE
  5
111
100
AcDbEntity
  8
SLD-0
  6
CONTINUOUS
 62
       3
100
AcDbLine
 10
125.65832789
 20
3.47575937
 30
0.0
 11
125.65832789
 21
38.97576053
 31
0.0
  0
LINE
  5
112
100
AcDbEntity
  8
SLD-0
  6
CONTINUOUS
 62
       3
100
AcDbLine
 10
126.75832798
 20
38.99496059
 30
0.0
 11
126.84749653
 21
37.97576028
 31
0.0
  0
LINE
  5
113
100
AcDbEntity
  8
SLD-0
  6
CONTINUOUS
 62
       3
100
AcDbLine
 10
127.17548541
 20
37.47575927
 30
0.0
 11
126.89124087
 21
37.47575927
 31
0.0
  0
LINE
  5
114
100
AcDbEntity
  8
SLD-0
  6
CONTINUOUS
 62
       3
100
AcDbLine
 10
126.89124087
 20
37.47575927
 30
0.0
 11
126.89057637
 21
37.48335514
 31
0.0
  0
LINE
  5
115
100
AcDbEntity
  8
SLD-0
  6
CONTINUOUS
 62
       3
100
AcDbLine
 10
126.89057637
 20
37.48335514
 30
0.0
 11
126.88860278
 21
37.50591363
 31
0.0
  0
LINE
  5
116
100
AcDbEntity
  8
SLD-0
  6
CONTINUOUS
 62
       3
100
AcDbLine
 10
126.88860278
 20
37.50591363
 30
0.0
 11
126.88538029
 21
37.54274744
 31
0.0
  0
LINE
  5
117
100
AcDbEntity
  8
SLD-0
  6
CONTINUOUS
 62
       3
100
AcDbLine
 10
126.88538029
 20
37.54274744
 30
0.0
 11
126.88100668
 21
37.59273711
 31
0.0
  0
LINE
  5
118
100
AcDbEntity
  8
SLD-0
  6
CONTINUOUS
 62
       3
100
AcDbLine
 10
126.88100668
 20
37.59273711
 30
0.0
 11
126.8756149
 21
37.65436645
 31
0.0
  0
LINE
  5
119
100
AcDbEntity
  8
SLD-0
  6
CONTINUOUS
 62
       3
100
AcDbLine
 10
126.8756149
 20
37.65436645
 30
0.0
 11
126.86936876
 21
37.72575978
 31
0.0
  0
LINE
  5
11A
100
AcDbEntity
  8
SLD-0
  6
CONTINUOUS
 62
       3
100
AcDbLine
 10
126.86936876
 20
37.72575978
 30
0.0
 11
126.86245799
 21
37.80474897
 31
0.0
  0
LINE
  5
11B
100
AcDbEntity
  8
SLD-0
  6
CONTINUOUS
 62
       3
100
AcDbLine
 10
126.86245799
 20
37.80474897
 30
0.0
 11
126.85509275
 21
37.88893494
 31
0.0
  0
LINE
  5
11C
100
AcDbEntity
  8
SLD-0
  6
CONTINUOUS
 62
       3
100
AcDbLine
 10
126.85509275
 20
37.88893494
 30
0.0
 11
126.84749653
 21
37.97576028
 31
0.0
  0
LINE
  5
11D
100
AcDbEntity
  8
SLD-0
  6
CONTINUOUS
 62
       3
100
AcDbLine
 10
127.61690667
 20
37.834339
 30
0.0
 11
127.56481221
 21
37.78224454
 31
0.0
  0
LINE
  5
11E
100
AcDbEntity
  8
SLD-0
  6
CONTINUOUS
 62
       3
100
AcDbLine
 10
127.56481221
 20
37.78224454
 30
0.0
 11
127.51430065
 21
37.73173333
 31
0.0
  0
LINE
  5
11F
100
AcDbEntity
  8
SLD-0
  6
CONTINUOUS
 62
       3
100
AcDbLine
 10
127.51430065
 20
37.73173333
 30
0.0
 11
127.46690669
 21
37.68433833
 31
0.0
  0
LINE
  5
120
100
AcDbEntity
  8
SLD-0
  6
CONTINUOUS
 62
       3
100
AcDbLine
 10
127.46690669
 20
37.68433833
 30
0.0
 11
127.4240704
 21
37.64150308
 31
0.0
  0
LINE
  5
121
100
AcDbEntity
  8
SLD-0
  6
CONTINUOUS
 62
       3
100
AcDbLine
 10
127.4240704
 20
37.64150308
 30
0.0
 11
127.3870934
 21
37.60452584
 31
0.0
  0
LINE
  5
122
100
AcDbEntity
  8
SLD-0
  6
CONTINUOUS
 62
       3
100
AcDbLine
 10
127.3870934
 20
37.60452584
 30
0.0
 11
127.35709911
 21
37.57453167
 31
0.0
  0
LINE
  5
123
100
AcDbEntity
  8
SLD-0
  6
CONTINUOUS
 62
       3
100
AcDbLine
 10
127.35709911
 20
37.57453167
 30
0.0
 11
127.33499894
 21
37.55243138
 31
0.0
  0
LINE
  5
124
100
AcDbEntity
  8
SLD-0
  6
CONTINUOUS
 62
       3
100
AcDbLine
 10
127.33499894
 20
37.55243138
 30
0.0
 11
127.32146438
 21
37.53889554
 31
0.0
  0
LINE
  5
125
100
AcDbEntity
  8
SLD-0
  6
CONTINUOUS
 62
       3
100
AcDbLine
 10
127.32146438
 20
37.53889554
 30
0.0
 11
127.31690672
 21
37.53433765
 31
0.0
  0
LINE
  5
126
100
AcDbEntity
  8
SLD-0
  6
CONTINUOUS
 62
       3
100
AcDbLine
 10
128.67046009
 20
38.88789208
 30
0.0
 11
127.61690667
 21
37.834339
 31
0.0
  0
LINE
  5
127
100
AcDbEntity
  8
SLD-0
  6
CONTINUOUS
 62
       3
100
AcDbLine
 10
128.75832798
 20
39.32468053
 30
0.0
 11
128.75832798
 21
39.10002402
 31
0.0
  0
ARC
  5
128
100
AcDbEntity
  8
SLD-0
  6
CONTINUOUS
 62
       3
100
AcDbCircle
 10
128.1318152
 20
-3.73418238
 30
0.0
 40
0.5
100
AcDbArc
 50
270.0
 51
360.0
  0
ARC
  5
129
100
AcDbEntity
  8
SLD-0
  6
CONTINUOUS
 62
       3
100
AcDbCircle
 10
-120.29167565
 20
45.26581584
 30
0.0
 40
0.5
100
AcDbArc
 50
90.0
 51
180.00000166
  0
ARC
  5
12A
100
AcDbEntity
  8
SLD-0
  6
CONTINUOUS
 62
       3
100
AcDbCircle
 10
-6.29167414
 20
45.26581584
 30
0.0
 40
0.5
100
AcDbArc
 50
359.99999834
 51
450.0
  0
ARC
  5
12B
100
AcDbEntity
  8
SLD-0
  6
CONTINUOUS
 62
       3
100
AcDbCircle
 10
99.13181522
 20
-3.73418238
 30
0.0
 40
0.5
100
AcDbArc
 50
180.0
 51
269.99999771
  0
ARC
  5
12C
100
AcDbEntity
  8
SLD-0
  6
CONTINUOUS
 62
       3
100
AcDbCircle
 10
-6.29167556
 20
-3.73418288
 30
0.0
 40
0.5
100
AcDbArc
 50
270.0
 51
359.99999834
  0
ARC
  5
12D
100
AcDbEntity
  8
SLD-0
  6
CONTINUOUS
 62
       3
100
AcDbCircle
 10
-120.29167423
 20
-3.73418288
 30
0.0
 40
0.5
100
AcDbArc
 50
180.00000166
 51
270.0
  0
ARC
  5
12E
100
AcDbEntity
  8
SLD-0
  6
CONTINUOUS
 62
       3
100
AcDbCircle
 10
-63.2916749
 20
11.4058168
 30
0.0
 40
17.14
100
AcDbArc
 50
246.26124165
 51
293.73875835
  0
ARC
  5
12F
100
AcDbEntity
  8
SLD-0
  6
CONTINUOUS
 62
       3
100
AcDbCircle
 10
-63.2916749
 20
11.4058168
 30
0.0
 40
18.64
100
AcDbArc
 50
243.21500449
 51
296.78499551
  0
ARC
  5
130
100
AcDbEntity
  8
SLD-0
  6
CONTINUOUS
 62
       3
100
AcDbCircle
 10
87.83440977
 20
35.58529801
 30
0.0
 40
11.86673216
100
AcDbArc
 50
160.94496999
 51
177.43765835
  0
ARC
  5
131
100
AcDbEntity
  8
SLD-0
  6
CONTINUOUS
 62
       3
100
AcDbCircle
 10
87.83440977
 20
35.58529801
 30
0.0
 40
11.86673216
100
AcDbArc
 50
177.43765835
 51
193.64854805
  0
ARC
  5
132
100
AcDbEntity
  8
SLD-0
  6
CONTINUOUS
 62
       3
100
AcDbCircle
 10
68.81832095
 20
36.4860353
 30
0.0
 40
8.30089816
100
AcDbArc
 50
334.09317231
 51
380.48300994
  0
ARC
  5
133
100
AcDbEntity
  8
SLD-0
  6
CONTINUOUS
 62
       3
100
AcDbCircle
 10
78.59039819
 20
20.77983358
 30
0.0
 40
1.49999999
100
AcDbArc
 50
189.10878765
 51
268.99999311
  0
ARC
  5
134
100
AcDbEntity
  8
SLD-0
  6
CONTINUOUS
 62
       3
100
AcDbCircle
 10
128.45832798
 20
39.32467983
 30
0.0
 40
0.3
100
AcDbArc
 50
270.99999963
 51
360.00013369
  0
ARC
  5
135
100
AcDbEntity
  8
SLD-0
  6
CONTINUOUS
 62
       3
100
AcDbCircle
 10
127.17548536
 20
37.6757599
 30
0.0
 40
0.20000063
100
AcDbArc
 50
270.00001432
 51
314.99981971
  0
ARC
  5
136
100
AcDbEntity
  8
SLD-0
  6
CONTINUOUS
 62
       3
100
AcDbCircle
 10
128.45832802
 20
39.10002402
 30
0.0
 40
0.29999996
100
AcDbArc
 50
315.00001756
 51
360.0
  0
ARC
  5
137
100
AcDbEntity
  8
SLD-0
  6
CONTINUOUS
 62
       3
100
AcDbCircle
 10
-5.29167414
 20
45.26581586
 30
0.0
 40
0.5
100
AcDbArc
 50
90.0
 51
180.00000166
  0
LINE
  5
138
100
AcDbEntity
  8
SLD-0
  6
PHANTOM
 62
       3
100
AcDbLine
 10
78.48181639
 20
9.06481554
 30
0.0
 11
79.68181569
 21
9.06481554
 31
0.0
  0
LINE
  5
139
100
AcDbEntity
  8
SLD-0
  6
PHANTOM
 62
       3
100
AcDbLine
 10
-82.04167564
 20
-0.58723613
 30
0.0
 11
-82.04167564
 21
18.4148159
 31
0.0
  0
LINE
  5
13A
100
AcDbEntity
  8
SLD-0
  6
PHANTOM
 62
       3
100
AcDbLine
 10
-11.04167332
 20
18.4148159
 30
0.0
 11
-11.04167332
 21
-0.58723613
 31
0.0
  0
LINE
  5
13B
100
AcDbEntity
  8
SLD-0
  6
PHANTOM
 62
       3
100
AcDbLine
 10
-11.04167332
 20
-0.58723613
 30
0.0
 11
-82.04167564
 21
-0.58723613
 31
0.0
  0
LINE
  5
13C
100
AcDbEntity
  8
SLD-0
  6
PHANTOM
 62
       3
100
AcDbLine
 10
-82.04167564
 20
18.4148159
 30
0.0
 11
-11.04167332
 21
18.4148159
 31
0.0
  0
LINE
  5
13D
100
AcDbEntity
  8
SLD-0
  6
PHANTOM
 62
       3
100
AcDbLine
 10
78.37403953
 20
-0.58317375
 30
0.0
 11
76.1991078
 21
-0.58723634
 31
0.0
  0
LINE
  5
13E
100
AcDbEntity
  8
SLD-0
  6
PHANTOM
 62
       3
100
AcDbLine
 10
96.98181747
 20
7.86481665
 30
0.0
 11
96.98181747
 21
-0.58518296
 31
0.0
  0
LINE
  5
13F
100
AcDbEntity
  8
SLD-0
  6
PHANTOM
 62
       3
100
AcDbLine
 10
98.63181522
 20
7.86481665
 30
0.0
 11
96.98181747
 21
7.86481665
 31
0.0
  0
LINE
  5
140
100
AcDbEntity
  8
SLD-0
  6
PHANTOM
 62
       3
100
AcDbLine
 10
98.63181522
 20
-0.58518296
 30
0.0
 11
96.98181747
 21
-0.58518296
 31
0.0
  0
LINE
  5
141
100
AcDbEntity
  8
SLD-0
  6
PHANTOM
 62
       3
100
AcDbLine
 10
96.98181747
 20
7.86481665
 30
0.0
 11
78.3290166
 21
7.86481612
 31
0.0
  0
LINE
  5
142
100
AcDbEntity
  8
SLD-0
  6
PHANTOM
 62
       3
100
AcDbLine
 10
79.68181569
 20
9.06481554
 30
0.0
 11
79.68181639
 21
7.86481665
 31
0.0
  0
LINE
  5
143
100
AcDbEntity
  8
SLD-0
  6
PHANTOM
 62
       3
100
AcDbLine
 10
77.88181451
 20
13.71481615
 30
0.0
 11
77.88181593
 21
9.664816
 31
0.0
  0
LINE
  5
144
100
AcDbEntity
  8
SLD-0
  6
PHANTOM
 62
       3
100
AcDbLine
 10
76.15261671
 20
15.11464334
 30
0.0
 11
77.88181451
 21
13.71481615
 31
0.0
  0
LINE
  5
145
100
AcDbEntity
  8
SLD-0
  6
PHANTOM
 62
       3
100
AcDbLine
 10
75.78181583
 20
17.91481581
 30
0.0
 11
75.78181555
 21
15.89188783
 31
0.0
  0
LINE
  5
146
100
AcDbEntity
  8
SLD-0
  6
PHANTOM
 62
       3
100
AcDbLine
 10
98.63181521
 20
18.41481568
 30
0.0
 11
76.28181568
 21
18.41481568
 31
0.0
  0
LINE
  5
147
100
AcDbEntity
  8
SLD-0
  6
PHANTOM
 62
       3
100
AcDbLine
 10
92.08181648
 20
7.86481665
 30
0.0
 11
92.08181594
 21
0.51481635
 31
0.0
  0
LINE
  5
148
100
AcDbEntity
  8
SLD-0
  6
PHANTOM
 62
       3
100
AcDbLine
 10
93.18181594
 20
-0.58518365
 30
0.0
 11
96.98181747
 21
-0.58518296
 31
0.0
  0
LINE
  5
149
100
AcDbEntity
  8
SLD-0
  6
PHANTOM
 62
       3
100
AcDbLine
 10
78.3290166
 20
7.86481612
 30
0.0
 11
78.37403953
 21
-0.58317375
 31
0.0
  0
LINE
  5
14A
100
AcDbEntity
  8
SLD-0
  6
PHANTOM
 62
       3
100
AcDbLine
 10
98.63181522
 20
18.41856051
 30
0.0
 11
76.28181555
 21
18.41856051
 31
0.0
  0
ARC
  5
14B
100
AcDbEntity
  8
SLD-0
  6
PHANTOM
 62
       3
100
AcDbCircle
 10
108.13482194
 20
8.22242375
 30
0.0
 40
33.5
100
AcDbArc
 50
167.88334717
 51
194.58452094
  0
ARC
  5
14C
100
AcDbEntity
  8
SLD-0
  6
PHANTOM
 62
       3
100
AcDbCircle
 10
76.19817303
 20
-0.08723739
 30
0.0
 40
0.49999982
100
AcDbArc
 50
194.58452184
 51
270.10711685
  0
ARC
  5
14D
100
AcDbEntity
  8
SLD-0
  6
PHANTOM
 62
       3
100
AcDbCircle
 10
108.13482194
 20
8.22242375
 30
0.0
 40
33.5
100
AcDbArc
 50
164.96363983
 51
167.88334717
  0
ARC
  5
14E
100
AcDbEntity
  8
SLD-0
  6
PHANTOM
 62
       3
100
AcDbCircle
 10
78.48181639
 20
9.664816
 30
0.0
 40
0.60000046
100
AcDbArc
 50
180.0
 51
270.0
  0
ARC
  5
14F
100
AcDbEntity
  8
SLD-0
  6
PHANTOM
 62
       3
100
AcDbCircle
 10
76.78181578
 20
15.89188783
 30
0.0
 40
1.00000023
100
AcDbArc
 50
180.0
 51
231.00895477
  0
ARC
  5
150
100
AcDbEntity
  8
SLD-0
  6
PHANTOM
 62
       3
100
AcDbCircle
 10
76.28181568
 20
17.91481582
 30
0.0
 40
0.49999985
100
AcDbArc
 50
90.0
 51
180.00000115
  0
ARC
  5
151
100
AcDbEntity
  8
SLD-0
  6
PHANTOM
 62
       3
100
AcDbCircle
 10
93.18181594
 20
0.51481635
 30
0.0
 40
1.1
100
AcDbArc
 50
180.0
 51
270.0
  0
ARC
  5
152
100
AcDbEntity
  8
SLD-0
  6
PHANTOM
 62
       3
100
AcDbCircle
 10
76.28181555
 20
17.91856051
 30
0.0
 40
0.5
100
AcDbArc
 50
90.0
 51
180.0
  0
LINE
  5
153
100
AcDbEntity
  8
SLD-0
  6
CENTERX2
 62
       3
100
AcDbLine
 10
62.1825652
 20
20.76581712
 30
0.0
 11
-128.75832798
 21
20.76581712
 31
0.0
  0
LINE
  5
154
100
AcDbEntity
  8
SLD-0
  6
CENTERX2
 62
       3
100
AcDbLine
 10
73.88473872
 20
20.76581762
 30
0.0
 11
128.1318152
 21
20.76581762
 31
0.0
  0
LINE
  5
155
100
AcDbEntity
  8
0
  6
CONTINUOUS
 62
       3
100
AcDbLine
 10
59.20832414
 20
32.8257999
 30
0.0
 11
-5.79167665
 21
32.8258096
 31
0.0
  0
LINE
  5
156
100
AcDbEntity
  8
0
  6
CONTINUOUS
 62
       3
100
AcDbLine
 10
59.20832433
 20
39.42583572
 30
0.0
 11
-5.79167684
 21
39.42582468
 31
0.0
  0
LINE
  5
157
100
AcDbEntity
  8
0
  6
CONTINUOUS
 62
       3
100
AcDbLine
 10
59.2083245
 20
45.26581583
 30
0.0
 11
59.20832308
 21
-3.73418289
 31
0.0
  0
LINE
  5
158
100
AcDbEntity
  8
0
  6
CONTINUOUS
 62
       3
100
AcDbLine
 10
33.10832374
 20
-4.283976
 30
0.0
 11
33.10832374
 21
-4.2341825
 31
0.0
  0
LINE
  5
159
100
AcDbEntity
  8
0
  6
CONTINUOUS
 62
       3
100
AcDbLine
 10
59.20832374
 20
18.9297809
 30
0.0
 11
-5.79167625
 21
18.9297809
 31
0.0
  0
LINE
  5
15A
100
AcDbEntity
  8
0
  6
CONTINUOUS
 62
       3
100
AcDbLine
 10
59.20832384
 20
22.45280865
 30
0.0
 11
-5.79167635
 21
22.45280865
 31
0.0
  0
LINE
  5
15B
100
AcDbEntity
  8
0
  6
CONTINUOUS
 62
       3
100
AcDbLine
 10
-5.79167559
 20
-3.73418289
 30
0.0
 11
-5.79167701
 21
45.26581589
 31
0.0
  0
LINE
  5
15C
100
AcDbEntity
  8
0
  6
CONTINUOUS
 62
       3
100
AcDbLine
 10
17.80832374
 20
-5.23418314
 30
0.0
 11
17.80832404
 21
-4.2341825
 31
0.0
  0
LINE
  5
15D
100
AcDbEntity
  8
0
  6
CONTINUOUS
 62
       3
100
AcDbLine
 10
58.70832308
 20
-4.23418288
 30
0.0
 11
-5.29167559
 21
-4.23418288
 31
0.0
  0
LINE
  5
15E
100
AcDbEntity
  8
0
  6
CONTINUOUS
 62
       3
100
AcDbLine
 10
19.30832374
 20
-4.283976
 30
0.0
 11
19.30832374
 21
-4.2341825
 31
0.0
  0
LINE
  5
15F
100
AcDbEntity
  8
0
  6
CONTINUOUS
 62
       3
100
AcDbLine
 10
59.20832441
 20
42.13473132
 30
0.0
 11
-5.79167692
 21
42.13473132
 31
0.0
  0
LINE
  5
160
100
AcDbEntity
  8
0
  6
CONTINUOUS
 62
       3
100
AcDbLine
 10
58.7083245
 20
45.7658159
 30
0.0
 11
-5.29167701
 21
45.7658159
 31
0.0
  0
LINE
  5
161
100
AcDbEntity
  8
0
  6
CONTINUOUS
 62
       3
100
AcDbLine
 10
34.60832374
 20
-5.23418314
 30
0.0
 11
34.60832344
 21
-4.2341825
 31
0.0
  0
ARC
  5
162
100
AcDbEntity
  8
0
  6
CONTINUOUS
 62
       3
100
AcDbCircle
 10
26.20832374
 20
11.40581686
 30
0.0
 40
18.64
100
AcDbArc
 50
243.21500449
 51
296.78499551
  0
ARC
  5
163
100
AcDbEntity
  8
0
  6
CONTINUOUS
 62
       3
100
AcDbCircle
 10
26.20832374
 20
11.40581686
 30
0.0
 40
17.14
100
AcDbArc
 50
246.26124165
 51
293.73875835
  0
ARC
  5
164
100
AcDbEntity
  8
0
  6
CONTINUOUS
 62
       3
100
AcDbCircle
 10
58.7083245
 20
45.2658159
 30
0.0
 40
0.5
100
AcDbArc
 50
359.99999198
 51
450.0
  0
ARC
  5
165
100
AcDbEntity
  8
0
  6
CONTINUOUS
 62
       3
100
AcDbCircle
 10
-5.29167559
 20
-3.73418288
 30
0.0
 40
0.5
100
AcDbArc
 50
180.00000115
 51
270.0
  0
ARC
  5
166
100
AcDbEntity
  8
0
  6
CONTINUOUS
 62
       3
100
AcDbCircle
 10
58.70832308
 20
-3.73418288
 30
0.0
 40
0.5
100
AcDbArc
 50
270.0
 51
359.99999885
  0
LINE
  5
167
100
AcDbEntity
  8
0
  6
PHANTOM
 62
       3
100
AcDbLine
 10
53.95832532
 20
18.41481596
 30
0.0
 11
53.95832532
 21
-0.58723607
 31
0.0
  0
LINE
  5
168
100
AcDbEntity
  8
0
  6
PHANTOM
 62
       3
100
AcDbLine
 10
53.95832532
 20
-0.58723607
 30
0.0
 11
10.958323
 21
-0.58723607
 31
0.0
  0
LINE
  5
169
100
AcDbEntity
  8
0
  6
PHANTOM
 62
       3
100
AcDbLine
 10
10.958323
 20
-0.58723607
 30
0.0
 11
10.958323
 21
18.41481596
 31
0.0
  0
LINE
  5
16A
100
AcDbEntity
  8
0
  6
PHANTOM
 62
       3
100
AcDbLine
 10
10.958323
 20
18.41481596
 30
0.0
 11
53.95832532
 21
18.41481596
 31
0.0
  0
LINE
  5
16B
100
AcDbEntity
  8
SLD-0_0
  6
PHANTOM
 62
       3
100
AcDbLine
 10
-110.52837093
 20
5.58697817
 30
0.0
 11
-110.52837093
 21
1.98697684
 31
0.0
  0
LINE
  5
16C
100
AcDbEntity
  8
SLD-0_0
  6
PHANTOM
 62
       3
100
AcDbLine
 10
-112.52837126
 20
5.58697817
 30
0.0
 11
-110.52837093
 21
5.58697817
 31
0.0
  0
LINE
  5
16D
100
AcDbEntity
  8
SLD-0_0
  6
PHANTOM
 62
       3
100
AcDbLine
 10
-110.52837093
 20
11.58697543
 30
0.0
 11
-112.52837126
 21
11.58697543
 31
0.0
  0
LINE
  5
16E
100
AcDbEntity
  8
SLD-0_0
  6
PHANTOM
 62
       3
100
AcDbLine
 10
-110.52837093
 20
1.98697684
 30
0.0
 11
-102.22837013
 21
1.98697684
 31
0.0
  0
LINE
  5
16F
100
AcDbEntity
  8
SLD-0_0
  6
PHANTOM
 62
       3
100
AcDbLine
 10
-98.82837032
 20
0.98697853
 30
0.0
 11
-98.82837032
 21
16.18697879
 31
0.0
  0
LINE
  5
170
100
AcDbEntity
  8
SLD-0_0
  6
PHANTOM
 62
       3
100
AcDbLine
 10
-110.52837093
 20
15.18697676
 30
0.0
 11
-110.52837093
 21
11.58697543
 31
0.0
  0
LINE
  5
171
100
AcDbEntity
  8
SLD-0_0
  6
PHANTOM
 62
       3
100
AcDbLine
 10
-113.52837142
 20
16.18697879
 30
0.0
 11
-113.52837142
 21
0.98697853
 31
0.0
  0
LINE
  5
172
100
AcDbEntity
  8
SLD-0_0
  6
PHANTOM
 62
       3
100
AcDbLine
 10
-98.82837032
 20
16.18697879
 30
0.0
 11
-113.52837142
 21
16.18697879
 31
0.0
  0
LINE
  5
173
100
AcDbEntity
  8
SLD-0_0
  6
PHANTOM
 62
       3
100
AcDbLine
 10
-102.22837013
 20
1.98697684
 30
0.0
 11
-102.22837013
 21
15.18697676
 31
0.0
  0
LINE
  5
174
100
AcDbEntity
  8
SLD-0_0
  6
PHANTOM
 62
       3
100
AcDbLine
 10
-113.52837142
 20
0.98697853
 30
0.0
 11
-98.82837032
 21
0.98697853
 31
0.0
  0
LINE
  5
175
100
AcDbEntity
  8
SLD-0_0
  6
PHANTOM
 62
       3
100
AcDbLine
 10
-112.52837126
 20
11.58697543
 30
0.0
 11
-112.52837126
 21
5.58697817
 31
0.0
  0
LINE
  5
176
100
AcDbEntity
  8
SLD-0_0
  6
PHANTOM
 62
       3
100
AcDbLine
 10
-102.22837013
 20
15.18697676
 30
0.0
 11
-110.52837093
 21
15.18697676
 31
0.0
  0
ARC
  5
177
100
AcDbEntity
  8
SLD-0_0
  6
CONTINUOUS
 62
       3
100
AcDbCircle
 10
-19.30855729
 20
35.22563324
 30
0.0
 40
15.00007162
100
AcDbArc
 50
238.62239571
 51
301.62311536
  0
ARC
  5
178
100
AcDbEntity
  8
SLD-0_0
  6
CONTINUOUS
 62
       3
100
AcDbCircle
 10
160.70034884
 20
32.14489666
 30
0.0
 40
84.4
100
AcDbArc
 50
170.71268783
 51
175.02816965
  0
ARC
  5
179
100
AcDbEntity
  8
SLD-0_0
  6
CONTINUOUS
 62
       3
100
AcDbCircle
 10
160.70034884
 20
32.14489666
 30
0.0
 40
84.4
100
AcDbArc
 50
179.56534838
 51
187.90317753
  0
INSERT
  5
17A
100
AcDbEntity
  8
0
  6
CONTINUOUS
100
AcDbBlockReference
  2
GROUP_1
 10
0.0
 20
0.0
 30
0.0
  0
INSERT
  5
17B
100
AcDbEntity
  8
0
  6
CONTINUOUS
100
AcDbBlockReference
  2
GROUP_2
 10
0.0
 20
0.0
 30
0.0
  0
INSERT
  5
17C
100
AcDbEntity
  8
0
  6
CONTINUOUS
100
AcDbBlockReference
  2
GROUP_3
 10
0.0
 20
0.0
 30
0.0
  0
TEXT
  5
17D
100
AcDbEntity
  8
SLD-0_0
 62
       3
100
AcDbText
 10
67.97812131
 20
-48.2658159
 30
0.0
 40
5.0
  1
000
 72
       5
 11
82.97812131
 21
-48.2658159
 31
0.0
100
AcDbText
  0
ENDSEC
  0
SECTION
  2
OBJECTS
  0
DICTIONARY
  5
19
100
AcDbDictionary
  3
ACAD_GROUP
350
1A
  3
ACAD_MLINESTYLE
350
1B
  0
DICTIONARY
  5
1A
102
{ACAD_REACTORS
330
19
102
}
100
AcDbDictionary
  0
DICTIONARY
  5
1B
102
{ACAD_REACTORS
330
19
102
}
100
AcDbDictionary
  3
STANDARD
350
1C
  0
MLINESTYLE
  5
1C
102
{ACAD_REACTORS
330
1B
102
}
100
AcDbMlineStyle
  2
STANDARD
 70
       0
  3

 62
       0
 51
90.0
 52
90.0
 71
       2
 49
0.5
 62
     256
  6
BYLAYER
 49
-0.5
 62
     256
  6
BYLAYER
  0
ENDSEC
  0
EOF
