  0
SECTION
  2
HEADER
  9
$ACADVER
  1
AC1014
  9
$ACADMAINTVER
 70
       0
  9
$DWGCODEPAGE
  3
ANSI_932
  9
$INSBASE
 10
0.0
 20
0.0
 30
0.0
  9
$EXTMIN
 10
-107.9086611
 20
-71.918986
 30
0.0
  9
$EXTMAX
 10
107.9086611
 20
34.68461934
 30
0.0
  9
$LIMMIN
 10
-114.65295242
 20
-75.25034867
  9
$LIMMAX
 10
114.65295242
 20
38.01598201
  9
$ORTHOMODE
 70
       0
  9
$REGENMODE
 70
       1
  9
$FILLMODE
 70
       1
  9
$QTEXTMODE
 70
       0
  9
$MIRRTEXT
 70
       1
  9
$DRAGMODE
 70
       2
  9
$LTSCALE
 40
1.0
  9
$OSMODE
 70
       0
  9
$ATTMODE
 70
       1
  9
$TEXTSIZE
 40
0.2
  9
$TRACEWID
 40
0.05
  9
$TEXTSTYLE
  7
STANDARD
  9
$CLAYER
  8
0
  9
$CELTYPE
  6
CONTINUOUS
  9
$CECOLOR
 62
     256
  9
$CELTSCALE
 40
1.0
  9
$DELOBJ
 70
       1
  9
$DISPSILH
 70
       0
  9
$DIMSCALE
 40
1.0
  9
$DIMASZ
 40
0.18
  9
$DIMEXO
 40
0.0625
  9
$DIMDLI
 40
0.38
  9
$DIMRND
 40
0.0
  9
$DIMDLE
 40
0.0
  9
$DIMEXE
 40
0.18
  9
$DIMTP
 40
0.0
  9
$DIMTM
 40
0.0
  9
$DIMTXT
 40
0.18
  9
$DIMCEN
 40
0.09
  9
$DIMTSZ
 40
0.0
  9
$DIMTOL
 70
       0
  9
$DIMLIM
 70
       0
  9
$DIMTIH
 70
       1
  9
$DIMTOH
 70
       1
  9
$DIMSE1
 70
       0
  9
$DIMSE2
 70
       0
  9
$DIMTAD
 70
       0
  9
$DIMZIN
 70
       0
  9
$DIMBLK
  1

  9
$DIMASO
 70
       1
  9
$DIMSHO
 70
       1
  9
$DIMPOST
  1

  9
$DIMAPOST
  1

  9
$DIMALT
 70
       0
  9
$DIMALTD
 70
       2
  9
$DIMALTF
 40
25.4
  9
$DIMLFAC
 40
1.0
  9
$DIMTOFL
 70
       0
  9
$DIMTVP
 40
0.0
  9
$DIMTIX
 70
       0
  9
$DIMSOXD
 70
       0
  9
$DIMSAH
 70
       0
  9
$DIMBLK1
  1

  9
$DIMBLK2
  1

  9
$DIMSTYLE
  2
STANDARD
  9
$DIMCLRD
 70
       0
  9
$DIMCLRE
 70
       0
  9
$DIMCLRT
 70
       0
  9
$DIMTFAC
 40
1.0
  9
$DIMGAP
 40
0.09
  9
$DIMJUST
 70
       0
  9
$DIMSD1
 70
       0
  9
$DIMSD2
 70
       0
  9
$DIMTOLJ
 70
       1
  9
$DIMTZIN
 70
       0
  9
$DIMALTZ
 70
       0
  9
$DIMALTTZ
 70
       0
  9
$DIMFIT
 70
       3
  9
$DIMUPT
 70
       0
  9
$DIMUNIT
 70
       2
  9
$DIMDEC
 70
       4
  9
$DIMTDEC
 70
       4
  9
$DIMALTU
 70
       2
  9
$DIMALTTD
 70
       2
  9
$DIMTXSTY
  7
STANDARD
  9
$DIMAUNIT
 70
       0
  9
$LUNITS
 70
       2
  9
$LUPREC
 70
       4
  9
$SKETCHINC
 40
0.1
  9
$FILLETRAD
 40
0.0
  9
$AUNITS
 70
       0
  9
$AUPREC
 70
       0
  9
$MENU
  1
acad
  9
$ELEVATION
 40
0.0
  9
$PELEVATION
 40
0.0
  9
$THICKNESS
 40
0.0
  9
$LIMCHECK
 70
       0
  9
$BLIPMODE
 70
       1
  9
$CHAMFERA
 40
0.0
  9
$CHAMFERB
 40
0.0
  9
$CHAMFERC
 40
0.0
  9
$CHAMFERD
 40
0.0
  9
$SKPOLY
 70
       0
  9
$TDCREATE
 40
0.000000000
  9
$TDUPDATE
 40
0.000000000
  9
$TDINDWG
 40
0.0000000000
  9
$TDUSRTIMER
 40
0.0000000000
  9
$USRTIMER
 70
       1
  9
$ANGBASE
 50
0.0
  9
$ANGDIR
 70
       0
  9
$PDMODE
 70
       0
  9
$PDSIZE
 40
1.0
  9
$PLINEWID
 40
0.0
  9
$COORDS
 70
       1
  9
$SPLFRAME
 70
       0
  9
$SPLINETYPE
 70
       6
  9
$SPLINESEGS
 70
       8
  9
$ATTDIA
 70
       0
  9
$ATTREQ
 70
       1
  9
$HANDLING
 70
       1
  9
$HANDSEED
  5
23E
  9
$SURFTAB1
 70
       6
  9
$SURFTAB2
 70
       6
  9
$SURFTYPE
 70
       6
  9
$SURFU
 70
       6
  9
$SURFV
 70
       6
  9
$UCSNAME
  2

  9
$UCSORG
 10
0.0
 20
0.0
 30
0.0
  9
$UCSXDIR
 10
1.0
 20
0.0
 30
0.0
  9
$UCSYDIR
 10
0.0
 20
1.0
 30
0.0
  9
$PUCSNAME
  2

  9
$PUCSORG
 10
0.0
 20
0.0
 30
0.0
  9
$PUCSXDIR
 10
1.0
 20
0.0
 30
0.0
  9
$PUCSYDIR
 10
0.0
 20
1.0
 30
0.0
  9
$USERI1
 70
       0
  9
$USERI2
 70
       0
  9
$USERI3
 70
       0
  9
$USERI4
 70
       0
  9
$USERI5
 70
       0
  9
$USERR1
 40
0.0
  9
$USERR2
 40
0.0
  9
$USERR3
 40
0.0
  9
$USERR4
 40
0.0
  9
$USERR5
 40
0.0
  9
$WORLDVIEW
 70
       1
  9
$SHADEDGE
 70
       3
  9
$SHADEDIF
 70
      70
  9
$TILEMODE
 70
       1
  9
$MAXACTVP
 70
      16
  9
$PINSBASE
 10
0.0
 20
0.0
 30
0.0
  9
$PLIMCHECK
 70
       0
  9
$PEXTMIN
 10
1.00000000E+20
 20
1.00000000E+20
 30
1.00000000E+20
  9
$PEXTMAX
 10
-1.00000000E+20
 20
-1.00000000E+20
 30
-1.00000000E+20
  9
$PLIMMIN
 10
0.0
 20
0.0
  9
$PLIMMAX
 10
12.0
 20
9.0
  9
$UNITMODE
 70
       0
  9
$VISRETAIN
 70
       0
  9
$PLINEGEN
 70
       1
  9
$PSLTSCALE
 70
       0
  9
$TREEDEPTH
 70
    3020
  9
$PICKSTYLE
 70
       1
  9
$CMLSTYLE
  2
STANDARD
  9
$CMLJUST
 70
       0
  9
$CMLSCALE
 40
1.0
  9
$PROXYGRAPHICS
 70
       0
  9
$MEASUREMENT
 70
       0
  0
ENDSEC
  0
SECTION
  2
CLASSES
  0
CLASS
  1
LWPOLYLINE
  2
AcDbPolyline
  3
"AutoCAD"
 90
        0
280
       0
281
       1
  0
CLASS
  1
IMAGE
  2
AcDbRasterImage
  3
ISM
 90
      127
280
       0
281
       1
  0
CLASS
  1
OLE2FRAME
  2
AcDbOle2Frame
  3
""
 90
        0
280
       0
281
       1
  0
CLASS
  1
HATCH
  2
AcDbHatch
  3
"ACAD_SEDONA"
 90
        0
280
       0
281
       1
  0
CLASS
  1
DICTIONARYVAR
  2
AcDbDictionaryVar
  3
"AutoCAD"
 90
        0
280
       0
281
       0
  0
CLASS
  1
RASTERVARIABLES
  2
AcDbRasterVariables
  3
ISM
 90
        0
280
       0
281
       0
  0
CLASS
  1
IMAGEDEF
  2
AcDbRasterImageDef
  3
ISM
 90
        0
280
       0
281
       0
  0
CLASS
  1
IMAGEDEF_REACTOR
  2
AcDbRasterImageDefReactor
  3
ISM
 90
        1
280
       0
281
       0
  0
CLASS
  1
IDBUFFER
  2
AcDbIdBuffer
  3
"Acad"
 90
        0
280
       0
281
       0
  0
CLASS
  1
SPATIAL_FILTER
  2
AcDbSpatialFilter
  3
"Acad"
 90
        0
280
       0
281
       0
  0
CLASS
  1
XRECORD
  2
AcDbXrecord
  3
"<Built In>"
 90
        0
280
       0
281
       0
  0
CLASS
  1
SORTENTSTABLE
  2
AcDbSortentsTable
  3
"AutoCAD"
 90
        0
280
       0
281
       0
  0
CLASS
  1
LAYER_INDEX
  2
AcDbLayerIndex
  3
"Acad"
 90
        0
280
       0
281
       0
  0
CLASS
  1
SPATIAL_INDEX
  2
AcDbSpatialIndex
  3
"Acad"
 90
        0
280
       0
281
       0
  0
CLASS
  1
OBJECT_PTR
  2
CAseDLPNTableRecord
  3
"ASE-LPNTableRecord"
 90
        1
280
       0
281
       0
  0
CLASS
  1
LAYOUT
  2
AcDbLayout
  3
"AutoCAD 2000"
 90
        1
280
       0
281
       0
  0
CLASS
  1
PLOTSETTINGS
  2
AcDbPlotSettings
  3
"AutoCAD 2000"
 90
        1
280
       0
281
       0
  0
CLASS
  1
ACDBDICTIONARYWDFLT
  2
AcDbDictionaryWithDefault
  3
"AutoCAD 2000"
 90
        1
280
       0
281
       0
  0
CLASS
  1
ACDBPLACEHOLDER
  2
AcDbPlaceHolder
  3
"AutoCAD 2000"
 90
        1
280
       0
281
       0
  0
CLASS
  1
VBA_PROJECT
  2
AcDbVbaProject
  3
"acadvba"
 90
        1
280
       0
281
       0
  0
CLASS
  1
WIPEOUT
  2
AcDbWipeout
  3
WipeOut|AutoCAD Express Tool|expresstools@autodesk.com
 90
      127
280
       0
281
       1
  0
CLASS
  1
WIPEOUTVARIABLES
  2
AcDbWipeoutVariables
  3
WipeOut|AutoCAD Express Tool|expresstools@autodesk.com
 90
        0
280
       0
281
       0
  0
CLASS
  1
RTEXT
  2
RText
  3
RText|AutoCAD Express Tool|expresstools@autodesk.com
 90
        0
280
       0
281
       1
  0
CLASS
  1
ARCALIGNEDTEXT
  2
AcDbArcAlignedText
  3
ATEXT|AutoCAD Express Tool|expresstools@autodesk.com
 90
        0
280
       0
281
       1
  0
ENDSEC
  0
SECTION
  2
TABLES
  0
TABLE
  2
VPORT
  5
7
100
AcDbSymbolTable
 70
       1
  0
VPORT
  5
15
100
AcDbSymbolTableRecord
100
AcDbViewportTableRecord
  2
*ACTIVE
 70
       0
 10
0.0
 20
0.0
 11
1.0
 21
1.0
 12
0.0
 22
-18.61718333
 13
0.0
 23
0.0
 14
1.0
 24
1.0
 15
0.0
 25
0.0
 16
0.0
 26
0.0
 36
1.0
 17
0.0
 27
0.0
 37
0.0
 40
113.26633068
 41
2.02448427
 42
50.0
 43
0.0
 44
0.0
 50
0.0
 51
0.0
 71
       0
 72
     100
 73
       1
 74
       1
 75
       0
 76
       0
 77
       0
 78
       0
  0
ENDTAB
  0
TABLE
  2
LTYPE
  5
4
100
AcDbSymbolTable
 70
      30
  0
LTYPE
  5
11
100
AcDbSymbolTableRecord
100
AcDbLinetypeTableRecord
  2
BYBLOCK
 70
      64
  3

 72
      65
 73
       0
 40
0.0
  0
LTYPE
  5
12
100
AcDbSymbolTableRecord
100
AcDbLinetypeTableRecord
  2
BYLAYER
 70
      64
  3

 72
      65
 73
       0
 40
0.0
  0
LTYPE
  5
13
100
AcDbSymbolTableRecord
100
AcDbLinetypeTableRecord
  2
CONTINUOUS
 70
      64
  3
Solid line
 72
      65
 73
       0
 40
0.0
  0
LTYPE
  5
1D
100
AcDbSymbolTableRecord
100
AcDbLinetypeTableRecord
  2
HIDDENX2
 70
      64
  3
CADPAC LINETYPE
 72
      65
 73
       2
 40
8.63269289
 49
6.47451967
 74
       0
 49
-2.15817322
 74
       0
  0
LTYPE
  5
1E
100
AcDbSymbolTableRecord
100
AcDbLinetypeTableRecord
  2
HIDDEN
 70
      64
  3
CADPAC LINETYPE
 72
      65
 73
       2
 40
6.47451967
 49
4.31634644
 74
       0
 49
-2.15817322
 74
       0
  0
LTYPE
  5
1F
100
AcDbSymbolTableRecord
100
AcDbLinetypeTableRecord
  2
HIDDEN2
 70
      64
  3
CADPAC LINETYPE
 72
      65
 73
       2
 40
5.39543305
 49
3.23725983
 74
       0
 49
-2.15817322
 74
       0
  0
LTYPE
  5
20
100
AcDbSymbolTableRecord
100
AcDbLinetypeTableRecord
  2
DASHED
 70
      64
  3
CADPAC LINETYPE
 72
      65
 73
       2
 40
6.47451967
 49
4.31634644
 74
       0
 49
-2.15817322
 74
       0
  0
LTYPE
  5
21
100
AcDbSymbolTableRecord
100
AcDbLinetypeTableRecord
  2
DASHED2
 70
      64
  3
CADPAC LINETYPE
 72
      65
 73
       2
 40
4.85588975
 49
3.23725983
 74
       0
 49
-1.61862992
 74
       0
  0
LTYPE
  5
22
100
AcDbSymbolTableRecord
100
AcDbLinetypeTableRecord
  2
DASHEDX2
 70
      64
  3
CADPAC LINETYPE
 72
      65
 73
       2
 40
9.7117795
 49
6.47451967
 74
       0
 49
-3.23725983
 74
       0
  0
LTYPE
  5
23
100
AcDbSymbolTableRecord
100
AcDbLinetypeTableRecord
  2
DOTX2
 70
      64
  3
CADPAC LINETYPE
 72
      65
 73
       2
 40
2.69771653
 49
0.0
 74
       0
 49
-2.69771653
 74
       0
  0
LTYPE
  5
24
100
AcDbSymbolTableRecord
100
AcDbLinetypeTableRecord
  2
DOT
 70
      64
  3
CADPAC LINETYPE
 72
      65
 73
       2
 40
2.15817322
 49
0.0
 74
       0
 49
-2.15817322
 74
       0
  0
LTYPE
  5
25
100
AcDbSymbolTableRecord
100
AcDbLinetypeTableRecord
  2
DOT2
 70
      64
  3
CADPAC LINETYPE
 72
      65
 73
       2
 40
1.61862992
 49
0.0
 74
       0
 49
-1.61862992
 74
       0
  0
LTYPE
  5
26
100
AcDbSymbolTableRecord
100
AcDbLinetypeTableRecord
  2
CENTERX2
 70
      64
  3
CADPAC LINETYPE
 72
      65
 73
       4
 40
12.94903933
 49
5.39543305
 74
       0
 49
-2.69771653
 74
       0
 49
2.15817322
 74
       0
 49
-2.69771653
 74
       0
  0
LTYPE
  5
27
100
AcDbSymbolTableRecord
100
AcDbLinetypeTableRecord
  2
CENTER
 70
      64
  3
CADPAC LINETYPE
 72
      65
 73
       4
 40
9.92759682
 49
4.31634644
 74
       0
 49
-2.15817322
 74
       0
 49
1.29490393
 74
       0
 49
-2.15817322
 74
       0
  0
LTYPE
  5
28
100
AcDbSymbolTableRecord
100
AcDbLinetypeTableRecord
  2
CENTER2
 70
      64
  3
CADPAC LINETYPE
 72
      65
 73
       4
 40
6.90615431
 49
3.23725983
 74
       0
 49
-1.61862992
 74
       0
 49
0.43163464
 74
       0
 49
-1.61862992
 74
       0
  0
LTYPE
  5
29
100
AcDbSymbolTableRecord
100
AcDbLinetypeTableRecord
  2
DASHDOTX2
 70
      64
  3
CADPAC LINETYPE
 72
      65
 73
       4
 40
10.79086611
 49
5.39543305
 74
       0
 49
-2.69771653
 74
       0
 49
0.0
 74
       0
 49
-2.69771653
 74
       0
  0
LTYPE
  5
2A
100
AcDbSymbolTableRecord
100
AcDbLinetypeTableRecord
  2
DASHDOT
 70
      64
  3
CADPAC LINETYPE
 72
      65
 73
       4
 40
8.63269289
 49
4.31634644
 74
       0
 49
-2.15817322
 74
       0
 49
0.0
 74
       0
 49
-2.15817322
 74
       0
  0
LTYPE
  5
2B
100
AcDbSymbolTableRecord
100
AcDbLinetypeTableRecord
  2
DASHDOT2
 70
      64
  3
CADPAC LINETYPE
 72
      65
 73
       4
 40
6.47451967
 49
3.23725983
 74
       0
 49
-1.61862992
 74
       0
 49
0.0
 74
       0
 49
-1.61862992
 74
       0
  0
LTYPE
  5
2C
100
AcDbSymbolTableRecord
100
AcDbLinetypeTableRecord
  2
DIVIDEX2
 70
      64
  3
CADPAC LINETYPE
 72
      65
 73
       6
 40
13.48858264
 49
5.39543305
 74
       0
 49
-2.69771653
 74
       0
 49
0.0
 74
       0
 49
-2.69771653
 74
       0
 49
0.0
 74
       0
 49
-2.69771653
 74
       0
  0
LTYPE
  5
2D
100
AcDbSymbolTableRecord
100
AcDbLinetypeTableRecord
  2
DIVIDE
 70
      64
  3
CADPAC LINETYPE
 72
      65
 73
       6
 40
10.79086611
 49
4.31634644
 74
       0
 49
-2.15817322
 74
       0
 49
0.0
 74
       0
 49
-2.15817322
 74
       0
 49
0.0
 74
       0
 49
-2.15817322
 74
       0
  0
LTYPE
  5
2E
100
AcDbSymbolTableRecord
100
AcDbLinetypeTableRecord
  2
DIVIDE2
 70
      64
  3
CADPAC LINETYPE
 72
      65
 73
       6
 40
8.09314958
 49
3.23725983
 74
       0
 49
-1.61862992
 74
       0
 49
0.0
 74
       0
 49
-1.61862992
 74
       0
 49
0.0
 74
       0
 49
-1.61862992
 74
       0
  0
LTYPE
  5
2F
100
AcDbSymbolTableRecord
100
AcDbLinetypeTableRecord
  2
BORDERX2
 70
      64
  3
CADPAC LINETYPE
 72
      65
 73
       6
 40
18.88401569
 49
5.39543305
 74
       0
 49
-2.69771653
 74
       0
 49
5.39543305
 74
       0
 49
-2.69771653
 74
       0
 49
0.0
 74
       0
 49
-2.69771653
 74
       0
  0
LTYPE
  5
30
100
AcDbSymbolTableRecord
100
AcDbLinetypeTableRecord
  2
BORDER
 70
      64
  3
CADPAC LINETYPE
 72
      65
 73
       6
 40
15.10721255
 49
4.31634644
 74
       0
 49
-2.15817322
 74
       0
 49
4.31634644
 74
       0
 49
-2.15817322
 74
       0
 49
0.0
 74
       0
 49
-2.15817322
 74
       0
  0
LTYPE
  5
31
100
AcDbSymbolTableRecord
100
AcDbLinetypeTableRecord
  2
BORDER2
 70
      64
  3
CADPAC LINETYPE
 72
      65
 73
       6
 40
11.33040942
 49
3.23725983
 74
       0
 49
-1.61862992
 74
       0
 49
3.23725983
 74
       0
 49
-1.61862992
 74
       0
 49
0.0
 74
       0
 49
-1.61862992
 74
       0
  0
LTYPE
  5
32
100
AcDbSymbolTableRecord
100
AcDbLinetypeTableRecord
  2
PHANTOMX2
 70
      64
  3
CADPAC LINETYPE
 72
      65
 73
       6
 40
16.18629916
 49
5.39543305
 74
       0
 49
-2.15817322
 74
       0
 49
2.15817322
 74
       0
 49
-2.15817322
 74
       0
 49
2.15817322
 74
       0
 49
-2.15817322
 74
       0
  0
LTYPE
  5
33
100
AcDbSymbolTableRecord
100
AcDbLinetypeTableRecord
  2
PHANTOM
 70
      64
  3
CADPAC LINETYPE
 72
      65
 73
       6
 40
13.38067398
 49
4.31634644
 74
       0
 49
-2.15817322
 74
       0
 49
1.29490393
 74
       0
 49
-2.15817322
 74
       0
 49
1.29490393
 74
       0
 49
-2.15817322
 74
       0
  0
LTYPE
  5
34
100
AcDbSymbolTableRecord
100
AcDbLinetypeTableRecord
  2
PHANTOM2
 70
      64
  3
CADPAC LINETYPE
 72
      65
 73
       6
 40
11.43831808
 49
3.23725983
 74
       0
 49
-2.15817322
 74
       0
 49
0.86326929
 74
       0
 49
-2.15817322
 74
       0
 49
0.86326929
 74
       0
 49
-2.15817322
 74
       0
  0
LTYPE
  5
35
100
AcDbSymbolTableRecord
100
AcDbLinetypeTableRecord
  2
ACAD_ISO06W100
 70
      64
  3
CADPAC LINETYPE
 72
      65
 73
       8
 40
14.56766925
 49
5.39543305
 74
       0
 49
-2.69771653
 74
       0
 49
0.0
 74
       0
 49
-2.15817322
 74
       0
 49
0.0
 74
       0
 49
-2.15817322
 74
       0
 49
0.0
 74
       0
 49
-2.15817322
 74
       0
  0
LTYPE
  5
36
100
AcDbSymbolTableRecord
100
AcDbLinetypeTableRecord
  2
ACAD_ISO13W100
 70
      64
  3
CADPAC LINETYPE
 72
      65
 73
       8
 40
17.26538578
 49
4.31634644
 74
       0
 49
-2.15817322
 74
       0
 49
4.31634644
 74
       0
 49
-2.15817322
 74
       0
 49
0.0
 74
       0
 49
-2.15817322
 74
       0
 49
0.0
 74
       0
 49
-2.15817322
 74
       0
  0
LTYPE
  5
37
100
AcDbSymbolTableRecord
100
AcDbLinetypeTableRecord
  2
ACAD_ISO14W100
 70
      64
  3
CADPAC LINETYPE
 72
      65
 73
       8
 40
12.94903933
 49
4.31634644
 74
       0
 49
-2.15817322
 74
       0
 49
0.0
 74
       0
 49
-2.15817322
 74
       0
 49
0.0
 74
       0
 49
-2.15817322
 74
       0
 49
0.0
 74
       0
 49
-2.15817322
 74
       0
  0
ENDTAB
  0
TABLE
  2
LAYER
  5
2
100
AcDbSymbolTable
 70
       2
  0
LAYER
  5
14
100
AcDbSymbolTableRecord
100
AcDbLayerTableRecord
  2
0
 70
       0
 62
       7
  6
CONTINUOUS
  0
LAYER
  5
38
100
AcDbSymbolTableRecord
100
AcDbLayerTableRecord
  2
SLD-0
 70
       0
 62
       7
  6
CONTINUOUS
  0
ENDTAB
  0
TABLE
  2
STYLE
  5
3
100
AcDbSymbolTable
 70
       1
  0
STYLE
  5
17
100
AcDbSymbolTableRecord
100
AcDbTextStyleTableRecord
  2
STANDARD
 70
       0
 40
0.0
 41
0.8
 50
0.0
 71
       0
 42
4.53779063
  3
txt.shx
  4
bigfont.shx
  0
ENDTAB
  0
TABLE
  2
VIEW
  5
5
100
AcDbSymbolTable
 70
       1
  0
VIEW
  5
39
100
AcDbSymbolTableRecord
100
AcDbViewTableRecord
  2
QQQQ
 70
       0
 40
113.26633068
 10
0.0
 20
-18.61718333
 41
229.30590484
 11
0.0
 21
0.0
 31
1.0
 12
100.0
 22
100.0
 32
0.0
 42
50.0
 43
0.0
 44
0.0
 50
0.0
 71
       0
  0
ENDTAB
  0
TABLE
  2
UCS
  5
6
100
AcDbSymbolTable
 70
       0
  0
ENDTAB
  0
TABLE
  2
APPID
  5
8
100
AcDbSymbolTable
 70
       1
  0
APPID
  5
16
100
AcDbSymbolTableRecord
100
AcDbRegAppTableRecord
  2
ACAD
 70
       0
  0
ENDTAB
  0
TABLE
  2
DIMSTYLE
  5
9
100
AcDbSymbolTable
 70
       1
  0
DIMSTYLE
105
18
100
AcDbSymbolTableRecord
100
AcDbDimStyleTableRecord
  2
STANDARD
 70
       0
  3

  4

  5

  6

  7

 40
1.0
 41
0.18
 42
0.0625
 43
0.38
 44
0.18
 45
0.0
 46
0.0
 47
0.0
 48
0.0
 71
       0
 72
       0
 73
       1
 74
       1
 75
       0
 76
       0
 77
       0
 78
       0
140
0.18
141
0.09
142
0.0
143
25.4
144
1.0
145
0.0
146
1.0
147
0.09
170
       0
171
       2
172
       0
173
       0
174
       0
175
       0
176
       0
177
       0
178
       0
270
       2
271
       4
272
       4
273
       2
274
       2
275
       0
280
       0
281
       0
282
       0
283
       1
284
       0
285
       0
286
       0
287
       0
288
       0
340
17
  0
ENDTAB
  0
TABLE
  2
BLOCK_RECORD
  5
1
100
AcDbSymbolTable
 70
       9
  0
BLOCK_RECORD
  5
A
100
AcDbSymbolTableRecord
100
AcDbBlockTableRecord
  2
*MODEL_SPACE
  0
BLOCK_RECORD
  5
B
100
AcDbSymbolTableRecord
100
AcDbBlockTableRecord
  2
*PAPER_SPACE
  0
BLOCK_RECORD
  5
3A
100
AcDbSymbolTableRecord
100
AcDbBlockTableRecord
  2
GROUP_1
  0
BLOCK_RECORD
  5
3B
100
AcDbSymbolTableRecord
100
AcDbBlockTableRecord
  2
GROUP_2
  0
BLOCK_RECORD
  5
3C
100
AcDbSymbolTableRecord
100
AcDbBlockTableRecord
  2
GROUP_3
  0
BLOCK_RECORD
  5
3D
100
AcDbSymbolTableRecord
100
AcDbBlockTableRecord
  2
GROUP_4
  0
BLOCK_RECORD
  5
3E
100
AcDbSymbolTableRecord
100
AcDbBlockTableRecord
  2
GROUP_5
  0
BLOCK_RECORD
  5
3F
100
AcDbSymbolTableRecord
100
AcDbBlockTableRecord
  2
GROUP_6
  0
BLOCK_RECORD
  5
40
100
AcDbSymbolTableRecord
100
AcDbBlockTableRecord
  2
GROUP_7
  0
BLOCK_RECORD
  5
41
100
AcDbSymbolTableRecord
100
AcDbBlockTableRecord
  2
GROUP_8
  0
BLOCK_RECORD
  5
42
100
AcDbSymbolTableRecord
100
AcDbBlockTableRecord
  2
GROUP_9
  0
ENDTAB
  0
ENDSEC
  0
SECTION
  2
BLOCKS
  0
BLOCK
  5
D
100
AcDbEntity
  8
0
100
AcDbBlockBegin
  2
*MODEL_SPACE
 70
       0
 10
0.0
 20
0.0
 30
0.0
  3
*MODEL_SPACE
  1

  0
ENDBLK
  5
E
100
AcDbEntity
  8
0
100
AcDbBlockEnd
  0
BLOCK
  5
F
100
AcDbEntity
 67
       1
  8
0
100
AcDbBlockBegin
  2
*PAPER_SPACE
 70
       0
 10
0.0
 20
0.0
 30
0.0
  3
*PAPER_SPACE
  1

  0
ENDBLK
  5
10
100
AcDbEntity
 67
       1
  8
0
100
AcDbBlockEnd
  0
BLOCK
  5
43
100
AcDbEntity
  8
0
100
AcDbBlockBegin
  2
GROUP_1
 70
       0
 10
0.0
 20
0.0
 30
0.0
  3
GROUP_1
  1

  0
LINE
  5
44
100
AcDbEntity
  8
SLD-0
  6
CONTINUOUS
 62
       3
100
AcDbLine
 10
9.37836988
 20
2.40387035
 30
0.0
 11
9.45574329
 21
2.41781244
 31
0.0
  0
LINE
  5
45
100
AcDbEntity
  8
SLD-0
  6
CONTINUOUS
 62
       3
100
AcDbLine
 10
9.45574329
 20
2.41781244
 30
0.0
 11
9.53302716
 21
2.43210877
 31
0.0
  0
LINE
  5
46
100
AcDbEntity
  8
SLD-0
  6
CONTINUOUS
 62
       3
100
AcDbLine
 10
9.53302716
 20
2.43210877
 30
0.0
 11
9.61021973
 21
2.44676638
 31
0.0
  0
LINE
  5
47
100
AcDbEntity
  8
SLD-0
  6
CONTINUOUS
 62
       3
100
AcDbLine
 10
9.61021973
 20
2.44676638
 30
0.0
 11
9.68731922
 21
2.46179229
 31
0.0
  0
LINE
  5
48
100
AcDbEntity
  8
SLD-0
  6
CONTINUOUS
 62
       3
100
AcDbLine
 10
9.68731922
 20
2.46179229
 30
0.0
 11
9.76432388
 21
2.47719353
 31
0.0
  0
LINE
  5
49
100
AcDbEntity
  8
SLD-0
  6
CONTINUOUS
 62
       3
100
AcDbLine
 10
9.76432388
 20
2.47719353
 30
0.0
 11
9.84123194
 21
2.49297712
 31
0.0
  0
LINE
  5
4A
100
AcDbEntity
  8
SLD-0
  6
CONTINUOUS
 62
       3
100
AcDbLine
 10
9.84123194
 20
2.49297712
 30
0.0
 11
9.91804163
 21
2.5091501
 31
0.0
  0
LINE
  5
4B
100
AcDbEntity
  8
SLD-0
  6
CONTINUOUS
 62
       3
100
AcDbLine
 10
9.91804163
 20
2.5091501
 30
0.0
 11
9.99475119
 21
2.52571948
 31
0.0
  0
LINE
  5
4C
100
AcDbEntity
  8
SLD-0
  6
CONTINUOUS
 62
       3
100
AcDbLine
 10
9.99475119
 20
2.52571948
 30
0.0
 11
10.07135885
 21
2.5426923
 31
0.0
  0
LINE
  5
4D
100
AcDbEntity
  8
SLD-0
  6
CONTINUOUS
 62
       3
100
AcDbLine
 10
10.07135885
 20
2.5426923
 30
0.0
 11
10.14786286
 21
2.56007559
 31
0.0
  0
LINE
  5
4E
100
AcDbEntity
  8
SLD-0
  6
CONTINUOUS
 62
       3
100
AcDbLine
 10
10.14786286
 20
2.56007559
 30
0.0
 11
10.22426144
 21
2.57787636
 31
0.0
  0
LINE
  5
4F
100
AcDbEntity
  8
SLD-0
  6
CONTINUOUS
 62
       3
100
AcDbLine
 10
10.22426144
 20
2.57787636
 30
0.0
 11
10.30055283
 21
2.59610164
 31
0.0
  0
LINE
  5
50
100
AcDbEntity
  8
SLD-0
  6
CONTINUOUS
 62
       3
100
AcDbLine
 10
10.30055283
 20
2.59610164
 30
0.0
 11
10.37673527
 21
2.61475847
 31
0.0
  0
LINE
  5
51
100
AcDbEntity
  8
SLD-0
  6
CONTINUOUS
 62
       3
100
AcDbLine
 10
10.37673527
 20
2.61475847
 30
0.0
 11
10.45280699
 21
2.63385387
 31
0.0
  0
LINE
  5
52
100
AcDbEntity
  8
SLD-0
  6
CONTINUOUS
 62
       3
100
AcDbLine
 10
10.45280699
 20
2.63385387
 30
0.0
 11
10.52876623
 21
2.65339486
 31
0.0
  0
LINE
  5
53
100
AcDbEntity
  8
SLD-0
  6
CONTINUOUS
 62
       3
100
AcDbLine
 10
10.52876623
 20
2.65339486
 30
0.0
 11
10.60463298
 21
2.67339397
 31
0.0
  0
LINE
  5
54
100
AcDbEntity
  8
SLD-0
  6
CONTINUOUS
 62
       3
100
AcDbLine
 10
10.60463298
 20
2.67339397
 30
0.0
 11
10.6804174
 21
2.69386663
 31
0.0
  0
LINE
  5
55
100
AcDbEntity
  8
SLD-0
  6
CONTINUOUS
 62
       3
100
AcDbLine
 10
10.6804174
 20
2.69386663
 30
0.0
 11
10.75610295
 21
2.7148242
 31
0.0
  0
LINE
  5
56
100
AcDbEntity
  8
SLD-0
  6
CONTINUOUS
 62
       3
100
AcDbLine
 10
10.75610295
 20
2.7148242
 30
0.0
 11
10.8316731
 21
2.73627809
 31
0.0
  0
LINE
  5
57
100
AcDbEntity
  8
SLD-0
  6
CONTINUOUS
 62
       3
100
AcDbLine
 10
10.8316731
 20
2.73627809
 30
0.0
 11
10.90711133
 21
2.75823965
 31
0.0
  0
LINE
  5
58
100
AcDbEntity
  8
SLD-0
  6
CONTINUOUS
 62
       3
100
AcDbLine
 10
10.90711133
 20
2.75823965
 30
0.0
 11
10.9824011
 21
2.78072028
 31
0.0
  0
LINE
  5
59
100
AcDbEntity
  8
SLD-0
  6
CONTINUOUS
 62
       3
100
AcDbLine
 10
10.9824011
 20
2.78072028
 30
0.0
 11
11.05752587
 21
2.80373135
 31
0.0
  0
LINE
  5
5A
100
AcDbEntity
  8
SLD-0
  6
CONTINUOUS
 62
       3
100
AcDbLine
 10
11.05752587
 20
2.80373135
 30
0.0
 11
11.13246911
 21
2.82728424
 31
0.0
  0
LINE
  5
5B
100
AcDbEntity
  8
SLD-0
  6
CONTINUOUS
 62
       3
100
AcDbLine
 10
11.13246911
 20
2.82728424
 30
0.0
 11
11.2072143
 21
2.85139033
 31
0.0
  0
LINE
  5
5C
100
AcDbEntity
  8
SLD-0
  6
CONTINUOUS
 62
       3
100
AcDbLine
 10
11.2072143
 20
2.85139033
 30
0.0
 11
11.2817449
 21
2.87606101
 31
0.0
  0
LINE
  5
5D
100
AcDbEntity
  8
SLD-0
  6
CONTINUOUS
 62
       3
100
AcDbLine
 10
11.2817449
 20
2.87606101
 30
0.0
 11
11.35604438
 21
2.90130764
 31
0.0
  0
LINE
  5
5E
100
AcDbEntity
  8
SLD-0
  6
CONTINUOUS
 62
       3
100
AcDbLine
 10
11.35604438
 20
2.90130764
 30
0.0
 11
11.4300962
 21
2.92714162
 31
0.0
  0
LINE
  5
5F
100
AcDbEntity
  8
SLD-0
  6
CONTINUOUS
 62
       3
100
AcDbLine
 10
11.4300962
 20
2.92714162
 30
0.0
 11
11.50388384
 21
2.95357432
 31
0.0
  0
LINE
  5
60
100
AcDbEntity
  8
SLD-0
  6
CONTINUOUS
 62
       3
100
AcDbLine
 10
11.50388384
 20
2.95357432
 30
0.0
 11
11.57739076
 21
2.98061711
 31
0.0
  0
LINE
  5
61
100
AcDbEntity
  8
SLD-0
  6
CONTINUOUS
 62
       3
100
AcDbLine
 10
11.57739076
 20
2.98061711
 30
0.0
 11
11.65060043
 21
3.00828139
 31
0.0
  0
LINE
  5
62
100
AcDbEntity
  8
SLD-0
  6
CONTINUOUS
 62
       3
100
AcDbLine
 10
11.65060043
 20
3.00828139
 30
0.0
 11
11.72350502
 21
3.03656124
 31
0.0
  0
LINE
  5
63
100
AcDbEntity
  8
SLD-0
  6
CONTINUOUS
 62
       3
100
AcDbLine
 10
11.72350502
 20
3.03656124
 30
0.0
 11
11.79609463
 21
3.06546939
 31
0.0
  0
LINE
  5
64
100
AcDbEntity
  8
SLD-0
  6
CONTINUOUS
 62
       3
100
AcDbLine
 10
11.79609463
 20
3.06546939
 30
0.0
 11
11.86834958
 21
3.09504519
 31
0.0
  0
LINE
  5
65
100
AcDbEntity
  8
SLD-0
  6
CONTINUOUS
 62
       3
100
AcDbLine
 10
11.86834958
 20
3.09504519
 30
0.0
 11
11.94025018
 21
3.12532796
 31
0.0
  0
LINE
  5
66
100
AcDbEntity
  8
SLD-0
  6
CONTINUOUS
 62
       3
100
AcDbLine
 10
11.94025018
 20
3.12532796
 30
0.0
 11
12.01177679
 21
3.15635705
 31
0.0
  0
LINE
  5
67
100
AcDbEntity
  8
SLD-0
  6
CONTINUOUS
 62
       3
100
AcDbLine
 10
12.01177679
 20
3.15635705
 30
0.0
 11
12.08290971
 21
3.18817177
 31
0.0
  0
LINE
  5
68
100
AcDbEntity
  8
SLD-0
  6
CONTINUOUS
 62
       3
100
AcDbLine
 10
12.08290971
 20
3.18817177
 30
0.0
 11
12.15362927
 21
3.22081148
 31
0.0
  0
LINE
  5
69
100
AcDbEntity
  8
SLD-0
  6
CONTINUOUS
 62
       3
100
AcDbLine
 10
12.15362927
 20
3.22081148
 30
0.0
 11
12.22391581
 21
3.2543155
 31
0.0
  0
LINE
  5
6A
100
AcDbEntity
  8
SLD-0
  6
CONTINUOUS
 62
       3
100
AcDbLine
 10
12.22391581
 20
3.2543155
 30
0.0
 11
12.29374966
 21
3.28872316
 31
0.0
  0
LINE
  5
6B
100
AcDbEntity
  8
SLD-0
  6
CONTINUOUS
 62
       3
100
AcDbLine
 10
12.29374966
 20
3.28872316
 30
0.0
 11
12.36311113
 21
3.3240738
 31
0.0
  0
LINE
  5
6C
100
AcDbEntity
  8
SLD-0
  6
CONTINUOUS
 62
       3
100
AcDbLine
 10
12.36311113
 20
3.3240738
 30
0.0
 11
12.43198056
 21
3.36040676
 31
0.0
  0
LINE
  5
6D
100
AcDbEntity
  8
SLD-0
  6
CONTINUOUS
 62
       3
100
AcDbLine
 10
12.43198056
 20
3.36040676
 30
0.0
 11
12.50033827
 21
3.39776137
 31
0.0
  0
LINE
  5
6E
100
AcDbEntity
  8
SLD-0
  6
CONTINUOUS
 62
       3
100
AcDbLine
 10
12.50033827
 20
3.39776137
 30
0.0
 11
12.56816459
 21
3.43617696
 31
0.0
  0
LINE
  5
6F
100
AcDbEntity
  8
SLD-0
  6
CONTINUOUS
 62
       3
100
AcDbLine
 10
12.56816459
 20
3.43617696
 30
0.0
 11
12.63543986
 21
3.47569287
 31
0.0
  0
LINE
  5
70
100
AcDbEntity
  8
SLD-0
  6
CONTINUOUS
 62
       3
100
AcDbLine
 10
12.63543986
 20
3.47569287
 30
0.0
 11
12.70214439
 21
3.51634843
 31
0.0
  0
LINE
  5
71
100
AcDbEntity
  8
SLD-0
  6
CONTINUOUS
 62
       3
100
AcDbLine
 10
12.70214439
 20
3.51634843
 30
0.0
 11
12.76833022
 21
3.55828314
 31
0.0
  0
LINE
  5
72
100
AcDbEntity
  8
SLD-0
  6
CONTINUOUS
 62
       3
100
AcDbLine
 10
12.76833022
 20
3.55828314
 30
0.0
 11
12.83394708
 21
3.60162902
 31
0.0
  0
LINE
  5
73
100
AcDbEntity
  8
SLD-0
  6
CONTINUOUS
 62
       3
100
AcDbLine
 10
12.83394708
 20
3.60162902
 30
0.0
 11
12.89882177
 21
3.64641424
 31
0.0
  0
LINE
  5
74
100
AcDbEntity
  8
SLD-0
  6
CONTINUOUS
 62
       3
100
AcDbLine
 10
12.89882177
 20
3.64641424
 30
0.0
 11
12.96278111
 21
3.69266693
 31
0.0
  0
LINE
  5
75
100
AcDbEntity
  8
SLD-0
  6
CONTINUOUS
 62
       3
100
AcDbLine
 10
12.96278111
 20
3.69266693
 30
0.0
 11
13.02565192
 21
3.74041524
 31
0.0
  0
LINE
  5
76
100
AcDbEntity
  8
SLD-0
  6
CONTINUOUS
 62
       3
100
AcDbLine
 10
13.02565192
 20
3.74041524
 30
0.0
 11
13.08726101
 21
3.78968733
 31
0.0
  0
LINE
  5
77
100
AcDbEntity
  8
SLD-0
  6
CONTINUOUS
 62
       3
100
AcDbLine
 10
13.08726101
 20
3.78968733
 30
0.0
 11
13.14743521
 21
3.84051132
 31
0.0
  0
LINE
  5
78
100
AcDbEntity
  8
SLD-0
  6
CONTINUOUS
 62
       3
100
AcDbLine
 10
13.14743521
 20
3.84051132
 30
0.0
 11
13.20601262
 21
3.89290258
 31
0.0
  0
LINE
  5
79
100
AcDbEntity
  8
SLD-0
  6
CONTINUOUS
 62
       3
100
AcDbLine
 10
13.20601262
 20
3.89290258
 30
0.0
 11
13.26287347
 21
3.94687456
 31
0.0
  0
LINE
  5
7A
100
AcDbEntity
  8
SLD-0
  6
CONTINUOUS
 62
       3
100
AcDbLine
 10
13.26287347
 20
3.94687456
 30
0.0
 11
13.31781925
 21
4.00260136
 31
0.0
  0
LINE
  5
7B
100
AcDbEntity
  8
SLD-0
  6
CONTINUOUS
 62
       3
100
AcDbLine
 10
13.31781925
 20
4.00260136
 30
0.0
 11
13.37063853
 21
4.0602768
 31
0.0
  0
LINE
  5
7C
100
AcDbEntity
  8
SLD-0
  6
CONTINUOUS
 62
       3
100
AcDbLine
 10
13.37063853
 20
4.0602768
 30
0.0
 11
13.42111991
 21
4.12009471
 31
0.0
  0
LINE
  5
7D
100
AcDbEntity
  8
SLD-0
  6
CONTINUOUS
 62
       3
100
AcDbLine
 10
13.42111991
 20
4.12009471
 30
0.0
 11
13.46905198
 21
4.18224888
 31
0.0
  0
LINE
  5
7E
100
AcDbEntity
  8
SLD-0
  6
CONTINUOUS
 62
       3
100
AcDbLine
 10
13.46905198
 20
4.18224888
 30
0.0
 11
13.51422332
 21
4.24693315
 31
0.0
  0
LINE
  5
7F
100
AcDbEntity
  8
SLD-0
  6
CONTINUOUS
 62
       3
100
AcDbLine
 10
13.51422332
 20
4.24693315
 30
0.0
 11
13.55642251
 21
4.31434132
 31
0.0
  0
ENDBLK
  5
80
100
AcDbEntity
  8
0
100
AcDbBlockEnd
  0
BLOCK
  5
81
100
AcDbEntity
  8
0
100
AcDbBlockBegin
  2
GROUP_2
 70
       0
 10
0.0
 20
0.0
 30
0.0
  3
GROUP_2
  1

  0
LINE
  5
82
100
AcDbEntity
  8
SLD-0
  6
CONTINUOUS
 62
       3
100
AcDbLine
 10
52.10202295
 20
2.40387041
 30
0.0
 11
52.04249438
 21
2.81073139
 31
0.0
  0
LINE
  5
83
100
AcDbEntity
  8
SLD-0
  6
CONTINUOUS
 62
       3
100
AcDbLine
 10
52.04249438
 20
2.81073139
 30
0.0
 11
51.98537178
 21
3.21784983
 31
0.0
  0
LINE
  5
84
100
AcDbEntity
  8
SLD-0
  6
CONTINUOUS
 62
       3
100
AcDbLine
 10
51.98537178
 20
3.21784983
 30
0.0
 11
51.93062893
 21
3.62521766
 31
0.0
  0
LINE
  5
85
100
AcDbEntity
  8
SLD-0
  6
CONTINUOUS
 62
       3
100
AcDbLine
 10
51.93062893
 20
3.62521766
 30
0.0
 11
51.87823962
 21
4.0328268
 31
0.0
  0
LINE
  5
86
100
AcDbEntity
  8
SLD-0
  6
CONTINUOUS
 62
       3
100
AcDbLine
 10
51.87823962
 20
4.0328268
 30
0.0
 11
51.82817766
 21
4.44066916
 31
0.0
  0
LINE
  5
87
100
AcDbEntity
  8
SLD-0
  6
CONTINUOUS
 62
       3
100
AcDbLine
 10
51.82817766
 20
4.44066916
 30
0.0
 11
51.78041682
 21
4.84873665
 31
0.0
  0
LINE
  5
88
100
AcDbEntity
  8
SLD-0
  6
CONTINUOUS
 62
       3
100
AcDbLine
 10
51.78041682
 20
4.84873665
 30
0.0
 11
51.73493089
 21
5.25702121
 31
0.0
  0
LINE
  5
89
100
AcDbEntity
  8
SLD-0
  6
CONTINUOUS
 62
       3
100
AcDbLine
 10
51.73493089
 20
5.25702121
 30
0.0
 11
51.69169368
 21
5.66551474
 31
0.0
  0
LINE
  5
8A
100
AcDbEntity
  8
SLD-0
  6
CONTINUOUS
 62
       3
100
AcDbLine
 10
51.69169368
 20
5.66551474
 30
0.0
 11
51.65067897
 21
6.07420916
 31
0.0
  0
LINE
  5
8B
100
AcDbEntity
  8
SLD-0
  6
CONTINUOUS
 62
       3
100
AcDbLine
 10
51.65067897
 20
6.07420916
 30
0.0
 11
51.61186055
 21
6.48309639
 31
0.0
  0
LINE
  5
8C
100
AcDbEntity
  8
SLD-0
  6
CONTINUOUS
 62
       3
100
AcDbLine
 10
51.61186055
 20
6.48309639
 30
0.0
 11
51.57521221
 21
6.89216836
 31
0.0
  0
LINE
  5
8D
100
AcDbEntity
  8
SLD-0
  6
CONTINUOUS
 62
       3
100
AcDbLine
 10
51.57521221
 20
6.89216836
 30
0.0
 11
51.54070775
 21
7.30141697
 31
0.0
  0
LINE
  5
8E
100
AcDbEntity
  8
SLD-0
  6
CONTINUOUS
 62
       3
100
AcDbLine
 10
51.54070775
 20
7.30141697
 30
0.0
 11
51.50832095
 21
7.71083415
 31
0.0
  0
LINE
  5
8F
100
AcDbEntity
  8
SLD-0
  6
CONTINUOUS
 62
       3
100
AcDbLine
 10
51.50832095
 20
7.71083415
 30
0.0
 11
51.4780256
 21
8.12041181
 31
0.0
  0
LINE
  5
90
100
AcDbEntity
  8
SLD-0
  6
CONTINUOUS
 62
       3
100
AcDbLine
 10
51.4780256
 20
8.12041181
 30
0.0
 11
51.44979551
 21
8.53014188
 31
0.0
  0
LINE
  5
91
100
AcDbEntity
  8
SLD-0
  6
CONTINUOUS
 62
       3
100
AcDbLine
 10
51.44979551
 20
8.53014188
 30
0.0
 11
51.42360445
 21
8.94001626
 31
0.0
  0
LINE
  5
92
100
AcDbEntity
  8
SLD-0
  6
CONTINUOUS
 62
       3
100
AcDbLine
 10
51.42360445
 20
8.94001626
 30
0.0
 11
51.39942622
 21
9.35002688
 31
0.0
  0
LINE
  5
93
100
AcDbEntity
  8
SLD-0
  6
CONTINUOUS
 62
       3
100
AcDbLine
 10
51.39942622
 20
9.35002688
 30
0.0
 11
51.37723461
 21
9.76016566
 31
0.0
  0
LINE
  5
94
100
AcDbEntity
  8
SLD-0
  6
CONTINUOUS
 62
       3
100
AcDbLine
 10
51.37723461
 20
9.76016566
 30
0.0
 11
51.35702615
 21
10.17041506
 31
0.0
  0
LINE
  5
95
100
AcDbEntity
  8
SLD-0
  6
CONTINUOUS
 62
       3
100
AcDbLine
 10
51.35702615
 20
10.17041506
 30
0.0
 11
51.33882546
 21
10.58075424
 31
0.0
  0
LINE
  5
96
100
AcDbEntity
  8
SLD-0
  6
CONTINUOUS
 62
       3
100
AcDbLine
 10
51.33882546
 20
10.58075424
 30
0.0
 11
51.32263912
 21
10.99117511
 31
0.0
  0
LINE
  5
97
100
AcDbEntity
  8
SLD-0
  6
CONTINUOUS
 62
       3
100
AcDbLine
 10
51.32263912
 20
10.99117511
 30
0.0
 11
51.30847358
 21
11.40166968
 31
0.0
  0
LINE
  5
98
100
AcDbEntity
  8
SLD-0
  6
CONTINUOUS
 62
       3
100
AcDbLine
 10
51.30847358
 20
11.40166968
 30
0.0
 11
51.29633526
 21
11.81222991
 31
0.0
  0
LINE
  5
99
100
AcDbEntity
  8
SLD-0
  6
CONTINUOUS
 62
       3
100
AcDbLine
 10
51.29633526
 20
11.81222991
 30
0.0
 11
51.28623061
 21
12.22284779
 31
0.0
  0
LINE
  5
9A
100
AcDbEntity
  8
SLD-0
  6
CONTINUOUS
 62
       3
100
AcDbLine
 10
51.28623061
 20
12.22284779
 30
0.0
 11
51.27816607
 21
12.63351532
 31
0.0
  0
LINE
  5
9B
100
AcDbEntity
  8
SLD-0
  6
CONTINUOUS
 62
       3
100
AcDbLine
 10
51.27816607
 20
12.63351532
 30
0.0
 11
51.27214807
 21
13.04422448
 31
0.0
  0
LINE
  5
9C
100
AcDbEntity
  8
SLD-0
  6
CONTINUOUS
 62
       3
100
AcDbLine
 10
51.27214807
 20
13.04422448
 30
0.0
 11
51.26818305
 21
13.45496726
 31
0.0
  0
LINE
  5
9D
100
AcDbEntity
  8
SLD-0
  6
CONTINUOUS
 62
       3
100
AcDbLine
 10
51.26818305
 20
13.45496726
 30
0.0
 11
51.26627746
 21
13.86573563
 31
0.0
  0
LINE
  5
9E
100
AcDbEntity
  8
SLD-0
  6
CONTINUOUS
 62
       3
100
AcDbLine
 10
51.26627746
 20
13.86573563
 30
0.0
 11
51.26643773
 21
14.2765216
 31
0.0
  0
LINE
  5
9F
100
AcDbEntity
  8
SLD-0
  6
CONTINUOUS
 62
       3
100
AcDbLine
 10
51.26643773
 20
14.2765216
 30
0.0
 11
51.26867029
 21
14.68731714
 31
0.0
  0
ENDBLK
  5
A0
100
AcDbEntity
  8
0
100
AcDbBlockEnd
  0
BLOCK
  5
A1
100
AcDbEntity
  8
0
100
AcDbBlockBegin
  2
GROUP_3
 70
       0
 10
0.0
 20
0.0
 30
0.0
  3
GROUP_3
  1

  0
LINE
  5
A2
100
AcDbEntity
  8
SLD-0
  6
CONTINUOUS
 62
       3
100
AcDbLine
 10
9.37836988
 20
2.40387035
 30
0.0
 11
9.2326797
 21
2.37868821
 31
0.0
  0
LINE
  5
A3
100
AcDbEntity
  8
SLD-0
  6
CONTINUOUS
 62
       3
100
AcDbLine
 10
9.2326797
 20
2.37868821
 30
0.0
 11
9.08686025
 21
2.35490721
 31
0.0
  0
LINE
  5
A4
100
AcDbEntity
  8
SLD-0
  6
CONTINUOUS
 62
       3
100
AcDbLine
 10
9.08686025
 20
2.35490721
 30
0.0
 11
8.94091462
 21
2.33248555
 31
0.0
  0
LINE
  5
A5
100
AcDbEntity
  8
SLD-0
  6
CONTINUOUS
 62
       3
100
AcDbLine
 10
8.94091462
 20
2.33248555
 30
0.0
 11
8.79484593
 21
2.31138143
 31
0.0
  0
LINE
  5
A6
100
AcDbEntity
  8
SLD-0
  6
CONTINUOUS
 62
       3
100
AcDbLine
 10
8.79484593
 20
2.31138143
 30
0.0
 11
8.64865729
 21
2.29155306
 31
0.0
  0
LINE
  5
A7
100
AcDbEntity
  8
SLD-0
  6
CONTINUOUS
 62
       3
100
AcDbLine
 10
8.64865729
 20
2.29155306
 30
0.0
 11
8.5023518
 21
2.27295862
 31
0.0
  0
LINE
  5
A8
100
AcDbEntity
  8
SLD-0
  6
CONTINUOUS
 62
       3
100
AcDbLine
 10
8.5023518
 20
2.27295862
 30
0.0
 11
8.35593257
 21
2.25555631
 31
0.0
  0
LINE
  5
A9
100
AcDbEntity
  8
SLD-0
  6
CONTINUOUS
 62
       3
100
AcDbLine
 10
8.35593257
 20
2.25555631
 30
0.0
 11
8.2094027
 21
2.23930434
 31
0.0
  0
LINE
  5
AA
100
AcDbEntity
  8
SLD-0
  6
CONTINUOUS
 62
       3
100
AcDbLine
 10
8.2094027
 20
2.23930434
 30
0.0
 11
8.06276532
 21
2.2241609
 31
0.0
  0
LINE
  5
AB
100
AcDbEntity
  8
SLD-0
  6
CONTINUOUS
 62
       3
100
AcDbLine
 10
8.06276532
 20
2.2241609
 30
0.0
 11
7.91602352
 21
2.21008418
 31
0.0
  0
LINE
  5
AC
100
AcDbEntity
  8
SLD-0
  6
CONTINUOUS
 62
       3
100
AcDbLine
 10
7.91602352
 20
2.21008418
 30
0.0
 11
7.76918042
 21
2.19703239
 31
0.0
  0
LINE
  5
AD
100
AcDbEntity
  8
SLD-0
  6
CONTINUOUS
 62
       3
100
AcDbLine
 10
7.76918042
 20
2.19703239
 30
0.0
 11
7.62223912
 21
2.18496372
 31
0.0
  0
LINE
  5
AE
100
AcDbEntity
  8
SLD-0
  6
CONTINUOUS
 62
       3
100
AcDbLine
 10
7.62223912
 20
2.18496372
 30
0.0
 11
7.47519657
 21
2.17384053
 31
0.0
  0
LINE
  5
AF
100
AcDbEntity
  8
SLD-0
  6
CONTINUOUS
 62
       3
100
AcDbLine
 10
7.47519657
 20
2.17384053
 30
0.0
 11
7.32802427
 21
2.16365819
 31
0.0
  0
LINE
  5
B0
100
AcDbEntity
  8
SLD-0
  6
CONTINUOUS
 62
       3
100
AcDbLine
 10
7.32802427
 20
2.16365819
 30
0.0
 11
7.18073291
 21
2.15441043
 31
0.0
  0
LINE
  5
B1
100
AcDbEntity
  8
SLD-0
  6
CONTINUOUS
 62
       3
100
AcDbLine
 10
7.18073291
 20
2.15441043
 30
0.0
 11
7.03333994
 21
2.14608819
 31
0.0
  0
LINE
  5
B2
100
AcDbEntity
  8
SLD-0
  6
CONTINUOUS
 62
       3
100
AcDbLine
 10
7.03333994
 20
2.14608819
 30
0.0
 11
6.88586281
 21
2.13868241
 31
0.0
  0
LINE
  5
B3
100
AcDbEntity
  8
SLD-0
  6
CONTINUOUS
 62
       3
100
AcDbLine
 10
6.88586281
 20
2.13868241
 30
0.0
 11
6.73831895
 21
2.13218402
 31
0.0
  0
LINE
  5
B4
100
AcDbEntity
  8
SLD-0
  6
CONTINUOUS
 62
       3
100
AcDbLine
 10
6.73831895
 20
2.13218402
 30
0.0
 11
6.59072584
 21
2.12658396
 31
0.0
  0
LINE
  5
B5
100
AcDbEntity
  8
SLD-0
  6
CONTINUOUS
 62
       3
100
AcDbLine
 10
6.59072584
 20
2.12658396
 30
0.0
 11
6.4431009
 21
2.12187318
 31
0.0
  0
LINE
  5
B6
100
AcDbEntity
  8
SLD-0
  6
CONTINUOUS
 62
       3
100
AcDbLine
 10
6.4431009
 20
2.12187318
 30
0.0
 11
6.29546159
 21
2.1180426
 31
0.0
  0
LINE
  5
B7
100
AcDbEntity
  8
SLD-0
  6
CONTINUOUS
 62
       3
100
AcDbLine
 10
6.29546159
 20
2.1180426
 30
0.0
 11
6.14782536
 21
2.11508316
 31
0.0
  0
LINE
  5
B8
100
AcDbEntity
  8
SLD-0
  6
CONTINUOUS
 62
       3
100
AcDbLine
 10
6.14782536
 20
2.11508316
 30
0.0
 11
6.00020966
 21
2.11298582
 31
0.0
  0
LINE
  5
B9
100
AcDbEntity
  8
SLD-0
  6
CONTINUOUS
 62
       3
100
AcDbLine
 10
6.00020966
 20
2.11298582
 30
0.0
 11
5.85263194
 21
2.11174149
 31
0.0
  0
LINE
  5
BA
100
AcDbEntity
  8
SLD-0
  6
CONTINUOUS
 62
       3
100
AcDbLine
 10
5.85263194
 20
2.11174149
 30
0.0
 11
5.70510964
 21
2.11134112
 31
0.0
  0
LINE
  5
BB
100
AcDbEntity
  8
SLD-0
  6
CONTINUOUS
 62
       3
100
AcDbLine
 10
5.70510964
 20
2.11134112
 30
0.0
 11
5.55765093
 21
2.11177623
 31
0.0
  0
LINE
  5
BC
100
AcDbEntity
  8
SLD-0
  6
CONTINUOUS
 62
       3
100
AcDbLine
 10
5.55765093
 20
2.11177623
 30
0.0
 11
5.41025267
 21
2.11305049
 31
0.0
  0
LINE
  5
BD
100
AcDbEntity
  8
SLD-0
  6
CONTINUOUS
 62
       3
100
AcDbLine
 10
5.41025267
 20
2.11305049
 30
0.0
 11
5.2629153
 21
2.11517309
 31
0.0
  0
LINE
  5
BE
100
AcDbEntity
  8
SLD-0
  6
CONTINUOUS
 62
       3
100
AcDbLine
 10
5.2629153
 20
2.11517309
 30
0.0
 11
5.1156393
 21
2.11815323
 31
0.0
  0
LINE
  5
BF
100
AcDbEntity
  8
SLD-0
  6
CONTINUOUS
 62
       3
100
AcDbLine
 10
5.1156393
 20
2.11815323
 30
0.0
 11
4.96842511
 21
2.12200008
 31
0.0
  0
LINE
  5
C0
100
AcDbEntity
  8
SLD-0
  6
CONTINUOUS
 62
       3
100
AcDbLine
 10
4.96842511
 20
2.12200008
 30
0.0
 11
4.8212732
 21
2.12672283
 31
0.0
  0
LINE
  5
C1
100
AcDbEntity
  8
SLD-0
  6
CONTINUOUS
 62
       3
100
AcDbLine
 10
4.8212732
 20
2.12672283
 30
0.0
 11
4.67418403
 21
2.13233067
 31
0.0
  0
LINE
  5
C2
100
AcDbEntity
  8
SLD-0
  6
CONTINUOUS
 62
       3
100
AcDbLine
 10
4.67418403
 20
2.13233067
 30
0.0
 11
4.52715805
 21
2.13883279
 31
0.0
  0
LINE
  5
C3
100
AcDbEntity
  8
SLD-0
  6
CONTINUOUS
 62
       3
100
AcDbLine
 10
4.52715805
 20
2.13883279
 30
0.0
 11
4.38019573
 21
2.14623837
 31
0.0
  0
LINE
  5
C4
100
AcDbEntity
  8
SLD-0
  6
CONTINUOUS
 62
       3
100
AcDbLine
 10
4.38019573
 20
2.14623837
 30
0.0
 11
4.23329752
 21
2.15455661
 31
0.0
  0
LINE
  5
C5
100
AcDbEntity
  8
SLD-0
  6
CONTINUOUS
 62
       3
100
AcDbLine
 10
4.23329752
 20
2.15455661
 30
0.0
 11
4.08646389
 21
2.16379668
 31
0.0
  0
LINE
  5
C6
100
AcDbEntity
  8
SLD-0
  6
CONTINUOUS
 62
       3
100
AcDbLine
 10
4.08646389
 20
2.16379668
 30
0.0
 11
3.9396953
 21
2.17396777
 31
0.0
  0
LINE
  5
C7
100
AcDbEntity
  8
SLD-0
  6
CONTINUOUS
 62
       3
100
AcDbLine
 10
3.9396953
 20
2.17396777
 30
0.0
 11
3.79299205
 21
2.18507638
 31
0.0
  0
LINE
  5
C8
100
AcDbEntity
  8
SLD-0
  6
CONTINUOUS
 62
       3
100
AcDbLine
 10
3.79299205
 20
2.18507638
 30
0.0
 11
3.64635443
 21
2.19712799
 31
0.0
  0
LINE
  5
C9
100
AcDbEntity
  8
SLD-0
  6
CONTINUOUS
 62
       3
100
AcDbLine
 10
3.64635443
 20
2.19712799
 30
0.0
 11
3.49978443
 21
2.21016121
 31
0.0
  0
LINE
  5
CA
100
AcDbEntity
  8
SLD-0
  6
CONTINUOUS
 62
       3
100
AcDbLine
 10
3.49978443
 20
2.21016121
 30
0.0
 11
3.35328424
 21
2.22421869
 31
0.0
  0
LINE
  5
CB
100
AcDbEntity
  8
SLD-0
  6
CONTINUOUS
 62
       3
100
AcDbLine
 10
3.35328424
 20
2.22421869
 30
0.0
 11
3.20685608
 21
2.23934313
 31
0.0
  0
LINE
  5
CC
100
AcDbEntity
  8
SLD-0
  6
CONTINUOUS
 62
       3
100
AcDbLine
 10
3.20685608
 20
2.23934313
 30
0.0
 11
3.06050213
 21
2.2555772
 31
0.0
  0
LINE
  5
CD
100
AcDbEntity
  8
SLD-0
  6
CONTINUOUS
 62
       3
100
AcDbLine
 10
3.06050213
 20
2.2555772
 30
0.0
 11
2.91422461
 21
2.27296357
 31
0.0
  0
LINE
  5
CE
100
AcDbEntity
  8
SLD-0
  6
CONTINUOUS
 62
       3
100
AcDbLine
 10
2.91422461
 20
2.27296357
 30
0.0
 11
2.76802572
 21
2.29154494
 31
0.0
  0
LINE
  5
CF
100
AcDbEntity
  8
SLD-0
  6
CONTINUOUS
 62
       3
100
AcDbLine
 10
2.76802572
 20
2.29154494
 30
0.0
 11
2.62190766
 21
2.31136397
 31
0.0
  0
LINE
  5
D0
100
AcDbEntity
  8
SLD-0
  6
CONTINUOUS
 62
       3
100
AcDbLine
 10
2.62190766
 20
2.31136397
 30
0.0
 11
2.47587264
 21
2.33246335
 31
0.0
  0
LINE
  5
D1
100
AcDbEntity
  8
SLD-0
  6
CONTINUOUS
 62
       3
100
AcDbLine
 10
2.47587264
 20
2.33246335
 30
0.0
 11
2.32992285
 21
2.35488575
 31
0.0
  0
LINE
  5
D2
100
AcDbEntity
  8
SLD-0
  6
CONTINUOUS
 62
       3
100
AcDbLine
 10
2.32992285
 20
2.35488575
 30
0.0
 11
2.18406051
 21
2.37867386
 31
0.0
  0
LINE
  5
D3
100
AcDbEntity
  8
SLD-0
  6
CONTINUOUS
 62
       3
100
AcDbLine
 10
2.18406051
 20
2.37867386
 30
0.0
 11
2.0382878
 21
2.40387035
 31
0.0
  0
ENDBLK
  5
D4
100
AcDbEntity
  8
0
100
AcDbBlockEnd
  0
BLOCK
  5
D5
100
AcDbEntity
  8
0
100
AcDbBlockBegin
  2
GROUP_4
 70
       0
 10
0.0
 20
0.0
 30
0.0
  3
GROUP_4
  1

  0
LINE
  5
D6
100
AcDbEntity
  8
SLD-0
  6
CONTINUOUS
 62
       3
100
AcDbLine
 10
51.58121986
 20
21.28731714
 30
0.0
 11
51.60940444
 21
21.60578876
 31
0.0
  0
LINE
  5
D7
100
AcDbEntity
  8
SLD-0
  6
CONTINUOUS
 62
       3
100
AcDbLine
 10
51.60940444
 20
21.60578876
 30
0.0
 11
51.6388162
 21
21.92414595
 31
0.0
  0
LINE
  5
D8
100
AcDbEntity
  8
SLD-0
  6
CONTINUOUS
 62
       3
100
AcDbLine
 10
51.6388162
 20
21.92414595
 30
0.0
 11
51.66948026
 21
22.24238195
 31
0.0
  0
LINE
  5
D9
100
AcDbEntity
  8
SLD-0
  6
CONTINUOUS
 62
       3
100
AcDbLine
 10
51.66948026
 20
22.24238195
 30
0.0
 11
51.70142174
 21
22.56049002
 31
0.0
  0
LINE
  5
DA
100
AcDbEntity
  8
SLD-0
  6
CONTINUOUS
 62
       3
100
AcDbLine
 10
51.70142174
 20
22.56049002
 30
0.0
 11
51.73466574
 21
22.87846342
 31
0.0
  0
LINE
  5
DB
100
AcDbEntity
  8
SLD-0
  6
CONTINUOUS
 62
       3
100
AcDbLine
 10
51.73466574
 20
22.87846342
 30
0.0
 11
51.7692374
 21
23.19629539
 31
0.0
  0
LINE
  5
DC
100
AcDbEntity
  8
SLD-0
  6
CONTINUOUS
 62
       3
100
AcDbLine
 10
51.7692374
 20
23.19629539
 30
0.0
 11
51.80516181
 21
23.51397919
 31
0.0
  0
LINE
  5
DD
100
AcDbEntity
  8
SLD-0
  6
CONTINUOUS
 62
       3
100
AcDbLine
 10
51.80516181
 20
23.51397919
 30
0.0
 11
51.8424641
 21
23.83150808
 31
0.0
  0
LINE
  5
DE
100
AcDbEntity
  8
SLD-0
  6
CONTINUOUS
 62
       3
100
AcDbLine
 10
51.8424641
 20
23.83150808
 30
0.0
 11
51.88116939
 21
24.1488753
 31
0.0
  0
LINE
  5
DF
100
AcDbEntity
  8
SLD-0
  6
CONTINUOUS
 62
       3
100
AcDbLine
 10
51.88116939
 20
24.1488753
 30
0.0
 11
51.92130278
 21
24.46607412
 31
0.0
  0
LINE
  5
E0
100
AcDbEntity
  8
SLD-0
  6
CONTINUOUS
 62
       3
100
AcDbLine
 10
51.92130278
 20
24.46607412
 30
0.0
 11
51.9628894
 21
24.78309778
 31
0.0
  0
LINE
  5
E1
100
AcDbEntity
  8
SLD-0
  6
CONTINUOUS
 62
       3
100
AcDbLine
 10
51.9628894
 20
24.78309778
 30
0.0
 11
52.00595435
 21
25.09993954
 31
0.0
  0
LINE
  5
E2
100
AcDbEntity
  8
SLD-0
  6
CONTINUOUS
 62
       3
100
AcDbLine
 10
52.00595435
 20
25.09993954
 30
0.0
 11
52.05052276
 21
25.41659266
 31
0.0
  0
LINE
  5
E3
100
AcDbEntity
  8
SLD-0
  6
CONTINUOUS
 62
       3
100
AcDbLine
 10
52.05052276
 20
25.41659266
 30
0.0
 11
52.09661974
 21
25.73305038
 31
0.0
  0
LINE
  5
E4
100
AcDbEntity
  8
SLD-0
  6
CONTINUOUS
 62
       3
100
AcDbLine
 10
52.09661974
 20
25.73305038
 30
0.0
 11
52.14427041
 21
26.04930596
 31
0.0
  0
LINE
  5
E5
100
AcDbEntity
  8
SLD-0
  6
CONTINUOUS
 62
       3
100
AcDbLine
 10
52.14427041
 20
26.04930596
 30
0.0
 11
52.19349988
 21
26.36535266
 31
0.0
  0
LINE
  5
E6
100
AcDbEntity
  8
SLD-0
  6
CONTINUOUS
 62
       3
100
AcDbLine
 10
52.19349988
 20
26.36535266
 30
0.0
 11
52.24433326
 21
26.68118373
 31
0.0
  0
LINE
  5
E7
100
AcDbEntity
  8
SLD-0
  6
CONTINUOUS
 62
       3
100
AcDbLine
 10
52.24433326
 20
26.68118373
 30
0.0
 11
52.29679567
 21
26.99679241
 31
0.0
  0
LINE
  5
E8
100
AcDbEntity
  8
SLD-0
  6
CONTINUOUS
 62
       3
100
AcDbLine
 10
52.29679567
 20
26.99679241
 30
0.0
 11
52.35091223
 21
27.31217198
 31
0.0
  0
LINE
  5
E9
100
AcDbEntity
  8
SLD-0
  6
CONTINUOUS
 62
       3
100
AcDbLine
 10
52.35091223
 20
27.31217198
 30
0.0
 11
52.40670806
 21
27.62731567
 31
0.0
  0
ENDBLK
  5
EA
100
AcDbEntity
  8
0
100
AcDbBlockEnd
  0
BLOCK
  5
EB
100
AcDbEntity
  8
0
100
AcDbBlockBegin
  2
GROUP_5
 70
       0
 10
0.0
 20
0.0
 30
0.0
  3
GROUP_5
  1

  0
LINE
  5
EC
100
AcDbEntity
  8
SLD-0
  6
CONTINUOUS
 62
       3
100
AcDbLine
 10
-2.13976484
 20
4.31434132
 30
0.0
 11
-2.09770303
 21
4.24717354
 31
0.0
  0
LINE
  5
ED
100
AcDbEntity
  8
SLD-0
  6
CONTINUOUS
 62
       3
100
AcDbLine
 10
-2.09770303
 20
4.24717354
 30
0.0
 11
-2.05253099
 21
4.18252027
 31
0.0
  0
LINE
  5
EE
100
AcDbEntity
  8
SLD-0
  6
CONTINUOUS
 62
       3
100
AcDbLine
 10
-2.05253099
 20
4.18252027
 30
0.0
 11
-2.00447706
 21
4.12022996
 31
0.0
  0
LINE
  5
EF
100
AcDbEntity
  8
SLD-0
  6
CONTINUOUS
 62
       3
100
AcDbLine
 10
-2.00447706
 20
4.12022996
 30
0.0
 11
-1.95376956
 21
4.06015109
 31
0.0
  0
LINE
  5
F0
100
AcDbEntity
  8
SLD-0
  6
CONTINUOUS
 62
       3
100
AcDbLine
 10
-1.95376956
 20
4.06015109
 30
0.0
 11
-1.90063684
 21
4.00213211
 31
0.0
  0
LINE
  5
F1
100
AcDbEntity
  8
SLD-0
  6
CONTINUOUS
 62
       3
100
AcDbLine
 10
-1.90063684
 20
4.00213211
 30
0.0
 11
-1.84530722
 21
3.9460215
 31
0.0
  0
LINE
  5
F2
100
AcDbEntity
  8
SLD-0
  6
CONTINUOUS
 62
       3
100
AcDbLine
 10
-1.84530722
 20
3.9460215
 30
0.0
 11
-1.78800903
 21
3.89166771
 31
0.0
  0
LINE
  5
F3
100
AcDbEntity
  8
SLD-0
  6
CONTINUOUS
 62
       3
100
AcDbLine
 10
-1.78800903
 20
3.89166771
 30
0.0
 11
-1.7290114
 21
3.83896921
 31
0.0
  0
LINE
  5
F4
100
AcDbEntity
  8
SLD-0
  6
CONTINUOUS
 62
       3
100
AcDbLine
 10
-1.7290114
 20
3.83896921
 30
0.0
 11
-1.66872837
 21
3.78809111
 31
0.0
  0
LINE
  5
F5
100
AcDbEntity
  8
SLD-0
  6
CONTINUOUS
 62
       3
100
AcDbLine
 10
-1.66872837
 20
3.78809111
 30
0.0
 11
-1.60727834
 21
3.73897426
 31
0.0
  0
LINE
  5
F6
100
AcDbEntity
  8
SLD-0
  6
CONTINUOUS
 62
       3
100
AcDbLine
 10
-1.60727834
 20
3.73897426
 30
0.0
 11
-1.54473238
 21
3.69151134
 31
0.0
  0
LINE
  5
F7
100
AcDbEntity
  8
SLD-0
  6
CONTINUOUS
 62
       3
100
AcDbLine
 10
-1.54473238
 20
3.69151134
 30
0.0
 11
-1.48116154
 21
3.64559504
 31
0.0
  0
LINE
  5
F8
100
AcDbEntity
  8
SLD-0
  6
CONTINUOUS
 62
       3
100
AcDbLine
 10
-1.48116154
 20
3.64559504
 30
0.0
 11
-1.41663689
 21
3.60111804
 31
0.0
  0
LINE
  5
F9
100
AcDbEntity
  8
SLD-0
  6
CONTINUOUS
 62
       3
100
AcDbLine
 10
-1.41663689
 20
3.60111804
 30
0.0
 11
-1.35122948
 21
3.55797303
 31
0.0
  0
LINE
  5
FA
100
AcDbEntity
  8
SLD-0
  6
CONTINUOUS
 62
       3
100
AcDbLine
 10
-1.35122948
 20
3.55797303
 30
0.0
 11
-1.28501037
 21
3.51605269
 31
0.0
  0
LINE
  5
FB
100
AcDbEntity
  8
SLD-0
  6
CONTINUOUS
 62
       3
100
AcDbLine
 10
-1.28501037
 20
3.51605269
 30
0.0
 11
-1.21803298
 21
3.47525958
 31
0.0
  0
LINE
  5
FC
100
AcDbEntity
  8
SLD-0
  6
CONTINUOUS
 62
       3
100
AcDbLine
 10
-1.21803298
 20
3.47525958
 30
0.0
 11
-1.15033341
 21
3.43554884
 31
0.0
  0
LINE
  5
FD
100
AcDbEntity
  8
SLD-0
  6
CONTINUOUS
 62
       3
100
AcDbLine
 10
-1.15033341
 20
3.43554884
 30
0.0
 11
-1.08195678
 21
3.39689207
 31
0.0
  0
LINE
  5
FE
100
AcDbEntity
  8
SLD-0
  6
CONTINUOUS
 62
       3
100
AcDbLine
 10
-1.08195678
 20
3.39689207
 30
0.0
 11
-1.01294817
 21
3.35926085
 31
0.0
  0
LINE
  5
FF
100
AcDbEntity
  8
SLD-0
  6
CONTINUOUS
 62
       3
100
AcDbLine
 10
-1.01294817
 20
3.35926085
 30
0.0
 11
-0.94335269
 21
3.32262678
 31
0.0
  0
LINE
  5
100
100
AcDbEntity
  8
SLD-0
  6
CONTINUOUS
 62
       3
100
AcDbLine
 10
-0.94335269
 20
3.32262678
 30
0.0
 11
-0.87321544
 21
3.28696144
 31
0.0
  0
LINE
  5
101
100
AcDbEntity
  8
SLD-0
  6
CONTINUOUS
 62
       3
100
AcDbLine
 10
-0.87321544
 20
3.28696144
 30
0.0
 11
-0.80258152
 21
3.25223642
 31
0.0
  0
LINE
  5
102
100
AcDbEntity
  8
SLD-0
  6
CONTINUOUS
 62
       3
100
AcDbLine
 10
-0.80258152
 20
3.25223642
 30
0.0
 11
-0.73149605
 21
3.21842331
 31
0.0
  0
LINE
  5
103
100
AcDbEntity
  8
SLD-0
  6
CONTINUOUS
 62
       3
100
AcDbLine
 10
-0.73149605
 20
3.21842331
 30
0.0
 11
-0.6600041
 21
3.1854937
 31
0.0
  0
LINE
  5
104
100
AcDbEntity
  8
SLD-0
  6
CONTINUOUS
 62
       3
100
AcDbLine
 10
-0.6600041
 20
3.1854937
 30
0.0
 11
-0.5881508
 21
3.15341917
 31
0.0
  0
LINE
  5
105
100
AcDbEntity
  8
SLD-0
  6
CONTINUOUS
 62
       3
100
AcDbLine
 10
-0.5881508
 20
3.15341917
 30
0.0
 11
-0.51598124
 21
3.12217132
 31
0.0
  0
LINE
  5
106
100
AcDbEntity
  8
SLD-0
  6
CONTINUOUS
 62
       3
100
AcDbLine
 10
-0.51598124
 20
3.12217132
 30
0.0
 11
-0.44354052
 21
3.09172173
 31
0.0
  0
LINE
  5
107
100
AcDbEntity
  8
SLD-0
  6
CONTINUOUS
 62
       3
100
AcDbLine
 10
-0.44354052
 20
3.09172173
 30
0.0
 11
-0.37087375
 21
3.062042
 31
0.0
  0
LINE
  5
108
100
AcDbEntity
  8
SLD-0
  6
CONTINUOUS
 62
       3
100
AcDbLine
 10
-0.37087375
 20
3.062042
 30
0.0
 11
-0.29802603
 21
3.0331037
 31
0.0
  0
LINE
  5
109
100
AcDbEntity
  8
SLD-0
  6
CONTINUOUS
 62
       3
100
AcDbLine
 10
-0.29802603
 20
3.0331037
 30
0.0
 11
-0.22504245
 21
3.00487844
 31
0.0
  0
LINE
  5
10A
100
AcDbEntity
  8
SLD-0
  6
CONTINUOUS
 62
       3
100
AcDbLine
 10
-0.22504245
 20
3.00487844
 30
0.0
 11
-0.15190514
 21
2.977329
 31
0.0
  0
LINE
  5
10B
100
AcDbEntity
  8
SLD-0
  6
CONTINUOUS
 62
       3
100
AcDbLine
 10
-0.15190514
 20
2.977329
 30
0.0
 11
-0.07856927
 21
2.95042692
 31
0.0
  0
LINE
  5
10C
100
AcDbEntity
  8
SLD-0
  6
CONTINUOUS
 62
       3
100
AcDbLine
 10
-0.07856927
 20
2.95042692
 30
0.0
 11
-0.00503952
 21
2.92415692
 31
0.0
  0
LINE
  5
10D
100
AcDbEntity
  8
SLD-0
  6
CONTINUOUS
 62
       3
100
AcDbLine
 10
-0.00503952
 20
2.92415692
 30
0.0
 11
0.06867944
 21
2.89850371
 31
0.0
  0
LINE
  5
10E
100
AcDbEntity
  8
SLD-0
  6
CONTINUOUS
 62
       3
100
AcDbLine
 10
0.06867944
 20
2.89850371
 30
0.0
 11
0.14258294
 21
2.873452
 31
0.0
  0
LINE
  5
10F
100
AcDbEntity
  8
SLD-0
  6
CONTINUOUS
 62
       3
100
AcDbLine
 10
0.14258294
 20
2.873452
 30
0.0
 11
0.21666629
 21
2.8489865
 31
0.0
  0
LINE
  5
110
100
AcDbEntity
  8
SLD-0
  6
CONTINUOUS
 62
       3
100
AcDbLine
 10
0.21666629
 20
2.8489865
 30
0.0
 11
0.29092482
 21
2.82509192
 31
0.0
  0
LINE
  5
111
100
AcDbEntity
  8
SLD-0
  6
CONTINUOUS
 62
       3
100
AcDbLine
 10
0.29092482
 20
2.82509192
 30
0.0
 11
0.36535386
 21
2.80175298
 31
0.0
  0
LINE
  5
112
100
AcDbEntity
  8
SLD-0
  6
CONTINUOUS
 62
       3
100
AcDbLine
 10
0.36535386
 20
2.80175298
 30
0.0
 11
0.43994873
 21
2.77895437
 31
0.0
  0
LINE
  5
113
100
AcDbEntity
  8
SLD-0
  6
CONTINUOUS
 62
       3
100
AcDbLine
 10
0.43994873
 20
2.77895437
 30
0.0
 11
0.51470476
 21
2.75668082
 31
0.0
  0
LINE
  5
114
100
AcDbEntity
  8
SLD-0
  6
CONTINUOUS
 62
       3
100
AcDbLine
 10
0.51470476
 20
2.75668082
 30
0.0
 11
0.58961727
 21
2.73491704
 31
0.0
  0
LINE
  5
115
100
AcDbEntity
  8
SLD-0
  6
CONTINUOUS
 62
       3
100
AcDbLine
 10
0.58961727
 20
2.73491704
 30
0.0
 11
0.66468158
 21
2.71364773
 31
0.0
  0
LINE
  5
116
100
AcDbEntity
  8
SLD-0
  6
CONTINUOUS
 62
       3
100
AcDbLine
 10
0.66468158
 20
2.71364773
 30
0.0
 11
0.73989302
 21
2.69285761
 31
0.0
  0
LINE
  5
117
100
AcDbEntity
  8
SLD-0
  6
CONTINUOUS
 62
       3
100
AcDbLine
 10
0.73989302
 20
2.69285761
 30
0.0
 11
0.81524691
 21
2.67253138
 31
0.0
  0
LINE
  5
118
100
AcDbEntity
  8
SLD-0
  6
CONTINUOUS
 62
       3
100
AcDbLine
 10
0.81524691
 20
2.67253138
 30
0.0
 11
0.89073858
 21
2.65265377
 31
0.0
  0
LINE
  5
119
100
AcDbEntity
  8
SLD-0
  6
CONTINUOUS
 62
       3
100
AcDbLine
 10
0.89073858
 20
2.65265377
 30
0.0
 11
0.96636522
 21
2.63321556
 31
0.0
  0
LINE
  5
11A
100
AcDbEntity
  8
SLD-0
  6
CONTINUOUS
 62
       3
100
AcDbLine
 10
0.96636522
 20
2.63321556
 30
0.0
 11
1.0421258
 21
2.61421335
 31
0.0
  0
LINE
  5
11B
100
AcDbEntity
  8
SLD-0
  6
CONTINUOUS
 62
       3
100
AcDbLine
 10
1.0421258
 20
2.61421335
 30
0.0
 11
1.11801831
 21
2.59564058
 31
0.0
  0
LINE
  5
11C
100
AcDbEntity
  8
SLD-0
  6
CONTINUOUS
 62
       3
100
AcDbLine
 10
1.11801831
 20
2.59564058
 30
0.0
 11
1.19404074
 21
2.57749067
 31
0.0
  0
LINE
  5
11D
100
AcDbEntity
  8
SLD-0
  6
CONTINUOUS
 62
       3
100
AcDbLine
 10
1.19404074
 20
2.57749067
 30
0.0
 11
1.27019108
 21
2.55975705
 31
0.0
  0
LINE
  5
11E
100
AcDbEntity
  8
SLD-0
  6
CONTINUOUS
 62
       3
100
AcDbLine
 10
1.27019108
 20
2.55975705
 30
0.0
 11
1.34646732
 21
2.54243314
 31
0.0
  0
LINE
  5
11F
100
AcDbEntity
  8
SLD-0
  6
CONTINUOUS
 62
       3
100
AcDbLine
 10
1.34646732
 20
2.54243314
 30
0.0
 11
1.42286746
 21
2.52551237
 31
0.0
  0
LINE
  5
120
100
AcDbEntity
  8
SLD-0
  6
CONTINUOUS
 62
       3
100
AcDbLine
 10
1.42286746
 20
2.52551237
 30
0.0
 11
1.49938949
 21
2.50898817
 31
0.0
  0
LINE
  5
121
100
AcDbEntity
  8
SLD-0
  6
CONTINUOUS
 62
       3
100
AcDbLine
 10
1.49938949
 20
2.50898817
 30
0.0
 11
1.5760314
 21
2.49285396
 31
0.0
  0
LINE
  5
122
100
AcDbEntity
  8
SLD-0
  6
CONTINUOUS
 62
       3
100
AcDbLine
 10
1.5760314
 20
2.49285396
 30
0.0
 11
1.65279117
 21
2.47710316
 31
0.0
  0
LINE
  5
123
100
AcDbEntity
  8
SLD-0
  6
CONTINUOUS
 62
       3
100
AcDbLine
 10
1.65279117
 20
2.47710316
 30
0.0
 11
1.72966681
 21
2.46172921
 31
0.0
  0
LINE
  5
124
100
AcDbEntity
  8
SLD-0
  6
CONTINUOUS
 62
       3
100
AcDbLine
 10
1.72966681
 20
2.46172921
 30
0.0
 11
1.8066563
 21
2.44672552
 31
0.0
  0
LINE
  5
125
100
AcDbEntity
  8
SLD-0
  6
CONTINUOUS
 62
       3
100
AcDbLine
 10
1.8066563
 20
2.44672552
 30
0.0
 11
1.88375763
 21
2.43208554
 31
0.0
  0
LINE
  5
126
100
AcDbEntity
  8
SLD-0
  6
CONTINUOUS
 62
       3
100
AcDbLine
 10
1.88375763
 20
2.43208554
 30
0.0
 11
1.9609688
 21
2.41780267
 31
0.0
  0
LINE
  5
127
100
AcDbEntity
  8
SLD-0
  6
CONTINUOUS
 62
       3
100
AcDbLine
 10
1.9609688
 20
2.41780267
 30
0.0
 11
2.0382878
 21
2.40387035
 31
0.0
  0
ENDBLK
  5
128
100
AcDbEntity
  8
0
100
AcDbBlockEnd
  0
BLOCK
  5
129
100
AcDbEntity
  8
0
100
AcDbBlockBegin
  2
GROUP_6
 70
       0
 10
0.0
 20
0.0
 30
0.0
  3
GROUP_6
  1

  0
LINE
  5
12A
100
AcDbEntity
  8
SLD-0
  6
CONTINUOUS
 62
       3
100
AcDbLine
 10
52.17976864
 20
24.11958085
 30
0.0
 11
52.16879697
 21
24.12493207
 31
0.0
  0
LINE
  5
12B
100
AcDbEntity
  8
SLD-0
  6
CONTINUOUS
 62
       3
100
AcDbLine
 10
52.16879697
 20
24.12493207
 30
0.0
 11
52.15785804
 21
24.13026732
 31
0.0
  0
LINE
  5
12C
100
AcDbEntity
  8
SLD-0
  6
CONTINUOUS
 62
       3
100
AcDbLine
 10
52.15785804
 20
24.13026732
 30
0.0
 11
52.14696469
 21
24.13558034
 31
0.0
  0
LINE
  5
12D
100
AcDbEntity
  8
SLD-0
  6
CONTINUOUS
 62
       3
100
AcDbLine
 10
52.14696469
 20
24.13558034
 30
0.0
 11
52.13612979
 21
24.14086485
 31
0.0
  0
LINE
  5
12E
100
AcDbEntity
  8
SLD-0
  6
CONTINUOUS
 62
       3
100
AcDbLine
 10
52.13612979
 20
24.14086485
 30
0.0
 11
52.12536617
 21
24.14611459
 31
0.0
  0
LINE
  5
12F
100
AcDbEntity
  8
SLD-0
  6
CONTINUOUS
 62
       3
100
AcDbLine
 10
52.12536617
 20
24.14611459
 30
0.0
 11
52.11468669
 21
24.1513233
 31
0.0
  0
LINE
  5
130
100
AcDbEntity
  8
SLD-0
  6
CONTINUOUS
 62
       3
100
AcDbLine
 10
52.11468669
 20
24.1513233
 30
0.0
 11
52.10410419
 21
24.1564847
 31
0.0
  0
LINE
  5
131
100
AcDbEntity
  8
SLD-0
  6
CONTINUOUS
 62
       3
100
AcDbLine
 10
52.10410419
 20
24.1564847
 30
0.0
 11
52.09363153
 21
24.16159254
 31
0.0
  0
LINE
  5
132
100
AcDbEntity
  8
SLD-0
  6
CONTINUOUS
 62
       3
100
AcDbLine
 10
52.09363153
 20
24.16159254
 30
0.0
 11
52.08328155
 21
24.16664054
 31
0.0
  0
LINE
  5
133
100
AcDbEntity
  8
SLD-0
  6
CONTINUOUS
 62
       3
100
AcDbLine
 10
52.08328155
 20
24.16664054
 30
0.0
 11
52.07306709
 21
24.17162244
 31
0.0
  0
LINE
  5
134
100
AcDbEntity
  8
SLD-0
  6
CONTINUOUS
 62
       3
100
AcDbLine
 10
52.07306709
 20
24.17162244
 30
0.0
 11
52.06300102
 21
24.17653197
 31
0.0
  0
LINE
  5
135
100
AcDbEntity
  8
SLD-0
  6
CONTINUOUS
 62
       3
100
AcDbLine
 10
52.06300102
 20
24.17653197
 30
0.0
 11
52.05309617
 21
24.18136287
 31
0.0
  0
LINE
  5
136
100
AcDbEntity
  8
SLD-0
  6
CONTINUOUS
 62
       3
100
AcDbLine
 10
52.05309617
 20
24.18136287
 30
0.0
 11
52.0433654
 21
24.18610886
 31
0.0
  0
LINE
  5
137
100
AcDbEntity
  8
SLD-0
  6
CONTINUOUS
 62
       3
100
AcDbLine
 10
52.0433654
 20
24.18610886
 30
0.0
 11
52.03382156
 21
24.19076368
 31
0.0
  0
LINE
  5
138
100
AcDbEntity
  8
SLD-0
  6
CONTINUOUS
 62
       3
100
AcDbLine
 10
52.03382156
 20
24.19076368
 30
0.0
 11
52.02447748
 21
24.19532107
 31
0.0
  0
LINE
  5
139
100
AcDbEntity
  8
SLD-0
  6
CONTINUOUS
 62
       3
100
AcDbLine
 10
52.02447748
 20
24.19532107
 30
0.0
 11
52.01534603
 21
24.19977476
 31
0.0
  0
LINE
  5
13A
100
AcDbEntity
  8
SLD-0
  6
CONTINUOUS
 62
       3
100
AcDbLine
 10
52.01534603
 20
24.19977476
 30
0.0
 11
52.00644005
 21
24.20411847
 31
0.0
  0
LINE
  5
13B
100
AcDbEntity
  8
SLD-0
  6
CONTINUOUS
 62
       3
100
AcDbLine
 10
52.00644005
 20
24.20411847
 30
0.0
 11
51.99777239
 21
24.20834596
 31
0.0
  0
LINE
  5
13C
100
AcDbEntity
  8
SLD-0
  6
CONTINUOUS
 62
       3
100
AcDbLine
 10
51.99777239
 20
24.20834596
 30
0.0
 11
51.9893559
 21
24.21245094
 31
0.0
  0
LINE
  5
13D
100
AcDbEntity
  8
SLD-0
  6
CONTINUOUS
 62
       3
100
AcDbLine
 10
51.9893559
 20
24.21245094
 30
0.0
 11
51.98120342
 21
24.21642715
 31
0.0
  0
ENDBLK
  5
13E
100
AcDbEntity
  8
0
100
AcDbBlockEnd
  0
BLOCK
  5
13F
100
AcDbEntity
  8
0
100
AcDbBlockBegin
  2
GROUP_7
 70
       0
 10
0.0
 20
0.0
 30
0.0
  3
GROUP_7
  1

  0
LINE
  5
140
100
AcDbEntity
  8
SLD-0
  6
CONTINUOUS
 62
       3
100
AcDbLine
 10
51.86237617
 20
23.99623235
 30
0.0
 11
51.87796413
 21
24.12296899
 31
0.0
  0
LINE
  5
141
100
AcDbEntity
  8
SLD-0
  6
CONTINUOUS
 62
       3
100
AcDbLine
 10
51.87796413
 20
24.12296899
 30
0.0
 11
51.89335831
 21
24.24625725
 31
0.0
  0
LINE
  5
142
100
AcDbEntity
  8
SLD-0
  6
CONTINUOUS
 62
       3
100
AcDbLine
 10
51.89335831
 20
24.24625725
 30
0.0
 11
51.90853924
 21
24.36606102
 31
0.0
  0
LINE
  5
143
100
AcDbEntity
  8
SLD-0
  6
CONTINUOUS
 62
       3
100
AcDbLine
 10
51.90853924
 20
24.36606102
 30
0.0
 11
51.92348745
 21
24.48234419
 31
0.0
  0
LINE
  5
144
100
AcDbEntity
  8
SLD-0
  6
CONTINUOUS
 62
       3
100
AcDbLine
 10
51.92348745
 20
24.48234419
 30
0.0
 11
51.93818349
 21
24.59507065
 31
0.0
  0
LINE
  5
145
100
AcDbEntity
  8
SLD-0
  6
CONTINUOUS
 62
       3
100
AcDbLine
 10
51.93818349
 20
24.59507065
 30
0.0
 11
51.95260788
 21
24.70420426
 31
0.0
  0
LINE
  5
146
100
AcDbEntity
  8
SLD-0
  6
CONTINUOUS
 62
       3
100
AcDbLine
 10
51.95260788
 20
24.70420426
 30
0.0
 11
51.96674115
 21
24.80970893
 31
0.0
  0
LINE
  5
147
100
AcDbEntity
  8
SLD-0
  6
CONTINUOUS
 62
       3
100
AcDbLine
 10
51.96674115
 20
24.80970893
 30
0.0
 11
51.98056386
 21
24.91154854
 31
0.0
  0
LINE
  5
148
100
AcDbEntity
  8
SLD-0
  6
CONTINUOUS
 62
       3
100
AcDbLine
 10
51.98056386
 20
24.91154854
 30
0.0
 11
51.99405652
 21
25.00968696
 31
0.0
  0
LINE
  5
149
100
AcDbEntity
  8
SLD-0
  6
CONTINUOUS
 62
       3
100
AcDbLine
 10
51.99405652
 20
25.00968696
 30
0.0
 11
52.00719967
 21
25.1040881
 31
0.0
  0
LINE
  5
14A
100
AcDbEntity
  8
SLD-0
  6
CONTINUOUS
 62
       3
100
AcDbLine
 10
52.00719967
 20
25.1040881
 30
0.0
 11
52.01997385
 21
25.19471582
 31
0.0
  0
LINE
  5
14B
100
AcDbEntity
  8
SLD-0
  6
CONTINUOUS
 62
       3
100
AcDbLine
 10
52.01997385
 20
25.19471582
 30
0.0
 11
52.03235959
 21
25.28153403
 31
0.0
  0
LINE
  5
14C
100
AcDbEntity
  8
SLD-0
  6
CONTINUOUS
 62
       3
100
AcDbLine
 10
52.03235959
 20
25.28153403
 30
0.0
 11
52.04433743
 21
25.36450659
 31
0.0
  0
LINE
  5
14D
100
AcDbEntity
  8
SLD-0
  6
CONTINUOUS
 62
       3
100
AcDbLine
 10
52.04433743
 20
25.36450659
 30
0.0
 11
52.05588789
 21
25.4435974
 31
0.0
  0
LINE
  5
14E
100
AcDbEntity
  8
SLD-0
  6
CONTINUOUS
 62
       3
100
AcDbLine
 10
52.05588789
 20
25.4435974
 30
0.0
 11
52.06699152
 21
25.51877035
 31
0.0
  0
LINE
  5
14F
100
AcDbEntity
  8
SLD-0
  6
CONTINUOUS
 62
       3
100
AcDbLine
 10
52.06699152
 20
25.51877035
 30
0.0
 11
52.07762885
 21
25.58998931
 31
0.0
  0
LINE
  5
150
100
AcDbEntity
  8
SLD-0
  6
CONTINUOUS
 62
       3
100
AcDbLine
 10
52.07762885
 20
25.58998931
 30
0.0
 11
52.08778041
 21
25.65721817
 31
0.0
  0
LINE
  5
151
100
AcDbEntity
  8
SLD-0
  6
CONTINUOUS
 62
       3
100
AcDbLine
 10
52.08778041
 20
25.65721817
 30
0.0
 11
52.09742674
 21
25.72042082
 31
0.0
  0
LINE
  5
152
100
AcDbEntity
  8
SLD-0
  6
CONTINUOUS
 62
       3
100
AcDbLine
 10
52.09742674
 20
25.72042082
 30
0.0
 11
52.10654837
 21
25.77956115
 31
0.0
  0
LINE
  5
153
100
AcDbEntity
  8
SLD-0
  6
CONTINUOUS
 62
       3
100
AcDbLine
 10
52.10654837
 20
25.77956115
 30
0.0
 11
52.11512583
 21
25.83460303
 31
0.0
  0
ENDBLK
  5
154
100
AcDbEntity
  8
0
100
AcDbBlockEnd
  0
BLOCK
  5
155
100
AcDbEntity
  8
0
100
AcDbBlockBegin
  2
GROUP_8
 70
       0
 10
0.0
 20
0.0
 30
0.0
  3
GROUP_8
  1

  0
LINE
  5
156
100
AcDbEntity
  8
SLD-0
  6
CONTINUOUS
 62
       3
100
AcDbLine
 10
51.98120342
 20
24.21642715
 30
0.0
 11
51.9741694
 21
24.21985787
 31
0.0
  0
LINE
  5
157
100
AcDbEntity
  8
SLD-0
  6
CONTINUOUS
 62
       3
100
AcDbLine
 10
51.9741694
 20
24.21985787
 30
0.0
 11
51.9673183
 21
24.22319937
 31
0.0
  0
LINE
  5
158
100
AcDbEntity
  8
SLD-0
  6
CONTINUOUS
 62
       3
100
AcDbLine
 10
51.9673183
 20
24.22319937
 30
0.0
 11
51.96065015
 21
24.22645165
 31
0.0
  0
LINE
  5
159
100
AcDbEntity
  8
SLD-0
  6
CONTINUOUS
 62
       3
100
AcDbLine
 10
51.96065015
 20
24.22645165
 30
0.0
 11
51.95416492
 21
24.2296147
 31
0.0
  0
LINE
  5
15A
100
AcDbEntity
  8
SLD-0
  6
CONTINUOUS
 62
       3
100
AcDbLine
 10
51.95416492
 20
24.2296147
 30
0.0
 11
51.94786263
 21
24.23268854
 31
0.0
  0
LINE
  5
15B
100
AcDbEntity
  8
SLD-0
  6
CONTINUOUS
 62
       3
100
AcDbLine
 10
51.94786263
 20
24.23268854
 30
0.0
 11
51.94174327
 21
24.23567315
 31
0.0
  0
LINE
  5
15C
100
AcDbEntity
  8
SLD-0
  6
CONTINUOUS
 62
       3
100
AcDbLine
 10
51.94174327
 20
24.23567315
 30
0.0
 11
51.93580685
 21
24.23856853
 31
0.0
  0
LINE
  5
15D
100
AcDbEntity
  8
SLD-0
  6
CONTINUOUS
 62
       3
100
AcDbLine
 10
51.93580685
 20
24.23856853
 30
0.0
 11
51.93005336
 21
24.2413747
 31
0.0
  0
LINE
  5
15E
100
AcDbEntity
  8
SLD-0
  6
CONTINUOUS
 62
       3
100
AcDbLine
 10
51.93005336
 20
24.2413747
 30
0.0
 11
51.92448281
 21
24.24409164
 31
0.0
  0
LINE
  5
15F
100
AcDbEntity
  8
SLD-0
  6
CONTINUOUS
 62
       3
100
AcDbLine
 10
51.92448281
 20
24.24409164
 30
0.0
 11
51.91909518
 21
24.24671936
 31
0.0
  0
LINE
  5
160
100
AcDbEntity
  8
SLD-0
  6
CONTINUOUS
 62
       3
100
AcDbLine
 10
51.91909518
 20
24.24671936
 30
0.0
 11
51.9138905
 21
24.24925785
 31
0.0
  0
LINE
  5
161
100
AcDbEntity
  8
SLD-0
  6
CONTINUOUS
 62
       3
100
AcDbLine
 10
51.9138905
 20
24.24925785
 30
0.0
 11
51.90886874
 21
24.25170713
 31
0.0
  0
LINE
  5
162
100
AcDbEntity
  8
SLD-0
  6
CONTINUOUS
 62
       3
100
AcDbLine
 10
51.90886874
 20
24.25170713
 30
0.0
 11
51.90402992
 21
24.25406718
 31
0.0
  0
LINE
  5
163
100
AcDbEntity
  8
SLD-0
  6
CONTINUOUS
 62
       3
100
AcDbLine
 10
51.90402992
 20
24.25406718
 30
0.0
 11
51.89937403
 21
24.25633801
 31
0.0
  0
LINE
  5
164
100
AcDbEntity
  8
SLD-0
  6
CONTINUOUS
 62
       3
100
AcDbLine
 10
51.89937403
 20
24.25633801
 30
0.0
 11
51.89490108
 21
24.25851961
 31
0.0
  0
ENDBLK
  5
165
100
AcDbEntity
  8
0
100
AcDbBlockEnd
  0
BLOCK
  5
166
100
AcDbEntity
  8
0
100
AcDbBlockBegin
  2
GROUP_9
 70
       0
 10
0.0
 20
0.0
 30
0.0
  3
GROUP_9
  1

  0
LINE
  5
167
100
AcDbEntity
  8
SLD-0
  6
CONTINUOUS
 62
       3
100
AcDbLine
 10
51.89490108
 20
24.25851961
 30
0.0
 11
51.90505476
 21
24.33876937
 31
0.0
  0
LINE
  5
168
100
AcDbEntity
  8
SLD-0
  6
CONTINUOUS
 62
       3
100
AcDbLine
 10
51.90505476
 20
24.33876937
 30
0.0
 11
51.91529675
 21
24.41900778
 31
0.0
  0
LINE
  5
169
100
AcDbEntity
  8
SLD-0
  6
CONTINUOUS
 62
       3
100
AcDbLine
 10
51.91529675
 20
24.41900778
 30
0.0
 11
51.92563097
 21
24.49923418
 31
0.0
  0
LINE
  5
16A
100
AcDbEntity
  8
SLD-0
  6
CONTINUOUS
 62
       3
100
AcDbLine
 10
51.92563097
 20
24.49923418
 30
0.0
 11
51.93606132
 21
24.57944788
 31
0.0
  0
LINE
  5
16B
100
AcDbEntity
  8
SLD-0
  6
CONTINUOUS
 62
       3
100
AcDbLine
 10
51.93606132
 20
24.57944788
 30
0.0
 11
51.94659171
 21
24.65964822
 31
0.0
  0
LINE
  5
16C
100
AcDbEntity
  8
SLD-0
  6
CONTINUOUS
 62
       3
100
AcDbLine
 10
51.94659171
 20
24.65964822
 30
0.0
 11
51.95722603
 21
24.73983452
 31
0.0
  0
LINE
  5
16D
100
AcDbEntity
  8
SLD-0
  6
CONTINUOUS
 62
       3
100
AcDbLine
 10
51.95722603
 20
24.73983452
 30
0.0
 11
51.96796819
 21
24.82000611
 31
0.0
  0
LINE
  5
16E
100
AcDbEntity
  8
SLD-0
  6
CONTINUOUS
 62
       3
100
AcDbLine
 10
51.96796819
 20
24.82000611
 30
0.0
 11
51.97882209
 21
24.90016232
 31
0.0
  0
LINE
  5
16F
100
AcDbEntity
  8
SLD-0
  6
CONTINUOUS
 62
       3
100
AcDbLine
 10
51.97882209
 20
24.90016232
 30
0.0
 11
51.98979165
 21
24.98030246
 31
0.0
  0
LINE
  5
170
100
AcDbEntity
  8
SLD-0
  6
CONTINUOUS
 62
       3
100
AcDbLine
 10
51.98979165
 20
24.98030246
 30
0.0
 11
52.00088075
 21
25.06042589
 31
0.0
  0
LINE
  5
171
100
AcDbEntity
  8
SLD-0
  6
CONTINUOUS
 62
       3
100
AcDbLine
 10
52.00088075
 20
25.06042589
 30
0.0
 11
52.01209331
 21
25.1405319
 31
0.0
  0
LINE
  5
172
100
AcDbEntity
  8
SLD-0
  6
CONTINUOUS
 62
       3
100
AcDbLine
 10
52.01209331
 20
25.1405319
 30
0.0
 11
52.02343324
 21
25.22061985
 31
0.0
  0
LINE
  5
173
100
AcDbEntity
  8
SLD-0
  6
CONTINUOUS
 62
       3
100
AcDbLine
 10
52.02343324
 20
25.22061985
 30
0.0
 11
52.03490442
 21
25.30068904
 31
0.0
  0
LINE
  5
174
100
AcDbEntity
  8
SLD-0
  6
CONTINUOUS
 62
       3
100
AcDbLine
 10
52.03490442
 20
25.30068904
 30
0.0
 11
52.04651077
 21
25.38073881
 31
0.0
  0
LINE
  5
175
100
AcDbEntity
  8
SLD-0
  6
CONTINUOUS
 62
       3
100
AcDbLine
 10
52.04651077
 20
25.38073881
 30
0.0
 11
52.0582562
 21
25.46076849
 31
0.0
  0
LINE
  5
176
100
AcDbEntity
  8
SLD-0
  6
CONTINUOUS
 62
       3
100
AcDbLine
 10
52.0582562
 20
25.46076849
 30
0.0
 11
52.07014459
 21
25.54077741
 31
0.0
  0
LINE
  5
177
100
AcDbEntity
  8
SLD-0
  6
CONTINUOUS
 62
       3
100
AcDbLine
 10
52.07014459
 20
25.54077741
 30
0.0
 11
52.08217987
 21
25.62076488
 31
0.0
  0
LINE
  5
178
100
AcDbEntity
  8
SLD-0
  6
CONTINUOUS
 62
       3
100
AcDbLine
 10
52.08217987
 20
25.62076488
 30
0.0
 11
52.09436593
 21
25.70073024
 31
0.0
  0
LINE
  5
179
100
AcDbEntity
  8
SLD-0
  6
CONTINUOUS
 62
       3
100
AcDbLine
 10
52.09436593
 20
25.70073024
 30
0.0
 11
52.10670668
 21
25.78067282
 31
0.0
  0
LINE
  5
17A
100
AcDbEntity
  8
SLD-0
  6
CONTINUOUS
 62
       3
100
AcDbLine
 10
52.10670668
 20
25.78067282
 30
0.0
 11
52.11920601
 21
25.86059194
 31
0.0
  0
ENDBLK
  5
17B
100
AcDbEntity
  8
0
100
AcDbBlockEnd
  0
ENDSEC
  0
SECTION
  2
ENTITIES
  0
LINE
  5
17C
100
AcDbEntity
  8
SLD-0
  6
CONTINUOUS
 62
       3
100
AcDbLine
 10
19.20832509
 20
0.79128193
 30
0.0
 11
-95.79167489
 21
0.79128193
 31
0.0
  0
LINE
  5
17D
100
AcDbEntity
  8
SLD-0
  6
CONTINUOUS
 62
       3
100
AcDbLine
 10
52.40670806
 20
27.62731567
 30
0.0
 11
103.75832798
 21
27.62731567
 31
0.0
  0
LINE
  5
17E
100
AcDbEntity
  8
SLD-0
  6
CONTINUOUS
 62
       3
100
AcDbLine
 10
74.1318152
 20
-22.37268129
 30
0.0
 11
103.1318152
 21
-22.37268129
 31
0.0
  0
LINE
  5
17F
100
AcDbEntity
  8
SLD-0
  6
CONTINUOUS
 62
       3
100
AcDbLine
 10
73.63181522
 20
0.79128193
 30
0.0
 11
73.63181522
 21
-21.87268129
 31
0.0
  0
LINE
  5
180
100
AcDbEntity
  8
SLD-0
  6
CONTINUOUS
 62
       3
100
AcDbLine
 10
52.1093139
 20
2.40387041
 30
0.0
 11
52.10202295
 21
2.40387041
 31
0.0
  0
LINE
  5
181
100
AcDbEntity
  8
SLD-0
  6
CONTINUOUS
 62
       3
100
AcDbLine
 10
19.2083252
 20
4.31430968
 30
0.0
 11
-95.79167499
 21
4.31430968
 31
0.0
  0
LINE
  5
182
100
AcDbEntity
  8
SLD-0
  6
CONTINUOUS
 62
       3
100
AcDbLine
 10
19.20832577
 20
23.99623235
 30
0.0
 11
-95.79167556
 21
23.99623235
 31
0.0
  0
LINE
  5
183
100
AcDbEntity
  8
SLD-0
  6
CONTINUOUS
 62
       3
100
AcDbLine
 10
19.2083255
 20
14.68730078
 30
0.0
 11
-95.79167529
 21
14.68731795
 31
0.0
  0
LINE
  5
184
100
AcDbEntity
  8
SLD-0
  6
CONTINUOUS
 62
       3
100
AcDbLine
 10
19.20832569
 20
21.28733692
 30
0.0
 11
-95.79167548
 21
21.2873174
 31
0.0
  0
LINE
  5
185
100
AcDbEntity
  8
SLD-0
  6
CONTINUOUS
 62
       3
100
AcDbLine
 10
18.70832586
 20
27.62731693
 30
0.0
 11
-95.29167565
 21
27.62731693
 31
0.0
  0
LINE
  5
186
100
AcDbEntity
  8
SLD-0
  6
CONTINUOUS
 62
       3
100
AcDbLine
 10
-95.79167423
 20
-21.8726818
 30
0.0
 11
-95.79167565
 21
27.12731692
 31
0.0
  0
LINE
  5
187
100
AcDbEntity
  8
SLD-0
  6
CONTINUOUS
 62
       3
100
AcDbLine
 10
19.20832586
 20
27.12731692
 30
0.0
 11
19.20832444
 21
-21.8726818
 31
0.0
  0
LINE
  5
188
100
AcDbEntity
  8
SLD-0
  6
CONTINUOUS
 62
       3
100
AcDbLine
 10
18.70832444
 20
-22.37268179
 30
0.0
 11
-95.29167423
 21
-22.37268179
 31
0.0
  0
LINE
  5
189
100
AcDbEntity
  8
SLD-0
  6
CONTINUOUS
 62
       3
100
AcDbLine
 10
-31.3916749
 20
-22.42247497
 30
0.0
 11
-31.3916749
 21
-22.37268147
 31
0.0
  0
LINE
  5
18A
100
AcDbEntity
  8
SLD-0
  6
CONTINUOUS
 62
       3
100
AcDbLine
 10
-45.1916749
 20
-22.42247497
 30
0.0
 11
-45.1916749
 21
-22.37268147
 31
0.0
  0
LINE
  5
18B
100
AcDbEntity
  8
SLD-0
  6
CONTINUOUS
 62
       3
100
AcDbLine
 10
-46.6916749
 20
-23.37268211
 30
0.0
 11
-46.6916746
 21
-22.37268147
 31
0.0
  0
LINE
  5
18C
100
AcDbEntity
  8
SLD-0
  6
CONTINUOUS
 62
       3
100
AcDbLine
 10
-29.8916749
 20
-23.37268211
 30
0.0
 11
-29.8916752
 21
-22.37268147
 31
0.0
  0
LINE
  5
18D
100
AcDbEntity
  8
SLD-0
  6
CONTINUOUS
 62
       3
100
AcDbLine
 10
100.53181546
 20
-25.37268196
 30
0.0
 11
103.13181552
 21
-25.37268196
 31
0.0
  0
LINE
  5
18E
100
AcDbEntity
  8
SLD-0
  6
CONTINUOUS
 62
       3
100
AcDbLine
 10
51.56258603
 20
21.15696373
 30
0.0
 11
51.62851387
 21
21.15926622
 31
0.0
  0
LINE
  5
18F
100
AcDbEntity
  8
SLD-0
  6
CONTINUOUS
 62
       3
100
AcDbLine
 10
51.3350355
 20
14.82561799
 30
0.0
 11
51.26019545
 21
14.82823177
 31
0.0
  0
LINE
  5
190
100
AcDbEntity
  8
SLD-0
  6
CONTINUOUS
 62
       3
100
AcDbLine
 10
51.86237617
 20
23.99623235
 30
0.0
 11
51.85635107
 21
23.94673533
 31
0.0
  0
LINE
  5
191
100
AcDbEntity
  8
SLD-0
  6
CONTINUOUS
 62
       3
100
AcDbLine
 10
87.03181581
 20
27.62731567
 30
0.0
 11
87.03181581
 21
26.12731709
 31
0.0
  0
LINE
  5
192
100
AcDbEntity
  8
SLD-0
  6
CONTINUOUS
 62
       3
100
AcDbLine
 10
82.33181634
 20
26.08630164
 30
0.0
 11
87.03181581
 21
26.12731709
 31
0.0
  0
LINE
  5
193
100
AcDbEntity
  8
SLD-0
  6
CONTINUOUS
 62
       3
100
AcDbLine
 10
82.33181634
 20
26.08630164
 30
0.0
 11
82.33181634
 21
21.0273183
 31
0.0
  0
LINE
  5
194
100
AcDbEntity
  8
SLD-0
  6
CONTINUOUS
 62
       3
100
AcDbLine
 10
82.33181634
 20
21.0273183
 30
0.0
 11
60.52178019
 21
21.0273183
 31
0.0
  0
LINE
  5
195
100
AcDbEntity
  8
SLD-0
  6
CONTINUOUS
 62
       3
100
AcDbLine
 10
60.52178019
 20
21.0273183
 30
0.0
 11
60.52178019
 21
13.02731792
 31
0.0
  0
LINE
  5
196
100
AcDbEntity
  8
SLD-0
  6
CONTINUOUS
 62
       3
100
AcDbLine
 10
60.52178019
 20
13.02731792
 30
0.0
 11
82.33181601
 21
13.02731792
 31
0.0
  0
LINE
  5
197
100
AcDbEntity
  8
SLD-0
  6
CONTINUOUS
 62
       3
100
AcDbLine
 10
82.33181601
 20
13.02731792
 30
0.0
 11
82.33181601
 21
-20.83166619
 31
0.0
  0
LINE
  5
198
100
AcDbEntity
  8
SLD-0
  6
CONTINUOUS
 62
       3
100
AcDbLine
 10
82.33181601
 20
-20.83166619
 30
0.0
 11
87.03181548
 21
-20.87268164
 31
0.0
  0
LINE
  5
199
100
AcDbEntity
  8
SLD-0
  6
CONTINUOUS
 62
       3
100
AcDbLine
 10
87.03181548
 20
-20.87268164
 30
0.0
 11
87.03181548
 21
-22.3726818
 31
0.0
  0
LINE
  5
19A
100
AcDbEntity
  8
SLD-0
  6
CONTINUOUS
 62
       3
100
AcDbLine
 10
54.93181446
 20
5.027318
 30
0.0
 11
54.93181446
 21
22.77731812
 31
0.0
  0
LINE
  5
19B
100
AcDbEntity
  8
SLD-0
  6
CONTINUOUS
 62
       3
100
AcDbLine
 10
51.84343784
 20
4.31430968
 30
0.0
 11
54.93181446
 21
5.027318
 31
0.0
  0
LINE
  5
19C
100
AcDbEntity
  8
SLD-0
  6
CONTINUOUS
 62
       3
100
AcDbLine
 10
54.93181446
 20
22.77731812
 30
0.0
 11
52.17976864
 21
24.11958085
 31
0.0
  0
LINE
  5
19D
100
AcDbEntity
  8
SLD-0
  6
CONTINUOUS
 62
       3
100
AcDbLine
 10
73.63181522
 20
0.79128193
 30
0.0
 11
53.5642194
 21
1.14156314
 31
0.0
  0
LINE
  5
19E
100
AcDbEntity
  8
SLD-0
  6
CONTINUOUS
 62
       3
100
AcDbLine
 10
60.53181612
 20
20.82731864
 30
0.0
 11
60.53181612
 21
13.22731758
 31
0.0
  0
LINE
  5
19F
100
AcDbEntity
  8
SLD-0
  6
CONTINUOUS
 62
       3
100
AcDbLine
 10
103.13181552
 20
-23.37268163
 30
0.0
 11
100.53181546
 21
-23.37268163
 31
0.0
  0
LINE
  5
1A0
100
AcDbEntity
  8
SLD-0
  6
CONTINUOUS
 62
       3
100
AcDbLine
 10
100.53181546
 20
-25.37268196
 30
0.0
 11
100.53181546
 21
-23.37268163
 31
0.0
  0
LINE
  5
1A1
100
AcDbEntity
  8
SLD-0
  6
CONTINUOUS
 62
       3
100
AcDbLine
 10
103.13181552
 20
-25.37268196
 30
0.0
 11
103.13181552
 21
-23.37268163
 31
0.0
  0
LINE
  5
1A2
100
AcDbEntity
  8
SLD-0
  6
CONTINUOUS
 62
       3
100
AcDbLine
 10
100.53181546
 20
-23.37268163
 30
0.0
 11
100.53181546
 21
-22.37268147
 31
0.0
  0
LINE
  5
1A3
100
AcDbEntity
  8
SLD-0
  6
CONTINUOUS
 62
       3
100
AcDbLine
 10
103.6318152
 20
-14.66273889
 30
0.0
 11
100.65832789
 21
-14.66273954
 31
0.0
  0
LINE
  5
1A4
100
AcDbEntity
  8
SLD-0
  6
CONTINUOUS
 62
       3
100
AcDbLine
 10
101.75832848
 20
-14.6627393
 30
0.0
 11
101.75832848
 21
-13.16273844
 31
0.0
  0
LINE
  5
1A5
100
AcDbEntity
  8
SLD-0
  6
CONTINUOUS
 62
       3
100
AcDbLine
 10
102.05832856
 20
-13.16273844
 30
0.0
 11
101.75832848
 21
-13.16273844
 31
0.0
  0
LINE
  5
1A6
100
AcDbEntity
  8
SLD-0
  6
CONTINUOUS
 62
       3
100
AcDbLine
 10
103.25832856
 20
-14.66273961
 30
0.0
 11
102.05832856
 21
-13.16273844
 31
0.0
  0
LINE
  5
1A7
100
AcDbEntity
  8
SLD-0
  6
CONTINUOUS
 62
       3
100
AcDbLine
 10
103.13181552
 20
-23.37268163
 30
0.0
 11
103.1318152
 21
-22.37268129
 31
0.0
  0
LINE
  5
1A8
100
AcDbEntity
  8
SLD-0
  6
CONTINUOUS
 62
       3
100
AcDbLine
 10
103.45832796
 20
20.88613557
 30
0.0
 11
100.65832789
 21
20.83726162
 31
0.0
  0
LINE
  5
1A9
100
AcDbEntity
  8
SLD-0
  6
CONTINUOUS
 62
       3
100
AcDbLine
 10
103.75832798
 20
27.62731567
 30
0.0
 11
103.75832798
 21
21.18618162
 31
0.0
  0
LINE
  5
1AA
100
AcDbEntity
  8
SLD-0
  6
CONTINUOUS
 62
       3
100
AcDbLine
 10
103.4635637
 20
20.88622661
 30
0.0
 11
103.45832796
 21
20.88613557
 31
0.0
  0
LINE
  5
1AB
100
AcDbEntity
  8
SLD-0
  6
CONTINUOUS
 62
       3
100
AcDbLine
 10
103.6318152
 20
-14.66273889
 30
0.0
 11
103.6318152
 21
-21.87268129
 31
0.0
  0
LINE
  5
1AC
100
AcDbEntity
  8
SLD-0
  6
CONTINUOUS
 62
       3
100
AcDbLine
 10
100.65832789
 20
-14.66273954
 30
0.0
 11
100.65832789
 21
20.83726162
 31
0.0
  0
LINE
  5
1AD
100
AcDbEntity
  8
SLD-0
  6
CONTINUOUS
 62
       3
100
AcDbLine
 10
101.75832798
 20
20.85646167
 30
0.0
 11
101.84749653
 21
19.83726136
 31
0.0
  0
LINE
  5
1AE
100
AcDbEntity
  8
SLD-0
  6
CONTINUOUS
 62
       3
100
AcDbLine
 10
102.17548541
 20
19.33726035
 30
0.0
 11
101.89124087
 21
19.33726035
 31
0.0
  0
LINE
  5
1AF
100
AcDbEntity
  8
SLD-0
  6
CONTINUOUS
 62
       3
100
AcDbLine
 10
101.89124087
 20
19.33726035
 30
0.0
 11
101.89057637
 21
19.34485622
 31
0.0
  0
LINE
  5
1B0
100
AcDbEntity
  8
SLD-0
  6
CONTINUOUS
 62
       3
100
AcDbLine
 10
101.89057637
 20
19.34485622
 30
0.0
 11
101.88860278
 21
19.36741471
 31
0.0
  0
LINE
  5
1B1
100
AcDbEntity
  8
SLD-0
  6
CONTINUOUS
 62
       3
100
AcDbLine
 10
101.88860278
 20
19.36741471
 30
0.0
 11
101.88538029
 21
19.40424852
 31
0.0
  0
LINE
  5
1B2
100
AcDbEntity
  8
SLD-0
  6
CONTINUOUS
 62
       3
100
AcDbLine
 10
101.88538029
 20
19.40424852
 30
0.0
 11
101.88100668
 21
19.45423819
 31
0.0
  0
LINE
  5
1B3
100
AcDbEntity
  8
SLD-0
  6
CONTINUOUS
 62
       3
100
AcDbLine
 10
101.88100668
 20
19.45423819
 30
0.0
 11
101.8756149
 21
19.51586753
 31
0.0
  0
LINE
  5
1B4
100
AcDbEntity
  8
SLD-0
  6
CONTINUOUS
 62
       3
100
AcDbLine
 10
101.8756149
 20
19.51586753
 30
0.0
 11
101.86936876
 21
19.58726086
 31
0.0
  0
LINE
  5
1B5
100
AcDbEntity
  8
SLD-0
  6
CONTINUOUS
 62
       3
100
AcDbLine
 10
101.86936876
 20
19.58726086
 30
0.0
 11
101.86245799
 21
19.66625005
 31
0.0
  0
LINE
  5
1B6
100
AcDbEntity
  8
SLD-0
  6
CONTINUOUS
 62
       3
100
AcDbLine
 10
101.86245799
 20
19.66625005
 30
0.0
 11
101.85509275
 21
19.75043602
 31
0.0
  0
LINE
  5
1B7
100
AcDbEntity
  8
SLD-0
  6
CONTINUOUS
 62
       3
100
AcDbLine
 10
101.85509275
 20
19.75043602
 30
0.0
 11
101.84749653
 21
19.83726136
 31
0.0
  0
LINE
  5
1B8
100
AcDbEntity
  8
SLD-0
  6
CONTINUOUS
 62
       3
100
AcDbLine
 10
102.61690667
 20
19.69584009
 30
0.0
 11
102.56481221
 21
19.64374563
 31
0.0
  0
LINE
  5
1B9
100
AcDbEntity
  8
SLD-0
  6
CONTINUOUS
 62
       3
100
AcDbLine
 10
102.56481221
 20
19.64374563
 30
0.0
 11
102.51430065
 21
19.59323442
 31
0.0
  0
LINE
  5
1BA
100
AcDbEntity
  8
SLD-0
  6
CONTINUOUS
 62
       3
100
AcDbLine
 10
102.51430065
 20
19.59323442
 30
0.0
 11
102.46690669
 21
19.54583942
 31
0.0
  0
LINE
  5
1BB
100
AcDbEntity
  8
SLD-0
  6
CONTINUOUS
 62
       3
100
AcDbLine
 10
102.46690669
 20
19.54583942
 30
0.0
 11
102.4240704
 21
19.50300417
 31
0.0
  0
LINE
  5
1BC
100
AcDbEntity
  8
SLD-0
  6
CONTINUOUS
 62
       3
100
AcDbLine
 10
102.4240704
 20
19.50300417
 30
0.0
 11
102.3870934
 21
19.46602693
 31
0.0
  0
LINE
  5
1BD
100
AcDbEntity
  8
SLD-0
  6
CONTINUOUS
 62
       3
100
AcDbLine
 10
102.3870934
 20
19.46602693
 30
0.0
 11
102.35709911
 21
19.43603276
 31
0.0
  0
LINE
  5
1BE
100
AcDbEntity
  8
SLD-0
  6
CONTINUOUS
 62
       3
100
AcDbLine
 10
102.35709911
 20
19.43603276
 30
0.0
 11
102.33499894
 21
19.41393247
 31
0.0
  0
LINE
  5
1BF
100
AcDbEntity
  8
SLD-0
  6
CONTINUOUS
 62
       3
100
AcDbLine
 10
102.33499894
 20
19.41393247
 30
0.0
 11
102.32146438
 21
19.40039663
 31
0.0
  0
LINE
  5
1C0
100
AcDbEntity
  8
SLD-0
  6
CONTINUOUS
 62
       3
100
AcDbLine
 10
102.32146438
 20
19.40039663
 30
0.0
 11
102.31690672
 21
19.39583874
 31
0.0
  0
LINE
  5
1C1
100
AcDbEntity
  8
SLD-0
  6
CONTINUOUS
 62
       3
100
AcDbLine
 10
103.67046009
 20
20.74939317
 30
0.0
 11
102.61690667
 21
19.69584009
 31
0.0
  0
LINE
  5
1C2
100
AcDbEntity
  8
SLD-0
  6
CONTINUOUS
 62
       3
100
AcDbLine
 10
103.75832798
 20
21.18618162
 30
0.0
 11
103.75832798
 21
20.96152511
 31
0.0
  0
ARC
  5
1C3
100
AcDbEntity
  8
SLD-0
  6
CONTINUOUS
 62
       3
100
AcDbCircle
 10
103.1318152
 20
-21.87268129
 30
0.0
 40
0.5
100
AcDbArc
 50
270.0
 51
360.0
  0
ARC
  5
1C4
100
AcDbEntity
  8
SLD-0
  6
CONTINUOUS
 62
       3
100
AcDbCircle
 10
-95.29167565
 20
27.12731693
 30
0.0
 40
0.5
100
AcDbArc
 50
90.0
 51
180.00000166
  0
ARC
  5
1C5
100
AcDbEntity
  8
SLD-0
  6
CONTINUOUS
 62
       3
100
AcDbCircle
 10
18.70832586
 20
27.12731693
 30
0.0
 40
0.5
100
AcDbArc
 50
359.99999834
 51
450.0
  0
ARC
  5
1C6
100
AcDbEntity
  8
SLD-0
  6
CONTINUOUS
 62
       3
100
AcDbCircle
 10
74.13181522
 20
-21.87268129
 30
0.0
 40
0.5
100
AcDbArc
 50
180.0
 51
269.99999771
  0
ARC
  5
1C7
100
AcDbEntity
  8
SLD-0
  6
CONTINUOUS
 62
       3
100
AcDbCircle
 10
18.70832444
 20
-21.87268179
 30
0.0
 40
0.5
100
AcDbArc
 50
270.0
 51
359.99999834
  0
ARC
  5
1C8
100
AcDbEntity
  8
SLD-0
  6
CONTINUOUS
 62
       3
100
AcDbCircle
 10
-95.29167423
 20
-21.87268179
 30
0.0
 40
0.5
100
AcDbArc
 50
180.00000166
 51
270.0
  0
ARC
  5
1C9
100
AcDbEntity
  8
SLD-0
  6
CONTINUOUS
 62
       3
100
AcDbCircle
 10
-38.2916749
 20
-6.73268211
 30
0.0
 40
17.14
100
AcDbArc
 50
246.26124165
 51
293.73875835
  0
ARC
  5
1CA
100
AcDbEntity
  8
SLD-0
  6
CONTINUOUS
 62
       3
100
AcDbCircle
 10
-38.2916749
 20
-6.73268211
 30
0.0
 40
18.64
100
AcDbArc
 50
243.21500449
 51
296.78499551
  0
ARC
  5
1CB
100
AcDbEntity
  8
SLD-0
  6
CONTINUOUS
 62
       3
100
AcDbCircle
 10
62.83440977
 20
17.4467991
 30
0.0
 40
11.86673216
100
AcDbArc
 50
161.78083874
 51
177.43765835
  0
ARC
  5
1CC
100
AcDbEntity
  8
SLD-0
  6
CONTINUOUS
 62
       3
100
AcDbCircle
 10
62.83440977
 20
17.4467991
 30
0.0
 40
11.86673216
100
AcDbArc
 50
177.43765835
 51
192.74806929
  0
ARC
  5
1CD
100
AcDbEntity
  8
SLD-0
  6
CONTINUOUS
 62
       3
100
AcDbCircle
 10
43.81832095
 20
18.34753639
 30
0.0
 40
8.30089816
100
AcDbArc
 50
333.83596459
 51
380.74148918
  0
ARC
  5
1CE
100
AcDbEntity
  8
SLD-0
  6
CONTINUOUS
 62
       3
100
AcDbCircle
 10
53.59039819
 20
2.64133467
 30
0.0
 40
1.49999999
100
AcDbArc
 50
189.10878765
 51
268.9999931
  0
ARC
  5
1CF
100
AcDbEntity
  8
SLD-0
  6
CONTINUOUS
 62
       3
100
AcDbCircle
 10
103.45832798
 20
21.18618092
 30
0.0
 40
0.3
100
AcDbArc
 50
270.99999963
 51
360.00013369
  0
ARC
  5
1D0
100
AcDbEntity
  8
SLD-0
  6
CONTINUOUS
 62
       3
100
AcDbCircle
 10
102.17548536
 20
19.53726099
 30
0.0
 40
0.20000063
100
AcDbArc
 50
270.00001432
 51
314.99981971
  0
ARC
  5
1D1
100
AcDbEntity
  8
SLD-0
  6
CONTINUOUS
 62
       3
100
AcDbCircle
 10
103.45832802
 20
20.96152511
 30
0.0
 40
0.29999996
100
AcDbArc
 50
315.00001756
 51
360.0
  0
LINE
  5
1D2
100
AcDbEntity
  8
SLD-0
  6
PHANTOM
 62
       3
100
AcDbLine
 10
53.48181639
 20
-9.07368337
 30
0.0
 11
54.68181569
 21
-9.07368337
 31
0.0
  0
LINE
  5
1D3
100
AcDbEntity
  8
SLD-0
  6
PHANTOM
 62
       3
100
AcDbLine
 10
-57.04167564
 20
-18.72573504
 30
0.0
 11
-57.04167564
 21
0.27631699
 31
0.0
  0
LINE
  5
1D4
100
AcDbEntity
  8
SLD-0
  6
PHANTOM
 62
       3
100
AcDbLine
 10
13.95832668
 20
0.27631699
 30
0.0
 11
13.95832668
 21
-18.72573504
 31
0.0
  0
LINE
  5
1D5
100
AcDbEntity
  8
SLD-0
  6
PHANTOM
 62
       3
100
AcDbLine
 10
13.95832668
 20
-18.72573504
 30
0.0
 11
-57.04167564
 21
-18.72573504
 31
0.0
  0
LINE
  5
1D6
100
AcDbEntity
  8
SLD-0
  6
PHANTOM
 62
       3
100
AcDbLine
 10
-57.04167564
 20
0.27631699
 30
0.0
 11
13.95832668
 21
0.27631699
 31
0.0
  0
LINE
  5
1D7
100
AcDbEntity
  8
SLD-0
  6
PHANTOM
 62
       3
100
AcDbLine
 10
-93.04467668
 20
-18.72563446
 30
0.0
 11
-93.04467668
 21
0.2800616
 31
0.0
  0
LINE
  5
1D8
100
AcDbEntity
  8
SLD-0
  6
PHANTOM
 62
       3
100
AcDbLine
 10
-57.54467552
 20
0.2800616
 30
0.0
 11
-57.54467552
 21
-18.72563446
 31
0.0
  0
LINE
  5
1D9
100
AcDbEntity
  8
SLD-0
  6
PHANTOM
 62
       3
100
AcDbLine
 10
-57.54467552
 20
-18.72563446
 30
0.0
 11
-93.04467668
 21
-18.72563446
 31
0.0
  0
LINE
  5
1DA
100
AcDbEntity
  8
SLD-0
  6
PHANTOM
 62
       3
100
AcDbLine
 10
-57.54467552
 20
0.2800616
 30
0.0
 11
-93.04467668
 21
0.2800616
 31
0.0
  0
LINE
  5
1DB
100
AcDbEntity
  8
SLD-0
  6
PHANTOM
 62
       3
100
AcDbLine
 10
53.37403953
 20
-18.72167266
 30
0.0
 11
51.1991078
 21
-18.72573525
 31
0.0
  0
LINE
  5
1DC
100
AcDbEntity
  8
SLD-0
  6
PHANTOM
 62
       3
100
AcDbLine
 10
71.98181747
 20
-10.27368226
 30
0.0
 11
71.98181747
 21
-18.72368187
 31
0.0
  0
LINE
  5
1DD
100
AcDbEntity
  8
SLD-0
  6
PHANTOM
 62
       3
100
AcDbLine
 10
73.63181522
 20
-10.27368226
 30
0.0
 11
71.98181747
 21
-10.27368226
 31
0.0
  0
LINE
  5
1DE
100
AcDbEntity
  8
SLD-0
  6
PHANTOM
 62
       3
100
AcDbLine
 10
71.98181747
 20
-10.27368226
 30
0.0
 11
53.3290166
 21
-10.27368279
 31
0.0
  0
LINE
  5
1DF
100
AcDbEntity
  8
SLD-0
  6
PHANTOM
 62
       3
100
AcDbLine
 10
54.68181569
 20
-9.07368337
 30
0.0
 11
54.68181639
 21
-10.27368226
 31
0.0
  0
LINE
  5
1E0
100
AcDbEntity
  8
SLD-0
  6
PHANTOM
 62
       3
100
AcDbLine
 10
52.88181451
 20
-4.42368276
 30
0.0
 11
52.88181593
 21
-8.47368291
 31
0.0
  0
LINE
  5
1E1
100
AcDbEntity
  8
SLD-0
  6
PHANTOM
 62
       3
100
AcDbLine
 10
51.15261671
 20
-3.02385557
 30
0.0
 11
52.88181451
 21
-4.42368276
 31
0.0
  0
LINE
  5
1E2
100
AcDbEntity
  8
SLD-0
  6
PHANTOM
 62
       3
100
AcDbLine
 10
50.78181583
 20
-0.2236831
 30
0.0
 11
50.78181555
 21
-2.24661108
 31
0.0
  0
LINE
  5
1E3
100
AcDbEntity
  8
SLD-0
  6
PHANTOM
 62
       3
100
AcDbLine
 10
73.63181521
 20
0.27631677
 30
0.0
 11
51.28181568
 21
0.27631677
 31
0.0
  0
LINE
  5
1E4
100
AcDbEntity
  8
SLD-0
  6
PHANTOM
 62
       3
100
AcDbLine
 10
67.08181648
 20
-10.27368226
 30
0.0
 11
67.08181594
 21
-17.62368256
 31
0.0
  0
LINE
  5
1E5
100
AcDbEntity
  8
SLD-0
  6
PHANTOM
 62
       3
100
AcDbLine
 10
53.3290166
 20
-10.27368279
 30
0.0
 11
53.37403953
 21
-18.72167266
 31
0.0
  0
LINE
  5
1E6
100
AcDbEntity
  8
SLD-0
  6
PHANTOM
 62
       3
100
AcDbLine
 10
73.63181522
 20
0.2800616
 30
0.0
 11
51.28181555
 21
0.2800616
 31
0.0
  0
ARC
  5
1E7
100
AcDbEntity
  8
SLD-0
  6
PHANTOM
 62
       3
100
AcDbCircle
 10
83.13482194
 20
-9.91607516
 30
0.0
 40
33.5
100
AcDbArc
 50
167.88334717
 51
194.58452094
  0
ARC
  5
1E8
100
AcDbEntity
  8
SLD-0
  6
PHANTOM
 62
       3
100
AcDbCircle
 10
51.19817303
 20
-18.2257363
 30
0.0
 40
0.49999982
100
AcDbArc
 50
194.58452185
 51
270.10711685
  0
ARC
  5
1E9
100
AcDbEntity
  8
SLD-0
  6
PHANTOM
 62
       3
100
AcDbCircle
 10
83.13482194
 20
-9.91607516
 30
0.0
 40
33.5
100
AcDbArc
 50
164.96363983
 51
167.88334717
  0
ARC
  5
1EA
100
AcDbEntity
  8
SLD-0
  6
PHANTOM
 62
       3
100
AcDbCircle
 10
53.48181639
 20
-8.47368291
 30
0.0
 40
0.60000046
100
AcDbArc
 50
180.0
 51
270.0
  0
ARC
  5
1EB
100
AcDbEntity
  8
SLD-0
  6
PHANTOM
 62
       3
100
AcDbCircle
 10
51.78181578
 20
-2.24661108
 30
0.0
 40
1.00000023
100
AcDbArc
 50
180.0
 51
231.00895477
  0
ARC
  5
1EC
100
AcDbEntity
  8
SLD-0
  6
PHANTOM
 62
       3
100
AcDbCircle
 10
51.28181568
 20
-0.22368309
 30
0.0
 40
0.49999985
100
AcDbArc
 50
90.0
 51
180.00000115
  0
ARC
  5
1ED
100
AcDbEntity
  8
SLD-0
  6
PHANTOM
 62
       3
100
AcDbCircle
 10
51.28181555
 20
-0.2199384
 30
0.0
 40
0.5
100
AcDbArc
 50
90.0
 51
180.0
  0
LINE
  5
1EE
100
AcDbEntity
  8
SLD-0
  6
PHANTOM2
 62
       3
100
AcDbLine
 10
73.63181522
 20
-18.72368187
 30
0.0
 11
71.98181747
 21
-18.72368187
 31
0.0
  0
LINE
  5
1EF
100
AcDbEntity
  8
SLD-0
  6
PHANTOM2
 62
       3
100
AcDbLine
 10
68.18181594
 20
-18.72368256
 30
0.0
 11
71.98181747
 21
-18.72368187
 31
0.0
  0
ARC
  5
1F0
100
AcDbEntity
  8
SLD-0
  6
PHANTOM2
 62
       3
100
AcDbCircle
 10
68.18181594
 20
-17.62368256
 30
0.0
 40
1.1
100
AcDbArc
 50
180.0
 51
270.0
  0
LINE
  5
1F1
100
AcDbEntity
  8
SLD-0
  6
CENTERX2
 62
       3
100
AcDbLine
 10
24.98758542
 20
2.62731821
 30
0.0
 11
-103.75832798
 21
2.62731821
 31
0.0
  0
LINE
  5
1F2
100
AcDbEntity
  8
SLD-0
  6
CENTERX2
 62
       3
100
AcDbLine
 10
48.88473872
 20
2.62731871
 30
0.0
 11
103.1318152
 21
2.62731871
 31
0.0
  0
LINE
  5
1F3
100
AcDbEntity
  8
SLD-0
  6
CENTERX2
 62
       3
100
AcDbLine
 10
-38.29167398
 20
32.63455001
 30
0.0
 11
-38.29167587
 21
-32.63455001
 31
0.0
  0
LINE
  5
1F4
100
AcDbEntity
  8
0
  6
PHANTOM2
 62
       3
100
AcDbLine
 10
78.15397641
 20
-29.28563538
 30
0.0
 11
79.7965961
 21
-29.17463303
 31
0.0
  0
LINE
  5
1F5
100
AcDbEntity
  8
0
  6
PHANTOM2
 62
       3
100
AcDbLine
 10
83.93078913
 20
-27.79562044
 30
0.0
 11
83.89559883
 21
-27.60198623
 31
0.0
  0
LINE
  5
1F6
100
AcDbEntity
  8
0
  6
PHANTOM2
 62
       3
100
AcDbLine
 10
83.78659092
 20
-27.40344121
 30
0.0
 11
83.59928818
 21
-27.2023495
 31
0.0
  0
LINE
  5
1F7
100
AcDbEntity
  8
0
  6
PHANTOM2
 62
       3
100
AcDbLine
 10
77.59758058
 20
-25.74013207
 30
0.0
 11
77.16241796
 21
-25.74819004
 31
0.0
  0
LINE
  5
1F8
100
AcDbEntity
  8
0
  6
PHANTOM2
 62
       3
100
AcDbLine
 10
72.29141005
 20
-24.48552974
 30
0.0
 11
72.18716142
 21
-24.32954528
 31
0.0
  0
LINE
  5
1F9
100
AcDbEntity
  8
0
  6
PHANTOM2
 62
       3
100
AcDbLine
 10
83.79762589
 20
-28.15869992
 30
0.0
 11
83.89663907
 21
-27.98197972
 31
0.0
  0
LINE
  5
1FA
100
AcDbEntity
  8
0
  6
PHANTOM2
 62
       3
100
AcDbLine
 10
75.65551844
 20
-25.85351525
 30
0.0
 11
75.12434468
 21
-25.9122859
 31
0.0
  0
LINE
  5
1FB
100
AcDbEntity
  8
0
  6
PHANTOM2
 62
       3
100
AcDbLine
 10
74.36756399
 20
-25.8851296
 30
0.0
 11
74.03102597
 21
-25.80713115
 31
0.0
  0
LINE
  5
1FC
100
AcDbEntity
  8
0
  6
PHANTOM2
 62
       3
100
AcDbLine
 10
80.41320642
 20
-26.0330584
 30
0.0
 11
80.17299598
 21
-25.98299209
 31
0.0
  0
LINE
  5
1FD
100
AcDbEntity
  8
0
  6
PHANTOM2
 62
       3
100
AcDbLine
 10
78.7310747
 20
-25.7796499
 30
0.0
 11
78.37980767
 21
-25.75710911
 31
0.0
  0
LINE
  5
1FE
100
AcDbEntity
  8
0
  6
PHANTOM2
 62
       3
100
AcDbLine
 10
81.68253596
 20
-28.94632633
 30
0.0
 11
82.4863165
 21
-28.81497021
 31
0.0
  0
LINE
  5
1FF
100
AcDbEntity
  8
0
  6
PHANTOM2
 62
       3
100
AcDbLine
 10
83.59928818
 20
-27.2023495
 30
0.0
 11
83.32921336
 21
-27.00107526
 31
0.0
  0
LINE
  5
200
100
AcDbEntity
  8
0
  6
PHANTOM2
 62
       3
100
AcDbLine
 10
82.97188921
 20
-26.8019826
 30
0.0
 11
82.52283851
 21
-26.60743565
 31
0.0
  0
LINE
  5
201
100
AcDbEntity
  8
0
  6
PHANTOM2
 62
       3
100
AcDbLine
 10
71.75833658
 20
-27.64911855
 30
0.0
 11
72.05865743
 21
-27.96702471
 31
0.0
  0
LINE
  5
202
100
AcDbEntity
  8
0
  6
PHANTOM2
 62
       3
100
AcDbLine
 10
79.7965961
 20
-29.17463303
 30
0.0
 11
81.68253596
 21
-28.94632633
 31
0.0
  0
LINE
  5
203
100
AcDbEntity
  8
0
  6
PHANTOM2
 62
       3
100
AcDbLine
 10
82.84248671
 20
-28.72190735
 30
0.0
 11
83.15618
 21
-28.60738476
 31
0.0
  0
LINE
  5
204
100
AcDbEntity
  8
0
  6
PHANTOM2
 62
       3
100
AcDbLine
 10
73.00320303
 20
-28.57645467
 30
0.0
 11
73.68099792
 21
-28.83967144
 31
0.0
  0
LINE
  5
205
100
AcDbEntity
  8
0
  6
PHANTOM2
 62
       3
100
AcDbLine
 10
83.15618
 20
-28.60738476
 30
0.0
 11
83.42291911
 21
-28.47376657
 31
0.0
  0
LINE
  5
206
100
AcDbEntity
  8
0
  6
PHANTOM2
 62
       3
100
AcDbLine
 10
80.17299598
 20
-25.98299209
 30
0.0
 11
79.9195293
 21
-25.93439559
 31
0.0
  0
LINE
  5
207
100
AcDbEntity
  8
0
  6
PHANTOM2
 62
       3
100
AcDbLine
 10
77.16241796
 20
-25.74819004
 30
0.0
 11
76.69508759
 21
-25.76894182
 31
0.0
  0
LINE
  5
208
100
AcDbEntity
  8
0
  6
PHANTOM2
 62
       3
100
AcDbLine
 10
75.12434468
 20
-25.9122859
 30
0.0
 11
74.73187284
 21
-25.92232379
 31
0.0
  0
LINE
  5
209
100
AcDbEntity
  8
0
  6
PHANTOM2
 62
       3
100
AcDbLine
 10
74.03102597
 20
-25.80713115
 30
0.0
 11
73.72186659
 21
-25.69475628
 31
0.0
  0
LINE
  5
20A
100
AcDbEntity
  8
0
  6
PHANTOM2
 62
       3
100
AcDbLine
 10
72.10676184
 20
-24.19703484
 30
0.0
 11
72.04981911
 21
-24.09442626
 31
0.0
  0
LINE
  5
20B
100
AcDbEntity
  8
0
  6
PHANTOM2
 62
       3
100
AcDbLine
 10
83.89663907
 20
-27.98197972
 30
0.0
 11
83.93078913
 21
-27.79562044
 31
0.0
  0
LINE
  5
20C
100
AcDbEntity
  8
0
  6
PHANTOM2
 62
       3
100
AcDbLine
 10
79.65070512
 20
-25.88851601
 30
0.0
 11
79.36442215
 21
-25.84660046
 31
0.0
  0
LINE
  5
20D
100
AcDbEntity
  8
0
  6
PHANTOM2
 62
       3
100
AcDbLine
 10
73.18411506
 20
-25.39258855
 30
0.0
 11
72.95473855
 21
-25.21565135
 31
0.0
  0
LINE
  5
20E
100
AcDbEntity
  8
0
  6
PHANTOM2
 62
       3
100
AcDbLine
 10
72.46801788
 20
-28.28085458
 30
0.0
 11
73.00320303
 21
-28.57645467
 31
0.0
  0
LINE
  5
20F
100
AcDbEntity
  8
0
  6
PHANTOM2
 62
       3
100
AcDbLine
 10
78.37980767
 20
-25.75710911
 30
0.0
 11
78.00267672
 21
-25.7435208
 31
0.0
  0
LINE
  5
210
100
AcDbEntity
  8
0
  6
PHANTOM2
 62
       3
100
AcDbLine
 10
73.72186659
 20
-25.69475628
 30
0.0
 11
73.43969368
 21
-25.5544328
 31
0.0
  0
LINE
  5
211
100
AcDbEntity
  8
0
  6
PHANTOM2
 62
       3
100
AcDbLine
 10
67.62847279
 20
-26.94609029
 30
0.0
 11
71.86504437
 21
-26.94609029
 31
0.0
  0
LINE
  5
212
100
AcDbEntity
  8
0
  6
PHANTOM2
 62
       3
100
AcDbLine
 10
73.68099792
 20
-28.83967144
 30
0.0
 11
74.51818764
 21
-29.05635141
 31
0.0
  0
LINE
  5
213
100
AcDbEntity
  8
0
  6
PHANTOM2
 62
       3
100
AcDbLine
 10
82.4863165
 20
-28.81497021
 30
0.0
 11
82.84248671
 21
-28.72190735
 31
0.0
  0
LINE
  5
214
100
AcDbEntity
  8
0
  6
PHANTOM2
 62
       3
100
AcDbLine
 10
76.19348817
 20
-25.80363452
 30
0.0
 11
75.65551844
 21
-25.85351525
 31
0.0
  0
LINE
  5
215
100
AcDbEntity
  8
0
  6
PHANTOM2
 62
       3
100
AcDbLine
 10
71.41767348
 20
-27.05769139
 30
0.0
 11
71.55027029
 21
-27.34128961
 31
0.0
  0
LINE
  5
216
100
AcDbEntity
  8
0
  6
PHANTOM2
 62
       3
100
AcDbLine
 10
71.55027029
 20
-27.34128961
 30
0.0
 11
71.75833658
 21
-27.64911855
 31
0.0
  0
LINE
  5
217
100
AcDbEntity
  8
0
  6
PHANTOM2
 62
       3
100
AcDbLine
 10
83.42291911
 20
-28.47376657
 30
0.0
 11
83.63822683
 21
-28.32341691
 31
0.0
  0
LINE
  5
218
100
AcDbEntity
  8
0
  6
PHANTOM2
 62
       3
100
AcDbLine
 10
81.33164848
 20
-26.24143544
 30
0.0
 11
80.86226375
 21
-26.132612
 31
0.0
  0
LINE
  5
219
100
AcDbEntity
  8
0
  6
PHANTOM2
 62
       3
100
AcDbLine
 10
79.9195293
 20
-25.93439559
 30
0.0
 11
79.65070512
 21
-25.88851601
 31
0.0
  0
LINE
  5
21A
100
AcDbEntity
  8
0
  6
PHANTOM2
 62
       3
100
AcDbLine
 10
79.36442215
 20
-25.84660046
 30
0.0
 11
79.0585791
 21
-25.80989605
 31
0.0
  0
LINE
  5
21B
100
AcDbEntity
  8
0
  6
PHANTOM2
 62
       3
100
AcDbLine
 10
72.18716142
 20
-24.32954528
 30
0.0
 11
72.10676184
 21
-24.19703484
 31
0.0
  0
LINE
  5
21C
100
AcDbEntity
  8
0
  6
PHANTOM2
 62
       3
100
AcDbLine
 10
67.62847279
 20
-18.73814209
 30
0.0
 11
67.62847279
 21
-26.94609029
 31
0.0
  0
LINE
  5
21D
100
AcDbEntity
  8
0
  6
PHANTOM2
 62
       3
100
AcDbLine
 10
83.89559883
 20
-27.60198623
 30
0.0
 11
83.78659092
 21
-27.40344121
 31
0.0
  0
LINE
  5
21E
100
AcDbEntity
  8
0
  6
PHANTOM2
 62
       3
100
AcDbLine
 10
83.32921336
 20
-27.00107526
 30
0.0
 11
82.97188921
 21
-26.8019826
 31
0.0
  0
LINE
  5
21F
100
AcDbEntity
  8
0
  6
PHANTOM2
 62
       3
100
AcDbLine
 10
81.97758402
 20
-26.41979856
 30
0.0
 11
81.33164848
 21
-26.24143544
 31
0.0
  0
LINE
  5
220
100
AcDbEntity
  8
0
  6
PHANTOM2
 62
       3
100
AcDbLine
 10
78.00267672
 20
-25.7435208
 30
0.0
 11
77.59758058
 21
-25.74013207
 31
0.0
  0
LINE
  5
221
100
AcDbEntity
  8
0
  6
PHANTOM2
 62
       3
100
AcDbLine
 10
73.43969368
 20
-25.5544328
 30
0.0
 11
73.18411506
 21
-25.39258855
 31
0.0
  0
LINE
  5
222
100
AcDbEntity
  8
0
  6
PHANTOM2
 62
       3
100
AcDbLine
 10
72.04981911
 20
-24.09442626
 30
0.0
 11
72.01594108
 21
-24.02814737
 31
0.0
  0
LINE
  5
223
100
AcDbEntity
  8
0
  6
PHANTOM2
 62
       3
100
AcDbLine
 10
72.05865743
 20
-27.96702471
 30
0.0
 11
72.46801788
 21
-28.28085458
 31
0.0
  0
LINE
  5
224
100
AcDbEntity
  8
0
  6
PHANTOM2
 62
       3
100
AcDbLine
 10
75.53155725
 20
-29.21234106
 30
0.0
 11
76.73789182
 21
-29.29348689
 31
0.0
  0
LINE
  5
225
100
AcDbEntity
  8
0
  6
PHANTOM2
 62
       3
100
AcDbLine
 10
74.73187284
 20
-25.92232379
 30
0.0
 11
74.36756399
 21
-25.8851296
 31
0.0
  0
LINE
  5
226
100
AcDbEntity
  8
0
  6
PHANTOM2
 62
       3
100
AcDbLine
 10
72.57302315
 20
-24.84220946
 30
0.0
 11
72.4198999
 21
-24.65856042
 31
0.0
  0
LINE
  5
227
100
AcDbEntity
  8
0
  6
PHANTOM2
 62
       3
100
AcDbLine
 10
74.51818764
 20
-29.05635141
 30
0.0
 11
75.53155725
 21
-29.21234106
 31
0.0
  0
LINE
  5
228
100
AcDbEntity
  8
0
  6
PHANTOM2
 62
       3
100
AcDbLine
 10
76.69508759
 20
-25.76894182
 30
0.0
 11
76.19348817
 21
-25.80363452
 31
0.0
  0
LINE
  5
229
100
AcDbEntity
  8
0
  6
PHANTOM2
 62
       3
100
AcDbLine
 10
72.4198999
 20
-24.65856042
 30
0.0
 11
72.29141005
 21
-24.48552974
 31
0.0
  0
LINE
  5
22A
100
AcDbEntity
  8
0
  6
PHANTOM2
 62
       3
100
AcDbLine
 10
71.86504437
 20
-26.94609029
 30
0.0
 11
71.86504437
 21
-18.72941139
 31
0.0
  0
LINE
  5
22B
100
AcDbEntity
  8
0
  6
PHANTOM2
 62
       3
100
AcDbLine
 10
83.63822683
 20
-28.32341691
 30
0.0
 11
83.79762589
 21
-28.15869992
 31
0.0
  0
LINE
  5
22C
100
AcDbEntity
  8
0
  6
PHANTOM2
 62
       3
100
AcDbLine
 10
82.52283851
 20
-26.60743565
 30
0.0
 11
81.97758402
 21
-26.41979856
 31
0.0
  0
LINE
  5
22D
100
AcDbEntity
  8
0
  6
PHANTOM2
 62
       3
100
AcDbLine
 10
80.64226192
 20
-26.08334741
 30
0.0
 11
80.41320642
 21
-26.0330584
 31
0.0
  0
LINE
  5
22E
100
AcDbEntity
  8
0
  6
PHANTOM2
 62
       3
100
AcDbLine
 10
80.86226375
 20
-26.132612
 30
0.0
 11
80.64226192
 21
-26.08334741
 31
0.0
  0
LINE
  5
22F
100
AcDbEntity
  8
0
  6
PHANTOM2
 62
       3
100
AcDbLine
 10
79.0585791
 20
-25.80989605
 30
0.0
 11
78.7310747
 21
-25.7796499
 31
0.0
  0
LINE
  5
230
100
AcDbEntity
  8
0
  6
PHANTOM2
 62
       3
100
AcDbLine
 10
72.01594108
 20
-24.02814737
 30
0.0
 11
72.00473555
 21
-24.00462601
 31
0.0
  0
LINE
  5
231
100
AcDbEntity
  8
0
  6
PHANTOM2
 62
       3
100
AcDbLine
 10
76.73789182
 20
-29.29348689
 30
0.0
 11
78.15397641
 21
-29.28563538
 31
0.0
  0
LINE
  5
232
100
AcDbEntity
  8
0
  6
PHANTOM2
 62
       3
100
AcDbLine
 10
72.95473855
 20
-25.21565135
 30
0.0
 11
72.75117197
 21
-25.03004905
 31
0.0
  0
LINE
  5
233
100
AcDbEntity
  8
0
  6
PHANTOM2
 62
       3
100
AcDbLine
 10
72.75117197
 20
-25.03004905
 30
0.0
 11
72.57302315
 21
-24.84220946
 31
0.0
  0
INSERT
  5
234
100
AcDbEntity
  8
0
  6
CONTINUOUS
100
AcDbBlockReference
  2
GROUP_1
 10
0.0
 20
0.0
 30
0.0
  0
INSERT
  5
235
100
AcDbEntity
  8
0
  6
CONTINUOUS
100
AcDbBlockReference
  2
GROUP_2
 10
0.0
 20
0.0
 30
0.0
  0
INSERT
  5
236
100
AcDbEntity
  8
0
  6
CONTINUOUS
100
AcDbBlockReference
  2
GROUP_3
 10
0.0
 20
0.0
 30
0.0
  0
INSERT
  5
237
100
AcDbEntity
  8
0
  6
CONTINUOUS
100
AcDbBlockReference
  2
GROUP_4
 10
0.0
 20
0.0
 30
0.0
  0
INSERT
  5
238
100
AcDbEntity
  8
0
  6
CONTINUOUS
100
AcDbBlockReference
  2
GROUP_5
 10
0.0
 20
0.0
 30
0.0
  0
INSERT
  5
239
100
AcDbEntity
  8
0
  6
CONTINUOUS
100
AcDbBlockReference
  2
GROUP_6
 10
0.0
 20
0.0
 30
0.0
  0
INSERT
  5
23A
100
AcDbEntity
  8
0
  6
CONTINUOUS
100
AcDbBlockReference
  2
GROUP_7
 10
0.0
 20
0.0
 30
0.0
  0
INSERT
  5
23B
100
AcDbEntity
  8
0
  6
CONTINUOUS
100
AcDbBlockReference
  2
GROUP_8
 10
0.0
 20
0.0
 30
0.0
  0
INSERT
  5
23C
100
AcDbEntity
  8
0
  6
CONTINUOUS
100
AcDbBlockReference
  2
GROUP_9
 10
0.0
 20
0.0
 30
0.0
  0
TEXT
  5
23D
100
AcDbEntity
  8
0
 62
       3
100
AcDbText
 10
73.92475697
 20
-69.86891667
 30
0.0
 40
4.53779063
  1
000
 41
0.8
 72
       5
 11
84.81545447
 21
-69.86891667
 31
0.0
100
AcDbText
  0
ENDSEC
  0
SECTION
  2
OBJECTS
  0
DICTIONARY
  5
19
100
AcDbDictionary
  3
ACAD_GROUP
350
1A
  3
ACAD_MLINESTYLE
350
1B
  0
DICTIONARY
  5
1A
102
{ACAD_REACTORS
330
19
102
}
100
AcDbDictionary
  0
DICTIONARY
  5
1B
102
{ACAD_REACTORS
330
19
102
}
100
AcDbDictionary
  3
STANDARD
350
1C
  0
MLINESTYLE
  5
1C
102
{ACAD_REACTORS
330
1B
102
}
100
AcDbMlineStyle
  2
STANDARD
 70
       0
  3

 62
       0
 51
90.0
 52
90.0
 71
       2
 49
0.5
 62
     256
  6
BYLAYER
 49
-0.5
 62
     256
  6
BYLAYER
  0
ENDSEC
  0
EOF
