  0
SECTION
  2
HEADER
  9
$ACADVER
  1
AC1014
  9
$ACADMAINTVER
 70
       0
  9
$DWGCODEPAGE
  3
ANSI_932
  9
$INSBASE
 10
0.0
 20
0.0
 30
0.0
  9
$EXTMIN
 10
-107.9086611
 20
-51.06951201
 30
0.0
  9
$EXTMAX
 10
107.9086611
 20
48.56951201
 30
0.0
  9
$LIMMIN
 10
-114.65295242
 20
-54.18323151
  9
$LIMMAX
 10
114.65295242
 20
51.68323151
  9
$ORTHOMODE
 70
       0
  9
$REGENMODE
 70
       1
  9
$FILLMODE
 70
       1
  9
$QTEXTMODE
 70
       0
  9
$MIRRTEXT
 70
       1
  9
$DRAGMODE
 70
       2
  9
$LTSCALE
 40
1.0
  9
$OSMODE
 70
       0
  9
$ATTMODE
 70
       1
  9
$TEXTSIZE
 40
0.2
  9
$TRACEWID
 40
0.05
  9
$TEXTSTYLE
  7
STANDARD
  9
$CLAYER
  8
0
  9
$CELTYPE
  6
CONTINUOUS
  9
$CECOLOR
 62
     256
  9
$CELTSCALE
 40
1.0
  9
$DELOBJ
 70
       1
  9
$DISPSILH
 70
       0
  9
$DIMSCALE
 40
1.0
  9
$DIMASZ
 40
0.18
  9
$DIMEXO
 40
0.0625
  9
$DIMDLI
 40
0.38
  9
$DIMRND
 40
0.0
  9
$DIMDLE
 40
0.0
  9
$DIMEXE
 40
0.18
  9
$DIMTP
 40
0.0
  9
$DIMTM
 40
0.0
  9
$DIMTXT
 40
0.18
  9
$DIMCEN
 40
0.09
  9
$DIMTSZ
 40
0.0
  9
$DIMTOL
 70
       0
  9
$DIMLIM
 70
       0
  9
$DIMTIH
 70
       1
  9
$DIMTOH
 70
       1
  9
$DIMSE1
 70
       0
  9
$DIMSE2
 70
       0
  9
$DIMTAD
 70
       0
  9
$DIMZIN
 70
       0
  9
$DIMBLK
  1

  9
$DIMASO
 70
       1
  9
$DIMSHO
 70
       1
  9
$DIMPOST
  1

  9
$DIMAPOST
  1

  9
$DIMALT
 70
       0
  9
$DIMALTD
 70
       2
  9
$DIMALTF
 40
25.4
  9
$DIMLFAC
 40
1.0
  9
$DIMTOFL
 70
       0
  9
$DIMTVP
 40
0.0
  9
$DIMTIX
 70
       0
  9
$DIMSOXD
 70
       0
  9
$DIMSAH
 70
       0
  9
$DIMBLK1
  1

  9
$DIMBLK2
  1

  9
$DIMSTYLE
  2
STANDARD
  9
$DIMCLRD
 70
       0
  9
$DIMCLRE
 70
       0
  9
$DIMCLRT
 70
       0
  9
$DIMTFAC
 40
1.0
  9
$DIMGAP
 40
0.09
  9
$DIMJUST
 70
       0
  9
$DIMSD1
 70
       0
  9
$DIMSD2
 70
       0
  9
$DIMTOLJ
 70
       1
  9
$DIMTZIN
 70
       0
  9
$DIMALTZ
 70
       0
  9
$DIMALTTZ
 70
       0
  9
$DIMFIT
 70
       3
  9
$DIMUPT
 70
       0
  9
$DIMUNIT
 70
       2
  9
$DIMDEC
 70
       4
  9
$DIMTDEC
 70
       4
  9
$DIMALTU
 70
       2
  9
$DIMALTTD
 70
       2
  9
$DIMTXSTY
  7
STANDARD
  9
$DIMAUNIT
 70
       0
  9
$LUNITS
 70
       2
  9
$LUPREC
 70
       4
  9
$SKETCHINC
 40
0.1
  9
$FILLETRAD
 40
0.0
  9
$AUNITS
 70
       0
  9
$AUPREC
 70
       0
  9
$MENU
  1
acad
  9
$ELEVATION
 40
0.0
  9
$PELEVATION
 40
0.0
  9
$THICKNESS
 40
0.0
  9
$LIMCHECK
 70
       0
  9
$BLIPMODE
 70
       1
  9
$CHAMFERA
 40
0.0
  9
$CHAMFERB
 40
0.0
  9
$CHAMFERC
 40
0.0
  9
$CHAMFERD
 40
0.0
  9
$SKPOLY
 70
       0
  9
$TDCREATE
 40
0.000000000
  9
$TDUPDATE
 40
0.000000000
  9
$TDINDWG
 40
0.0000000000
  9
$TDUSRTIMER
 40
0.0000000000
  9
$USRTIMER
 70
       1
  9
$ANGBASE
 50
0.0
  9
$ANGDIR
 70
       0
  9
$PDMODE
 70
       0
  9
$PDSIZE
 40
1.0
  9
$PLINEWID
 40
0.0
  9
$COORDS
 70
       1
  9
$SPLFRAME
 70
       0
  9
$SPLINETYPE
 70
       6
  9
$SPLINESEGS
 70
       8
  9
$ATTDIA
 70
       0
  9
$ATTREQ
 70
       1
  9
$HANDLING
 70
       1
  9
$HANDSEED
  5
225
  9
$SURFTAB1
 70
       6
  9
$SURFTAB2
 70
       6
  9
$SURFTYPE
 70
       6
  9
$SURFU
 70
       6
  9
$SURFV
 70
       6
  9
$UCSNAME
  2

  9
$UCSORG
 10
0.0
 20
0.0
 30
0.0
  9
$UCSXDIR
 10
1.0
 20
0.0
 30
0.0
  9
$UCSYDIR
 10
0.0
 20
1.0
 30
0.0
  9
$PUCSNAME
  2

  9
$PUCSORG
 10
0.0
 20
0.0
 30
0.0
  9
$PUCSXDIR
 10
1.0
 20
0.0
 30
0.0
  9
$PUCSYDIR
 10
0.0
 20
1.0
 30
0.0
  9
$USERI1
 70
       0
  9
$USERI2
 70
       0
  9
$USERI3
 70
       0
  9
$USERI4
 70
       0
  9
$USERI5
 70
       0
  9
$USERR1
 40
0.0
  9
$USERR2
 40
0.0
  9
$USERR3
 40
0.0
  9
$USERR4
 40
0.0
  9
$USERR5
 40
0.0
  9
$WORLDVIEW
 70
       1
  9
$SHADEDGE
 70
       3
  9
$SHADEDIF
 70
      70
  9
$TILEMODE
 70
       1
  9
$MAXACTVP
 70
      16
  9
$PINSBASE
 10
0.0
 20
0.0
 30
0.0
  9
$PLIMCHECK
 70
       0
  9
$PEXTMIN
 10
1.00000000E+20
 20
1.00000000E+20
 30
1.00000000E+20
  9
$PEXTMAX
 10
-1.00000000E+20
 20
-1.00000000E+20
 30
-1.00000000E+20
  9
$PLIMMIN
 10
0.0
 20
0.0
  9
$PLIMMAX
 10
12.0
 20
9.0
  9
$UNITMODE
 70
       0
  9
$VISRETAIN
 70
       0
  9
$PLINEGEN
 70
       1
  9
$PSLTSCALE
 70
       0
  9
$TREEDEPTH
 70
    3020
  9
$PICKSTYLE
 70
       1
  9
$CMLSTYLE
  2
STANDARD
  9
$CMLJUST
 70
       0
  9
$CMLSCALE
 40
1.0
  9
$PROXYGRAPHICS
 70
       0
  9
$MEASUREMENT
 70
       0
  0
ENDSEC
  0
SECTION
  2
CLASSES
  0
CLASS
  1
LWPOLYLINE
  2
AcDbPolyline
  3
"AutoCAD"
 90
        0
280
       0
281
       1
  0
CLASS
  1
IMAGE
  2
AcDbRasterImage
  3
ISM
 90
      127
280
       0
281
       1
  0
CLASS
  1
OLE2FRAME
  2
AcDbOle2Frame
  3
""
 90
        0
280
       0
281
       1
  0
CLASS
  1
HATCH
  2
AcDbHatch
  3
"ACAD_SEDONA"
 90
        0
280
       0
281
       1
  0
CLASS
  1
DICTIONARYVAR
  2
AcDbDictionaryVar
  3
"AutoCAD"
 90
        0
280
       0
281
       0
  0
CLASS
  1
RASTERVARIABLES
  2
AcDbRasterVariables
  3
ISM
 90
        0
280
       0
281
       0
  0
CLASS
  1
IMAGEDEF
  2
AcDbRasterImageDef
  3
ISM
 90
        0
280
       0
281
       0
  0
CLASS
  1
IMAGEDEF_REACTOR
  2
AcDbRasterImageDefReactor
  3
ISM
 90
        1
280
       0
281
       0
  0
CLASS
  1
IDBUFFER
  2
AcDbIdBuffer
  3
"Acad"
 90
        0
280
       0
281
       0
  0
CLASS
  1
SPATIAL_FILTER
  2
AcDbSpatialFilter
  3
"Acad"
 90
        0
280
       0
281
       0
  0
CLASS
  1
XRECORD
  2
AcDbXrecord
  3
"<Built In>"
 90
        0
280
       0
281
       0
  0
CLASS
  1
SORTENTSTABLE
  2
AcDbSortentsTable
  3
"AutoCAD"
 90
        0
280
       0
281
       0
  0
CLASS
  1
LAYER_INDEX
  2
AcDbLayerIndex
  3
"Acad"
 90
        0
280
       0
281
       0
  0
CLASS
  1
SPATIAL_INDEX
  2
AcDbSpatialIndex
  3
"Acad"
 90
        0
280
       0
281
       0
  0
CLASS
  1
OBJECT_PTR
  2
CAseDLPNTableRecord
  3
"ASE-LPNTableRecord"
 90
        1
280
       0
281
       0
  0
CLASS
  1
LAYOUT
  2
AcDbLayout
  3
"AutoCAD 2000"
 90
        1
280
       0
281
       0
  0
CLASS
  1
PLOTSETTINGS
  2
AcDbPlotSettings
  3
"AutoCAD 2000"
 90
        1
280
       0
281
       0
  0
CLASS
  1
ACDBDICTIONARYWDFLT
  2
AcDbDictionaryWithDefault
  3
"AutoCAD 2000"
 90
        1
280
       0
281
       0
  0
CLASS
  1
ACDBPLACEHOLDER
  2
AcDbPlaceHolder
  3
"AutoCAD 2000"
 90
        1
280
       0
281
       0
  0
CLASS
  1
VBA_PROJECT
  2
AcDbVbaProject
  3
"acadvba"
 90
        1
280
       0
281
       0
  0
CLASS
  1
WIPEOUT
  2
AcDbWipeout
  3
WipeOut|AutoCAD Express Tool|expresstools@autodesk.com
 90
      127
280
       0
281
       1
  0
CLASS
  1
WIPEOUTVARIABLES
  2
AcDbWipeoutVariables
  3
WipeOut|AutoCAD Express Tool|expresstools@autodesk.com
 90
        0
280
       0
281
       0
  0
CLASS
  1
RTEXT
  2
RText
  3
RText|AutoCAD Express Tool|expresstools@autodesk.com
 90
        0
280
       0
281
       1
  0
CLASS
  1
ARCALIGNEDTEXT
  2
AcDbArcAlignedText
  3
ATEXT|AutoCAD Express Tool|expresstools@autodesk.com
 90
        0
280
       0
281
       1
  0
ENDSEC
  0
SECTION
  2
TABLES
  0
TABLE
  2
VPORT
  5
7
100
AcDbSymbolTable
 70
       1
  0
VPORT
  5
15
100
AcDbSymbolTableRecord
100
AcDbViewportTableRecord
  2
*ACTIVE
 70
       0
 10
0.0
 20
0.0
 11
1.0
 21
1.0
 12
0.0
 22
-1.25
 13
0.0
 23
0.0
 14
1.0
 24
1.0
 15
0.0
 25
0.0
 16
0.0
 26
0.0
 36
1.0
 17
0.0
 27
0.0
 37
0.0
 40
105.86646302
 41
2.16599193
 42
50.0
 43
0.0
 44
0.0
 50
0.0
 51
0.0
 71
       0
 72
     100
 73
       1
 74
       1
 75
       0
 76
       0
 77
       0
 78
       0
  0
ENDTAB
  0
TABLE
  2
LTYPE
  5
4
100
AcDbSymbolTable
 70
      30
  0
LTYPE
  5
11
100
AcDbSymbolTableRecord
100
AcDbLinetypeTableRecord
  2
BYBLOCK
 70
      64
  3

 72
      65
 73
       0
 40
0.0
  0
LTYPE
  5
12
100
AcDbSymbolTableRecord
100
AcDbLinetypeTableRecord
  2
BYLAYER
 70
      64
  3

 72
      65
 73
       0
 40
0.0
  0
LTYPE
  5
13
100
AcDbSymbolTableRecord
100
AcDbLinetypeTableRecord
  2
CONTINUOUS
 70
      64
  3
Solid line
 72
      65
 73
       0
 40
0.0
  0
LTYPE
  5
1D
100
AcDbSymbolTableRecord
100
AcDbLinetypeTableRecord
  2
HIDDENX2
 70
      64
  3
CADPAC LINETYPE
 72
      65
 73
       2
 40
8.63269289
 49
6.47451967
 74
       0
 49
-2.15817322
 74
       0
  0
LTYPE
  5
1E
100
AcDbSymbolTableRecord
100
AcDbLinetypeTableRecord
  2
HIDDEN
 70
      64
  3
CADPAC LINETYPE
 72
      65
 73
       2
 40
6.47451967
 49
4.31634644
 74
       0
 49
-2.15817322
 74
       0
  0
LTYPE
  5
1F
100
AcDbSymbolTableRecord
100
AcDbLinetypeTableRecord
  2
HIDDEN2
 70
      64
  3
CADPAC LINETYPE
 72
      65
 73
       2
 40
5.39543305
 49
3.23725983
 74
       0
 49
-2.15817322
 74
       0
  0
LTYPE
  5
20
100
AcDbSymbolTableRecord
100
AcDbLinetypeTableRecord
  2
DASHED
 70
      64
  3
CADPAC LINETYPE
 72
      65
 73
       2
 40
6.47451967
 49
4.31634644
 74
       0
 49
-2.15817322
 74
       0
  0
LTYPE
  5
21
100
AcDbSymbolTableRecord
100
AcDbLinetypeTableRecord
  2
DASHED2
 70
      64
  3
CADPAC LINETYPE
 72
      65
 73
       2
 40
4.85588975
 49
3.23725983
 74
       0
 49
-1.61862992
 74
       0
  0
LTYPE
  5
22
100
AcDbSymbolTableRecord
100
AcDbLinetypeTableRecord
  2
DASHEDX2
 70
      64
  3
CADPAC LINETYPE
 72
      65
 73
       2
 40
9.7117795
 49
6.47451967
 74
       0
 49
-3.23725983
 74
       0
  0
LTYPE
  5
23
100
AcDbSymbolTableRecord
100
AcDbLinetypeTableRecord
  2
DOTX2
 70
      64
  3
CADPAC LINETYPE
 72
      65
 73
       2
 40
2.69771653
 49
0.0
 74
       0
 49
-2.69771653
 74
       0
  0
LTYPE
  5
24
100
AcDbSymbolTableRecord
100
AcDbLinetypeTableRecord
  2
DOT
 70
      64
  3
CADPAC LINETYPE
 72
      65
 73
       2
 40
2.15817322
 49
0.0
 74
       0
 49
-2.15817322
 74
       0
  0
LTYPE
  5
25
100
AcDbSymbolTableRecord
100
AcDbLinetypeTableRecord
  2
DOT2
 70
      64
  3
CADPAC LINETYPE
 72
      65
 73
       2
 40
1.61862992
 49
0.0
 74
       0
 49
-1.61862992
 74
       0
  0
LTYPE
  5
26
100
AcDbSymbolTableRecord
100
AcDbLinetypeTableRecord
  2
CENTERX2
 70
      64
  3
CADPAC LINETYPE
 72
      65
 73
       4
 40
12.94903933
 49
5.39543305
 74
       0
 49
-2.69771653
 74
       0
 49
2.15817322
 74
       0
 49
-2.69771653
 74
       0
  0
LTYPE
  5
27
100
AcDbSymbolTableRecord
100
AcDbLinetypeTableRecord
  2
CENTER
 70
      64
  3
CADPAC LINETYPE
 72
      65
 73
       4
 40
9.92759682
 49
4.31634644
 74
       0
 49
-2.15817322
 74
       0
 49
1.29490393
 74
       0
 49
-2.15817322
 74
       0
  0
LTYPE
  5
28
100
AcDbSymbolTableRecord
100
AcDbLinetypeTableRecord
  2
CENTER2
 70
      64
  3
CADPAC LINETYPE
 72
      65
 73
       4
 40
6.90615431
 49
3.23725983
 74
       0
 49
-1.61862992
 74
       0
 49
0.43163464
 74
       0
 49
-1.61862992
 74
       0
  0
LTYPE
  5
29
100
AcDbSymbolTableRecord
100
AcDbLinetypeTableRecord
  2
DASHDOTX2
 70
      64
  3
CADPAC LINETYPE
 72
      65
 73
       4
 40
10.79086611
 49
5.39543305
 74
       0
 49
-2.69771653
 74
       0
 49
0.0
 74
       0
 49
-2.69771653
 74
       0
  0
LTYPE
  5
2A
100
AcDbSymbolTableRecord
100
AcDbLinetypeTableRecord
  2
DASHDOT
 70
      64
  3
CADPAC LINETYPE
 72
      65
 73
       4
 40
8.63269289
 49
4.31634644
 74
       0
 49
-2.15817322
 74
       0
 49
0.0
 74
       0
 49
-2.15817322
 74
       0
  0
LTYPE
  5
2B
100
AcDbSymbolTableRecord
100
AcDbLinetypeTableRecord
  2
DASHDOT2
 70
      64
  3
CADPAC LINETYPE
 72
      65
 73
       4
 40
6.47451967
 49
3.23725983
 74
       0
 49
-1.61862992
 74
       0
 49
0.0
 74
       0
 49
-1.61862992
 74
       0
  0
LTYPE
  5
2C
100
AcDbSymbolTableRecord
100
AcDbLinetypeTableRecord
  2
DIVIDEX2
 70
      64
  3
CADPAC LINETYPE
 72
      65
 73
       6
 40
13.48858264
 49
5.39543305
 74
       0
 49
-2.69771653
 74
       0
 49
0.0
 74
       0
 49
-2.69771653
 74
       0
 49
0.0
 74
       0
 49
-2.69771653
 74
       0
  0
LTYPE
  5
2D
100
AcDbSymbolTableRecord
100
AcDbLinetypeTableRecord
  2
DIVIDE
 70
      64
  3
CADPAC LINETYPE
 72
      65
 73
       6
 40
10.79086611
 49
4.31634644
 74
       0
 49
-2.15817322
 74
       0
 49
0.0
 74
       0
 49
-2.15817322
 74
       0
 49
0.0
 74
       0
 49
-2.15817322
 74
       0
  0
LTYPE
  5
2E
100
AcDbSymbolTableRecord
100
AcDbLinetypeTableRecord
  2
DIVIDE2
 70
      64
  3
CADPAC LINETYPE
 72
      65
 73
       6
 40
8.09314958
 49
3.23725983
 74
       0
 49
-1.61862992
 74
       0
 49
0.0
 74
       0
 49
-1.61862992
 74
       0
 49
0.0
 74
       0
 49
-1.61862992
 74
       0
  0
LTYPE
  5
2F
100
AcDbSymbolTableRecord
100
AcDbLinetypeTableRecord
  2
BORDERX2
 70
      64
  3
CADPAC LINETYPE
 72
      65
 73
       6
 40
18.88401569
 49
5.39543305
 74
       0
 49
-2.69771653
 74
       0
 49
5.39543305
 74
       0
 49
-2.69771653
 74
       0
 49
0.0
 74
       0
 49
-2.69771653
 74
       0
  0
LTYPE
  5
30
100
AcDbSymbolTableRecord
100
AcDbLinetypeTableRecord
  2
BORDER
 70
      64
  3
CADPAC LINETYPE
 72
      65
 73
       6
 40
15.10721255
 49
4.31634644
 74
       0
 49
-2.15817322
 74
       0
 49
4.31634644
 74
       0
 49
-2.15817322
 74
       0
 49
0.0
 74
       0
 49
-2.15817322
 74
       0
  0
LTYPE
  5
31
100
AcDbSymbolTableRecord
100
AcDbLinetypeTableRecord
  2
BORDER2
 70
      64
  3
CADPAC LINETYPE
 72
      65
 73
       6
 40
11.33040942
 49
3.23725983
 74
       0
 49
-1.61862992
 74
       0
 49
3.23725983
 74
       0
 49
-1.61862992
 74
       0
 49
0.0
 74
       0
 49
-1.61862992
 74
       0
  0
LTYPE
  5
32
100
AcDbSymbolTableRecord
100
AcDbLinetypeTableRecord
  2
PHANTOMX2
 70
      64
  3
CADPAC LINETYPE
 72
      65
 73
       6
 40
16.18629916
 49
5.39543305
 74
       0
 49
-2.15817322
 74
       0
 49
2.15817322
 74
       0
 49
-2.15817322
 74
       0
 49
2.15817322
 74
       0
 49
-2.15817322
 74
       0
  0
LTYPE
  5
33
100
AcDbSymbolTableRecord
100
AcDbLinetypeTableRecord
  2
PHANTOM
 70
      64
  3
CADPAC LINETYPE
 72
      65
 73
       6
 40
13.38067398
 49
4.31634644
 74
       0
 49
-2.15817322
 74
       0
 49
1.29490393
 74
       0
 49
-2.15817322
 74
       0
 49
1.29490393
 74
       0
 49
-2.15817322
 74
       0
  0
LTYPE
  5
34
100
AcDbSymbolTableRecord
100
AcDbLinetypeTableRecord
  2
PHANTOM2
 70
      64
  3
CADPAC LINETYPE
 72
      65
 73
       6
 40
11.43831808
 49
3.23725983
 74
       0
 49
-2.15817322
 74
       0
 49
0.86326929
 74
       0
 49
-2.15817322
 74
       0
 49
0.86326929
 74
       0
 49
-2.15817322
 74
       0
  0
LTYPE
  5
35
100
AcDbSymbolTableRecord
100
AcDbLinetypeTableRecord
  2
ACAD_ISO06W100
 70
      64
  3
CADPAC LINETYPE
 72
      65
 73
       8
 40
14.56766925
 49
5.39543305
 74
       0
 49
-2.69771653
 74
       0
 49
0.0
 74
       0
 49
-2.15817322
 74
       0
 49
0.0
 74
       0
 49
-2.15817322
 74
       0
 49
0.0
 74
       0
 49
-2.15817322
 74
       0
  0
LTYPE
  5
36
100
AcDbSymbolTableRecord
100
AcDbLinetypeTableRecord
  2
ACAD_ISO13W100
 70
      64
  3
CADPAC LINETYPE
 72
      65
 73
       8
 40
17.26538578
 49
4.31634644
 74
       0
 49
-2.15817322
 74
       0
 49
4.31634644
 74
       0
 49
-2.15817322
 74
       0
 49
0.0
 74
       0
 49
-2.15817322
 74
       0
 49
0.0
 74
       0
 49
-2.15817322
 74
       0
  0
LTYPE
  5
37
100
AcDbSymbolTableRecord
100
AcDbLinetypeTableRecord
  2
ACAD_ISO14W100
 70
      64
  3
CADPAC LINETYPE
 72
      65
 73
       8
 40
12.94903933
 49
4.31634644
 74
       0
 49
-2.15817322
 74
       0
 49
0.0
 74
       0
 49
-2.15817322
 74
       0
 49
0.0
 74
       0
 49
-2.15817322
 74
       0
 49
0.0
 74
       0
 49
-2.15817322
 74
       0
  0
ENDTAB
  0
TABLE
  2
LAYER
  5
2
100
AcDbSymbolTable
 70
       5
  0
LAYER
  5
14
100
AcDbSymbolTableRecord
100
AcDbLayerTableRecord
  2
0
 70
       0
 62
       7
  6
CONTINUOUS
  0
LAYER
  5
38
100
AcDbSymbolTableRecord
100
AcDbLayerTableRecord
  2
SLD-0_2
 70
       0
 62
       7
  6
CONTINUOUS
  0
LAYER
  5
39
100
AcDbSymbolTableRecord
100
AcDbLayerTableRecord
  2
SLD-0_1
 70
       0
 62
       7
  6
CONTINUOUS
  0
LAYER
  5
3A
100
AcDbSymbolTableRecord
100
AcDbLayerTableRecord
  2
SLD-0_0
 70
       0
 62
       7
  6
CONTINUOUS
  0
LAYER
  5
3B
100
AcDbSymbolTableRecord
100
AcDbLayerTableRecord
  2
SLD-0
 70
       0
 62
       7
  6
CONTINUOUS
  0
ENDTAB
  0
TABLE
  2
STYLE
  5
3
100
AcDbSymbolTable
 70
       1
  0
STYLE
  5
17
100
AcDbSymbolTableRecord
100
AcDbTextStyleTableRecord
  2
STANDARD
 70
       0
 40
0.0
 41
1.0
 50
0.0
 71
       0
 42
5.0
  3
txt.shx
  4
bigfont.shx
  0
ENDTAB
  0
TABLE
  2
VIEW
  5
5
100
AcDbSymbolTable
 70
       1
  0
VIEW
  5
3C
100
AcDbSymbolTableRecord
100
AcDbViewTableRecord
  2
QQQQ
 70
       0
 40
105.86646302
 10
0.0
 20
-1.25
 41
229.30590484
 11
0.0
 21
0.0
 31
1.0
 12
100.0
 22
100.0
 32
0.0
 42
50.0
 43
0.0
 44
0.0
 50
0.0
 71
       0
  0
ENDTAB
  0
TABLE
  2
UCS
  5
6
100
AcDbSymbolTable
 70
       0
  0
ENDTAB
  0
TABLE
  2
APPID
  5
8
100
AcDbSymbolTable
 70
       1
  0
APPID
  5
16
100
AcDbSymbolTableRecord
100
AcDbRegAppTableRecord
  2
ACAD
 70
       0
  0
ENDTAB
  0
TABLE
  2
DIMSTYLE
  5
9
100
AcDbSymbolTable
 70
       1
  0
DIMSTYLE
105
18
100
AcDbSymbolTableRecord
100
AcDbDimStyleTableRecord
  2
STANDARD
 70
       0
  3

  4

  5

  6

  7

 40
1.0
 41
0.18
 42
0.0625
 43
0.38
 44
0.18
 45
0.0
 46
0.0
 47
0.0
 48
0.0
 71
       0
 72
       0
 73
       1
 74
       1
 75
       0
 76
       0
 77
       0
 78
       0
140
0.18
141
0.09
142
0.0
143
25.4
144
1.0
145
0.0
146
1.0
147
0.09
170
       0
171
       2
172
       0
173
       0
174
       0
175
       0
176
       0
177
       0
178
       0
270
       2
271
       4
272
       4
273
       2
274
       2
275
       0
280
       0
281
       0
282
       0
283
       1
284
       0
285
       0
286
       0
287
       0
288
       0
340
17
  0
ENDTAB
  0
TABLE
  2
BLOCK_RECORD
  5
1
100
AcDbSymbolTable
 70
       9
  0
BLOCK_RECORD
  5
A
100
AcDbSymbolTableRecord
100
AcDbBlockTableRecord
  2
*MODEL_SPACE
  0
BLOCK_RECORD
  5
B
100
AcDbSymbolTableRecord
100
AcDbBlockTableRecord
  2
*PAPER_SPACE
  0
BLOCK_RECORD
  5
3D
100
AcDbSymbolTableRecord
100
AcDbBlockTableRecord
  2
GROUP_1
  0
BLOCK_RECORD
  5
3E
100
AcDbSymbolTableRecord
100
AcDbBlockTableRecord
  2
GROUP_2
  0
BLOCK_RECORD
  5
3F
100
AcDbSymbolTableRecord
100
AcDbBlockTableRecord
  2
GROUP_3
  0
BLOCK_RECORD
  5
40
100
AcDbSymbolTableRecord
100
AcDbBlockTableRecord
  2
GROUP_4
  0
BLOCK_RECORD
  5
41
100
AcDbSymbolTableRecord
100
AcDbBlockTableRecord
  2
GROUP_5
  0
BLOCK_RECORD
  5
42
100
AcDbSymbolTableRecord
100
AcDbBlockTableRecord
  2
GROUP_6
  0
BLOCK_RECORD
  5
43
100
AcDbSymbolTableRecord
100
AcDbBlockTableRecord
  2
GROUP_7
  0
BLOCK_RECORD
  5
44
100
AcDbSymbolTableRecord
100
AcDbBlockTableRecord
  2
GROUP_8
  0
BLOCK_RECORD
  5
45
100
AcDbSymbolTableRecord
100
AcDbBlockTableRecord
  2
GROUP_9
  0
ENDTAB
  0
ENDSEC
  0
SECTION
  2
BLOCKS
  0
BLOCK
  5
D
100
AcDbEntity
  8
0
100
AcDbBlockBegin
  2
*MODEL_SPACE
 70
       0
 10
0.0
 20
0.0
 30
0.0
  3
*MODEL_SPACE
  1

  0
ENDBLK
  5
E
100
AcDbEntity
  8
0
100
AcDbBlockEnd
  0
BLOCK
  5
F
100
AcDbEntity
 67
       1
  8
0
100
AcDbBlockBegin
  2
*PAPER_SPACE
 70
       0
 10
0.0
 20
0.0
 30
0.0
  3
*PAPER_SPACE
  1

  0
ENDBLK
  5
10
100
AcDbEntity
 67
       1
  8
0
100
AcDbBlockEnd
  0
BLOCK
  5
46
100
AcDbEntity
  8
0
100
AcDbBlockBegin
  2
GROUP_1
 70
       0
 10
0.0
 20
0.0
 30
0.0
  3
GROUP_1
  1

  0
LINE
  5
47
100
AcDbEntity
  8
SLD-0
  6
CONTINUOUS
 62
       3
100
AcDbLine
 10
51.58121986
 20
35.30614406
 30
0.0
 11
51.60940444
 21
35.62461568
 31
0.0
  0
LINE
  5
48
100
AcDbEntity
  8
SLD-0
  6
CONTINUOUS
 62
       3
100
AcDbLine
 10
51.60940444
 20
35.62461568
 30
0.0
 11
51.6388162
 21
35.94297287
 31
0.0
  0
LINE
  5
49
100
AcDbEntity
  8
SLD-0
  6
CONTINUOUS
 62
       3
100
AcDbLine
 10
51.6388162
 20
35.94297287
 30
0.0
 11
51.66948026
 21
36.26120887
 31
0.0
  0
LINE
  5
4A
100
AcDbEntity
  8
SLD-0
  6
CONTINUOUS
 62
       3
100
AcDbLine
 10
51.66948026
 20
36.26120887
 30
0.0
 11
51.70142174
 21
36.57931694
 31
0.0
  0
LINE
  5
4B
100
AcDbEntity
  8
SLD-0
  6
CONTINUOUS
 62
       3
100
AcDbLine
 10
51.70142174
 20
36.57931694
 30
0.0
 11
51.73466574
 21
36.89729034
 31
0.0
  0
LINE
  5
4C
100
AcDbEntity
  8
SLD-0
  6
CONTINUOUS
 62
       3
100
AcDbLine
 10
51.73466574
 20
36.89729034
 30
0.0
 11
51.7692374
 21
37.21512231
 31
0.0
  0
LINE
  5
4D
100
AcDbEntity
  8
SLD-0
  6
CONTINUOUS
 62
       3
100
AcDbLine
 10
51.7692374
 20
37.21512231
 30
0.0
 11
51.80516181
 21
37.53280611
 31
0.0
  0
LINE
  5
4E
100
AcDbEntity
  8
SLD-0
  6
CONTINUOUS
 62
       3
100
AcDbLine
 10
51.80516181
 20
37.53280611
 30
0.0
 11
51.8424641
 21
37.850335
 31
0.0
  0
LINE
  5
4F
100
AcDbEntity
  8
SLD-0
  6
CONTINUOUS
 62
       3
100
AcDbLine
 10
51.8424641
 20
37.850335
 30
0.0
 11
51.88116939
 21
38.16770222
 31
0.0
  0
LINE
  5
50
100
AcDbEntity
  8
SLD-0
  6
CONTINUOUS
 62
       3
100
AcDbLine
 10
51.88116939
 20
38.16770222
 30
0.0
 11
51.92130278
 21
38.48490104
 31
0.0
  0
LINE
  5
51
100
AcDbEntity
  8
SLD-0
  6
CONTINUOUS
 62
       3
100
AcDbLine
 10
51.92130278
 20
38.48490104
 30
0.0
 11
51.9628894
 21
38.8019247
 31
0.0
  0
LINE
  5
52
100
AcDbEntity
  8
SLD-0
  6
CONTINUOUS
 62
       3
100
AcDbLine
 10
51.9628894
 20
38.8019247
 30
0.0
 11
52.00595435
 21
39.11876646
 31
0.0
  0
LINE
  5
53
100
AcDbEntity
  8
SLD-0
  6
CONTINUOUS
 62
       3
100
AcDbLine
 10
52.00595435
 20
39.11876646
 30
0.0
 11
52.05052276
 21
39.43541958
 31
0.0
  0
LINE
  5
54
100
AcDbEntity
  8
SLD-0
  6
CONTINUOUS
 62
       3
100
AcDbLine
 10
52.05052276
 20
39.43541958
 30
0.0
 11
52.09661974
 21
39.7518773
 31
0.0
  0
LINE
  5
55
100
AcDbEntity
  8
SLD-0
  6
CONTINUOUS
 62
       3
100
AcDbLine
 10
52.09661974
 20
39.7518773
 30
0.0
 11
52.14427041
 21
40.06813288
 31
0.0
  0
LINE
  5
56
100
AcDbEntity
  8
SLD-0
  6
CONTINUOUS
 62
       3
100
AcDbLine
 10
52.14427041
 20
40.06813288
 30
0.0
 11
52.19349988
 21
40.38417958
 31
0.0
  0
LINE
  5
57
100
AcDbEntity
  8
SLD-0
  6
CONTINUOUS
 62
       3
100
AcDbLine
 10
52.19349988
 20
40.38417958
 30
0.0
 11
52.24433326
 21
40.70001065
 31
0.0
  0
LINE
  5
58
100
AcDbEntity
  8
SLD-0
  6
CONTINUOUS
 62
       3
100
AcDbLine
 10
52.24433326
 20
40.70001065
 30
0.0
 11
52.29679567
 21
41.01561933
 31
0.0
  0
LINE
  5
59
100
AcDbEntity
  8
SLD-0
  6
CONTINUOUS
 62
       3
100
AcDbLine
 10
52.29679567
 20
41.01561933
 30
0.0
 11
52.35091223
 21
41.3309989
 31
0.0
  0
LINE
  5
5A
100
AcDbEntity
  8
SLD-0
  6
CONTINUOUS
 62
       3
100
AcDbLine
 10
52.35091223
 20
41.3309989
 30
0.0
 11
52.40670806
 21
41.64614259
 31
0.0
  0
ENDBLK
  5
5B
100
AcDbEntity
  8
0
100
AcDbBlockEnd
  0
BLOCK
  5
5C
100
AcDbEntity
  8
0
100
AcDbBlockBegin
  2
GROUP_2
 70
       0
 10
0.0
 20
0.0
 30
0.0
  3
GROUP_2
  1

  0
LINE
  5
5D
100
AcDbEntity
  8
SLD-0
  6
CONTINUOUS
 62
       3
100
AcDbLine
 10
51.86237617
 20
38.01505927
 30
0.0
 11
51.87796413
 21
38.14179591
 31
0.0
  0
LINE
  5
5E
100
AcDbEntity
  8
SLD-0
  6
CONTINUOUS
 62
       3
100
AcDbLine
 10
51.87796413
 20
38.14179591
 30
0.0
 11
51.89335831
 21
38.26508417
 31
0.0
  0
LINE
  5
5F
100
AcDbEntity
  8
SLD-0
  6
CONTINUOUS
 62
       3
100
AcDbLine
 10
51.89335831
 20
38.26508417
 30
0.0
 11
51.90853924
 21
38.38488794
 31
0.0
  0
LINE
  5
60
100
AcDbEntity
  8
SLD-0
  6
CONTINUOUS
 62
       3
100
AcDbLine
 10
51.90853924
 20
38.38488794
 30
0.0
 11
51.92348745
 21
38.50117111
 31
0.0
  0
LINE
  5
61
100
AcDbEntity
  8
SLD-0
  6
CONTINUOUS
 62
       3
100
AcDbLine
 10
51.92348745
 20
38.50117111
 30
0.0
 11
51.93818349
 21
38.61389757
 31
0.0
  0
LINE
  5
62
100
AcDbEntity
  8
SLD-0
  6
CONTINUOUS
 62
       3
100
AcDbLine
 10
51.93818349
 20
38.61389757
 30
0.0
 11
51.95260788
 21
38.72303118
 31
0.0
  0
LINE
  5
63
100
AcDbEntity
  8
SLD-0
  6
CONTINUOUS
 62
       3
100
AcDbLine
 10
51.95260788
 20
38.72303118
 30
0.0
 11
51.96674115
 21
38.82853585
 31
0.0
  0
LINE
  5
64
100
AcDbEntity
  8
SLD-0
  6
CONTINUOUS
 62
       3
100
AcDbLine
 10
51.96674115
 20
38.82853585
 30
0.0
 11
51.98056386
 21
38.93037546
 31
0.0
  0
LINE
  5
65
100
AcDbEntity
  8
SLD-0
  6
CONTINUOUS
 62
       3
100
AcDbLine
 10
51.98056386
 20
38.93037546
 30
0.0
 11
51.99405652
 21
39.02851388
 31
0.0
  0
LINE
  5
66
100
AcDbEntity
  8
SLD-0
  6
CONTINUOUS
 62
       3
100
AcDbLine
 10
51.99405652
 20
39.02851388
 30
0.0
 11
52.00719967
 21
39.12291502
 31
0.0
  0
LINE
  5
67
100
AcDbEntity
  8
SLD-0
  6
CONTINUOUS
 62
       3
100
AcDbLine
 10
52.00719967
 20
39.12291502
 30
0.0
 11
52.01997385
 21
39.21354274
 31
0.0
  0
LINE
  5
68
100
AcDbEntity
  8
SLD-0
  6
CONTINUOUS
 62
       3
100
AcDbLine
 10
52.01997385
 20
39.21354274
 30
0.0
 11
52.03235959
 21
39.30036095
 31
0.0
  0
LINE
  5
69
100
AcDbEntity
  8
SLD-0
  6
CONTINUOUS
 62
       3
100
AcDbLine
 10
52.03235959
 20
39.30036095
 30
0.0
 11
52.04433743
 21
39.38333351
 31
0.0
  0
LINE
  5
6A
100
AcDbEntity
  8
SLD-0
  6
CONTINUOUS
 62
       3
100
AcDbLine
 10
52.04433743
 20
39.38333351
 30
0.0
 11
52.05588789
 21
39.46242432
 31
0.0
  0
LINE
  5
6B
100
AcDbEntity
  8
SLD-0
  6
CONTINUOUS
 62
       3
100
AcDbLine
 10
52.05588789
 20
39.46242432
 30
0.0
 11
52.06699152
 21
39.53759727
 31
0.0
  0
LINE
  5
6C
100
AcDbEntity
  8
SLD-0
  6
CONTINUOUS
 62
       3
100
AcDbLine
 10
52.06699152
 20
39.53759727
 30
0.0
 11
52.07762885
 21
39.60881623
 31
0.0
  0
LINE
  5
6D
100
AcDbEntity
  8
SLD-0
  6
CONTINUOUS
 62
       3
100
AcDbLine
 10
52.07762885
 20
39.60881623
 30
0.0
 11
52.08778041
 21
39.67604509
 31
0.0
  0
LINE
  5
6E
100
AcDbEntity
  8
SLD-0
  6
CONTINUOUS
 62
       3
100
AcDbLine
 10
52.08778041
 20
39.67604509
 30
0.0
 11
52.09742674
 21
39.73924774
 31
0.0
  0
LINE
  5
6F
100
AcDbEntity
  8
SLD-0
  6
CONTINUOUS
 62
       3
100
AcDbLine
 10
52.09742674
 20
39.73924774
 30
0.0
 11
52.10654837
 21
39.79838807
 31
0.0
  0
LINE
  5
70
100
AcDbEntity
  8
SLD-0
  6
CONTINUOUS
 62
       3
100
AcDbLine
 10
52.10654837
 20
39.79838807
 30
0.0
 11
52.11512583
 21
39.85342995
 31
0.0
  0
ENDBLK
  5
71
100
AcDbEntity
  8
0
100
AcDbBlockEnd
  0
BLOCK
  5
72
100
AcDbEntity
  8
0
100
AcDbBlockBegin
  2
GROUP_3
 70
       0
 10
0.0
 20
0.0
 30
0.0
  3
GROUP_3
  1

  0
LINE
  5
73
100
AcDbEntity
  8
SLD-0
  6
CONTINUOUS
 62
       3
100
AcDbLine
 10
52.17976864
 20
38.13840777
 30
0.0
 11
52.16879697
 21
38.14375899
 31
0.0
  0
LINE
  5
74
100
AcDbEntity
  8
SLD-0
  6
CONTINUOUS
 62
       3
100
AcDbLine
 10
52.16879697
 20
38.14375899
 30
0.0
 11
52.15785804
 21
38.14909424
 31
0.0
  0
LINE
  5
75
100
AcDbEntity
  8
SLD-0
  6
CONTINUOUS
 62
       3
100
AcDbLine
 10
52.15785804
 20
38.14909424
 30
0.0
 11
52.14696469
 21
38.15440726
 31
0.0
  0
LINE
  5
76
100
AcDbEntity
  8
SLD-0
  6
CONTINUOUS
 62
       3
100
AcDbLine
 10
52.14696469
 20
38.15440726
 30
0.0
 11
52.13612979
 21
38.15969177
 31
0.0
  0
LINE
  5
77
100
AcDbEntity
  8
SLD-0
  6
CONTINUOUS
 62
       3
100
AcDbLine
 10
52.13612979
 20
38.15969177
 30
0.0
 11
52.12536617
 21
38.16494151
 31
0.0
  0
LINE
  5
78
100
AcDbEntity
  8
SLD-0
  6
CONTINUOUS
 62
       3
100
AcDbLine
 10
52.12536617
 20
38.16494151
 30
0.0
 11
52.11468669
 21
38.17015022
 31
0.0
  0
LINE
  5
79
100
AcDbEntity
  8
SLD-0
  6
CONTINUOUS
 62
       3
100
AcDbLine
 10
52.11468669
 20
38.17015022
 30
0.0
 11
52.10410419
 21
38.17531162
 31
0.0
  0
LINE
  5
7A
100
AcDbEntity
  8
SLD-0
  6
CONTINUOUS
 62
       3
100
AcDbLine
 10
52.10410419
 20
38.17531162
 30
0.0
 11
52.09363153
 21
38.18041946
 31
0.0
  0
LINE
  5
7B
100
AcDbEntity
  8
SLD-0
  6
CONTINUOUS
 62
       3
100
AcDbLine
 10
52.09363153
 20
38.18041946
 30
0.0
 11
52.08328155
 21
38.18546746
 31
0.0
  0
LINE
  5
7C
100
AcDbEntity
  8
SLD-0
  6
CONTINUOUS
 62
       3
100
AcDbLine
 10
52.08328155
 20
38.18546746
 30
0.0
 11
52.07306709
 21
38.19044936
 31
0.0
  0
LINE
  5
7D
100
AcDbEntity
  8
SLD-0
  6
CONTINUOUS
 62
       3
100
AcDbLine
 10
52.07306709
 20
38.19044936
 30
0.0
 11
52.06300102
 21
38.19535889
 31
0.0
  0
LINE
  5
7E
100
AcDbEntity
  8
SLD-0
  6
CONTINUOUS
 62
       3
100
AcDbLine
 10
52.06300102
 20
38.19535889
 30
0.0
 11
52.05309617
 21
38.20018979
 31
0.0
  0
LINE
  5
7F
100
AcDbEntity
  8
SLD-0
  6
CONTINUOUS
 62
       3
100
AcDbLine
 10
52.05309617
 20
38.20018979
 30
0.0
 11
52.0433654
 21
38.20493578
 31
0.0
  0
LINE
  5
80
100
AcDbEntity
  8
SLD-0
  6
CONTINUOUS
 62
       3
100
AcDbLine
 10
52.0433654
 20
38.20493578
 30
0.0
 11
52.03382156
 21
38.2095906
 31
0.0
  0
LINE
  5
81
100
AcDbEntity
  8
SLD-0
  6
CONTINUOUS
 62
       3
100
AcDbLine
 10
52.03382156
 20
38.2095906
 30
0.0
 11
52.02447748
 21
38.21414799
 31
0.0
  0
LINE
  5
82
100
AcDbEntity
  8
SLD-0
  6
CONTINUOUS
 62
       3
100
AcDbLine
 10
52.02447748
 20
38.21414799
 30
0.0
 11
52.01534603
 21
38.21860168
 31
0.0
  0
LINE
  5
83
100
AcDbEntity
  8
SLD-0
  6
CONTINUOUS
 62
       3
100
AcDbLine
 10
52.01534603
 20
38.21860168
 30
0.0
 11
52.00644005
 21
38.22294539
 31
0.0
  0
LINE
  5
84
100
AcDbEntity
  8
SLD-0
  6
CONTINUOUS
 62
       3
100
AcDbLine
 10
52.00644005
 20
38.22294539
 30
0.0
 11
51.99777239
 21
38.22717288
 31
0.0
  0
LINE
  5
85
100
AcDbEntity
  8
SLD-0
  6
CONTINUOUS
 62
       3
100
AcDbLine
 10
51.99777239
 20
38.22717288
 30
0.0
 11
51.9893559
 21
38.23127786
 31
0.0
  0
LINE
  5
86
100
AcDbEntity
  8
SLD-0
  6
CONTINUOUS
 62
       3
100
AcDbLine
 10
51.9893559
 20
38.23127786
 30
0.0
 11
51.98120342
 21
38.23525407
 31
0.0
  0
ENDBLK
  5
87
100
AcDbEntity
  8
0
100
AcDbBlockEnd
  0
BLOCK
  5
88
100
AcDbEntity
  8
0
100
AcDbBlockBegin
  2
GROUP_4
 70
       0
 10
0.0
 20
0.0
 30
0.0
  3
GROUP_4
  1

  0
LINE
  5
89
100
AcDbEntity
  8
SLD-0
  6
CONTINUOUS
 62
       3
100
AcDbLine
 10
52.10202295
 20
16.42269733
 30
0.0
 11
52.04249438
 21
16.82955831
 31
0.0
  0
LINE
  5
8A
100
AcDbEntity
  8
SLD-0
  6
CONTINUOUS
 62
       3
100
AcDbLine
 10
52.04249438
 20
16.82955831
 30
0.0
 11
51.98537178
 21
17.23667675
 31
0.0
  0
LINE
  5
8B
100
AcDbEntity
  8
SLD-0
  6
CONTINUOUS
 62
       3
100
AcDbLine
 10
51.98537178
 20
17.23667675
 30
0.0
 11
51.93062893
 21
17.64404458
 31
0.0
  0
LINE
  5
8C
100
AcDbEntity
  8
SLD-0
  6
CONTINUOUS
 62
       3
100
AcDbLine
 10
51.93062893
 20
17.64404458
 30
0.0
 11
51.87823962
 21
18.05165372
 31
0.0
  0
LINE
  5
8D
100
AcDbEntity
  8
SLD-0
  6
CONTINUOUS
 62
       3
100
AcDbLine
 10
51.87823962
 20
18.05165372
 30
0.0
 11
51.82817766
 21
18.45949608
 31
0.0
  0
LINE
  5
8E
100
AcDbEntity
  8
SLD-0
  6
CONTINUOUS
 62
       3
100
AcDbLine
 10
51.82817766
 20
18.45949608
 30
0.0
 11
51.78041682
 21
18.86756357
 31
0.0
  0
LINE
  5
8F
100
AcDbEntity
  8
SLD-0
  6
CONTINUOUS
 62
       3
100
AcDbLine
 10
51.78041682
 20
18.86756357
 30
0.0
 11
51.73493089
 21
19.27584813
 31
0.0
  0
LINE
  5
90
100
AcDbEntity
  8
SLD-0
  6
CONTINUOUS
 62
       3
100
AcDbLine
 10
51.73493089
 20
19.27584813
 30
0.0
 11
51.69169368
 21
19.68434166
 31
0.0
  0
LINE
  5
91
100
AcDbEntity
  8
SLD-0
  6
CONTINUOUS
 62
       3
100
AcDbLine
 10
51.69169368
 20
19.68434166
 30
0.0
 11
51.65067897
 21
20.09303608
 31
0.0
  0
LINE
  5
92
100
AcDbEntity
  8
SLD-0
  6
CONTINUOUS
 62
       3
100
AcDbLine
 10
51.65067897
 20
20.09303608
 30
0.0
 11
51.61186055
 21
20.50192331
 31
0.0
  0
LINE
  5
93
100
AcDbEntity
  8
SLD-0
  6
CONTINUOUS
 62
       3
100
AcDbLine
 10
51.61186055
 20
20.50192331
 30
0.0
 11
51.57521221
 21
20.91099528
 31
0.0
  0
LINE
  5
94
100
AcDbEntity
  8
SLD-0
  6
CONTINUOUS
 62
       3
100
AcDbLine
 10
51.57521221
 20
20.91099528
 30
0.0
 11
51.54070775
 21
21.32024389
 31
0.0
  0
LINE
  5
95
100
AcDbEntity
  8
SLD-0
  6
CONTINUOUS
 62
       3
100
AcDbLine
 10
51.54070775
 20
21.32024389
 30
0.0
 11
51.50832095
 21
21.72966107
 31
0.0
  0
LINE
  5
96
100
AcDbEntity
  8
SLD-0
  6
CONTINUOUS
 62
       3
100
AcDbLine
 10
51.50832095
 20
21.72966107
 30
0.0
 11
51.4780256
 21
22.13923873
 31
0.0
  0
LINE
  5
97
100
AcDbEntity
  8
SLD-0
  6
CONTINUOUS
 62
       3
100
AcDbLine
 10
51.4780256
 20
22.13923873
 30
0.0
 11
51.44979551
 21
22.5489688
 31
0.0
  0
LINE
  5
98
100
AcDbEntity
  8
SLD-0
  6
CONTINUOUS
 62
       3
100
AcDbLine
 10
51.44979551
 20
22.5489688
 30
0.0
 11
51.42360445
 21
22.95884318
 31
0.0
  0
LINE
  5
99
100
AcDbEntity
  8
SLD-0
  6
CONTINUOUS
 62
       3
100
AcDbLine
 10
51.42360445
 20
22.95884318
 30
0.0
 11
51.39942622
 21
23.3688538
 31
0.0
  0
LINE
  5
9A
100
AcDbEntity
  8
SLD-0
  6
CONTINUOUS
 62
       3
100
AcDbLine
 10
51.39942622
 20
23.3688538
 30
0.0
 11
51.37723461
 21
23.77899258
 31
0.0
  0
LINE
  5
9B
100
AcDbEntity
  8
SLD-0
  6
CONTINUOUS
 62
       3
100
AcDbLine
 10
51.37723461
 20
23.77899258
 30
0.0
 11
51.35702615
 21
24.18924198
 31
0.0
  0
LINE
  5
9C
100
AcDbEntity
  8
SLD-0
  6
CONTINUOUS
 62
       3
100
AcDbLine
 10
51.35702615
 20
24.18924198
 30
0.0
 11
51.33882546
 21
24.59958116
 31
0.0
  0
LINE
  5
9D
100
AcDbEntity
  8
SLD-0
  6
CONTINUOUS
 62
       3
100
AcDbLine
 10
51.33882546
 20
24.59958116
 30
0.0
 11
51.32263912
 21
25.01000203
 31
0.0
  0
LINE
  5
9E
100
AcDbEntity
  8
SLD-0
  6
CONTINUOUS
 62
       3
100
AcDbLine
 10
51.32263912
 20
25.01000203
 30
0.0
 11
51.30847358
 21
25.4204966
 31
0.0
  0
LINE
  5
9F
100
AcDbEntity
  8
SLD-0
  6
CONTINUOUS
 62
       3
100
AcDbLine
 10
51.30847358
 20
25.4204966
 30
0.0
 11
51.29633526
 21
25.83105683
 31
0.0
  0
LINE
  5
A0
100
AcDbEntity
  8
SLD-0
  6
CONTINUOUS
 62
       3
100
AcDbLine
 10
51.29633526
 20
25.83105683
 30
0.0
 11
51.28623061
 21
26.24167471
 31
0.0
  0
LINE
  5
A1
100
AcDbEntity
  8
SLD-0
  6
CONTINUOUS
 62
       3
100
AcDbLine
 10
51.28623061
 20
26.24167471
 30
0.0
 11
51.27816607
 21
26.65234224
 31
0.0
  0
LINE
  5
A2
100
AcDbEntity
  8
SLD-0
  6
CONTINUOUS
 62
       3
100
AcDbLine
 10
51.27816607
 20
26.65234224
 30
0.0
 11
51.27214807
 21
27.0630514
 31
0.0
  0
LINE
  5
A3
100
AcDbEntity
  8
SLD-0
  6
CONTINUOUS
 62
       3
100
AcDbLine
 10
51.27214807
 20
27.0630514
 30
0.0
 11
51.26818305
 21
27.47379418
 31
0.0
  0
LINE
  5
A4
100
AcDbEntity
  8
SLD-0
  6
CONTINUOUS
 62
       3
100
AcDbLine
 10
51.26818305
 20
27.47379418
 30
0.0
 11
51.26627746
 21
27.88456255
 31
0.0
  0
LINE
  5
A5
100
AcDbEntity
  8
SLD-0
  6
CONTINUOUS
 62
       3
100
AcDbLine
 10
51.26627746
 20
27.88456255
 30
0.0
 11
51.26643773
 21
28.29534852
 31
0.0
  0
LINE
  5
A6
100
AcDbEntity
  8
SLD-0
  6
CONTINUOUS
 62
       3
100
AcDbLine
 10
51.26643773
 20
28.29534852
 30
0.0
 11
51.26867029
 21
28.70614406
 31
0.0
  0
ENDBLK
  5
A7
100
AcDbEntity
  8
0
100
AcDbBlockEnd
  0
BLOCK
  5
A8
100
AcDbEntity
  8
0
100
AcDbBlockBegin
  2
GROUP_5
 70
       0
 10
0.0
 20
0.0
 30
0.0
  3
GROUP_5
  1

  0
LINE
  5
A9
100
AcDbEntity
  8
SLD-0
  6
CONTINUOUS
 62
       3
100
AcDbLine
 10
51.98120342
 20
38.23525407
 30
0.0
 11
51.9741694
 21
38.23868479
 31
0.0
  0
LINE
  5
AA
100
AcDbEntity
  8
SLD-0
  6
CONTINUOUS
 62
       3
100
AcDbLine
 10
51.9741694
 20
38.23868479
 30
0.0
 11
51.9673183
 21
38.24202629
 31
0.0
  0
LINE
  5
AB
100
AcDbEntity
  8
SLD-0
  6
CONTINUOUS
 62
       3
100
AcDbLine
 10
51.9673183
 20
38.24202629
 30
0.0
 11
51.96065015
 21
38.24527857
 31
0.0
  0
LINE
  5
AC
100
AcDbEntity
  8
SLD-0
  6
CONTINUOUS
 62
       3
100
AcDbLine
 10
51.96065015
 20
38.24527857
 30
0.0
 11
51.95416492
 21
38.24844162
 31
0.0
  0
LINE
  5
AD
100
AcDbEntity
  8
SLD-0
  6
CONTINUOUS
 62
       3
100
AcDbLine
 10
51.95416492
 20
38.24844162
 30
0.0
 11
51.94786263
 21
38.25151546
 31
0.0
  0
LINE
  5
AE
100
AcDbEntity
  8
SLD-0
  6
CONTINUOUS
 62
       3
100
AcDbLine
 10
51.94786263
 20
38.25151546
 30
0.0
 11
51.94174327
 21
38.25450007
 31
0.0
  0
LINE
  5
AF
100
AcDbEntity
  8
SLD-0
  6
CONTINUOUS
 62
       3
100
AcDbLine
 10
51.94174327
 20
38.25450007
 30
0.0
 11
51.93580685
 21
38.25739545
 31
0.0
  0
LINE
  5
B0
100
AcDbEntity
  8
SLD-0
  6
CONTINUOUS
 62
       3
100
AcDbLine
 10
51.93580685
 20
38.25739545
 30
0.0
 11
51.93005336
 21
38.26020162
 31
0.0
  0
LINE
  5
B1
100
AcDbEntity
  8
SLD-0
  6
CONTINUOUS
 62
       3
100
AcDbLine
 10
51.93005336
 20
38.26020162
 30
0.0
 11
51.92448281
 21
38.26291856
 31
0.0
  0
LINE
  5
B2
100
AcDbEntity
  8
SLD-0
  6
CONTINUOUS
 62
       3
100
AcDbLine
 10
51.92448281
 20
38.26291856
 30
0.0
 11
51.91909518
 21
38.26554628
 31
0.0
  0
LINE
  5
B3
100
AcDbEntity
  8
SLD-0
  6
CONTINUOUS
 62
       3
100
AcDbLine
 10
51.91909518
 20
38.26554628
 30
0.0
 11
51.9138905
 21
38.26808477
 31
0.0
  0
LINE
  5
B4
100
AcDbEntity
  8
SLD-0
  6
CONTINUOUS
 62
       3
100
AcDbLine
 10
51.9138905
 20
38.26808477
 30
0.0
 11
51.90886874
 21
38.27053405
 31
0.0
  0
LINE
  5
B5
100
AcDbEntity
  8
SLD-0
  6
CONTINUOUS
 62
       3
100
AcDbLine
 10
51.90886874
 20
38.27053405
 30
0.0
 11
51.90402992
 21
38.2728941
 31
0.0
  0
LINE
  5
B6
100
AcDbEntity
  8
SLD-0
  6
CONTINUOUS
 62
       3
100
AcDbLine
 10
51.90402992
 20
38.2728941
 30
0.0
 11
51.89937403
 21
38.27516493
 31
0.0
  0
LINE
  5
B7
100
AcDbEntity
  8
SLD-0
  6
CONTINUOUS
 62
       3
100
AcDbLine
 10
51.89937403
 20
38.27516493
 30
0.0
 11
51.89490108
 21
38.27734653
 31
0.0
  0
ENDBLK
  5
B8
100
AcDbEntity
  8
0
100
AcDbBlockEnd
  0
BLOCK
  5
B9
100
AcDbEntity
  8
0
100
AcDbBlockBegin
  2
GROUP_6
 70
       0
 10
0.0
 20
0.0
 30
0.0
  3
GROUP_6
  1

  0
LINE
  5
BA
100
AcDbEntity
  8
SLD-0
  6
CONTINUOUS
 62
       3
100
AcDbLine
 10
9.37836988
 20
16.42269727
 30
0.0
 11
9.45574329
 21
16.43663936
 31
0.0
  0
LINE
  5
BB
100
AcDbEntity
  8
SLD-0
  6
CONTINUOUS
 62
       3
100
AcDbLine
 10
9.45574329
 20
16.43663936
 30
0.0
 11
9.53302716
 21
16.45093569
 31
0.0
  0
LINE
  5
BC
100
AcDbEntity
  8
SLD-0
  6
CONTINUOUS
 62
       3
100
AcDbLine
 10
9.53302716
 20
16.45093569
 30
0.0
 11
9.61021973
 21
16.4655933
 31
0.0
  0
LINE
  5
BD
100
AcDbEntity
  8
SLD-0
  6
CONTINUOUS
 62
       3
100
AcDbLine
 10
9.61021973
 20
16.4655933
 30
0.0
 11
9.68731922
 21
16.48061921
 31
0.0
  0
LINE
  5
BE
100
AcDbEntity
  8
SLD-0
  6
CONTINUOUS
 62
       3
100
AcDbLine
 10
9.68731922
 20
16.48061921
 30
0.0
 11
9.76432388
 21
16.49602045
 31
0.0
  0
LINE
  5
BF
100
AcDbEntity
  8
SLD-0
  6
CONTINUOUS
 62
       3
100
AcDbLine
 10
9.76432388
 20
16.49602045
 30
0.0
 11
9.84123194
 21
16.51180404
 31
0.0
  0
LINE
  5
C0
100
AcDbEntity
  8
SLD-0
  6
CONTINUOUS
 62
       3
100
AcDbLine
 10
9.84123194
 20
16.51180404
 30
0.0
 11
9.91804163
 21
16.52797702
 31
0.0
  0
LINE
  5
C1
100
AcDbEntity
  8
SLD-0
  6
CONTINUOUS
 62
       3
100
AcDbLine
 10
9.91804163
 20
16.52797702
 30
0.0
 11
9.99475119
 21
16.5445464
 31
0.0
  0
LINE
  5
C2
100
AcDbEntity
  8
SLD-0
  6
CONTINUOUS
 62
       3
100
AcDbLine
 10
9.99475119
 20
16.5445464
 30
0.0
 11
10.07135885
 21
16.56151922
 31
0.0
  0
LINE
  5
C3
100
AcDbEntity
  8
SLD-0
  6
CONTINUOUS
 62
       3
100
AcDbLine
 10
10.07135885
 20
16.56151922
 30
0.0
 11
10.14786286
 21
16.57890251
 31
0.0
  0
LINE
  5
C4
100
AcDbEntity
  8
SLD-0
  6
CONTINUOUS
 62
       3
100
AcDbLine
 10
10.14786286
 20
16.57890251
 30
0.0
 11
10.22426144
 21
16.59670328
 31
0.0
  0
LINE
  5
C5
100
AcDbEntity
  8
SLD-0
  6
CONTINUOUS
 62
       3
100
AcDbLine
 10
10.22426144
 20
16.59670328
 30
0.0
 11
10.30055283
 21
16.61492856
 31
0.0
  0
LINE
  5
C6
100
AcDbEntity
  8
SLD-0
  6
CONTINUOUS
 62
       3
100
AcDbLine
 10
10.30055283
 20
16.61492856
 30
0.0
 11
10.37673527
 21
16.63358539
 31
0.0
  0
LINE
  5
C7
100
AcDbEntity
  8
SLD-0
  6
CONTINUOUS
 62
       3
100
AcDbLine
 10
10.37673527
 20
16.63358539
 30
0.0
 11
10.45280699
 21
16.65268079
 31
0.0
  0
LINE
  5
C8
100
AcDbEntity
  8
SLD-0
  6
CONTINUOUS
 62
       3
100
AcDbLine
 10
10.45280699
 20
16.65268079
 30
0.0
 11
10.52876623
 21
16.67222178
 31
0.0
  0
LINE
  5
C9
100
AcDbEntity
  8
SLD-0
  6
CONTINUOUS
 62
       3
100
AcDbLine
 10
10.52876623
 20
16.67222178
 30
0.0
 11
10.60463298
 21
16.69222089
 31
0.0
  0
LINE
  5
CA
100
AcDbEntity
  8
SLD-0
  6
CONTINUOUS
 62
       3
100
AcDbLine
 10
10.60463298
 20
16.69222089
 30
0.0
 11
10.6804174
 21
16.71269355
 31
0.0
  0
LINE
  5
CB
100
AcDbEntity
  8
SLD-0
  6
CONTINUOUS
 62
       3
100
AcDbLine
 10
10.6804174
 20
16.71269355
 30
0.0
 11
10.75610295
 21
16.73365112
 31
0.0
  0
LINE
  5
CC
100
AcDbEntity
  8
SLD-0
  6
CONTINUOUS
 62
       3
100
AcDbLine
 10
10.75610295
 20
16.73365112
 30
0.0
 11
10.8316731
 21
16.75510501
 31
0.0
  0
LINE
  5
CD
100
AcDbEntity
  8
SLD-0
  6
CONTINUOUS
 62
       3
100
AcDbLine
 10
10.8316731
 20
16.75510501
 30
0.0
 11
10.90711133
 21
16.77706657
 31
0.0
  0
LINE
  5
CE
100
AcDbEntity
  8
SLD-0
  6
CONTINUOUS
 62
       3
100
AcDbLine
 10
10.90711133
 20
16.77706657
 30
0.0
 11
10.9824011
 21
16.7995472
 31
0.0
  0
LINE
  5
CF
100
AcDbEntity
  8
SLD-0
  6
CONTINUOUS
 62
       3
100
AcDbLine
 10
10.9824011
 20
16.7995472
 30
0.0
 11
11.05752587
 21
16.82255827
 31
0.0
  0
LINE
  5
D0
100
AcDbEntity
  8
SLD-0
  6
CONTINUOUS
 62
       3
100
AcDbLine
 10
11.05752587
 20
16.82255827
 30
0.0
 11
11.13246911
 21
16.84611116
 31
0.0
  0
LINE
  5
D1
100
AcDbEntity
  8
SLD-0
  6
CONTINUOUS
 62
       3
100
AcDbLine
 10
11.13246911
 20
16.84611116
 30
0.0
 11
11.2072143
 21
16.87021725
 31
0.0
  0
LINE
  5
D2
100
AcDbEntity
  8
SLD-0
  6
CONTINUOUS
 62
       3
100
AcDbLine
 10
11.2072143
 20
16.87021725
 30
0.0
 11
11.2817449
 21
16.89488793
 31
0.0
  0
LINE
  5
D3
100
AcDbEntity
  8
SLD-0
  6
CONTINUOUS
 62
       3
100
AcDbLine
 10
11.2817449
 20
16.89488793
 30
0.0
 11
11.35604438
 21
16.92013456
 31
0.0
  0
LINE
  5
D4
100
AcDbEntity
  8
SLD-0
  6
CONTINUOUS
 62
       3
100
AcDbLine
 10
11.35604438
 20
16.92013456
 30
0.0
 11
11.4300962
 21
16.94596854
 31
0.0
  0
LINE
  5
D5
100
AcDbEntity
  8
SLD-0
  6
CONTINUOUS
 62
       3
100
AcDbLine
 10
11.4300962
 20
16.94596854
 30
0.0
 11
11.50388384
 21
16.97240124
 31
0.0
  0
LINE
  5
D6
100
AcDbEntity
  8
SLD-0
  6
CONTINUOUS
 62
       3
100
AcDbLine
 10
11.50388384
 20
16.97240124
 30
0.0
 11
11.57739076
 21
16.99944403
 31
0.0
  0
LINE
  5
D7
100
AcDbEntity
  8
SLD-0
  6
CONTINUOUS
 62
       3
100
AcDbLine
 10
11.57739076
 20
16.99944403
 30
0.0
 11
11.65060043
 21
17.02710831
 31
0.0
  0
LINE
  5
D8
100
AcDbEntity
  8
SLD-0
  6
CONTINUOUS
 62
       3
100
AcDbLine
 10
11.65060043
 20
17.02710831
 30
0.0
 11
11.72350502
 21
17.05538816
 31
0.0
  0
LINE
  5
D9
100
AcDbEntity
  8
SLD-0
  6
CONTINUOUS
 62
       3
100
AcDbLine
 10
11.72350502
 20
17.05538816
 30
0.0
 11
11.79609463
 21
17.08429631
 31
0.0
  0
LINE
  5
DA
100
AcDbEntity
  8
SLD-0
  6
CONTINUOUS
 62
       3
100
AcDbLine
 10
11.79609463
 20
17.08429631
 30
0.0
 11
11.86834958
 21
17.11387211
 31
0.0
  0
LINE
  5
DB
100
AcDbEntity
  8
SLD-0
  6
CONTINUOUS
 62
       3
100
AcDbLine
 10
11.86834958
 20
17.11387211
 30
0.0
 11
11.94025018
 21
17.14415488
 31
0.0
  0
LINE
  5
DC
100
AcDbEntity
  8
SLD-0
  6
CONTINUOUS
 62
       3
100
AcDbLine
 10
11.94025018
 20
17.14415488
 30
0.0
 11
12.01177679
 21
17.17518397
 31
0.0
  0
LINE
  5
DD
100
AcDbEntity
  8
SLD-0
  6
CONTINUOUS
 62
       3
100
AcDbLine
 10
12.01177679
 20
17.17518397
 30
0.0
 11
12.08290971
 21
17.20699869
 31
0.0
  0
LINE
  5
DE
100
AcDbEntity
  8
SLD-0
  6
CONTINUOUS
 62
       3
100
AcDbLine
 10
12.08290971
 20
17.20699869
 30
0.0
 11
12.15362927
 21
17.2396384
 31
0.0
  0
LINE
  5
DF
100
AcDbEntity
  8
SLD-0
  6
CONTINUOUS
 62
       3
100
AcDbLine
 10
12.15362927
 20
17.2396384
 30
0.0
 11
12.22391581
 21
17.27314242
 31
0.0
  0
LINE
  5
E0
100
AcDbEntity
  8
SLD-0
  6
CONTINUOUS
 62
       3
100
AcDbLine
 10
12.22391581
 20
17.27314242
 30
0.0
 11
12.29374966
 21
17.30755008
 31
0.0
  0
LINE
  5
E1
100
AcDbEntity
  8
SLD-0
  6
CONTINUOUS
 62
       3
100
AcDbLine
 10
12.29374966
 20
17.30755008
 30
0.0
 11
12.36311113
 21
17.34290072
 31
0.0
  0
LINE
  5
E2
100
AcDbEntity
  8
SLD-0
  6
CONTINUOUS
 62
       3
100
AcDbLine
 10
12.36311113
 20
17.34290072
 30
0.0
 11
12.43198056
 21
17.37923368
 31
0.0
  0
LINE
  5
E3
100
AcDbEntity
  8
SLD-0
  6
CONTINUOUS
 62
       3
100
AcDbLine
 10
12.43198056
 20
17.37923368
 30
0.0
 11
12.50033827
 21
17.41658829
 31
0.0
  0
LINE
  5
E4
100
AcDbEntity
  8
SLD-0
  6
CONTINUOUS
 62
       3
100
AcDbLine
 10
12.50033827
 20
17.41658829
 30
0.0
 11
12.56816459
 21
17.45500388
 31
0.0
  0
LINE
  5
E5
100
AcDbEntity
  8
SLD-0
  6
CONTINUOUS
 62
       3
100
AcDbLine
 10
12.56816459
 20
17.45500388
 30
0.0
 11
12.63543986
 21
17.49451979
 31
0.0
  0
LINE
  5
E6
100
AcDbEntity
  8
SLD-0
  6
CONTINUOUS
 62
       3
100
AcDbLine
 10
12.63543986
 20
17.49451979
 30
0.0
 11
12.70214439
 21
17.53517535
 31
0.0
  0
LINE
  5
E7
100
AcDbEntity
  8
SLD-0
  6
CONTINUOUS
 62
       3
100
AcDbLine
 10
12.70214439
 20
17.53517535
 30
0.0
 11
12.76833022
 21
17.57711006
 31
0.0
  0
LINE
  5
E8
100
AcDbEntity
  8
SLD-0
  6
CONTINUOUS
 62
       3
100
AcDbLine
 10
12.76833022
 20
17.57711006
 30
0.0
 11
12.83394708
 21
17.62045594
 31
0.0
  0
LINE
  5
E9
100
AcDbEntity
  8
SLD-0
  6
CONTINUOUS
 62
       3
100
AcDbLine
 10
12.83394708
 20
17.62045594
 30
0.0
 11
12.89882177
 21
17.66524116
 31
0.0
  0
LINE
  5
EA
100
AcDbEntity
  8
SLD-0
  6
CONTINUOUS
 62
       3
100
AcDbLine
 10
12.89882177
 20
17.66524116
 30
0.0
 11
12.96278111
 21
17.71149385
 31
0.0
  0
LINE
  5
EB
100
AcDbEntity
  8
SLD-0
  6
CONTINUOUS
 62
       3
100
AcDbLine
 10
12.96278111
 20
17.71149385
 30
0.0
 11
13.02565192
 21
17.75924216
 31
0.0
  0
LINE
  5
EC
100
AcDbEntity
  8
SLD-0
  6
CONTINUOUS
 62
       3
100
AcDbLine
 10
13.02565192
 20
17.75924216
 30
0.0
 11
13.08726101
 21
17.80851425
 31
0.0
  0
LINE
  5
ED
100
AcDbEntity
  8
SLD-0
  6
CONTINUOUS
 62
       3
100
AcDbLine
 10
13.08726101
 20
17.80851425
 30
0.0
 11
13.14743521
 21
17.85933824
 31
0.0
  0
LINE
  5
EE
100
AcDbEntity
  8
SLD-0
  6
CONTINUOUS
 62
       3
100
AcDbLine
 10
13.14743521
 20
17.85933824
 30
0.0
 11
13.20601262
 21
17.9117295
 31
0.0
  0
LINE
  5
EF
100
AcDbEntity
  8
SLD-0
  6
CONTINUOUS
 62
       3
100
AcDbLine
 10
13.20601262
 20
17.9117295
 30
0.0
 11
13.26287347
 21
17.96570148
 31
0.0
  0
LINE
  5
F0
100
AcDbEntity
  8
SLD-0
  6
CONTINUOUS
 62
       3
100
AcDbLine
 10
13.26287347
 20
17.96570148
 30
0.0
 11
13.31781925
 21
18.02142828
 31
0.0
  0
LINE
  5
F1
100
AcDbEntity
  8
SLD-0
  6
CONTINUOUS
 62
       3
100
AcDbLine
 10
13.31781925
 20
18.02142828
 30
0.0
 11
13.37063853
 21
18.07910372
 31
0.0
  0
LINE
  5
F2
100
AcDbEntity
  8
SLD-0
  6
CONTINUOUS
 62
       3
100
AcDbLine
 10
13.37063853
 20
18.07910372
 30
0.0
 11
13.42111991
 21
18.13892163
 31
0.0
  0
LINE
  5
F3
100
AcDbEntity
  8
SLD-0
  6
CONTINUOUS
 62
       3
100
AcDbLine
 10
13.42111991
 20
18.13892163
 30
0.0
 11
13.46905198
 21
18.2010758
 31
0.0
  0
LINE
  5
F4
100
AcDbEntity
  8
SLD-0
  6
CONTINUOUS
 62
       3
100
AcDbLine
 10
13.46905198
 20
18.2010758
 30
0.0
 11
13.51422332
 21
18.26576007
 31
0.0
  0
LINE
  5
F5
100
AcDbEntity
  8
SLD-0
  6
CONTINUOUS
 62
       3
100
AcDbLine
 10
13.51422332
 20
18.26576007
 30
0.0
 11
13.55642251
 21
18.33316824
 31
0.0
  0
ENDBLK
  5
F6
100
AcDbEntity
  8
0
100
AcDbBlockEnd
  0
BLOCK
  5
F7
100
AcDbEntity
  8
0
100
AcDbBlockBegin
  2
GROUP_7
 70
       0
 10
0.0
 20
0.0
 30
0.0
  3
GROUP_7
  1

  0
LINE
  5
F8
100
AcDbEntity
  8
SLD-0
  6
CONTINUOUS
 62
       3
100
AcDbLine
 10
-2.13976484
 20
18.33316824
 30
0.0
 11
-2.09770303
 21
18.26600046
 31
0.0
  0
LINE
  5
F9
100
AcDbEntity
  8
SLD-0
  6
CONTINUOUS
 62
       3
100
AcDbLine
 10
-2.09770303
 20
18.26600046
 30
0.0
 11
-2.05253099
 21
18.20134719
 31
0.0
  0
LINE
  5
FA
100
AcDbEntity
  8
SLD-0
  6
CONTINUOUS
 62
       3
100
AcDbLine
 10
-2.05253099
 20
18.20134719
 30
0.0
 11
-2.00447706
 21
18.13905688
 31
0.0
  0
LINE
  5
FB
100
AcDbEntity
  8
SLD-0
  6
CONTINUOUS
 62
       3
100
AcDbLine
 10
-2.00447706
 20
18.13905688
 30
0.0
 11
-1.95376956
 21
18.07897801
 31
0.0
  0
LINE
  5
FC
100
AcDbEntity
  8
SLD-0
  6
CONTINUOUS
 62
       3
100
AcDbLine
 10
-1.95376956
 20
18.07897801
 30
0.0
 11
-1.90063684
 21
18.02095903
 31
0.0
  0
LINE
  5
FD
100
AcDbEntity
  8
SLD-0
  6
CONTINUOUS
 62
       3
100
AcDbLine
 10
-1.90063684
 20
18.02095903
 30
0.0
 11
-1.84530722
 21
17.96484842
 31
0.0
  0
LINE
  5
FE
100
AcDbEntity
  8
SLD-0
  6
CONTINUOUS
 62
       3
100
AcDbLine
 10
-1.84530722
 20
17.96484842
 30
0.0
 11
-1.78800903
 21
17.91049463
 31
0.0
  0
LINE
  5
FF
100
AcDbEntity
  8
SLD-0
  6
CONTINUOUS
 62
       3
100
AcDbLine
 10
-1.78800903
 20
17.91049463
 30
0.0
 11
-1.7290114
 21
17.85779613
 31
0.0
  0
LINE
  5
100
100
AcDbEntity
  8
SLD-0
  6
CONTINUOUS
 62
       3
100
AcDbLine
 10
-1.7290114
 20
17.85779613
 30
0.0
 11
-1.66872837
 21
17.80691803
 31
0.0
  0
LINE
  5
101
100
AcDbEntity
  8
SLD-0
  6
CONTINUOUS
 62
       3
100
AcDbLine
 10
-1.66872837
 20
17.80691803
 30
0.0
 11
-1.60727834
 21
17.75780118
 31
0.0
  0
LINE
  5
102
100
AcDbEntity
  8
SLD-0
  6
CONTINUOUS
 62
       3
100
AcDbLine
 10
-1.60727834
 20
17.75780118
 30
0.0
 11
-1.54473238
 21
17.71033826
 31
0.0
  0
LINE
  5
103
100
AcDbEntity
  8
SLD-0
  6
CONTINUOUS
 62
       3
100
AcDbLine
 10
-1.54473238
 20
17.71033826
 30
0.0
 11
-1.48116154
 21
17.66442196
 31
0.0
  0
LINE
  5
104
100
AcDbEntity
  8
SLD-0
  6
CONTINUOUS
 62
       3
100
AcDbLine
 10
-1.48116154
 20
17.66442196
 30
0.0
 11
-1.41663689
 21
17.61994496
 31
0.0
  0
LINE
  5
105
100
AcDbEntity
  8
SLD-0
  6
CONTINUOUS
 62
       3
100
AcDbLine
 10
-1.41663689
 20
17.61994496
 30
0.0
 11
-1.35122948
 21
17.57679995
 31
0.0
  0
LINE
  5
106
100
AcDbEntity
  8
SLD-0
  6
CONTINUOUS
 62
       3
100
AcDbLine
 10
-1.35122948
 20
17.57679995
 30
0.0
 11
-1.28501037
 21
17.53487961
 31
0.0
  0
LINE
  5
107
100
AcDbEntity
  8
SLD-0
  6
CONTINUOUS
 62
       3
100
AcDbLine
 10
-1.28501037
 20
17.53487961
 30
0.0
 11
-1.21803298
 21
17.4940865
 31
0.0
  0
LINE
  5
108
100
AcDbEntity
  8
SLD-0
  6
CONTINUOUS
 62
       3
100
AcDbLine
 10
-1.21803298
 20
17.4940865
 30
0.0
 11
-1.15033341
 21
17.45437576
 31
0.0
  0
LINE
  5
109
100
AcDbEntity
  8
SLD-0
  6
CONTINUOUS
 62
       3
100
AcDbLine
 10
-1.15033341
 20
17.45437576
 30
0.0
 11
-1.08195678
 21
17.41571899
 31
0.0
  0
LINE
  5
10A
100
AcDbEntity
  8
SLD-0
  6
CONTINUOUS
 62
       3
100
AcDbLine
 10
-1.08195678
 20
17.41571899
 30
0.0
 11
-1.01294817
 21
17.37808777
 31
0.0
  0
LINE
  5
10B
100
AcDbEntity
  8
SLD-0
  6
CONTINUOUS
 62
       3
100
AcDbLine
 10
-1.01294817
 20
17.37808777
 30
0.0
 11
-0.94335269
 21
17.3414537
 31
0.0
  0
LINE
  5
10C
100
AcDbEntity
  8
SLD-0
  6
CONTINUOUS
 62
       3
100
AcDbLine
 10
-0.94335269
 20
17.3414537
 30
0.0
 11
-0.87321544
 21
17.30578836
 31
0.0
  0
LINE
  5
10D
100
AcDbEntity
  8
SLD-0
  6
CONTINUOUS
 62
       3
100
AcDbLine
 10
-0.87321544
 20
17.30578836
 30
0.0
 11
-0.80258152
 21
17.27106334
 31
0.0
  0
LINE
  5
10E
100
AcDbEntity
  8
SLD-0
  6
CONTINUOUS
 62
       3
100
AcDbLine
 10
-0.80258152
 20
17.27106334
 30
0.0
 11
-0.73149605
 21
17.23725023
 31
0.0
  0
LINE
  5
10F
100
AcDbEntity
  8
SLD-0
  6
CONTINUOUS
 62
       3
100
AcDbLine
 10
-0.73149605
 20
17.23725023
 30
0.0
 11
-0.6600041
 21
17.20432062
 31
0.0
  0
LINE
  5
110
100
AcDbEntity
  8
SLD-0
  6
CONTINUOUS
 62
       3
100
AcDbLine
 10
-0.6600041
 20
17.20432062
 30
0.0
 11
-0.5881508
 21
17.17224609
 31
0.0
  0
LINE
  5
111
100
AcDbEntity
  8
SLD-0
  6
CONTINUOUS
 62
       3
100
AcDbLine
 10
-0.5881508
 20
17.17224609
 30
0.0
 11
-0.51598124
 21
17.14099824
 31
0.0
  0
LINE
  5
112
100
AcDbEntity
  8
SLD-0
  6
CONTINUOUS
 62
       3
100
AcDbLine
 10
-0.51598124
 20
17.14099824
 30
0.0
 11
-0.44354052
 21
17.11054865
 31
0.0
  0
LINE
  5
113
100
AcDbEntity
  8
SLD-0
  6
CONTINUOUS
 62
       3
100
AcDbLine
 10
-0.44354052
 20
17.11054865
 30
0.0
 11
-0.37087375
 21
17.08086892
 31
0.0
  0
LINE
  5
114
100
AcDbEntity
  8
SLD-0
  6
CONTINUOUS
 62
       3
100
AcDbLine
 10
-0.37087375
 20
17.08086892
 30
0.0
 11
-0.29802603
 21
17.05193062
 31
0.0
  0
LINE
  5
115
100
AcDbEntity
  8
SLD-0
  6
CONTINUOUS
 62
       3
100
AcDbLine
 10
-0.29802603
 20
17.05193062
 30
0.0
 11
-0.22504245
 21
17.02370536
 31
0.0
  0
LINE
  5
116
100
AcDbEntity
  8
SLD-0
  6
CONTINUOUS
 62
       3
100
AcDbLine
 10
-0.22504245
 20
17.02370536
 30
0.0
 11
-0.15190514
 21
16.99615592
 31
0.0
  0
LINE
  5
117
100
AcDbEntity
  8
SLD-0
  6
CONTINUOUS
 62
       3
100
AcDbLine
 10
-0.15190514
 20
16.99615592
 30
0.0
 11
-0.07856927
 21
16.96925384
 31
0.0
  0
LINE
  5
118
100
AcDbEntity
  8
SLD-0
  6
CONTINUOUS
 62
       3
100
AcDbLine
 10
-0.07856927
 20
16.96925384
 30
0.0
 11
-0.00503952
 21
16.94298384
 31
0.0
  0
LINE
  5
119
100
AcDbEntity
  8
SLD-0
  6
CONTINUOUS
 62
       3
100
AcDbLine
 10
-0.00503952
 20
16.94298384
 30
0.0
 11
0.06867944
 21
16.91733063
 31
0.0
  0
LINE
  5
11A
100
AcDbEntity
  8
SLD-0
  6
CONTINUOUS
 62
       3
100
AcDbLine
 10
0.06867944
 20
16.91733063
 30
0.0
 11
0.14258294
 21
16.89227892
 31
0.0
  0
LINE
  5
11B
100
AcDbEntity
  8
SLD-0
  6
CONTINUOUS
 62
       3
100
AcDbLine
 10
0.14258294
 20
16.89227892
 30
0.0
 11
0.21666629
 21
16.86781342
 31
0.0
  0
LINE
  5
11C
100
AcDbEntity
  8
SLD-0
  6
CONTINUOUS
 62
       3
100
AcDbLine
 10
0.21666629
 20
16.86781342
 30
0.0
 11
0.29092482
 21
16.84391884
 31
0.0
  0
LINE
  5
11D
100
AcDbEntity
  8
SLD-0
  6
CONTINUOUS
 62
       3
100
AcDbLine
 10
0.29092482
 20
16.84391884
 30
0.0
 11
0.36535386
 21
16.8205799
 31
0.0
  0
LINE
  5
11E
100
AcDbEntity
  8
SLD-0
  6
CONTINUOUS
 62
       3
100
AcDbLine
 10
0.36535386
 20
16.8205799
 30
0.0
 11
0.43994873
 21
16.79778129
 31
0.0
  0
LINE
  5
11F
100
AcDbEntity
  8
SLD-0
  6
CONTINUOUS
 62
       3
100
AcDbLine
 10
0.43994873
 20
16.79778129
 30
0.0
 11
0.51470476
 21
16.77550774
 31
0.0
  0
LINE
  5
120
100
AcDbEntity
  8
SLD-0
  6
CONTINUOUS
 62
       3
100
AcDbLine
 10
0.51470476
 20
16.77550774
 30
0.0
 11
0.58961727
 21
16.75374396
 31
0.0
  0
LINE
  5
121
100
AcDbEntity
  8
SLD-0
  6
CONTINUOUS
 62
       3
100
AcDbLine
 10
0.58961727
 20
16.75374396
 30
0.0
 11
0.66468158
 21
16.73247465
 31
0.0
  0
LINE
  5
122
100
AcDbEntity
  8
SLD-0
  6
CONTINUOUS
 62
       3
100
AcDbLine
 10
0.66468158
 20
16.73247465
 30
0.0
 11
0.73989302
 21
16.71168453
 31
0.0
  0
LINE
  5
123
100
AcDbEntity
  8
SLD-0
  6
CONTINUOUS
 62
       3
100
AcDbLine
 10
0.73989302
 20
16.71168453
 30
0.0
 11
0.81524691
 21
16.6913583
 31
0.0
  0
LINE
  5
124
100
AcDbEntity
  8
SLD-0
  6
CONTINUOUS
 62
       3
100
AcDbLine
 10
0.81524691
 20
16.6913583
 30
0.0
 11
0.89073858
 21
16.67148069
 31
0.0
  0
LINE
  5
125
100
AcDbEntity
  8
SLD-0
  6
CONTINUOUS
 62
       3
100
AcDbLine
 10
0.89073858
 20
16.67148069
 30
0.0
 11
0.96636522
 21
16.65204248
 31
0.0
  0
LINE
  5
126
100
AcDbEntity
  8
SLD-0
  6
CONTINUOUS
 62
       3
100
AcDbLine
 10
0.96636522
 20
16.65204248
 30
0.0
 11
1.0421258
 21
16.63304027
 31
0.0
  0
LINE
  5
127
100
AcDbEntity
  8
SLD-0
  6
CONTINUOUS
 62
       3
100
AcDbLine
 10
1.0421258
 20
16.63304027
 30
0.0
 11
1.11801831
 21
16.6144675
 31
0.0
  0
LINE
  5
128
100
AcDbEntity
  8
SLD-0
  6
CONTINUOUS
 62
       3
100
AcDbLine
 10
1.11801831
 20
16.6144675
 30
0.0
 11
1.19404074
 21
16.59631759
 31
0.0
  0
LINE
  5
129
100
AcDbEntity
  8
SLD-0
  6
CONTINUOUS
 62
       3
100
AcDbLine
 10
1.19404074
 20
16.59631759
 30
0.0
 11
1.27019108
 21
16.57858397
 31
0.0
  0
LINE
  5
12A
100
AcDbEntity
  8
SLD-0
  6
CONTINUOUS
 62
       3
100
AcDbLine
 10
1.27019108
 20
16.57858397
 30
0.0
 11
1.34646732
 21
16.56126006
 31
0.0
  0
LINE
  5
12B
100
AcDbEntity
  8
SLD-0
  6
CONTINUOUS
 62
       3
100
AcDbLine
 10
1.34646732
 20
16.56126006
 30
0.0
 11
1.42286746
 21
16.54433929
 31
0.0
  0
LINE
  5
12C
100
AcDbEntity
  8
SLD-0
  6
CONTINUOUS
 62
       3
100
AcDbLine
 10
1.42286746
 20
16.54433929
 30
0.0
 11
1.49938949
 21
16.52781509
 31
0.0
  0
LINE
  5
12D
100
AcDbEntity
  8
SLD-0
  6
CONTINUOUS
 62
       3
100
AcDbLine
 10
1.49938949
 20
16.52781509
 30
0.0
 11
1.5760314
 21
16.51168088
 31
0.0
  0
LINE
  5
12E
100
AcDbEntity
  8
SLD-0
  6
CONTINUOUS
 62
       3
100
AcDbLine
 10
1.5760314
 20
16.51168088
 30
0.0
 11
1.65279117
 21
16.49593008
 31
0.0
  0
LINE
  5
12F
100
AcDbEntity
  8
SLD-0
  6
CONTINUOUS
 62
       3
100
AcDbLine
 10
1.65279117
 20
16.49593008
 30
0.0
 11
1.72966681
 21
16.48055613
 31
0.0
  0
LINE
  5
130
100
AcDbEntity
  8
SLD-0
  6
CONTINUOUS
 62
       3
100
AcDbLine
 10
1.72966681
 20
16.48055613
 30
0.0
 11
1.8066563
 21
16.46555244
 31
0.0
  0
LINE
  5
131
100
AcDbEntity
  8
SLD-0
  6
CONTINUOUS
 62
       3
100
AcDbLine
 10
1.8066563
 20
16.46555244
 30
0.0
 11
1.88375763
 21
16.45091246
 31
0.0
  0
LINE
  5
132
100
AcDbEntity
  8
SLD-0
  6
CONTINUOUS
 62
       3
100
AcDbLine
 10
1.88375763
 20
16.45091246
 30
0.0
 11
1.9609688
 21
16.43662959
 31
0.0
  0
LINE
  5
133
100
AcDbEntity
  8
SLD-0
  6
CONTINUOUS
 62
       3
100
AcDbLine
 10
1.9609688
 20
16.43662959
 30
0.0
 11
2.0382878
 21
16.42269727
 31
0.0
  0
ENDBLK
  5
134
100
AcDbEntity
  8
0
100
AcDbBlockEnd
  0
BLOCK
  5
135
100
AcDbEntity
  8
0
100
AcDbBlockBegin
  2
GROUP_8
 70
       0
 10
0.0
 20
0.0
 30
0.0
  3
GROUP_8
  1

  0
LINE
  5
136
100
AcDbEntity
  8
SLD-0
  6
CONTINUOUS
 62
       3
100
AcDbLine
 10
51.89490108
 20
38.27734653
 30
0.0
 11
51.90505476
 21
38.35759629
 31
0.0
  0
LINE
  5
137
100
AcDbEntity
  8
SLD-0
  6
CONTINUOUS
 62
       3
100
AcDbLine
 10
51.90505476
 20
38.35759629
 30
0.0
 11
51.91529675
 21
38.4378347
 31
0.0
  0
LINE
  5
138
100
AcDbEntity
  8
SLD-0
  6
CONTINUOUS
 62
       3
100
AcDbLine
 10
51.91529675
 20
38.4378347
 30
0.0
 11
51.92563097
 21
38.5180611
 31
0.0
  0
LINE
  5
139
100
AcDbEntity
  8
SLD-0
  6
CONTINUOUS
 62
       3
100
AcDbLine
 10
51.92563097
 20
38.5180611
 30
0.0
 11
51.93606132
 21
38.5982748
 31
0.0
  0
LINE
  5
13A
100
AcDbEntity
  8
SLD-0
  6
CONTINUOUS
 62
       3
100
AcDbLine
 10
51.93606132
 20
38.5982748
 30
0.0
 11
51.94659171
 21
38.67847514
 31
0.0
  0
LINE
  5
13B
100
AcDbEntity
  8
SLD-0
  6
CONTINUOUS
 62
       3
100
AcDbLine
 10
51.94659171
 20
38.67847514
 30
0.0
 11
51.95722603
 21
38.75866144
 31
0.0
  0
LINE
  5
13C
100
AcDbEntity
  8
SLD-0
  6
CONTINUOUS
 62
       3
100
AcDbLine
 10
51.95722603
 20
38.75866144
 30
0.0
 11
51.96796819
 21
38.83883303
 31
0.0
  0
LINE
  5
13D
100
AcDbEntity
  8
SLD-0
  6
CONTINUOUS
 62
       3
100
AcDbLine
 10
51.96796819
 20
38.83883303
 30
0.0
 11
51.97882209
 21
38.91898924
 31
0.0
  0
LINE
  5
13E
100
AcDbEntity
  8
SLD-0
  6
CONTINUOUS
 62
       3
100
AcDbLine
 10
51.97882209
 20
38.91898924
 30
0.0
 11
51.98979165
 21
38.99912938
 31
0.0
  0
LINE
  5
13F
100
AcDbEntity
  8
SLD-0
  6
CONTINUOUS
 62
       3
100
AcDbLine
 10
51.98979165
 20
38.99912938
 30
0.0
 11
52.00088075
 21
39.07925281
 31
0.0
  0
LINE
  5
140
100
AcDbEntity
  8
SLD-0
  6
CONTINUOUS
 62
       3
100
AcDbLine
 10
52.00088075
 20
39.07925281
 30
0.0
 11
52.01209331
 21
39.15935882
 31
0.0
  0
LINE
  5
141
100
AcDbEntity
  8
SLD-0
  6
CONTINUOUS
 62
       3
100
AcDbLine
 10
52.01209331
 20
39.15935882
 30
0.0
 11
52.02343324
 21
39.23944677
 31
0.0
  0
LINE
  5
142
100
AcDbEntity
  8
SLD-0
  6
CONTINUOUS
 62
       3
100
AcDbLine
 10
52.02343324
 20
39.23944677
 30
0.0
 11
52.03490442
 21
39.31951596
 31
0.0
  0
LINE
  5
143
100
AcDbEntity
  8
SLD-0
  6
CONTINUOUS
 62
       3
100
AcDbLine
 10
52.03490442
 20
39.31951596
 30
0.0
 11
52.04651077
 21
39.39956573
 31
0.0
  0
LINE
  5
144
100
AcDbEntity
  8
SLD-0
  6
CONTINUOUS
 62
       3
100
AcDbLine
 10
52.04651077
 20
39.39956573
 30
0.0
 11
52.0582562
 21
39.47959541
 31
0.0
  0
LINE
  5
145
100
AcDbEntity
  8
SLD-0
  6
CONTINUOUS
 62
       3
100
AcDbLine
 10
52.0582562
 20
39.47959541
 30
0.0
 11
52.07014459
 21
39.55960433
 31
0.0
  0
LINE
  5
146
100
AcDbEntity
  8
SLD-0
  6
CONTINUOUS
 62
       3
100
AcDbLine
 10
52.07014459
 20
39.55960433
 30
0.0
 11
52.08217987
 21
39.6395918
 31
0.0
  0
LINE
  5
147
100
AcDbEntity
  8
SLD-0
  6
CONTINUOUS
 62
       3
100
AcDbLine
 10
52.08217987
 20
39.6395918
 30
0.0
 11
52.09436593
 21
39.71955716
 31
0.0
  0
LINE
  5
148
100
AcDbEntity
  8
SLD-0
  6
CONTINUOUS
 62
       3
100
AcDbLine
 10
52.09436593
 20
39.71955716
 30
0.0
 11
52.10670668
 21
39.79949974
 31
0.0
  0
LINE
  5
149
100
AcDbEntity
  8
SLD-0
  6
CONTINUOUS
 62
       3
100
AcDbLine
 10
52.10670668
 20
39.79949974
 30
0.0
 11
52.11920601
 21
39.87941886
 31
0.0
  0
ENDBLK
  5
14A
100
AcDbEntity
  8
0
100
AcDbBlockEnd
  0
BLOCK
  5
14B
100
AcDbEntity
  8
0
100
AcDbBlockBegin
  2
GROUP_9
 70
       0
 10
0.0
 20
0.0
 30
0.0
  3
GROUP_9
  1

  0
LINE
  5
14C
100
AcDbEntity
  8
SLD-0
  6
CONTINUOUS
 62
       3
100
AcDbLine
 10
9.37836988
 20
16.42269727
 30
0.0
 11
9.2326797
 21
16.39751513
 31
0.0
  0
LINE
  5
14D
100
AcDbEntity
  8
SLD-0
  6
CONTINUOUS
 62
       3
100
AcDbLine
 10
9.2326797
 20
16.39751513
 30
0.0
 11
9.08686025
 21
16.37373413
 31
0.0
  0
LINE
  5
14E
100
AcDbEntity
  8
SLD-0
  6
CONTINUOUS
 62
       3
100
AcDbLine
 10
9.08686025
 20
16.37373413
 30
0.0
 11
8.94091462
 21
16.35131247
 31
0.0
  0
LINE
  5
14F
100
AcDbEntity
  8
SLD-0
  6
CONTINUOUS
 62
       3
100
AcDbLine
 10
8.94091462
 20
16.35131247
 30
0.0
 11
8.79484593
 21
16.33020835
 31
0.0
  0
LINE
  5
150
100
AcDbEntity
  8
SLD-0
  6
CONTINUOUS
 62
       3
100
AcDbLine
 10
8.79484593
 20
16.33020835
 30
0.0
 11
8.64865729
 21
16.31037998
 31
0.0
  0
LINE
  5
151
100
AcDbEntity
  8
SLD-0
  6
CONTINUOUS
 62
       3
100
AcDbLine
 10
8.64865729
 20
16.31037998
 30
0.0
 11
8.5023518
 21
16.29178554
 31
0.0
  0
LINE
  5
152
100
AcDbEntity
  8
SLD-0
  6
CONTINUOUS
 62
       3
100
AcDbLine
 10
8.5023518
 20
16.29178554
 30
0.0
 11
8.35593257
 21
16.27438323
 31
0.0
  0
LINE
  5
153
100
AcDbEntity
  8
SLD-0
  6
CONTINUOUS
 62
       3
100
AcDbLine
 10
8.35593257
 20
16.27438323
 30
0.0
 11
8.2094027
 21
16.25813126
 31
0.0
  0
LINE
  5
154
100
AcDbEntity
  8
SLD-0
  6
CONTINUOUS
 62
       3
100
AcDbLine
 10
8.2094027
 20
16.25813126
 30
0.0
 11
8.06276532
 21
16.24298782
 31
0.0
  0
LINE
  5
155
100
AcDbEntity
  8
SLD-0
  6
CONTINUOUS
 62
       3
100
AcDbLine
 10
8.06276532
 20
16.24298782
 30
0.0
 11
7.91602352
 21
16.2289111
 31
0.0
  0
LINE
  5
156
100
AcDbEntity
  8
SLD-0
  6
CONTINUOUS
 62
       3
100
AcDbLine
 10
7.91602352
 20
16.2289111
 30
0.0
 11
7.76918042
 21
16.21585931
 31
0.0
  0
LINE
  5
157
100
AcDbEntity
  8
SLD-0
  6
CONTINUOUS
 62
       3
100
AcDbLine
 10
7.76918042
 20
16.21585931
 30
0.0
 11
7.62223912
 21
16.20379064
 31
0.0
  0
LINE
  5
158
100
AcDbEntity
  8
SLD-0
  6
CONTINUOUS
 62
       3
100
AcDbLine
 10
7.62223912
 20
16.20379064
 30
0.0
 11
7.47519657
 21
16.19266745
 31
0.0
  0
LINE
  5
159
100
AcDbEntity
  8
SLD-0
  6
CONTINUOUS
 62
       3
100
AcDbLine
 10
7.47519657
 20
16.19266745
 30
0.0
 11
7.32802427
 21
16.18248511
 31
0.0
  0
LINE
  5
15A
100
AcDbEntity
  8
SLD-0
  6
CONTINUOUS
 62
       3
100
AcDbLine
 10
7.32802427
 20
16.18248511
 30
0.0
 11
7.18073291
 21
16.17323735
 31
0.0
  0
LINE
  5
15B
100
AcDbEntity
  8
SLD-0
  6
CONTINUOUS
 62
       3
100
AcDbLine
 10
7.18073291
 20
16.17323735
 30
0.0
 11
7.03333994
 21
16.16491511
 31
0.0
  0
LINE
  5
15C
100
AcDbEntity
  8
SLD-0
  6
CONTINUOUS
 62
       3
100
AcDbLine
 10
7.03333994
 20
16.16491511
 30
0.0
 11
6.88586281
 21
16.15750933
 31
0.0
  0
LINE
  5
15D
100
AcDbEntity
  8
SLD-0
  6
CONTINUOUS
 62
       3
100
AcDbLine
 10
6.88586281
 20
16.15750933
 30
0.0
 11
6.73831895
 21
16.15101094
 31
0.0
  0
LINE
  5
15E
100
AcDbEntity
  8
SLD-0
  6
CONTINUOUS
 62
       3
100
AcDbLine
 10
6.73831895
 20
16.15101094
 30
0.0
 11
6.59072584
 21
16.14541088
 31
0.0
  0
LINE
  5
15F
100
AcDbEntity
  8
SLD-0
  6
CONTINUOUS
 62
       3
100
AcDbLine
 10
6.59072584
 20
16.14541088
 30
0.0
 11
6.4431009
 21
16.1407001
 31
0.0
  0
LINE
  5
160
100
AcDbEntity
  8
SLD-0
  6
CONTINUOUS
 62
       3
100
AcDbLine
 10
6.4431009
 20
16.1407001
 30
0.0
 11
6.29546159
 21
16.13686952
 31
0.0
  0
LINE
  5
161
100
AcDbEntity
  8
SLD-0
  6
CONTINUOUS
 62
       3
100
AcDbLine
 10
6.29546159
 20
16.13686952
 30
0.0
 11
6.14782536
 21
16.13391008
 31
0.0
  0
LINE
  5
162
100
AcDbEntity
  8
SLD-0
  6
CONTINUOUS
 62
       3
100
AcDbLine
 10
6.14782536
 20
16.13391008
 30
0.0
 11
6.00020966
 21
16.13181274
 31
0.0
  0
LINE
  5
163
100
AcDbEntity
  8
SLD-0
  6
CONTINUOUS
 62
       3
100
AcDbLine
 10
6.00020966
 20
16.13181274
 30
0.0
 11
5.85263194
 21
16.13056841
 31
0.0
  0
LINE
  5
164
100
AcDbEntity
  8
SLD-0
  6
CONTINUOUS
 62
       3
100
AcDbLine
 10
5.85263194
 20
16.13056841
 30
0.0
 11
5.70510964
 21
16.13016804
 31
0.0
  0
LINE
  5
165
100
AcDbEntity
  8
SLD-0
  6
CONTINUOUS
 62
       3
100
AcDbLine
 10
5.70510964
 20
16.13016804
 30
0.0
 11
5.55765093
 21
16.13060315
 31
0.0
  0
LINE
  5
166
100
AcDbEntity
  8
SLD-0
  6
CONTINUOUS
 62
       3
100
AcDbLine
 10
5.55765093
 20
16.13060315
 30
0.0
 11
5.41025267
 21
16.13187741
 31
0.0
  0
LINE
  5
167
100
AcDbEntity
  8
SLD-0
  6
CONTINUOUS
 62
       3
100
AcDbLine
 10
5.41025267
 20
16.13187741
 30
0.0
 11
5.2629153
 21
16.13400001
 31
0.0
  0
LINE
  5
168
100
AcDbEntity
  8
SLD-0
  6
CONTINUOUS
 62
       3
100
AcDbLine
 10
5.2629153
 20
16.13400001
 30
0.0
 11
5.1156393
 21
16.13698015
 31
0.0
  0
LINE
  5
169
100
AcDbEntity
  8
SLD-0
  6
CONTINUOUS
 62
       3
100
AcDbLine
 10
5.1156393
 20
16.13698015
 30
0.0
 11
4.96842511
 21
16.140827
 31
0.0
  0
LINE
  5
16A
100
AcDbEntity
  8
SLD-0
  6
CONTINUOUS
 62
       3
100
AcDbLine
 10
4.96842511
 20
16.140827
 30
0.0
 11
4.8212732
 21
16.14554975
 31
0.0
  0
LINE
  5
16B
100
AcDbEntity
  8
SLD-0
  6
CONTINUOUS
 62
       3
100
AcDbLine
 10
4.8212732
 20
16.14554975
 30
0.0
 11
4.67418403
 21
16.15115759
 31
0.0
  0
LINE
  5
16C
100
AcDbEntity
  8
SLD-0
  6
CONTINUOUS
 62
       3
100
AcDbLine
 10
4.67418403
 20
16.15115759
 30
0.0
 11
4.52715805
 21
16.15765971
 31
0.0
  0
LINE
  5
16D
100
AcDbEntity
  8
SLD-0
  6
CONTINUOUS
 62
       3
100
AcDbLine
 10
4.52715805
 20
16.15765971
 30
0.0
 11
4.38019573
 21
16.16506529
 31
0.0
  0
LINE
  5
16E
100
AcDbEntity
  8
SLD-0
  6
CONTINUOUS
 62
       3
100
AcDbLine
 10
4.38019573
 20
16.16506529
 30
0.0
 11
4.23329752
 21
16.17338353
 31
0.0
  0
LINE
  5
16F
100
AcDbEntity
  8
SLD-0
  6
CONTINUOUS
 62
       3
100
AcDbLine
 10
4.23329752
 20
16.17338353
 30
0.0
 11
4.08646389
 21
16.1826236
 31
0.0
  0
LINE
  5
170
100
AcDbEntity
  8
SLD-0
  6
CONTINUOUS
 62
       3
100
AcDbLine
 10
4.08646389
 20
16.1826236
 30
0.0
 11
3.9396953
 21
16.19279469
 31
0.0
  0
LINE
  5
171
100
AcDbEntity
  8
SLD-0
  6
CONTINUOUS
 62
       3
100
AcDbLine
 10
3.9396953
 20
16.19279469
 30
0.0
 11
3.79299205
 21
16.2039033
 31
0.0
  0
LINE
  5
172
100
AcDbEntity
  8
SLD-0
  6
CONTINUOUS
 62
       3
100
AcDbLine
 10
3.79299205
 20
16.2039033
 30
0.0
 11
3.64635443
 21
16.21595491
 31
0.0
  0
LINE
  5
173
100
AcDbEntity
  8
SLD-0
  6
CONTINUOUS
 62
       3
100
AcDbLine
 10
3.64635443
 20
16.21595491
 30
0.0
 11
3.49978443
 21
16.22898813
 31
0.0
  0
LINE
  5
174
100
AcDbEntity
  8
SLD-0
  6
CONTINUOUS
 62
       3
100
AcDbLine
 10
3.49978443
 20
16.22898813
 30
0.0
 11
3.35328424
 21
16.24304561
 31
0.0
  0
LINE
  5
175
100
AcDbEntity
  8
SLD-0
  6
CONTINUOUS
 62
       3
100
AcDbLine
 10
3.35328424
 20
16.24304561
 30
0.0
 11
3.20685608
 21
16.25817005
 31
0.0
  0
LINE
  5
176
100
AcDbEntity
  8
SLD-0
  6
CONTINUOUS
 62
       3
100
AcDbLine
 10
3.20685608
 20
16.25817005
 30
0.0
 11
3.06050213
 21
16.27440412
 31
0.0
  0
LINE
  5
177
100
AcDbEntity
  8
SLD-0
  6
CONTINUOUS
 62
       3
100
AcDbLine
 10
3.06050213
 20
16.27440412
 30
0.0
 11
2.91422461
 21
16.29179049
 31
0.0
  0
LINE
  5
178
100
AcDbEntity
  8
SLD-0
  6
CONTINUOUS
 62
       3
100
AcDbLine
 10
2.91422461
 20
16.29179049
 30
0.0
 11
2.76802572
 21
16.31037186
 31
0.0
  0
LINE
  5
179
100
AcDbEntity
  8
SLD-0
  6
CONTINUOUS
 62
       3
100
AcDbLine
 10
2.76802572
 20
16.31037186
 30
0.0
 11
2.62190766
 21
16.33019089
 31
0.0
  0
LINE
  5
17A
100
AcDbEntity
  8
SLD-0
  6
CONTINUOUS
 62
       3
100
AcDbLine
 10
2.62190766
 20
16.33019089
 30
0.0
 11
2.47587264
 21
16.35129027
 31
0.0
  0
LINE
  5
17B
100
AcDbEntity
  8
SLD-0
  6
CONTINUOUS
 62
       3
100
AcDbLine
 10
2.47587264
 20
16.35129027
 30
0.0
 11
2.32992285
 21
16.37371267
 31
0.0
  0
LINE
  5
17C
100
AcDbEntity
  8
SLD-0
  6
CONTINUOUS
 62
       3
100
AcDbLine
 10
2.32992285
 20
16.37371267
 30
0.0
 11
2.18406051
 21
16.39750078
 31
0.0
  0
LINE
  5
17D
100
AcDbEntity
  8
SLD-0
  6
CONTINUOUS
 62
       3
100
AcDbLine
 10
2.18406051
 20
16.39750078
 30
0.0
 11
2.0382878
 21
16.42269727
 31
0.0
  0
ENDBLK
  5
17E
100
AcDbEntity
  8
0
100
AcDbBlockEnd
  0
ENDSEC
  0
SECTION
  2
ENTITIES
  0
LINE
  5
17F
100
AcDbEntity
  8
SLD-0
  6
CONTINUOUS
 62
       3
100
AcDbLine
 10
19.20832509
 20
14.81010885
 30
0.0
 11
-95.79167489
 21
14.81010885
 31
0.0
  0
LINE
  5
180
100
AcDbEntity
  8
SLD-0
  6
CONTINUOUS
 62
       3
100
AcDbLine
 10
52.40670806
 20
41.64614259
 30
0.0
 11
103.75832798
 21
41.64614259
 31
0.0
  0
LINE
  5
181
100
AcDbEntity
  8
SLD-0
  6
CONTINUOUS
 62
       3
100
AcDbLine
 10
74.1318152
 20
-8.35385437
 30
0.0
 11
103.1318152
 21
-8.35385437
 31
0.0
  0
LINE
  5
182
100
AcDbEntity
  8
SLD-0
  6
CONTINUOUS
 62
       3
100
AcDbLine
 10
73.63181522
 20
14.81010885
 30
0.0
 11
73.63181522
 21
-7.85385437
 31
0.0
  0
LINE
  5
183
100
AcDbEntity
  8
SLD-0
  6
CONTINUOUS
 62
       3
100
AcDbLine
 10
52.1093139
 20
16.42269733
 30
0.0
 11
52.10202295
 21
16.42269733
 31
0.0
  0
LINE
  5
184
100
AcDbEntity
  8
SLD-0
  6
CONTINUOUS
 62
       3
100
AcDbLine
 10
19.2083252
 20
18.3331366
 30
0.0
 11
-95.79167499
 21
18.3331366
 31
0.0
  0
LINE
  5
185
100
AcDbEntity
  8
SLD-0
  6
CONTINUOUS
 62
       3
100
AcDbLine
 10
19.20832577
 20
38.01505927
 30
0.0
 11
-95.79167556
 21
38.01505927
 31
0.0
  0
LINE
  5
186
100
AcDbEntity
  8
SLD-0
  6
CONTINUOUS
 62
       3
100
AcDbLine
 10
19.2083255
 20
28.7061277
 30
0.0
 11
-95.79167529
 21
28.70614487
 31
0.0
  0
LINE
  5
187
100
AcDbEntity
  8
SLD-0
  6
CONTINUOUS
 62
       3
100
AcDbLine
 10
19.20832569
 20
35.30616384
 30
0.0
 11
-95.79167548
 21
35.30614432
 31
0.0
  0
LINE
  5
188
100
AcDbEntity
  8
SLD-0
  6
CONTINUOUS
 62
       3
100
AcDbLine
 10
18.70832586
 20
41.64614385
 30
0.0
 11
-95.29167565
 21
41.64614385
 31
0.0
  0
LINE
  5
189
100
AcDbEntity
  8
SLD-0
  6
CONTINUOUS
 62
       3
100
AcDbLine
 10
-95.79167423
 20
-7.85385488
 30
0.0
 11
-95.79167565
 21
41.14614384
 31
0.0
  0
LINE
  5
18A
100
AcDbEntity
  8
SLD-0
  6
CONTINUOUS
 62
       3
100
AcDbLine
 10
19.20832586
 20
41.14614384
 30
0.0
 11
19.20832444
 21
-7.85385488
 31
0.0
  0
LINE
  5
18B
100
AcDbEntity
  8
SLD-0
  6
CONTINUOUS
 62
       3
100
AcDbLine
 10
18.70832444
 20
-8.35385487
 30
0.0
 11
-61.87338862
 21
-8.35385487
 31
0.0
  0
LINE
  5
18C
100
AcDbEntity
  8
SLD-0
  6
CONTINUOUS
 62
       3
100
AcDbLine
 10
-31.3916749
 20
-8.40364805
 30
0.0
 11
-31.3916749
 21
-8.35385455
 31
0.0
  0
LINE
  5
18D
100
AcDbEntity
  8
SLD-0
  6
CONTINUOUS
 62
       3
100
AcDbLine
 10
-45.1916749
 20
-8.40364805
 30
0.0
 11
-45.1916749
 21
-8.35385455
 31
0.0
  0
LINE
  5
18E
100
AcDbEntity
  8
SLD-0
  6
CONTINUOUS
 62
       3
100
AcDbLine
 10
-46.6916749
 20
-9.35385519
 30
0.0
 11
-46.6916746
 21
-8.35385455
 31
0.0
  0
LINE
  5
18F
100
AcDbEntity
  8
SLD-0
  6
CONTINUOUS
 62
       3
100
AcDbLine
 10
-29.8916749
 20
-9.35385519
 30
0.0
 11
-29.8916752
 21
-8.35385455
 31
0.0
  0
LINE
  5
190
100
AcDbEntity
  8
SLD-0
  6
CONTINUOUS
 62
       3
100
AcDbLine
 10
100.53181546
 20
-11.35385504
 30
0.0
 11
103.13181552
 21
-11.35385504
 31
0.0
  0
LINE
  5
191
100
AcDbEntity
  8
SLD-0
  6
CONTINUOUS
 62
       3
100
AcDbLine
 10
51.56258603
 20
35.17579065
 30
0.0
 11
51.62851387
 21
35.17809314
 31
0.0
  0
LINE
  5
192
100
AcDbEntity
  8
SLD-0
  6
CONTINUOUS
 62
       3
100
AcDbLine
 10
51.3350355
 20
28.84444491
 30
0.0
 11
51.26019545
 21
28.84705869
 31
0.0
  0
LINE
  5
193
100
AcDbEntity
  8
SLD-0
  6
CONTINUOUS
 62
       3
100
AcDbLine
 10
51.86237617
 20
38.01505927
 30
0.0
 11
51.85635107
 21
37.96556225
 31
0.0
  0
LINE
  5
194
100
AcDbEntity
  8
SLD-0
  6
CONTINUOUS
 62
       3
100
AcDbLine
 10
87.03181581
 20
41.64614259
 30
0.0
 11
87.03181581
 21
40.14614401
 31
0.0
  0
LINE
  5
195
100
AcDbEntity
  8
SLD-0
  6
CONTINUOUS
 62
       3
100
AcDbLine
 10
82.33181634
 20
40.10512856
 30
0.0
 11
87.03181581
 21
40.14614401
 31
0.0
  0
LINE
  5
196
100
AcDbEntity
  8
SLD-0
  6
CONTINUOUS
 62
       3
100
AcDbLine
 10
82.33181634
 20
40.10512856
 30
0.0
 11
82.33181634
 21
35.04614522
 31
0.0
  0
LINE
  5
197
100
AcDbEntity
  8
SLD-0
  6
CONTINUOUS
 62
       3
100
AcDbLine
 10
82.33181634
 20
35.04614522
 30
0.0
 11
60.52178019
 21
35.04614522
 31
0.0
  0
LINE
  5
198
100
AcDbEntity
  8
SLD-0
  6
CONTINUOUS
 62
       3
100
AcDbLine
 10
60.52178019
 20
35.04614522
 30
0.0
 11
60.52178019
 21
27.04614484
 31
0.0
  0
LINE
  5
199
100
AcDbEntity
  8
SLD-0
  6
CONTINUOUS
 62
       3
100
AcDbLine
 10
60.52178019
 20
27.04614484
 30
0.0
 11
82.33181601
 21
27.04614484
 31
0.0
  0
LINE
  5
19A
100
AcDbEntity
  8
SLD-0
  6
CONTINUOUS
 62
       3
100
AcDbLine
 10
82.33181601
 20
27.04614484
 30
0.0
 11
82.33181601
 21
-6.81283927
 31
0.0
  0
LINE
  5
19B
100
AcDbEntity
  8
SLD-0
  6
CONTINUOUS
 62
       3
100
AcDbLine
 10
82.33181601
 20
-6.81283927
 30
0.0
 11
87.03181548
 21
-6.85385472
 31
0.0
  0
LINE
  5
19C
100
AcDbEntity
  8
SLD-0
  6
CONTINUOUS
 62
       3
100
AcDbLine
 10
87.03181548
 20
-6.85385472
 30
0.0
 11
87.03181548
 21
-8.35385488
 31
0.0
  0
LINE
  5
19D
100
AcDbEntity
  8
SLD-0
  6
CONTINUOUS
 62
       3
100
AcDbLine
 10
54.93181446
 20
19.04614492
 30
0.0
 11
54.93181446
 21
36.79614504
 31
0.0
  0
LINE
  5
19E
100
AcDbEntity
  8
SLD-0
  6
CONTINUOUS
 62
       3
100
AcDbLine
 10
51.84343784
 20
18.3331366
 30
0.0
 11
54.93181446
 21
19.04614492
 31
0.0
  0
LINE
  5
19F
100
AcDbEntity
  8
SLD-0
  6
CONTINUOUS
 62
       3
100
AcDbLine
 10
54.93181446
 20
36.79614504
 30
0.0
 11
52.17976864
 21
38.13840777
 31
0.0
  0
LINE
  5
1A0
100
AcDbEntity
  8
SLD-0
  6
CONTINUOUS
 62
       3
100
AcDbLine
 10
73.63181522
 20
14.81010885
 30
0.0
 11
53.5642194
 21
15.16039006
 31
0.0
  0
LINE
  5
1A1
100
AcDbEntity
  8
SLD-0
  6
CONTINUOUS
 62
       3
100
AcDbLine
 10
60.53181612
 20
34.84614556
 30
0.0
 11
60.53181612
 21
27.2461445
 31
0.0
  0
LINE
  5
1A2
100
AcDbEntity
  8
SLD-0
  6
CONTINUOUS
 62
       3
100
AcDbLine
 10
103.13181552
 20
-9.35385471
 30
0.0
 11
100.53181546
 21
-9.35385471
 31
0.0
  0
LINE
  5
1A3
100
AcDbEntity
  8
SLD-0
  6
CONTINUOUS
 62
       3
100
AcDbLine
 10
100.53181546
 20
-11.35385504
 30
0.0
 11
100.53181546
 21
-9.35385471
 31
0.0
  0
LINE
  5
1A4
100
AcDbEntity
  8
SLD-0
  6
CONTINUOUS
 62
       3
100
AcDbLine
 10
103.13181552
 20
-11.35385504
 30
0.0
 11
103.13181552
 21
-9.35385471
 31
0.0
  0
LINE
  5
1A5
100
AcDbEntity
  8
SLD-0
  6
CONTINUOUS
 62
       3
100
AcDbLine
 10
100.53181546
 20
-9.35385471
 30
0.0
 11
100.53181546
 21
-8.35385455
 31
0.0
  0
LINE
  5
1A6
100
AcDbEntity
  8
SLD-0
  6
CONTINUOUS
 62
       3
100
AcDbLine
 10
103.6318152
 20
-0.64391197
 30
0.0
 11
100.65832789
 21
-0.64391262
 31
0.0
  0
LINE
  5
1A7
100
AcDbEntity
  8
SLD-0
  6
CONTINUOUS
 62
       3
100
AcDbLine
 10
101.75832848
 20
-0.64391238
 30
0.0
 11
101.75832848
 21
0.85608848
 31
0.0
  0
LINE
  5
1A8
100
AcDbEntity
  8
SLD-0
  6
CONTINUOUS
 62
       3
100
AcDbLine
 10
102.05832856
 20
0.85608848
 30
0.0
 11
101.75832848
 21
0.85608848
 31
0.0
  0
LINE
  5
1A9
100
AcDbEntity
  8
SLD-0
  6
CONTINUOUS
 62
       3
100
AcDbLine
 10
103.25832856
 20
-0.64391269
 30
0.0
 11
102.05832856
 21
0.85608848
 31
0.0
  0
LINE
  5
1AA
100
AcDbEntity
  8
SLD-0
  6
CONTINUOUS
 62
       3
100
AcDbLine
 10
103.13181552
 20
-9.35385471
 30
0.0
 11
103.1318152
 21
-8.35385437
 31
0.0
  0
LINE
  5
1AB
100
AcDbEntity
  8
SLD-0
  6
CONTINUOUS
 62
       3
100
AcDbLine
 10
103.45832796
 20
34.90496249
 30
0.0
 11
100.65832789
 21
34.85608854
 31
0.0
  0
LINE
  5
1AC
100
AcDbEntity
  8
SLD-0
  6
CONTINUOUS
 62
       3
100
AcDbLine
 10
103.75832798
 20
41.64614259
 30
0.0
 11
103.75832798
 21
35.20500854
 31
0.0
  0
LINE
  5
1AD
100
AcDbEntity
  8
SLD-0
  6
CONTINUOUS
 62
       3
100
AcDbLine
 10
103.4635637
 20
34.90505353
 30
0.0
 11
103.45832796
 21
34.90496249
 31
0.0
  0
LINE
  5
1AE
100
AcDbEntity
  8
SLD-0
  6
CONTINUOUS
 62
       3
100
AcDbLine
 10
103.6318152
 20
-0.64391197
 30
0.0
 11
103.6318152
 21
-7.85385437
 31
0.0
  0
LINE
  5
1AF
100
AcDbEntity
  8
SLD-0
  6
CONTINUOUS
 62
       3
100
AcDbLine
 10
100.65832789
 20
-0.64391262
 30
0.0
 11
100.65832789
 21
34.85608854
 31
0.0
  0
LINE
  5
1B0
100
AcDbEntity
  8
SLD-0
  6
CONTINUOUS
 62
       3
100
AcDbLine
 10
101.75832798
 20
34.87528859
 30
0.0
 11
101.84749653
 21
33.85608829
 31
0.0
  0
LINE
  5
1B1
100
AcDbEntity
  8
SLD-0
  6
CONTINUOUS
 62
       3
100
AcDbLine
 10
102.17548541
 20
33.35608727
 30
0.0
 11
101.89124087
 21
33.35608727
 31
0.0
  0
LINE
  5
1B2
100
AcDbEntity
  8
SLD-0
  6
CONTINUOUS
 62
       3
100
AcDbLine
 10
101.89124087
 20
33.35608727
 30
0.0
 11
101.89057637
 21
33.36368314
 31
0.0
  0
LINE
  5
1B3
100
AcDbEntity
  8
SLD-0
  6
CONTINUOUS
 62
       3
100
AcDbLine
 10
101.89057637
 20
33.36368314
 30
0.0
 11
101.88860278
 21
33.38624163
 31
0.0
  0
LINE
  5
1B4
100
AcDbEntity
  8
SLD-0
  6
CONTINUOUS
 62
       3
100
AcDbLine
 10
101.88860278
 20
33.38624163
 30
0.0
 11
101.88538029
 21
33.42307544
 31
0.0
  0
LINE
  5
1B5
100
AcDbEntity
  8
SLD-0
  6
CONTINUOUS
 62
       3
100
AcDbLine
 10
101.88538029
 20
33.42307544
 30
0.0
 11
101.88100668
 21
33.47306511
 31
0.0
  0
LINE
  5
1B6
100
AcDbEntity
  8
SLD-0
  6
CONTINUOUS
 62
       3
100
AcDbLine
 10
101.88100668
 20
33.47306511
 30
0.0
 11
101.8756149
 21
33.53469445
 31
0.0
  0
LINE
  5
1B7
100
AcDbEntity
  8
SLD-0
  6
CONTINUOUS
 62
       3
100
AcDbLine
 10
101.8756149
 20
33.53469445
 30
0.0
 11
101.86936876
 21
33.60608778
 31
0.0
  0
LINE
  5
1B8
100
AcDbEntity
  8
SLD-0
  6
CONTINUOUS
 62
       3
100
AcDbLine
 10
101.86936876
 20
33.60608778
 30
0.0
 11
101.86245799
 21
33.68507697
 31
0.0
  0
LINE
  5
1B9
100
AcDbEntity
  8
SLD-0
  6
CONTINUOUS
 62
       3
100
AcDbLine
 10
101.86245799
 20
33.68507697
 30
0.0
 11
101.85509275
 21
33.76926294
 31
0.0
  0
LINE
  5
1BA
100
AcDbEntity
  8
SLD-0
  6
CONTINUOUS
 62
       3
100
AcDbLine
 10
101.85509275
 20
33.76926294
 30
0.0
 11
101.84749653
 21
33.85608829
 31
0.0
  0
LINE
  5
1BB
100
AcDbEntity
  8
SLD-0
  6
CONTINUOUS
 62
       3
100
AcDbLine
 10
102.61690667
 20
33.71466701
 30
0.0
 11
102.56481221
 21
33.66257255
 31
0.0
  0
LINE
  5
1BC
100
AcDbEntity
  8
SLD-0
  6
CONTINUOUS
 62
       3
100
AcDbLine
 10
102.56481221
 20
33.66257255
 30
0.0
 11
102.51430065
 21
33.61206134
 31
0.0
  0
LINE
  5
1BD
100
AcDbEntity
  8
SLD-0
  6
CONTINUOUS
 62
       3
100
AcDbLine
 10
102.51430065
 20
33.61206134
 30
0.0
 11
102.46690669
 21
33.56466634
 31
0.0
  0
LINE
  5
1BE
100
AcDbEntity
  8
SLD-0
  6
CONTINUOUS
 62
       3
100
AcDbLine
 10
102.46690669
 20
33.56466634
 30
0.0
 11
102.4240704
 21
33.52183109
 31
0.0
  0
LINE
  5
1BF
100
AcDbEntity
  8
SLD-0
  6
CONTINUOUS
 62
       3
100
AcDbLine
 10
102.4240704
 20
33.52183109
 30
0.0
 11
102.3870934
 21
33.48485385
 31
0.0
  0
LINE
  5
1C0
100
AcDbEntity
  8
SLD-0
  6
CONTINUOUS
 62
       3
100
AcDbLine
 10
102.3870934
 20
33.48485385
 30
0.0
 11
102.35709911
 21
33.45485968
 31
0.0
  0
LINE
  5
1C1
100
AcDbEntity
  8
SLD-0
  6
CONTINUOUS
 62
       3
100
AcDbLine
 10
102.35709911
 20
33.45485968
 30
0.0
 11
102.33499894
 21
33.43275939
 31
0.0
  0
LINE
  5
1C2
100
AcDbEntity
  8
SLD-0
  6
CONTINUOUS
 62
       3
100
AcDbLine
 10
102.33499894
 20
33.43275939
 30
0.0
 11
102.32146438
 21
33.41922355
 31
0.0
  0
LINE
  5
1C3
100
AcDbEntity
  8
SLD-0
  6
CONTINUOUS
 62
       3
100
AcDbLine
 10
102.32146438
 20
33.41922355
 30
0.0
 11
102.31690672
 21
33.41466566
 31
0.0
  0
LINE
  5
1C4
100
AcDbEntity
  8
SLD-0
  6
CONTINUOUS
 62
       3
100
AcDbLine
 10
103.67046009
 20
34.76822009
 30
0.0
 11
102.61690667
 21
33.71466701
 31
0.0
  0
LINE
  5
1C5
100
AcDbEntity
  8
SLD-0
  6
CONTINUOUS
 62
       3
100
AcDbLine
 10
103.75832798
 20
35.20500854
 30
0.0
 11
103.75832798
 21
34.98035203
 31
0.0
  0
ARC
  5
1C6
100
AcDbEntity
  8
SLD-0
  6
CONTINUOUS
 62
       3
100
AcDbCircle
 10
103.1318152
 20
-7.85385437
 30
0.0
 40
0.5
100
AcDbArc
 50
270.0
 51
360.0
  0
ARC
  5
1C7
100
AcDbEntity
  8
SLD-0
  6
CONTINUOUS
 62
       3
100
AcDbCircle
 10
-95.29167565
 20
41.14614385
 30
0.0
 40
0.5
100
AcDbArc
 50
90.0
 51
180.00000115
  0
ARC
  5
1C8
100
AcDbEntity
  8
SLD-0
  6
CONTINUOUS
 62
       3
100
AcDbCircle
 10
18.70832586
 20
41.14614385
 30
0.0
 40
0.5
100
AcDbArc
 50
359.99999885
 51
450.0
  0
ARC
  5
1C9
100
AcDbEntity
  8
SLD-0
  6
CONTINUOUS
 62
       3
100
AcDbCircle
 10
74.13181522
 20
-7.85385437
 30
0.0
 40
0.5
100
AcDbArc
 50
180.0
 51
269.99999771
  0
ARC
  5
1CA
100
AcDbEntity
  8
SLD-0
  6
CONTINUOUS
 62
       3
100
AcDbCircle
 10
18.70832444
 20
-7.85385487
 30
0.0
 40
0.5
100
AcDbArc
 50
270.0
 51
359.99999885
  0
ARC
  5
1CB
100
AcDbEntity
  8
SLD-0
  6
CONTINUOUS
 62
       3
100
AcDbCircle
 10
-95.29167423
 20
-7.85385487
 30
0.0
 40
0.5
100
AcDbArc
 50
180.00000115
 51
270.0
  0
ARC
  5
1CC
100
AcDbEntity
  8
SLD-0
  6
CONTINUOUS
 62
       3
100
AcDbCircle
 10
-38.2916749
 20
7.28614481
 30
0.0
 40
17.14
100
AcDbArc
 50
246.26124165
 51
293.73875835
  0
ARC
  5
1CD
100
AcDbEntity
  8
SLD-0
  6
CONTINUOUS
 62
       3
100
AcDbCircle
 10
-38.2916749
 20
7.28614481
 30
0.0
 40
18.64
100
AcDbArc
 50
243.21500449
 51
296.78499551
  0
ARC
  5
1CE
100
AcDbEntity
  8
SLD-0
  6
CONTINUOUS
 62
       3
100
AcDbCircle
 10
62.83440977
 20
31.46562602
 30
0.0
 40
11.86673216
100
AcDbArc
 50
161.78083874
 51
177.43765835
  0
ARC
  5
1CF
100
AcDbEntity
  8
SLD-0
  6
CONTINUOUS
 62
       3
100
AcDbCircle
 10
62.83440977
 20
31.46562602
 30
0.0
 40
11.86673216
100
AcDbArc
 50
177.43765835
 51
192.74806929
  0
ARC
  5
1D0
100
AcDbEntity
  8
SLD-0
  6
CONTINUOUS
 62
       3
100
AcDbCircle
 10
43.81832095
 20
32.36636331
 30
0.0
 40
8.30089816
100
AcDbArc
 50
333.83596459
 51
380.74148918
  0
ARC
  5
1D1
100
AcDbEntity
  8
SLD-0
  6
CONTINUOUS
 62
       3
100
AcDbCircle
 10
53.59039819
 20
16.66016159
 30
0.0
 40
1.49999999
100
AcDbArc
 50
189.10878765
 51
268.9999931
  0
ARC
  5
1D2
100
AcDbEntity
  8
SLD-0
  6
CONTINUOUS
 62
       3
100
AcDbCircle
 10
103.45832798
 20
35.20500784
 30
0.0
 40
0.3
100
AcDbArc
 50
270.99999963
 51
360.00013369
  0
ARC
  5
1D3
100
AcDbEntity
  8
SLD-0
  6
CONTINUOUS
 62
       3
100
AcDbCircle
 10
102.17548536
 20
33.55608791
 30
0.0
 40
0.20000064
100
AcDbArc
 50
270.00001432
 51
314.99981971
  0
ARC
  5
1D4
100
AcDbEntity
  8
SLD-0
  6
CONTINUOUS
 62
       3
100
AcDbCircle
 10
103.45832802
 20
34.98035203
 30
0.0
 40
0.29999996
100
AcDbArc
 50
315.00001756
 51
360.0
  0
LINE
  5
1D5
100
AcDbEntity
  8
SLD-0
  6
PHANTOM
 62
       3
100
AcDbLine
 10
53.48181639
 20
4.94514355
 30
0.0
 11
54.68181569
 21
4.94514355
 31
0.0
  0
LINE
  5
1D6
100
AcDbEntity
  8
SLD-0
  6
PHANTOM
 62
       3
100
AcDbLine
 10
-29.04167564
 20
-4.70690812
 30
0.0
 11
-29.04167564
 21
14.29514391
 31
0.0
  0
LINE
  5
1D7
100
AcDbEntity
  8
SLD-0
  6
PHANTOM
 62
       3
100
AcDbLine
 10
13.95832668
 20
14.29514391
 30
0.0
 11
13.95832668
 21
-4.70690812
 31
0.0
  0
LINE
  5
1D8
100
AcDbEntity
  8
SLD-0
  6
PHANTOM
 62
       3
100
AcDbLine
 10
13.95832668
 20
-4.70690812
 30
0.0
 11
-29.04167564
 21
-4.70690812
 31
0.0
  0
LINE
  5
1D9
100
AcDbEntity
  8
SLD-0
  6
PHANTOM
 62
       3
100
AcDbLine
 10
-29.04167564
 20
14.29514391
 30
0.0
 11
13.95832668
 21
14.29514391
 31
0.0
  0
LINE
  5
1DA
100
AcDbEntity
  8
SLD-0
  6
PHANTOM
 62
       3
100
AcDbLine
 10
53.37403953
 20
-4.70284574
 30
0.0
 11
51.1991078
 21
-4.70690833
 31
0.0
  0
LINE
  5
1DB
100
AcDbEntity
  8
SLD-0
  6
PHANTOM
 62
       3
100
AcDbLine
 10
71.98181747
 20
3.74514466
 30
0.0
 11
71.98181747
 21
-4.70485495
 31
0.0
  0
LINE
  5
1DC
100
AcDbEntity
  8
SLD-0
  6
PHANTOM
 62
       3
100
AcDbLine
 10
73.63181522
 20
3.74514466
 30
0.0
 11
71.98181747
 21
3.74514466
 31
0.0
  0
LINE
  5
1DD
100
AcDbEntity
  8
SLD-0
  6
PHANTOM
 62
       3
100
AcDbLine
 10
73.63181522
 20
-4.70485495
 30
0.0
 11
71.98181747
 21
-4.70485495
 31
0.0
  0
LINE
  5
1DE
100
AcDbEntity
  8
SLD-0
  6
PHANTOM
 62
       3
100
AcDbLine
 10
71.98181747
 20
3.74514466
 30
0.0
 11
53.3290166
 21
3.74514413
 31
0.0
  0
LINE
  5
1DF
100
AcDbEntity
  8
SLD-0
  6
PHANTOM
 62
       3
100
AcDbLine
 10
54.68181569
 20
4.94514355
 30
0.0
 11
54.68181639
 21
3.74514466
 31
0.0
  0
LINE
  5
1E0
100
AcDbEntity
  8
SLD-0
  6
PHANTOM
 62
       3
100
AcDbLine
 10
52.88181451
 20
9.59514416
 30
0.0
 11
52.88181593
 21
5.54514401
 31
0.0
  0
LINE
  5
1E1
100
AcDbEntity
  8
SLD-0
  6
PHANTOM
 62
       3
100
AcDbLine
 10
51.15261671
 20
10.99497135
 30
0.0
 11
52.88181451
 21
9.59514416
 31
0.0
  0
LINE
  5
1E2
100
AcDbEntity
  8
SLD-0
  6
PHANTOM
 62
       3
100
AcDbLine
 10
50.78181583
 20
13.79514382
 30
0.0
 11
50.78181555
 21
11.77221584
 31
0.0
  0
LINE
  5
1E3
100
AcDbEntity
  8
SLD-0
  6
PHANTOM
 62
       3
100
AcDbLine
 10
73.63181521
 20
14.29514369
 30
0.0
 11
51.28181568
 21
14.29514369
 31
0.0
  0
LINE
  5
1E4
100
AcDbEntity
  8
SLD-0
  6
PHANTOM
 62
       3
100
AcDbLine
 10
67.08181648
 20
3.74514466
 30
0.0
 11
67.08181594
 21
-3.60485564
 31
0.0
  0
LINE
  5
1E5
100
AcDbEntity
  8
SLD-0
  6
PHANTOM
 62
       3
100
AcDbLine
 10
68.18181594
 20
-4.70485564
 30
0.0
 11
71.98181747
 21
-4.70485495
 31
0.0
  0
LINE
  5
1E6
100
AcDbEntity
  8
SLD-0
  6
PHANTOM
 62
       3
100
AcDbLine
 10
53.3290166
 20
3.74514413
 30
0.0
 11
53.37403953
 21
-4.70284574
 31
0.0
  0
LINE
  5
1E7
100
AcDbEntity
  8
SLD-0
  6
PHANTOM
 62
       3
100
AcDbLine
 10
73.63181522
 20
14.29888852
 30
0.0
 11
51.28181555
 21
14.29888852
 31
0.0
  0
ARC
  5
1E8
100
AcDbEntity
  8
SLD-0
  6
PHANTOM
 62
       3
100
AcDbCircle
 10
83.13482194
 20
4.10275176
 30
0.0
 40
33.5
100
AcDbArc
 50
167.88334717
 51
194.58452094
  0
ARC
  5
1E9
100
AcDbEntity
  8
SLD-0
  6
PHANTOM
 62
       3
100
AcDbCircle
 10
51.19817303
 20
-4.20690938
 30
0.0
 40
0.49999982
100
AcDbArc
 50
194.58452185
 51
270.10711685
  0
ARC
  5
1EA
100
AcDbEntity
  8
SLD-0
  6
PHANTOM
 62
       3
100
AcDbCircle
 10
83.13482194
 20
4.10275176
 30
0.0
 40
33.5
100
AcDbArc
 50
164.96363983
 51
167.88334717
  0
ARC
  5
1EB
100
AcDbEntity
  8
SLD-0
  6
PHANTOM
 62
       3
100
AcDbCircle
 10
53.48181639
 20
5.54514401
 30
0.0
 40
0.60000046
100
AcDbArc
 50
180.0
 51
270.0
  0
ARC
  5
1EC
100
AcDbEntity
  8
SLD-0
  6
PHANTOM
 62
       3
100
AcDbCircle
 10
51.78181578
 20
11.77221584
 30
0.0
 40
1.00000023
100
AcDbArc
 50
180.0
 51
231.00895477
  0
ARC
  5
1ED
100
AcDbEntity
  8
SLD-0
  6
PHANTOM
 62
       3
100
AcDbCircle
 10
51.28181568
 20
13.79514383
 30
0.0
 40
0.49999985
100
AcDbArc
 50
90.0
 51
180.00000115
  0
ARC
  5
1EE
100
AcDbEntity
  8
SLD-0
  6
PHANTOM
 62
       3
100
AcDbCircle
 10
68.18181594
 20
-3.60485564
 30
0.0
 40
1.1
100
AcDbArc
 50
180.0
 51
270.0
  0
ARC
  5
1EF
100
AcDbEntity
  8
SLD-0
  6
PHANTOM
 62
       3
100
AcDbCircle
 10
51.28181555
 20
13.79888852
 30
0.0
 40
0.5
100
AcDbArc
 50
90.0
 51
180.0
  0
LINE
  5
1F0
100
AcDbEntity
  8
SLD-0
  6
CENTERX2
 62
       3
100
AcDbLine
 10
24.98758542
 20
16.64614513
 30
0.0
 11
-103.75832798
 21
16.64614513
 31
0.0
  0
LINE
  5
1F1
100
AcDbEntity
  8
SLD-0
  6
CENTERX2
 62
       3
100
AcDbLine
 10
48.88473872
 20
16.64614563
 30
0.0
 11
103.1318152
 21
16.64614563
 31
0.0
  0
LINE
  5
1F2
100
AcDbEntity
  8
SLD-0
  6
CENTERX2
 62
       3
100
AcDbLine
 10
-38.29167398
 20
46.65337693
 30
0.0
 11
-38.29167557
 21
-8.35385487
 31
0.0
  0
LINE
  5
1F3
100
AcDbEntity
  8
SLD-0_1
  6
PHANTOM
 62
       3
100
AcDbLine
 10
-83.79177167
 20
-3.10108333
 30
0.0
 11
-87.88046956
 21
-3.10108333
 31
0.0
  0
LINE
  5
1F4
100
AcDbEntity
  8
SLD-0_1
  6
PHANTOM
 62
       3
100
AcDbLine
 10
-87.88046956
 20
-6.50580575
 30
0.0
 11
-83.79177167
 21
-6.50580575
 31
0.0
  0
LINE
  5
1F5
100
AcDbEntity
  8
SLD-0_1
  6
PHANTOM
 62
       3
100
AcDbLine
 10
-82.5396276
 20
-6.50580575
 30
0.0
 11
-78.45092971
 21
-6.50580575
 31
0.0
  0
LINE
  5
1F6
100
AcDbEntity
  8
SLD-0_1
  6
PHANTOM
 62
       3
100
AcDbLine
 10
-77.19964347
 20
2.03731103
 30
0.0
 11
-77.19964347
 21
-6.50580575
 31
0.0
  0
LINE
  5
1F7
100
AcDbEntity
  8
SLD-0_1
  6
PHANTOM
 62
       3
100
AcDbLine
 10
-66.51910333
 20
2.03731103
 30
0.0
 11
-66.51910333
 21
-6.50580575
 31
0.0
  0
LINE
  5
1F8
100
AcDbEntity
  8
SLD-0_1
  6
PHANTOM
 62
       3
100
AcDbLine
 10
-57.40124127
 20
-3.31982967
 30
0.0
 11
-57.40124127
 21
2.77275624
 31
0.0
  0
LINE
  5
1F9
100
AcDbEntity
  8
SLD-0_1
  6
PHANTOM
 62
       3
100
AcDbLine
 10
-82.5396276
 20
2.03731103
 30
0.0
 11
-82.5396276
 21
-6.50580575
 31
0.0
  0
LINE
  5
1FA
100
AcDbEntity
  8
SLD-0_1
  6
PHANTOM
 62
       3
100
AcDbLine
 10
-61.87338862
 20
3.42642176
 30
0.0
 11
-88.43634261
 21
3.42642176
 31
0.0
  0
LINE
  5
1FB
100
AcDbEntity
  8
SLD-0_1
  6
PHANTOM
 62
       3
100
AcDbLine
 10
-67.77067551
 20
-3.10108333
 30
0.0
 11
-71.8593734
 21
-3.10108333
 31
0.0
  0
LINE
  5
1FC
100
AcDbEntity
  8
SLD-0_1
  6
PHANTOM
 62
       3
100
AcDbLine
 10
-66.51910333
 20
-6.50580575
 30
0.0
 11
-62.43040544
 21
-6.50580575
 31
0.0
  0
LINE
  5
1FD
100
AcDbEntity
  8
SLD-0_1
  6
PHANTOM
 62
       3
100
AcDbLine
 10
-62.43040544
 20
-6.50580575
 30
0.0
 11
-62.43040544
 21
2.03731103
 31
0.0
  0
LINE
  5
1FE
100
AcDbEntity
  8
SLD-0_1
  6
PHANTOM
 62
       3
100
AcDbLine
 10
-77.19964347
 20
-6.50580575
 30
0.0
 11
-73.11065964
 21
-6.50580575
 31
0.0
  0
LINE
  5
1FF
100
AcDbEntity
  8
SLD-0_1
  6
PHANTOM
 62
       3
100
AcDbLine
 10
-67.77067551
 20
-6.50580575
 30
0.0
 11
-67.77067551
 21
2.03731103
 31
0.0
  0
LINE
  5
200
100
AcDbEntity
  8
SLD-0_1
  6
PHANTOM
 62
       3
100
AcDbLine
 10
-73.11065964
 20
-3.10108333
 30
0.0
 11
-77.19964347
 21
-3.10108333
 31
0.0
  0
LINE
  5
201
100
AcDbEntity
  8
SLD-0_1
  6
PHANTOM
 62
       3
100
AcDbLine
 10
-78.45092971
 20
-6.50580575
 30
0.0
 11
-78.45092971
 21
2.03731103
 31
0.0
  0
LINE
  5
202
100
AcDbEntity
  8
SLD-0_1
  6
PHANTOM
 62
       3
100
AcDbLine
 10
-71.8593734
 20
2.03731103
 30
0.0
 11
-71.8593734
 21
-6.50580575
 31
0.0
  0
LINE
  5
203
100
AcDbEntity
  8
SLD-0_1
  6
PHANTOM
 62
       3
100
AcDbLine
 10
-92.84358091
 20
2.77275624
 30
0.0
 11
-92.84358091
 21
-3.31982967
 31
0.0
  0
LINE
  5
204
100
AcDbEntity
  8
SLD-0_1
  6
PHANTOM
 62
       3
100
AcDbLine
 10
-71.8593734
 20
-6.50580575
 30
0.0
 11
-67.77067551
 21
-6.50580575
 31
0.0
  0
LINE
  5
205
100
AcDbEntity
  8
SLD-0_1
  6
PHANTOM
 62
       3
100
AcDbLine
 10
-92.84358091
 20
-3.31982967
 30
0.0
 11
-88.43634261
 21
-3.31982967
 31
0.0
  0
LINE
  5
206
100
AcDbEntity
  8
SLD-0_1
  6
PHANTOM
 62
       3
100
AcDbLine
 10
-83.79177167
 20
-6.50580575
 30
0.0
 11
-83.79177167
 21
2.03731103
 31
0.0
  0
LINE
  5
207
100
AcDbEntity
  8
SLD-0_1
  6
PHANTOM
 62
       3
100
AcDbLine
 10
-87.88046956
 20
2.03731103
 30
0.0
 11
-87.88046956
 21
-6.50580575
 31
0.0
  0
LINE
  5
208
100
AcDbEntity
  8
SLD-0_1
  6
PHANTOM
 62
       3
100
AcDbLine
 10
-61.87338862
 20
-11.35385487
 30
0.0
 11
-61.87338862
 21
3.42642176
 31
0.0
  0
LINE
  5
209
100
AcDbEntity
  8
SLD-0_1
  6
PHANTOM
 62
       3
100
AcDbLine
 10
-73.11065964
 20
2.03731103
 30
0.0
 11
-77.19964347
 21
2.03731103
 31
0.0
  0
LINE
  5
20A
100
AcDbEntity
  8
SLD-0_1
  6
PHANTOM
 62
       3
100
AcDbLine
 10
-67.77067551
 20
2.03731103
 30
0.0
 11
-71.8593734
 21
2.03731103
 31
0.0
  0
LINE
  5
20B
100
AcDbEntity
  8
SLD-0_1
  6
PHANTOM
 62
       3
100
AcDbLine
 10
-88.43634261
 20
3.42642176
 30
0.0
 11
-88.43634261
 21
-11.35385487
 31
0.0
  0
LINE
  5
20C
100
AcDbEntity
  8
SLD-0_1
  6
PHANTOM
 62
       3
100
AcDbLine
 10
-78.45092971
 20
2.03731103
 30
0.0
 11
-82.5396276
 21
2.03731103
 31
0.0
  0
LINE
  5
20D
100
AcDbEntity
  8
SLD-0_1
  6
PHANTOM
 62
       3
100
AcDbLine
 10
-73.11065964
 20
-6.50580575
 30
0.0
 11
-73.11065964
 21
2.03731103
 31
0.0
  0
LINE
  5
20E
100
AcDbEntity
  8
SLD-0_1
  6
PHANTOM
 62
       3
100
AcDbLine
 10
-62.43040544
 20
2.03731103
 30
0.0
 11
-66.51910333
 21
2.03731103
 31
0.0
  0
LINE
  5
20F
100
AcDbEntity
  8
SLD-0_1
  6
PHANTOM
 62
       3
100
AcDbLine
 10
-61.87338862
 20
-3.31982967
 30
0.0
 11
-57.40124127
 21
-3.31982967
 31
0.0
  0
LINE
  5
210
100
AcDbEntity
  8
SLD-0_1
  6
PHANTOM
 62
       3
100
AcDbLine
 10
-88.43634261
 20
2.77275624
 30
0.0
 11
-92.84358091
 21
2.77275624
 31
0.0
  0
LINE
  5
211
100
AcDbEntity
  8
SLD-0_1
  6
PHANTOM
 62
       3
100
AcDbLine
 10
-57.40124127
 20
2.77275624
 30
0.0
 11
-61.87338862
 21
2.77275624
 31
0.0
  0
LINE
  5
212
100
AcDbEntity
  8
SLD-0_1
  6
PHANTOM
 62
       3
100
AcDbLine
 10
-62.43040544
 20
-3.10108333
 30
0.0
 11
-66.51910333
 21
-3.10108333
 31
0.0
  0
LINE
  5
213
100
AcDbEntity
  8
SLD-0_1
  6
PHANTOM
 62
       3
100
AcDbLine
 10
-83.79177167
 20
2.03731103
 30
0.0
 11
-87.88046956
 21
2.03731103
 31
0.0
  0
LINE
  5
214
100
AcDbEntity
  8
SLD-0_1
  6
PHANTOM
 62
       3
100
AcDbLine
 10
-78.45092971
 20
-3.10108333
 30
0.0
 11
-82.5396276
 21
-3.10108333
 31
0.0
  0
LINE
  5
215
100
AcDbEntity
  8
SLD-0_1
  6
PHANTOM
 62
       3
100
AcDbLine
 10
59.29520883
 20
3.7451443
 30
0.0
 11
59.29520883
 21
-3.5550592
 31
0.0
  0
LINE
  5
216
100
AcDbEntity
  8
SLD-0_1
  6
PHANTOM
 62
       3
100
AcDbLine
 10
59.29520883
 20
-3.5550592
 30
0.0
 11
61.18617924
 21
-11.35385437
 31
0.0
  0
LINE
  5
217
100
AcDbEntity
  8
SLD-0_0
  6
CONTINUOUS
 62
       3
100
AcDbLine
 10
-88.43634261
 20
-8.35385487
 30
0.0
 11
-95.29167423
 21
-8.35385487
 31
0.0
  0
LINE
  5
218
100
AcDbEntity
  8
SLD-0_0
  6
PHANTOM
 62
       3
100
AcDbLine
 10
-61.87338862
 20
-11.35385487
 30
0.0
 11
-88.43634261
 21
-11.35385487
 31
0.0
  0
LINE
  5
219
100
AcDbEntity
  8
SLD-0_0
  6
PHANTOM
 62
       3
100
AcDbLine
 10
61.18617924
 20
-11.35385437
 30
0.0
 11
71.86504437
 21
-11.35385437
 31
0.0
  0
LINE
  5
21A
100
AcDbEntity
  8
SLD-0_2
  6
PHANTOM
 62
       3
100
AcDbLine
 10
71.86504437
 20
-11.35385437
 30
0.0
 11
71.86504437
 21
-4.71058447
 31
0.0
  0
INSERT
  5
21B
100
AcDbEntity
  8
0
  6
CONTINUOUS
100
AcDbBlockReference
  2
GROUP_1
 10
0.0
 20
0.0
 30
0.0
  0
INSERT
  5
21C
100
AcDbEntity
  8
0
  6
CONTINUOUS
100
AcDbBlockReference
  2
GROUP_2
 10
0.0
 20
0.0
 30
0.0
  0
INSERT
  5
21D
100
AcDbEntity
  8
0
  6
CONTINUOUS
100
AcDbBlockReference
  2
GROUP_3
 10
0.0
 20
0.0
 30
0.0
  0
INSERT
  5
21E
100
AcDbEntity
  8
0
  6
CONTINUOUS
100
AcDbBlockReference
  2
GROUP_4
 10
0.0
 20
0.0
 30
0.0
  0
INSERT
  5
21F
100
AcDbEntity
  8
0
  6
CONTINUOUS
100
AcDbBlockReference
  2
GROUP_5
 10
0.0
 20
0.0
 30
0.0
  0
INSERT
  5
220
100
AcDbEntity
  8
0
  6
CONTINUOUS
100
AcDbBlockReference
  2
GROUP_6
 10
0.0
 20
0.0
 30
0.0
  0
INSERT
  5
221
100
AcDbEntity
  8
0
  6
CONTINUOUS
100
AcDbBlockReference
  2
GROUP_7
 10
0.0
 20
0.0
 30
0.0
  0
INSERT
  5
222
100
AcDbEntity
  8
0
  6
CONTINUOUS
100
AcDbBlockReference
  2
GROUP_8
 10
0.0
 20
0.0
 30
0.0
  0
INSERT
  5
223
100
AcDbEntity
  8
0
  6
CONTINUOUS
100
AcDbBlockReference
  2
GROUP_9
 10
0.0
 20
0.0
 30
0.0
  0
TEXT
  5
224
100
AcDbEntity
  8
SLD-0_0
 62
       3
100
AcDbText
 10
65.72174563
 20
-49.15337693
 30
0.0
 40
5.0
  1
000
 72
       5
 11
80.72174563
 21
-49.15337693
 31
0.0
100
AcDbText
  0
ENDSEC
  0
SECTION
  2
OBJECTS
  0
DICTIONARY
  5
19
100
AcDbDictionary
  3
ACAD_GROUP
350
1A
  3
ACAD_MLINESTYLE
350
1B
  0
DICTIONARY
  5
1A
102
{ACAD_REACTORS
330
19
102
}
100
AcDbDictionary
  0
DICTIONARY
  5
1B
102
{ACAD_REACTORS
330
19
102
}
100
AcDbDictionary
  3
STANDARD
350
1C
  0
MLINESTYLE
  5
1C
102
{ACAD_REACTORS
330
1B
102
}
100
AcDbMlineStyle
  2
STANDARD
 70
       0
  3

 62
       0
 51
90.0
 52
90.0
 71
       2
 49
0.5
 62
     256
  6
BYLAYER
 49
-0.5
 62
     256
  6
BYLAYER
  0
ENDSEC
  0
EOF
