  0
SECTION
  2
HEADER
  9
$ACADVER
  1
AC1014
  9
$ACADMAINTVER
 70
       0
  9
$DWGCODEPAGE
  3
ANSI_932
  9
$INSBASE
 10
0.0
 20
0.0
 30
0.0
  9
$EXTMIN
 10
-107.9086611
 20
-53.28044212
 30
0.0
  9
$EXTMAX
 10
107.9086611
 20
50.78044212
 30
0.0
  9
$LIMMIN
 10
-114.65295242
 20
-56.53234475
  9
$LIMMAX
 10
114.65295242
 20
54.03234475
  9
$ORTHOMODE
 70
       0
  9
$REGENMODE
 70
       1
  9
$FILLMODE
 70
       1
  9
$QTEXTMODE
 70
       0
  9
$MIRRTEXT
 70
       1
  9
$DRAGMODE
 70
       2
  9
$LTSCALE
 40
1.0
  9
$OSMODE
 70
       0
  9
$ATTMODE
 70
       1
  9
$TEXTSIZE
 40
0.2
  9
$TRACEWID
 40
0.05
  9
$TEXTSTYLE
  7
STANDARD
  9
$CLAYER
  8
0
  9
$CELTYPE
  6
CONTINUOUS
  9
$CECOLOR
 62
     256
  9
$CELTSCALE
 40
1.0
  9
$DELOBJ
 70
       1
  9
$DISPSILH
 70
       0
  9
$DIMSCALE
 40
1.0
  9
$DIMASZ
 40
0.18
  9
$DIMEXO
 40
0.0625
  9
$DIMDLI
 40
0.38
  9
$DIMRND
 40
0.0
  9
$DIMDLE
 40
0.0
  9
$DIMEXE
 40
0.18
  9
$DIMTP
 40
0.0
  9
$DIMTM
 40
0.0
  9
$DIMTXT
 40
0.18
  9
$DIMCEN
 40
0.09
  9
$DIMTSZ
 40
0.0
  9
$DIMTOL
 70
       0
  9
$DIMLIM
 70
       0
  9
$DIMTIH
 70
       1
  9
$DIMTOH
 70
       1
  9
$DIMSE1
 70
       0
  9
$DIMSE2
 70
       0
  9
$DIMTAD
 70
       0
  9
$DIMZIN
 70
       0
  9
$DIMBLK
  1

  9
$DIMASO
 70
       1
  9
$DIMSHO
 70
       1
  9
$DIMPOST
  1

  9
$DIMAPOST
  1

  9
$DIMALT
 70
       0
  9
$DIMALTD
 70
       2
  9
$DIMALTF
 40
25.4
  9
$DIMLFAC
 40
1.0
  9
$DIMTOFL
 70
       0
  9
$DIMTVP
 40
0.0
  9
$DIMTIX
 70
       0
  9
$DIMSOXD
 70
       0
  9
$DIMSAH
 70
       0
  9
$DIMBLK1
  1

  9
$DIMBLK2
  1

  9
$DIMSTYLE
  2
STANDARD
  9
$DIMCLRD
 70
       0
  9
$DIMCLRE
 70
       0
  9
$DIMCLRT
 70
       0
  9
$DIMTFAC
 40
1.0
  9
$DIMGAP
 40
0.09
  9
$DIMJUST
 70
       0
  9
$DIMSD1
 70
       0
  9
$DIMSD2
 70
       0
  9
$DIMTOLJ
 70
       1
  9
$DIMTZIN
 70
       0
  9
$DIMALTZ
 70
       0
  9
$DIMALTTZ
 70
       0
  9
$DIMFIT
 70
       3
  9
$DIMUPT
 70
       0
  9
$DIMUNIT
 70
       2
  9
$DIMDEC
 70
       4
  9
$DIMTDEC
 70
       4
  9
$DIMALTU
 70
       2
  9
$DIMALTTD
 70
       2
  9
$DIMTXSTY
  7
STANDARD
  9
$DIMAUNIT
 70
       0
  9
$LUNITS
 70
       2
  9
$LUPREC
 70
       4
  9
$SKETCHINC
 40
0.1
  9
$FILLETRAD
 40
0.0
  9
$AUNITS
 70
       0
  9
$AUPREC
 70
       0
  9
$MENU
  1
acad
  9
$ELEVATION
 40
0.0
  9
$PELEVATION
 40
0.0
  9
$THICKNESS
 40
0.0
  9
$LIMCHECK
 70
       0
  9
$BLIPMODE
 70
       1
  9
$CHAMFERA
 40
0.0
  9
$CHAMFERB
 40
0.0
  9
$CHAMFERC
 40
0.0
  9
$CHAMFERD
 40
0.0
  9
$SKPOLY
 70
       0
  9
$TDCREATE
 40
0.000000000
  9
$TDUPDATE
 40
0.000000000
  9
$TDINDWG
 40
0.0000000000
  9
$TDUSRTIMER
 40
0.0000000000
  9
$USRTIMER
 70
       1
  9
$ANGBASE
 50
0.0
  9
$ANGDIR
 70
       0
  9
$PDMODE
 70
       0
  9
$PDSIZE
 40
1.0
  9
$PLINEWID
 40
0.0
  9
$COORDS
 70
       1
  9
$SPLFRAME
 70
       0
  9
$SPLINETYPE
 70
       6
  9
$SPLINESEGS
 70
       8
  9
$ATTDIA
 70
       0
  9
$ATTREQ
 70
       1
  9
$HANDLING
 70
       1
  9
$HANDSEED
  5
223
  9
$SURFTAB1
 70
       6
  9
$SURFTAB2
 70
       6
  9
$SURFTYPE
 70
       6
  9
$SURFU
 70
       6
  9
$SURFV
 70
       6
  9
$UCSNAME
  2

  9
$UCSORG
 10
0.0
 20
0.0
 30
0.0
  9
$UCSXDIR
 10
1.0
 20
0.0
 30
0.0
  9
$UCSYDIR
 10
0.0
 20
1.0
 30
0.0
  9
$PUCSNAME
  2

  9
$PUCSORG
 10
0.0
 20
0.0
 30
0.0
  9
$PUCSXDIR
 10
1.0
 20
0.0
 30
0.0
  9
$PUCSYDIR
 10
0.0
 20
1.0
 30
0.0
  9
$USERI1
 70
       0
  9
$USERI2
 70
       0
  9
$USERI3
 70
       0
  9
$USERI4
 70
       0
  9
$USERI5
 70
       0
  9
$USERR1
 40
0.0
  9
$USERR2
 40
0.0
  9
$USERR3
 40
0.0
  9
$USERR4
 40
0.0
  9
$USERR5
 40
0.0
  9
$WORLDVIEW
 70
       1
  9
$SHADEDGE
 70
       3
  9
$SHADEDIF
 70
      70
  9
$TILEMODE
 70
       1
  9
$MAXACTVP
 70
      16
  9
$PINSBASE
 10
0.0
 20
0.0
 30
0.0
  9
$PLIMCHECK
 70
       0
  9
$PEXTMIN
 10
1.00000000E+20
 20
1.00000000E+20
 30
1.00000000E+20
  9
$PEXTMAX
 10
-1.00000000E+20
 20
-1.00000000E+20
 30
-1.00000000E+20
  9
$PLIMMIN
 10
0.0
 20
0.0
  9
$PLIMMAX
 10
12.0
 20
9.0
  9
$UNITMODE
 70
       0
  9
$VISRETAIN
 70
       0
  9
$PLINEGEN
 70
       1
  9
$PSLTSCALE
 70
       0
  9
$TREEDEPTH
 70
    3020
  9
$PICKSTYLE
 70
       1
  9
$CMLSTYLE
  2
STANDARD
  9
$CMLJUST
 70
       0
  9
$CMLSCALE
 40
1.0
  9
$PROXYGRAPHICS
 70
       0
  9
$MEASUREMENT
 70
       0
  0
ENDSEC
  0
SECTION
  2
CLASSES
  0
CLASS
  1
LWPOLYLINE
  2
AcDbPolyline
  3
"AutoCAD"
 90
        0
280
       0
281
       1
  0
CLASS
  1
IMAGE
  2
AcDbRasterImage
  3
ISM
 90
      127
280
       0
281
       1
  0
CLASS
  1
OLE2FRAME
  2
AcDbOle2Frame
  3
""
 90
        0
280
       0
281
       1
  0
CLASS
  1
HATCH
  2
AcDbHatch
  3
"ACAD_SEDONA"
 90
        0
280
       0
281
       1
  0
CLASS
  1
DICTIONARYVAR
  2
AcDbDictionaryVar
  3
"AutoCAD"
 90
        0
280
       0
281
       0
  0
CLASS
  1
RASTERVARIABLES
  2
AcDbRasterVariables
  3
ISM
 90
        0
280
       0
281
       0
  0
CLASS
  1
IMAGEDEF
  2
AcDbRasterImageDef
  3
ISM
 90
        0
280
       0
281
       0
  0
CLASS
  1
IMAGEDEF_REACTOR
  2
AcDbRasterImageDefReactor
  3
ISM
 90
        1
280
       0
281
       0
  0
CLASS
  1
IDBUFFER
  2
AcDbIdBuffer
  3
"Acad"
 90
        0
280
       0
281
       0
  0
CLASS
  1
SPATIAL_FILTER
  2
AcDbSpatialFilter
  3
"Acad"
 90
        0
280
       0
281
       0
  0
CLASS
  1
XRECORD
  2
AcDbXrecord
  3
"<Built In>"
 90
        0
280
       0
281
       0
  0
CLASS
  1
SORTENTSTABLE
  2
AcDbSortentsTable
  3
"AutoCAD"
 90
        0
280
       0
281
       0
  0
CLASS
  1
LAYER_INDEX
  2
AcDbLayerIndex
  3
"Acad"
 90
        0
280
       0
281
       0
  0
CLASS
  1
SPATIAL_INDEX
  2
AcDbSpatialIndex
  3
"Acad"
 90
        0
280
       0
281
       0
  0
CLASS
  1
OBJECT_PTR
  2
CAseDLPNTableRecord
  3
"ASE-LPNTableRecord"
 90
        1
280
       0
281
       0
  0
CLASS
  1
LAYOUT
  2
AcDbLayout
  3
"AutoCAD 2000"
 90
        1
280
       0
281
       0
  0
CLASS
  1
PLOTSETTINGS
  2
AcDbPlotSettings
  3
"AutoCAD 2000"
 90
        1
280
       0
281
       0
  0
CLASS
  1
ACDBDICTIONARYWDFLT
  2
AcDbDictionaryWithDefault
  3
"AutoCAD 2000"
 90
        1
280
       0
281
       0
  0
CLASS
  1
ACDBPLACEHOLDER
  2
AcDbPlaceHolder
  3
"AutoCAD 2000"
 90
        1
280
       0
281
       0
  0
CLASS
  1
VBA_PROJECT
  2
AcDbVbaProject
  3
"acadvba"
 90
        1
280
       0
281
       0
  0
CLASS
  1
WIPEOUT
  2
AcDbWipeout
  3
WipeOut|AutoCAD Express Tool|expresstools@autodesk.com
 90
      127
280
       0
281
       1
  0
CLASS
  1
WIPEOUTVARIABLES
  2
AcDbWipeoutVariables
  3
WipeOut|AutoCAD Express Tool|expresstools@autodesk.com
 90
        0
280
       0
281
       0
  0
CLASS
  1
RTEXT
  2
RText
  3
RText|AutoCAD Express Tool|expresstools@autodesk.com
 90
        0
280
       0
281
       1
  0
CLASS
  1
ARCALIGNEDTEXT
  2
AcDbArcAlignedText
  3
ATEXT|AutoCAD Express Tool|expresstools@autodesk.com
 90
        0
280
       0
281
       1
  0
ENDSEC
  0
SECTION
  2
TABLES
  0
TABLE
  2
VPORT
  5
7
100
AcDbSymbolTable
 70
       1
  0
VPORT
  5
15
100
AcDbSymbolTableRecord
100
AcDbViewportTableRecord
  2
*ACTIVE
 70
       0
 10
0.0
 20
0.0
 11
1.0
 21
1.0
 12
0.0
 22
-1.25
 13
0.0
 23
0.0
 14
1.0
 24
1.0
 15
0.0
 25
0.0
 16
0.0
 26
0.0
 36
1.0
 17
0.0
 27
0.0
 37
0.0
 40
110.56468951
 41
2.07395242
 42
50.0
 43
0.0
 44
0.0
 50
0.0
 51
0.0
 71
       0
 72
     100
 73
       1
 74
       1
 75
       0
 76
       0
 77
       0
 78
       0
  0
ENDTAB
  0
TABLE
  2
LTYPE
  5
4
100
AcDbSymbolTable
 70
      30
  0
LTYPE
  5
11
100
AcDbSymbolTableRecord
100
AcDbLinetypeTableRecord
  2
BYBLOCK
 70
      64
  3

 72
      65
 73
       0
 40
0.0
  0
LTYPE
  5
12
100
AcDbSymbolTableRecord
100
AcDbLinetypeTableRecord
  2
BYLAYER
 70
      64
  3

 72
      65
 73
       0
 40
0.0
  0
LTYPE
  5
13
100
AcDbSymbolTableRecord
100
AcDbLinetypeTableRecord
  2
CONTINUOUS
 70
      64
  3
Solid line
 72
      65
 73
       0
 40
0.0
  0
LTYPE
  5
1D
100
AcDbSymbolTableRecord
100
AcDbLinetypeTableRecord
  2
HIDDENX2
 70
      64
  3
CADPAC LINETYPE
 72
      65
 73
       2
 40
8.63269289
 49
6.47451967
 74
       0
 49
-2.15817322
 74
       0
  0
LTYPE
  5
1E
100
AcDbSymbolTableRecord
100
AcDbLinetypeTableRecord
  2
HIDDEN
 70
      64
  3
CADPAC LINETYPE
 72
      65
 73
       2
 40
6.47451967
 49
4.31634644
 74
       0
 49
-2.15817322
 74
       0
  0
LTYPE
  5
1F
100
AcDbSymbolTableRecord
100
AcDbLinetypeTableRecord
  2
HIDDEN2
 70
      64
  3
CADPAC LINETYPE
 72
      65
 73
       2
 40
5.39543305
 49
3.23725983
 74
       0
 49
-2.15817322
 74
       0
  0
LTYPE
  5
20
100
AcDbSymbolTableRecord
100
AcDbLinetypeTableRecord
  2
DASHED
 70
      64
  3
CADPAC LINETYPE
 72
      65
 73
       2
 40
6.47451967
 49
4.31634644
 74
       0
 49
-2.15817322
 74
       0
  0
LTYPE
  5
21
100
AcDbSymbolTableRecord
100
AcDbLinetypeTableRecord
  2
DASHED2
 70
      64
  3
CADPAC LINETYPE
 72
      65
 73
       2
 40
4.85588975
 49
3.23725983
 74
       0
 49
-1.61862992
 74
       0
  0
LTYPE
  5
22
100
AcDbSymbolTableRecord
100
AcDbLinetypeTableRecord
  2
DASHEDX2
 70
      64
  3
CADPAC LINETYPE
 72
      65
 73
       2
 40
9.7117795
 49
6.47451967
 74
       0
 49
-3.23725983
 74
       0
  0
LTYPE
  5
23
100
AcDbSymbolTableRecord
100
AcDbLinetypeTableRecord
  2
DOTX2
 70
      64
  3
CADPAC LINETYPE
 72
      65
 73
       2
 40
2.69771653
 49
0.0
 74
       0
 49
-2.69771653
 74
       0
  0
LTYPE
  5
24
100
AcDbSymbolTableRecord
100
AcDbLinetypeTableRecord
  2
DOT
 70
      64
  3
CADPAC LINETYPE
 72
      65
 73
       2
 40
2.15817322
 49
0.0
 74
       0
 49
-2.15817322
 74
       0
  0
LTYPE
  5
25
100
AcDbSymbolTableRecord
100
AcDbLinetypeTableRecord
  2
DOT2
 70
      64
  3
CADPAC LINETYPE
 72
      65
 73
       2
 40
1.61862992
 49
0.0
 74
       0
 49
-1.61862992
 74
       0
  0
LTYPE
  5
26
100
AcDbSymbolTableRecord
100
AcDbLinetypeTableRecord
  2
CENTERX2
 70
      64
  3
CADPAC LINETYPE
 72
      65
 73
       4
 40
12.94903933
 49
5.39543305
 74
       0
 49
-2.69771653
 74
       0
 49
2.15817322
 74
       0
 49
-2.69771653
 74
       0
  0
LTYPE
  5
27
100
AcDbSymbolTableRecord
100
AcDbLinetypeTableRecord
  2
CENTER
 70
      64
  3
CADPAC LINETYPE
 72
      65
 73
       4
 40
9.92759682
 49
4.31634644
 74
       0
 49
-2.15817322
 74
       0
 49
1.29490393
 74
       0
 49
-2.15817322
 74
       0
  0
LTYPE
  5
28
100
AcDbSymbolTableRecord
100
AcDbLinetypeTableRecord
  2
CENTER2
 70
      64
  3
CADPAC LINETYPE
 72
      65
 73
       4
 40
6.90615431
 49
3.23725983
 74
       0
 49
-1.61862992
 74
       0
 49
0.43163464
 74
       0
 49
-1.61862992
 74
       0
  0
LTYPE
  5
29
100
AcDbSymbolTableRecord
100
AcDbLinetypeTableRecord
  2
DASHDOTX2
 70
      64
  3
CADPAC LINETYPE
 72
      65
 73
       4
 40
10.79086611
 49
5.39543305
 74
       0
 49
-2.69771653
 74
       0
 49
0.0
 74
       0
 49
-2.69771653
 74
       0
  0
LTYPE
  5
2A
100
AcDbSymbolTableRecord
100
AcDbLinetypeTableRecord
  2
DASHDOT
 70
      64
  3
CADPAC LINETYPE
 72
      65
 73
       4
 40
8.63269289
 49
4.31634644
 74
       0
 49
-2.15817322
 74
       0
 49
0.0
 74
       0
 49
-2.15817322
 74
       0
  0
LTYPE
  5
2B
100
AcDbSymbolTableRecord
100
AcDbLinetypeTableRecord
  2
DASHDOT2
 70
      64
  3
CADPAC LINETYPE
 72
      65
 73
       4
 40
6.47451967
 49
3.23725983
 74
       0
 49
-1.61862992
 74
       0
 49
0.0
 74
       0
 49
-1.61862992
 74
       0
  0
LTYPE
  5
2C
100
AcDbSymbolTableRecord
100
AcDbLinetypeTableRecord
  2
DIVIDEX2
 70
      64
  3
CADPAC LINETYPE
 72
      65
 73
       6
 40
13.48858264
 49
5.39543305
 74
       0
 49
-2.69771653
 74
       0
 49
0.0
 74
       0
 49
-2.69771653
 74
       0
 49
0.0
 74
       0
 49
-2.69771653
 74
       0
  0
LTYPE
  5
2D
100
AcDbSymbolTableRecord
100
AcDbLinetypeTableRecord
  2
DIVIDE
 70
      64
  3
CADPAC LINETYPE
 72
      65
 73
       6
 40
10.79086611
 49
4.31634644
 74
       0
 49
-2.15817322
 74
       0
 49
0.0
 74
       0
 49
-2.15817322
 74
       0
 49
0.0
 74
       0
 49
-2.15817322
 74
       0
  0
LTYPE
  5
2E
100
AcDbSymbolTableRecord
100
AcDbLinetypeTableRecord
  2
DIVIDE2
 70
      64
  3
CADPAC LINETYPE
 72
      65
 73
       6
 40
8.09314958
 49
3.23725983
 74
       0
 49
-1.61862992
 74
       0
 49
0.0
 74
       0
 49
-1.61862992
 74
       0
 49
0.0
 74
       0
 49
-1.61862992
 74
       0
  0
LTYPE
  5
2F
100
AcDbSymbolTableRecord
100
AcDbLinetypeTableRecord
  2
BORDERX2
 70
      64
  3
CADPAC LINETYPE
 72
      65
 73
       6
 40
18.88401569
 49
5.39543305
 74
       0
 49
-2.69771653
 74
       0
 49
5.39543305
 74
       0
 49
-2.69771653
 74
       0
 49
0.0
 74
       0
 49
-2.69771653
 74
       0
  0
LTYPE
  5
30
100
AcDbSymbolTableRecord
100
AcDbLinetypeTableRecord
  2
BORDER
 70
      64
  3
CADPAC LINETYPE
 72
      65
 73
       6
 40
15.10721255
 49
4.31634644
 74
       0
 49
-2.15817322
 74
       0
 49
4.31634644
 74
       0
 49
-2.15817322
 74
       0
 49
0.0
 74
       0
 49
-2.15817322
 74
       0
  0
LTYPE
  5
31
100
AcDbSymbolTableRecord
100
AcDbLinetypeTableRecord
  2
BORDER2
 70
      64
  3
CADPAC LINETYPE
 72
      65
 73
       6
 40
11.33040942
 49
3.23725983
 74
       0
 49
-1.61862992
 74
       0
 49
3.23725983
 74
       0
 49
-1.61862992
 74
       0
 49
0.0
 74
       0
 49
-1.61862992
 74
       0
  0
LTYPE
  5
32
100
AcDbSymbolTableRecord
100
AcDbLinetypeTableRecord
  2
PHANTOMX2
 70
      64
  3
CADPAC LINETYPE
 72
      65
 73
       6
 40
16.18629916
 49
5.39543305
 74
       0
 49
-2.15817322
 74
       0
 49
2.15817322
 74
       0
 49
-2.15817322
 74
       0
 49
2.15817322
 74
       0
 49
-2.15817322
 74
       0
  0
LTYPE
  5
33
100
AcDbSymbolTableRecord
100
AcDbLinetypeTableRecord
  2
PHANTOM
 70
      64
  3
CADPAC LINETYPE
 72
      65
 73
       6
 40
13.38067398
 49
4.31634644
 74
       0
 49
-2.15817322
 74
       0
 49
1.29490393
 74
       0
 49
-2.15817322
 74
       0
 49
1.29490393
 74
       0
 49
-2.15817322
 74
       0
  0
LTYPE
  5
34
100
AcDbSymbolTableRecord
100
AcDbLinetypeTableRecord
  2
PHANTOM2
 70
      64
  3
CADPAC LINETYPE
 72
      65
 73
       6
 40
11.43831808
 49
3.23725983
 74
       0
 49
-2.15817322
 74
       0
 49
0.86326929
 74
       0
 49
-2.15817322
 74
       0
 49
0.86326929
 74
       0
 49
-2.15817322
 74
       0
  0
LTYPE
  5
35
100
AcDbSymbolTableRecord
100
AcDbLinetypeTableRecord
  2
ACAD_ISO06W100
 70
      64
  3
CADPAC LINETYPE
 72
      65
 73
       8
 40
14.56766925
 49
5.39543305
 74
       0
 49
-2.69771653
 74
       0
 49
0.0
 74
       0
 49
-2.15817322
 74
       0
 49
0.0
 74
       0
 49
-2.15817322
 74
       0
 49
0.0
 74
       0
 49
-2.15817322
 74
       0
  0
LTYPE
  5
36
100
AcDbSymbolTableRecord
100
AcDbLinetypeTableRecord
  2
ACAD_ISO13W100
 70
      64
  3
CADPAC LINETYPE
 72
      65
 73
       8
 40
17.26538578
 49
4.31634644
 74
       0
 49
-2.15817322
 74
       0
 49
4.31634644
 74
       0
 49
-2.15817322
 74
       0
 49
0.0
 74
       0
 49
-2.15817322
 74
       0
 49
0.0
 74
       0
 49
-2.15817322
 74
       0
  0
LTYPE
  5
37
100
AcDbSymbolTableRecord
100
AcDbLinetypeTableRecord
  2
ACAD_ISO14W100
 70
      64
  3
CADPAC LINETYPE
 72
      65
 73
       8
 40
12.94903933
 49
4.31634644
 74
       0
 49
-2.15817322
 74
       0
 49
0.0
 74
       0
 49
-2.15817322
 74
       0
 49
0.0
 74
       0
 49
-2.15817322
 74
       0
 49
0.0
 74
       0
 49
-2.15817322
 74
       0
  0
ENDTAB
  0
TABLE
  2
LAYER
  5
2
100
AcDbSymbolTable
 70
       3
  0
LAYER
  5
14
100
AcDbSymbolTableRecord
100
AcDbLayerTableRecord
  2
0
 70
       0
 62
       7
  6
CONTINUOUS
  0
LAYER
  5
38
100
AcDbSymbolTableRecord
100
AcDbLayerTableRecord
  2
SLD-0_0
 70
       0
 62
       7
  6
CONTINUOUS
  0
LAYER
  5
39
100
AcDbSymbolTableRecord
100
AcDbLayerTableRecord
  2
SLD-0
 70
       0
 62
       7
  6
CONTINUOUS
  0
ENDTAB
  0
TABLE
  2
STYLE
  5
3
100
AcDbSymbolTable
 70
       1
  0
STYLE
  5
17
100
AcDbSymbolTableRecord
100
AcDbTextStyleTableRecord
  2
STANDARD
 70
       0
 40
0.0
 41
1.0
 50
0.0
 71
       0
 42
5.0
  3
txt.shx
  4
bigfont.shx
  0
ENDTAB
  0
TABLE
  2
VIEW
  5
5
100
AcDbSymbolTable
 70
       1
  0
VIEW
  5
3A
100
AcDbSymbolTableRecord
100
AcDbViewTableRecord
  2
QQQQ
 70
       0
 40
110.56468951
 10
0.0
 20
-1.25
 41
229.30590484
 11
0.0
 21
0.0
 31
1.0
 12
100.0
 22
100.0
 32
0.0
 42
50.0
 43
0.0
 44
0.0
 50
0.0
 71
       0
  0
ENDTAB
  0
TABLE
  2
UCS
  5
6
100
AcDbSymbolTable
 70
       0
  0
ENDTAB
  0
TABLE
  2
APPID
  5
8
100
AcDbSymbolTable
 70
       1
  0
APPID
  5
16
100
AcDbSymbolTableRecord
100
AcDbRegAppTableRecord
  2
ACAD
 70
       0
  0
ENDTAB
  0
TABLE
  2
DIMSTYLE
  5
9
100
AcDbSymbolTable
 70
       1
  0
DIMSTYLE
105
18
100
AcDbSymbolTableRecord
100
AcDbDimStyleTableRecord
  2
STANDARD
 70
       0
  3

  4

  5

  6

  7

 40
1.0
 41
0.18
 42
0.0625
 43
0.38
 44
0.18
 45
0.0
 46
0.0
 47
0.0
 48
0.0
 71
       0
 72
       0
 73
       1
 74
       1
 75
       0
 76
       0
 77
       0
 78
       0
140
0.18
141
0.09
142
0.0
143
25.4
144
1.0
145
0.0
146
1.0
147
0.09
170
       0
171
       2
172
       0
173
       0
174
       0
175
       0
176
       0
177
       0
178
       0
270
       2
271
       4
272
       4
273
       2
274
       2
275
       0
280
       0
281
       0
282
       0
283
       1
284
       0
285
       0
286
       0
287
       0
288
       0
340
17
  0
ENDTAB
  0
TABLE
  2
BLOCK_RECORD
  5
1
100
AcDbSymbolTable
 70
       9
  0
BLOCK_RECORD
  5
A
100
AcDbSymbolTableRecord
100
AcDbBlockTableRecord
  2
*MODEL_SPACE
  0
BLOCK_RECORD
  5
B
100
AcDbSymbolTableRecord
100
AcDbBlockTableRecord
  2
*PAPER_SPACE
  0
BLOCK_RECORD
  5
3B
100
AcDbSymbolTableRecord
100
AcDbBlockTableRecord
  2
GROUP_1
  0
BLOCK_RECORD
  5
3C
100
AcDbSymbolTableRecord
100
AcDbBlockTableRecord
  2
GROUP_2
  0
BLOCK_RECORD
  5
3D
100
AcDbSymbolTableRecord
100
AcDbBlockTableRecord
  2
GROUP_3
  0
BLOCK_RECORD
  5
3E
100
AcDbSymbolTableRecord
100
AcDbBlockTableRecord
  2
GROUP_4
  0
BLOCK_RECORD
  5
3F
100
AcDbSymbolTableRecord
100
AcDbBlockTableRecord
  2
GROUP_5
  0
BLOCK_RECORD
  5
40
100
AcDbSymbolTableRecord
100
AcDbBlockTableRecord
  2
GROUP_6
  0
BLOCK_RECORD
  5
41
100
AcDbSymbolTableRecord
100
AcDbBlockTableRecord
  2
GROUP_7
  0
BLOCK_RECORD
  5
42
100
AcDbSymbolTableRecord
100
AcDbBlockTableRecord
  2
GROUP_8
  0
BLOCK_RECORD
  5
43
100
AcDbSymbolTableRecord
100
AcDbBlockTableRecord
  2
GROUP_9
  0
ENDTAB
  0
ENDSEC
  0
SECTION
  2
BLOCKS
  0
BLOCK
  5
D
100
AcDbEntity
  8
0
100
AcDbBlockBegin
  2
*MODEL_SPACE
 70
       0
 10
0.0
 20
0.0
 30
0.0
  3
*MODEL_SPACE
  1

  0
ENDBLK
  5
E
100
AcDbEntity
  8
0
100
AcDbBlockEnd
  0
BLOCK
  5
F
100
AcDbEntity
 67
       1
  8
0
100
AcDbBlockBegin
  2
*PAPER_SPACE
 70
       0
 10
0.0
 20
0.0
 30
0.0
  3
*PAPER_SPACE
  1

  0
ENDBLK
  5
10
100
AcDbEntity
 67
       1
  8
0
100
AcDbBlockEnd
  0
BLOCK
  5
44
100
AcDbEntity
  8
0
100
AcDbBlockBegin
  2
GROUP_1
 70
       0
 10
0.0
 20
0.0
 30
0.0
  3
GROUP_1
  1

  0
LINE
  5
45
100
AcDbEntity
  8
SLD-0
  6
CONTINUOUS
 62
       3
100
AcDbLine
 10
9.37836988
 20
18.54859161
 30
0.0
 11
9.45574329
 21
18.5625337
 31
0.0
  0
LINE
  5
46
100
AcDbEntity
  8
SLD-0
  6
CONTINUOUS
 62
       3
100
AcDbLine
 10
9.45574329
 20
18.5625337
 30
0.0
 11
9.53302716
 21
18.57683003
 31
0.0
  0
LINE
  5
47
100
AcDbEntity
  8
SLD-0
  6
CONTINUOUS
 62
       3
100
AcDbLine
 10
9.53302716
 20
18.57683003
 30
0.0
 11
9.61021973
 21
18.59148764
 31
0.0
  0
LINE
  5
48
100
AcDbEntity
  8
SLD-0
  6
CONTINUOUS
 62
       3
100
AcDbLine
 10
9.61021973
 20
18.59148764
 30
0.0
 11
9.68731922
 21
18.60651355
 31
0.0
  0
LINE
  5
49
100
AcDbEntity
  8
SLD-0
  6
CONTINUOUS
 62
       3
100
AcDbLine
 10
9.68731922
 20
18.60651355
 30
0.0
 11
9.76432388
 21
18.62191479
 31
0.0
  0
LINE
  5
4A
100
AcDbEntity
  8
SLD-0
  6
CONTINUOUS
 62
       3
100
AcDbLine
 10
9.76432388
 20
18.62191479
 30
0.0
 11
9.84123194
 21
18.63769838
 31
0.0
  0
LINE
  5
4B
100
AcDbEntity
  8
SLD-0
  6
CONTINUOUS
 62
       3
100
AcDbLine
 10
9.84123194
 20
18.63769838
 30
0.0
 11
9.91804163
 21
18.65387136
 31
0.0
  0
LINE
  5
4C
100
AcDbEntity
  8
SLD-0
  6
CONTINUOUS
 62
       3
100
AcDbLine
 10
9.91804163
 20
18.65387136
 30
0.0
 11
9.99475119
 21
18.67044074
 31
0.0
  0
LINE
  5
4D
100
AcDbEntity
  8
SLD-0
  6
CONTINUOUS
 62
       3
100
AcDbLine
 10
9.99475119
 20
18.67044074
 30
0.0
 11
10.07135885
 21
18.68741356
 31
0.0
  0
LINE
  5
4E
100
AcDbEntity
  8
SLD-0
  6
CONTINUOUS
 62
       3
100
AcDbLine
 10
10.07135885
 20
18.68741356
 30
0.0
 11
10.14786286
 21
18.70479685
 31
0.0
  0
LINE
  5
4F
100
AcDbEntity
  8
SLD-0
  6
CONTINUOUS
 62
       3
100
AcDbLine
 10
10.14786286
 20
18.70479685
 30
0.0
 11
10.22426144
 21
18.72259762
 31
0.0
  0
LINE
  5
50
100
AcDbEntity
  8
SLD-0
  6
CONTINUOUS
 62
       3
100
AcDbLine
 10
10.22426144
 20
18.72259762
 30
0.0
 11
10.30055283
 21
18.7408229
 31
0.0
  0
LINE
  5
51
100
AcDbEntity
  8
SLD-0
  6
CONTINUOUS
 62
       3
100
AcDbLine
 10
10.30055283
 20
18.7408229
 30
0.0
 11
10.37673527
 21
18.75947973
 31
0.0
  0
LINE
  5
52
100
AcDbEntity
  8
SLD-0
  6
CONTINUOUS
 62
       3
100
AcDbLine
 10
10.37673527
 20
18.75947973
 30
0.0
 11
10.45280699
 21
18.77857513
 31
0.0
  0
LINE
  5
53
100
AcDbEntity
  8
SLD-0
  6
CONTINUOUS
 62
       3
100
AcDbLine
 10
10.45280699
 20
18.77857513
 30
0.0
 11
10.52876623
 21
18.79811612
 31
0.0
  0
LINE
  5
54
100
AcDbEntity
  8
SLD-0
  6
CONTINUOUS
 62
       3
100
AcDbLine
 10
10.52876623
 20
18.79811612
 30
0.0
 11
10.60463298
 21
18.81811523
 31
0.0
  0
LINE
  5
55
100
AcDbEntity
  8
SLD-0
  6
CONTINUOUS
 62
       3
100
AcDbLine
 10
10.60463298
 20
18.81811523
 30
0.0
 11
10.6804174
 21
18.83858789
 31
0.0
  0
LINE
  5
56
100
AcDbEntity
  8
SLD-0
  6
CONTINUOUS
 62
       3
100
AcDbLine
 10
10.6804174
 20
18.83858789
 30
0.0
 11
10.75610295
 21
18.85954546
 31
0.0
  0
LINE
  5
57
100
AcDbEntity
  8
SLD-0
  6
CONTINUOUS
 62
       3
100
AcDbLine
 10
10.75610295
 20
18.85954546
 30
0.0
 11
10.8316731
 21
18.88099935
 31
0.0
  0
LINE
  5
58
100
AcDbEntity
  8
SLD-0
  6
CONTINUOUS
 62
       3
100
AcDbLine
 10
10.8316731
 20
18.88099935
 30
0.0
 11
10.90711133
 21
18.90296091
 31
0.0
  0
LINE
  5
59
100
AcDbEntity
  8
SLD-0
  6
CONTINUOUS
 62
       3
100
AcDbLine
 10
10.90711133
 20
18.90296091
 30
0.0
 11
10.9824011
 21
18.92544154
 31
0.0
  0
LINE
  5
5A
100
AcDbEntity
  8
SLD-0
  6
CONTINUOUS
 62
       3
100
AcDbLine
 10
10.9824011
 20
18.92544154
 30
0.0
 11
11.05752587
 21
18.94845261
 31
0.0
  0
LINE
  5
5B
100
AcDbEntity
  8
SLD-0
  6
CONTINUOUS
 62
       3
100
AcDbLine
 10
11.05752587
 20
18.94845261
 30
0.0
 11
11.13246911
 21
18.9720055
 31
0.0
  0
LINE
  5
5C
100
AcDbEntity
  8
SLD-0
  6
CONTINUOUS
 62
       3
100
AcDbLine
 10
11.13246911
 20
18.9720055
 30
0.0
 11
11.2072143
 21
18.99611159
 31
0.0
  0
LINE
  5
5D
100
AcDbEntity
  8
SLD-0
  6
CONTINUOUS
 62
       3
100
AcDbLine
 10
11.2072143
 20
18.99611159
 30
0.0
 11
11.2817449
 21
19.02078227
 31
0.0
  0
LINE
  5
5E
100
AcDbEntity
  8
SLD-0
  6
CONTINUOUS
 62
       3
100
AcDbLine
 10
11.2817449
 20
19.02078227
 30
0.0
 11
11.35604438
 21
19.0460289
 31
0.0
  0
LINE
  5
5F
100
AcDbEntity
  8
SLD-0
  6
CONTINUOUS
 62
       3
100
AcDbLine
 10
11.35604438
 20
19.0460289
 30
0.0
 11
11.4300962
 21
19.07186288
 31
0.0
  0
LINE
  5
60
100
AcDbEntity
  8
SLD-0
  6
CONTINUOUS
 62
       3
100
AcDbLine
 10
11.4300962
 20
19.07186288
 30
0.0
 11
11.50388384
 21
19.09829558
 31
0.0
  0
LINE
  5
61
100
AcDbEntity
  8
SLD-0
  6
CONTINUOUS
 62
       3
100
AcDbLine
 10
11.50388384
 20
19.09829558
 30
0.0
 11
11.57739076
 21
19.12533837
 31
0.0
  0
LINE
  5
62
100
AcDbEntity
  8
SLD-0
  6
CONTINUOUS
 62
       3
100
AcDbLine
 10
11.57739076
 20
19.12533837
 30
0.0
 11
11.65060043
 21
19.15300265
 31
0.0
  0
LINE
  5
63
100
AcDbEntity
  8
SLD-0
  6
CONTINUOUS
 62
       3
100
AcDbLine
 10
11.65060043
 20
19.15300265
 30
0.0
 11
11.72350502
 21
19.1812825
 31
0.0
  0
LINE
  5
64
100
AcDbEntity
  8
SLD-0
  6
CONTINUOUS
 62
       3
100
AcDbLine
 10
11.72350502
 20
19.1812825
 30
0.0
 11
11.79609463
 21
19.21019065
 31
0.0
  0
LINE
  5
65
100
AcDbEntity
  8
SLD-0
  6
CONTINUOUS
 62
       3
100
AcDbLine
 10
11.79609463
 20
19.21019065
 30
0.0
 11
11.86834958
 21
19.23976645
 31
0.0
  0
LINE
  5
66
100
AcDbEntity
  8
SLD-0
  6
CONTINUOUS
 62
       3
100
AcDbLine
 10
11.86834958
 20
19.23976645
 30
0.0
 11
11.94025018
 21
19.27004922
 31
0.0
  0
LINE
  5
67
100
AcDbEntity
  8
SLD-0
  6
CONTINUOUS
 62
       3
100
AcDbLine
 10
11.94025018
 20
19.27004922
 30
0.0
 11
12.01177679
 21
19.30107831
 31
0.0
  0
LINE
  5
68
100
AcDbEntity
  8
SLD-0
  6
CONTINUOUS
 62
       3
100
AcDbLine
 10
12.01177679
 20
19.30107831
 30
0.0
 11
12.08290971
 21
19.33289303
 31
0.0
  0
LINE
  5
69
100
AcDbEntity
  8
SLD-0
  6
CONTINUOUS
 62
       3
100
AcDbLine
 10
12.08290971
 20
19.33289303
 30
0.0
 11
12.15362927
 21
19.36553274
 31
0.0
  0
LINE
  5
6A
100
AcDbEntity
  8
SLD-0
  6
CONTINUOUS
 62
       3
100
AcDbLine
 10
12.15362927
 20
19.36553274
 30
0.0
 11
12.22391581
 21
19.39903676
 31
0.0
  0
LINE
  5
6B
100
AcDbEntity
  8
SLD-0
  6
CONTINUOUS
 62
       3
100
AcDbLine
 10
12.22391581
 20
19.39903676
 30
0.0
 11
12.29374966
 21
19.43344442
 31
0.0
  0
LINE
  5
6C
100
AcDbEntity
  8
SLD-0
  6
CONTINUOUS
 62
       3
100
AcDbLine
 10
12.29374966
 20
19.43344442
 30
0.0
 11
12.36311113
 21
19.46879506
 31
0.0
  0
LINE
  5
6D
100
AcDbEntity
  8
SLD-0
  6
CONTINUOUS
 62
       3
100
AcDbLine
 10
12.36311113
 20
19.46879506
 30
0.0
 11
12.43198056
 21
19.50512802
 31
0.0
  0
LINE
  5
6E
100
AcDbEntity
  8
SLD-0
  6
CONTINUOUS
 62
       3
100
AcDbLine
 10
12.43198056
 20
19.50512802
 30
0.0
 11
12.50033827
 21
19.54248263
 31
0.0
  0
LINE
  5
6F
100
AcDbEntity
  8
SLD-0
  6
CONTINUOUS
 62
       3
100
AcDbLine
 10
12.50033827
 20
19.54248263
 30
0.0
 11
12.56816459
 21
19.58089822
 31
0.0
  0
LINE
  5
70
100
AcDbEntity
  8
SLD-0
  6
CONTINUOUS
 62
       3
100
AcDbLine
 10
12.56816459
 20
19.58089822
 30
0.0
 11
12.63543986
 21
19.62041413
 31
0.0
  0
LINE
  5
71
100
AcDbEntity
  8
SLD-0
  6
CONTINUOUS
 62
       3
100
AcDbLine
 10
12.63543986
 20
19.62041413
 30
0.0
 11
12.70214439
 21
19.66106969
 31
0.0
  0
LINE
  5
72
100
AcDbEntity
  8
SLD-0
  6
CONTINUOUS
 62
       3
100
AcDbLine
 10
12.70214439
 20
19.66106969
 30
0.0
 11
12.76833022
 21
19.7030044
 31
0.0
  0
LINE
  5
73
100
AcDbEntity
  8
SLD-0
  6
CONTINUOUS
 62
       3
100
AcDbLine
 10
12.76833022
 20
19.7030044
 30
0.0
 11
12.83394708
 21
19.74635028
 31
0.0
  0
LINE
  5
74
100
AcDbEntity
  8
SLD-0
  6
CONTINUOUS
 62
       3
100
AcDbLine
 10
12.83394708
 20
19.74635028
 30
0.0
 11
12.89882177
 21
19.7911355
 31
0.0
  0
LINE
  5
75
100
AcDbEntity
  8
SLD-0
  6
CONTINUOUS
 62
       3
100
AcDbLine
 10
12.89882177
 20
19.7911355
 30
0.0
 11
12.96278111
 21
19.83738819
 31
0.0
  0
LINE
  5
76
100
AcDbEntity
  8
SLD-0
  6
CONTINUOUS
 62
       3
100
AcDbLine
 10
12.96278111
 20
19.83738819
 30
0.0
 11
13.02565192
 21
19.8851365
 31
0.0
  0
LINE
  5
77
100
AcDbEntity
  8
SLD-0
  6
CONTINUOUS
 62
       3
100
AcDbLine
 10
13.02565192
 20
19.8851365
 30
0.0
 11
13.08726101
 21
19.93440859
 31
0.0
  0
LINE
  5
78
100
AcDbEntity
  8
SLD-0
  6
CONTINUOUS
 62
       3
100
AcDbLine
 10
13.08726101
 20
19.93440859
 30
0.0
 11
13.14743521
 21
19.98523258
 31
0.0
  0
LINE
  5
79
100
AcDbEntity
  8
SLD-0
  6
CONTINUOUS
 62
       3
100
AcDbLine
 10
13.14743521
 20
19.98523258
 30
0.0
 11
13.20601262
 21
20.03762384
 31
0.0
  0
LINE
  5
7A
100
AcDbEntity
  8
SLD-0
  6
CONTINUOUS
 62
       3
100
AcDbLine
 10
13.20601262
 20
20.03762384
 30
0.0
 11
13.26287347
 21
20.09159582
 31
0.0
  0
LINE
  5
7B
100
AcDbEntity
  8
SLD-0
  6
CONTINUOUS
 62
       3
100
AcDbLine
 10
13.26287347
 20
20.09159582
 30
0.0
 11
13.31781925
 21
20.14732262
 31
0.0
  0
LINE
  5
7C
100
AcDbEntity
  8
SLD-0
  6
CONTINUOUS
 62
       3
100
AcDbLine
 10
13.31781925
 20
20.14732262
 30
0.0
 11
13.37063853
 21
20.20499806
 31
0.0
  0
LINE
  5
7D
100
AcDbEntity
  8
SLD-0
  6
CONTINUOUS
 62
       3
100
AcDbLine
 10
13.37063853
 20
20.20499806
 30
0.0
 11
13.42111991
 21
20.26481597
 31
0.0
  0
LINE
  5
7E
100
AcDbEntity
  8
SLD-0
  6
CONTINUOUS
 62
       3
100
AcDbLine
 10
13.42111991
 20
20.26481597
 30
0.0
 11
13.46905198
 21
20.32697014
 31
0.0
  0
LINE
  5
7F
100
AcDbEntity
  8
SLD-0
  6
CONTINUOUS
 62
       3
100
AcDbLine
 10
13.46905198
 20
20.32697014
 30
0.0
 11
13.51422332
 21
20.39165441
 31
0.0
  0
LINE
  5
80
100
AcDbEntity
  8
SLD-0
  6
CONTINUOUS
 62
       3
100
AcDbLine
 10
13.51422332
 20
20.39165441
 30
0.0
 11
13.55642251
 21
20.45906258
 31
0.0
  0
ENDBLK
  5
81
100
AcDbEntity
  8
0
100
AcDbBlockEnd
  0
BLOCK
  5
82
100
AcDbEntity
  8
0
100
AcDbBlockBegin
  2
GROUP_2
 70
       0
 10
0.0
 20
0.0
 30
0.0
  3
GROUP_2
  1

  0
LINE
  5
83
100
AcDbEntity
  8
SLD-0
  6
CONTINUOUS
 62
       3
100
AcDbLine
 10
9.37836988
 20
18.54859161
 30
0.0
 11
9.2326797
 21
18.52340947
 31
0.0
  0
LINE
  5
84
100
AcDbEntity
  8
SLD-0
  6
CONTINUOUS
 62
       3
100
AcDbLine
 10
9.2326797
 20
18.52340947
 30
0.0
 11
9.08686025
 21
18.49962847
 31
0.0
  0
LINE
  5
85
100
AcDbEntity
  8
SLD-0
  6
CONTINUOUS
 62
       3
100
AcDbLine
 10
9.08686025
 20
18.49962847
 30
0.0
 11
8.94091462
 21
18.47720681
 31
0.0
  0
LINE
  5
86
100
AcDbEntity
  8
SLD-0
  6
CONTINUOUS
 62
       3
100
AcDbLine
 10
8.94091462
 20
18.47720681
 30
0.0
 11
8.79484593
 21
18.45610269
 31
0.0
  0
LINE
  5
87
100
AcDbEntity
  8
SLD-0
  6
CONTINUOUS
 62
       3
100
AcDbLine
 10
8.79484593
 20
18.45610269
 30
0.0
 11
8.64865729
 21
18.43627432
 31
0.0
  0
LINE
  5
88
100
AcDbEntity
  8
SLD-0
  6
CONTINUOUS
 62
       3
100
AcDbLine
 10
8.64865729
 20
18.43627432
 30
0.0
 11
8.5023518
 21
18.41767988
 31
0.0
  0
LINE
  5
89
100
AcDbEntity
  8
SLD-0
  6
CONTINUOUS
 62
       3
100
AcDbLine
 10
8.5023518
 20
18.41767988
 30
0.0
 11
8.35593257
 21
18.40027757
 31
0.0
  0
LINE
  5
8A
100
AcDbEntity
  8
SLD-0
  6
CONTINUOUS
 62
       3
100
AcDbLine
 10
8.35593257
 20
18.40027757
 30
0.0
 11
8.2094027
 21
18.3840256
 31
0.0
  0
LINE
  5
8B
100
AcDbEntity
  8
SLD-0
  6
CONTINUOUS
 62
       3
100
AcDbLine
 10
8.2094027
 20
18.3840256
 30
0.0
 11
8.06276532
 21
18.36888216
 31
0.0
  0
LINE
  5
8C
100
AcDbEntity
  8
SLD-0
  6
CONTINUOUS
 62
       3
100
AcDbLine
 10
8.06276532
 20
18.36888216
 30
0.0
 11
7.91602352
 21
18.35480544
 31
0.0
  0
LINE
  5
8D
100
AcDbEntity
  8
SLD-0
  6
CONTINUOUS
 62
       3
100
AcDbLine
 10
7.91602352
 20
18.35480544
 30
0.0
 11
7.76918042
 21
18.34175365
 31
0.0
  0
LINE
  5
8E
100
AcDbEntity
  8
SLD-0
  6
CONTINUOUS
 62
       3
100
AcDbLine
 10
7.76918042
 20
18.34175365
 30
0.0
 11
7.62223912
 21
18.32968498
 31
0.0
  0
LINE
  5
8F
100
AcDbEntity
  8
SLD-0
  6
CONTINUOUS
 62
       3
100
AcDbLine
 10
7.62223912
 20
18.32968498
 30
0.0
 11
7.47519657
 21
18.31856179
 31
0.0
  0
LINE
  5
90
100
AcDbEntity
  8
SLD-0
  6
CONTINUOUS
 62
       3
100
AcDbLine
 10
7.47519657
 20
18.31856179
 30
0.0
 11
7.32802427
 21
18.30837945
 31
0.0
  0
LINE
  5
91
100
AcDbEntity
  8
SLD-0
  6
CONTINUOUS
 62
       3
100
AcDbLine
 10
7.32802427
 20
18.30837945
 30
0.0
 11
7.18073291
 21
18.29913169
 31
0.0
  0
LINE
  5
92
100
AcDbEntity
  8
SLD-0
  6
CONTINUOUS
 62
       3
100
AcDbLine
 10
7.18073291
 20
18.29913169
 30
0.0
 11
7.03333994
 21
18.29080945
 31
0.0
  0
LINE
  5
93
100
AcDbEntity
  8
SLD-0
  6
CONTINUOUS
 62
       3
100
AcDbLine
 10
7.03333994
 20
18.29080945
 30
0.0
 11
6.88586281
 21
18.28340367
 31
0.0
  0
LINE
  5
94
100
AcDbEntity
  8
SLD-0
  6
CONTINUOUS
 62
       3
100
AcDbLine
 10
6.88586281
 20
18.28340367
 30
0.0
 11
6.73831895
 21
18.27690528
 31
0.0
  0
LINE
  5
95
100
AcDbEntity
  8
SLD-0
  6
CONTINUOUS
 62
       3
100
AcDbLine
 10
6.73831895
 20
18.27690528
 30
0.0
 11
6.59072584
 21
18.27130522
 31
0.0
  0
LINE
  5
96
100
AcDbEntity
  8
SLD-0
  6
CONTINUOUS
 62
       3
100
AcDbLine
 10
6.59072584
 20
18.27130522
 30
0.0
 11
6.4431009
 21
18.26659444
 31
0.0
  0
LINE
  5
97
100
AcDbEntity
  8
SLD-0
  6
CONTINUOUS
 62
       3
100
AcDbLine
 10
6.4431009
 20
18.26659444
 30
0.0
 11
6.29546159
 21
18.26276386
 31
0.0
  0
LINE
  5
98
100
AcDbEntity
  8
SLD-0
  6
CONTINUOUS
 62
       3
100
AcDbLine
 10
6.29546159
 20
18.26276386
 30
0.0
 11
6.14782536
 21
18.25980442
 31
0.0
  0
LINE
  5
99
100
AcDbEntity
  8
SLD-0
  6
CONTINUOUS
 62
       3
100
AcDbLine
 10
6.14782536
 20
18.25980442
 30
0.0
 11
6.00020966
 21
18.25770708
 31
0.0
  0
LINE
  5
9A
100
AcDbEntity
  8
SLD-0
  6
CONTINUOUS
 62
       3
100
AcDbLine
 10
6.00020966
 20
18.25770708
 30
0.0
 11
5.85263194
 21
18.25646275
 31
0.0
  0
LINE
  5
9B
100
AcDbEntity
  8
SLD-0
  6
CONTINUOUS
 62
       3
100
AcDbLine
 10
5.85263194
 20
18.25646275
 30
0.0
 11
5.70510964
 21
18.25606238
 31
0.0
  0
LINE
  5
9C
100
AcDbEntity
  8
SLD-0
  6
CONTINUOUS
 62
       3
100
AcDbLine
 10
5.70510964
 20
18.25606238
 30
0.0
 11
5.55765093
 21
18.25649749
 31
0.0
  0
LINE
  5
9D
100
AcDbEntity
  8
SLD-0
  6
CONTINUOUS
 62
       3
100
AcDbLine
 10
5.55765093
 20
18.25649749
 30
0.0
 11
5.41025267
 21
18.25777175
 31
0.0
  0
LINE
  5
9E
100
AcDbEntity
  8
SLD-0
  6
CONTINUOUS
 62
       3
100
AcDbLine
 10
5.41025267
 20
18.25777175
 30
0.0
 11
5.2629153
 21
18.25989435
 31
0.0
  0
LINE
  5
9F
100
AcDbEntity
  8
SLD-0
  6
CONTINUOUS
 62
       3
100
AcDbLine
 10
5.2629153
 20
18.25989435
 30
0.0
 11
5.1156393
 21
18.26287449
 31
0.0
  0
LINE
  5
A0
100
AcDbEntity
  8
SLD-0
  6
CONTINUOUS
 62
       3
100
AcDbLine
 10
5.1156393
 20
18.26287449
 30
0.0
 11
4.96842511
 21
18.26672134
 31
0.0
  0
LINE
  5
A1
100
AcDbEntity
  8
SLD-0
  6
CONTINUOUS
 62
       3
100
AcDbLine
 10
4.96842511
 20
18.26672134
 30
0.0
 11
4.8212732
 21
18.27144409
 31
0.0
  0
LINE
  5
A2
100
AcDbEntity
  8
SLD-0
  6
CONTINUOUS
 62
       3
100
AcDbLine
 10
4.8212732
 20
18.27144409
 30
0.0
 11
4.67418403
 21
18.27705193
 31
0.0
  0
LINE
  5
A3
100
AcDbEntity
  8
SLD-0
  6
CONTINUOUS
 62
       3
100
AcDbLine
 10
4.67418403
 20
18.27705193
 30
0.0
 11
4.52715805
 21
18.28355405
 31
0.0
  0
LINE
  5
A4
100
AcDbEntity
  8
SLD-0
  6
CONTINUOUS
 62
       3
100
AcDbLine
 10
4.52715805
 20
18.28355405
 30
0.0
 11
4.38019573
 21
18.29095963
 31
0.0
  0
LINE
  5
A5
100
AcDbEntity
  8
SLD-0
  6
CONTINUOUS
 62
       3
100
AcDbLine
 10
4.38019573
 20
18.29095963
 30
0.0
 11
4.23329752
 21
18.29927787
 31
0.0
  0
LINE
  5
A6
100
AcDbEntity
  8
SLD-0
  6
CONTINUOUS
 62
       3
100
AcDbLine
 10
4.23329752
 20
18.29927787
 30
0.0
 11
4.08646389
 21
18.30851794
 31
0.0
  0
LINE
  5
A7
100
AcDbEntity
  8
SLD-0
  6
CONTINUOUS
 62
       3
100
AcDbLine
 10
4.08646389
 20
18.30851794
 30
0.0
 11
3.9396953
 21
18.31868903
 31
0.0
  0
LINE
  5
A8
100
AcDbEntity
  8
SLD-0
  6
CONTINUOUS
 62
       3
100
AcDbLine
 10
3.9396953
 20
18.31868903
 30
0.0
 11
3.79299205
 21
18.32979764
 31
0.0
  0
LINE
  5
A9
100
AcDbEntity
  8
SLD-0
  6
CONTINUOUS
 62
       3
100
AcDbLine
 10
3.79299205
 20
18.32979764
 30
0.0
 11
3.64635443
 21
18.34184925
 31
0.0
  0
LINE
  5
AA
100
AcDbEntity
  8
SLD-0
  6
CONTINUOUS
 62
       3
100
AcDbLine
 10
3.64635443
 20
18.34184925
 30
0.0
 11
3.49978443
 21
18.35488247
 31
0.0
  0
LINE
  5
AB
100
AcDbEntity
  8
SLD-0
  6
CONTINUOUS
 62
       3
100
AcDbLine
 10
3.49978443
 20
18.35488247
 30
0.0
 11
3.35328424
 21
18.36893995
 31
0.0
  0
LINE
  5
AC
100
AcDbEntity
  8
SLD-0
  6
CONTINUOUS
 62
       3
100
AcDbLine
 10
3.35328424
 20
18.36893995
 30
0.0
 11
3.20685608
 21
18.38406439
 31
0.0
  0
LINE
  5
AD
100
AcDbEntity
  8
SLD-0
  6
CONTINUOUS
 62
       3
100
AcDbLine
 10
3.20685608
 20
18.38406439
 30
0.0
 11
3.06050213
 21
18.40029846
 31
0.0
  0
LINE
  5
AE
100
AcDbEntity
  8
SLD-0
  6
CONTINUOUS
 62
       3
100
AcDbLine
 10
3.06050213
 20
18.40029846
 30
0.0
 11
2.91422461
 21
18.41768483
 31
0.0
  0
LINE
  5
AF
100
AcDbEntity
  8
SLD-0
  6
CONTINUOUS
 62
       3
100
AcDbLine
 10
2.91422461
 20
18.41768483
 30
0.0
 11
2.76802572
 21
18.4362662
 31
0.0
  0
LINE
  5
B0
100
AcDbEntity
  8
SLD-0
  6
CONTINUOUS
 62
       3
100
AcDbLine
 10
2.76802572
 20
18.4362662
 30
0.0
 11
2.62190766
 21
18.45608523
 31
0.0
  0
LINE
  5
B1
100
AcDbEntity
  8
SLD-0
  6
CONTINUOUS
 62
       3
100
AcDbLine
 10
2.62190766
 20
18.45608523
 30
0.0
 11
2.47587264
 21
18.47718461
 31
0.0
  0
LINE
  5
B2
100
AcDbEntity
  8
SLD-0
  6
CONTINUOUS
 62
       3
100
AcDbLine
 10
2.47587264
 20
18.47718461
 30
0.0
 11
2.32992285
 21
18.49960701
 31
0.0
  0
LINE
  5
B3
100
AcDbEntity
  8
SLD-0
  6
CONTINUOUS
 62
       3
100
AcDbLine
 10
2.32992285
 20
18.49960701
 30
0.0
 11
2.18406051
 21
18.52339512
 31
0.0
  0
LINE
  5
B4
100
AcDbEntity
  8
SLD-0
  6
CONTINUOUS
 62
       3
100
AcDbLine
 10
2.18406051
 20
18.52339512
 30
0.0
 11
2.0382878
 21
18.54859161
 31
0.0
  0
ENDBLK
  5
B5
100
AcDbEntity
  8
0
100
AcDbBlockEnd
  0
BLOCK
  5
B6
100
AcDbEntity
  8
0
100
AcDbBlockBegin
  2
GROUP_3
 70
       0
 10
0.0
 20
0.0
 30
0.0
  3
GROUP_3
  1

  0
LINE
  5
B7
100
AcDbEntity
  8
SLD-0
  6
CONTINUOUS
 62
       3
100
AcDbLine
 10
-2.13976484
 20
20.45906258
 30
0.0
 11
-2.09770303
 21
20.3918948
 31
0.0
  0
LINE
  5
B8
100
AcDbEntity
  8
SLD-0
  6
CONTINUOUS
 62
       3
100
AcDbLine
 10
-2.09770303
 20
20.3918948
 30
0.0
 11
-2.05253099
 21
20.32724153
 31
0.0
  0
LINE
  5
B9
100
AcDbEntity
  8
SLD-0
  6
CONTINUOUS
 62
       3
100
AcDbLine
 10
-2.05253099
 20
20.32724153
 30
0.0
 11
-2.00447706
 21
20.26495122
 31
0.0
  0
LINE
  5
BA
100
AcDbEntity
  8
SLD-0
  6
CONTINUOUS
 62
       3
100
AcDbLine
 10
-2.00447706
 20
20.26495122
 30
0.0
 11
-1.95376956
 21
20.20487235
 31
0.0
  0
LINE
  5
BB
100
AcDbEntity
  8
SLD-0
  6
CONTINUOUS
 62
       3
100
AcDbLine
 10
-1.95376956
 20
20.20487235
 30
0.0
 11
-1.90063684
 21
20.14685337
 31
0.0
  0
LINE
  5
BC
100
AcDbEntity
  8
SLD-0
  6
CONTINUOUS
 62
       3
100
AcDbLine
 10
-1.90063684
 20
20.14685337
 30
0.0
 11
-1.84530722
 21
20.09074276
 31
0.0
  0
LINE
  5
BD
100
AcDbEntity
  8
SLD-0
  6
CONTINUOUS
 62
       3
100
AcDbLine
 10
-1.84530722
 20
20.09074276
 30
0.0
 11
-1.78800903
 21
20.03638897
 31
0.0
  0
LINE
  5
BE
100
AcDbEntity
  8
SLD-0
  6
CONTINUOUS
 62
       3
100
AcDbLine
 10
-1.78800903
 20
20.03638897
 30
0.0
 11
-1.7290114
 21
19.98369047
 31
0.0
  0
LINE
  5
BF
100
AcDbEntity
  8
SLD-0
  6
CONTINUOUS
 62
       3
100
AcDbLine
 10
-1.7290114
 20
19.98369047
 30
0.0
 11
-1.66872837
 21
19.93281237
 31
0.0
  0
LINE
  5
C0
100
AcDbEntity
  8
SLD-0
  6
CONTINUOUS
 62
       3
100
AcDbLine
 10
-1.66872837
 20
19.93281237
 30
0.0
 11
-1.60727834
 21
19.88369552
 31
0.0
  0
LINE
  5
C1
100
AcDbEntity
  8
SLD-0
  6
CONTINUOUS
 62
       3
100
AcDbLine
 10
-1.60727834
 20
19.88369552
 30
0.0
 11
-1.54473238
 21
19.8362326
 31
0.0
  0
LINE
  5
C2
100
AcDbEntity
  8
SLD-0
  6
CONTINUOUS
 62
       3
100
AcDbLine
 10
-1.54473238
 20
19.8362326
 30
0.0
 11
-1.48116154
 21
19.7903163
 31
0.0
  0
LINE
  5
C3
100
AcDbEntity
  8
SLD-0
  6
CONTINUOUS
 62
       3
100
AcDbLine
 10
-1.48116154
 20
19.7903163
 30
0.0
 11
-1.41663689
 21
19.7458393
 31
0.0
  0
LINE
  5
C4
100
AcDbEntity
  8
SLD-0
  6
CONTINUOUS
 62
       3
100
AcDbLine
 10
-1.41663689
 20
19.7458393
 30
0.0
 11
-1.35122948
 21
19.70269429
 31
0.0
  0
LINE
  5
C5
100
AcDbEntity
  8
SLD-0
  6
CONTINUOUS
 62
       3
100
AcDbLine
 10
-1.35122948
 20
19.70269429
 30
0.0
 11
-1.28501037
 21
19.66077395
 31
0.0
  0
LINE
  5
C6
100
AcDbEntity
  8
SLD-0
  6
CONTINUOUS
 62
       3
100
AcDbLine
 10
-1.28501037
 20
19.66077395
 30
0.0
 11
-1.21803298
 21
19.61998084
 31
0.0
  0
LINE
  5
C7
100
AcDbEntity
  8
SLD-0
  6
CONTINUOUS
 62
       3
100
AcDbLine
 10
-1.21803298
 20
19.61998084
 30
0.0
 11
-1.15033341
 21
19.5802701
 31
0.0
  0
LINE
  5
C8
100
AcDbEntity
  8
SLD-0
  6
CONTINUOUS
 62
       3
100
AcDbLine
 10
-1.15033341
 20
19.5802701
 30
0.0
 11
-1.08195678
 21
19.54161333
 31
0.0
  0
LINE
  5
C9
100
AcDbEntity
  8
SLD-0
  6
CONTINUOUS
 62
       3
100
AcDbLine
 10
-1.08195678
 20
19.54161333
 30
0.0
 11
-1.01294817
 21
19.50398211
 31
0.0
  0
LINE
  5
CA
100
AcDbEntity
  8
SLD-0
  6
CONTINUOUS
 62
       3
100
AcDbLine
 10
-1.01294817
 20
19.50398211
 30
0.0
 11
-0.94335269
 21
19.46734804
 31
0.0
  0
LINE
  5
CB
100
AcDbEntity
  8
SLD-0
  6
CONTINUOUS
 62
       3
100
AcDbLine
 10
-0.94335269
 20
19.46734804
 30
0.0
 11
-0.87321544
 21
19.4316827
 31
0.0
  0
LINE
  5
CC
100
AcDbEntity
  8
SLD-0
  6
CONTINUOUS
 62
       3
100
AcDbLine
 10
-0.87321544
 20
19.4316827
 30
0.0
 11
-0.80258152
 21
19.39695768
 31
0.0
  0
LINE
  5
CD
100
AcDbEntity
  8
SLD-0
  6
CONTINUOUS
 62
       3
100
AcDbLine
 10
-0.80258152
 20
19.39695768
 30
0.0
 11
-0.73149605
 21
19.36314457
 31
0.0
  0
LINE
  5
CE
100
AcDbEntity
  8
SLD-0
  6
CONTINUOUS
 62
       3
100
AcDbLine
 10
-0.73149605
 20
19.36314457
 30
0.0
 11
-0.6600041
 21
19.33021496
 31
0.0
  0
LINE
  5
CF
100
AcDbEntity
  8
SLD-0
  6
CONTINUOUS
 62
       3
100
AcDbLine
 10
-0.6600041
 20
19.33021496
 30
0.0
 11
-0.5881508
 21
19.29814043
 31
0.0
  0
LINE
  5
D0
100
AcDbEntity
  8
SLD-0
  6
CONTINUOUS
 62
       3
100
AcDbLine
 10
-0.5881508
 20
19.29814043
 30
0.0
 11
-0.51598124
 21
19.26689258
 31
0.0
  0
LINE
  5
D1
100
AcDbEntity
  8
SLD-0
  6
CONTINUOUS
 62
       3
100
AcDbLine
 10
-0.51598124
 20
19.26689258
 30
0.0
 11
-0.44354052
 21
19.23644299
 31
0.0
  0
LINE
  5
D2
100
AcDbEntity
  8
SLD-0
  6
CONTINUOUS
 62
       3
100
AcDbLine
 10
-0.44354052
 20
19.23644299
 30
0.0
 11
-0.37087375
 21
19.20676326
 31
0.0
  0
LINE
  5
D3
100
AcDbEntity
  8
SLD-0
  6
CONTINUOUS
 62
       3
100
AcDbLine
 10
-0.37087375
 20
19.20676326
 30
0.0
 11
-0.29802603
 21
19.17782496
 31
0.0
  0
LINE
  5
D4
100
AcDbEntity
  8
SLD-0
  6
CONTINUOUS
 62
       3
100
AcDbLine
 10
-0.29802603
 20
19.17782496
 30
0.0
 11
-0.22504245
 21
19.1495997
 31
0.0
  0
LINE
  5
D5
100
AcDbEntity
  8
SLD-0
  6
CONTINUOUS
 62
       3
100
AcDbLine
 10
-0.22504245
 20
19.1495997
 30
0.0
 11
-0.15190514
 21
19.12205026
 31
0.0
  0
LINE
  5
D6
100
AcDbEntity
  8
SLD-0
  6
CONTINUOUS
 62
       3
100
AcDbLine
 10
-0.15190514
 20
19.12205026
 30
0.0
 11
-0.07856927
 21
19.09514818
 31
0.0
  0
LINE
  5
D7
100
AcDbEntity
  8
SLD-0
  6
CONTINUOUS
 62
       3
100
AcDbLine
 10
-0.07856927
 20
19.09514818
 30
0.0
 11
-0.00503952
 21
19.06887818
 31
0.0
  0
LINE
  5
D8
100
AcDbEntity
  8
SLD-0
  6
CONTINUOUS
 62
       3
100
AcDbLine
 10
-0.00503952
 20
19.06887818
 30
0.0
 11
0.06867944
 21
19.04322497
 31
0.0
  0
LINE
  5
D9
100
AcDbEntity
  8
SLD-0
  6
CONTINUOUS
 62
       3
100
AcDbLine
 10
0.06867944
 20
19.04322497
 30
0.0
 11
0.14258294
 21
19.01817326
 31
0.0
  0
LINE
  5
DA
100
AcDbEntity
  8
SLD-0
  6
CONTINUOUS
 62
       3
100
AcDbLine
 10
0.14258294
 20
19.01817326
 30
0.0
 11
0.21666629
 21
18.99370776
 31
0.0
  0
LINE
  5
DB
100
AcDbEntity
  8
SLD-0
  6
CONTINUOUS
 62
       3
100
AcDbLine
 10
0.21666629
 20
18.99370776
 30
0.0
 11
0.29092482
 21
18.96981318
 31
0.0
  0
LINE
  5
DC
100
AcDbEntity
  8
SLD-0
  6
CONTINUOUS
 62
       3
100
AcDbLine
 10
0.29092482
 20
18.96981318
 30
0.0
 11
0.36535386
 21
18.94647424
 31
0.0
  0
LINE
  5
DD
100
AcDbEntity
  8
SLD-0
  6
CONTINUOUS
 62
       3
100
AcDbLine
 10
0.36535386
 20
18.94647424
 30
0.0
 11
0.43994873
 21
18.92367563
 31
0.0
  0
LINE
  5
DE
100
AcDbEntity
  8
SLD-0
  6
CONTINUOUS
 62
       3
100
AcDbLine
 10
0.43994873
 20
18.92367563
 30
0.0
 11
0.51470476
 21
18.90140208
 31
0.0
  0
LINE
  5
DF
100
AcDbEntity
  8
SLD-0
  6
CONTINUOUS
 62
       3
100
AcDbLine
 10
0.51470476
 20
18.90140208
 30
0.0
 11
0.58961727
 21
18.8796383
 31
0.0
  0
LINE
  5
E0
100
AcDbEntity
  8
SLD-0
  6
CONTINUOUS
 62
       3
100
AcDbLine
 10
0.58961727
 20
18.8796383
 30
0.0
 11
0.66468158
 21
18.85836899
 31
0.0
  0
LINE
  5
E1
100
AcDbEntity
  8
SLD-0
  6
CONTINUOUS
 62
       3
100
AcDbLine
 10
0.66468158
 20
18.85836899
 30
0.0
 11
0.73989302
 21
18.83757887
 31
0.0
  0
LINE
  5
E2
100
AcDbEntity
  8
SLD-0
  6
CONTINUOUS
 62
       3
100
AcDbLine
 10
0.73989302
 20
18.83757887
 30
0.0
 11
0.81524691
 21
18.81725264
 31
0.0
  0
LINE
  5
E3
100
AcDbEntity
  8
SLD-0
  6
CONTINUOUS
 62
       3
100
AcDbLine
 10
0.81524691
 20
18.81725264
 30
0.0
 11
0.89073858
 21
18.79737503
 31
0.0
  0
LINE
  5
E4
100
AcDbEntity
  8
SLD-0
  6
CONTINUOUS
 62
       3
100
AcDbLine
 10
0.89073858
 20
18.79737503
 30
0.0
 11
0.96636522
 21
18.77793682
 31
0.0
  0
LINE
  5
E5
100
AcDbEntity
  8
SLD-0
  6
CONTINUOUS
 62
       3
100
AcDbLine
 10
0.96636522
 20
18.77793682
 30
0.0
 11
1.0421258
 21
18.75893461
 31
0.0
  0
LINE
  5
E6
100
AcDbEntity
  8
SLD-0
  6
CONTINUOUS
 62
       3
100
AcDbLine
 10
1.0421258
 20
18.75893461
 30
0.0
 11
1.11801831
 21
18.74036184
 31
0.0
  0
LINE
  5
E7
100
AcDbEntity
  8
SLD-0
  6
CONTINUOUS
 62
       3
100
AcDbLine
 10
1.11801831
 20
18.74036184
 30
0.0
 11
1.19404074
 21
18.72221193
 31
0.0
  0
LINE
  5
E8
100
AcDbEntity
  8
SLD-0
  6
CONTINUOUS
 62
       3
100
AcDbLine
 10
1.19404074
 20
18.72221193
 30
0.0
 11
1.27019108
 21
18.70447831
 31
0.0
  0
LINE
  5
E9
100
AcDbEntity
  8
SLD-0
  6
CONTINUOUS
 62
       3
100
AcDbLine
 10
1.27019108
 20
18.70447831
 30
0.0
 11
1.34646732
 21
18.6871544
 31
0.0
  0
LINE
  5
EA
100
AcDbEntity
  8
SLD-0
  6
CONTINUOUS
 62
       3
100
AcDbLine
 10
1.34646732
 20
18.6871544
 30
0.0
 11
1.42286746
 21
18.67023363
 31
0.0
  0
LINE
  5
EB
100
AcDbEntity
  8
SLD-0
  6
CONTINUOUS
 62
       3
100
AcDbLine
 10
1.42286746
 20
18.67023363
 30
0.0
 11
1.49938949
 21
18.65370943
 31
0.0
  0
LINE
  5
EC
100
AcDbEntity
  8
SLD-0
  6
CONTINUOUS
 62
       3
100
AcDbLine
 10
1.49938949
 20
18.65370943
 30
0.0
 11
1.5760314
 21
18.63757522
 31
0.0
  0
LINE
  5
ED
100
AcDbEntity
  8
SLD-0
  6
CONTINUOUS
 62
       3
100
AcDbLine
 10
1.5760314
 20
18.63757522
 30
0.0
 11
1.65279117
 21
18.62182442
 31
0.0
  0
LINE
  5
EE
100
AcDbEntity
  8
SLD-0
  6
CONTINUOUS
 62
       3
100
AcDbLine
 10
1.65279117
 20
18.62182442
 30
0.0
 11
1.72966681
 21
18.60645047
 31
0.0
  0
LINE
  5
EF
100
AcDbEntity
  8
SLD-0
  6
CONTINUOUS
 62
       3
100
AcDbLine
 10
1.72966681
 20
18.60645047
 30
0.0
 11
1.8066563
 21
18.59144678
 31
0.0
  0
LINE
  5
F0
100
AcDbEntity
  8
SLD-0
  6
CONTINUOUS
 62
       3
100
AcDbLine
 10
1.8066563
 20
18.59144678
 30
0.0
 11
1.88375763
 21
18.5768068
 31
0.0
  0
LINE
  5
F1
100
AcDbEntity
  8
SLD-0
  6
CONTINUOUS
 62
       3
100
AcDbLine
 10
1.88375763
 20
18.5768068
 30
0.0
 11
1.9609688
 21
18.56252393
 31
0.0
  0
LINE
  5
F2
100
AcDbEntity
  8
SLD-0
  6
CONTINUOUS
 62
       3
100
AcDbLine
 10
1.9609688
 20
18.56252393
 30
0.0
 11
2.0382878
 21
18.54859161
 31
0.0
  0
ENDBLK
  5
F3
100
AcDbEntity
  8
0
100
AcDbBlockEnd
  0
BLOCK
  5
F4
100
AcDbEntity
  8
0
100
AcDbBlockBegin
  2
GROUP_4
 70
       0
 10
0.0
 20
0.0
 30
0.0
  3
GROUP_4
  1

  0
LINE
  5
F5
100
AcDbEntity
  8
SLD-0
  6
CONTINUOUS
 62
       3
100
AcDbLine
 10
51.89490108
 20
40.40324087
 30
0.0
 11
51.90505476
 21
40.48349063
 31
0.0
  0
LINE
  5
F6
100
AcDbEntity
  8
SLD-0
  6
CONTINUOUS
 62
       3
100
AcDbLine
 10
51.90505476
 20
40.48349063
 30
0.0
 11
51.91529675
 21
40.56372904
 31
0.0
  0
LINE
  5
F7
100
AcDbEntity
  8
SLD-0
  6
CONTINUOUS
 62
       3
100
AcDbLine
 10
51.91529675
 20
40.56372904
 30
0.0
 11
51.92563097
 21
40.64395544
 31
0.0
  0
LINE
  5
F8
100
AcDbEntity
  8
SLD-0
  6
CONTINUOUS
 62
       3
100
AcDbLine
 10
51.92563097
 20
40.64395544
 30
0.0
 11
51.93606132
 21
40.72416914
 31
0.0
  0
LINE
  5
F9
100
AcDbEntity
  8
SLD-0
  6
CONTINUOUS
 62
       3
100
AcDbLine
 10
51.93606132
 20
40.72416914
 30
0.0
 11
51.94659171
 21
40.80436948
 31
0.0
  0
LINE
  5
FA
100
AcDbEntity
  8
SLD-0
  6
CONTINUOUS
 62
       3
100
AcDbLine
 10
51.94659171
 20
40.80436948
 30
0.0
 11
51.95722603
 21
40.88455578
 31
0.0
  0
LINE
  5
FB
100
AcDbEntity
  8
SLD-0
  6
CONTINUOUS
 62
       3
100
AcDbLine
 10
51.95722603
 20
40.88455578
 30
0.0
 11
51.96796819
 21
40.96472737
 31
0.0
  0
LINE
  5
FC
100
AcDbEntity
  8
SLD-0
  6
CONTINUOUS
 62
       3
100
AcDbLine
 10
51.96796819
 20
40.96472737
 30
0.0
 11
51.97882209
 21
41.04488358
 31
0.0
  0
LINE
  5
FD
100
AcDbEntity
  8
SLD-0
  6
CONTINUOUS
 62
       3
100
AcDbLine
 10
51.97882209
 20
41.04488358
 30
0.0
 11
51.98979165
 21
41.12502372
 31
0.0
  0
LINE
  5
FE
100
AcDbEntity
  8
SLD-0
  6
CONTINUOUS
 62
       3
100
AcDbLine
 10
51.98979165
 20
41.12502372
 30
0.0
 11
52.00088075
 21
41.20514715
 31
0.0
  0
LINE
  5
FF
100
AcDbEntity
  8
SLD-0
  6
CONTINUOUS
 62
       3
100
AcDbLine
 10
52.00088075
 20
41.20514715
 30
0.0
 11
52.01209331
 21
41.28525316
 31
0.0
  0
LINE
  5
100
100
AcDbEntity
  8
SLD-0
  6
CONTINUOUS
 62
       3
100
AcDbLine
 10
52.01209331
 20
41.28525316
 30
0.0
 11
52.02343324
 21
41.36534111
 31
0.0
  0
LINE
  5
101
100
AcDbEntity
  8
SLD-0
  6
CONTINUOUS
 62
       3
100
AcDbLine
 10
52.02343324
 20
41.36534111
 30
0.0
 11
52.03490442
 21
41.4454103
 31
0.0
  0
LINE
  5
102
100
AcDbEntity
  8
SLD-0
  6
CONTINUOUS
 62
       3
100
AcDbLine
 10
52.03490442
 20
41.4454103
 30
0.0
 11
52.04651077
 21
41.52546007
 31
0.0
  0
LINE
  5
103
100
AcDbEntity
  8
SLD-0
  6
CONTINUOUS
 62
       3
100
AcDbLine
 10
52.04651077
 20
41.52546007
 30
0.0
 11
52.0582562
 21
41.60548975
 31
0.0
  0
LINE
  5
104
100
AcDbEntity
  8
SLD-0
  6
CONTINUOUS
 62
       3
100
AcDbLine
 10
52.0582562
 20
41.60548975
 30
0.0
 11
52.07014459
 21
41.68549867
 31
0.0
  0
LINE
  5
105
100
AcDbEntity
  8
SLD-0
  6
CONTINUOUS
 62
       3
100
AcDbLine
 10
52.07014459
 20
41.68549867
 30
0.0
 11
52.08217987
 21
41.76548614
 31
0.0
  0
LINE
  5
106
100
AcDbEntity
  8
SLD-0
  6
CONTINUOUS
 62
       3
100
AcDbLine
 10
52.08217987
 20
41.76548614
 30
0.0
 11
52.09436593
 21
41.8454515
 31
0.0
  0
LINE
  5
107
100
AcDbEntity
  8
SLD-0
  6
CONTINUOUS
 62
       3
100
AcDbLine
 10
52.09436593
 20
41.8454515
 30
0.0
 11
52.10670668
 21
41.92539408
 31
0.0
  0
LINE
  5
108
100
AcDbEntity
  8
SLD-0
  6
CONTINUOUS
 62
       3
100
AcDbLine
 10
52.10670668
 20
41.92539408
 30
0.0
 11
52.11920601
 21
42.0053132
 31
0.0
  0
ENDBLK
  5
109
100
AcDbEntity
  8
0
100
AcDbBlockEnd
  0
BLOCK
  5
10A
100
AcDbEntity
  8
0
100
AcDbBlockBegin
  2
GROUP_5
 70
       0
 10
0.0
 20
0.0
 30
0.0
  3
GROUP_5
  1

  0
LINE
  5
10B
100
AcDbEntity
  8
SLD-0
  6
CONTINUOUS
 62
       3
100
AcDbLine
 10
52.10202295
 20
18.54859167
 30
0.0
 11
52.04249438
 21
18.95545265
 31
0.0
  0
LINE
  5
10C
100
AcDbEntity
  8
SLD-0
  6
CONTINUOUS
 62
       3
100
AcDbLine
 10
52.04249438
 20
18.95545265
 30
0.0
 11
51.98537178
 21
19.36257109
 31
0.0
  0
LINE
  5
10D
100
AcDbEntity
  8
SLD-0
  6
CONTINUOUS
 62
       3
100
AcDbLine
 10
51.98537178
 20
19.36257109
 30
0.0
 11
51.93062893
 21
19.76993892
 31
0.0
  0
LINE
  5
10E
100
AcDbEntity
  8
SLD-0
  6
CONTINUOUS
 62
       3
100
AcDbLine
 10
51.93062893
 20
19.76993892
 30
0.0
 11
51.87823962
 21
20.17754806
 31
0.0
  0
LINE
  5
10F
100
AcDbEntity
  8
SLD-0
  6
CONTINUOUS
 62
       3
100
AcDbLine
 10
51.87823962
 20
20.17754806
 30
0.0
 11
51.82817766
 21
20.58539042
 31
0.0
  0
LINE
  5
110
100
AcDbEntity
  8
SLD-0
  6
CONTINUOUS
 62
       3
100
AcDbLine
 10
51.82817766
 20
20.58539042
 30
0.0
 11
51.78041682
 21
20.99345791
 31
0.0
  0
LINE
  5
111
100
AcDbEntity
  8
SLD-0
  6
CONTINUOUS
 62
       3
100
AcDbLine
 10
51.78041682
 20
20.99345791
 30
0.0
 11
51.73493089
 21
21.40174247
 31
0.0
  0
LINE
  5
112
100
AcDbEntity
  8
SLD-0
  6
CONTINUOUS
 62
       3
100
AcDbLine
 10
51.73493089
 20
21.40174247
 30
0.0
 11
51.69169368
 21
21.810236
 31
0.0
  0
LINE
  5
113
100
AcDbEntity
  8
SLD-0
  6
CONTINUOUS
 62
       3
100
AcDbLine
 10
51.69169368
 20
21.810236
 30
0.0
 11
51.65067897
 21
22.21893042
 31
0.0
  0
LINE
  5
114
100
AcDbEntity
  8
SLD-0
  6
CONTINUOUS
 62
       3
100
AcDbLine
 10
51.65067897
 20
22.21893042
 30
0.0
 11
51.61186055
 21
22.62781765
 31
0.0
  0
LINE
  5
115
100
AcDbEntity
  8
SLD-0
  6
CONTINUOUS
 62
       3
100
AcDbLine
 10
51.61186055
 20
22.62781765
 30
0.0
 11
51.57521221
 21
23.03688962
 31
0.0
  0
LINE
  5
116
100
AcDbEntity
  8
SLD-0
  6
CONTINUOUS
 62
       3
100
AcDbLine
 10
51.57521221
 20
23.03688962
 30
0.0
 11
51.54070775
 21
23.44613823
 31
0.0
  0
LINE
  5
117
100
AcDbEntity
  8
SLD-0
  6
CONTINUOUS
 62
       3
100
AcDbLine
 10
51.54070775
 20
23.44613823
 30
0.0
 11
51.50832095
 21
23.85555541
 31
0.0
  0
LINE
  5
118
100
AcDbEntity
  8
SLD-0
  6
CONTINUOUS
 62
       3
100
AcDbLine
 10
51.50832095
 20
23.85555541
 30
0.0
 11
51.4780256
 21
24.26513307
 31
0.0
  0
LINE
  5
119
100
AcDbEntity
  8
SLD-0
  6
CONTINUOUS
 62
       3
100
AcDbLine
 10
51.4780256
 20
24.26513307
 30
0.0
 11
51.44979551
 21
24.67486314
 31
0.0
  0
LINE
  5
11A
100
AcDbEntity
  8
SLD-0
  6
CONTINUOUS
 62
       3
100
AcDbLine
 10
51.44979551
 20
24.67486314
 30
0.0
 11
51.42360445
 21
25.08473752
 31
0.0
  0
LINE
  5
11B
100
AcDbEntity
  8
SLD-0
  6
CONTINUOUS
 62
       3
100
AcDbLine
 10
51.42360445
 20
25.08473752
 30
0.0
 11
51.39942622
 21
25.49474814
 31
0.0
  0
LINE
  5
11C
100
AcDbEntity
  8
SLD-0
  6
CONTINUOUS
 62
       3
100
AcDbLine
 10
51.39942622
 20
25.49474814
 30
0.0
 11
51.37723461
 21
25.90488692
 31
0.0
  0
LINE
  5
11D
100
AcDbEntity
  8
SLD-0
  6
CONTINUOUS
 62
       3
100
AcDbLine
 10
51.37723461
 20
25.90488692
 30
0.0
 11
51.35702615
 21
26.31513632
 31
0.0
  0
LINE
  5
11E
100
AcDbEntity
  8
SLD-0
  6
CONTINUOUS
 62
       3
100
AcDbLine
 10
51.35702615
 20
26.31513632
 30
0.0
 11
51.33882546
 21
26.7254755
 31
0.0
  0
LINE
  5
11F
100
AcDbEntity
  8
SLD-0
  6
CONTINUOUS
 62
       3
100
AcDbLine
 10
51.33882546
 20
26.7254755
 30
0.0
 11
51.32263912
 21
27.13589637
 31
0.0
  0
LINE
  5
120
100
AcDbEntity
  8
SLD-0
  6
CONTINUOUS
 62
       3
100
AcDbLine
 10
51.32263912
 20
27.13589637
 30
0.0
 11
51.30847358
 21
27.54639094
 31
0.0
  0
LINE
  5
121
100
AcDbEntity
  8
SLD-0
  6
CONTINUOUS
 62
       3
100
AcDbLine
 10
51.30847358
 20
27.54639094
 30
0.0
 11
51.29633526
 21
27.95695117
 31
0.0
  0
LINE
  5
122
100
AcDbEntity
  8
SLD-0
  6
CONTINUOUS
 62
       3
100
AcDbLine
 10
51.29633526
 20
27.95695117
 30
0.0
 11
51.28623061
 21
28.36756905
 31
0.0
  0
LINE
  5
123
100
AcDbEntity
  8
SLD-0
  6
CONTINUOUS
 62
       3
100
AcDbLine
 10
51.28623061
 20
28.36756905
 30
0.0
 11
51.27816607
 21
28.77823658
 31
0.0
  0
LINE
  5
124
100
AcDbEntity
  8
SLD-0
  6
CONTINUOUS
 62
       3
100
AcDbLine
 10
51.27816607
 20
28.77823658
 30
0.0
 11
51.27214807
 21
29.18894574
 31
0.0
  0
LINE
  5
125
100
AcDbEntity
  8
SLD-0
  6
CONTINUOUS
 62
       3
100
AcDbLine
 10
51.27214807
 20
29.18894574
 30
0.0
 11
51.26818305
 21
29.59968852
 31
0.0
  0
LINE
  5
126
100
AcDbEntity
  8
SLD-0
  6
CONTINUOUS
 62
       3
100
AcDbLine
 10
51.26818305
 20
29.59968852
 30
0.0
 11
51.26627746
 21
30.01045689
 31
0.0
  0
LINE
  5
127
100
AcDbEntity
  8
SLD-0
  6
CONTINUOUS
 62
       3
100
AcDbLine
 10
51.26627746
 20
30.01045689
 30
0.0
 11
51.26643773
 21
30.42124286
 31
0.0
  0
LINE
  5
128
100
AcDbEntity
  8
SLD-0
  6
CONTINUOUS
 62
       3
100
AcDbLine
 10
51.26643773
 20
30.42124286
 30
0.0
 11
51.26867029
 21
30.8320384
 31
0.0
  0
ENDBLK
  5
129
100
AcDbEntity
  8
0
100
AcDbBlockEnd
  0
BLOCK
  5
12A
100
AcDbEntity
  8
0
100
AcDbBlockBegin
  2
GROUP_6
 70
       0
 10
0.0
 20
0.0
 30
0.0
  3
GROUP_6
  1

  0
LINE
  5
12B
100
AcDbEntity
  8
SLD-0
  6
CONTINUOUS
 62
       3
100
AcDbLine
 10
51.58121986
 20
37.4320384
 30
0.0
 11
51.60940444
 21
37.75051002
 31
0.0
  0
LINE
  5
12C
100
AcDbEntity
  8
SLD-0
  6
CONTINUOUS
 62
       3
100
AcDbLine
 10
51.60940444
 20
37.75051002
 30
0.0
 11
51.6388162
 21
38.06886721
 31
0.0
  0
LINE
  5
12D
100
AcDbEntity
  8
SLD-0
  6
CONTINUOUS
 62
       3
100
AcDbLine
 10
51.6388162
 20
38.06886721
 30
0.0
 11
51.66948026
 21
38.38710321
 31
0.0
  0
LINE
  5
12E
100
AcDbEntity
  8
SLD-0
  6
CONTINUOUS
 62
       3
100
AcDbLine
 10
51.66948026
 20
38.38710321
 30
0.0
 11
51.70142174
 21
38.70521128
 31
0.0
  0
LINE
  5
12F
100
AcDbEntity
  8
SLD-0
  6
CONTINUOUS
 62
       3
100
AcDbLine
 10
51.70142174
 20
38.70521128
 30
0.0
 11
51.73466574
 21
39.02318468
 31
0.0
  0
LINE
  5
130
100
AcDbEntity
  8
SLD-0
  6
CONTINUOUS
 62
       3
100
AcDbLine
 10
51.73466574
 20
39.02318468
 30
0.0
 11
51.7692374
 21
39.34101665
 31
0.0
  0
LINE
  5
131
100
AcDbEntity
  8
SLD-0
  6
CONTINUOUS
 62
       3
100
AcDbLine
 10
51.7692374
 20
39.34101665
 30
0.0
 11
51.80516181
 21
39.65870045
 31
0.0
  0
LINE
  5
132
100
AcDbEntity
  8
SLD-0
  6
CONTINUOUS
 62
       3
100
AcDbLine
 10
51.80516181
 20
39.65870045
 30
0.0
 11
51.8424641
 21
39.97622934
 31
0.0
  0
LINE
  5
133
100
AcDbEntity
  8
SLD-0
  6
CONTINUOUS
 62
       3
100
AcDbLine
 10
51.8424641
 20
39.97622934
 30
0.0
 11
51.88116939
 21
40.29359656
 31
0.0
  0
LINE
  5
134
100
AcDbEntity
  8
SLD-0
  6
CONTINUOUS
 62
       3
100
AcDbLine
 10
51.88116939
 20
40.29359656
 30
0.0
 11
51.92130278
 21
40.61079538
 31
0.0
  0
LINE
  5
135
100
AcDbEntity
  8
SLD-0
  6
CONTINUOUS
 62
       3
100
AcDbLine
 10
51.92130278
 20
40.61079538
 30
0.0
 11
51.9628894
 21
40.92781904
 31
0.0
  0
LINE
  5
136
100
AcDbEntity
  8
SLD-0
  6
CONTINUOUS
 62
       3
100
AcDbLine
 10
51.9628894
 20
40.92781904
 30
0.0
 11
52.00595435
 21
41.2446608
 31
0.0
  0
LINE
  5
137
100
AcDbEntity
  8
SLD-0
  6
CONTINUOUS
 62
       3
100
AcDbLine
 10
52.00595435
 20
41.2446608
 30
0.0
 11
52.05052276
 21
41.56131392
 31
0.0
  0
LINE
  5
138
100
AcDbEntity
  8
SLD-0
  6
CONTINUOUS
 62
       3
100
AcDbLine
 10
52.05052276
 20
41.56131392
 30
0.0
 11
52.09661974
 21
41.87777164
 31
0.0
  0
LINE
  5
139
100
AcDbEntity
  8
SLD-0
  6
CONTINUOUS
 62
       3
100
AcDbLine
 10
52.09661974
 20
41.87777164
 30
0.0
 11
52.14427041
 21
42.19402722
 31
0.0
  0
LINE
  5
13A
100
AcDbEntity
  8
SLD-0
  6
CONTINUOUS
 62
       3
100
AcDbLine
 10
52.14427041
 20
42.19402722
 30
0.0
 11
52.19349988
 21
42.51007392
 31
0.0
  0
LINE
  5
13B
100
AcDbEntity
  8
SLD-0
  6
CONTINUOUS
 62
       3
100
AcDbLine
 10
52.19349988
 20
42.51007392
 30
0.0
 11
52.24433326
 21
42.82590499
 31
0.0
  0
LINE
  5
13C
100
AcDbEntity
  8
SLD-0
  6
CONTINUOUS
 62
       3
100
AcDbLine
 10
52.24433326
 20
42.82590499
 30
0.0
 11
52.29679567
 21
43.14151367
 31
0.0
  0
LINE
  5
13D
100
AcDbEntity
  8
SLD-0
  6
CONTINUOUS
 62
       3
100
AcDbLine
 10
52.29679567
 20
43.14151367
 30
0.0
 11
52.35091223
 21
43.45689324
 31
0.0
  0
LINE
  5
13E
100
AcDbEntity
  8
SLD-0
  6
CONTINUOUS
 62
       3
100
AcDbLine
 10
52.35091223
 20
43.45689324
 30
0.0
 11
52.40670806
 21
43.77203693
 31
0.0
  0
ENDBLK
  5
13F
100
AcDbEntity
  8
0
100
AcDbBlockEnd
  0
BLOCK
  5
140
100
AcDbEntity
  8
0
100
AcDbBlockBegin
  2
GROUP_7
 70
       0
 10
0.0
 20
0.0
 30
0.0
  3
GROUP_7
  1

  0
LINE
  5
141
100
AcDbEntity
  8
SLD-0
  6
CONTINUOUS
 62
       3
100
AcDbLine
 10
52.17976864
 20
40.26430211
 30
0.0
 11
52.16879697
 21
40.26965333
 31
0.0
  0
LINE
  5
142
100
AcDbEntity
  8
SLD-0
  6
CONTINUOUS
 62
       3
100
AcDbLine
 10
52.16879697
 20
40.26965333
 30
0.0
 11
52.15785804
 21
40.27498858
 31
0.0
  0
LINE
  5
143
100
AcDbEntity
  8
SLD-0
  6
CONTINUOUS
 62
       3
100
AcDbLine
 10
52.15785804
 20
40.27498858
 30
0.0
 11
52.14696469
 21
40.2803016
 31
0.0
  0
LINE
  5
144
100
AcDbEntity
  8
SLD-0
  6
CONTINUOUS
 62
       3
100
AcDbLine
 10
52.14696469
 20
40.2803016
 30
0.0
 11
52.13612979
 21
40.28558611
 31
0.0
  0
LINE
  5
145
100
AcDbEntity
  8
SLD-0
  6
CONTINUOUS
 62
       3
100
AcDbLine
 10
52.13612979
 20
40.28558611
 30
0.0
 11
52.12536617
 21
40.29083585
 31
0.0
  0
LINE
  5
146
100
AcDbEntity
  8
SLD-0
  6
CONTINUOUS
 62
       3
100
AcDbLine
 10
52.12536617
 20
40.29083585
 30
0.0
 11
52.11468669
 21
40.29604456
 31
0.0
  0
LINE
  5
147
100
AcDbEntity
  8
SLD-0
  6
CONTINUOUS
 62
       3
100
AcDbLine
 10
52.11468669
 20
40.29604456
 30
0.0
 11
52.10410419
 21
40.30120596
 31
0.0
  0
LINE
  5
148
100
AcDbEntity
  8
SLD-0
  6
CONTINUOUS
 62
       3
100
AcDbLine
 10
52.10410419
 20
40.30120596
 30
0.0
 11
52.09363153
 21
40.3063138
 31
0.0
  0
LINE
  5
149
100
AcDbEntity
  8
SLD-0
  6
CONTINUOUS
 62
       3
100
AcDbLine
 10
52.09363153
 20
40.3063138
 30
0.0
 11
52.08328155
 21
40.3113618
 31
0.0
  0
LINE
  5
14A
100
AcDbEntity
  8
SLD-0
  6
CONTINUOUS
 62
       3
100
AcDbLine
 10
52.08328155
 20
40.3113618
 30
0.0
 11
52.07306709
 21
40.3163437
 31
0.0
  0
LINE
  5
14B
100
AcDbEntity
  8
SLD-0
  6
CONTINUOUS
 62
       3
100
AcDbLine
 10
52.07306709
 20
40.3163437
 30
0.0
 11
52.06300102
 21
40.32125323
 31
0.0
  0
LINE
  5
14C
100
AcDbEntity
  8
SLD-0
  6
CONTINUOUS
 62
       3
100
AcDbLine
 10
52.06300102
 20
40.32125323
 30
0.0
 11
52.05309617
 21
40.32608413
 31
0.0
  0
LINE
  5
14D
100
AcDbEntity
  8
SLD-0
  6
CONTINUOUS
 62
       3
100
AcDbLine
 10
52.05309617
 20
40.32608413
 30
0.0
 11
52.0433654
 21
40.33083012
 31
0.0
  0
LINE
  5
14E
100
AcDbEntity
  8
SLD-0
  6
CONTINUOUS
 62
       3
100
AcDbLine
 10
52.0433654
 20
40.33083012
 30
0.0
 11
52.03382156
 21
40.33548494
 31
0.0
  0
LINE
  5
14F
100
AcDbEntity
  8
SLD-0
  6
CONTINUOUS
 62
       3
100
AcDbLine
 10
52.03382156
 20
40.33548494
 30
0.0
 11
52.02447748
 21
40.34004233
 31
0.0
  0
LINE
  5
150
100
AcDbEntity
  8
SLD-0
  6
CONTINUOUS
 62
       3
100
AcDbLine
 10
52.02447748
 20
40.34004233
 30
0.0
 11
52.01534603
 21
40.34449602
 31
0.0
  0
LINE
  5
151
100
AcDbEntity
  8
SLD-0
  6
CONTINUOUS
 62
       3
100
AcDbLine
 10
52.01534603
 20
40.34449602
 30
0.0
 11
52.00644005
 21
40.34883973
 31
0.0
  0
LINE
  5
152
100
AcDbEntity
  8
SLD-0
  6
CONTINUOUS
 62
       3
100
AcDbLine
 10
52.00644005
 20
40.34883973
 30
0.0
 11
51.99777239
 21
40.35306722
 31
0.0
  0
LINE
  5
153
100
AcDbEntity
  8
SLD-0
  6
CONTINUOUS
 62
       3
100
AcDbLine
 10
51.99777239
 20
40.35306722
 30
0.0
 11
51.9893559
 21
40.3571722
 31
0.0
  0
LINE
  5
154
100
AcDbEntity
  8
SLD-0
  6
CONTINUOUS
 62
       3
100
AcDbLine
 10
51.9893559
 20
40.3571722
 30
0.0
 11
51.98120342
 21
40.36114841
 31
0.0
  0
ENDBLK
  5
155
100
AcDbEntity
  8
0
100
AcDbBlockEnd
  0
BLOCK
  5
156
100
AcDbEntity
  8
0
100
AcDbBlockBegin
  2
GROUP_8
 70
       0
 10
0.0
 20
0.0
 30
0.0
  3
GROUP_8
  1

  0
LINE
  5
157
100
AcDbEntity
  8
SLD-0
  6
CONTINUOUS
 62
       3
100
AcDbLine
 10
51.86237617
 20
40.14095361
 30
0.0
 11
51.87796413
 21
40.26769025
 31
0.0
  0
LINE
  5
158
100
AcDbEntity
  8
SLD-0
  6
CONTINUOUS
 62
       3
100
AcDbLine
 10
51.87796413
 20
40.26769025
 30
0.0
 11
51.89335831
 21
40.39097851
 31
0.0
  0
LINE
  5
159
100
AcDbEntity
  8
SLD-0
  6
CONTINUOUS
 62
       3
100
AcDbLine
 10
51.89335831
 20
40.39097851
 30
0.0
 11
51.90853924
 21
40.51078228
 31
0.0
  0
LINE
  5
15A
100
AcDbEntity
  8
SLD-0
  6
CONTINUOUS
 62
       3
100
AcDbLine
 10
51.90853924
 20
40.51078228
 30
0.0
 11
51.92348745
 21
40.62706545
 31
0.0
  0
LINE
  5
15B
100
AcDbEntity
  8
SLD-0
  6
CONTINUOUS
 62
       3
100
AcDbLine
 10
51.92348745
 20
40.62706545
 30
0.0
 11
51.93818349
 21
40.73979191
 31
0.0
  0
LINE
  5
15C
100
AcDbEntity
  8
SLD-0
  6
CONTINUOUS
 62
       3
100
AcDbLine
 10
51.93818349
 20
40.73979191
 30
0.0
 11
51.95260788
 21
40.84892552
 31
0.0
  0
LINE
  5
15D
100
AcDbEntity
  8
SLD-0
  6
CONTINUOUS
 62
       3
100
AcDbLine
 10
51.95260788
 20
40.84892552
 30
0.0
 11
51.96674115
 21
40.95443019
 31
0.0
  0
LINE
  5
15E
100
AcDbEntity
  8
SLD-0
  6
CONTINUOUS
 62
       3
100
AcDbLine
 10
51.96674115
 20
40.95443019
 30
0.0
 11
51.98056386
 21
41.0562698
 31
0.0
  0
LINE
  5
15F
100
AcDbEntity
  8
SLD-0
  6
CONTINUOUS
 62
       3
100
AcDbLine
 10
51.98056386
 20
41.0562698
 30
0.0
 11
51.99405652
 21
41.15440822
 31
0.0
  0
LINE
  5
160
100
AcDbEntity
  8
SLD-0
  6
CONTINUOUS
 62
       3
100
AcDbLine
 10
51.99405652
 20
41.15440822
 30
0.0
 11
52.00719967
 21
41.24880936
 31
0.0
  0
LINE
  5
161
100
AcDbEntity
  8
SLD-0
  6
CONTINUOUS
 62
       3
100
AcDbLine
 10
52.00719967
 20
41.24880936
 30
0.0
 11
52.01997385
 21
41.33943708
 31
0.0
  0
LINE
  5
162
100
AcDbEntity
  8
SLD-0
  6
CONTINUOUS
 62
       3
100
AcDbLine
 10
52.01997385
 20
41.33943708
 30
0.0
 11
52.03235959
 21
41.42625529
 31
0.0
  0
LINE
  5
163
100
AcDbEntity
  8
SLD-0
  6
CONTINUOUS
 62
       3
100
AcDbLine
 10
52.03235959
 20
41.42625529
 30
0.0
 11
52.04433743
 21
41.50922785
 31
0.0
  0
LINE
  5
164
100
AcDbEntity
  8
SLD-0
  6
CONTINUOUS
 62
       3
100
AcDbLine
 10
52.04433743
 20
41.50922785
 30
0.0
 11
52.05588789
 21
41.58831866
 31
0.0
  0
LINE
  5
165
100
AcDbEntity
  8
SLD-0
  6
CONTINUOUS
 62
       3
100
AcDbLine
 10
52.05588789
 20
41.58831866
 30
0.0
 11
52.06699152
 21
41.66349161
 31
0.0
  0
LINE
  5
166
100
AcDbEntity
  8
SLD-0
  6
CONTINUOUS
 62
       3
100
AcDbLine
 10
52.06699152
 20
41.66349161
 30
0.0
 11
52.07762885
 21
41.73471057
 31
0.0
  0
LINE
  5
167
100
AcDbEntity
  8
SLD-0
  6
CONTINUOUS
 62
       3
100
AcDbLine
 10
52.07762885
 20
41.73471057
 30
0.0
 11
52.08778041
 21
41.80193943
 31
0.0
  0
LINE
  5
168
100
AcDbEntity
  8
SLD-0
  6
CONTINUOUS
 62
       3
100
AcDbLine
 10
52.08778041
 20
41.80193943
 30
0.0
 11
52.09742674
 21
41.86514208
 31
0.0
  0
LINE
  5
169
100
AcDbEntity
  8
SLD-0
  6
CONTINUOUS
 62
       3
100
AcDbLine
 10
52.09742674
 20
41.86514208
 30
0.0
 11
52.10654837
 21
41.92428241
 31
0.0
  0
LINE
  5
16A
100
AcDbEntity
  8
SLD-0
  6
CONTINUOUS
 62
       3
100
AcDbLine
 10
52.10654837
 20
41.92428241
 30
0.0
 11
52.11512583
 21
41.97932429
 31
0.0
  0
ENDBLK
  5
16B
100
AcDbEntity
  8
0
100
AcDbBlockEnd
  0
BLOCK
  5
16C
100
AcDbEntity
  8
0
100
AcDbBlockBegin
  2
GROUP_9
 70
       0
 10
0.0
 20
0.0
 30
0.0
  3
GROUP_9
  1

  0
LINE
  5
16D
100
AcDbEntity
  8
SLD-0
  6
CONTINUOUS
 62
       3
100
AcDbLine
 10
51.98120342
 20
40.36114841
 30
0.0
 11
51.9741694
 21
40.36457913
 31
0.0
  0
LINE
  5
16E
100
AcDbEntity
  8
SLD-0
  6
CONTINUOUS
 62
       3
100
AcDbLine
 10
51.9741694
 20
40.36457913
 30
0.0
 11
51.9673183
 21
40.36792063
 31
0.0
  0
LINE
  5
16F
100
AcDbEntity
  8
SLD-0
  6
CONTINUOUS
 62
       3
100
AcDbLine
 10
51.9673183
 20
40.36792063
 30
0.0
 11
51.96065015
 21
40.37117291
 31
0.0
  0
LINE
  5
170
100
AcDbEntity
  8
SLD-0
  6
CONTINUOUS
 62
       3
100
AcDbLine
 10
51.96065015
 20
40.37117291
 30
0.0
 11
51.95416492
 21
40.37433596
 31
0.0
  0
LINE
  5
171
100
AcDbEntity
  8
SLD-0
  6
CONTINUOUS
 62
       3
100
AcDbLine
 10
51.95416492
 20
40.37433596
 30
0.0
 11
51.94786263
 21
40.3774098
 31
0.0
  0
LINE
  5
172
100
AcDbEntity
  8
SLD-0
  6
CONTINUOUS
 62
       3
100
AcDbLine
 10
51.94786263
 20
40.3774098
 30
0.0
 11
51.94174327
 21
40.38039441
 31
0.0
  0
LINE
  5
173
100
AcDbEntity
  8
SLD-0
  6
CONTINUOUS
 62
       3
100
AcDbLine
 10
51.94174327
 20
40.38039441
 30
0.0
 11
51.93580685
 21
40.38328979
 31
0.0
  0
LINE
  5
174
100
AcDbEntity
  8
SLD-0
  6
CONTINUOUS
 62
       3
100
AcDbLine
 10
51.93580685
 20
40.38328979
 30
0.0
 11
51.93005336
 21
40.38609596
 31
0.0
  0
LINE
  5
175
100
AcDbEntity
  8
SLD-0
  6
CONTINUOUS
 62
       3
100
AcDbLine
 10
51.93005336
 20
40.38609596
 30
0.0
 11
51.92448281
 21
40.3888129
 31
0.0
  0
LINE
  5
176
100
AcDbEntity
  8
SLD-0
  6
CONTINUOUS
 62
       3
100
AcDbLine
 10
51.92448281
 20
40.3888129
 30
0.0
 11
51.91909518
 21
40.39144062
 31
0.0
  0
LINE
  5
177
100
AcDbEntity
  8
SLD-0
  6
CONTINUOUS
 62
       3
100
AcDbLine
 10
51.91909518
 20
40.39144062
 30
0.0
 11
51.9138905
 21
40.39397911
 31
0.0
  0
LINE
  5
178
100
AcDbEntity
  8
SLD-0
  6
CONTINUOUS
 62
       3
100
AcDbLine
 10
51.9138905
 20
40.39397911
 30
0.0
 11
51.90886874
 21
40.39642839
 31
0.0
  0
LINE
  5
179
100
AcDbEntity
  8
SLD-0
  6
CONTINUOUS
 62
       3
100
AcDbLine
 10
51.90886874
 20
40.39642839
 30
0.0
 11
51.90402992
 21
40.39878844
 31
0.0
  0
LINE
  5
17A
100
AcDbEntity
  8
SLD-0
  6
CONTINUOUS
 62
       3
100
AcDbLine
 10
51.90402992
 20
40.39878844
 30
0.0
 11
51.89937403
 21
40.40105927
 31
0.0
  0
LINE
  5
17B
100
AcDbEntity
  8
SLD-0
  6
CONTINUOUS
 62
       3
100
AcDbLine
 10
51.89937403
 20
40.40105927
 30
0.0
 11
51.89490108
 21
40.40324087
 31
0.0
  0
ENDBLK
  5
17C
100
AcDbEntity
  8
0
100
AcDbBlockEnd
  0
ENDSEC
  0
SECTION
  2
ENTITIES
  0
LINE
  5
17D
100
AcDbEntity
  8
SLD-0
  6
CONTINUOUS
 62
       3
100
AcDbLine
 10
19.20832509
 20
16.93600319
 30
0.0
 11
-95.79167489
 21
16.93600319
 31
0.0
  0
LINE
  5
17E
100
AcDbEntity
  8
SLD-0
  6
CONTINUOUS
 62
       3
100
AcDbLine
 10
52.40670806
 20
43.77203693
 30
0.0
 11
103.75832798
 21
43.77203693
 31
0.0
  0
LINE
  5
17F
100
AcDbEntity
  8
SLD-0
  6
CONTINUOUS
 62
       3
100
AcDbLine
 10
74.1318152
 20
-6.22796003
 30
0.0
 11
103.1318152
 21
-6.22796003
 31
0.0
  0
LINE
  5
180
100
AcDbEntity
  8
SLD-0
  6
CONTINUOUS
 62
       3
100
AcDbLine
 10
73.63181522
 20
16.93600319
 30
0.0
 11
73.63181522
 21
-5.72796003
 31
0.0
  0
LINE
  5
181
100
AcDbEntity
  8
SLD-0
  6
CONTINUOUS
 62
       3
100
AcDbLine
 10
52.1093139
 20
18.54859167
 30
0.0
 11
52.10202295
 21
18.54859167
 31
0.0
  0
LINE
  5
182
100
AcDbEntity
  8
SLD-0
  6
CONTINUOUS
 62
       3
100
AcDbLine
 10
19.2083252
 20
20.45903094
 30
0.0
 11
-95.79167499
 21
20.45903094
 31
0.0
  0
LINE
  5
183
100
AcDbEntity
  8
SLD-0
  6
CONTINUOUS
 62
       3
100
AcDbLine
 10
19.20832577
 20
40.14095361
 30
0.0
 11
-95.79167556
 21
40.14095361
 31
0.0
  0
LINE
  5
184
100
AcDbEntity
  8
SLD-0
  6
CONTINUOUS
 62
       3
100
AcDbLine
 10
19.2083255
 20
30.83202204
 30
0.0
 11
-95.79167529
 21
30.83203921
 31
0.0
  0
LINE
  5
185
100
AcDbEntity
  8
SLD-0
  6
CONTINUOUS
 62
       3
100
AcDbLine
 10
19.20832569
 20
37.43205818
 30
0.0
 11
-95.79167548
 21
37.43203866
 31
0.0
  0
LINE
  5
186
100
AcDbEntity
  8
SLD-0
  6
CONTINUOUS
 62
       3
100
AcDbLine
 10
18.70832586
 20
43.77203819
 30
0.0
 11
-95.29167565
 21
43.77203819
 31
0.0
  0
LINE
  5
187
100
AcDbEntity
  8
SLD-0
  6
CONTINUOUS
 62
       3
100
AcDbLine
 10
-95.79167423
 20
-5.72796054
 30
0.0
 11
-95.79167565
 21
43.27203818
 31
0.0
  0
LINE
  5
188
100
AcDbEntity
  8
SLD-0
  6
CONTINUOUS
 62
       3
100
AcDbLine
 10
19.20832586
 20
43.27203818
 30
0.0
 11
19.20832444
 21
-5.72796054
 31
0.0
  0
LINE
  5
189
100
AcDbEntity
  8
SLD-0
  6
CONTINUOUS
 62
       3
100
AcDbLine
 10
18.70832444
 20
-6.22796053
 30
0.0
 11
-61.87338862
 21
-6.22796053
 31
0.0
  0
LINE
  5
18A
100
AcDbEntity
  8
SLD-0
  6
CONTINUOUS
 62
       3
100
AcDbLine
 10
-31.3916749
 20
-6.27775371
 30
0.0
 11
-31.3916749
 21
-6.22796021
 31
0.0
  0
LINE
  5
18B
100
AcDbEntity
  8
SLD-0
  6
CONTINUOUS
 62
       3
100
AcDbLine
 10
-45.1916749
 20
-6.27775371
 30
0.0
 11
-45.1916749
 21
-6.22796021
 31
0.0
  0
LINE
  5
18C
100
AcDbEntity
  8
SLD-0
  6
CONTINUOUS
 62
       3
100
AcDbLine
 10
-46.6916749
 20
-7.22796085
 30
0.0
 11
-46.6916746
 21
-6.22796021
 31
0.0
  0
LINE
  5
18D
100
AcDbEntity
  8
SLD-0
  6
CONTINUOUS
 62
       3
100
AcDbLine
 10
-29.8916749
 20
-7.22796085
 30
0.0
 11
-29.8916752
 21
-6.22796021
 31
0.0
  0
LINE
  5
18E
100
AcDbEntity
  8
SLD-0
  6
CONTINUOUS
 62
       3
100
AcDbLine
 10
100.53181546
 20
-9.2279607
 30
0.0
 11
103.13181552
 21
-9.2279607
 31
0.0
  0
LINE
  5
18F
100
AcDbEntity
  8
SLD-0
  6
CONTINUOUS
 62
       3
100
AcDbLine
 10
51.56258603
 20
37.30168499
 30
0.0
 11
51.62851387
 21
37.30398748
 31
0.0
  0
LINE
  5
190
100
AcDbEntity
  8
SLD-0
  6
CONTINUOUS
 62
       3
100
AcDbLine
 10
51.3350355
 20
30.97033925
 30
0.0
 11
51.26019545
 21
30.97295303
 31
0.0
  0
LINE
  5
191
100
AcDbEntity
  8
SLD-0
  6
CONTINUOUS
 62
       3
100
AcDbLine
 10
51.86237617
 20
40.14095361
 30
0.0
 11
51.85635107
 21
40.09145659
 31
0.0
  0
LINE
  5
192
100
AcDbEntity
  8
SLD-0
  6
CONTINUOUS
 62
       3
100
AcDbLine
 10
87.03181581
 20
43.77203693
 30
0.0
 11
87.03181581
 21
42.27203835
 31
0.0
  0
LINE
  5
193
100
AcDbEntity
  8
SLD-0
  6
CONTINUOUS
 62
       3
100
AcDbLine
 10
82.33181634
 20
42.2310229
 30
0.0
 11
87.03181581
 21
42.27203835
 31
0.0
  0
LINE
  5
194
100
AcDbEntity
  8
SLD-0
  6
CONTINUOUS
 62
       3
100
AcDbLine
 10
82.33181634
 20
42.2310229
 30
0.0
 11
82.33181634
 21
37.17203956
 31
0.0
  0
LINE
  5
195
100
AcDbEntity
  8
SLD-0
  6
CONTINUOUS
 62
       3
100
AcDbLine
 10
82.33181634
 20
37.17203956
 30
0.0
 11
60.52178019
 21
37.17203956
 31
0.0
  0
LINE
  5
196
100
AcDbEntity
  8
SLD-0
  6
CONTINUOUS
 62
       3
100
AcDbLine
 10
60.52178019
 20
37.17203956
 30
0.0
 11
60.52178019
 21
29.17203918
 31
0.0
  0
LINE
  5
197
100
AcDbEntity
  8
SLD-0
  6
CONTINUOUS
 62
       3
100
AcDbLine
 10
60.52178019
 20
29.17203918
 30
0.0
 11
82.33181601
 21
29.17203918
 31
0.0
  0
LINE
  5
198
100
AcDbEntity
  8
SLD-0
  6
CONTINUOUS
 62
       3
100
AcDbLine
 10
82.33181601
 20
29.17203918
 30
0.0
 11
82.33181601
 21
-4.68694493
 31
0.0
  0
LINE
  5
199
100
AcDbEntity
  8
SLD-0
  6
CONTINUOUS
 62
       3
100
AcDbLine
 10
82.33181601
 20
-4.68694493
 30
0.0
 11
87.03181548
 21
-4.72796038
 31
0.0
  0
LINE
  5
19A
100
AcDbEntity
  8
SLD-0
  6
CONTINUOUS
 62
       3
100
AcDbLine
 10
87.03181548
 20
-4.72796038
 30
0.0
 11
87.03181548
 21
-6.22796054
 31
0.0
  0
LINE
  5
19B
100
AcDbEntity
  8
SLD-0
  6
CONTINUOUS
 62
       3
100
AcDbLine
 10
54.93181446
 20
21.17203926
 30
0.0
 11
54.93181446
 21
38.92203938
 31
0.0
  0
LINE
  5
19C
100
AcDbEntity
  8
SLD-0
  6
CONTINUOUS
 62
       3
100
AcDbLine
 10
51.84343784
 20
20.45903094
 30
0.0
 11
54.93181446
 21
21.17203926
 31
0.0
  0
LINE
  5
19D
100
AcDbEntity
  8
SLD-0
  6
CONTINUOUS
 62
       3
100
AcDbLine
 10
54.93181446
 20
38.92203938
 30
0.0
 11
52.17976864
 21
40.26430211
 31
0.0
  0
LINE
  5
19E
100
AcDbEntity
  8
SLD-0
  6
CONTINUOUS
 62
       3
100
AcDbLine
 10
73.63181522
 20
16.93600319
 30
0.0
 11
53.5642194
 21
17.2862844
 31
0.0
  0
LINE
  5
19F
100
AcDbEntity
  8
SLD-0
  6
CONTINUOUS
 62
       3
100
AcDbLine
 10
60.53181612
 20
36.9720399
 30
0.0
 11
60.53181612
 21
29.37203884
 31
0.0
  0
LINE
  5
1A0
100
AcDbEntity
  8
SLD-0
  6
CONTINUOUS
 62
       3
100
AcDbLine
 10
103.13181552
 20
-7.22796037
 30
0.0
 11
100.53181546
 21
-7.22796037
 31
0.0
  0
LINE
  5
1A1
100
AcDbEntity
  8
SLD-0
  6
CONTINUOUS
 62
       3
100
AcDbLine
 10
100.53181546
 20
-9.2279607
 30
0.0
 11
100.53181546
 21
-7.22796037
 31
0.0
  0
LINE
  5
1A2
100
AcDbEntity
  8
SLD-0
  6
CONTINUOUS
 62
       3
100
AcDbLine
 10
103.13181552
 20
-9.2279607
 30
0.0
 11
103.13181552
 21
-7.22796037
 31
0.0
  0
LINE
  5
1A3
100
AcDbEntity
  8
SLD-0
  6
CONTINUOUS
 62
       3
100
AcDbLine
 10
100.53181546
 20
-7.22796037
 30
0.0
 11
100.53181546
 21
-6.22796021
 31
0.0
  0
LINE
  5
1A4
100
AcDbEntity
  8
SLD-0
  6
CONTINUOUS
 62
       3
100
AcDbLine
 10
103.6318152
 20
1.48198237
 30
0.0
 11
100.65832789
 21
1.48198172
 31
0.0
  0
LINE
  5
1A5
100
AcDbEntity
  8
SLD-0
  6
CONTINUOUS
 62
       3
100
AcDbLine
 10
101.75832848
 20
1.48198196
 30
0.0
 11
101.75832848
 21
2.98198282
 31
0.0
  0
LINE
  5
1A6
100
AcDbEntity
  8
SLD-0
  6
CONTINUOUS
 62
       3
100
AcDbLine
 10
102.05832856
 20
2.98198282
 30
0.0
 11
101.75832848
 21
2.98198282
 31
0.0
  0
LINE
  5
1A7
100
AcDbEntity
  8
SLD-0
  6
CONTINUOUS
 62
       3
100
AcDbLine
 10
103.25832856
 20
1.48198165
 30
0.0
 11
102.05832856
 21
2.98198282
 31
0.0
  0
LINE
  5
1A8
100
AcDbEntity
  8
SLD-0
  6
CONTINUOUS
 62
       3
100
AcDbLine
 10
103.13181552
 20
-7.22796037
 30
0.0
 11
103.1318152
 21
-6.22796003
 31
0.0
  0
LINE
  5
1A9
100
AcDbEntity
  8
SLD-0
  6
CONTINUOUS
 62
       3
100
AcDbLine
 10
103.45832796
 20
37.03085683
 30
0.0
 11
100.65832789
 21
36.98198288
 31
0.0
  0
LINE
  5
1AA
100
AcDbEntity
  8
SLD-0
  6
CONTINUOUS
 62
       3
100
AcDbLine
 10
103.75832798
 20
43.77203693
 30
0.0
 11
103.75832798
 21
37.33090288
 31
0.0
  0
LINE
  5
1AB
100
AcDbEntity
  8
SLD-0
  6
CONTINUOUS
 62
       3
100
AcDbLine
 10
103.4635637
 20
37.03094787
 30
0.0
 11
103.45832796
 21
37.03085683
 31
0.0
  0
LINE
  5
1AC
100
AcDbEntity
  8
SLD-0
  6
CONTINUOUS
 62
       3
100
AcDbLine
 10
103.6318152
 20
1.48198237
 30
0.0
 11
103.6318152
 21
-5.72796003
 31
0.0
  0
LINE
  5
1AD
100
AcDbEntity
  8
SLD-0
  6
CONTINUOUS
 62
       3
100
AcDbLine
 10
100.65832789
 20
1.48198172
 30
0.0
 11
100.65832789
 21
36.98198288
 31
0.0
  0
LINE
  5
1AE
100
AcDbEntity
  8
SLD-0
  6
CONTINUOUS
 62
       3
100
AcDbLine
 10
101.75832798
 20
37.00118293
 30
0.0
 11
101.84749653
 21
35.98198263
 31
0.0
  0
LINE
  5
1AF
100
AcDbEntity
  8
SLD-0
  6
CONTINUOUS
 62
       3
100
AcDbLine
 10
102.17548541
 20
35.48198161
 30
0.0
 11
101.89124087
 21
35.48198161
 31
0.0
  0
LINE
  5
1B0
100
AcDbEntity
  8
SLD-0
  6
CONTINUOUS
 62
       3
100
AcDbLine
 10
101.89124087
 20
35.48198161
 30
0.0
 11
101.89057637
 21
35.48957748
 31
0.0
  0
LINE
  5
1B1
100
AcDbEntity
  8
SLD-0
  6
CONTINUOUS
 62
       3
100
AcDbLine
 10
101.89057637
 20
35.48957748
 30
0.0
 11
101.88860278
 21
35.51213597
 31
0.0
  0
LINE
  5
1B2
100
AcDbEntity
  8
SLD-0
  6
CONTINUOUS
 62
       3
100
AcDbLine
 10
101.88860278
 20
35.51213597
 30
0.0
 11
101.88538029
 21
35.54896978
 31
0.0
  0
LINE
  5
1B3
100
AcDbEntity
  8
SLD-0
  6
CONTINUOUS
 62
       3
100
AcDbLine
 10
101.88538029
 20
35.54896978
 30
0.0
 11
101.88100668
 21
35.59895945
 31
0.0
  0
LINE
  5
1B4
100
AcDbEntity
  8
SLD-0
  6
CONTINUOUS
 62
       3
100
AcDbLine
 10
101.88100668
 20
35.59895945
 30
0.0
 11
101.8756149
 21
35.66058879
 31
0.0
  0
LINE
  5
1B5
100
AcDbEntity
  8
SLD-0
  6
CONTINUOUS
 62
       3
100
AcDbLine
 10
101.8756149
 20
35.66058879
 30
0.0
 11
101.86936876
 21
35.73198212
 31
0.0
  0
LINE
  5
1B6
100
AcDbEntity
  8
SLD-0
  6
CONTINUOUS
 62
       3
100
AcDbLine
 10
101.86936876
 20
35.73198212
 30
0.0
 11
101.86245799
 21
35.81097131
 31
0.0
  0
LINE
  5
1B7
100
AcDbEntity
  8
SLD-0
  6
CONTINUOUS
 62
       3
100
AcDbLine
 10
101.86245799
 20
35.81097131
 30
0.0
 11
101.85509275
 21
35.89515728
 31
0.0
  0
LINE
  5
1B8
100
AcDbEntity
  8
SLD-0
  6
CONTINUOUS
 62
       3
100
AcDbLine
 10
101.85509275
 20
35.89515728
 30
0.0
 11
101.84749653
 21
35.98198263
 31
0.0
  0
LINE
  5
1B9
100
AcDbEntity
  8
SLD-0
  6
CONTINUOUS
 62
       3
100
AcDbLine
 10
102.61690667
 20
35.84056135
 30
0.0
 11
102.56481221
 21
35.78846689
 31
0.0
  0
LINE
  5
1BA
100
AcDbEntity
  8
SLD-0
  6
CONTINUOUS
 62
       3
100
AcDbLine
 10
102.56481221
 20
35.78846689
 30
0.0
 11
102.51430065
 21
35.73795568
 31
0.0
  0
LINE
  5
1BB
100
AcDbEntity
  8
SLD-0
  6
CONTINUOUS
 62
       3
100
AcDbLine
 10
102.51430065
 20
35.73795568
 30
0.0
 11
102.46690669
 21
35.69056068
 31
0.0
  0
LINE
  5
1BC
100
AcDbEntity
  8
SLD-0
  6
CONTINUOUS
 62
       3
100
AcDbLine
 10
102.46690669
 20
35.69056068
 30
0.0
 11
102.4240704
 21
35.64772543
 31
0.0
  0
LINE
  5
1BD
100
AcDbEntity
  8
SLD-0
  6
CONTINUOUS
 62
       3
100
AcDbLine
 10
102.4240704
 20
35.64772543
 30
0.0
 11
102.3870934
 21
35.61074819
 31
0.0
  0
LINE
  5
1BE
100
AcDbEntity
  8
SLD-0
  6
CONTINUOUS
 62
       3
100
AcDbLine
 10
102.3870934
 20
35.61074819
 30
0.0
 11
102.35709911
 21
35.58075402
 31
0.0
  0
LINE
  5
1BF
100
AcDbEntity
  8
SLD-0
  6
CONTINUOUS
 62
       3
100
AcDbLine
 10
102.35709911
 20
35.58075402
 30
0.0
 11
102.33499894
 21
35.55865373
 31
0.0
  0
LINE
  5
1C0
100
AcDbEntity
  8
SLD-0
  6
CONTINUOUS
 62
       3
100
AcDbLine
 10
102.33499894
 20
35.55865373
 30
0.0
 11
102.32146438
 21
35.54511789
 31
0.0
  0
LINE
  5
1C1
100
AcDbEntity
  8
SLD-0
  6
CONTINUOUS
 62
       3
100
AcDbLine
 10
102.32146438
 20
35.54511789
 30
0.0
 11
102.31690672
 21
35.54056
 31
0.0
  0
LINE
  5
1C2
100
AcDbEntity
  8
SLD-0
  6
CONTINUOUS
 62
       3
100
AcDbLine
 10
103.67046009
 20
36.89411443
 30
0.0
 11
102.61690667
 21
35.84056135
 31
0.0
  0
LINE
  5
1C3
100
AcDbEntity
  8
SLD-0
  6
CONTINUOUS
 62
       3
100
AcDbLine
 10
103.75832798
 20
37.33090288
 30
0.0
 11
103.75832798
 21
37.10624637
 31
0.0
  0
ARC
  5
1C4
100
AcDbEntity
  8
SLD-0
  6
CONTINUOUS
 62
       3
100
AcDbCircle
 10
103.1318152
 20
-5.72796003
 30
0.0
 40
0.5
100
AcDbArc
 50
270.0
 51
360.0
  0
ARC
  5
1C5
100
AcDbEntity
  8
SLD-0
  6
CONTINUOUS
 62
       3
100
AcDbCircle
 10
-95.29167565
 20
43.27203819
 30
0.0
 40
0.5
100
AcDbArc
 50
90.0
 51
180.00000166
  0
ARC
  5
1C6
100
AcDbEntity
  8
SLD-0
  6
CONTINUOUS
 62
       3
100
AcDbCircle
 10
18.70832586
 20
43.27203819
 30
0.0
 40
0.5
100
AcDbArc
 50
359.99999834
 51
450.0
  0
ARC
  5
1C7
100
AcDbEntity
  8
SLD-0
  6
CONTINUOUS
 62
       3
100
AcDbCircle
 10
74.13181522
 20
-5.72796003
 30
0.0
 40
0.5
100
AcDbArc
 50
180.0
 51
269.99999771
  0
ARC
  5
1C8
100
AcDbEntity
  8
SLD-0
  6
CONTINUOUS
 62
       3
100
AcDbCircle
 10
18.70832444
 20
-5.72796053
 30
0.0
 40
0.5
100
AcDbArc
 50
270.0
 51
359.99999834
  0
ARC
  5
1C9
100
AcDbEntity
  8
SLD-0
  6
CONTINUOUS
 62
       3
100
AcDbCircle
 10
-95.29167423
 20
-5.72796053
 30
0.0
 40
0.5
100
AcDbArc
 50
180.00000166
 51
270.0
  0
ARC
  5
1CA
100
AcDbEntity
  8
SLD-0
  6
CONTINUOUS
 62
       3
100
AcDbCircle
 10
-38.2916749
 20
9.41203915
 30
0.0
 40
17.14
100
AcDbArc
 50
246.26124165
 51
293.73875835
  0
ARC
  5
1CB
100
AcDbEntity
  8
SLD-0
  6
CONTINUOUS
 62
       3
100
AcDbCircle
 10
-38.2916749
 20
9.41203915
 30
0.0
 40
18.64
100
AcDbArc
 50
243.21500449
 51
296.78499551
  0
ARC
  5
1CC
100
AcDbEntity
  8
SLD-0
  6
CONTINUOUS
 62
       3
100
AcDbCircle
 10
62.83440977
 20
33.59152036
 30
0.0
 40
11.86673216
100
AcDbArc
 50
161.78083874
 51
177.43765835
  0
ARC
  5
1CD
100
AcDbEntity
  8
SLD-0
  6
CONTINUOUS
 62
       3
100
AcDbCircle
 10
62.83440977
 20
33.59152036
 30
0.0
 40
11.86673216
100
AcDbArc
 50
177.43765835
 51
192.74806929
  0
ARC
  5
1CE
100
AcDbEntity
  8
SLD-0
  6
CONTINUOUS
 62
       3
100
AcDbCircle
 10
43.81832095
 20
34.49225765
 30
0.0
 40
8.30089816
100
AcDbArc
 50
333.83596459
 51
380.74148918
  0
ARC
  5
1CF
100
AcDbEntity
  8
SLD-0
  6
CONTINUOUS
 62
       3
100
AcDbCircle
 10
53.59039819
 20
18.78605593
 30
0.0
 40
1.49999999
100
AcDbArc
 50
189.10878765
 51
268.9999931
  0
ARC
  5
1D0
100
AcDbEntity
  8
SLD-0
  6
CONTINUOUS
 62
       3
100
AcDbCircle
 10
103.45832798
 20
37.33090218
 30
0.0
 40
0.3
100
AcDbArc
 50
270.99999963
 51
360.00013369
  0
ARC
  5
1D1
100
AcDbEntity
  8
SLD-0
  6
CONTINUOUS
 62
       3
100
AcDbCircle
 10
102.17548536
 20
35.68198225
 30
0.0
 40
0.20000063
100
AcDbArc
 50
270.00001432
 51
314.99981971
  0
ARC
  5
1D2
100
AcDbEntity
  8
SLD-0
  6
CONTINUOUS
 62
       3
100
AcDbCircle
 10
103.45832802
 20
37.10624637
 30
0.0
 40
0.29999996
100
AcDbArc
 50
315.00001756
 51
360.0
  0
LINE
  5
1D3
100
AcDbEntity
  8
SLD-0
  6
PHANTOM
 62
       3
100
AcDbLine
 10
53.48181639
 20
7.07103789
 30
0.0
 11
54.68181569
 21
7.07103789
 31
0.0
  0
LINE
  5
1D4
100
AcDbEntity
  8
SLD-0
  6
PHANTOM
 62
       3
100
AcDbLine
 10
-57.04167564
 20
-2.58101378
 30
0.0
 11
-57.04167564
 21
16.42103825
 31
0.0
  0
LINE
  5
1D5
100
AcDbEntity
  8
SLD-0
  6
PHANTOM
 62
       3
100
AcDbLine
 10
13.95832668
 20
16.42103825
 30
0.0
 11
13.95832668
 21
-2.58101378
 31
0.0
  0
LINE
  5
1D6
100
AcDbEntity
  8
SLD-0
  6
PHANTOM
 62
       3
100
AcDbLine
 10
13.95832668
 20
-2.58101378
 30
0.0
 11
-57.04167564
 21
-2.58101378
 31
0.0
  0
LINE
  5
1D7
100
AcDbEntity
  8
SLD-0
  6
PHANTOM
 62
       3
100
AcDbLine
 10
-57.04167564
 20
16.42103825
 30
0.0
 11
13.95832668
 21
16.42103825
 31
0.0
  0
LINE
  5
1D8
100
AcDbEntity
  8
SLD-0
  6
PHANTOM
 62
       3
100
AcDbLine
 10
53.37403953
 20
-2.5769514
 30
0.0
 11
51.1991078
 21
-2.58101399
 31
0.0
  0
LINE
  5
1D9
100
AcDbEntity
  8
SLD-0
  6
PHANTOM
 62
       3
100
AcDbLine
 10
71.98181747
 20
5.871039
 30
0.0
 11
71.98181747
 21
-2.57896061
 31
0.0
  0
LINE
  5
1DA
100
AcDbEntity
  8
SLD-0
  6
PHANTOM
 62
       3
100
AcDbLine
 10
73.63181522
 20
5.871039
 30
0.0
 11
71.98181747
 21
5.871039
 31
0.0
  0
LINE
  5
1DB
100
AcDbEntity
  8
SLD-0
  6
PHANTOM
 62
       3
100
AcDbLine
 10
73.63181522
 20
-2.57896061
 30
0.0
 11
71.98181747
 21
-2.57896061
 31
0.0
  0
LINE
  5
1DC
100
AcDbEntity
  8
SLD-0
  6
PHANTOM
 62
       3
100
AcDbLine
 10
71.98181747
 20
5.871039
 30
0.0
 11
53.3290166
 21
5.87103847
 31
0.0
  0
LINE
  5
1DD
100
AcDbEntity
  8
SLD-0
  6
PHANTOM
 62
       3
100
AcDbLine
 10
54.68181569
 20
7.07103789
 30
0.0
 11
54.68181639
 21
5.871039
 31
0.0
  0
LINE
  5
1DE
100
AcDbEntity
  8
SLD-0
  6
PHANTOM
 62
       3
100
AcDbLine
 10
52.88181451
 20
11.7210385
 30
0.0
 11
52.88181593
 21
7.67103835
 31
0.0
  0
LINE
  5
1DF
100
AcDbEntity
  8
SLD-0
  6
PHANTOM
 62
       3
100
AcDbLine
 10
51.15261671
 20
13.12086569
 30
0.0
 11
52.88181451
 21
11.7210385
 31
0.0
  0
LINE
  5
1E0
100
AcDbEntity
  8
SLD-0
  6
PHANTOM
 62
       3
100
AcDbLine
 10
50.78181583
 20
15.92103816
 30
0.0
 11
50.78181555
 21
13.89811018
 31
0.0
  0
LINE
  5
1E1
100
AcDbEntity
  8
SLD-0
  6
PHANTOM
 62
       3
100
AcDbLine
 10
73.63181521
 20
16.42103803
 30
0.0
 11
51.28181568
 21
16.42103803
 31
0.0
  0
LINE
  5
1E2
100
AcDbEntity
  8
SLD-0
  6
PHANTOM
 62
       3
100
AcDbLine
 10
67.08181648
 20
5.871039
 30
0.0
 11
67.08181594
 21
-1.4789613
 31
0.0
  0
LINE
  5
1E3
100
AcDbEntity
  8
SLD-0
  6
PHANTOM
 62
       3
100
AcDbLine
 10
68.18181594
 20
-2.5789613
 30
0.0
 11
71.98181747
 21
-2.57896061
 31
0.0
  0
LINE
  5
1E4
100
AcDbEntity
  8
SLD-0
  6
PHANTOM
 62
       3
100
AcDbLine
 10
53.3290166
 20
5.87103847
 30
0.0
 11
53.37403953
 21
-2.5769514
 31
0.0
  0
LINE
  5
1E5
100
AcDbEntity
  8
SLD-0
  6
PHANTOM
 62
       3
100
AcDbLine
 10
73.63181522
 20
16.42478286
 30
0.0
 11
51.28181555
 21
16.42478286
 31
0.0
  0
ARC
  5
1E6
100
AcDbEntity
  8
SLD-0
  6
PHANTOM
 62
       3
100
AcDbCircle
 10
83.13482194
 20
6.2286461
 30
0.0
 40
33.5
100
AcDbArc
 50
167.88334717
 51
194.58452094
  0
ARC
  5
1E7
100
AcDbEntity
  8
SLD-0
  6
PHANTOM
 62
       3
100
AcDbCircle
 10
51.19817303
 20
-2.08101504
 30
0.0
 40
0.49999982
100
AcDbArc
 50
194.58452185
 51
270.10711685
  0
ARC
  5
1E8
100
AcDbEntity
  8
SLD-0
  6
PHANTOM
 62
       3
100
AcDbCircle
 10
83.13482194
 20
6.2286461
 30
0.0
 40
33.5
100
AcDbArc
 50
164.96363983
 51
167.88334717
  0
ARC
  5
1E9
100
AcDbEntity
  8
SLD-0
  6
PHANTOM
 62
       3
100
AcDbCircle
 10
53.48181639
 20
7.67103835
 30
0.0
 40
0.60000046
100
AcDbArc
 50
180.0
 51
270.0
  0
ARC
  5
1EA
100
AcDbEntity
  8
SLD-0
  6
PHANTOM
 62
       3
100
AcDbCircle
 10
51.78181578
 20
13.89811018
 30
0.0
 40
1.00000023
100
AcDbArc
 50
180.0
 51
231.00895477
  0
ARC
  5
1EB
100
AcDbEntity
  8
SLD-0
  6
PHANTOM
 62
       3
100
AcDbCircle
 10
51.28181568
 20
15.92103817
 30
0.0
 40
0.49999985
100
AcDbArc
 50
90.0
 51
180.00000115
  0
ARC
  5
1EC
100
AcDbEntity
  8
SLD-0
  6
PHANTOM
 62
       3
100
AcDbCircle
 10
68.18181594
 20
-1.4789613
 30
0.0
 40
1.1
100
AcDbArc
 50
180.0
 51
270.0
  0
ARC
  5
1ED
100
AcDbEntity
  8
SLD-0
  6
PHANTOM
 62
       3
100
AcDbCircle
 10
51.28181555
 20
15.92478286
 30
0.0
 40
0.5
100
AcDbArc
 50
90.0
 51
180.0
  0
LINE
  5
1EE
100
AcDbEntity
  8
SLD-0
  6
CENTERX2
 62
       3
100
AcDbLine
 10
24.98758542
 20
18.77203947
 30
0.0
 11
-103.75832798
 21
18.77203947
 31
0.0
  0
LINE
  5
1EF
100
AcDbEntity
  8
SLD-0
  6
CENTERX2
 62
       3
100
AcDbLine
 10
48.88473872
 20
18.77203997
 30
0.0
 11
103.1318152
 21
18.77203997
 31
0.0
  0
LINE
  5
1F0
100
AcDbEntity
  8
SLD-0
  6
CENTERX2
 62
       3
100
AcDbLine
 10
-38.29167398
 20
48.77927127
 30
0.0
 11
-38.29167557
 21
-6.22796053
 31
0.0
  0
LINE
  5
1F1
100
AcDbEntity
  8
0
  6
PHANTOM2
 62
       3
100
AcDbLine
 10
-83.79177167
 20
-0.97518899
 30
0.0
 11
-87.88046956
 21
-0.97518899
 31
0.0
  0
LINE
  5
1F2
100
AcDbEntity
  8
0
  6
PHANTOM2
 62
       3
100
AcDbLine
 10
-87.88046956
 20
-4.37991141
 30
0.0
 11
-83.79177167
 21
-4.37991141
 31
0.0
  0
LINE
  5
1F3
100
AcDbEntity
  8
0
  6
PHANTOM2
 62
       3
100
AcDbLine
 10
-82.5396276
 20
-4.37991141
 30
0.0
 11
-78.45092971
 21
-4.37991141
 31
0.0
  0
LINE
  5
1F4
100
AcDbEntity
  8
0
  6
PHANTOM2
 62
       3
100
AcDbLine
 10
-77.19964347
 20
4.16320537
 30
0.0
 11
-77.19964347
 21
-4.37991141
 31
0.0
  0
LINE
  5
1F5
100
AcDbEntity
  8
0
  6
PHANTOM2
 62
       3
100
AcDbLine
 10
-66.51910333
 20
4.16320537
 30
0.0
 11
-66.51910333
 21
-4.37991141
 31
0.0
  0
LINE
  5
1F6
100
AcDbEntity
  8
0
  6
PHANTOM2
 62
       3
100
AcDbLine
 10
-57.40124127
 20
-1.19393533
 30
0.0
 11
-57.40124127
 21
4.89865058
 31
0.0
  0
LINE
  5
1F7
100
AcDbEntity
  8
0
  6
PHANTOM2
 62
       3
100
AcDbLine
 10
-82.5396276
 20
4.16320537
 30
0.0
 11
-82.5396276
 21
-4.37991141
 31
0.0
  0
LINE
  5
1F8
100
AcDbEntity
  8
0
  6
PHANTOM2
 62
       3
100
AcDbLine
 10
-61.87338862
 20
5.5523161
 30
0.0
 11
-88.43634261
 21
5.5523161
 31
0.0
  0
LINE
  5
1F9
100
AcDbEntity
  8
0
  6
PHANTOM2
 62
       3
100
AcDbLine
 10
-67.77067551
 20
-0.97518899
 30
0.0
 11
-71.8593734
 21
-0.97518899
 31
0.0
  0
LINE
  5
1FA
100
AcDbEntity
  8
0
  6
PHANTOM2
 62
       3
100
AcDbLine
 10
-66.51910333
 20
-4.37991141
 30
0.0
 11
-62.43040544
 21
-4.37991141
 31
0.0
  0
LINE
  5
1FB
100
AcDbEntity
  8
0
  6
PHANTOM2
 62
       3
100
AcDbLine
 10
-62.43040544
 20
-4.37991141
 30
0.0
 11
-62.43040544
 21
4.16320537
 31
0.0
  0
LINE
  5
1FC
100
AcDbEntity
  8
0
  6
PHANTOM2
 62
       3
100
AcDbLine
 10
-77.19964347
 20
-4.37991141
 30
0.0
 11
-73.11065964
 21
-4.37991141
 31
0.0
  0
LINE
  5
1FD
100
AcDbEntity
  8
0
  6
PHANTOM2
 62
       3
100
AcDbLine
 10
-67.77067551
 20
-4.37991141
 30
0.0
 11
-67.77067551
 21
4.16320537
 31
0.0
  0
LINE
  5
1FE
100
AcDbEntity
  8
0
  6
PHANTOM2
 62
       3
100
AcDbLine
 10
-73.11065964
 20
-0.97518899
 30
0.0
 11
-77.19964347
 21
-0.97518899
 31
0.0
  0
LINE
  5
1FF
100
AcDbEntity
  8
0
  6
PHANTOM2
 62
       3
100
AcDbLine
 10
-78.45092971
 20
-4.37991141
 30
0.0
 11
-78.45092971
 21
4.16320537
 31
0.0
  0
LINE
  5
200
100
AcDbEntity
  8
0
  6
PHANTOM2
 62
       3
100
AcDbLine
 10
-71.8593734
 20
4.16320537
 30
0.0
 11
-71.8593734
 21
-4.37991141
 31
0.0
  0
LINE
  5
201
100
AcDbEntity
  8
0
  6
PHANTOM2
 62
       3
100
AcDbLine
 10
-92.84358091
 20
4.89865058
 30
0.0
 11
-92.84358091
 21
-1.19393533
 31
0.0
  0
LINE
  5
202
100
AcDbEntity
  8
0
  6
PHANTOM2
 62
       3
100
AcDbLine
 10
-71.8593734
 20
-4.37991141
 30
0.0
 11
-67.77067551
 21
-4.37991141
 31
0.0
  0
LINE
  5
203
100
AcDbEntity
  8
0
  6
PHANTOM2
 62
       3
100
AcDbLine
 10
-92.84358091
 20
-1.19393533
 30
0.0
 11
-88.43634261
 21
-1.19393533
 31
0.0
  0
LINE
  5
204
100
AcDbEntity
  8
0
  6
PHANTOM2
 62
       3
100
AcDbLine
 10
-83.79177167
 20
-4.37991141
 30
0.0
 11
-83.79177167
 21
4.16320537
 31
0.0
  0
LINE
  5
205
100
AcDbEntity
  8
0
  6
PHANTOM2
 62
       3
100
AcDbLine
 10
-87.88046956
 20
4.16320537
 30
0.0
 11
-87.88046956
 21
-4.37991141
 31
0.0
  0
LINE
  5
206
100
AcDbEntity
  8
0
  6
PHANTOM2
 62
       3
100
AcDbLine
 10
-61.87338862
 20
-9.22796053
 30
0.0
 11
-61.87338862
 21
5.5523161
 31
0.0
  0
LINE
  5
207
100
AcDbEntity
  8
0
  6
PHANTOM2
 62
       3
100
AcDbLine
 10
-73.11065964
 20
4.16320537
 30
0.0
 11
-77.19964347
 21
4.16320537
 31
0.0
  0
LINE
  5
208
100
AcDbEntity
  8
0
  6
PHANTOM2
 62
       3
100
AcDbLine
 10
-67.77067551
 20
4.16320537
 30
0.0
 11
-71.8593734
 21
4.16320537
 31
0.0
  0
LINE
  5
209
100
AcDbEntity
  8
0
  6
PHANTOM2
 62
       3
100
AcDbLine
 10
-88.43634261
 20
5.5523161
 30
0.0
 11
-88.43634261
 21
-9.22796053
 31
0.0
  0
LINE
  5
20A
100
AcDbEntity
  8
0
  6
PHANTOM2
 62
       3
100
AcDbLine
 10
-78.45092971
 20
4.16320537
 30
0.0
 11
-82.5396276
 21
4.16320537
 31
0.0
  0
LINE
  5
20B
100
AcDbEntity
  8
0
  6
PHANTOM2
 62
       3
100
AcDbLine
 10
-73.11065964
 20
-4.37991141
 30
0.0
 11
-73.11065964
 21
4.16320537
 31
0.0
  0
LINE
  5
20C
100
AcDbEntity
  8
0
  6
PHANTOM2
 62
       3
100
AcDbLine
 10
-62.43040544
 20
4.16320537
 30
0.0
 11
-66.51910333
 21
4.16320537
 31
0.0
  0
LINE
  5
20D
100
AcDbEntity
  8
0
  6
PHANTOM2
 62
       3
100
AcDbLine
 10
-61.87338862
 20
-1.19393533
 30
0.0
 11
-57.40124127
 21
-1.19393533
 31
0.0
  0
LINE
  5
20E
100
AcDbEntity
  8
0
  6
PHANTOM2
 62
       3
100
AcDbLine
 10
-88.43634261
 20
4.89865058
 30
0.0
 11
-92.84358091
 21
4.89865058
 31
0.0
  0
LINE
  5
20F
100
AcDbEntity
  8
0
  6
PHANTOM2
 62
       3
100
AcDbLine
 10
-57.40124127
 20
4.89865058
 30
0.0
 11
-61.87338862
 21
4.89865058
 31
0.0
  0
LINE
  5
210
100
AcDbEntity
  8
0
  6
PHANTOM2
 62
       3
100
AcDbLine
 10
-62.43040544
 20
-0.97518899
 30
0.0
 11
-66.51910333
 21
-0.97518899
 31
0.0
  0
LINE
  5
211
100
AcDbEntity
  8
0
  6
PHANTOM2
 62
       3
100
AcDbLine
 10
-83.79177167
 20
4.16320537
 30
0.0
 11
-87.88046956
 21
4.16320537
 31
0.0
  0
LINE
  5
212
100
AcDbEntity
  8
0
  6
PHANTOM2
 62
       3
100
AcDbLine
 10
-78.45092971
 20
-0.97518899
 30
0.0
 11
-82.5396276
 21
-0.97518899
 31
0.0
  0
LINE
  5
213
100
AcDbEntity
  8
0
  6
PHANTOM2
 62
       3
100
AcDbLine
 10
70.9771211
 20
-9.22796003
 30
0.0
 11
70.9771211
 21
-2.57896079
 31
0.0
  0
LINE
  5
214
100
AcDbEntity
  8
0
  6
PHANTOM2
 62
       3
100
AcDbLine
 10
59.29520883
 20
5.87103864
 30
0.0
 11
59.29520883
 21
-1.42916486
 31
0.0
  0
LINE
  5
215
100
AcDbEntity
  8
0
  6
PHANTOM2
 62
       3
100
AcDbLine
 10
59.29520883
 20
-1.42916486
 30
0.0
 11
61.18617924
 21
-9.22796003
 31
0.0
  0
LINE
  5
216
100
AcDbEntity
  8
SLD-0_0
  6
CONTINUOUS
 62
       3
100
AcDbLine
 10
-88.43634261
 20
-6.22796053
 30
0.0
 11
-95.29167423
 21
-6.22796053
 31
0.0
  0
LINE
  5
217
100
AcDbEntity
  8
SLD-0_0
  6
PHANTOM2
 62
       3
100
AcDbLine
 10
-61.87338862
 20
-9.22796053
 30
0.0
 11
-88.43634261
 21
-9.22796053
 31
0.0
  0
LINE
  5
218
100
AcDbEntity
  8
SLD-0_0
  6
PHANTOM2
 62
       3
100
AcDbLine
 10
61.18617924
 20
-9.22796003
 30
0.0
 11
70.9771211
 21
-9.22796003
 31
0.0
  0
INSERT
  5
219
100
AcDbEntity
  8
0
  6
CONTINUOUS
100
AcDbBlockReference
  2
GROUP_1
 10
0.0
 20
0.0
 30
0.0
  0
INSERT
  5
21A
100
AcDbEntity
  8
0
  6
CONTINUOUS
100
AcDbBlockReference
  2
GROUP_2
 10
0.0
 20
0.0
 30
0.0
  0
INSERT
  5
21B
100
AcDbEntity
  8
0
  6
CONTINUOUS
100
AcDbBlockReference
  2
GROUP_3
 10
0.0
 20
0.0
 30
0.0
  0
INSERT
  5
21C
100
AcDbEntity
  8
0
  6
CONTINUOUS
100
AcDbBlockReference
  2
GROUP_4
 10
0.0
 20
0.0
 30
0.0
  0
INSERT
  5
21D
100
AcDbEntity
  8
0
  6
CONTINUOUS
100
AcDbBlockReference
  2
GROUP_5
 10
0.0
 20
0.0
 30
0.0
  0
INSERT
  5
21E
100
AcDbEntity
  8
0
  6
CONTINUOUS
100
AcDbBlockReference
  2
GROUP_6
 10
0.0
 20
0.0
 30
0.0
  0
INSERT
  5
21F
100
AcDbEntity
  8
0
  6
CONTINUOUS
100
AcDbBlockReference
  2
GROUP_7
 10
0.0
 20
0.0
 30
0.0
  0
INSERT
  5
220
100
AcDbEntity
  8
0
  6
CONTINUOUS
100
AcDbBlockReference
  2
GROUP_8
 10
0.0
 20
0.0
 30
0.0
  0
INSERT
  5
221
100
AcDbEntity
  8
0
  6
CONTINUOUS
100
AcDbBlockReference
  2
GROUP_9
 10
0.0
 20
0.0
 30
0.0
  0
TEXT
  5
222
100
AcDbEntity
  8
SLD-0_0
 62
       3
100
AcDbText
 10
65.72174563
 20
-51.27927127
 30
0.0
 40
5.0
  1
000
 72
       5
 11
80.72174563
 21
-51.27927127
 31
0.0
100
AcDbText
  0
ENDSEC
  0
SECTION
  2
OBJECTS
  0
DICTIONARY
  5
19
100
AcDbDictionary
  3
ACAD_GROUP
350
1A
  3
ACAD_MLINESTYLE
350
1B
  0
DICTIONARY
  5
1A
102
{ACAD_REACTORS
330
19
102
}
100
AcDbDictionary
  0
DICTIONARY
  5
1B
102
{ACAD_REACTORS
330
19
102
}
100
AcDbDictionary
  3
STANDARD
350
1C
  0
MLINESTYLE
  5
1C
102
{ACAD_REACTORS
330
1B
102
}
100
AcDbMlineStyle
  2
STANDARD
 70
       0
  3

 62
       0
 51
90.0
 52
90.0
 71
       2
 49
0.5
 62
     256
  6
BYLAYER
 49
-0.5
 62
     256
  6
BYLAYER
  0
ENDSEC
  0
EOF
