  0
SECTION
  2
HEADER
  9
$ACADVER
  1
AC1014
  9
$ACADMAINTVER
 70
       0
  9
$DWGCODEPAGE
  3
ANSI_932
  9
$INSBASE
 10
0.0
 20
0.0
 30
0.0
  9
$EXTMIN
 10
-107.9086611
 20
-52.17497706
 30
0.0
  9
$EXTMAX
 10
107.9086611
 20
49.67497706
 30
0.0
  9
$LIMMIN
 10
-114.65295242
 20
-55.35778813
  9
$LIMMAX
 10
114.65295242
 20
52.85778813
  9
$ORTHOMODE
 70
       0
  9
$REGENMODE
 70
       1
  9
$FILLMODE
 70
       1
  9
$QTEXTMODE
 70
       0
  9
$MIRRTEXT
 70
       1
  9
$DRAGMODE
 70
       2
  9
$LTSCALE
 40
1.0
  9
$OSMODE
 70
       0
  9
$ATTMODE
 70
       1
  9
$TEXTSIZE
 40
0.2
  9
$TRACEWID
 40
0.05
  9
$TEXTSTYLE
  7
STANDARD
  9
$CLAYER
  8
0
  9
$CELTYPE
  6
CONTINUOUS
  9
$CECOLOR
 62
     256
  9
$CELTSCALE
 40
1.0
  9
$DELOBJ
 70
       1
  9
$DISPSILH
 70
       0
  9
$DIMSCALE
 40
1.0
  9
$DIMASZ
 40
0.18
  9
$DIMEXO
 40
0.0625
  9
$DIMDLI
 40
0.38
  9
$DIMRND
 40
0.0
  9
$DIMDLE
 40
0.0
  9
$DIMEXE
 40
0.18
  9
$DIMTP
 40
0.0
  9
$DIMTM
 40
0.0
  9
$DIMTXT
 40
0.18
  9
$DIMCEN
 40
0.09
  9
$DIMTSZ
 40
0.0
  9
$DIMTOL
 70
       0
  9
$DIMLIM
 70
       0
  9
$DIMTIH
 70
       1
  9
$DIMTOH
 70
       1
  9
$DIMSE1
 70
       0
  9
$DIMSE2
 70
       0
  9
$DIMTAD
 70
       0
  9
$DIMZIN
 70
       0
  9
$DIMBLK
  1

  9
$DIMASO
 70
       1
  9
$DIMSHO
 70
       1
  9
$DIMPOST
  1

  9
$DIMAPOST
  1

  9
$DIMALT
 70
       0
  9
$DIMALTD
 70
       2
  9
$DIMALTF
 40
25.4
  9
$DIMLFAC
 40
1.0
  9
$DIMTOFL
 70
       0
  9
$DIMTVP
 40
0.0
  9
$DIMTIX
 70
       0
  9
$DIMSOXD
 70
       0
  9
$DIMSAH
 70
       0
  9
$DIMBLK1
  1

  9
$DIMBLK2
  1

  9
$DIMSTYLE
  2
STANDARD
  9
$DIMCLRD
 70
       0
  9
$DIMCLRE
 70
       0
  9
$DIMCLRT
 70
       0
  9
$DIMTFAC
 40
1.0
  9
$DIMGAP
 40
0.09
  9
$DIMJUST
 70
       0
  9
$DIMSD1
 70
       0
  9
$DIMSD2
 70
       0
  9
$DIMTOLJ
 70
       1
  9
$DIMTZIN
 70
       0
  9
$DIMALTZ
 70
       0
  9
$DIMALTTZ
 70
       0
  9
$DIMFIT
 70
       3
  9
$DIMUPT
 70
       0
  9
$DIMUNIT
 70
       2
  9
$DIMDEC
 70
       4
  9
$DIMTDEC
 70
       4
  9
$DIMALTU
 70
       2
  9
$DIMALTTD
 70
       2
  9
$DIMTXSTY
  7
STANDARD
  9
$DIMAUNIT
 70
       0
  9
$LUNITS
 70
       2
  9
$LUPREC
 70
       4
  9
$SKETCHINC
 40
0.1
  9
$FILLETRAD
 40
0.0
  9
$AUNITS
 70
       0
  9
$AUPREC
 70
       0
  9
$MENU
  1
acad
  9
$ELEVATION
 40
0.0
  9
$PELEVATION
 40
0.0
  9
$THICKNESS
 40
0.0
  9
$LIMCHECK
 70
       0
  9
$BLIPMODE
 70
       1
  9
$CHAMFERA
 40
0.0
  9
$CHAMFERB
 40
0.0
  9
$CHAMFERC
 40
0.0
  9
$CHAMFERD
 40
0.0
  9
$SKPOLY
 70
       0
  9
$TDCREATE
 40
0.000000000
  9
$TDUPDATE
 40
0.000000000
  9
$TDINDWG
 40
0.0000000000
  9
$TDUSRTIMER
 40
0.0000000000
  9
$USRTIMER
 70
       1
  9
$ANGBASE
 50
0.0
  9
$ANGDIR
 70
       0
  9
$PDMODE
 70
       0
  9
$PDSIZE
 40
1.0
  9
$PLINEWID
 40
0.0
  9
$COORDS
 70
       1
  9
$SPLFRAME
 70
       0
  9
$SPLINETYPE
 70
       6
  9
$SPLINESEGS
 70
       8
  9
$ATTDIA
 70
       0
  9
$ATTREQ
 70
       1
  9
$HANDLING
 70
       1
  9
$HANDSEED
  5
25D
  9
$SURFTAB1
 70
       6
  9
$SURFTAB2
 70
       6
  9
$SURFTYPE
 70
       6
  9
$SURFU
 70
       6
  9
$SURFV
 70
       6
  9
$UCSNAME
  2

  9
$UCSORG
 10
0.0
 20
0.0
 30
0.0
  9
$UCSXDIR
 10
1.0
 20
0.0
 30
0.0
  9
$UCSYDIR
 10
0.0
 20
1.0
 30
0.0
  9
$PUCSNAME
  2

  9
$PUCSORG
 10
0.0
 20
0.0
 30
0.0
  9
$PUCSXDIR
 10
1.0
 20
0.0
 30
0.0
  9
$PUCSYDIR
 10
0.0
 20
1.0
 30
0.0
  9
$USERI1
 70
       0
  9
$USERI2
 70
       0
  9
$USERI3
 70
       0
  9
$USERI4
 70
       0
  9
$USERI5
 70
       0
  9
$USERR1
 40
0.0
  9
$USERR2
 40
0.0
  9
$USERR3
 40
0.0
  9
$USERR4
 40
0.0
  9
$USERR5
 40
0.0
  9
$WORLDVIEW
 70
       1
  9
$SHADEDGE
 70
       3
  9
$SHADEDIF
 70
      70
  9
$TILEMODE
 70
       1
  9
$MAXACTVP
 70
      16
  9
$PINSBASE
 10
0.0
 20
0.0
 30
0.0
  9
$PLIMCHECK
 70
       0
  9
$PEXTMIN
 10
1.00000000E+20
 20
1.00000000E+20
 30
1.00000000E+20
  9
$PEXTMAX
 10
-1.00000000E+20
 20
-1.00000000E+20
 30
-1.00000000E+20
  9
$PLIMMIN
 10
0.0
 20
0.0
  9
$PLIMMAX
 10
12.0
 20
9.0
  9
$UNITMODE
 70
       0
  9
$VISRETAIN
 70
       0
  9
$PLINEGEN
 70
       1
  9
$PSLTSCALE
 70
       0
  9
$TREEDEPTH
 70
    3020
  9
$PICKSTYLE
 70
       1
  9
$CMLSTYLE
  2
STANDARD
  9
$CMLJUST
 70
       0
  9
$CMLSCALE
 40
1.0
  9
$PROXYGRAPHICS
 70
       0
  9
$MEASUREMENT
 70
       0
  0
ENDSEC
  0
SECTION
  2
CLASSES
  0
CLASS
  1
LWPOLYLINE
  2
AcDbPolyline
  3
"AutoCAD"
 90
        0
280
       0
281
       1
  0
CLASS
  1
IMAGE
  2
AcDbRasterImage
  3
ISM
 90
      127
280
       0
281
       1
  0
CLASS
  1
OLE2FRAME
  2
AcDbOle2Frame
  3
""
 90
        0
280
       0
281
       1
  0
CLASS
  1
HATCH
  2
AcDbHatch
  3
"ACAD_SEDONA"
 90
        0
280
       0
281
       1
  0
CLASS
  1
DICTIONARYVAR
  2
AcDbDictionaryVar
  3
"AutoCAD"
 90
        0
280
       0
281
       0
  0
CLASS
  1
RASTERVARIABLES
  2
AcDbRasterVariables
  3
ISM
 90
        0
280
       0
281
       0
  0
CLASS
  1
IMAGEDEF
  2
AcDbRasterImageDef
  3
ISM
 90
        0
280
       0
281
       0
  0
CLASS
  1
IMAGEDEF_REACTOR
  2
AcDbRasterImageDefReactor
  3
ISM
 90
        1
280
       0
281
       0
  0
CLASS
  1
IDBUFFER
  2
AcDbIdBuffer
  3
"Acad"
 90
        0
280
       0
281
       0
  0
CLASS
  1
SPATIAL_FILTER
  2
AcDbSpatialFilter
  3
"Acad"
 90
        0
280
       0
281
       0
  0
CLASS
  1
XRECORD
  2
AcDbXrecord
  3
"<Built In>"
 90
        0
280
       0
281
       0
  0
CLASS
  1
SORTENTSTABLE
  2
AcDbSortentsTable
  3
"AutoCAD"
 90
        0
280
       0
281
       0
  0
CLASS
  1
LAYER_INDEX
  2
AcDbLayerIndex
  3
"Acad"
 90
        0
280
       0
281
       0
  0
CLASS
  1
SPATIAL_INDEX
  2
AcDbSpatialIndex
  3
"Acad"
 90
        0
280
       0
281
       0
  0
CLASS
  1
OBJECT_PTR
  2
CAseDLPNTableRecord
  3
"ASE-LPNTableRecord"
 90
        1
280
       0
281
       0
  0
CLASS
  1
LAYOUT
  2
AcDbLayout
  3
"AutoCAD 2000"
 90
        1
280
       0
281
       0
  0
CLASS
  1
PLOTSETTINGS
  2
AcDbPlotSettings
  3
"AutoCAD 2000"
 90
        1
280
       0
281
       0
  0
CLASS
  1
ACDBDICTIONARYWDFLT
  2
AcDbDictionaryWithDefault
  3
"AutoCAD 2000"
 90
        1
280
       0
281
       0
  0
CLASS
  1
ACDBPLACEHOLDER
  2
AcDbPlaceHolder
  3
"AutoCAD 2000"
 90
        1
280
       0
281
       0
  0
CLASS
  1
VBA_PROJECT
  2
AcDbVbaProject
  3
"acadvba"
 90
        1
280
       0
281
       0
  0
CLASS
  1
WIPEOUT
  2
AcDbWipeout
  3
WipeOut|AutoCAD Express Tool|expresstools@autodesk.com
 90
      127
280
       0
281
       1
  0
CLASS
  1
WIPEOUTVARIABLES
  2
AcDbWipeoutVariables
  3
WipeOut|AutoCAD Express Tool|expresstools@autodesk.com
 90
        0
280
       0
281
       0
  0
CLASS
  1
RTEXT
  2
RText
  3
RText|AutoCAD Express Tool|expresstools@autodesk.com
 90
        0
280
       0
281
       1
  0
CLASS
  1
ARCALIGNEDTEXT
  2
AcDbArcAlignedText
  3
ATEXT|AutoCAD Express Tool|expresstools@autodesk.com
 90
        0
280
       0
281
       1
  0
ENDSEC
  0
SECTION
  2
TABLES
  0
TABLE
  2
VPORT
  5
7
100
AcDbSymbolTable
 70
       1
  0
VPORT
  5
15
100
AcDbSymbolTableRecord
100
AcDbViewportTableRecord
  2
*ACTIVE
 70
       0
 10
0.0
 20
0.0
 11
1.0
 21
1.0
 12
0.0
 22
-1.25
 13
0.0
 23
0.0
 14
1.0
 24
1.0
 15
0.0
 25
0.0
 16
0.0
 26
0.0
 36
1.0
 17
0.0
 27
0.0
 37
0.0
 40
108.21557626
 41
2.11897319
 42
50.0
 43
0.0
 44
0.0
 50
0.0
 51
0.0
 71
       0
 72
     100
 73
       1
 74
       1
 75
       0
 76
       0
 77
       0
 78
       0
  0
ENDTAB
  0
TABLE
  2
LTYPE
  5
4
100
AcDbSymbolTable
 70
      30
  0
LTYPE
  5
11
100
AcDbSymbolTableRecord
100
AcDbLinetypeTableRecord
  2
BYBLOCK
 70
      64
  3

 72
      65
 73
       0
 40
0.0
  0
LTYPE
  5
12
100
AcDbSymbolTableRecord
100
AcDbLinetypeTableRecord
  2
BYLAYER
 70
      64
  3

 72
      65
 73
       0
 40
0.0
  0
LTYPE
  5
13
100
AcDbSymbolTableRecord
100
AcDbLinetypeTableRecord
  2
CONTINUOUS
 70
      64
  3
Solid line
 72
      65
 73
       0
 40
0.0
  0
LTYPE
  5
1D
100
AcDbSymbolTableRecord
100
AcDbLinetypeTableRecord
  2
HIDDENX2
 70
      64
  3
CADPAC LINETYPE
 72
      65
 73
       2
 40
8.63269289
 49
6.47451967
 74
       0
 49
-2.15817322
 74
       0
  0
LTYPE
  5
1E
100
AcDbSymbolTableRecord
100
AcDbLinetypeTableRecord
  2
HIDDEN
 70
      64
  3
CADPAC LINETYPE
 72
      65
 73
       2
 40
6.47451967
 49
4.31634644
 74
       0
 49
-2.15817322
 74
       0
  0
LTYPE
  5
1F
100
AcDbSymbolTableRecord
100
AcDbLinetypeTableRecord
  2
HIDDEN2
 70
      64
  3
CADPAC LINETYPE
 72
      65
 73
       2
 40
5.39543305
 49
3.23725983
 74
       0
 49
-2.15817322
 74
       0
  0
LTYPE
  5
20
100
AcDbSymbolTableRecord
100
AcDbLinetypeTableRecord
  2
DASHED
 70
      64
  3
CADPAC LINETYPE
 72
      65
 73
       2
 40
6.47451967
 49
4.31634644
 74
       0
 49
-2.15817322
 74
       0
  0
LTYPE
  5
21
100
AcDbSymbolTableRecord
100
AcDbLinetypeTableRecord
  2
DASHED2
 70
      64
  3
CADPAC LINETYPE
 72
      65
 73
       2
 40
4.85588975
 49
3.23725983
 74
       0
 49
-1.61862992
 74
       0
  0
LTYPE
  5
22
100
AcDbSymbolTableRecord
100
AcDbLinetypeTableRecord
  2
DASHEDX2
 70
      64
  3
CADPAC LINETYPE
 72
      65
 73
       2
 40
9.7117795
 49
6.47451967
 74
       0
 49
-3.23725983
 74
       0
  0
LTYPE
  5
23
100
AcDbSymbolTableRecord
100
AcDbLinetypeTableRecord
  2
DOTX2
 70
      64
  3
CADPAC LINETYPE
 72
      65
 73
       2
 40
2.69771653
 49
0.0
 74
       0
 49
-2.69771653
 74
       0
  0
LTYPE
  5
24
100
AcDbSymbolTableRecord
100
AcDbLinetypeTableRecord
  2
DOT
 70
      64
  3
CADPAC LINETYPE
 72
      65
 73
       2
 40
2.15817322
 49
0.0
 74
       0
 49
-2.15817322
 74
       0
  0
LTYPE
  5
25
100
AcDbSymbolTableRecord
100
AcDbLinetypeTableRecord
  2
DOT2
 70
      64
  3
CADPAC LINETYPE
 72
      65
 73
       2
 40
1.61862992
 49
0.0
 74
       0
 49
-1.61862992
 74
       0
  0
LTYPE
  5
26
100
AcDbSymbolTableRecord
100
AcDbLinetypeTableRecord
  2
CENTERX2
 70
      64
  3
CADPAC LINETYPE
 72
      65
 73
       4
 40
12.94903933
 49
5.39543305
 74
       0
 49
-2.69771653
 74
       0
 49
2.15817322
 74
       0
 49
-2.69771653
 74
       0
  0
LTYPE
  5
27
100
AcDbSymbolTableRecord
100
AcDbLinetypeTableRecord
  2
CENTER
 70
      64
  3
CADPAC LINETYPE
 72
      65
 73
       4
 40
9.92759682
 49
4.31634644
 74
       0
 49
-2.15817322
 74
       0
 49
1.29490393
 74
       0
 49
-2.15817322
 74
       0
  0
LTYPE
  5
28
100
AcDbSymbolTableRecord
100
AcDbLinetypeTableRecord
  2
CENTER2
 70
      64
  3
CADPAC LINETYPE
 72
      65
 73
       4
 40
6.90615431
 49
3.23725983
 74
       0
 49
-1.61862992
 74
       0
 49
0.43163464
 74
       0
 49
-1.61862992
 74
       0
  0
LTYPE
  5
29
100
AcDbSymbolTableRecord
100
AcDbLinetypeTableRecord
  2
DASHDOTX2
 70
      64
  3
CADPAC LINETYPE
 72
      65
 73
       4
 40
10.79086611
 49
5.39543305
 74
       0
 49
-2.69771653
 74
       0
 49
0.0
 74
       0
 49
-2.69771653
 74
       0
  0
LTYPE
  5
2A
100
AcDbSymbolTableRecord
100
AcDbLinetypeTableRecord
  2
DASHDOT
 70
      64
  3
CADPAC LINETYPE
 72
      65
 73
       4
 40
8.63269289
 49
4.31634644
 74
       0
 49
-2.15817322
 74
       0
 49
0.0
 74
       0
 49
-2.15817322
 74
       0
  0
LTYPE
  5
2B
100
AcDbSymbolTableRecord
100
AcDbLinetypeTableRecord
  2
DASHDOT2
 70
      64
  3
CADPAC LINETYPE
 72
      65
 73
       4
 40
6.47451967
 49
3.23725983
 74
       0
 49
-1.61862992
 74
       0
 49
0.0
 74
       0
 49
-1.61862992
 74
       0
  0
LTYPE
  5
2C
100
AcDbSymbolTableRecord
100
AcDbLinetypeTableRecord
  2
DIVIDEX2
 70
      64
  3
CADPAC LINETYPE
 72
      65
 73
       6
 40
13.48858264
 49
5.39543305
 74
       0
 49
-2.69771653
 74
       0
 49
0.0
 74
       0
 49
-2.69771653
 74
       0
 49
0.0
 74
       0
 49
-2.69771653
 74
       0
  0
LTYPE
  5
2D
100
AcDbSymbolTableRecord
100
AcDbLinetypeTableRecord
  2
DIVIDE
 70
      64
  3
CADPAC LINETYPE
 72
      65
 73
       6
 40
10.79086611
 49
4.31634644
 74
       0
 49
-2.15817322
 74
       0
 49
0.0
 74
       0
 49
-2.15817322
 74
       0
 49
0.0
 74
       0
 49
-2.15817322
 74
       0
  0
LTYPE
  5
2E
100
AcDbSymbolTableRecord
100
AcDbLinetypeTableRecord
  2
DIVIDE2
 70
      64
  3
CADPAC LINETYPE
 72
      65
 73
       6
 40
8.09314958
 49
3.23725983
 74
       0
 49
-1.61862992
 74
       0
 49
0.0
 74
       0
 49
-1.61862992
 74
       0
 49
0.0
 74
       0
 49
-1.61862992
 74
       0
  0
LTYPE
  5
2F
100
AcDbSymbolTableRecord
100
AcDbLinetypeTableRecord
  2
BORDERX2
 70
      64
  3
CADPAC LINETYPE
 72
      65
 73
       6
 40
18.88401569
 49
5.39543305
 74
       0
 49
-2.69771653
 74
       0
 49
5.39543305
 74
       0
 49
-2.69771653
 74
       0
 49
0.0
 74
       0
 49
-2.69771653
 74
       0
  0
LTYPE
  5
30
100
AcDbSymbolTableRecord
100
AcDbLinetypeTableRecord
  2
BORDER
 70
      64
  3
CADPAC LINETYPE
 72
      65
 73
       6
 40
15.10721255
 49
4.31634644
 74
       0
 49
-2.15817322
 74
       0
 49
4.31634644
 74
       0
 49
-2.15817322
 74
       0
 49
0.0
 74
       0
 49
-2.15817322
 74
       0
  0
LTYPE
  5
31
100
AcDbSymbolTableRecord
100
AcDbLinetypeTableRecord
  2
BORDER2
 70
      64
  3
CADPAC LINETYPE
 72
      65
 73
       6
 40
11.33040942
 49
3.23725983
 74
       0
 49
-1.61862992
 74
       0
 49
3.23725983
 74
       0
 49
-1.61862992
 74
       0
 49
0.0
 74
       0
 49
-1.61862992
 74
       0
  0
LTYPE
  5
32
100
AcDbSymbolTableRecord
100
AcDbLinetypeTableRecord
  2
PHANTOMX2
 70
      64
  3
CADPAC LINETYPE
 72
      65
 73
       6
 40
16.18629916
 49
5.39543305
 74
       0
 49
-2.15817322
 74
       0
 49
2.15817322
 74
       0
 49
-2.15817322
 74
       0
 49
2.15817322
 74
       0
 49
-2.15817322
 74
       0
  0
LTYPE
  5
33
100
AcDbSymbolTableRecord
100
AcDbLinetypeTableRecord
  2
PHANTOM
 70
      64
  3
CADPAC LINETYPE
 72
      65
 73
       6
 40
13.38067398
 49
4.31634644
 74
       0
 49
-2.15817322
 74
       0
 49
1.29490393
 74
       0
 49
-2.15817322
 74
       0
 49
1.29490393
 74
       0
 49
-2.15817322
 74
       0
  0
LTYPE
  5
34
100
AcDbSymbolTableRecord
100
AcDbLinetypeTableRecord
  2
PHANTOM2
 70
      64
  3
CADPAC LINETYPE
 72
      65
 73
       6
 40
11.43831808
 49
3.23725983
 74
       0
 49
-2.15817322
 74
       0
 49
0.86326929
 74
       0
 49
-2.15817322
 74
       0
 49
0.86326929
 74
       0
 49
-2.15817322
 74
       0
  0
LTYPE
  5
35
100
AcDbSymbolTableRecord
100
AcDbLinetypeTableRecord
  2
ACAD_ISO06W100
 70
      64
  3
CADPAC LINETYPE
 72
      65
 73
       8
 40
14.56766925
 49
5.39543305
 74
       0
 49
-2.69771653
 74
       0
 49
0.0
 74
       0
 49
-2.15817322
 74
       0
 49
0.0
 74
       0
 49
-2.15817322
 74
       0
 49
0.0
 74
       0
 49
-2.15817322
 74
       0
  0
LTYPE
  5
36
100
AcDbSymbolTableRecord
100
AcDbLinetypeTableRecord
  2
ACAD_ISO13W100
 70
      64
  3
CADPAC LINETYPE
 72
      65
 73
       8
 40
17.26538578
 49
4.31634644
 74
       0
 49
-2.15817322
 74
       0
 49
4.31634644
 74
       0
 49
-2.15817322
 74
       0
 49
0.0
 74
       0
 49
-2.15817322
 74
       0
 49
0.0
 74
       0
 49
-2.15817322
 74
       0
  0
LTYPE
  5
37
100
AcDbSymbolTableRecord
100
AcDbLinetypeTableRecord
  2
ACAD_ISO14W100
 70
      64
  3
CADPAC LINETYPE
 72
      65
 73
       8
 40
12.94903933
 49
4.31634644
 74
       0
 49
-2.15817322
 74
       0
 49
0.0
 74
       0
 49
-2.15817322
 74
       0
 49
0.0
 74
       0
 49
-2.15817322
 74
       0
 49
0.0
 74
       0
 49
-2.15817322
 74
       0
  0
ENDTAB
  0
TABLE
  2
LAYER
  5
2
100
AcDbSymbolTable
 70
       4
  0
LAYER
  5
14
100
AcDbSymbolTableRecord
100
AcDbLayerTableRecord
  2
0
 70
       0
 62
       7
  6
CONTINUOUS
  0
LAYER
  5
38
100
AcDbSymbolTableRecord
100
AcDbLayerTableRecord
  2
SLD-0_1
 70
       0
 62
       7
  6
CONTINUOUS
  0
LAYER
  5
39
100
AcDbSymbolTableRecord
100
AcDbLayerTableRecord
  2
SLD-0_0
 70
       0
 62
       7
  6
CONTINUOUS
  0
LAYER
  5
3A
100
AcDbSymbolTableRecord
100
AcDbLayerTableRecord
  2
SLD-0
 70
       0
 62
       7
  6
CONTINUOUS
  0
ENDTAB
  0
TABLE
  2
STYLE
  5
3
100
AcDbSymbolTable
 70
       1
  0
STYLE
  5
17
100
AcDbSymbolTableRecord
100
AcDbTextStyleTableRecord
  2
STANDARD
 70
       0
 40
0.0
 41
1.0
 50
0.0
 71
       0
 42
5.0
  3
txt.shx
  4
bigfont.shx
  0
ENDTAB
  0
TABLE
  2
VIEW
  5
5
100
AcDbSymbolTable
 70
       1
  0
VIEW
  5
3B
100
AcDbSymbolTableRecord
100
AcDbViewTableRecord
  2
QQQQ
 70
       0
 40
108.21557626
 10
0.0
 20
-1.25
 41
229.30590484
 11
0.0
 21
0.0
 31
1.0
 12
100.0
 22
100.0
 32
0.0
 42
50.0
 43
0.0
 44
0.0
 50
0.0
 71
       0
  0
ENDTAB
  0
TABLE
  2
UCS
  5
6
100
AcDbSymbolTable
 70
       0
  0
ENDTAB
  0
TABLE
  2
APPID
  5
8
100
AcDbSymbolTable
 70
       1
  0
APPID
  5
16
100
AcDbSymbolTableRecord
100
AcDbRegAppTableRecord
  2
ACAD
 70
       0
  0
ENDTAB
  0
TABLE
  2
DIMSTYLE
  5
9
100
AcDbSymbolTable
 70
       1
  0
DIMSTYLE
105
18
100
AcDbSymbolTableRecord
100
AcDbDimStyleTableRecord
  2
STANDARD
 70
       0
  3

  4

  5

  6

  7

 40
1.0
 41
0.18
 42
0.0625
 43
0.38
 44
0.18
 45
0.0
 46
0.0
 47
0.0
 48
0.0
 71
       0
 72
       0
 73
       1
 74
       1
 75
       0
 76
       0
 77
       0
 78
       0
140
0.18
141
0.09
142
0.0
143
25.4
144
1.0
145
0.0
146
1.0
147
0.09
170
       0
171
       2
172
       0
173
       0
174
       0
175
       0
176
       0
177
       0
178
       0
270
       2
271
       4
272
       4
273
       2
274
       2
275
       0
280
       0
281
       0
282
       0
283
       1
284
       0
285
       0
286
       0
287
       0
288
       0
340
17
  0
ENDTAB
  0
TABLE
  2
BLOCK_RECORD
  5
1
100
AcDbSymbolTable
 70
       9
  0
BLOCK_RECORD
  5
A
100
AcDbSymbolTableRecord
100
AcDbBlockTableRecord
  2
*MODEL_SPACE
  0
BLOCK_RECORD
  5
B
100
AcDbSymbolTableRecord
100
AcDbBlockTableRecord
  2
*PAPER_SPACE
  0
BLOCK_RECORD
  5
3C
100
AcDbSymbolTableRecord
100
AcDbBlockTableRecord
  2
GROUP_1
  0
BLOCK_RECORD
  5
3D
100
AcDbSymbolTableRecord
100
AcDbBlockTableRecord
  2
GROUP_2
  0
BLOCK_RECORD
  5
3E
100
AcDbSymbolTableRecord
100
AcDbBlockTableRecord
  2
GROUP_3
  0
BLOCK_RECORD
  5
3F
100
AcDbSymbolTableRecord
100
AcDbBlockTableRecord
  2
GROUP_4
  0
BLOCK_RECORD
  5
40
100
AcDbSymbolTableRecord
100
AcDbBlockTableRecord
  2
GROUP_5
  0
BLOCK_RECORD
  5
41
100
AcDbSymbolTableRecord
100
AcDbBlockTableRecord
  2
GROUP_6
  0
BLOCK_RECORD
  5
42
100
AcDbSymbolTableRecord
100
AcDbBlockTableRecord
  2
GROUP_7
  0
BLOCK_RECORD
  5
43
100
AcDbSymbolTableRecord
100
AcDbBlockTableRecord
  2
GROUP_8
  0
BLOCK_RECORD
  5
44
100
AcDbSymbolTableRecord
100
AcDbBlockTableRecord
  2
GROUP_9
  0
ENDTAB
  0
ENDSEC
  0
SECTION
  2
BLOCKS
  0
BLOCK
  5
D
100
AcDbEntity
  8
0
100
AcDbBlockBegin
  2
*MODEL_SPACE
 70
       0
 10
0.0
 20
0.0
 30
0.0
  3
*MODEL_SPACE
  1

  0
ENDBLK
  5
E
100
AcDbEntity
  8
0
100
AcDbBlockEnd
  0
BLOCK
  5
F
100
AcDbEntity
 67
       1
  8
0
100
AcDbBlockBegin
  2
*PAPER_SPACE
 70
       0
 10
0.0
 20
0.0
 30
0.0
  3
*PAPER_SPACE
  1

  0
ENDBLK
  5
10
100
AcDbEntity
 67
       1
  8
0
100
AcDbBlockEnd
  0
BLOCK
  5
45
100
AcDbEntity
  8
0
100
AcDbBlockBegin
  2
GROUP_1
 70
       0
 10
0.0
 20
0.0
 30
0.0
  3
GROUP_1
  1

  0
LINE
  5
46
100
AcDbEntity
  8
SLD-0
  6
CONTINUOUS
 62
       3
100
AcDbLine
 10
51.58121986
 20
36.36909123
 30
0.0
 11
51.60940444
 21
36.68756285
 31
0.0
  0
LINE
  5
47
100
AcDbEntity
  8
SLD-0
  6
CONTINUOUS
 62
       3
100
AcDbLine
 10
51.60940444
 20
36.68756285
 30
0.0
 11
51.6388162
 21
37.00592004
 31
0.0
  0
LINE
  5
48
100
AcDbEntity
  8
SLD-0
  6
CONTINUOUS
 62
       3
100
AcDbLine
 10
51.6388162
 20
37.00592004
 30
0.0
 11
51.66948026
 21
37.32415604
 31
0.0
  0
LINE
  5
49
100
AcDbEntity
  8
SLD-0
  6
CONTINUOUS
 62
       3
100
AcDbLine
 10
51.66948026
 20
37.32415604
 30
0.0
 11
51.70142174
 21
37.64226411
 31
0.0
  0
LINE
  5
4A
100
AcDbEntity
  8
SLD-0
  6
CONTINUOUS
 62
       3
100
AcDbLine
 10
51.70142174
 20
37.64226411
 30
0.0
 11
51.73466574
 21
37.96023751
 31
0.0
  0
LINE
  5
4B
100
AcDbEntity
  8
SLD-0
  6
CONTINUOUS
 62
       3
100
AcDbLine
 10
51.73466574
 20
37.96023751
 30
0.0
 11
51.7692374
 21
38.27806948
 31
0.0
  0
LINE
  5
4C
100
AcDbEntity
  8
SLD-0
  6
CONTINUOUS
 62
       3
100
AcDbLine
 10
51.7692374
 20
38.27806948
 30
0.0
 11
51.80516181
 21
38.59575328
 31
0.0
  0
LINE
  5
4D
100
AcDbEntity
  8
SLD-0
  6
CONTINUOUS
 62
       3
100
AcDbLine
 10
51.80516181
 20
38.59575328
 30
0.0
 11
51.8424641
 21
38.91328217
 31
0.0
  0
LINE
  5
4E
100
AcDbEntity
  8
SLD-0
  6
CONTINUOUS
 62
       3
100
AcDbLine
 10
51.8424641
 20
38.91328217
 30
0.0
 11
51.88116939
 21
39.23064939
 31
0.0
  0
LINE
  5
4F
100
AcDbEntity
  8
SLD-0
  6
CONTINUOUS
 62
       3
100
AcDbLine
 10
51.88116939
 20
39.23064939
 30
0.0
 11
51.92130278
 21
39.54784821
 31
0.0
  0
LINE
  5
50
100
AcDbEntity
  8
SLD-0
  6
CONTINUOUS
 62
       3
100
AcDbLine
 10
51.92130278
 20
39.54784821
 30
0.0
 11
51.9628894
 21
39.86487187
 31
0.0
  0
LINE
  5
51
100
AcDbEntity
  8
SLD-0
  6
CONTINUOUS
 62
       3
100
AcDbLine
 10
51.9628894
 20
39.86487187
 30
0.0
 11
52.00595435
 21
40.18171363
 31
0.0
  0
LINE
  5
52
100
AcDbEntity
  8
SLD-0
  6
CONTINUOUS
 62
       3
100
AcDbLine
 10
52.00595435
 20
40.18171363
 30
0.0
 11
52.05052276
 21
40.49836675
 31
0.0
  0
LINE
  5
53
100
AcDbEntity
  8
SLD-0
  6
CONTINUOUS
 62
       3
100
AcDbLine
 10
52.05052276
 20
40.49836675
 30
0.0
 11
52.09661974
 21
40.81482447
 31
0.0
  0
LINE
  5
54
100
AcDbEntity
  8
SLD-0
  6
CONTINUOUS
 62
       3
100
AcDbLine
 10
52.09661974
 20
40.81482447
 30
0.0
 11
52.14427041
 21
41.13108005
 31
0.0
  0
LINE
  5
55
100
AcDbEntity
  8
SLD-0
  6
CONTINUOUS
 62
       3
100
AcDbLine
 10
52.14427041
 20
41.13108005
 30
0.0
 11
52.19349988
 21
41.44712675
 31
0.0
  0
LINE
  5
56
100
AcDbEntity
  8
SLD-0
  6
CONTINUOUS
 62
       3
100
AcDbLine
 10
52.19349988
 20
41.44712675
 30
0.0
 11
52.24433326
 21
41.76295782
 31
0.0
  0
LINE
  5
57
100
AcDbEntity
  8
SLD-0
  6
CONTINUOUS
 62
       3
100
AcDbLine
 10
52.24433326
 20
41.76295782
 30
0.0
 11
52.29679567
 21
42.0785665
 31
0.0
  0
LINE
  5
58
100
AcDbEntity
  8
SLD-0
  6
CONTINUOUS
 62
       3
100
AcDbLine
 10
52.29679567
 20
42.0785665
 30
0.0
 11
52.35091223
 21
42.39394607
 31
0.0
  0
LINE
  5
59
100
AcDbEntity
  8
SLD-0
  6
CONTINUOUS
 62
       3
100
AcDbLine
 10
52.35091223
 20
42.39394607
 30
0.0
 11
52.40670806
 21
42.70908976
 31
0.0
  0
ENDBLK
  5
5A
100
AcDbEntity
  8
0
100
AcDbBlockEnd
  0
BLOCK
  5
5B
100
AcDbEntity
  8
0
100
AcDbBlockBegin
  2
GROUP_2
 70
       0
 10
0.0
 20
0.0
 30
0.0
  3
GROUP_2
  1

  0
LINE
  5
5C
100
AcDbEntity
  8
SLD-0
  6
CONTINUOUS
 62
       3
100
AcDbLine
 10
51.86237617
 20
39.07800644
 30
0.0
 11
51.87796413
 21
39.20474308
 31
0.0
  0
LINE
  5
5D
100
AcDbEntity
  8
SLD-0
  6
CONTINUOUS
 62
       3
100
AcDbLine
 10
51.87796413
 20
39.20474308
 30
0.0
 11
51.89335831
 21
39.32803134
 31
0.0
  0
LINE
  5
5E
100
AcDbEntity
  8
SLD-0
  6
CONTINUOUS
 62
       3
100
AcDbLine
 10
51.89335831
 20
39.32803134
 30
0.0
 11
51.90853924
 21
39.44783511
 31
0.0
  0
LINE
  5
5F
100
AcDbEntity
  8
SLD-0
  6
CONTINUOUS
 62
       3
100
AcDbLine
 10
51.90853924
 20
39.44783511
 30
0.0
 11
51.92348745
 21
39.56411828
 31
0.0
  0
LINE
  5
60
100
AcDbEntity
  8
SLD-0
  6
CONTINUOUS
 62
       3
100
AcDbLine
 10
51.92348745
 20
39.56411828
 30
0.0
 11
51.93818349
 21
39.67684474
 31
0.0
  0
LINE
  5
61
100
AcDbEntity
  8
SLD-0
  6
CONTINUOUS
 62
       3
100
AcDbLine
 10
51.93818349
 20
39.67684474
 30
0.0
 11
51.95260788
 21
39.78597835
 31
0.0
  0
LINE
  5
62
100
AcDbEntity
  8
SLD-0
  6
CONTINUOUS
 62
       3
100
AcDbLine
 10
51.95260788
 20
39.78597835
 30
0.0
 11
51.96674115
 21
39.89148302
 31
0.0
  0
LINE
  5
63
100
AcDbEntity
  8
SLD-0
  6
CONTINUOUS
 62
       3
100
AcDbLine
 10
51.96674115
 20
39.89148302
 30
0.0
 11
51.98056386
 21
39.99332263
 31
0.0
  0
LINE
  5
64
100
AcDbEntity
  8
SLD-0
  6
CONTINUOUS
 62
       3
100
AcDbLine
 10
51.98056386
 20
39.99332263
 30
0.0
 11
51.99405652
 21
40.09146105
 31
0.0
  0
LINE
  5
65
100
AcDbEntity
  8
SLD-0
  6
CONTINUOUS
 62
       3
100
AcDbLine
 10
51.99405652
 20
40.09146105
 30
0.0
 11
52.00719967
 21
40.18586219
 31
0.0
  0
LINE
  5
66
100
AcDbEntity
  8
SLD-0
  6
CONTINUOUS
 62
       3
100
AcDbLine
 10
52.00719967
 20
40.18586219
 30
0.0
 11
52.01997385
 21
40.27648991
 31
0.0
  0
LINE
  5
67
100
AcDbEntity
  8
SLD-0
  6
CONTINUOUS
 62
       3
100
AcDbLine
 10
52.01997385
 20
40.27648991
 30
0.0
 11
52.03235959
 21
40.36330812
 31
0.0
  0
LINE
  5
68
100
AcDbEntity
  8
SLD-0
  6
CONTINUOUS
 62
       3
100
AcDbLine
 10
52.03235959
 20
40.36330812
 30
0.0
 11
52.04433743
 21
40.44628068
 31
0.0
  0
LINE
  5
69
100
AcDbEntity
  8
SLD-0
  6
CONTINUOUS
 62
       3
100
AcDbLine
 10
52.04433743
 20
40.44628068
 30
0.0
 11
52.05588789
 21
40.52537149
 31
0.0
  0
LINE
  5
6A
100
AcDbEntity
  8
SLD-0
  6
CONTINUOUS
 62
       3
100
AcDbLine
 10
52.05588789
 20
40.52537149
 30
0.0
 11
52.06699152
 21
40.60054444
 31
0.0
  0
LINE
  5
6B
100
AcDbEntity
  8
SLD-0
  6
CONTINUOUS
 62
       3
100
AcDbLine
 10
52.06699152
 20
40.60054444
 30
0.0
 11
52.07762885
 21
40.6717634
 31
0.0
  0
LINE
  5
6C
100
AcDbEntity
  8
SLD-0
  6
CONTINUOUS
 62
       3
100
AcDbLine
 10
52.07762885
 20
40.6717634
 30
0.0
 11
52.08778041
 21
40.73899226
 31
0.0
  0
LINE
  5
6D
100
AcDbEntity
  8
SLD-0
  6
CONTINUOUS
 62
       3
100
AcDbLine
 10
52.08778041
 20
40.73899226
 30
0.0
 11
52.09742674
 21
40.80219491
 31
0.0
  0
LINE
  5
6E
100
AcDbEntity
  8
SLD-0
  6
CONTINUOUS
 62
       3
100
AcDbLine
 10
52.09742674
 20
40.80219491
 30
0.0
 11
52.10654837
 21
40.86133524
 31
0.0
  0
LINE
  5
6F
100
AcDbEntity
  8
SLD-0
  6
CONTINUOUS
 62
       3
100
AcDbLine
 10
52.10654837
 20
40.86133524
 30
0.0
 11
52.11512583
 21
40.91637712
 31
0.0
  0
ENDBLK
  5
70
100
AcDbEntity
  8
0
100
AcDbBlockEnd
  0
BLOCK
  5
71
100
AcDbEntity
  8
0
100
AcDbBlockBegin
  2
GROUP_3
 70
       0
 10
0.0
 20
0.0
 30
0.0
  3
GROUP_3
  1

  0
LINE
  5
72
100
AcDbEntity
  8
SLD-0
  6
CONTINUOUS
 62
       3
100
AcDbLine
 10
52.17976864
 20
39.20135494
 30
0.0
 11
52.16879697
 21
39.20670616
 31
0.0
  0
LINE
  5
73
100
AcDbEntity
  8
SLD-0
  6
CONTINUOUS
 62
       3
100
AcDbLine
 10
52.16879697
 20
39.20670616
 30
0.0
 11
52.15785804
 21
39.21204141
 31
0.0
  0
LINE
  5
74
100
AcDbEntity
  8
SLD-0
  6
CONTINUOUS
 62
       3
100
AcDbLine
 10
52.15785804
 20
39.21204141
 30
0.0
 11
52.14696469
 21
39.21735443
 31
0.0
  0
LINE
  5
75
100
AcDbEntity
  8
SLD-0
  6
CONTINUOUS
 62
       3
100
AcDbLine
 10
52.14696469
 20
39.21735443
 30
0.0
 11
52.13612979
 21
39.22263894
 31
0.0
  0
LINE
  5
76
100
AcDbEntity
  8
SLD-0
  6
CONTINUOUS
 62
       3
100
AcDbLine
 10
52.13612979
 20
39.22263894
 30
0.0
 11
52.12536617
 21
39.22788868
 31
0.0
  0
LINE
  5
77
100
AcDbEntity
  8
SLD-0
  6
CONTINUOUS
 62
       3
100
AcDbLine
 10
52.12536617
 20
39.22788868
 30
0.0
 11
52.11468669
 21
39.23309739
 31
0.0
  0
LINE
  5
78
100
AcDbEntity
  8
SLD-0
  6
CONTINUOUS
 62
       3
100
AcDbLine
 10
52.11468669
 20
39.23309739
 30
0.0
 11
52.10410419
 21
39.23825879
 31
0.0
  0
LINE
  5
79
100
AcDbEntity
  8
SLD-0
  6
CONTINUOUS
 62
       3
100
AcDbLine
 10
52.10410419
 20
39.23825879
 30
0.0
 11
52.09363153
 21
39.24336663
 31
0.0
  0
LINE
  5
7A
100
AcDbEntity
  8
SLD-0
  6
CONTINUOUS
 62
       3
100
AcDbLine
 10
52.09363153
 20
39.24336663
 30
0.0
 11
52.08328155
 21
39.24841463
 31
0.0
  0
LINE
  5
7B
100
AcDbEntity
  8
SLD-0
  6
CONTINUOUS
 62
       3
100
AcDbLine
 10
52.08328155
 20
39.24841463
 30
0.0
 11
52.07306709
 21
39.25339653
 31
0.0
  0
LINE
  5
7C
100
AcDbEntity
  8
SLD-0
  6
CONTINUOUS
 62
       3
100
AcDbLine
 10
52.07306709
 20
39.25339653
 30
0.0
 11
52.06300102
 21
39.25830606
 31
0.0
  0
LINE
  5
7D
100
AcDbEntity
  8
SLD-0
  6
CONTINUOUS
 62
       3
100
AcDbLine
 10
52.06300102
 20
39.25830606
 30
0.0
 11
52.05309617
 21
39.26313696
 31
0.0
  0
LINE
  5
7E
100
AcDbEntity
  8
SLD-0
  6
CONTINUOUS
 62
       3
100
AcDbLine
 10
52.05309617
 20
39.26313696
 30
0.0
 11
52.0433654
 21
39.26788295
 31
0.0
  0
LINE
  5
7F
100
AcDbEntity
  8
SLD-0
  6
CONTINUOUS
 62
       3
100
AcDbLine
 10
52.0433654
 20
39.26788295
 30
0.0
 11
52.03382156
 21
39.27253777
 31
0.0
  0
LINE
  5
80
100
AcDbEntity
  8
SLD-0
  6
CONTINUOUS
 62
       3
100
AcDbLine
 10
52.03382156
 20
39.27253777
 30
0.0
 11
52.02447748
 21
39.27709516
 31
0.0
  0
LINE
  5
81
100
AcDbEntity
  8
SLD-0
  6
CONTINUOUS
 62
       3
100
AcDbLine
 10
52.02447748
 20
39.27709516
 30
0.0
 11
52.01534603
 21
39.28154885
 31
0.0
  0
LINE
  5
82
100
AcDbEntity
  8
SLD-0
  6
CONTINUOUS
 62
       3
100
AcDbLine
 10
52.01534603
 20
39.28154885
 30
0.0
 11
52.00644005
 21
39.28589256
 31
0.0
  0
LINE
  5
83
100
AcDbEntity
  8
SLD-0
  6
CONTINUOUS
 62
       3
100
AcDbLine
 10
52.00644005
 20
39.28589256
 30
0.0
 11
51.99777239
 21
39.29012005
 31
0.0
  0
LINE
  5
84
100
AcDbEntity
  8
SLD-0
  6
CONTINUOUS
 62
       3
100
AcDbLine
 10
51.99777239
 20
39.29012005
 30
0.0
 11
51.9893559
 21
39.29422503
 31
0.0
  0
LINE
  5
85
100
AcDbEntity
  8
SLD-0
  6
CONTINUOUS
 62
       3
100
AcDbLine
 10
51.9893559
 20
39.29422503
 30
0.0
 11
51.98120342
 21
39.29820124
 31
0.0
  0
ENDBLK
  5
86
100
AcDbEntity
  8
0
100
AcDbBlockEnd
  0
BLOCK
  5
87
100
AcDbEntity
  8
0
100
AcDbBlockBegin
  2
GROUP_4
 70
       0
 10
0.0
 20
0.0
 30
0.0
  3
GROUP_4
  1

  0
LINE
  5
88
100
AcDbEntity
  8
SLD-0
  6
CONTINUOUS
 62
       3
100
AcDbLine
 10
51.98120342
 20
39.29820124
 30
0.0
 11
51.9741694
 21
39.30163196
 31
0.0
  0
LINE
  5
89
100
AcDbEntity
  8
SLD-0
  6
CONTINUOUS
 62
       3
100
AcDbLine
 10
51.9741694
 20
39.30163196
 30
0.0
 11
51.9673183
 21
39.30497346
 31
0.0
  0
LINE
  5
8A
100
AcDbEntity
  8
SLD-0
  6
CONTINUOUS
 62
       3
100
AcDbLine
 10
51.9673183
 20
39.30497346
 30
0.0
 11
51.96065015
 21
39.30822574
 31
0.0
  0
LINE
  5
8B
100
AcDbEntity
  8
SLD-0
  6
CONTINUOUS
 62
       3
100
AcDbLine
 10
51.96065015
 20
39.30822574
 30
0.0
 11
51.95416492
 21
39.31138879
 31
0.0
  0
LINE
  5
8C
100
AcDbEntity
  8
SLD-0
  6
CONTINUOUS
 62
       3
100
AcDbLine
 10
51.95416492
 20
39.31138879
 30
0.0
 11
51.94786263
 21
39.31446263
 31
0.0
  0
LINE
  5
8D
100
AcDbEntity
  8
SLD-0
  6
CONTINUOUS
 62
       3
100
AcDbLine
 10
51.94786263
 20
39.31446263
 30
0.0
 11
51.94174327
 21
39.31744724
 31
0.0
  0
LINE
  5
8E
100
AcDbEntity
  8
SLD-0
  6
CONTINUOUS
 62
       3
100
AcDbLine
 10
51.94174327
 20
39.31744724
 30
0.0
 11
51.93580685
 21
39.32034262
 31
0.0
  0
LINE
  5
8F
100
AcDbEntity
  8
SLD-0
  6
CONTINUOUS
 62
       3
100
AcDbLine
 10
51.93580685
 20
39.32034262
 30
0.0
 11
51.93005336
 21
39.32314879
 31
0.0
  0
LINE
  5
90
100
AcDbEntity
  8
SLD-0
  6
CONTINUOUS
 62
       3
100
AcDbLine
 10
51.93005336
 20
39.32314879
 30
0.0
 11
51.92448281
 21
39.32586573
 31
0.0
  0
LINE
  5
91
100
AcDbEntity
  8
SLD-0
  6
CONTINUOUS
 62
       3
100
AcDbLine
 10
51.92448281
 20
39.32586573
 30
0.0
 11
51.91909518
 21
39.32849345
 31
0.0
  0
LINE
  5
92
100
AcDbEntity
  8
SLD-0
  6
CONTINUOUS
 62
       3
100
AcDbLine
 10
51.91909518
 20
39.32849345
 30
0.0
 11
51.9138905
 21
39.33103194
 31
0.0
  0
LINE
  5
93
100
AcDbEntity
  8
SLD-0
  6
CONTINUOUS
 62
       3
100
AcDbLine
 10
51.9138905
 20
39.33103194
 30
0.0
 11
51.90886874
 21
39.33348122
 31
0.0
  0
LINE
  5
94
100
AcDbEntity
  8
SLD-0
  6
CONTINUOUS
 62
       3
100
AcDbLine
 10
51.90886874
 20
39.33348122
 30
0.0
 11
51.90402992
 21
39.33584127
 31
0.0
  0
LINE
  5
95
100
AcDbEntity
  8
SLD-0
  6
CONTINUOUS
 62
       3
100
AcDbLine
 10
51.90402992
 20
39.33584127
 30
0.0
 11
51.89937403
 21
39.3381121
 31
0.0
  0
LINE
  5
96
100
AcDbEntity
  8
SLD-0
  6
CONTINUOUS
 62
       3
100
AcDbLine
 10
51.89937403
 20
39.3381121
 30
0.0
 11
51.89490108
 21
39.3402937
 31
0.0
  0
ENDBLK
  5
97
100
AcDbEntity
  8
0
100
AcDbBlockEnd
  0
BLOCK
  5
98
100
AcDbEntity
  8
0
100
AcDbBlockBegin
  2
GROUP_5
 70
       0
 10
0.0
 20
0.0
 30
0.0
  3
GROUP_5
  1

  0
LINE
  5
99
100
AcDbEntity
  8
SLD-0
  6
CONTINUOUS
 62
       3
100
AcDbLine
 10
9.37836988
 20
17.48564444
 30
0.0
 11
9.45574329
 21
17.49958653
 31
0.0
  0
LINE
  5
9A
100
AcDbEntity
  8
SLD-0
  6
CONTINUOUS
 62
       3
100
AcDbLine
 10
9.45574329
 20
17.49958653
 30
0.0
 11
9.53302716
 21
17.51388286
 31
0.0
  0
LINE
  5
9B
100
AcDbEntity
  8
SLD-0
  6
CONTINUOUS
 62
       3
100
AcDbLine
 10
9.53302716
 20
17.51388286
 30
0.0
 11
9.61021973
 21
17.52854047
 31
0.0
  0
LINE
  5
9C
100
AcDbEntity
  8
SLD-0
  6
CONTINUOUS
 62
       3
100
AcDbLine
 10
9.61021973
 20
17.52854047
 30
0.0
 11
9.68731922
 21
17.54356638
 31
0.0
  0
LINE
  5
9D
100
AcDbEntity
  8
SLD-0
  6
CONTINUOUS
 62
       3
100
AcDbLine
 10
9.68731922
 20
17.54356638
 30
0.0
 11
9.76432388
 21
17.55896762
 31
0.0
  0
LINE
  5
9E
100
AcDbEntity
  8
SLD-0
  6
CONTINUOUS
 62
       3
100
AcDbLine
 10
9.76432388
 20
17.55896762
 30
0.0
 11
9.84123194
 21
17.57475121
 31
0.0
  0
LINE
  5
9F
100
AcDbEntity
  8
SLD-0
  6
CONTINUOUS
 62
       3
100
AcDbLine
 10
9.84123194
 20
17.57475121
 30
0.0
 11
9.91804163
 21
17.59092419
 31
0.0
  0
LINE
  5
A0
100
AcDbEntity
  8
SLD-0
  6
CONTINUOUS
 62
       3
100
AcDbLine
 10
9.91804163
 20
17.59092419
 30
0.0
 11
9.99475119
 21
17.60749357
 31
0.0
  0
LINE
  5
A1
100
AcDbEntity
  8
SLD-0
  6
CONTINUOUS
 62
       3
100
AcDbLine
 10
9.99475119
 20
17.60749357
 30
0.0
 11
10.07135885
 21
17.62446639
 31
0.0
  0
LINE
  5
A2
100
AcDbEntity
  8
SLD-0
  6
CONTINUOUS
 62
       3
100
AcDbLine
 10
10.07135885
 20
17.62446639
 30
0.0
 11
10.14786286
 21
17.64184968
 31
0.0
  0
LINE
  5
A3
100
AcDbEntity
  8
SLD-0
  6
CONTINUOUS
 62
       3
100
AcDbLine
 10
10.14786286
 20
17.64184968
 30
0.0
 11
10.22426144
 21
17.65965045
 31
0.0
  0
LINE
  5
A4
100
AcDbEntity
  8
SLD-0
  6
CONTINUOUS
 62
       3
100
AcDbLine
 10
10.22426144
 20
17.65965045
 30
0.0
 11
10.30055283
 21
17.67787573
 31
0.0
  0
LINE
  5
A5
100
AcDbEntity
  8
SLD-0
  6
CONTINUOUS
 62
       3
100
AcDbLine
 10
10.30055283
 20
17.67787573
 30
0.0
 11
10.37673527
 21
17.69653256
 31
0.0
  0
LINE
  5
A6
100
AcDbEntity
  8
SLD-0
  6
CONTINUOUS
 62
       3
100
AcDbLine
 10
10.37673527
 20
17.69653256
 30
0.0
 11
10.45280699
 21
17.71562796
 31
0.0
  0
LINE
  5
A7
100
AcDbEntity
  8
SLD-0
  6
CONTINUOUS
 62
       3
100
AcDbLine
 10
10.45280699
 20
17.71562796
 30
0.0
 11
10.52876623
 21
17.73516895
 31
0.0
  0
LINE
  5
A8
100
AcDbEntity
  8
SLD-0
  6
CONTINUOUS
 62
       3
100
AcDbLine
 10
10.52876623
 20
17.73516895
 30
0.0
 11
10.60463298
 21
17.75516806
 31
0.0
  0
LINE
  5
A9
100
AcDbEntity
  8
SLD-0
  6
CONTINUOUS
 62
       3
100
AcDbLine
 10
10.60463298
 20
17.75516806
 30
0.0
 11
10.6804174
 21
17.77564072
 31
0.0
  0
LINE
  5
AA
100
AcDbEntity
  8
SLD-0
  6
CONTINUOUS
 62
       3
100
AcDbLine
 10
10.6804174
 20
17.77564072
 30
0.0
 11
10.75610295
 21
17.79659829
 31
0.0
  0
LINE
  5
AB
100
AcDbEntity
  8
SLD-0
  6
CONTINUOUS
 62
       3
100
AcDbLine
 10
10.75610295
 20
17.79659829
 30
0.0
 11
10.8316731
 21
17.81805218
 31
0.0
  0
LINE
  5
AC
100
AcDbEntity
  8
SLD-0
  6
CONTINUOUS
 62
       3
100
AcDbLine
 10
10.8316731
 20
17.81805218
 30
0.0
 11
10.90711133
 21
17.84001374
 31
0.0
  0
LINE
  5
AD
100
AcDbEntity
  8
SLD-0
  6
CONTINUOUS
 62
       3
100
AcDbLine
 10
10.90711133
 20
17.84001374
 30
0.0
 11
10.9824011
 21
17.86249437
 31
0.0
  0
LINE
  5
AE
100
AcDbEntity
  8
SLD-0
  6
CONTINUOUS
 62
       3
100
AcDbLine
 10
10.9824011
 20
17.86249437
 30
0.0
 11
11.05752587
 21
17.88550544
 31
0.0
  0
LINE
  5
AF
100
AcDbEntity
  8
SLD-0
  6
CONTINUOUS
 62
       3
100
AcDbLine
 10
11.05752587
 20
17.88550544
 30
0.0
 11
11.13246911
 21
17.90905833
 31
0.0
  0
LINE
  5
B0
100
AcDbEntity
  8
SLD-0
  6
CONTINUOUS
 62
       3
100
AcDbLine
 10
11.13246911
 20
17.90905833
 30
0.0
 11
11.2072143
 21
17.93316442
 31
0.0
  0
LINE
  5
B1
100
AcDbEntity
  8
SLD-0
  6
CONTINUOUS
 62
       3
100
AcDbLine
 10
11.2072143
 20
17.93316442
 30
0.0
 11
11.2817449
 21
17.9578351
 31
0.0
  0
LINE
  5
B2
100
AcDbEntity
  8
SLD-0
  6
CONTINUOUS
 62
       3
100
AcDbLine
 10
11.2817449
 20
17.9578351
 30
0.0
 11
11.35604438
 21
17.98308173
 31
0.0
  0
LINE
  5
B3
100
AcDbEntity
  8
SLD-0
  6
CONTINUOUS
 62
       3
100
AcDbLine
 10
11.35604438
 20
17.98308173
 30
0.0
 11
11.4300962
 21
18.00891571
 31
0.0
  0
LINE
  5
B4
100
AcDbEntity
  8
SLD-0
  6
CONTINUOUS
 62
       3
100
AcDbLine
 10
11.4300962
 20
18.00891571
 30
0.0
 11
11.50388384
 21
18.03534841
 31
0.0
  0
LINE
  5
B5
100
AcDbEntity
  8
SLD-0
  6
CONTINUOUS
 62
       3
100
AcDbLine
 10
11.50388384
 20
18.03534841
 30
0.0
 11
11.57739076
 21
18.0623912
 31
0.0
  0
LINE
  5
B6
100
AcDbEntity
  8
SLD-0
  6
CONTINUOUS
 62
       3
100
AcDbLine
 10
11.57739076
 20
18.0623912
 30
0.0
 11
11.65060043
 21
18.09005548
 31
0.0
  0
LINE
  5
B7
100
AcDbEntity
  8
SLD-0
  6
CONTINUOUS
 62
       3
100
AcDbLine
 10
11.65060043
 20
18.09005548
 30
0.0
 11
11.72350502
 21
18.11833533
 31
0.0
  0
LINE
  5
B8
100
AcDbEntity
  8
SLD-0
  6
CONTINUOUS
 62
       3
100
AcDbLine
 10
11.72350502
 20
18.11833533
 30
0.0
 11
11.79609463
 21
18.14724348
 31
0.0
  0
LINE
  5
B9
100
AcDbEntity
  8
SLD-0
  6
CONTINUOUS
 62
       3
100
AcDbLine
 10
11.79609463
 20
18.14724348
 30
0.0
 11
11.86834958
 21
18.17681928
 31
0.0
  0
LINE
  5
BA
100
AcDbEntity
  8
SLD-0
  6
CONTINUOUS
 62
       3
100
AcDbLine
 10
11.86834958
 20
18.17681928
 30
0.0
 11
11.94025018
 21
18.20710205
 31
0.0
  0
LINE
  5
BB
100
AcDbEntity
  8
SLD-0
  6
CONTINUOUS
 62
       3
100
AcDbLine
 10
11.94025018
 20
18.20710205
 30
0.0
 11
12.01177679
 21
18.23813114
 31
0.0
  0
LINE
  5
BC
100
AcDbEntity
  8
SLD-0
  6
CONTINUOUS
 62
       3
100
AcDbLine
 10
12.01177679
 20
18.23813114
 30
0.0
 11
12.08290971
 21
18.26994586
 31
0.0
  0
LINE
  5
BD
100
AcDbEntity
  8
SLD-0
  6
CONTINUOUS
 62
       3
100
AcDbLine
 10
12.08290971
 20
18.26994586
 30
0.0
 11
12.15362927
 21
18.30258557
 31
0.0
  0
LINE
  5
BE
100
AcDbEntity
  8
SLD-0
  6
CONTINUOUS
 62
       3
100
AcDbLine
 10
12.15362927
 20
18.30258557
 30
0.0
 11
12.22391581
 21
18.33608959
 31
0.0
  0
LINE
  5
BF
100
AcDbEntity
  8
SLD-0
  6
CONTINUOUS
 62
       3
100
AcDbLine
 10
12.22391581
 20
18.33608959
 30
0.0
 11
12.29374966
 21
18.37049725
 31
0.0
  0
LINE
  5
C0
100
AcDbEntity
  8
SLD-0
  6
CONTINUOUS
 62
       3
100
AcDbLine
 10
12.29374966
 20
18.37049725
 30
0.0
 11
12.36311113
 21
18.40584789
 31
0.0
  0
LINE
  5
C1
100
AcDbEntity
  8
SLD-0
  6
CONTINUOUS
 62
       3
100
AcDbLine
 10
12.36311113
 20
18.40584789
 30
0.0
 11
12.43198056
 21
18.44218085
 31
0.0
  0
LINE
  5
C2
100
AcDbEntity
  8
SLD-0
  6
CONTINUOUS
 62
       3
100
AcDbLine
 10
12.43198056
 20
18.44218085
 30
0.0
 11
12.50033827
 21
18.47953546
 31
0.0
  0
LINE
  5
C3
100
AcDbEntity
  8
SLD-0
  6
CONTINUOUS
 62
       3
100
AcDbLine
 10
12.50033827
 20
18.47953546
 30
0.0
 11
12.56816459
 21
18.51795105
 31
0.0
  0
LINE
  5
C4
100
AcDbEntity
  8
SLD-0
  6
CONTINUOUS
 62
       3
100
AcDbLine
 10
12.56816459
 20
18.51795105
 30
0.0
 11
12.63543986
 21
18.55746696
 31
0.0
  0
LINE
  5
C5
100
AcDbEntity
  8
SLD-0
  6
CONTINUOUS
 62
       3
100
AcDbLine
 10
12.63543986
 20
18.55746696
 30
0.0
 11
12.70214439
 21
18.59812252
 31
0.0
  0
LINE
  5
C6
100
AcDbEntity
  8
SLD-0
  6
CONTINUOUS
 62
       3
100
AcDbLine
 10
12.70214439
 20
18.59812252
 30
0.0
 11
12.76833022
 21
18.64005723
 31
0.0
  0
LINE
  5
C7
100
AcDbEntity
  8
SLD-0
  6
CONTINUOUS
 62
       3
100
AcDbLine
 10
12.76833022
 20
18.64005723
 30
0.0
 11
12.83394708
 21
18.68340311
 31
0.0
  0
LINE
  5
C8
100
AcDbEntity
  8
SLD-0
  6
CONTINUOUS
 62
       3
100
AcDbLine
 10
12.83394708
 20
18.68340311
 30
0.0
 11
12.89882177
 21
18.72818833
 31
0.0
  0
LINE
  5
C9
100
AcDbEntity
  8
SLD-0
  6
CONTINUOUS
 62
       3
100
AcDbLine
 10
12.89882177
 20
18.72818833
 30
0.0
 11
12.96278111
 21
18.77444102
 31
0.0
  0
LINE
  5
CA
100
AcDbEntity
  8
SLD-0
  6
CONTINUOUS
 62
       3
100
AcDbLine
 10
12.96278111
 20
18.77444102
 30
0.0
 11
13.02565192
 21
18.82218933
 31
0.0
  0
LINE
  5
CB
100
AcDbEntity
  8
SLD-0
  6
CONTINUOUS
 62
       3
100
AcDbLine
 10
13.02565192
 20
18.82218933
 30
0.0
 11
13.08726101
 21
18.87146142
 31
0.0
  0
LINE
  5
CC
100
AcDbEntity
  8
SLD-0
  6
CONTINUOUS
 62
       3
100
AcDbLine
 10
13.08726101
 20
18.87146142
 30
0.0
 11
13.14743521
 21
18.92228541
 31
0.0
  0
LINE
  5
CD
100
AcDbEntity
  8
SLD-0
  6
CONTINUOUS
 62
       3
100
AcDbLine
 10
13.14743521
 20
18.92228541
 30
0.0
 11
13.20601262
 21
18.97467667
 31
0.0
  0
LINE
  5
CE
100
AcDbEntity
  8
SLD-0
  6
CONTINUOUS
 62
       3
100
AcDbLine
 10
13.20601262
 20
18.97467667
 30
0.0
 11
13.26287347
 21
19.02864865
 31
0.0
  0
LINE
  5
CF
100
AcDbEntity
  8
SLD-0
  6
CONTINUOUS
 62
       3
100
AcDbLine
 10
13.26287347
 20
19.02864865
 30
0.0
 11
13.31781925
 21
19.08437545
 31
0.0
  0
LINE
  5
D0
100
AcDbEntity
  8
SLD-0
  6
CONTINUOUS
 62
       3
100
AcDbLine
 10
13.31781925
 20
19.08437545
 30
0.0
 11
13.37063853
 21
19.14205089
 31
0.0
  0
LINE
  5
D1
100
AcDbEntity
  8
SLD-0
  6
CONTINUOUS
 62
       3
100
AcDbLine
 10
13.37063853
 20
19.14205089
 30
0.0
 11
13.42111991
 21
19.2018688
 31
0.0
  0
LINE
  5
D2
100
AcDbEntity
  8
SLD-0
  6
CONTINUOUS
 62
       3
100
AcDbLine
 10
13.42111991
 20
19.2018688
 30
0.0
 11
13.46905198
 21
19.26402297
 31
0.0
  0
LINE
  5
D3
100
AcDbEntity
  8
SLD-0
  6
CONTINUOUS
 62
       3
100
AcDbLine
 10
13.46905198
 20
19.26402297
 30
0.0
 11
13.51422332
 21
19.32870724
 31
0.0
  0
LINE
  5
D4
100
AcDbEntity
  8
SLD-0
  6
CONTINUOUS
 62
       3
100
AcDbLine
 10
13.51422332
 20
19.32870724
 30
0.0
 11
13.55642251
 21
19.39611541
 31
0.0
  0
ENDBLK
  5
D5
100
AcDbEntity
  8
0
100
AcDbBlockEnd
  0
BLOCK
  5
D6
100
AcDbEntity
  8
0
100
AcDbBlockBegin
  2
GROUP_6
 70
       0
 10
0.0
 20
0.0
 30
0.0
  3
GROUP_6
  1

  0
LINE
  5
D7
100
AcDbEntity
  8
SLD-0
  6
CONTINUOUS
 62
       3
100
AcDbLine
 10
52.10202295
 20
17.4856445
 30
0.0
 11
52.04249438
 21
17.89250548
 31
0.0
  0
LINE
  5
D8
100
AcDbEntity
  8
SLD-0
  6
CONTINUOUS
 62
       3
100
AcDbLine
 10
52.04249438
 20
17.89250548
 30
0.0
 11
51.98537178
 21
18.29962392
 31
0.0
  0
LINE
  5
D9
100
AcDbEntity
  8
SLD-0
  6
CONTINUOUS
 62
       3
100
AcDbLine
 10
51.98537178
 20
18.29962392
 30
0.0
 11
51.93062893
 21
18.70699175
 31
0.0
  0
LINE
  5
DA
100
AcDbEntity
  8
SLD-0
  6
CONTINUOUS
 62
       3
100
AcDbLine
 10
51.93062893
 20
18.70699175
 30
0.0
 11
51.87823962
 21
19.11460089
 31
0.0
  0
LINE
  5
DB
100
AcDbEntity
  8
SLD-0
  6
CONTINUOUS
 62
       3
100
AcDbLine
 10
51.87823962
 20
19.11460089
 30
0.0
 11
51.82817766
 21
19.52244325
 31
0.0
  0
LINE
  5
DC
100
AcDbEntity
  8
SLD-0
  6
CONTINUOUS
 62
       3
100
AcDbLine
 10
51.82817766
 20
19.52244325
 30
0.0
 11
51.78041682
 21
19.93051074
 31
0.0
  0
LINE
  5
DD
100
AcDbEntity
  8
SLD-0
  6
CONTINUOUS
 62
       3
100
AcDbLine
 10
51.78041682
 20
19.93051074
 30
0.0
 11
51.73493089
 21
20.3387953
 31
0.0
  0
LINE
  5
DE
100
AcDbEntity
  8
SLD-0
  6
CONTINUOUS
 62
       3
100
AcDbLine
 10
51.73493089
 20
20.3387953
 30
0.0
 11
51.69169368
 21
20.74728883
 31
0.0
  0
LINE
  5
DF
100
AcDbEntity
  8
SLD-0
  6
CONTINUOUS
 62
       3
100
AcDbLine
 10
51.69169368
 20
20.74728883
 30
0.0
 11
51.65067897
 21
21.15598325
 31
0.0
  0
LINE
  5
E0
100
AcDbEntity
  8
SLD-0
  6
CONTINUOUS
 62
       3
100
AcDbLine
 10
51.65067897
 20
21.15598325
 30
0.0
 11
51.61186055
 21
21.56487048
 31
0.0
  0
LINE
  5
E1
100
AcDbEntity
  8
SLD-0
  6
CONTINUOUS
 62
       3
100
AcDbLine
 10
51.61186055
 20
21.56487048
 30
0.0
 11
51.57521221
 21
21.97394245
 31
0.0
  0
LINE
  5
E2
100
AcDbEntity
  8
SLD-0
  6
CONTINUOUS
 62
       3
100
AcDbLine
 10
51.57521221
 20
21.97394245
 30
0.0
 11
51.54070775
 21
22.38319106
 31
0.0
  0
LINE
  5
E3
100
AcDbEntity
  8
SLD-0
  6
CONTINUOUS
 62
       3
100
AcDbLine
 10
51.54070775
 20
22.38319106
 30
0.0
 11
51.50832095
 21
22.79260824
 31
0.0
  0
LINE
  5
E4
100
AcDbEntity
  8
SLD-0
  6
CONTINUOUS
 62
       3
100
AcDbLine
 10
51.50832095
 20
22.79260824
 30
0.0
 11
51.4780256
 21
23.2021859
 31
0.0
  0
LINE
  5
E5
100
AcDbEntity
  8
SLD-0
  6
CONTINUOUS
 62
       3
100
AcDbLine
 10
51.4780256
 20
23.2021859
 30
0.0
 11
51.44979551
 21
23.61191597
 31
0.0
  0
LINE
  5
E6
100
AcDbEntity
  8
SLD-0
  6
CONTINUOUS
 62
       3
100
AcDbLine
 10
51.44979551
 20
23.61191597
 30
0.0
 11
51.42360445
 21
24.02179035
 31
0.0
  0
LINE
  5
E7
100
AcDbEntity
  8
SLD-0
  6
CONTINUOUS
 62
       3
100
AcDbLine
 10
51.42360445
 20
24.02179035
 30
0.0
 11
51.39942622
 21
24.43180097
 31
0.0
  0
LINE
  5
E8
100
AcDbEntity
  8
SLD-0
  6
CONTINUOUS
 62
       3
100
AcDbLine
 10
51.39942622
 20
24.43180097
 30
0.0
 11
51.37723461
 21
24.84193975
 31
0.0
  0
LINE
  5
E9
100
AcDbEntity
  8
SLD-0
  6
CONTINUOUS
 62
       3
100
AcDbLine
 10
51.37723461
 20
24.84193975
 30
0.0
 11
51.35702615
 21
25.25218915
 31
0.0
  0
LINE
  5
EA
100
AcDbEntity
  8
SLD-0
  6
CONTINUOUS
 62
       3
100
AcDbLine
 10
51.35702615
 20
25.25218915
 30
0.0
 11
51.33882546
 21
25.66252833
 31
0.0
  0
LINE
  5
EB
100
AcDbEntity
  8
SLD-0
  6
CONTINUOUS
 62
       3
100
AcDbLine
 10
51.33882546
 20
25.66252833
 30
0.0
 11
51.32263912
 21
26.0729492
 31
0.0
  0
LINE
  5
EC
100
AcDbEntity
  8
SLD-0
  6
CONTINUOUS
 62
       3
100
AcDbLine
 10
51.32263912
 20
26.0729492
 30
0.0
 11
51.30847358
 21
26.48344377
 31
0.0
  0
LINE
  5
ED
100
AcDbEntity
  8
SLD-0
  6
CONTINUOUS
 62
       3
100
AcDbLine
 10
51.30847358
 20
26.48344377
 30
0.0
 11
51.29633526
 21
26.894004
 31
0.0
  0
LINE
  5
EE
100
AcDbEntity
  8
SLD-0
  6
CONTINUOUS
 62
       3
100
AcDbLine
 10
51.29633526
 20
26.894004
 30
0.0
 11
51.28623061
 21
27.30462188
 31
0.0
  0
LINE
  5
EF
100
AcDbEntity
  8
SLD-0
  6
CONTINUOUS
 62
       3
100
AcDbLine
 10
51.28623061
 20
27.30462188
 30
0.0
 11
51.27816607
 21
27.71528941
 31
0.0
  0
LINE
  5
F0
100
AcDbEntity
  8
SLD-0
  6
CONTINUOUS
 62
       3
100
AcDbLine
 10
51.27816607
 20
27.71528941
 30
0.0
 11
51.27214807
 21
28.12599857
 31
0.0
  0
LINE
  5
F1
100
AcDbEntity
  8
SLD-0
  6
CONTINUOUS
 62
       3
100
AcDbLine
 10
51.27214807
 20
28.12599857
 30
0.0
 11
51.26818305
 21
28.53674135
 31
0.0
  0
LINE
  5
F2
100
AcDbEntity
  8
SLD-0
  6
CONTINUOUS
 62
       3
100
AcDbLine
 10
51.26818305
 20
28.53674135
 30
0.0
 11
51.26627746
 21
28.94750972
 31
0.0
  0
LINE
  5
F3
100
AcDbEntity
  8
SLD-0
  6
CONTINUOUS
 62
       3
100
AcDbLine
 10
51.26627746
 20
28.94750972
 30
0.0
 11
51.26643773
 21
29.35829569
 31
0.0
  0
LINE
  5
F4
100
AcDbEntity
  8
SLD-0
  6
CONTINUOUS
 62
       3
100
AcDbLine
 10
51.26643773
 20
29.35829569
 30
0.0
 11
51.26867029
 21
29.76909123
 31
0.0
  0
ENDBLK
  5
F5
100
AcDbEntity
  8
0
100
AcDbBlockEnd
  0
BLOCK
  5
F6
100
AcDbEntity
  8
0
100
AcDbBlockBegin
  2
GROUP_7
 70
       0
 10
0.0
 20
0.0
 30
0.0
  3
GROUP_7
  1

  0
LINE
  5
F7
100
AcDbEntity
  8
SLD-0
  6
CONTINUOUS
 62
       3
100
AcDbLine
 10
-2.13976484
 20
19.39611541
 30
0.0
 11
-2.09770303
 21
19.32894763
 31
0.0
  0
LINE
  5
F8
100
AcDbEntity
  8
SLD-0
  6
CONTINUOUS
 62
       3
100
AcDbLine
 10
-2.09770303
 20
19.32894763
 30
0.0
 11
-2.05253099
 21
19.26429436
 31
0.0
  0
LINE
  5
F9
100
AcDbEntity
  8
SLD-0
  6
CONTINUOUS
 62
       3
100
AcDbLine
 10
-2.05253099
 20
19.26429436
 30
0.0
 11
-2.00447706
 21
19.20200405
 31
0.0
  0
LINE
  5
FA
100
AcDbEntity
  8
SLD-0
  6
CONTINUOUS
 62
       3
100
AcDbLine
 10
-2.00447706
 20
19.20200405
 30
0.0
 11
-1.95376956
 21
19.14192518
 31
0.0
  0
LINE
  5
FB
100
AcDbEntity
  8
SLD-0
  6
CONTINUOUS
 62
       3
100
AcDbLine
 10
-1.95376956
 20
19.14192518
 30
0.0
 11
-1.90063684
 21
19.0839062
 31
0.0
  0
LINE
  5
FC
100
AcDbEntity
  8
SLD-0
  6
CONTINUOUS
 62
       3
100
AcDbLine
 10
-1.90063684
 20
19.0839062
 30
0.0
 11
-1.84530722
 21
19.02779559
 31
0.0
  0
LINE
  5
FD
100
AcDbEntity
  8
SLD-0
  6
CONTINUOUS
 62
       3
100
AcDbLine
 10
-1.84530722
 20
19.02779559
 30
0.0
 11
-1.78800903
 21
18.9734418
 31
0.0
  0
LINE
  5
FE
100
AcDbEntity
  8
SLD-0
  6
CONTINUOUS
 62
       3
100
AcDbLine
 10
-1.78800903
 20
18.9734418
 30
0.0
 11
-1.7290114
 21
18.9207433
 31
0.0
  0
LINE
  5
FF
100
AcDbEntity
  8
SLD-0
  6
CONTINUOUS
 62
       3
100
AcDbLine
 10
-1.7290114
 20
18.9207433
 30
0.0
 11
-1.66872837
 21
18.8698652
 31
0.0
  0
LINE
  5
100
100
AcDbEntity
  8
SLD-0
  6
CONTINUOUS
 62
       3
100
AcDbLine
 10
-1.66872837
 20
18.8698652
 30
0.0
 11
-1.60727834
 21
18.82074835
 31
0.0
  0
LINE
  5
101
100
AcDbEntity
  8
SLD-0
  6
CONTINUOUS
 62
       3
100
AcDbLine
 10
-1.60727834
 20
18.82074835
 30
0.0
 11
-1.54473238
 21
18.77328543
 31
0.0
  0
LINE
  5
102
100
AcDbEntity
  8
SLD-0
  6
CONTINUOUS
 62
       3
100
AcDbLine
 10
-1.54473238
 20
18.77328543
 30
0.0
 11
-1.48116154
 21
18.72736913
 31
0.0
  0
LINE
  5
103
100
AcDbEntity
  8
SLD-0
  6
CONTINUOUS
 62
       3
100
AcDbLine
 10
-1.48116154
 20
18.72736913
 30
0.0
 11
-1.41663689
 21
18.68289213
 31
0.0
  0
LINE
  5
104
100
AcDbEntity
  8
SLD-0
  6
CONTINUOUS
 62
       3
100
AcDbLine
 10
-1.41663689
 20
18.68289213
 30
0.0
 11
-1.35122948
 21
18.63974712
 31
0.0
  0
LINE
  5
105
100
AcDbEntity
  8
SLD-0
  6
CONTINUOUS
 62
       3
100
AcDbLine
 10
-1.35122948
 20
18.63974712
 30
0.0
 11
-1.28501037
 21
18.59782678
 31
0.0
  0
LINE
  5
106
100
AcDbEntity
  8
SLD-0
  6
CONTINUOUS
 62
       3
100
AcDbLine
 10
-1.28501037
 20
18.59782678
 30
0.0
 11
-1.21803298
 21
18.55703367
 31
0.0
  0
LINE
  5
107
100
AcDbEntity
  8
SLD-0
  6
CONTINUOUS
 62
       3
100
AcDbLine
 10
-1.21803298
 20
18.55703367
 30
0.0
 11
-1.15033341
 21
18.51732293
 31
0.0
  0
LINE
  5
108
100
AcDbEntity
  8
SLD-0
  6
CONTINUOUS
 62
       3
100
AcDbLine
 10
-1.15033341
 20
18.51732293
 30
0.0
 11
-1.08195678
 21
18.47866616
 31
0.0
  0
LINE
  5
109
100
AcDbEntity
  8
SLD-0
  6
CONTINUOUS
 62
       3
100
AcDbLine
 10
-1.08195678
 20
18.47866616
 30
0.0
 11
-1.01294817
 21
18.44103494
 31
0.0
  0
LINE
  5
10A
100
AcDbEntity
  8
SLD-0
  6
CONTINUOUS
 62
       3
100
AcDbLine
 10
-1.01294817
 20
18.44103494
 30
0.0
 11
-0.94335269
 21
18.40440087
 31
0.0
  0
LINE
  5
10B
100
AcDbEntity
  8
SLD-0
  6
CONTINUOUS
 62
       3
100
AcDbLine
 10
-0.94335269
 20
18.40440087
 30
0.0
 11
-0.87321544
 21
18.36873553
 31
0.0
  0
LINE
  5
10C
100
AcDbEntity
  8
SLD-0
  6
CONTINUOUS
 62
       3
100
AcDbLine
 10
-0.87321544
 20
18.36873553
 30
0.0
 11
-0.80258152
 21
18.33401051
 31
0.0
  0
LINE
  5
10D
100
AcDbEntity
  8
SLD-0
  6
CONTINUOUS
 62
       3
100
AcDbLine
 10
-0.80258152
 20
18.33401051
 30
0.0
 11
-0.73149605
 21
18.3001974
 31
0.0
  0
LINE
  5
10E
100
AcDbEntity
  8
SLD-0
  6
CONTINUOUS
 62
       3
100
AcDbLine
 10
-0.73149605
 20
18.3001974
 30
0.0
 11
-0.6600041
 21
18.26726779
 31
0.0
  0
LINE
  5
10F
100
AcDbEntity
  8
SLD-0
  6
CONTINUOUS
 62
       3
100
AcDbLine
 10
-0.6600041
 20
18.26726779
 30
0.0
 11
-0.5881508
 21
18.23519326
 31
0.0
  0
LINE
  5
110
100
AcDbEntity
  8
SLD-0
  6
CONTINUOUS
 62
       3
100
AcDbLine
 10
-0.5881508
 20
18.23519326
 30
0.0
 11
-0.51598124
 21
18.20394541
 31
0.0
  0
LINE
  5
111
100
AcDbEntity
  8
SLD-0
  6
CONTINUOUS
 62
       3
100
AcDbLine
 10
-0.51598124
 20
18.20394541
 30
0.0
 11
-0.44354052
 21
18.17349582
 31
0.0
  0
LINE
  5
112
100
AcDbEntity
  8
SLD-0
  6
CONTINUOUS
 62
       3
100
AcDbLine
 10
-0.44354052
 20
18.17349582
 30
0.0
 11
-0.37087375
 21
18.14381609
 31
0.0
  0
LINE
  5
113
100
AcDbEntity
  8
SLD-0
  6
CONTINUOUS
 62
       3
100
AcDbLine
 10
-0.37087375
 20
18.14381609
 30
0.0
 11
-0.29802603
 21
18.11487779
 31
0.0
  0
LINE
  5
114
100
AcDbEntity
  8
SLD-0
  6
CONTINUOUS
 62
       3
100
AcDbLine
 10
-0.29802603
 20
18.11487779
 30
0.0
 11
-0.22504245
 21
18.08665253
 31
0.0
  0
LINE
  5
115
100
AcDbEntity
  8
SLD-0
  6
CONTINUOUS
 62
       3
100
AcDbLine
 10
-0.22504245
 20
18.08665253
 30
0.0
 11
-0.15190514
 21
18.05910309
 31
0.0
  0
LINE
  5
116
100
AcDbEntity
  8
SLD-0
  6
CONTINUOUS
 62
       3
100
AcDbLine
 10
-0.15190514
 20
18.05910309
 30
0.0
 11
-0.07856927
 21
18.03220101
 31
0.0
  0
LINE
  5
117
100
AcDbEntity
  8
SLD-0
  6
CONTINUOUS
 62
       3
100
AcDbLine
 10
-0.07856927
 20
18.03220101
 30
0.0
 11
-0.00503952
 21
18.00593101
 31
0.0
  0
LINE
  5
118
100
AcDbEntity
  8
SLD-0
  6
CONTINUOUS
 62
       3
100
AcDbLine
 10
-0.00503952
 20
18.00593101
 30
0.0
 11
0.06867944
 21
17.9802778
 31
0.0
  0
LINE
  5
119
100
AcDbEntity
  8
SLD-0
  6
CONTINUOUS
 62
       3
100
AcDbLine
 10
0.06867944
 20
17.9802778
 30
0.0
 11
0.14258294
 21
17.95522609
 31
0.0
  0
LINE
  5
11A
100
AcDbEntity
  8
SLD-0
  6
CONTINUOUS
 62
       3
100
AcDbLine
 10
0.14258294
 20
17.95522609
 30
0.0
 11
0.21666629
 21
17.93076059
 31
0.0
  0
LINE
  5
11B
100
AcDbEntity
  8
SLD-0
  6
CONTINUOUS
 62
       3
100
AcDbLine
 10
0.21666629
 20
17.93076059
 30
0.0
 11
0.29092482
 21
17.90686601
 31
0.0
  0
LINE
  5
11C
100
AcDbEntity
  8
SLD-0
  6
CONTINUOUS
 62
       3
100
AcDbLine
 10
0.29092482
 20
17.90686601
 30
0.0
 11
0.36535386
 21
17.88352707
 31
0.0
  0
LINE
  5
11D
100
AcDbEntity
  8
SLD-0
  6
CONTINUOUS
 62
       3
100
AcDbLine
 10
0.36535386
 20
17.88352707
 30
0.0
 11
0.43994873
 21
17.86072846
 31
0.0
  0
LINE
  5
11E
100
AcDbEntity
  8
SLD-0
  6
CONTINUOUS
 62
       3
100
AcDbLine
 10
0.43994873
 20
17.86072846
 30
0.0
 11
0.51470476
 21
17.83845491
 31
0.0
  0
LINE
  5
11F
100
AcDbEntity
  8
SLD-0
  6
CONTINUOUS
 62
       3
100
AcDbLine
 10
0.51470476
 20
17.83845491
 30
0.0
 11
0.58961727
 21
17.81669113
 31
0.0
  0
LINE
  5
120
100
AcDbEntity
  8
SLD-0
  6
CONTINUOUS
 62
       3
100
AcDbLine
 10
0.58961727
 20
17.81669113
 30
0.0
 11
0.66468158
 21
17.79542182
 31
0.0
  0
LINE
  5
121
100
AcDbEntity
  8
SLD-0
  6
CONTINUOUS
 62
       3
100
AcDbLine
 10
0.66468158
 20
17.79542182
 30
0.0
 11
0.73989302
 21
17.7746317
 31
0.0
  0
LINE
  5
122
100
AcDbEntity
  8
SLD-0
  6
CONTINUOUS
 62
       3
100
AcDbLine
 10
0.73989302
 20
17.7746317
 30
0.0
 11
0.81524691
 21
17.75430547
 31
0.0
  0
LINE
  5
123
100
AcDbEntity
  8
SLD-0
  6
CONTINUOUS
 62
       3
100
AcDbLine
 10
0.81524691
 20
17.75430547
 30
0.0
 11
0.89073858
 21
17.73442786
 31
0.0
  0
LINE
  5
124
100
AcDbEntity
  8
SLD-0
  6
CONTINUOUS
 62
       3
100
AcDbLine
 10
0.89073858
 20
17.73442786
 30
0.0
 11
0.96636522
 21
17.71498965
 31
0.0
  0
LINE
  5
125
100
AcDbEntity
  8
SLD-0
  6
CONTINUOUS
 62
       3
100
AcDbLine
 10
0.96636522
 20
17.71498965
 30
0.0
 11
1.0421258
 21
17.69598744
 31
0.0
  0
LINE
  5
126
100
AcDbEntity
  8
SLD-0
  6
CONTINUOUS
 62
       3
100
AcDbLine
 10
1.0421258
 20
17.69598744
 30
0.0
 11
1.11801831
 21
17.67741467
 31
0.0
  0
LINE
  5
127
100
AcDbEntity
  8
SLD-0
  6
CONTINUOUS
 62
       3
100
AcDbLine
 10
1.11801831
 20
17.67741467
 30
0.0
 11
1.19404074
 21
17.65926476
 31
0.0
  0
LINE
  5
128
100
AcDbEntity
  8
SLD-0
  6
CONTINUOUS
 62
       3
100
AcDbLine
 10
1.19404074
 20
17.65926476
 30
0.0
 11
1.27019108
 21
17.64153114
 31
0.0
  0
LINE
  5
129
100
AcDbEntity
  8
SLD-0
  6
CONTINUOUS
 62
       3
100
AcDbLine
 10
1.27019108
 20
17.64153114
 30
0.0
 11
1.34646732
 21
17.62420723
 31
0.0
  0
LINE
  5
12A
100
AcDbEntity
  8
SLD-0
  6
CONTINUOUS
 62
       3
100
AcDbLine
 10
1.34646732
 20
17.62420723
 30
0.0
 11
1.42286746
 21
17.60728646
 31
0.0
  0
LINE
  5
12B
100
AcDbEntity
  8
SLD-0
  6
CONTINUOUS
 62
       3
100
AcDbLine
 10
1.42286746
 20
17.60728646
 30
0.0
 11
1.49938949
 21
17.59076226
 31
0.0
  0
LINE
  5
12C
100
AcDbEntity
  8
SLD-0
  6
CONTINUOUS
 62
       3
100
AcDbLine
 10
1.49938949
 20
17.59076226
 30
0.0
 11
1.5760314
 21
17.57462805
 31
0.0
  0
LINE
  5
12D
100
AcDbEntity
  8
SLD-0
  6
CONTINUOUS
 62
       3
100
AcDbLine
 10
1.5760314
 20
17.57462805
 30
0.0
 11
1.65279117
 21
17.55887725
 31
0.0
  0
LINE
  5
12E
100
AcDbEntity
  8
SLD-0
  6
CONTINUOUS
 62
       3
100
AcDbLine
 10
1.65279117
 20
17.55887725
 30
0.0
 11
1.72966681
 21
17.5435033
 31
0.0
  0
LINE
  5
12F
100
AcDbEntity
  8
SLD-0
  6
CONTINUOUS
 62
       3
100
AcDbLine
 10
1.72966681
 20
17.5435033
 30
0.0
 11
1.8066563
 21
17.52849961
 31
0.0
  0
LINE
  5
130
100
AcDbEntity
  8
SLD-0
  6
CONTINUOUS
 62
       3
100
AcDbLine
 10
1.8066563
 20
17.52849961
 30
0.0
 11
1.88375763
 21
17.51385963
 31
0.0
  0
LINE
  5
131
100
AcDbEntity
  8
SLD-0
  6
CONTINUOUS
 62
       3
100
AcDbLine
 10
1.88375763
 20
17.51385963
 30
0.0
 11
1.9609688
 21
17.49957676
 31
0.0
  0
LINE
  5
132
100
AcDbEntity
  8
SLD-0
  6
CONTINUOUS
 62
       3
100
AcDbLine
 10
1.9609688
 20
17.49957676
 30
0.0
 11
2.0382878
 21
17.48564444
 31
0.0
  0
ENDBLK
  5
133
100
AcDbEntity
  8
0
100
AcDbBlockEnd
  0
BLOCK
  5
134
100
AcDbEntity
  8
0
100
AcDbBlockBegin
  2
GROUP_8
 70
       0
 10
0.0
 20
0.0
 30
0.0
  3
GROUP_8
  1

  0
LINE
  5
135
100
AcDbEntity
  8
SLD-0
  6
CONTINUOUS
 62
       3
100
AcDbLine
 10
51.89490108
 20
39.3402937
 30
0.0
 11
51.90505476
 21
39.42054346
 31
0.0
  0
LINE
  5
136
100
AcDbEntity
  8
SLD-0
  6
CONTINUOUS
 62
       3
100
AcDbLine
 10
51.90505476
 20
39.42054346
 30
0.0
 11
51.91529675
 21
39.50078187
 31
0.0
  0
LINE
  5
137
100
AcDbEntity
  8
SLD-0
  6
CONTINUOUS
 62
       3
100
AcDbLine
 10
51.91529675
 20
39.50078187
 30
0.0
 11
51.92563097
 21
39.58100827
 31
0.0
  0
LINE
  5
138
100
AcDbEntity
  8
SLD-0
  6
CONTINUOUS
 62
       3
100
AcDbLine
 10
51.92563097
 20
39.58100827
 30
0.0
 11
51.93606132
 21
39.66122197
 31
0.0
  0
LINE
  5
139
100
AcDbEntity
  8
SLD-0
  6
CONTINUOUS
 62
       3
100
AcDbLine
 10
51.93606132
 20
39.66122197
 30
0.0
 11
51.94659171
 21
39.74142231
 31
0.0
  0
LINE
  5
13A
100
AcDbEntity
  8
SLD-0
  6
CONTINUOUS
 62
       3
100
AcDbLine
 10
51.94659171
 20
39.74142231
 30
0.0
 11
51.95722603
 21
39.82160861
 31
0.0
  0
LINE
  5
13B
100
AcDbEntity
  8
SLD-0
  6
CONTINUOUS
 62
       3
100
AcDbLine
 10
51.95722603
 20
39.82160861
 30
0.0
 11
51.96796819
 21
39.9017802
 31
0.0
  0
LINE
  5
13C
100
AcDbEntity
  8
SLD-0
  6
CONTINUOUS
 62
       3
100
AcDbLine
 10
51.96796819
 20
39.9017802
 30
0.0
 11
51.97882209
 21
39.98193641
 31
0.0
  0
LINE
  5
13D
100
AcDbEntity
  8
SLD-0
  6
CONTINUOUS
 62
       3
100
AcDbLine
 10
51.97882209
 20
39.98193641
 30
0.0
 11
51.98979165
 21
40.06207655
 31
0.0
  0
LINE
  5
13E
100
AcDbEntity
  8
SLD-0
  6
CONTINUOUS
 62
       3
100
AcDbLine
 10
51.98979165
 20
40.06207655
 30
0.0
 11
52.00088075
 21
40.14219998
 31
0.0
  0
LINE
  5
13F
100
AcDbEntity
  8
SLD-0
  6
CONTINUOUS
 62
       3
100
AcDbLine
 10
52.00088075
 20
40.14219998
 30
0.0
 11
52.01209331
 21
40.22230599
 31
0.0
  0
LINE
  5
140
100
AcDbEntity
  8
SLD-0
  6
CONTINUOUS
 62
       3
100
AcDbLine
 10
52.01209331
 20
40.22230599
 30
0.0
 11
52.02343324
 21
40.30239394
 31
0.0
  0
LINE
  5
141
100
AcDbEntity
  8
SLD-0
  6
CONTINUOUS
 62
       3
100
AcDbLine
 10
52.02343324
 20
40.30239394
 30
0.0
 11
52.03490442
 21
40.38246313
 31
0.0
  0
LINE
  5
142
100
AcDbEntity
  8
SLD-0
  6
CONTINUOUS
 62
       3
100
AcDbLine
 10
52.03490442
 20
40.38246313
 30
0.0
 11
52.04651077
 21
40.4625129
 31
0.0
  0
LINE
  5
143
100
AcDbEntity
  8
SLD-0
  6
CONTINUOUS
 62
       3
100
AcDbLine
 10
52.04651077
 20
40.4625129
 30
0.0
 11
52.0582562
 21
40.54254258
 31
0.0
  0
LINE
  5
144
100
AcDbEntity
  8
SLD-0
  6
CONTINUOUS
 62
       3
100
AcDbLine
 10
52.0582562
 20
40.54254258
 30
0.0
 11
52.07014459
 21
40.6225515
 31
0.0
  0
LINE
  5
145
100
AcDbEntity
  8
SLD-0
  6
CONTINUOUS
 62
       3
100
AcDbLine
 10
52.07014459
 20
40.6225515
 30
0.0
 11
52.08217987
 21
40.70253897
 31
0.0
  0
LINE
  5
146
100
AcDbEntity
  8
SLD-0
  6
CONTINUOUS
 62
       3
100
AcDbLine
 10
52.08217987
 20
40.70253897
 30
0.0
 11
52.09436593
 21
40.78250433
 31
0.0
  0
LINE
  5
147
100
AcDbEntity
  8
SLD-0
  6
CONTINUOUS
 62
       3
100
AcDbLine
 10
52.09436593
 20
40.78250433
 30
0.0
 11
52.10670668
 21
40.86244691
 31
0.0
  0
LINE
  5
148
100
AcDbEntity
  8
SLD-0
  6
CONTINUOUS
 62
       3
100
AcDbLine
 10
52.10670668
 20
40.86244691
 30
0.0
 11
52.11920601
 21
40.94236603
 31
0.0
  0
ENDBLK
  5
149
100
AcDbEntity
  8
0
100
AcDbBlockEnd
  0
BLOCK
  5
14A
100
AcDbEntity
  8
0
100
AcDbBlockBegin
  2
GROUP_9
 70
       0
 10
0.0
 20
0.0
 30
0.0
  3
GROUP_9
  1

  0
LINE
  5
14B
100
AcDbEntity
  8
SLD-0
  6
CONTINUOUS
 62
       3
100
AcDbLine
 10
9.37836988
 20
17.48564444
 30
0.0
 11
9.2326797
 21
17.4604623
 31
0.0
  0
LINE
  5
14C
100
AcDbEntity
  8
SLD-0
  6
CONTINUOUS
 62
       3
100
AcDbLine
 10
9.2326797
 20
17.4604623
 30
0.0
 11
9.08686025
 21
17.4366813
 31
0.0
  0
LINE
  5
14D
100
AcDbEntity
  8
SLD-0
  6
CONTINUOUS
 62
       3
100
AcDbLine
 10
9.08686025
 20
17.4366813
 30
0.0
 11
8.94091462
 21
17.41425964
 31
0.0
  0
LINE
  5
14E
100
AcDbEntity
  8
SLD-0
  6
CONTINUOUS
 62
       3
100
AcDbLine
 10
8.94091462
 20
17.41425964
 30
0.0
 11
8.79484593
 21
17.39315552
 31
0.0
  0
LINE
  5
14F
100
AcDbEntity
  8
SLD-0
  6
CONTINUOUS
 62
       3
100
AcDbLine
 10
8.79484593
 20
17.39315552
 30
0.0
 11
8.64865729
 21
17.37332715
 31
0.0
  0
LINE
  5
150
100
AcDbEntity
  8
SLD-0
  6
CONTINUOUS
 62
       3
100
AcDbLine
 10
8.64865729
 20
17.37332715
 30
0.0
 11
8.5023518
 21
17.35473271
 31
0.0
  0
LINE
  5
151
100
AcDbEntity
  8
SLD-0
  6
CONTINUOUS
 62
       3
100
AcDbLine
 10
8.5023518
 20
17.35473271
 30
0.0
 11
8.35593257
 21
17.3373304
 31
0.0
  0
LINE
  5
152
100
AcDbEntity
  8
SLD-0
  6
CONTINUOUS
 62
       3
100
AcDbLine
 10
8.35593257
 20
17.3373304
 30
0.0
 11
8.2094027
 21
17.32107843
 31
0.0
  0
LINE
  5
153
100
AcDbEntity
  8
SLD-0
  6
CONTINUOUS
 62
       3
100
AcDbLine
 10
8.2094027
 20
17.32107843
 30
0.0
 11
8.06276532
 21
17.30593499
 31
0.0
  0
LINE
  5
154
100
AcDbEntity
  8
SLD-0
  6
CONTINUOUS
 62
       3
100
AcDbLine
 10
8.06276532
 20
17.30593499
 30
0.0
 11
7.91602352
 21
17.29185827
 31
0.0
  0
LINE
  5
155
100
AcDbEntity
  8
SLD-0
  6
CONTINUOUS
 62
       3
100
AcDbLine
 10
7.91602352
 20
17.29185827
 30
0.0
 11
7.76918042
 21
17.27880648
 31
0.0
  0
LINE
  5
156
100
AcDbEntity
  8
SLD-0
  6
CONTINUOUS
 62
       3
100
AcDbLine
 10
7.76918042
 20
17.27880648
 30
0.0
 11
7.62223912
 21
17.26673781
 31
0.0
  0
LINE
  5
157
100
AcDbEntity
  8
SLD-0
  6
CONTINUOUS
 62
       3
100
AcDbLine
 10
7.62223912
 20
17.26673781
 30
0.0
 11
7.47519657
 21
17.25561462
 31
0.0
  0
LINE
  5
158
100
AcDbEntity
  8
SLD-0
  6
CONTINUOUS
 62
       3
100
AcDbLine
 10
7.47519657
 20
17.25561462
 30
0.0
 11
7.32802427
 21
17.24543228
 31
0.0
  0
LINE
  5
159
100
AcDbEntity
  8
SLD-0
  6
CONTINUOUS
 62
       3
100
AcDbLine
 10
7.32802427
 20
17.24543228
 30
0.0
 11
7.18073291
 21
17.23618452
 31
0.0
  0
LINE
  5
15A
100
AcDbEntity
  8
SLD-0
  6
CONTINUOUS
 62
       3
100
AcDbLine
 10
7.18073291
 20
17.23618452
 30
0.0
 11
7.03333994
 21
17.22786228
 31
0.0
  0
LINE
  5
15B
100
AcDbEntity
  8
SLD-0
  6
CONTINUOUS
 62
       3
100
AcDbLine
 10
7.03333994
 20
17.22786228
 30
0.0
 11
6.88586281
 21
17.2204565
 31
0.0
  0
LINE
  5
15C
100
AcDbEntity
  8
SLD-0
  6
CONTINUOUS
 62
       3
100
AcDbLine
 10
6.88586281
 20
17.2204565
 30
0.0
 11
6.73831895
 21
17.21395811
 31
0.0
  0
LINE
  5
15D
100
AcDbEntity
  8
SLD-0
  6
CONTINUOUS
 62
       3
100
AcDbLine
 10
6.73831895
 20
17.21395811
 30
0.0
 11
6.59072584
 21
17.20835805
 31
0.0
  0
LINE
  5
15E
100
AcDbEntity
  8
SLD-0
  6
CONTINUOUS
 62
       3
100
AcDbLine
 10
6.59072584
 20
17.20835805
 30
0.0
 11
6.4431009
 21
17.20364727
 31
0.0
  0
LINE
  5
15F
100
AcDbEntity
  8
SLD-0
  6
CONTINUOUS
 62
       3
100
AcDbLine
 10
6.4431009
 20
17.20364727
 30
0.0
 11
6.29546159
 21
17.19981669
 31
0.0
  0
LINE
  5
160
100
AcDbEntity
  8
SLD-0
  6
CONTINUOUS
 62
       3
100
AcDbLine
 10
6.29546159
 20
17.19981669
 30
0.0
 11
6.14782536
 21
17.19685725
 31
0.0
  0
LINE
  5
161
100
AcDbEntity
  8
SLD-0
  6
CONTINUOUS
 62
       3
100
AcDbLine
 10
6.14782536
 20
17.19685725
 30
0.0
 11
6.00020966
 21
17.19475991
 31
0.0
  0
LINE
  5
162
100
AcDbEntity
  8
SLD-0
  6
CONTINUOUS
 62
       3
100
AcDbLine
 10
6.00020966
 20
17.19475991
 30
0.0
 11
5.85263194
 21
17.19351558
 31
0.0
  0
LINE
  5
163
100
AcDbEntity
  8
SLD-0
  6
CONTINUOUS
 62
       3
100
AcDbLine
 10
5.85263194
 20
17.19351558
 30
0.0
 11
5.70510964
 21
17.19311521
 31
0.0
  0
LINE
  5
164
100
AcDbEntity
  8
SLD-0
  6
CONTINUOUS
 62
       3
100
AcDbLine
 10
5.70510964
 20
17.19311521
 30
0.0
 11
5.55765093
 21
17.19355032
 31
0.0
  0
LINE
  5
165
100
AcDbEntity
  8
SLD-0
  6
CONTINUOUS
 62
       3
100
AcDbLine
 10
5.55765093
 20
17.19355032
 30
0.0
 11
5.41025267
 21
17.19482458
 31
0.0
  0
LINE
  5
166
100
AcDbEntity
  8
SLD-0
  6
CONTINUOUS
 62
       3
100
AcDbLine
 10
5.41025267
 20
17.19482458
 30
0.0
 11
5.2629153
 21
17.19694718
 31
0.0
  0
LINE
  5
167
100
AcDbEntity
  8
SLD-0
  6
CONTINUOUS
 62
       3
100
AcDbLine
 10
5.2629153
 20
17.19694718
 30
0.0
 11
5.1156393
 21
17.19992732
 31
0.0
  0
LINE
  5
168
100
AcDbEntity
  8
SLD-0
  6
CONTINUOUS
 62
       3
100
AcDbLine
 10
5.1156393
 20
17.19992732
 30
0.0
 11
4.96842511
 21
17.20377417
 31
0.0
  0
LINE
  5
169
100
AcDbEntity
  8
SLD-0
  6
CONTINUOUS
 62
       3
100
AcDbLine
 10
4.96842511
 20
17.20377417
 30
0.0
 11
4.8212732
 21
17.20849692
 31
0.0
  0
LINE
  5
16A
100
AcDbEntity
  8
SLD-0
  6
CONTINUOUS
 62
       3
100
AcDbLine
 10
4.8212732
 20
17.20849692
 30
0.0
 11
4.67418403
 21
17.21410476
 31
0.0
  0
LINE
  5
16B
100
AcDbEntity
  8
SLD-0
  6
CONTINUOUS
 62
       3
100
AcDbLine
 10
4.67418403
 20
17.21410476
 30
0.0
 11
4.52715805
 21
17.22060688
 31
0.0
  0
LINE
  5
16C
100
AcDbEntity
  8
SLD-0
  6
CONTINUOUS
 62
       3
100
AcDbLine
 10
4.52715805
 20
17.22060688
 30
0.0
 11
4.38019573
 21
17.22801246
 31
0.0
  0
LINE
  5
16D
100
AcDbEntity
  8
SLD-0
  6
CONTINUOUS
 62
       3
100
AcDbLine
 10
4.38019573
 20
17.22801246
 30
0.0
 11
4.23329752
 21
17.2363307
 31
0.0
  0
LINE
  5
16E
100
AcDbEntity
  8
SLD-0
  6
CONTINUOUS
 62
       3
100
AcDbLine
 10
4.23329752
 20
17.2363307
 30
0.0
 11
4.08646389
 21
17.24557077
 31
0.0
  0
LINE
  5
16F
100
AcDbEntity
  8
SLD-0
  6
CONTINUOUS
 62
       3
100
AcDbLine
 10
4.08646389
 20
17.24557077
 30
0.0
 11
3.9396953
 21
17.25574186
 31
0.0
  0
LINE
  5
170
100
AcDbEntity
  8
SLD-0
  6
CONTINUOUS
 62
       3
100
AcDbLine
 10
3.9396953
 20
17.25574186
 30
0.0
 11
3.79299205
 21
17.26685047
 31
0.0
  0
LINE
  5
171
100
AcDbEntity
  8
SLD-0
  6
CONTINUOUS
 62
       3
100
AcDbLine
 10
3.79299205
 20
17.26685047
 30
0.0
 11
3.64635443
 21
17.27890208
 31
0.0
  0
LINE
  5
172
100
AcDbEntity
  8
SLD-0
  6
CONTINUOUS
 62
       3
100
AcDbLine
 10
3.64635443
 20
17.27890208
 30
0.0
 11
3.49978443
 21
17.2919353
 31
0.0
  0
LINE
  5
173
100
AcDbEntity
  8
SLD-0
  6
CONTINUOUS
 62
       3
100
AcDbLine
 10
3.49978443
 20
17.2919353
 30
0.0
 11
3.35328424
 21
17.30599278
 31
0.0
  0
LINE
  5
174
100
AcDbEntity
  8
SLD-0
  6
CONTINUOUS
 62
       3
100
AcDbLine
 10
3.35328424
 20
17.30599278
 30
0.0
 11
3.20685608
 21
17.32111722
 31
0.0
  0
LINE
  5
175
100
AcDbEntity
  8
SLD-0
  6
CONTINUOUS
 62
       3
100
AcDbLine
 10
3.20685608
 20
17.32111722
 30
0.0
 11
3.06050213
 21
17.33735129
 31
0.0
  0
LINE
  5
176
100
AcDbEntity
  8
SLD-0
  6
CONTINUOUS
 62
       3
100
AcDbLine
 10
3.06050213
 20
17.33735129
 30
0.0
 11
2.91422461
 21
17.35473766
 31
0.0
  0
LINE
  5
177
100
AcDbEntity
  8
SLD-0
  6
CONTINUOUS
 62
       3
100
AcDbLine
 10
2.91422461
 20
17.35473766
 30
0.0
 11
2.76802572
 21
17.37331903
 31
0.0
  0
LINE
  5
178
100
AcDbEntity
  8
SLD-0
  6
CONTINUOUS
 62
       3
100
AcDbLine
 10
2.76802572
 20
17.37331903
 30
0.0
 11
2.62190766
 21
17.39313806
 31
0.0
  0
LINE
  5
179
100
AcDbEntity
  8
SLD-0
  6
CONTINUOUS
 62
       3
100
AcDbLine
 10
2.62190766
 20
17.39313806
 30
0.0
 11
2.47587264
 21
17.41423744
 31
0.0
  0
LINE
  5
17A
100
AcDbEntity
  8
SLD-0
  6
CONTINUOUS
 62
       3
100
AcDbLine
 10
2.47587264
 20
17.41423744
 30
0.0
 11
2.32992285
 21
17.43665984
 31
0.0
  0
LINE
  5
17B
100
AcDbEntity
  8
SLD-0
  6
CONTINUOUS
 62
       3
100
AcDbLine
 10
2.32992285
 20
17.43665984
 30
0.0
 11
2.18406051
 21
17.46044795
 31
0.0
  0
LINE
  5
17C
100
AcDbEntity
  8
SLD-0
  6
CONTINUOUS
 62
       3
100
AcDbLine
 10
2.18406051
 20
17.46044795
 30
0.0
 11
2.0382878
 21
17.48564444
 31
0.0
  0
ENDBLK
  5
17D
100
AcDbEntity
  8
0
100
AcDbBlockEnd
  0
ENDSEC
  0
SECTION
  2
ENTITIES
  0
LINE
  5
17E
100
AcDbEntity
  8
SLD-0
  6
CONTINUOUS
 62
       3
100
AcDbLine
 10
19.20832509
 20
15.87305602
 30
0.0
 11
-95.79167489
 21
15.87305602
 31
0.0
  0
LINE
  5
17F
100
AcDbEntity
  8
SLD-0
  6
CONTINUOUS
 62
       3
100
AcDbLine
 10
52.40670806
 20
42.70908976
 30
0.0
 11
103.75832798
 21
42.70908976
 31
0.0
  0
LINE
  5
180
100
AcDbEntity
  8
SLD-0
  6
CONTINUOUS
 62
       3
100
AcDbLine
 10
74.1318152
 20
-7.2909072
 30
0.0
 11
103.1318152
 21
-7.2909072
 31
0.0
  0
LINE
  5
181
100
AcDbEntity
  8
SLD-0
  6
CONTINUOUS
 62
       3
100
AcDbLine
 10
73.63181522
 20
15.87305602
 30
0.0
 11
73.63181522
 21
-6.7909072
 31
0.0
  0
LINE
  5
182
100
AcDbEntity
  8
SLD-0
  6
CONTINUOUS
 62
       3
100
AcDbLine
 10
52.1093139
 20
17.4856445
 30
0.0
 11
52.10202295
 21
17.4856445
 31
0.0
  0
LINE
  5
183
100
AcDbEntity
  8
SLD-0
  6
CONTINUOUS
 62
       3
100
AcDbLine
 10
19.2083252
 20
19.39608377
 30
0.0
 11
-95.79167499
 21
19.39608377
 31
0.0
  0
LINE
  5
184
100
AcDbEntity
  8
SLD-0
  6
CONTINUOUS
 62
       3
100
AcDbLine
 10
19.20832577
 20
39.07800644
 30
0.0
 11
-95.79167556
 21
39.07800644
 31
0.0
  0
LINE
  5
185
100
AcDbEntity
  8
SLD-0
  6
CONTINUOUS
 62
       3
100
AcDbLine
 10
19.2083255
 20
29.76907487
 30
0.0
 11
-95.79167529
 21
29.76909204
 31
0.0
  0
LINE
  5
186
100
AcDbEntity
  8
SLD-0
  6
CONTINUOUS
 62
       3
100
AcDbLine
 10
19.20832569
 20
36.36911101
 30
0.0
 11
-95.79167548
 21
36.36909149
 31
0.0
  0
LINE
  5
187
100
AcDbEntity
  8
SLD-0
  6
CONTINUOUS
 62
       3
100
AcDbLine
 10
18.70832586
 20
42.70909102
 30
0.0
 11
-95.29167565
 21
42.70909102
 31
0.0
  0
LINE
  5
188
100
AcDbEntity
  8
SLD-0
  6
CONTINUOUS
 62
       3
100
AcDbLine
 10
-95.79167423
 20
-6.79090771
 30
0.0
 11
-95.79167565
 21
42.20909101
 31
0.0
  0
LINE
  5
189
100
AcDbEntity
  8
SLD-0
  6
CONTINUOUS
 62
       3
100
AcDbLine
 10
19.20832586
 20
42.20909101
 30
0.0
 11
19.20832444
 21
-6.79090771
 31
0.0
  0
LINE
  5
18A
100
AcDbEntity
  8
SLD-0
  6
CONTINUOUS
 62
       3
100
AcDbLine
 10
18.70832444
 20
-7.2909077
 30
0.0
 11
-61.87338862
 21
-7.2909077
 31
0.0
  0
LINE
  5
18B
100
AcDbEntity
  8
SLD-0
  6
CONTINUOUS
 62
       3
100
AcDbLine
 10
-31.3916749
 20
-7.34070088
 30
0.0
 11
-31.3916749
 21
-7.29090738
 31
0.0
  0
LINE
  5
18C
100
AcDbEntity
  8
SLD-0
  6
CONTINUOUS
 62
       3
100
AcDbLine
 10
-45.1916749
 20
-7.34070088
 30
0.0
 11
-45.1916749
 21
-7.29090738
 31
0.0
  0
LINE
  5
18D
100
AcDbEntity
  8
SLD-0
  6
CONTINUOUS
 62
       3
100
AcDbLine
 10
-46.6916749
 20
-8.29090802
 30
0.0
 11
-46.6916746
 21
-7.29090738
 31
0.0
  0
LINE
  5
18E
100
AcDbEntity
  8
SLD-0
  6
CONTINUOUS
 62
       3
100
AcDbLine
 10
-29.8916749
 20
-8.29090802
 30
0.0
 11
-29.8916752
 21
-7.29090738
 31
0.0
  0
LINE
  5
18F
100
AcDbEntity
  8
SLD-0
  6
CONTINUOUS
 62
       3
100
AcDbLine
 10
100.53181546
 20
-10.29090787
 30
0.0
 11
103.13181552
 21
-10.29090787
 31
0.0
  0
LINE
  5
190
100
AcDbEntity
  8
SLD-0
  6
CONTINUOUS
 62
       3
100
AcDbLine
 10
51.56258603
 20
36.23873782
 30
0.0
 11
51.62851387
 21
36.24104031
 31
0.0
  0
LINE
  5
191
100
AcDbEntity
  8
SLD-0
  6
CONTINUOUS
 62
       3
100
AcDbLine
 10
51.3350355
 20
29.90739208
 30
0.0
 11
51.26019545
 21
29.91000586
 31
0.0
  0
LINE
  5
192
100
AcDbEntity
  8
SLD-0
  6
CONTINUOUS
 62
       3
100
AcDbLine
 10
51.86237617
 20
39.07800644
 30
0.0
 11
51.85635107
 21
39.02850942
 31
0.0
  0
LINE
  5
193
100
AcDbEntity
  8
SLD-0
  6
CONTINUOUS
 62
       3
100
AcDbLine
 10
87.03181581
 20
42.70908976
 30
0.0
 11
87.03181581
 21
41.20909118
 31
0.0
  0
LINE
  5
194
100
AcDbEntity
  8
SLD-0
  6
CONTINUOUS
 62
       3
100
AcDbLine
 10
82.33181634
 20
41.16807573
 30
0.0
 11
87.03181581
 21
41.20909118
 31
0.0
  0
LINE
  5
195
100
AcDbEntity
  8
SLD-0
  6
CONTINUOUS
 62
       3
100
AcDbLine
 10
82.33181634
 20
41.16807573
 30
0.0
 11
82.33181634
 21
36.10909239
 31
0.0
  0
LINE
  5
196
100
AcDbEntity
  8
SLD-0
  6
CONTINUOUS
 62
       3
100
AcDbLine
 10
82.33181634
 20
36.10909239
 30
0.0
 11
60.52178019
 21
36.10909239
 31
0.0
  0
LINE
  5
197
100
AcDbEntity
  8
SLD-0
  6
CONTINUOUS
 62
       3
100
AcDbLine
 10
60.52178019
 20
36.10909239
 30
0.0
 11
60.52178019
 21
28.10909201
 31
0.0
  0
LINE
  5
198
100
AcDbEntity
  8
SLD-0
  6
CONTINUOUS
 62
       3
100
AcDbLine
 10
60.52178019
 20
28.10909201
 30
0.0
 11
82.33181601
 21
28.10909201
 31
0.0
  0
LINE
  5
199
100
AcDbEntity
  8
SLD-0
  6
CONTINUOUS
 62
       3
100
AcDbLine
 10
82.33181601
 20
28.10909201
 30
0.0
 11
82.33181601
 21
-5.7498921
 31
0.0
  0
LINE
  5
19A
100
AcDbEntity
  8
SLD-0
  6
CONTINUOUS
 62
       3
100
AcDbLine
 10
82.33181601
 20
-5.7498921
 30
0.0
 11
87.03181548
 21
-5.79090755
 31
0.0
  0
LINE
  5
19B
100
AcDbEntity
  8
SLD-0
  6
CONTINUOUS
 62
       3
100
AcDbLine
 10
87.03181548
 20
-5.79090755
 30
0.0
 11
87.03181548
 21
-7.29090771
 31
0.0
  0
LINE
  5
19C
100
AcDbEntity
  8
SLD-0
  6
CONTINUOUS
 62
       3
100
AcDbLine
 10
54.93181446
 20
20.10909209
 30
0.0
 11
54.93181446
 21
37.85909221
 31
0.0
  0
LINE
  5
19D
100
AcDbEntity
  8
SLD-0
  6
CONTINUOUS
 62
       3
100
AcDbLine
 10
51.84343784
 20
19.39608377
 30
0.0
 11
54.93181446
 21
20.10909209
 31
0.0
  0
LINE
  5
19E
100
AcDbEntity
  8
SLD-0
  6
CONTINUOUS
 62
       3
100
AcDbLine
 10
54.93181446
 20
37.85909221
 30
0.0
 11
52.17976864
 21
39.20135494
 31
0.0
  0
LINE
  5
19F
100
AcDbEntity
  8
SLD-0
  6
CONTINUOUS
 62
       3
100
AcDbLine
 10
73.63181522
 20
15.87305602
 30
0.0
 11
53.5642194
 21
16.22333723
 31
0.0
  0
LINE
  5
1A0
100
AcDbEntity
  8
SLD-0
  6
CONTINUOUS
 62
       3
100
AcDbLine
 10
60.53181612
 20
35.90909273
 30
0.0
 11
60.53181612
 21
28.30909167
 31
0.0
  0
LINE
  5
1A1
100
AcDbEntity
  8
SLD-0
  6
CONTINUOUS
 62
       3
100
AcDbLine
 10
103.13181552
 20
-8.29090754
 30
0.0
 11
100.53181546
 21
-8.29090754
 31
0.0
  0
LINE
  5
1A2
100
AcDbEntity
  8
SLD-0
  6
CONTINUOUS
 62
       3
100
AcDbLine
 10
100.53181546
 20
-10.29090787
 30
0.0
 11
100.53181546
 21
-8.29090754
 31
0.0
  0
LINE
  5
1A3
100
AcDbEntity
  8
SLD-0
  6
CONTINUOUS
 62
       3
100
AcDbLine
 10
103.13181552
 20
-10.29090787
 30
0.0
 11
103.13181552
 21
-8.29090754
 31
0.0
  0
LINE
  5
1A4
100
AcDbEntity
  8
SLD-0
  6
CONTINUOUS
 62
       3
100
AcDbLine
 10
100.53181546
 20
-8.29090754
 30
0.0
 11
100.53181546
 21
-7.29090738
 31
0.0
  0
LINE
  5
1A5
100
AcDbEntity
  8
SLD-0
  6
CONTINUOUS
 62
       3
100
AcDbLine
 10
103.6318152
 20
0.4190352
 30
0.0
 11
100.65832789
 21
0.41903455
 31
0.0
  0
LINE
  5
1A6
100
AcDbEntity
  8
SLD-0
  6
CONTINUOUS
 62
       3
100
AcDbLine
 10
101.75832848
 20
0.41903479
 30
0.0
 11
101.75832848
 21
1.91903565
 31
0.0
  0
LINE
  5
1A7
100
AcDbEntity
  8
SLD-0
  6
CONTINUOUS
 62
       3
100
AcDbLine
 10
102.05832856
 20
1.91903565
 30
0.0
 11
101.75832848
 21
1.91903565
 31
0.0
  0
LINE
  5
1A8
100
AcDbEntity
  8
SLD-0
  6
CONTINUOUS
 62
       3
100
AcDbLine
 10
103.25832856
 20
0.41903448
 30
0.0
 11
102.05832856
 21
1.91903565
 31
0.0
  0
LINE
  5
1A9
100
AcDbEntity
  8
SLD-0
  6
CONTINUOUS
 62
       3
100
AcDbLine
 10
103.13181552
 20
-8.29090754
 30
0.0
 11
103.1318152
 21
-7.2909072
 31
0.0
  0
LINE
  5
1AA
100
AcDbEntity
  8
SLD-0
  6
CONTINUOUS
 62
       3
100
AcDbLine
 10
103.45832796
 20
35.96790966
 30
0.0
 11
100.65832789
 21
35.91903571
 31
0.0
  0
LINE
  5
1AB
100
AcDbEntity
  8
SLD-0
  6
CONTINUOUS
 62
       3
100
AcDbLine
 10
103.75832798
 20
42.70908976
 30
0.0
 11
103.75832798
 21
36.26795571
 31
0.0
  0
LINE
  5
1AC
100
AcDbEntity
  8
SLD-0
  6
CONTINUOUS
 62
       3
100
AcDbLine
 10
103.4635637
 20
35.9680007
 30
0.0
 11
103.45832796
 21
35.96790966
 31
0.0
  0
LINE
  5
1AD
100
AcDbEntity
  8
SLD-0
  6
CONTINUOUS
 62
       3
100
AcDbLine
 10
103.6318152
 20
0.4190352
 30
0.0
 11
103.6318152
 21
-6.7909072
 31
0.0
  0
LINE
  5
1AE
100
AcDbEntity
  8
SLD-0
  6
CONTINUOUS
 62
       3
100
AcDbLine
 10
100.65832789
 20
0.41903455
 30
0.0
 11
100.65832789
 21
35.91903571
 31
0.0
  0
LINE
  5
1AF
100
AcDbEntity
  8
SLD-0
  6
CONTINUOUS
 62
       3
100
AcDbLine
 10
101.75832798
 20
35.93823576
 30
0.0
 11
101.84749653
 21
34.91903546
 31
0.0
  0
LINE
  5
1B0
100
AcDbEntity
  8
SLD-0
  6
CONTINUOUS
 62
       3
100
AcDbLine
 10
102.17548541
 20
34.41903444
 30
0.0
 11
101.89124087
 21
34.41903444
 31
0.0
  0
LINE
  5
1B1
100
AcDbEntity
  8
SLD-0
  6
CONTINUOUS
 62
       3
100
AcDbLine
 10
101.89124087
 20
34.41903444
 30
0.0
 11
101.89057637
 21
34.42663031
 31
0.0
  0
LINE
  5
1B2
100
AcDbEntity
  8
SLD-0
  6
CONTINUOUS
 62
       3
100
AcDbLine
 10
101.89057637
 20
34.42663031
 30
0.0
 11
101.88860278
 21
34.4491888
 31
0.0
  0
LINE
  5
1B3
100
AcDbEntity
  8
SLD-0
  6
CONTINUOUS
 62
       3
100
AcDbLine
 10
101.88860278
 20
34.4491888
 30
0.0
 11
101.88538029
 21
34.48602261
 31
0.0
  0
LINE
  5
1B4
100
AcDbEntity
  8
SLD-0
  6
CONTINUOUS
 62
       3
100
AcDbLine
 10
101.88538029
 20
34.48602261
 30
0.0
 11
101.88100668
 21
34.53601228
 31
0.0
  0
LINE
  5
1B5
100
AcDbEntity
  8
SLD-0
  6
CONTINUOUS
 62
       3
100
AcDbLine
 10
101.88100668
 20
34.53601228
 30
0.0
 11
101.8756149
 21
34.59764162
 31
0.0
  0
LINE
  5
1B6
100
AcDbEntity
  8
SLD-0
  6
CONTINUOUS
 62
       3
100
AcDbLine
 10
101.8756149
 20
34.59764162
 30
0.0
 11
101.86936876
 21
34.66903495
 31
0.0
  0
LINE
  5
1B7
100
AcDbEntity
  8
SLD-0
  6
CONTINUOUS
 62
       3
100
AcDbLine
 10
101.86936876
 20
34.66903495
 30
0.0
 11
101.86245799
 21
34.74802414
 31
0.0
  0
LINE
  5
1B8
100
AcDbEntity
  8
SLD-0
  6
CONTINUOUS
 62
       3
100
AcDbLine
 10
101.86245799
 20
34.74802414
 30
0.0
 11
101.85509275
 21
34.83221011
 31
0.0
  0
LINE
  5
1B9
100
AcDbEntity
  8
SLD-0
  6
CONTINUOUS
 62
       3
100
AcDbLine
 10
101.85509275
 20
34.83221011
 30
0.0
 11
101.84749653
 21
34.91903546
 31
0.0
  0
LINE
  5
1BA
100
AcDbEntity
  8
SLD-0
  6
CONTINUOUS
 62
       3
100
AcDbLine
 10
102.61690667
 20
34.77761418
 30
0.0
 11
102.56481221
 21
34.72551972
 31
0.0
  0
LINE
  5
1BB
100
AcDbEntity
  8
SLD-0
  6
CONTINUOUS
 62
       3
100
AcDbLine
 10
102.56481221
 20
34.72551972
 30
0.0
 11
102.51430065
 21
34.67500851
 31
0.0
  0
LINE
  5
1BC
100
AcDbEntity
  8
SLD-0
  6
CONTINUOUS
 62
       3
100
AcDbLine
 10
102.51430065
 20
34.67500851
 30
0.0
 11
102.46690669
 21
34.62761351
 31
0.0
  0
LINE
  5
1BD
100
AcDbEntity
  8
SLD-0
  6
CONTINUOUS
 62
       3
100
AcDbLine
 10
102.46690669
 20
34.62761351
 30
0.0
 11
102.4240704
 21
34.58477826
 31
0.0
  0
LINE
  5
1BE
100
AcDbEntity
  8
SLD-0
  6
CONTINUOUS
 62
       3
100
AcDbLine
 10
102.4240704
 20
34.58477826
 30
0.0
 11
102.3870934
 21
34.54780102
 31
0.0
  0
LINE
  5
1BF
100
AcDbEntity
  8
SLD-0
  6
CONTINUOUS
 62
       3
100
AcDbLine
 10
102.3870934
 20
34.54780102
 30
0.0
 11
102.35709911
 21
34.51780685
 31
0.0
  0
LINE
  5
1C0
100
AcDbEntity
  8
SLD-0
  6
CONTINUOUS
 62
       3
100
AcDbLine
 10
102.35709911
 20
34.51780685
 30
0.0
 11
102.33499894
 21
34.49570656
 31
0.0
  0
LINE
  5
1C1
100
AcDbEntity
  8
SLD-0
  6
CONTINUOUS
 62
       3
100
AcDbLine
 10
102.33499894
 20
34.49570656
 30
0.0
 11
102.32146438
 21
34.48217072
 31
0.0
  0
LINE
  5
1C2
100
AcDbEntity
  8
SLD-0
  6
CONTINUOUS
 62
       3
100
AcDbLine
 10
102.32146438
 20
34.48217072
 30
0.0
 11
102.31690672
 21
34.47761283
 31
0.0
  0
LINE
  5
1C3
100
AcDbEntity
  8
SLD-0
  6
CONTINUOUS
 62
       3
100
AcDbLine
 10
103.67046009
 20
35.83116726
 30
0.0
 11
102.61690667
 21
34.77761418
 31
0.0
  0
LINE
  5
1C4
100
AcDbEntity
  8
SLD-0
  6
CONTINUOUS
 62
       3
100
AcDbLine
 10
103.75832798
 20
36.26795571
 30
0.0
 11
103.75832798
 21
36.0432992
 31
0.0
  0
ARC
  5
1C5
100
AcDbEntity
  8
SLD-0
  6
CONTINUOUS
 62
       3
100
AcDbCircle
 10
103.1318152
 20
-6.7909072
 30
0.0
 40
0.5
100
AcDbArc
 50
270.0
 51
360.0
  0
ARC
  5
1C6
100
AcDbEntity
  8
SLD-0
  6
CONTINUOUS
 62
       3
100
AcDbCircle
 10
-95.29167565
 20
42.20909102
 30
0.0
 40
0.5
100
AcDbArc
 50
90.0
 51
180.00000115
  0
ARC
  5
1C7
100
AcDbEntity
  8
SLD-0
  6
CONTINUOUS
 62
       3
100
AcDbCircle
 10
18.70832586
 20
42.20909102
 30
0.0
 40
0.5
100
AcDbArc
 50
359.99999885
 51
450.0
  0
ARC
  5
1C8
100
AcDbEntity
  8
SLD-0
  6
CONTINUOUS
 62
       3
100
AcDbCircle
 10
74.13181522
 20
-6.7909072
 30
0.0
 40
0.5
100
AcDbArc
 50
180.0
 51
269.99999771
  0
ARC
  5
1C9
100
AcDbEntity
  8
SLD-0
  6
CONTINUOUS
 62
       3
100
AcDbCircle
 10
18.70832444
 20
-6.7909077
 30
0.0
 40
0.5
100
AcDbArc
 50
270.0
 51
359.99999885
  0
ARC
  5
1CA
100
AcDbEntity
  8
SLD-0
  6
CONTINUOUS
 62
       3
100
AcDbCircle
 10
-95.29167423
 20
-6.7909077
 30
0.0
 40
0.5
100
AcDbArc
 50
180.00000115
 51
270.0
  0
ARC
  5
1CB
100
AcDbEntity
  8
SLD-0
  6
CONTINUOUS
 62
       3
100
AcDbCircle
 10
-38.2916749
 20
8.34909198
 30
0.0
 40
17.14
100
AcDbArc
 50
246.26124165
 51
293.73875835
  0
ARC
  5
1CC
100
AcDbEntity
  8
SLD-0
  6
CONTINUOUS
 62
       3
100
AcDbCircle
 10
-38.2916749
 20
8.34909198
 30
0.0
 40
18.64
100
AcDbArc
 50
243.21500449
 51
296.78499551
  0
ARC
  5
1CD
100
AcDbEntity
  8
SLD-0
  6
CONTINUOUS
 62
       3
100
AcDbCircle
 10
62.83440977
 20
32.52857319
 30
0.0
 40
11.86673216
100
AcDbArc
 50
161.78083874
 51
177.43765835
  0
ARC
  5
1CE
100
AcDbEntity
  8
SLD-0
  6
CONTINUOUS
 62
       3
100
AcDbCircle
 10
62.83440977
 20
32.52857319
 30
0.0
 40
11.86673216
100
AcDbArc
 50
177.43765835
 51
192.74806929
  0
ARC
  5
1CF
100
AcDbEntity
  8
SLD-0
  6
CONTINUOUS
 62
       3
100
AcDbCircle
 10
43.81832095
 20
33.42931048
 30
0.0
 40
8.30089816
100
AcDbArc
 50
333.83596459
 51
380.74148918
  0
ARC
  5
1D0
100
AcDbEntity
  8
SLD-0
  6
CONTINUOUS
 62
       3
100
AcDbCircle
 10
53.59039819
 20
17.72310876
 30
0.0
 40
1.49999999
100
AcDbArc
 50
189.10878765
 51
268.9999931
  0
ARC
  5
1D1
100
AcDbEntity
  8
SLD-0
  6
CONTINUOUS
 62
       3
100
AcDbCircle
 10
103.45832798
 20
36.26795501
 30
0.0
 40
0.3
100
AcDbArc
 50
270.99999963
 51
360.00013369
  0
ARC
  5
1D2
100
AcDbEntity
  8
SLD-0
  6
CONTINUOUS
 62
       3
100
AcDbCircle
 10
102.17548536
 20
34.61903508
 30
0.0
 40
0.20000064
100
AcDbArc
 50
270.00001432
 51
314.99981971
  0
ARC
  5
1D3
100
AcDbEntity
  8
SLD-0
  6
CONTINUOUS
 62
       3
100
AcDbCircle
 10
103.45832802
 20
36.0432992
 30
0.0
 40
0.29999996
100
AcDbArc
 50
315.00001756
 51
360.0
  0
LINE
  5
1D4
100
AcDbEntity
  8
SLD-0
  6
PHANTOM
 62
       3
100
AcDbLine
 10
53.48181639
 20
6.00809072
 30
0.0
 11
54.68181569
 21
6.00809072
 31
0.0
  0
LINE
  5
1D5
100
AcDbEntity
  8
SLD-0
  6
PHANTOM
 62
       3
100
AcDbLine
 10
-57.04167564
 20
-3.64396095
 30
0.0
 11
-57.04167564
 21
15.35809108
 31
0.0
  0
LINE
  5
1D6
100
AcDbEntity
  8
SLD-0
  6
PHANTOM
 62
       3
100
AcDbLine
 10
13.95832668
 20
15.35809108
 30
0.0
 11
13.95832668
 21
-3.64396095
 31
0.0
  0
LINE
  5
1D7
100
AcDbEntity
  8
SLD-0
  6
PHANTOM
 62
       3
100
AcDbLine
 10
13.95832668
 20
-3.64396095
 30
0.0
 11
-57.04167564
 21
-3.64396095
 31
0.0
  0
LINE
  5
1D8
100
AcDbEntity
  8
SLD-0
  6
PHANTOM
 62
       3
100
AcDbLine
 10
-57.04167564
 20
15.35809108
 30
0.0
 11
13.95832668
 21
15.35809108
 31
0.0
  0
LINE
  5
1D9
100
AcDbEntity
  8
SLD-0
  6
PHANTOM
 62
       3
100
AcDbLine
 10
53.37403953
 20
-3.63989857
 30
0.0
 11
51.1991078
 21
-3.64396116
 31
0.0
  0
LINE
  5
1DA
100
AcDbEntity
  8
SLD-0
  6
PHANTOM
 62
       3
100
AcDbLine
 10
71.98181747
 20
4.80809183
 30
0.0
 11
71.98181747
 21
-3.64190778
 31
0.0
  0
LINE
  5
1DB
100
AcDbEntity
  8
SLD-0
  6
PHANTOM
 62
       3
100
AcDbLine
 10
73.63181522
 20
4.80809183
 30
0.0
 11
71.98181747
 21
4.80809183
 31
0.0
  0
LINE
  5
1DC
100
AcDbEntity
  8
SLD-0
  6
PHANTOM
 62
       3
100
AcDbLine
 10
73.63181522
 20
-3.64190778
 30
0.0
 11
71.98181747
 21
-3.64190778
 31
0.0
  0
LINE
  5
1DD
100
AcDbEntity
  8
SLD-0
  6
PHANTOM
 62
       3
100
AcDbLine
 10
71.98181747
 20
4.80809183
 30
0.0
 11
53.3290166
 21
4.8080913
 31
0.0
  0
LINE
  5
1DE
100
AcDbEntity
  8
SLD-0
  6
PHANTOM
 62
       3
100
AcDbLine
 10
54.68181569
 20
6.00809072
 30
0.0
 11
54.68181639
 21
4.80809183
 31
0.0
  0
LINE
  5
1DF
100
AcDbEntity
  8
SLD-0
  6
PHANTOM
 62
       3
100
AcDbLine
 10
52.88181451
 20
10.65809133
 30
0.0
 11
52.88181593
 21
6.60809118
 31
0.0
  0
LINE
  5
1E0
100
AcDbEntity
  8
SLD-0
  6
PHANTOM
 62
       3
100
AcDbLine
 10
51.15261671
 20
12.05791852
 30
0.0
 11
52.88181451
 21
10.65809133
 31
0.0
  0
LINE
  5
1E1
100
AcDbEntity
  8
SLD-0
  6
PHANTOM
 62
       3
100
AcDbLine
 10
50.78181583
 20
14.85809099
 30
0.0
 11
50.78181555
 21
12.83516301
 31
0.0
  0
LINE
  5
1E2
100
AcDbEntity
  8
SLD-0
  6
PHANTOM
 62
       3
100
AcDbLine
 10
73.63181521
 20
15.35809086
 30
0.0
 11
51.28181568
 21
15.35809086
 31
0.0
  0
LINE
  5
1E3
100
AcDbEntity
  8
SLD-0
  6
PHANTOM
 62
       3
100
AcDbLine
 10
67.08181648
 20
4.80809183
 30
0.0
 11
67.08181594
 21
-2.54190847
 31
0.0
  0
LINE
  5
1E4
100
AcDbEntity
  8
SLD-0
  6
PHANTOM
 62
       3
100
AcDbLine
 10
68.18181594
 20
-3.64190847
 30
0.0
 11
71.98181747
 21
-3.64190778
 31
0.0
  0
LINE
  5
1E5
100
AcDbEntity
  8
SLD-0
  6
PHANTOM
 62
       3
100
AcDbLine
 10
53.3290166
 20
4.8080913
 30
0.0
 11
53.37403953
 21
-3.63989857
 31
0.0
  0
LINE
  5
1E6
100
AcDbEntity
  8
SLD-0
  6
PHANTOM
 62
       3
100
AcDbLine
 10
73.63181522
 20
15.36183569
 30
0.0
 11
51.28181555
 21
15.36183569
 31
0.0
  0
ARC
  5
1E7
100
AcDbEntity
  8
SLD-0
  6
PHANTOM
 62
       3
100
AcDbCircle
 10
83.13482194
 20
5.16569893
 30
0.0
 40
33.5
100
AcDbArc
 50
167.88334717
 51
194.58452094
  0
ARC
  5
1E8
100
AcDbEntity
  8
SLD-0
  6
PHANTOM
 62
       3
100
AcDbCircle
 10
51.19817303
 20
-3.14396221
 30
0.0
 40
0.49999982
100
AcDbArc
 50
194.58452185
 51
270.10711685
  0
ARC
  5
1E9
100
AcDbEntity
  8
SLD-0
  6
PHANTOM
 62
       3
100
AcDbCircle
 10
83.13482194
 20
5.16569893
 30
0.0
 40
33.5
100
AcDbArc
 50
164.96363983
 51
167.88334717
  0
ARC
  5
1EA
100
AcDbEntity
  8
SLD-0
  6
PHANTOM
 62
       3
100
AcDbCircle
 10
53.48181639
 20
6.60809118
 30
0.0
 40
0.60000046
100
AcDbArc
 50
180.0
 51
270.0
  0
ARC
  5
1EB
100
AcDbEntity
  8
SLD-0
  6
PHANTOM
 62
       3
100
AcDbCircle
 10
51.78181578
 20
12.83516301
 30
0.0
 40
1.00000023
100
AcDbArc
 50
180.0
 51
231.00895477
  0
ARC
  5
1EC
100
AcDbEntity
  8
SLD-0
  6
PHANTOM
 62
       3
100
AcDbCircle
 10
51.28181568
 20
14.858091
 30
0.0
 40
0.49999986
100
AcDbArc
 50
90.0
 51
180.00000115
  0
ARC
  5
1ED
100
AcDbEntity
  8
SLD-0
  6
PHANTOM
 62
       3
100
AcDbCircle
 10
68.18181594
 20
-2.54190847
 30
0.0
 40
1.1
100
AcDbArc
 50
180.0
 51
270.0
  0
ARC
  5
1EE
100
AcDbEntity
  8
SLD-0
  6
PHANTOM
 62
       3
100
AcDbCircle
 10
51.28181555
 20
14.86183569
 30
0.0
 40
0.5
100
AcDbArc
 50
90.0
 51
180.0
  0
LINE
  5
1EF
100
AcDbEntity
  8
SLD-0
  6
CENTERX2
 62
       3
100
AcDbLine
 10
24.98758542
 20
17.7090923
 30
0.0
 11
-103.75832798
 21
17.7090923
 31
0.0
  0
LINE
  5
1F0
100
AcDbEntity
  8
SLD-0
  6
CENTERX2
 62
       3
100
AcDbLine
 10
48.88473872
 20
17.7090928
 30
0.0
 11
103.1318152
 21
17.7090928
 31
0.0
  0
LINE
  5
1F1
100
AcDbEntity
  8
SLD-0
  6
CENTERX2
 62
       3
100
AcDbLine
 10
-38.29167398
 20
47.7163241
 30
0.0
 11
-38.29167557
 21
-7.2909077
 31
0.0
  0
LINE
  5
1F2
100
AcDbEntity
  8
SLD-0_1
  6
PHANTOM
 62
       3
100
AcDbLine
 10
-83.79177167
 20
-2.03813616
 30
0.0
 11
-87.88046956
 21
-2.03813616
 31
0.0
  0
LINE
  5
1F3
100
AcDbEntity
  8
SLD-0_1
  6
PHANTOM
 62
       3
100
AcDbLine
 10
-87.88046956
 20
-5.44285858
 30
0.0
 11
-83.79177167
 21
-5.44285858
 31
0.0
  0
LINE
  5
1F4
100
AcDbEntity
  8
SLD-0_1
  6
PHANTOM
 62
       3
100
AcDbLine
 10
-82.5396276
 20
-5.44285858
 30
0.0
 11
-78.45092971
 21
-5.44285858
 31
0.0
  0
LINE
  5
1F5
100
AcDbEntity
  8
SLD-0_1
  6
PHANTOM
 62
       3
100
AcDbLine
 10
-77.19964347
 20
3.1002582
 30
0.0
 11
-77.19964347
 21
-5.44285858
 31
0.0
  0
LINE
  5
1F6
100
AcDbEntity
  8
SLD-0_1
  6
PHANTOM
 62
       3
100
AcDbLine
 10
-66.51910333
 20
3.1002582
 30
0.0
 11
-66.51910333
 21
-5.44285858
 31
0.0
  0
LINE
  5
1F7
100
AcDbEntity
  8
SLD-0_1
  6
PHANTOM
 62
       3
100
AcDbLine
 10
-57.40124127
 20
-2.2568825
 30
0.0
 11
-57.40124127
 21
3.83570341
 31
0.0
  0
LINE
  5
1F8
100
AcDbEntity
  8
SLD-0_1
  6
PHANTOM
 62
       3
100
AcDbLine
 10
-82.5396276
 20
3.1002582
 30
0.0
 11
-82.5396276
 21
-5.44285858
 31
0.0
  0
LINE
  5
1F9
100
AcDbEntity
  8
SLD-0_1
  6
PHANTOM
 62
       3
100
AcDbLine
 10
-61.87338862
 20
4.48936893
 30
0.0
 11
-88.43634261
 21
4.48936893
 31
0.0
  0
LINE
  5
1FA
100
AcDbEntity
  8
SLD-0_1
  6
PHANTOM
 62
       3
100
AcDbLine
 10
-67.77067551
 20
-2.03813616
 30
0.0
 11
-71.8593734
 21
-2.03813616
 31
0.0
  0
LINE
  5
1FB
100
AcDbEntity
  8
SLD-0_1
  6
PHANTOM
 62
       3
100
AcDbLine
 10
-66.51910333
 20
-5.44285858
 30
0.0
 11
-62.43040544
 21
-5.44285858
 31
0.0
  0
LINE
  5
1FC
100
AcDbEntity
  8
SLD-0_1
  6
PHANTOM
 62
       3
100
AcDbLine
 10
-62.43040544
 20
-5.44285858
 30
0.0
 11
-62.43040544
 21
3.1002582
 31
0.0
  0
LINE
  5
1FD
100
AcDbEntity
  8
SLD-0_1
  6
PHANTOM
 62
       3
100
AcDbLine
 10
-77.19964347
 20
-5.44285858
 30
0.0
 11
-73.11065964
 21
-5.44285858
 31
0.0
  0
LINE
  5
1FE
100
AcDbEntity
  8
SLD-0_1
  6
PHANTOM
 62
       3
100
AcDbLine
 10
-67.77067551
 20
-5.44285858
 30
0.0
 11
-67.77067551
 21
3.1002582
 31
0.0
  0
LINE
  5
1FF
100
AcDbEntity
  8
SLD-0_1
  6
PHANTOM
 62
       3
100
AcDbLine
 10
-73.11065964
 20
-2.03813616
 30
0.0
 11
-77.19964347
 21
-2.03813616
 31
0.0
  0
LINE
  5
200
100
AcDbEntity
  8
SLD-0_1
  6
PHANTOM
 62
       3
100
AcDbLine
 10
-78.45092971
 20
-5.44285858
 30
0.0
 11
-78.45092971
 21
3.1002582
 31
0.0
  0
LINE
  5
201
100
AcDbEntity
  8
SLD-0_1
  6
PHANTOM
 62
       3
100
AcDbLine
 10
-71.8593734
 20
3.1002582
 30
0.0
 11
-71.8593734
 21
-5.44285858
 31
0.0
  0
LINE
  5
202
100
AcDbEntity
  8
SLD-0_1
  6
PHANTOM
 62
       3
100
AcDbLine
 10
-92.84358091
 20
3.83570341
 30
0.0
 11
-92.84358091
 21
-2.2568825
 31
0.0
  0
LINE
  5
203
100
AcDbEntity
  8
SLD-0_1
  6
PHANTOM
 62
       3
100
AcDbLine
 10
-71.8593734
 20
-5.44285858
 30
0.0
 11
-67.77067551
 21
-5.44285858
 31
0.0
  0
LINE
  5
204
100
AcDbEntity
  8
SLD-0_1
  6
PHANTOM
 62
       3
100
AcDbLine
 10
-92.84358091
 20
-2.2568825
 30
0.0
 11
-88.43634261
 21
-2.2568825
 31
0.0
  0
LINE
  5
205
100
AcDbEntity
  8
SLD-0_1
  6
PHANTOM
 62
       3
100
AcDbLine
 10
-83.79177167
 20
-5.44285858
 30
0.0
 11
-83.79177167
 21
3.1002582
 31
0.0
  0
LINE
  5
206
100
AcDbEntity
  8
SLD-0_1
  6
PHANTOM
 62
       3
100
AcDbLine
 10
-87.88046956
 20
3.1002582
 30
0.0
 11
-87.88046956
 21
-5.44285858
 31
0.0
  0
LINE
  5
207
100
AcDbEntity
  8
SLD-0_1
  6
PHANTOM
 62
       3
100
AcDbLine
 10
-61.87338862
 20
-10.2909077
 30
0.0
 11
-61.87338862
 21
4.48936893
 31
0.0
  0
LINE
  5
208
100
AcDbEntity
  8
SLD-0_1
  6
PHANTOM
 62
       3
100
AcDbLine
 10
-73.11065964
 20
3.1002582
 30
0.0
 11
-77.19964347
 21
3.1002582
 31
0.0
  0
LINE
  5
209
100
AcDbEntity
  8
SLD-0_1
  6
PHANTOM
 62
       3
100
AcDbLine
 10
-67.77067551
 20
3.1002582
 30
0.0
 11
-71.8593734
 21
3.1002582
 31
0.0
  0
LINE
  5
20A
100
AcDbEntity
  8
SLD-0_1
  6
PHANTOM
 62
       3
100
AcDbLine
 10
-88.43634261
 20
4.48936893
 30
0.0
 11
-88.43634261
 21
-10.2909077
 31
0.0
  0
LINE
  5
20B
100
AcDbEntity
  8
SLD-0_1
  6
PHANTOM
 62
       3
100
AcDbLine
 10
-78.45092971
 20
3.1002582
 30
0.0
 11
-82.5396276
 21
3.1002582
 31
0.0
  0
LINE
  5
20C
100
AcDbEntity
  8
SLD-0_1
  6
PHANTOM
 62
       3
100
AcDbLine
 10
-73.11065964
 20
-5.44285858
 30
0.0
 11
-73.11065964
 21
3.1002582
 31
0.0
  0
LINE
  5
20D
100
AcDbEntity
  8
SLD-0_1
  6
PHANTOM
 62
       3
100
AcDbLine
 10
-62.43040544
 20
3.1002582
 30
0.0
 11
-66.51910333
 21
3.1002582
 31
0.0
  0
LINE
  5
20E
100
AcDbEntity
  8
SLD-0_1
  6
PHANTOM
 62
       3
100
AcDbLine
 10
-61.87338862
 20
-2.2568825
 30
0.0
 11
-57.40124127
 21
-2.2568825
 31
0.0
  0
LINE
  5
20F
100
AcDbEntity
  8
SLD-0_1
  6
PHANTOM
 62
       3
100
AcDbLine
 10
-88.43634261
 20
3.83570341
 30
0.0
 11
-92.84358091
 21
3.83570341
 31
0.0
  0
LINE
  5
210
100
AcDbEntity
  8
SLD-0_1
  6
PHANTOM
 62
       3
100
AcDbLine
 10
-57.40124127
 20
3.83570341
 30
0.0
 11
-61.87338862
 21
3.83570341
 31
0.0
  0
LINE
  5
211
100
AcDbEntity
  8
SLD-0_1
  6
PHANTOM
 62
       3
100
AcDbLine
 10
-62.43040544
 20
-2.03813616
 30
0.0
 11
-66.51910333
 21
-2.03813616
 31
0.0
  0
LINE
  5
212
100
AcDbEntity
  8
SLD-0_1
  6
PHANTOM
 62
       3
100
AcDbLine
 10
-83.79177167
 20
3.1002582
 30
0.0
 11
-87.88046956
 21
3.1002582
 31
0.0
  0
LINE
  5
213
100
AcDbEntity
  8
SLD-0_1
  6
PHANTOM
 62
       3
100
AcDbLine
 10
-78.45092971
 20
-2.03813616
 30
0.0
 11
-82.5396276
 21
-2.03813616
 31
0.0
  0
LINE
  5
214
100
AcDbEntity
  8
SLD-0_1
  6
PHANTOM
 62
       3
100
AcDbLine
 10
70.9771211
 20
-10.2909072
 30
0.0
 11
70.9771211
 21
-3.64190796
 31
0.0
  0
LINE
  5
215
100
AcDbEntity
  8
SLD-0_1
  6
PHANTOM
 62
       3
100
AcDbLine
 10
59.29520883
 20
4.80809147
 30
0.0
 11
59.29520883
 21
-2.49211203
 31
0.0
  0
LINE
  5
216
100
AcDbEntity
  8
SLD-0_1
  6
PHANTOM
 62
       3
100
AcDbLine
 10
59.29520883
 20
-2.49211203
 30
0.0
 11
61.18617924
 21
-10.2909072
 31
0.0
  0
LINE
  5
217
100
AcDbEntity
  8
SLD-0_0
  6
CONTINUOUS
 62
       3
100
AcDbLine
 10
-88.43634261
 20
-7.2909077
 30
0.0
 11
-95.29167423
 21
-7.2909077
 31
0.0
  0
LINE
  5
218
100
AcDbEntity
  8
SLD-0_0
  6
PHANTOM
 62
       3
100
AcDbLine
 10
-61.87338862
 20
-10.2909077
 30
0.0
 11
-88.43634261
 21
-10.2909077
 31
0.0
  0
LINE
  5
219
100
AcDbEntity
  8
SLD-0_0
  6
PHANTOM
 62
       3
100
AcDbLine
 10
61.18617924
 20
-10.2909072
 30
0.0
 11
71.86504437
 21
-10.2909072
 31
0.0
  0
LINE
  5
21A
100
AcDbEntity
  8
0
  6
PHANTOM
 62
       3
100
AcDbLine
 10
77.16241796
 20
-10.66641595
 30
0.0
 11
76.69508759
 21
-10.68716773
 31
0.0
  0
LINE
  5
21B
100
AcDbEntity
  8
0
  6
PHANTOM
 62
       3
100
AcDbLine
 10
81.97758402
 20
-11.33802447
 30
0.0
 11
81.33164848
 21
-11.15966135
 31
0.0
  0
LINE
  5
21C
100
AcDbEntity
  8
0
  6
PHANTOM
 62
       3
100
AcDbLine
 10
82.52283851
 20
-11.52566156
 30
0.0
 11
81.97758402
 21
-11.33802447
 31
0.0
  0
LINE
  5
21D
100
AcDbEntity
  8
0
  6
PHANTOM
 62
       3
100
AcDbLine
 10
76.73789182
 20
-14.2117128
 30
0.0
 11
78.15397641
 21
-14.20386129
 31
0.0
  0
LINE
  5
21E
100
AcDbEntity
  8
0
  6
PHANTOM
 62
       3
100
AcDbLine
 10
67.62847279
 20
-3.656368
 30
0.0
 11
67.62847279
 21
-10.2909072
 31
0.0
  0
LINE
  5
21F
100
AcDbEntity
  8
0
  6
PHANTOM
 62
       3
100
AcDbLine
 10
77.59758058
 20
-10.65835798
 30
0.0
 11
77.16241796
 21
-10.66641595
 31
0.0
  0
LINE
  5
220
100
AcDbEntity
  8
0
  6
PHANTOM
 62
       3
100
AcDbLine
 10
80.41320642
 20
-10.95128431
 30
0.0
 11
80.17299598
 21
-10.901218
 31
0.0
  0
LINE
  5
221
100
AcDbEntity
  8
0
  6
PHANTOM
 62
       3
100
AcDbLine
 10
72.46801788
 20
-13.19908049
 30
0.0
 11
73.00320303
 21
-13.49468058
 31
0.0
  0
LINE
  5
222
100
AcDbEntity
  8
0
  6
PHANTOM
 62
       3
100
AcDbLine
 10
80.64226192
 20
-11.00157332
 30
0.0
 11
80.41320642
 21
-10.95128431
 31
0.0
  0
LINE
  5
223
100
AcDbEntity
  8
0
  6
PHANTOM
 62
       3
100
AcDbLine
 10
78.15397641
 20
-14.20386129
 30
0.0
 11
79.7965961
 21
-14.09285894
 31
0.0
  0
LINE
  5
224
100
AcDbEntity
  8
0
  6
PHANTOM
 62
       3
100
AcDbLine
 10
81.68253596
 20
-13.86455224
 30
0.0
 11
82.4863165
 21
-13.73319612
 31
0.0
  0
LINE
  5
225
100
AcDbEntity
  8
0
  6
PHANTOM
 62
       3
100
AcDbLine
 10
72.57302315
 20
-9.76043537
 30
0.0
 11
72.4198999
 21
-9.57678633
 31
0.0
  0
LINE
  5
226
100
AcDbEntity
  8
0
  6
PHANTOM
 62
       3
100
AcDbLine
 10
83.78659092
 20
-12.32166712
 30
0.0
 11
83.59928818
 21
-12.12057541
 31
0.0
  0
LINE
  5
227
100
AcDbEntity
  8
0
  6
PHANTOM
 62
       3
100
AcDbLine
 10
74.36756399
 20
-10.80335551
 30
0.0
 11
74.03102597
 21
-10.72535706
 31
0.0
  0
LINE
  5
228
100
AcDbEntity
  8
0
  6
PHANTOM
 62
       3
100
AcDbLine
 10
83.89663907
 20
-12.90020563
 30
0.0
 11
83.93078913
 21
-12.71384635
 31
0.0
  0
LINE
  5
229
100
AcDbEntity
  8
0
  6
PHANTOM
 62
       3
100
AcDbLine
 10
79.65070512
 20
-10.80674192
 30
0.0
 11
79.36442215
 21
-10.76482637
 31
0.0
  0
LINE
  5
22A
100
AcDbEntity
  8
0
  6
PHANTOM
 62
       3
100
AcDbLine
 10
82.4863165
 20
-13.73319612
 30
0.0
 11
82.84248671
 21
-13.64013326
 31
0.0
  0
LINE
  5
22B
100
AcDbEntity
  8
0
  6
PHANTOM
 62
       3
100
AcDbLine
 10
79.36442215
 20
-10.76482637
 30
0.0
 11
79.0585791
 21
-10.72812196
 31
0.0
  0
LINE
  5
22C
100
AcDbEntity
  8
0
  6
PHANTOM
 62
       3
100
AcDbLine
 10
72.4198999
 20
-9.57678633
 30
0.0
 11
72.29141005
 21
-9.40375565
 31
0.0
  0
LINE
  5
22D
100
AcDbEntity
  8
0
  6
PHANTOM
 62
       3
100
AcDbLine
 10
72.29141005
 20
-9.40375565
 30
0.0
 11
72.18716142
 21
-9.24777119
 31
0.0
  0
LINE
  5
22E
100
AcDbEntity
  8
0
  6
PHANTOM
 62
       3
100
AcDbLine
 10
83.42291911
 20
-13.39199248
 30
0.0
 11
83.63822683
 21
-13.24164282
 31
0.0
  0
LINE
  5
22F
100
AcDbEntity
  8
0
  6
PHANTOM
 62
       3
100
AcDbLine
 10
83.89559883
 20
-12.52021214
 30
0.0
 11
83.78659092
 21
-12.32166712
 31
0.0
  0
LINE
  5
230
100
AcDbEntity
  8
0
  6
PHANTOM
 62
       3
100
AcDbLine
 10
74.73187284
 20
-10.8405497
 30
0.0
 11
74.36756399
 21
-10.80335551
 31
0.0
  0
LINE
  5
231
100
AcDbEntity
  8
0
  6
PHANTOM
 62
       3
100
AcDbLine
 10
72.95473855
 20
-10.13387726
 30
0.0
 11
72.75117197
 21
-9.94827496
 31
0.0
  0
LINE
  5
232
100
AcDbEntity
  8
0
  6
PHANTOM
 62
       3
100
AcDbLine
 10
82.84248671
 20
-13.64013326
 30
0.0
 11
83.15618
 21
-13.52561067
 31
0.0
  0
LINE
  5
233
100
AcDbEntity
  8
0
  6
PHANTOM
 62
       3
100
AcDbLine
 10
75.12434468
 20
-10.83051181
 30
0.0
 11
74.73187284
 21
-10.8405497
 31
0.0
  0
LINE
  5
234
100
AcDbEntity
  8
0
  6
PHANTOM
 62
       3
100
AcDbLine
 10
78.37980767
 20
-10.67533502
 30
0.0
 11
78.00267672
 21
-10.66174671
 31
0.0
  0
LINE
  5
235
100
AcDbEntity
  8
0
  6
PHANTOM
 62
       3
100
AcDbLine
 10
73.43969368
 20
-10.47265871
 30
0.0
 11
73.18411506
 21
-10.31081446
 31
0.0
  0
LINE
  5
236
100
AcDbEntity
  8
0
  6
PHANTOM
 62
       3
100
AcDbLine
 10
76.19348817
 20
-10.72186043
 30
0.0
 11
75.65551844
 21
-10.77174116
 31
0.0
  0
LINE
  5
237
100
AcDbEntity
  8
0
  6
PHANTOM
 62
       3
100
AcDbLine
 10
83.93078913
 20
-12.71384635
 30
0.0
 11
83.89559883
 21
-12.52021214
 31
0.0
  0
LINE
  5
238
100
AcDbEntity
  8
0
  6
PHANTOM
 62
       3
100
AcDbLine
 10
83.59928818
 20
-12.12057541
 30
0.0
 11
83.32921336
 21
-11.91930117
 31
0.0
  0
LINE
  5
239
100
AcDbEntity
  8
0
  6
PHANTOM
 62
       3
100
AcDbLine
 10
80.17299598
 20
-10.901218
 30
0.0
 11
79.9195293
 21
-10.8526215
 31
0.0
  0
LINE
  5
23A
100
AcDbEntity
  8
0
  6
PHANTOM
 62
       3
100
AcDbLine
 10
73.18411506
 20
-10.31081446
 30
0.0
 11
72.95473855
 21
-10.13387726
 31
0.0
  0
LINE
  5
23B
100
AcDbEntity
  8
0
  6
PHANTOM
 62
       3
100
AcDbLine
 10
74.51818764
 20
-13.97457732
 30
0.0
 11
75.53155725
 21
-14.13056697
 31
0.0
  0
LINE
  5
23C
100
AcDbEntity
  8
0
  6
PHANTOM
 62
       3
100
AcDbLine
 10
73.00320303
 20
-13.49468058
 30
0.0
 11
73.68099792
 21
-13.75789735
 31
0.0
  0
LINE
  5
23D
100
AcDbEntity
  8
0
  6
PHANTOM
 62
       3
100
AcDbLine
 10
83.15618
 20
-13.52561067
 30
0.0
 11
83.42291911
 21
-13.39199248
 31
0.0
  0
LINE
  5
23E
100
AcDbEntity
  8
0
  6
PHANTOM
 62
       3
100
AcDbLine
 10
73.72186659
 20
-10.61298219
 30
0.0
 11
73.43969368
 21
-10.47265871
 31
0.0
  0
LINE
  5
23F
100
AcDbEntity
  8
0
  6
PHANTOM
 62
       3
100
AcDbLine
 10
83.63822683
 20
-13.24164282
 30
0.0
 11
83.79762589
 21
-13.07692583
 31
0.0
  0
LINE
  5
240
100
AcDbEntity
  8
0
  6
PHANTOM
 62
       3
100
AcDbLine
 10
79.7965961
 20
-14.09285894
 30
0.0
 11
81.68253596
 21
-13.86455224
 31
0.0
  0
LINE
  5
241
100
AcDbEntity
  8
0
  6
PHANTOM
 62
       3
100
AcDbLine
 10
81.33164848
 20
-11.15966135
 30
0.0
 11
80.86226375
 21
-11.05083791
 31
0.0
  0
LINE
  5
242
100
AcDbEntity
  8
0
  6
PHANTOM
 62
       3
100
AcDbLine
 10
83.79762589
 20
-13.07692583
 30
0.0
 11
83.89663907
 21
-12.90020563
 31
0.0
  0
LINE
  5
243
100
AcDbEntity
  8
0
  6
PHANTOM
 62
       3
100
AcDbLine
 10
83.32921336
 20
-11.91930117
 30
0.0
 11
82.97188921
 21
-11.72020851
 31
0.0
  0
LINE
  5
244
100
AcDbEntity
  8
0
  6
PHANTOM
 62
       3
100
AcDbLine
 10
79.0585791
 20
-10.72812196
 30
0.0
 11
78.7310747
 21
-10.69787581
 31
0.0
  0
LINE
  5
245
100
AcDbEntity
  8
0
  6
PHANTOM
 62
       3
100
AcDbLine
 10
72.18716142
 20
-9.24777119
 30
0.0
 11
72.10676184
 21
-9.11526075
 31
0.0
  0
LINE
  5
246
100
AcDbEntity
  8
0
  6
PHANTOM
 62
       3
100
AcDbLine
 10
72.05865743
 20
-12.88525062
 30
0.0
 11
72.46801788
 21
-13.19908049
 31
0.0
  0
LINE
  5
247
100
AcDbEntity
  8
0
  6
PHANTOM
 62
       3
100
AcDbLine
 10
71.86504437
 20
-10.2909072
 30
0.0
 11
71.86504437
 21
-3.6476373
 31
0.0
  0
LINE
  5
248
100
AcDbEntity
  8
0
  6
PHANTOM
 62
       3
100
AcDbLine
 10
78.7310747
 20
-10.69787581
 30
0.0
 11
78.37980767
 21
-10.67533502
 31
0.0
  0
LINE
  5
249
100
AcDbEntity
  8
0
  6
PHANTOM
 62
       3
100
AcDbLine
 10
73.68099792
 20
-13.75789735
 30
0.0
 11
74.51818764
 21
-13.97457732
 31
0.0
  0
LINE
  5
24A
100
AcDbEntity
  8
0
  6
PHANTOM
 62
       3
100
AcDbLine
 10
75.53155725
 20
-14.13056697
 30
0.0
 11
76.73789182
 21
-14.2117128
 31
0.0
  0
LINE
  5
24B
100
AcDbEntity
  8
0
  6
PHANTOM
 62
       3
100
AcDbLine
 10
82.97188921
 20
-11.72020851
 30
0.0
 11
82.52283851
 21
-11.52566156
 31
0.0
  0
LINE
  5
24C
100
AcDbEntity
  8
0
  6
PHANTOM
 62
       3
100
AcDbLine
 10
76.69508759
 20
-10.68716773
 30
0.0
 11
76.19348817
 21
-10.72186043
 31
0.0
  0
LINE
  5
24D
100
AcDbEntity
  8
0
  6
PHANTOM
 62
       3
100
AcDbLine
 10
75.65551844
 20
-10.77174116
 30
0.0
 11
75.12434468
 21
-10.83051181
 31
0.0
  0
LINE
  5
24E
100
AcDbEntity
  8
0
  6
PHANTOM
 62
       3
100
AcDbLine
 10
78.00267672
 20
-10.66174671
 30
0.0
 11
77.59758058
 21
-10.65835798
 31
0.0
  0
LINE
  5
24F
100
AcDbEntity
  8
0
  6
PHANTOM
 62
       3
100
AcDbLine
 10
80.86226375
 20
-11.05083791
 30
0.0
 11
80.64226192
 21
-11.00157332
 31
0.0
  0
LINE
  5
250
100
AcDbEntity
  8
0
  6
PHANTOM
 62
       3
100
AcDbLine
 10
74.03102597
 20
-10.72535706
 30
0.0
 11
73.72186659
 21
-10.61298219
 31
0.0
  0
LINE
  5
251
100
AcDbEntity
  8
0
  6
PHANTOM
 62
       3
100
AcDbLine
 10
79.9195293
 20
-10.8526215
 30
0.0
 11
79.65070512
 21
-10.80674192
 31
0.0
  0
LINE
  5
252
100
AcDbEntity
  8
0
  6
PHANTOM
 62
       3
100
AcDbLine
 10
72.75117197
 20
-9.94827496
 30
0.0
 11
72.57302315
 21
-9.76043537
 31
0.0
  0
INSERT
  5
253
100
AcDbEntity
  8
0
  6
CONTINUOUS
100
AcDbBlockReference
  2
GROUP_1
 10
0.0
 20
0.0
 30
0.0
  0
INSERT
  5
254
100
AcDbEntity
  8
0
  6
CONTINUOUS
100
AcDbBlockReference
  2
GROUP_2
 10
0.0
 20
0.0
 30
0.0
  0
INSERT
  5
255
100
AcDbEntity
  8
0
  6
CONTINUOUS
100
AcDbBlockReference
  2
GROUP_3
 10
0.0
 20
0.0
 30
0.0
  0
INSERT
  5
256
100
AcDbEntity
  8
0
  6
CONTINUOUS
100
AcDbBlockReference
  2
GROUP_4
 10
0.0
 20
0.0
 30
0.0
  0
INSERT
  5
257
100
AcDbEntity
  8
0
  6
CONTINUOUS
100
AcDbBlockReference
  2
GROUP_5
 10
0.0
 20
0.0
 30
0.0
  0
INSERT
  5
258
100
AcDbEntity
  8
0
  6
CONTINUOUS
100
AcDbBlockReference
  2
GROUP_6
 10
0.0
 20
0.0
 30
0.0
  0
INSERT
  5
259
100
AcDbEntity
  8
0
  6
CONTINUOUS
100
AcDbBlockReference
  2
GROUP_7
 10
0.0
 20
0.0
 30
0.0
  0
INSERT
  5
25A
100
AcDbEntity
  8
0
  6
CONTINUOUS
100
AcDbBlockReference
  2
GROUP_8
 10
0.0
 20
0.0
 30
0.0
  0
INSERT
  5
25B
100
AcDbEntity
  8
0
  6
CONTINUOUS
100
AcDbBlockReference
  2
GROUP_9
 10
0.0
 20
0.0
 30
0.0
  0
TEXT
  5
25C
100
AcDbEntity
  8
SLD-0_0
 62
       3
100
AcDbText
 10
65.72174563
 20
-50.2163241
 30
0.0
 40
5.0
  1
000
 72
       5
 11
80.72174563
 21
-50.2163241
 31
0.0
100
AcDbText
  0
ENDSEC
  0
SECTION
  2
OBJECTS
  0
DICTIONARY
  5
19
100
AcDbDictionary
  3
ACAD_GROUP
350
1A
  3
ACAD_MLINESTYLE
350
1B
  0
DICTIONARY
  5
1A
102
{ACAD_REACTORS
330
19
102
}
100
AcDbDictionary
  0
DICTIONARY
  5
1B
102
{ACAD_REACTORS
330
19
102
}
100
AcDbDictionary
  3
STANDARD
350
1C
  0
MLINESTYLE
  5
1C
102
{ACAD_REACTORS
330
1B
102
}
100
AcDbMlineStyle
  2
STANDARD
 70
       0
  3

 62
       0
 51
90.0
 52
90.0
 71
       2
 49
0.5
 62
     256
  6
BYLAYER
 49
-0.5
 62
     256
  6
BYLAYER
  0
ENDSEC
  0
EOF
