  0
SECTION
  2
HEADER
  9
$ACADVER
  1
AC1015
  9
$ACADMAINTVER
 70
     6
  9
$DWGCODEPAGE
  3
DOS932
  9
$INSBASE
 10
0.0
 20
0.0
 30
0.0
  9
$EXTMIN
 10
0.0
 20
0.0
 30
0.0
  9
$EXTMAX
 10
297.0
 20
210.0
 30
0.0
  9
$LIMMIN
 10
0.0
 20
0.0
  9
$LIMMAX
 10
297.0
 20
210.0
  9
$ORTHOMODE
 70
     0
  9
$REGENMODE
 70
     1
  9
$FILLMODE
 70
     1
  9
$QTEXTMODE
 70
     0
  9
$MIRRTEXT
 70
     1
  9
$LTSCALE
 40
1.0
  9
$ATTMODE
 70
     1
  9
$TEXTSIZE
 40
3.5
  9
$TRACEWID
 40
1.0
  9
$TEXTSTYLE
  7
Standard
  9
$CLAYER
  8
0
  9
$CELTYPE
  6
ByLayer
  9
$CECOLOR
 62
   256
  9
$CELTSCALE
 40
1.0
  9
$DISPSILH
 70
     0
  9
$DIMSCALE
 40
1.0
  9
$DIMASZ
 40
3.556
  9
$DIMEXO
 40
1.0
  9
$DIMDLI
 40
3.75
  9
$DIMRND
 40
0.0
  9
$DIMDLE
 40
0.0
  9
$DIMEXE
 40
1.0
  9
$DIMTP
 40
0.0
  9
$DIMTM
 40
0.0
  9
$DIMTXT
 40
3.5
  9
$DIMCEN
 40
2.5
  9
$DIMTSZ
 40
0.0
  9
$DIMTOL
 70
     0
  9
$DIMLIM
 70
     0
  9
$DIMTIH
 70
     1
  9
$DIMTOH
 70
     1
  9
$DIMSE1
 70
     0
  9
$DIMSE2
 70
     0
  9
$DIMTAD
 70
     1
  9
$DIMZIN
 70
     0
  9
$DIMBLK
  1

  9
$DIMASO
 70
     1
  9
$DIMSHO
 70
     1
  9
$DIMPOST
  1

  9
$DIMAPOST
  1

  9
$DIMALT
 70
     0
  9
$DIMALTD
 70
     3
  9
$DIMALTF
 40
0.0393700787
  9
$DIMLFAC
 40
1.0
  9
$DIMTOFL
 70
     1
  9
$DIMTVP
 40
0.0
  9
$DIMTIX
 70
     0
  9
$DIMSOXD
 70
     0
  9
$DIMSAH
 70
     0
  9
$DIMBLK1
  1

  9
$DIMBLK2
  1

  9
$DIMSTYLE
  2
ISO-25
  9
$DIMCLRD
 70
     0
  9
$DIMCLRE
 70
     0
  9
$DIMCLRT
 70
     0
  9
$DIMTFAC
 40
1.0
  9
$DIMGAP
 40
1.524
  9
$DIMJUST
 70
     0
  9
$DIMSD1
 70
     0
  9
$DIMSD2
 70
     0
  9
$DIMTOLJ
 70
     0
  9
$DIMTZIN
 70
     0
  9
$DIMALTZ
 70
     0
  9
$DIMALTTZ
 70
     0
  9
$DIMUPT
 70
     0
  9
$DIMDEC
 70
     2
  9
$DIMTDEC
 70
     2
  9
$DIMALTU
 70
     2
  9
$DIMALTTD
 70
     3
  9
$DIMTXSTY
  7
Standard
  9
$DIMAUNIT
 70
     0
  9
$DIMADEC
 70
     2
  9
$DIMALTRND
 40
0.0
  9
$DIMAZIN
 70
     0
  9
$DIMDSEP
 70
    44
  9
$DIMATFIT
 70
     3
  9
$DIMFRAC
 70
     0
  9
$DIMLDRBLK
  1

  9
$DIMLUNIT
 70
     2
  9
$DIMLWD
 70
    -2
  9
$DIMLWE
 70
    -2
  9
$DIMTMOVE
 70
     0
  9
$LUNITS
 70
     2
  9
$LUPREC
 70
     2
  9
$SKETCHINC
 40
1.0
  9
$FILLETRAD
 40
0.0
  9
$AUNITS
 70
     0
  9
$AUPREC
 70
     2
  9
$MENU
  1
.
  9
$ELEVATION
 40
0.0
  9
$PELEVATION
 40
0.0
  9
$THICKNESS
 40
0.0
  9
$LIMCHECK
 70
     0
  9
$CHAMFERA
 40
0.0
  9
$CHAMFERB
 40
0.0
  9
$CHAMFERC
 40
0.0
  9
$CHAMFERD
 40
0.0
  9
$SKPOLY
 70
     0
  9
$TDCREATE
 40
2460712.47399875
  9
$TDUCREATE
 40
2460712.09899875
  9
$TDUPDATE
 40
2460712.473999121
  9
$TDUUPDATE
 40
2460712.098999121
  9
$TDINDWG
 40
0.0000000116
  9
$TDUSRTIMER
 40
0.0000000116
  9
$USRTIMER
 70
     1
  9
$ANGBASE
 50
0.0
  9
$ANGDIR
 70
     0
  9
$PDMODE
 70
     0
  9
$PDSIZE
 40
-1.0
  9
$PLINEWID
 40
0.0
  9
$SPLFRAME
 70
     0
  9
$SPLINETYPE
 70
     6
  9
$SPLINESEGS
 70
     8
  9
$HANDSEED
  5
511
  9
$SURFTAB1
 70
     6
  9
$SURFTAB2
 70
     6
  9
$SURFTYPE
 70
     6
  9
$SURFU
 70
     6
  9
$SURFV
 70
     6
  9
$UCSBASE
  2

  9
$UCSNAME
  2

  9
$UCSORG
 10
0.0
 20
0.0
 30
0.0
  9
$UCSXDIR
 10
1.0
 20
0.0
 30
0.0
  9
$UCSYDIR
 10
0.0
 20
1.0
 30
0.0
  9
$UCSORTHOREF
  2

  9
$UCSORTHOVIEW
 70
     0
  9
$UCSORGTOP
 10
0.0
 20
0.0
 30
0.0
  9
$UCSORGBOTTOM
 10
0.0
 20
0.0
 30
0.0
  9
$UCSORGLEFT
 10
0.0
 20
0.0
 30
0.0
  9
$UCSORGRIGHT
 10
0.0
 20
0.0
 30
0.0
  9
$UCSORGFRONT
 10
0.0
 20
0.0
 30
0.0
  9
$UCSORGBACK
 10
0.0
 20
0.0
 30
0.0
  9
$PUCSBASE
  2

  9
$PUCSNAME
  2

  9
$PUCSORG
 10
0.0
 20
0.0
 30
0.0
  9
$PUCSXDIR
 10
1.0
 20
0.0
 30
0.0
  9
$PUCSYDIR
 10
0.0
 20
1.0
 30
0.0
  9
$PUCSORTHOREF
  2

  9
$PUCSORTHOVIEW
 70
     0
  9
$PUCSORGTOP
 10
0.0
 20
0.0
 30
0.0
  9
$PUCSORGBOTTOM
 10
0.0
 20
0.0
 30
0.0
  9
$PUCSORGLEFT
 10
0.0
 20
0.0
 30
0.0
  9
$PUCSORGRIGHT
 10
0.0
 20
0.0
 30
0.0
  9
$PUCSORGFRONT
 10
0.0
 20
0.0
 30
0.0
  9
$PUCSORGBACK
 10
0.0
 20
0.0
 30
0.0
  9
$USERI1
 70
     0
  9
$USERI2
 70
     0
  9
$USERI3
 70
     0
  9
$USERI4
 70
     0
  9
$USERI5
 70
     0
  9
$USERR1
 40
0.0
  9
$USERR2
 40
0.0
  9
$USERR3
 40
0.0
  9
$USERR4
 40
0.0
  9
$USERR5
 40
0.0
  9
$WORLDVIEW
 70
     1
  9
$SHADEDGE
 70
     3
  9
$SHADEDIF
 70
    70
  9
$TILEMODE
 70
     1
  9
$MAXACTVP
 70
    64
  9
$PINSBASE
 10
0.0
 20
0.0
 30
0.0
  9
$PLIMCHECK
 70
     0
  9
$PEXTMIN
 10
1.0000000000E+20
 20
1.0000000000E+20
 30
1.0000000000E+20
  9
$PEXTMAX
 10
-1.0000000000E+20
 20
-1.0000000000E+20
 30
-1.0000000000E+20
  9
$PLIMMIN
 10
0.0
 20
0.0
  9
$PLIMMAX
 10
420.0
 20
297.0
  9
$UNITMODE
 70
     0
  9
$VISRETAIN
 70
     1
  9
$PLINEGEN
 70
     0
  9
$PSLTSCALE
 70
     1
  9
$TREEDEPTH
 70
  3020
  9
$CMLSTYLE
  2
Standard
  9
$CMLJUST
 70
     0
  9
$CMLSCALE
 40
20.0
  9
$PROXYGRAPHICS
 70
     1
  9
$MEASUREMENT
 70
     1
  9
$CELWEIGHT
370
    -1
  9
$ENDCAPS
280
     0
  9
$JOINSTYLE
280
     0
  9
$LWDISPLAY
290
     1
  9
$INSUNITS
 70
     4
  9
$HYPERLINKBASE
  1

  9
$STYLESHEET
  1

  9
$XEDIT
290
     1
  9
$CEPSNTYPE
380
     0
  9
$PSTYLEMODE
290
     1
  9
$FINGERPRINTGUID
  2
{25c833f5-d0c5-409a-a11c-4dd50a3f1fe6}
  9
$VERSIONGUID
  2
{FAEB1C32-E019-11D5-929B-00C0DF256EC4}
  9
$EXTNAMES
290
     1
  9
$PSVPSCALE
 40
0.0
  9
$OLESTARTUP
290
     0
  0
ENDSEC
  0
SECTION
  2
CLASSES
  0
CLASS
  1
ACDBDICTIONARYWDFLT
  2
AcDbDictionaryWithDefault
  3
ObjectDBX Classes
 90
        0
280
     0
281
     0
  0
CLASS
  1
VISUALSTYLE
  2
AcDbVisualStyle
  3
ObjectDBX Classes
 90
     4095
280
     0
281
     0
  0
CLASS
  1
MATERIAL
  2
AcDbMaterial
  3
ObjectDBX Classes
 90
     1153
280
     0
281
     0
  0
CLASS
  1
SCALE
  2
AcDbScale
  3
ObjectDBX Classes
 90
     1153
280
     0
281
     0
  0
CLASS
  1
TABLESTYLE
  2
AcDbTableStyle
  3
ObjectDBX Classes
 90
     4095
280
     0
281
     0
  0
CLASS
  1
MLEADERSTYLE
  2
AcDbMLeaderStyle
  3
ACDB_MLEADERSTYLE_CLASS
 90
     4095
280
     0
281
     0
  0
CLASS
  1
SUN
  2
AcDbSun
  3
SCENEOE
 90
     1153
280
     0
281
     0
  0
CLASS
  1
ACDBPLACEHOLDER
  2
AcDbPlaceHolder
  3
ObjectDBX Classes
 90
        0
280
     0
281
     0
  0
CLASS
  1
LAYOUT
  2
AcDbLayout
  3
ObjectDBX Classes
 90
        0
280
     0
281
     0
  0
ENDSEC
  0
SECTION
  2
TABLES
  0
TABLE
  2
VPORT
  5
8
330
0
100
AcDbSymbolTable
 70
     1
  0
VPORT
  5
29
330
8
100
AcDbSymbolTableRecord
100
AcDbViewportTableRecord
  2
*Active
 70
     0
 10
0.0
 20
0.0
 11
1.0
 21
1.0
 12
148.5
 22
105.0
 13
0.0
 23
0.0
 14
10.0
 24
10.0
 15
10.0
 25
10.0
 16
0.0
 26
0.0
 36
1.0
 17
0.0
 27
0.0
 37
0.0
 40
210.0
 41
1.4142857143
 42
50.0
 43
0.0
 44
0.0
 50
0.0
 51
0.0
 71
     0
 72
  2000
 73
     1
 74
     3
 75
     0
 76
     0
 77
     0
 78
     0
281
     0
 65
     1
110
0.0
120
0.0
130
0.0
111
1.0
121
0.0
131
0.0
112
0.0
122
1.0
132
0.0
 79
     0
146
0.0
  0
ENDTAB
  0
TABLE
  2
LTYPE
  5
5
330
0
100
AcDbSymbolTable
 70
     6
  0
LTYPE
  5
14
330
5
100
AcDbSymbolTableRecord
100
AcDbLinetypeTableRecord
  2
ByBlock
 70
     0
  3

 72
    65
 73
     0
 40
0.0
  0
LTYPE
  5
15
330
5
100
AcDbSymbolTableRecord
100
AcDbLinetypeTableRecord
  2
ByLayer
 70
     0
  3

 72
    65
 73
     0
 40
0.0
  0
LTYPE
  5
16
330
5
100
AcDbSymbolTableRecord
100
AcDbLinetypeTableRecord
  2
Continuous
 70
     0
  3
Solid line
 72
    65
 73
     0
 40
0.0
  0
LTYPE
  5
5E
330
5
100
AcDbSymbolTableRecord
100
AcDbLinetypeTableRecord
  2
HIDDEN
 70
     0
  3
Hidden __ __ __ __ __ __ __ __ __ __ __ __ __ __
 72
    65
 73
     2
 40
1.905
 49
1.27
 74
     0
 49
-0.635
 74
     0
  0
LTYPE
  5
5F
330
5
100
AcDbSymbolTableRecord
100
AcDbLinetypeTableRecord
  2
PHANTOM
 70
     0
  3
Phantom ______  __  __  ______  __  __  ______
 72
    65
 73
     6
 40
12.7
 49
6.35
 74
     0
 49
-1.27
 74
     0
 49
1.27
 74
     0
 49
-1.27
 74
     0
 49
1.27
 74
     0
 49
-1.27
 74
     0
  0
LTYPE
  5
60
330
5
100
AcDbSymbolTableRecord
100
AcDbLinetypeTableRecord
  2
CENTER
 70
     0
  3
Center ____ _ ____ _ ____ _ ____ _ ____ _ ____
 72
    65
 73
     4
 40
10.16
 49
6.35
 74
     0
 49
-1.27
 74
     0
 49
1.27
 74
     0
 49
-1.27
 74
     0
  0
LTYPE
  5
61
330
5
100
AcDbSymbolTableRecord
100
AcDbLinetypeTableRecord
  2
CENTERX2
 70
     0
  3
Center (2x) ________  __  ________  __  _____
 72
    65
 73
     4
 40
20.32
 49
12.7
 74
     0
 49
-2.54
 74
     0
 49
2.54
 74
     0
 49
-2.54
 74
     0
  0
LTYPE
  5
62
330
5
100
AcDbSymbolTableRecord
100
AcDbLinetypeTableRecord
  2
DOT2
 70
     0
  3
Dot (.5x) ........................................
 72
    65
 73
     2
 40
0.635
 49
0.0
 74
     0
 49
-0.635
 74
     0
  0
ENDTAB
  0
TABLE
  2
LAYER
  5
2
330
0
100
AcDbSymbolTable
 70
     1
  0
LAYER
  5
10
330
2
100
AcDbSymbolTableRecord
100
AcDbLayerTableRecord
  2
0
 70
     0
 62
     7
  6
Continuous
370
    -3
390
F
  0
ENDTAB
  0
TABLE
  2
STYLE
  5
3
330
0
100
AcDbSymbolTable
 70
     2
  0
STYLE
  5
11
330
3
100
AcDbSymbolTableRecord
100
AcDbTextStyleTableRecord
  2
Standard
 70
     0
 40
0.0
 41
1.0
 50
0.0
 71
     0
 42
3.5
  3
txt
  4
bigfont
  0
STYLE
  5
50E
330
3
100
AcDbSymbolTableRecord
100
AcDbTextStyleTableRecord
  2
SLDTEXTSTYLE0
 70
     0
 40
0.0
 41
0.7
 50
0.0
 71
     0
 42
3.5
  3
TXT
  4
bigfont
  0
ENDTAB
  0
TABLE
  2
VIEW
  5
6
330
0
100
AcDbSymbolTable
 70
     0
  0
ENDTAB
  0
TABLE
  2
UCS
  5
7
330
0
100
AcDbSymbolTable
 70
     0
  0
ENDTAB
  0
TABLE
  2
APPID
  5
9
330
0
100
AcDbSymbolTable
 70
     1
  0
APPID
  5
12
330
9
100
AcDbSymbolTableRecord
100
AcDbRegAppTableRecord
  2
ACAD
 70
     0
  0
ENDTAB
  0
TABLE
  2
DIMSTYLE
  5
A
330
0
100
AcDbSymbolTable
 70
     1
100
AcDbDimStyleTable
  0
DIMSTYLE
105
27
330
A
100
AcDbSymbolTableRecord
100
AcDbDimStyleTableRecord
  2
ISO-25
 70
     0
 41
2.5
 42
0.625
 43
3.75
 44
1.25
 73
     0
 74
     0
 77
     1
 78
     8
140
2.5
141
2.5
143
0.0393700787
147
0.625
171
     3
172
     1
178
     0
271
     2
272
     2
274
     3
278
    44
283
     0
284
     8
340
11
  0
ENDTAB
  0
TABLE
  2
BLOCK_RECORD
  5
1
330
0
100
AcDbSymbolTable
 70
     1
  0
BLOCK_RECORD
  5
1F
330
1
100
AcDbSymbolTableRecord
100
AcDbBlockTableRecord
  2
*Model_Space
340
22
  0
BLOCK_RECORD
  5
1B
330
1
100
AcDbSymbolTableRecord
100
AcDbBlockTableRecord
  2
*Paper_Space
340
1E
  0
BLOCK_RECORD
  5
23
330
1
100
AcDbSymbolTableRecord
100
AcDbBlockTableRecord
  2
*Paper_Space0
340
26
  0
ENDTAB
  0
ENDSEC
  0
SECTION
  2
BLOCKS
  0
BLOCK
  5
20
330
1F
100
AcDbEntity
  8
0
100
AcDbBlockBegin
  2
*Model_Space
 70
     0
 10
0.0
 20
0.0
 30
0.0
  3
*Model_Space
  1

  0
ENDBLK
  5
21
330
1F
100
AcDbEntity
  8
0
100
AcDbBlockEnd
  0
BLOCK
  5
1C
330
1B
100
AcDbEntity
 67
     1
  8
0
100
AcDbBlockBegin
  2
*Paper_Space
 70
     0
 10
0.0
 20
0.0
 30
0.0
  3
*Paper_Space
  1

  0
ENDBLK
  5
1D
330
1B
100
AcDbEntity
 67
     1
  8
0
100
AcDbBlockEnd
  0
BLOCK
  5
24
330
23
100
AcDbEntity
  8
0
100
AcDbBlockBegin
  2
*Paper_Space0
 70
     0
 10
0.0
 20
0.0
 30
0.0
  3
*Paper_Space0
  1

  0
ENDBLK
  5
25
330
23
100
AcDbEntity
  8
0
100
AcDbBlockEnd
  0
ENDSEC
  0
SECTION
  2
ENTITIES
  0
LINE
  5
63
330
1F
100
AcDbEntity
  8
0
  6
Continuous
 62
     7
370
    25
100
AcDbLine
 10
110.4329285514
 20
125.2680885446
 30
0.0
 11
89.8329285514
 21
125.2680885446
 31
0.0
  0
LINE
  5
64
330
1F
100
AcDbEntity
  8
0
  6
Continuous
 62
     7
370
    25
100
AcDbLine
 10
151.4329285514
 20
125.2680885446
 30
0.0
 11
125.4329285514
 21
125.2680885446
 31
0.0
  0
ARC
  5
65
330
1F
100
AcDbEntity
  8
0
  6
Continuous
 62
     7
370
    25
100
AcDbCircle
 10
88.4329285514
 20
123.5180885446
 30
0.0
 40
0.5000000000000057
100
AcDbArc
 50
180.0
 51
233.1301023542
  0
ARC
  5
66
330
1F
100
AcDbEntity
  8
0
  6
Continuous
 62
     7
370
    25
100
AcDbCircle
 10
88.4329285514
 20
124.0180885446
 30
0.0
 40
0.5
100
AcDbArc
 50
126.8698976458
 51
180.0
  0
LINE
  5
67
330
1F
100
AcDbEntity
  8
0
  6
Continuous
 62
     7
370
    25
100
AcDbLine
 10
89.6329285514
 20
123.0180885446
 30
0.0
 11
89.8329285514
 21
123.0180885446
 31
0.0
  0
LINE
  5
68
330
1F
100
AcDbEntity
  8
0
  6
Continuous
 62
     7
370
    25
100
AcDbLine
 10
151.4329285514
 20
123.0180885446
 30
0.0
 11
151.6329285514
 21
123.0180885446
 31
0.0
  0
LINE
  5
69
330
1F
100
AcDbEntity
  8
0
  6
Continuous
 62
     7
370
    25
100
AcDbLine
 10
89.8329285514
 20
124.7680870621
 30
0.0
 11
89.6329285514
 21
124.7680870621
 31
0.0
  0
LINE
  5
6A
330
1F
100
AcDbEntity
  8
0
  6
Continuous
 62
     7
370
    25
100
AcDbLine
 10
151.6329285514
 20
124.7680870621
 30
0.0
 11
151.4329285514
 21
124.7680870621
 31
0.0
  0
LINE
  5
6B
330
1F
100
AcDbEntity
  8
0
  6
Continuous
 62
     7
370
    25
100
AcDbLine
 10
49.4829285514
 20
125.2680885446
 30
0.0
 11
47.8829285514
 21
125.2680885446
 31
0.0
  0
LINE
  5
6C
330
1F
100
AcDbEntity
  8
0
  6
Continuous
 62
     7
370
    25
100
AcDbLine
 10
74.4829285514
 20
125.2680885446
 30
0.0
 11
61.4829285514
 21
125.2680885446
 31
0.0
  0
LINE
  5
6D
330
1F
100
AcDbEntity
  8
0
  6
Continuous
 62
     7
370
    25
100
AcDbLine
 10
74.4829285514
 20
123.0180885446
 30
0.0
 11
74.6829285514
 21
123.0180885446
 31
0.0
  0
LINE
  5
6E
330
1F
100
AcDbEntity
  8
0
  6
Continuous
 62
     7
370
    25
100
AcDbLine
 10
47.6829285514
 20
123.0180885446
 30
0.0
 11
47.8829285514
 21
123.0180885446
 31
0.0
  0
LINE
  5
6F
330
1F
100
AcDbEntity
  8
0
  6
Continuous
 62
     7
370
    25
100
AcDbLine
 10
47.8829285514
 20
124.768076473
 30
0.0
 11
47.6829285514
 21
124.768076473
 31
0.0
  0
LINE
  5
70
330
1F
100
AcDbEntity
  8
0
  6
Continuous
 62
     7
370
    25
100
AcDbLine
 10
74.6829285514
 20
124.7680766926
 30
0.0
 11
74.4829285514
 21
124.768076473
 31
0.0
  0
LINE
  5
71
330
1F
100
AcDbEntity
  8
0
  6
Continuous
 62
     7
370
    25
100
AcDbLine
 10
135.6456302168
 20
143.4680885446
 30
0.0
 11
136.4202268861
 21
143.4680885446
 31
0.0
  0
LINE
  5
72
330
1F
100
AcDbEntity
  8
0
  6
Continuous
 62
     7
370
    25
100
AcDbLine
 10
135.2829285514
 20
142.4897003264
 30
0.0
 11
135.2829285514
 21
143.0464767627
 31
0.0
  0
LINE
  5
73
330
1F
100
AcDbEntity
  8
0
  6
Continuous
 62
     7
370
    25
100
AcDbLine
 10
134.2829285514
 20
143.0464767627
 30
0.0
 11
134.2829285514
 21
142.4897003264
 31
0.0
  0
LINE
  5
74
330
1F
100
AcDbEntity
  8
0
  6
Continuous
 62
     7
370
    25
100
AcDbLine
 10
133.1456302168
 20
143.4680885446
 30
0.0
 11
133.9202268861
 21
143.4680885446
 31
0.0
  0
LINE
  5
75
330
1F
100
AcDbEntity
  8
0
  6
Continuous
 62
     7
370
    25
100
AcDbLine
 10
132.7829285514
 20
142.4897003264
 30
0.0
 11
132.7829285514
 21
143.0464767627
 31
0.0
  0
LINE
  5
76
330
1F
100
AcDbEntity
  8
0
  6
Continuous
 62
     7
370
    25
100
AcDbLine
 10
131.7829285514
 20
143.0464767627
 30
0.0
 11
131.7829285514
 21
142.4897003264
 31
0.0
  0
LINE
  5
77
330
1F
100
AcDbEntity
  8
0
  6
Continuous
 62
     7
370
    25
100
AcDbLine
 10
130.6456302168
 20
143.4680885446
 30
0.0
 11
131.4202268861
 21
143.4680885446
 31
0.0
  0
LINE
  5
78
330
1F
100
AcDbEntity
  8
0
  6
Continuous
 62
     7
370
    25
100
AcDbLine
 10
130.2829285514
 20
142.4897003264
 30
0.0
 11
130.2829285514
 21
143.0464767627
 31
0.0
  0
LINE
  5
79
330
1F
100
AcDbEntity
  8
0
  6
Continuous
 62
     7
370
    25
100
AcDbLine
 10
129.2829285514
 20
143.0464767627
 30
0.0
 11
129.2829285514
 21
142.4897003264
 31
0.0
  0
LINE
  5
7A
330
1F
100
AcDbEntity
  8
0
  6
Continuous
 62
     7
370
    25
100
AcDbLine
 10
128.1456302168
 20
143.4680885446
 30
0.0
 11
128.9202268861
 21
143.4680885446
 31
0.0
  0
LINE
  5
7B
330
1F
100
AcDbEntity
  8
0
  6
Continuous
 62
     7
370
    25
100
AcDbLine
 10
127.7829285514
 20
142.4897003264
 30
0.0
 11
127.7829285514
 21
143.0464767627
 31
0.0
  0
LINE
  5
7C
330
1F
100
AcDbEntity
  8
0
  6
Continuous
 62
     7
370
    25
100
AcDbLine
 10
126.7829285514
 20
143.0464767627
 30
0.0
 11
126.7829285514
 21
142.4897003264
 31
0.0
  0
LINE
  5
7D
330
1F
100
AcDbEntity
  8
0
  6
Continuous
 62
     7
370
    25
100
AcDbLine
 10
125.6456302168
 20
143.4680885446
 30
0.0
 11
126.4202268861
 21
143.4680885446
 31
0.0
  0
LINE
  5
7E
330
1F
100
AcDbEntity
  8
0
  6
Continuous
 62
     7
370
    25
100
AcDbLine
 10
143.1456302168
 20
143.4680885446
 30
0.0
 11
143.9202268861
 21
143.4680885446
 31
0.0
  0
LINE
  5
7F
330
1F
100
AcDbEntity
  8
0
  6
Continuous
 62
     7
370
    25
100
AcDbLine
 10
142.7829285514
 20
142.4897003264
 30
0.0
 11
142.7829285514
 21
143.0464767627
 31
0.0
  0
LINE
  5
80
330
1F
100
AcDbEntity
  8
0
  6
Continuous
 62
     7
370
    25
100
AcDbLine
 10
141.7829285514
 20
143.0464767627
 30
0.0
 11
141.7829285514
 21
142.4897003264
 31
0.0
  0
LINE
  5
81
330
1F
100
AcDbEntity
  8
0
  6
Continuous
 62
     7
370
    25
100
AcDbLine
 10
140.6456302168
 20
143.4680885446
 30
0.0
 11
141.4202268861
 21
143.4680885446
 31
0.0
  0
LINE
  5
82
330
1F
100
AcDbEntity
  8
0
  6
Continuous
 62
     7
370
    25
100
AcDbLine
 10
140.2829285514
 20
142.4897003264
 30
0.0
 11
140.2829285514
 21
143.0464767627
 31
0.0
  0
LINE
  5
83
330
1F
100
AcDbEntity
  8
0
  6
Continuous
 62
     7
370
    25
100
AcDbLine
 10
139.2829285514
 20
143.0464767627
 30
0.0
 11
139.2829285514
 21
142.4897003264
 31
0.0
  0
LINE
  5
84
330
1F
100
AcDbEntity
  8
0
  6
Continuous
 62
     7
370
    25
100
AcDbLine
 10
138.1456302168
 20
143.4680885446
 30
0.0
 11
138.9202268861
 21
143.4680885446
 31
0.0
  0
LINE
  5
85
330
1F
100
AcDbEntity
  8
0
  6
Continuous
 62
     7
370
    25
100
AcDbLine
 10
123.1456302168
 20
146.0680885446
 30
0.0
 11
123.9202268861
 21
146.0680885446
 31
0.0
  0
LINE
  5
86
330
1F
100
AcDbEntity
  8
0
  6
Continuous
 62
     7
370
    25
100
AcDbLine
 10
124.2829285514
 20
146.4897003264
 30
0.0
 11
124.2829285514
 21
147.0464767627
 31
0.0
  0
LINE
  5
87
330
1F
100
AcDbEntity
  8
0
  6
Continuous
 62
     7
370
    25
100
AcDbLine
 10
125.2829285514
 20
146.4897003264
 30
0.0
 11
125.2829285514
 21
147.0464767627
 31
0.0
  0
LINE
  5
88
330
1F
100
AcDbEntity
  8
0
  6
Continuous
 62
     7
370
    25
100
AcDbLine
 10
125.6456302168
 20
146.0680885446
 30
0.0
 11
126.4202268861
 21
146.0680885446
 31
0.0
  0
LINE
  5
89
330
1F
100
AcDbEntity
  8
0
  6
Continuous
 62
     7
370
    25
100
AcDbLine
 10
126.7829285514
 20
147.0464767627
 30
0.0
 11
126.7829285514
 21
146.4897003264
 31
0.0
  0
LINE
  5
8A
330
1F
100
AcDbEntity
  8
0
  6
Continuous
 62
     7
370
    25
100
AcDbLine
 10
127.7829285514
 20
146.4897003264
 30
0.0
 11
127.7829285514
 21
147.0464767627
 31
0.0
  0
LINE
  5
8B
330
1F
100
AcDbEntity
  8
0
  6
Continuous
 62
     7
370
    25
100
AcDbLine
 10
128.1456302168
 20
146.0680885446
 30
0.0
 11
128.9202268861
 21
146.0680885446
 31
0.0
  0
LINE
  5
8C
330
1F
100
AcDbEntity
  8
0
  6
Continuous
 62
     7
370
    25
100
AcDbLine
 10
129.2829285514
 20
147.0464767627
 30
0.0
 11
129.2829285514
 21
146.4897003264
 31
0.0
  0
LINE
  5
8D
330
1F
100
AcDbEntity
  8
0
  6
Continuous
 62
     7
370
    25
100
AcDbLine
 10
130.2829285514
 20
146.4897003264
 30
0.0
 11
130.2829285514
 21
147.0464767627
 31
0.0
  0
LINE
  5
8E
330
1F
100
AcDbEntity
  8
0
  6
Continuous
 62
     7
370
    25
100
AcDbLine
 10
130.6456302168
 20
146.0680885446
 30
0.0
 11
131.4202268861
 21
146.0680885446
 31
0.0
  0
LINE
  5
8F
330
1F
100
AcDbEntity
  8
0
  6
Continuous
 62
     7
370
    25
100
AcDbLine
 10
131.7829285514
 20
147.0464767627
 30
0.0
 11
131.7829285514
 21
146.4897003264
 31
0.0
  0
LINE
  5
90
330
1F
100
AcDbEntity
  8
0
  6
Continuous
 62
     7
370
    25
100
AcDbLine
 10
132.7829285514
 20
146.4897003264
 30
0.0
 11
132.7829285514
 21
147.0464767627
 31
0.0
  0
LINE
  5
91
330
1F
100
AcDbEntity
  8
0
  6
Continuous
 62
     7
370
    25
100
AcDbLine
 10
133.1456302168
 20
146.0680885446
 30
0.0
 11
133.9202268861
 21
146.0680885446
 31
0.0
  0
LINE
  5
92
330
1F
100
AcDbEntity
  8
0
  6
Continuous
 62
     7
370
    25
100
AcDbLine
 10
134.2829285514
 20
147.0464767627
 30
0.0
 11
134.2829285514
 21
146.4897003264
 31
0.0
  0
LINE
  5
93
330
1F
100
AcDbEntity
  8
0
  6
Continuous
 62
     7
370
    25
100
AcDbLine
 10
135.2829285514
 20
146.4897003264
 30
0.0
 11
135.2829285514
 21
147.0464767627
 31
0.0
  0
LINE
  5
94
330
1F
100
AcDbEntity
  8
0
  6
Continuous
 62
     7
370
    25
100
AcDbLine
 10
135.6456302168
 20
146.0680885446
 30
0.0
 11
136.4202268861
 21
146.0680885446
 31
0.0
  0
LINE
  5
95
330
1F
100
AcDbEntity
  8
0
  6
Continuous
 62
     7
370
    25
100
AcDbLine
 10
136.7829285514
 20
147.0464767627
 30
0.0
 11
136.7829285514
 21
146.4897003264
 31
0.0
  0
LINE
  5
96
330
1F
100
AcDbEntity
  8
0
  6
Continuous
 62
     7
370
    25
100
AcDbLine
 10
137.7829285514
 20
146.4897003264
 30
0.0
 11
137.7829285514
 21
147.0464767627
 31
0.0
  0
LINE
  5
97
330
1F
100
AcDbEntity
  8
0
  6
Continuous
 62
     7
370
    25
100
AcDbLine
 10
138.1456302168
 20
146.0680885446
 30
0.0
 11
138.9202268861
 21
146.0680885446
 31
0.0
  0
LINE
  5
98
330
1F
100
AcDbEntity
  8
0
  6
Continuous
 62
     7
370
    25
100
AcDbLine
 10
139.2829285514
 20
147.0464767627
 30
0.0
 11
139.2829285514
 21
146.4897003264
 31
0.0
  0
LINE
  5
99
330
1F
100
AcDbEntity
  8
0
  6
Continuous
 62
     7
370
    25
100
AcDbLine
 10
140.2829285514
 20
146.4897003264
 30
0.0
 11
140.2829285514
 21
147.0464767627
 31
0.0
  0
LINE
  5
9A
330
1F
100
AcDbEntity
  8
0
  6
Continuous
 62
     7
370
    25
100
AcDbLine
 10
140.6456302168
 20
146.0680885446
 30
0.0
 11
141.4202268861
 21
146.0680885446
 31
0.0
  0
LINE
  5
9B
330
1F
100
AcDbEntity
  8
0
  6
Continuous
 62
     7
370
    25
100
AcDbLine
 10
141.7829285514
 20
147.0464767627
 30
0.0
 11
141.7829285514
 21
146.4897003264
 31
0.0
  0
LINE
  5
9C
330
1F
100
AcDbEntity
  8
0
  6
Continuous
 62
     7
370
    25
100
AcDbLine
 10
142.7829285514
 20
146.4897003264
 30
0.0
 11
142.7829285514
 21
147.0464767627
 31
0.0
  0
LINE
  5
9D
330
1F
100
AcDbEntity
  8
0
  6
Continuous
 62
     7
370
    25
100
AcDbLine
 10
143.1456302168
 20
146.0680885446
 30
0.0
 11
143.9202268861
 21
146.0680885446
 31
0.0
  0
LINE
  5
9E
330
1F
100
AcDbEntity
  8
0
  6
Continuous
 62
     7
370
    25
100
AcDbLine
 10
137.7829285514
 20
143.0464767627
 30
0.0
 11
137.7829285514
 21
142.4897003264
 31
0.0
  0
LINE
  5
9F
330
1F
100
AcDbEntity
  8
0
  6
Continuous
 62
     7
370
    25
100
AcDbLine
 10
136.7829285514
 20
142.4897003264
 30
0.0
 11
136.7829285514
 21
143.0464767627
 31
0.0
  0
LINE
  5
A0
330
1F
100
AcDbEntity
  8
0
  6
Continuous
 62
     7
370
    25
100
AcDbLine
 10
140.2913087027
 20
147.0680885446
 30
0.0
 11
141.7745484002
 21
147.0680885446
 31
0.0
  0
LINE
  5
A1
330
1F
100
AcDbEntity
  8
0
  6
Continuous
 62
     7
370
    25
100
AcDbLine
 10
137.7913087027
 20
147.0680885446
 30
0.0
 11
139.2745484002
 21
147.0680885446
 31
0.0
  0
LINE
  5
A2
330
1F
100
AcDbEntity
  8
0
  6
Continuous
 62
     7
370
    25
100
AcDbLine
 10
143.0129285514
 20
147.0680885446
 30
0.0
 11
144.2745484002
 21
147.0680885446
 31
0.0
  0
LINE
  5
A3
330
1F
100
AcDbEntity
  8
0
  6
Continuous
 62
     7
370
    25
100
AcDbLine
 10
130.2913087027
 20
147.0680885446
 30
0.0
 11
131.7745484002
 21
147.0680885446
 31
0.0
  0
LINE
  5
A4
330
1F
100
AcDbEntity
  8
0
  6
Continuous
 62
     7
370
    25
100
AcDbLine
 10
127.7913087027
 20
147.0680885446
 30
0.0
 11
129.2745484002
 21
147.0680885446
 31
0.0
  0
LINE
  5
A5
330
1F
100
AcDbEntity
  8
0
  6
Continuous
 62
     7
370
    25
100
AcDbLine
 10
122.7913087027
 20
147.0680885446
 30
0.0
 11
124.0529285514
 21
147.0680885446
 31
0.0
  0
LINE
  5
A6
330
1F
100
AcDbEntity
  8
0
  6
Continuous
 62
     7
370
    25
100
AcDbLine
 10
135.2913087027
 20
147.0680885446
 30
0.0
 11
136.7745484002
 21
147.0680885446
 31
0.0
  0
LINE
  5
A7
330
1F
100
AcDbEntity
  8
0
  6
Continuous
 62
     7
370
    25
100
AcDbLine
 10
132.7913087027
 20
147.0680885446
 30
0.0
 11
134.2745484002
 21
147.0680885446
 31
0.0
  0
LINE
  5
A8
330
1F
100
AcDbEntity
  8
0
  6
Continuous
 62
     7
370
    25
100
AcDbLine
 10
125.2913087027
 20
147.0680885446
 30
0.0
 11
126.7745484002
 21
147.0680885446
 31
0.0
  0
LINE
  5
A9
330
1F
100
AcDbEntity
  8
0
  6
Continuous
 62
     7
370
    25
100
AcDbLine
 10
143.0129285514
 20
146.1601411784
 30
0.0
 11
143.0129285514
 21
147.3760359107
 31
0.0
  0
LINE
  5
AA
330
1F
100
AcDbEntity
  8
0
  6
Continuous
 62
     7
370
    25
100
AcDbLine
 10
124.0529285514
 20
146.1601411784
 30
0.0
 11
124.0529285514
 21
147.3760359107
 31
0.0
  0
LINE
  5
AB
330
1F
100
AcDbEntity
  8
0
  6
Continuous
 62
     7
370
    25
100
AcDbLine
 10
126.5529285514
 20
143.3760359107
 30
0.0
 11
126.5529285514
 21
142.1601411784
 31
0.0
  0
LINE
  5
AC
330
1F
100
AcDbEntity
  8
0
  6
Continuous
 62
     7
370
    25
100
AcDbLine
 10
143.0129285514
 20
143.3760359107
 30
0.0
 11
143.0129285514
 21
142.1601411784
 31
0.0
  0
CIRCLE
  5
AD
330
1F
100
AcDbEntity
  8
0
  6
Continuous
 62
     7
370
    25
100
AcDbCircle
 10
141.0329285514
 20
142.7680885446
 30
0.0
 40
0.5500000000000398
  0
CIRCLE
  5
AE
330
1F
100
AcDbEntity
  8
0
  6
Continuous
 62
     7
370
    25
100
AcDbCircle
 10
128.5329285514
 20
142.7680885446
 30
0.0
 40
0.5499999999999972
  0
CIRCLE
  5
AF
330
1F
100
AcDbEntity
  8
0
  6
Continuous
 62
     7
370
    25
100
AcDbCircle
 10
136.0329285514
 20
142.7680885446
 30
0.0
 40
0.549999999999983
  0
CIRCLE
  5
B0
330
1F
100
AcDbEntity
  8
0
  6
Continuous
 62
     7
370
    25
100
AcDbCircle
 10
138.5329285514
 20
142.7680885446
 30
0.0
 40
0.549999999999983
  0
CIRCLE
  5
B1
330
1F
100
AcDbEntity
  8
0
  6
Continuous
 62
     7
370
    25
100
AcDbCircle
 10
143.5329285514
 20
142.7680885446
 30
0.0
 40
0.5500000000000398
  0
CIRCLE
  5
B2
330
1F
100
AcDbEntity
  8
0
  6
Continuous
 62
     7
370
    25
100
AcDbCircle
 10
131.0329285514
 20
142.7680885446
 30
0.0
 40
0.549999999999983
  0
CIRCLE
  5
B3
330
1F
100
AcDbEntity
  8
0
  6
Continuous
 62
     7
370
    25
100
AcDbCircle
 10
126.0329285514
 20
142.7680885446
 30
0.0
 40
0.5499999999999972
  0
CIRCLE
  5
B4
330
1F
100
AcDbEntity
  8
0
  6
Continuous
 62
     7
370
    25
100
AcDbCircle
 10
133.5329285514
 20
142.7680885446
 30
0.0
 40
0.549999999999983
  0
CIRCLE
  5
B5
330
1F
100
AcDbEntity
  8
0
  6
Continuous
 62
     7
370
    25
100
AcDbCircle
 10
138.5329285514
 20
142.7680885446
 30
0.0
 40
0.75
  0
CIRCLE
  5
B6
330
1F
100
AcDbEntity
  8
0
  6
Continuous
 62
     7
370
    25
100
AcDbCircle
 10
126.0329285514
 20
142.7680885446
 30
0.0
 40
0.75
  0
CIRCLE
  5
B7
330
1F
100
AcDbEntity
  8
0
  6
Continuous
 62
     7
370
    25
100
AcDbCircle
 10
128.5329285514
 20
142.7680885446
 30
0.0
 40
0.75
  0
CIRCLE
  5
B8
330
1F
100
AcDbEntity
  8
0
  6
Continuous
 62
     7
370
    25
100
AcDbCircle
 10
131.0329285514
 20
142.7680885446
 30
0.0
 40
0.75
  0
CIRCLE
  5
B9
330
1F
100
AcDbEntity
  8
0
  6
Continuous
 62
     7
370
    25
100
AcDbCircle
 10
136.0329285514
 20
142.7680885446
 30
0.0
 40
0.75
  0
CIRCLE
  5
BA
330
1F
100
AcDbEntity
  8
0
  6
Continuous
 62
     7
370
    25
100
AcDbCircle
 10
133.5329285514
 20
142.7680885446
 30
0.0
 40
0.75
  0
CIRCLE
  5
BB
330
1F
100
AcDbEntity
  8
0
  6
Continuous
 62
     7
370
    25
100
AcDbCircle
 10
143.5329285514
 20
142.7680885446
 30
0.0
 40
0.75
  0
CIRCLE
  5
BC
330
1F
100
AcDbEntity
  8
0
  6
Continuous
 62
     7
370
    25
100
AcDbCircle
 10
141.0329285514
 20
142.7680885446
 30
0.0
 40
0.75
  0
CIRCLE
  5
BD
330
1F
100
AcDbEntity
  8
0
  6
Continuous
 62
     7
370
    25
100
AcDbCircle
 10
141.0329285514
 20
142.7680885446
 30
0.0
 40
0.75
  0
CIRCLE
  5
BE
330
1F
100
AcDbEntity
  8
0
  6
Continuous
 62
     7
370
    25
100
AcDbCircle
 10
143.5329285514
 20
142.7680885446
 30
0.0
 40
0.75
  0
CIRCLE
  5
BF
330
1F
100
AcDbEntity
  8
0
  6
Continuous
 62
     7
370
    25
100
AcDbCircle
 10
133.5329285514
 20
142.7680885446
 30
0.0
 40
0.75
  0
CIRCLE
  5
C0
330
1F
100
AcDbEntity
  8
0
  6
Continuous
 62
     7
370
    25
100
AcDbCircle
 10
136.0329285514
 20
142.7680885446
 30
0.0
 40
0.75
  0
CIRCLE
  5
C1
330
1F
100
AcDbEntity
  8
0
  6
Continuous
 62
     7
370
    25
100
AcDbCircle
 10
131.0329285514
 20
142.7680885446
 30
0.0
 40
0.75
  0
CIRCLE
  5
C2
330
1F
100
AcDbEntity
  8
0
  6
Continuous
 62
     7
370
    25
100
AcDbCircle
 10
128.5329285514
 20
142.7680885446
 30
0.0
 40
0.75
  0
CIRCLE
  5
C3
330
1F
100
AcDbEntity
  8
0
  6
Continuous
 62
     7
370
    25
100
AcDbCircle
 10
126.0329285514
 20
142.7680885446
 30
0.0
 40
0.75
  0
CIRCLE
  5
C4
330
1F
100
AcDbEntity
  8
0
  6
Continuous
 62
     7
370
    25
100
AcDbCircle
 10
138.5329285514
 20
142.7680885446
 30
0.0
 40
0.75
  0
LINE
  5
C5
330
1F
100
AcDbEntity
  8
0
  6
Continuous
 62
     7
370
    25
100
AcDbLine
 10
141.6329285514
 20
142.2389382823
 30
0.0
 11
141.6329285514
 21
143.2972388068
 31
0.0
  0
LINE
  5
C6
330
1F
100
AcDbEntity
  8
0
  6
Continuous
 62
     7
370
    25
100
AcDbLine
 10
140.4329285514
 20
142.2389382823
 30
0.0
 11
140.4329285514
 21
143.2972388068
 31
0.0
  0
LINE
  5
C7
330
1F
100
AcDbEntity
  8
0
  6
Continuous
 62
     7
370
    25
100
AcDbLine
 10
125.4329285514
 20
142.2389382823
 30
0.0
 11
125.4329285514
 21
143.2972388068
 31
0.0
  0
LINE
  5
C8
330
1F
100
AcDbEntity
  8
0
  6
Continuous
 62
     7
370
    25
100
AcDbLine
 10
130.5037782892
 20
142.1680885446
 30
0.0
 11
131.5620788137
 21
142.1680885446
 31
0.0
  0
LINE
  5
C9
330
1F
100
AcDbEntity
  8
0
  6
Continuous
 62
     7
370
    25
100
AcDbLine
 10
130.5037782892
 20
143.3680885446
 30
0.0
 11
131.5620788137
 21
143.3680885446
 31
0.0
  0
LINE
  5
CA
330
1F
100
AcDbEntity
  8
0
  6
Continuous
 62
     7
370
    25
100
AcDbLine
 10
134.1329285514
 20
142.2389382823
 30
0.0
 11
134.1329285514
 21
143.2972388068
 31
0.0
  0
LINE
  5
CB
330
1F
100
AcDbEntity
  8
0
  6
Continuous
 62
     7
370
    25
100
AcDbLine
 10
135.5037782892
 20
143.3680885446
 30
0.0
 11
136.5620788137
 21
143.3680885446
 31
0.0
  0
LINE
  5
CC
330
1F
100
AcDbEntity
  8
0
  6
Continuous
 62
     7
370
    25
100
AcDbLine
 10
128.0037782892
 20
143.3680885446
 30
0.0
 11
129.0620788137
 21
143.3680885446
 31
0.0
  0
LINE
  5
CD
330
1F
100
AcDbEntity
  8
0
  6
Continuous
 62
     7
370
    25
100
AcDbLine
 10
127.9329285514
 20
142.2389382823
 30
0.0
 11
127.9329285514
 21
143.2972388068
 31
0.0
  0
LINE
  5
CE
330
1F
100
AcDbEntity
  8
0
  6
Continuous
 62
     7
370
    25
100
AcDbLine
 10
135.5037782892
 20
142.1680885446
 30
0.0
 11
136.5620788137
 21
142.1680885446
 31
0.0
  0
LINE
  5
CF
330
1F
100
AcDbEntity
  8
0
  6
Continuous
 62
     7
370
    25
100
AcDbLine
 10
133.0037782892
 20
142.1680885446
 30
0.0
 11
134.0620788137
 21
142.1680885446
 31
0.0
  0
LINE
  5
D0
330
1F
100
AcDbEntity
  8
0
  6
Continuous
 62
     7
370
    25
100
AcDbLine
 10
132.9329285514
 20
142.2389382823
 30
0.0
 11
132.9329285514
 21
143.2972388068
 31
0.0
  0
LINE
  5
D1
330
1F
100
AcDbEntity
  8
0
  6
Continuous
 62
     7
370
    25
100
AcDbLine
 10
138.0037782892
 20
142.1680885446
 30
0.0
 11
139.0620788137
 21
142.1680885446
 31
0.0
  0
LINE
  5
D2
330
1F
100
AcDbEntity
  8
0
  6
Continuous
 62
     7
370
    25
100
AcDbLine
 10
143.0037782892
 20
142.1680885446
 30
0.0
 11
144.0620788137
 21
142.1680885446
 31
0.0
  0
LINE
  5
D3
330
1F
100
AcDbEntity
  8
0
  6
Continuous
 62
     7
370
    25
100
AcDbLine
 10
140.5037782892
 20
143.3680885446
 30
0.0
 11
141.5620788137
 21
143.3680885446
 31
0.0
  0
LINE
  5
D4
330
1F
100
AcDbEntity
  8
0
  6
Continuous
 62
     7
370
    25
100
AcDbLine
 10
135.4329285514
 20
142.2389382823
 30
0.0
 11
135.4329285514
 21
143.2972388068
 31
0.0
  0
LINE
  5
D5
330
1F
100
AcDbEntity
  8
0
  6
Continuous
 62
     7
370
    25
100
AcDbLine
 10
125.5037782892
 20
143.3680885446
 30
0.0
 11
126.5620788137
 21
143.3680885446
 31
0.0
  0
LINE
  5
D6
330
1F
100
AcDbEntity
  8
0
  6
Continuous
 62
     7
370
    25
100
AcDbLine
 10
144.1329285514
 20
142.2389382823
 30
0.0
 11
144.1329285514
 21
143.2972388068
 31
0.0
  0
LINE
  5
D7
330
1F
100
AcDbEntity
  8
0
  6
Continuous
 62
     7
370
    25
100
AcDbLine
 10
128.0037782892
 20
142.1680885446
 30
0.0
 11
129.0620788137
 21
142.1680885446
 31
0.0
  0
LINE
  5
D8
330
1F
100
AcDbEntity
  8
0
  6
Continuous
 62
     7
370
    25
100
AcDbLine
 10
129.1329285514
 20
142.2389382823
 30
0.0
 11
129.1329285514
 21
143.2972388068
 31
0.0
  0
LINE
  5
D9
330
1F
100
AcDbEntity
  8
0
  6
Continuous
 62
     7
370
    25
100
AcDbLine
 10
133.0037782892
 20
143.3680885446
 30
0.0
 11
134.0620788137
 21
143.3680885446
 31
0.0
  0
LINE
  5
DA
330
1F
100
AcDbEntity
  8
0
  6
Continuous
 62
     7
370
    25
100
AcDbLine
 10
125.5037782892
 20
142.1680885446
 30
0.0
 11
126.5620788137
 21
142.1680885446
 31
0.0
  0
LINE
  5
DB
330
1F
100
AcDbEntity
  8
0
  6
Continuous
 62
     7
370
    25
100
AcDbLine
 10
142.9329285514
 20
142.2389382823
 30
0.0
 11
142.9329285514
 21
143.2972388068
 31
0.0
  0
LINE
  5
DC
330
1F
100
AcDbEntity
  8
0
  6
Continuous
 62
     7
370
    25
100
AcDbLine
 10
140.5037782892
 20
142.1680885446
 30
0.0
 11
141.5620788137
 21
142.1680885446
 31
0.0
  0
LINE
  5
DD
330
1F
100
AcDbEntity
  8
0
  6
Continuous
 62
     7
370
    25
100
AcDbLine
 10
138.0037782892
 20
143.3680885446
 30
0.0
 11
139.0620788137
 21
143.3680885446
 31
0.0
  0
LINE
  5
DE
330
1F
100
AcDbEntity
  8
0
  6
Continuous
 62
     7
370
    25
100
AcDbLine
 10
126.6329285514
 20
142.2389382823
 30
0.0
 11
126.6329285514
 21
143.2972388068
 31
0.0
  0
LINE
  5
DF
330
1F
100
AcDbEntity
  8
0
  6
Continuous
 62
     7
370
    25
100
AcDbLine
 10
139.1329285514
 20
142.2389382823
 30
0.0
 11
139.1329285514
 21
143.2972388068
 31
0.0
  0
LINE
  5
E0
330
1F
100
AcDbEntity
  8
0
  6
Continuous
 62
     7
370
    25
100
AcDbLine
 10
131.6329285514
 20
142.2389382823
 30
0.0
 11
131.6329285514
 21
143.2972388068
 31
0.0
  0
LINE
  5
E1
330
1F
100
AcDbEntity
  8
0
  6
Continuous
 62
     7
370
    25
100
AcDbLine
 10
143.0037782892
 20
143.3680885446
 30
0.0
 11
144.0620788137
 21
143.3680885446
 31
0.0
  0
LINE
  5
E2
330
1F
100
AcDbEntity
  8
0
  6
Continuous
 62
     7
370
    25
100
AcDbLine
 10
137.9329285514
 20
142.2389382823
 30
0.0
 11
137.9329285514
 21
143.2972388068
 31
0.0
  0
LINE
  5
E3
330
1F
100
AcDbEntity
  8
0
  6
Continuous
 62
     7
370
    25
100
AcDbLine
 10
136.6329285514
 20
142.2389382823
 30
0.0
 11
136.6329285514
 21
143.2972388068
 31
0.0
  0
LINE
  5
E4
330
1F
100
AcDbEntity
  8
0
  6
Continuous
 62
     7
370
    25
100
AcDbLine
 10
130.4329285514
 20
142.2389382823
 30
0.0
 11
130.4329285514
 21
143.2972388068
 31
0.0
  0
LINE
  5
E5
330
1F
100
AcDbEntity
  8
0
  6
Continuous
 62
     7
370
    25
100
AcDbLine
 10
125.4329285514
 20
142.9806377579
 30
0.0
 11
125.4329285514
 21
142.2389382823
 31
0.0
  0
LINE
  5
E6
330
1F
100
AcDbEntity
  8
0
  6
Continuous
 62
     7
370
    25
100
AcDbLine
 10
125.5037782892
 20
142.1680885446
 30
0.0
 11
126.5529285514
 21
142.1680885446
 31
0.0
  0
LINE
  5
E7
330
1F
100
AcDbEntity
  8
0
  6
Continuous
 62
     7
370
    25
100
AcDbLine
 10
141.6329285514
 20
142.9806377579
 30
0.0
 11
141.6329285514
 21
142.2389382823
 31
0.0
  0
LINE
  5
E8
330
1F
100
AcDbEntity
  8
0
  6
Continuous
 62
     7
370
    25
100
AcDbLine
 10
140.4329285514
 20
142.9806377579
 30
0.0
 11
140.4329285514
 21
142.2389382823
 31
0.0
  0
LINE
  5
E9
330
1F
100
AcDbEntity
  8
0
  6
Continuous
 62
     7
370
    25
100
AcDbLine
 10
140.5037782892
 20
142.1680885446
 30
0.0
 11
141.5620788137
 21
142.1680885446
 31
0.0
  0
LINE
  5
EA
330
1F
100
AcDbEntity
  8
0
  6
Continuous
 62
     7
370
    25
100
AcDbLine
 10
125.5037782892
 20
143.3680885446
 30
0.0
 11
126.5529285514
 21
143.3680885446
 31
0.0
  0
LINE
  5
EB
330
1F
100
AcDbEntity
  8
0
  6
Continuous
 62
     7
370
    25
100
AcDbLine
 10
140.5037782892
 20
143.3680885446
 30
0.0
 11
141.5620788137
 21
143.3680885446
 31
0.0
  0
LINE
  5
EC
330
1F
100
AcDbEntity
  8
0
  6
Continuous
 62
     7
370
    25
100
AcDbLine
 10
143.0129285514
 20
142.1680885446
 30
0.0
 11
144.0620788137
 21
142.1680885446
 31
0.0
  0
LINE
  5
ED
330
1F
100
AcDbEntity
  8
0
  6
Continuous
 62
     7
370
    25
100
AcDbLine
 10
144.1329285514
 20
142.9806377579
 30
0.0
 11
144.1329285514
 21
142.2389382823
 31
0.0
  0
LINE
  5
EE
330
1F
100
AcDbEntity
  8
0
  6
Continuous
 62
     7
370
    25
100
AcDbLine
 10
143.0129285514
 20
143.3680885446
 30
0.0
 11
144.0620788137
 21
143.3680885446
 31
0.0
  0
LINE
  5
EF
330
1F
100
AcDbEntity
  8
0
  6
Continuous
 62
     7
370
    25
100
AcDbLine
 10
136.6329285514
 20
142.9806377579
 30
0.0
 11
136.6329285514
 21
142.2389382823
 31
0.0
  0
LINE
  5
F0
330
1F
100
AcDbEntity
  8
0
  6
Continuous
 62
     7
370
    25
100
AcDbLine
 10
135.5037782892
 20
142.1680885446
 30
0.0
 11
136.5620788137
 21
142.1680885446
 31
0.0
  0
LINE
  5
F1
330
1F
100
AcDbEntity
  8
0
  6
Continuous
 62
     7
370
    25
100
AcDbLine
 10
135.4329285514
 20
142.9806377579
 30
0.0
 11
135.4329285514
 21
142.2389382823
 31
0.0
  0
LINE
  5
F2
330
1F
100
AcDbEntity
  8
0
  6
Continuous
 62
     7
370
    25
100
AcDbLine
 10
130.5037782892
 20
143.3680885446
 30
0.0
 11
131.5620788137
 21
143.3680885446
 31
0.0
  0
LINE
  5
F3
330
1F
100
AcDbEntity
  8
0
  6
Continuous
 62
     7
370
    25
100
AcDbLine
 10
138.0037782892
 20
143.3680885446
 30
0.0
 11
139.0620788137
 21
143.3680885446
 31
0.0
  0
LINE
  5
F4
330
1F
100
AcDbEntity
  8
0
  6
Continuous
 62
     7
370
    25
100
AcDbLine
 10
127.9329285514
 20
142.9806377579
 30
0.0
 11
127.9329285514
 21
142.2389382823
 31
0.0
  0
LINE
  5
F5
330
1F
100
AcDbEntity
  8
0
  6
Continuous
 62
     7
370
    25
100
AcDbLine
 10
128.0037782892
 20
142.1680885446
 30
0.0
 11
129.0620788137
 21
142.1680885446
 31
0.0
  0
LINE
  5
F6
330
1F
100
AcDbEntity
  8
0
  6
Continuous
 62
     7
370
    25
100
AcDbLine
 10
129.1329285514
 20
142.9806377579
 30
0.0
 11
129.1329285514
 21
142.2389382823
 31
0.0
  0
LINE
  5
F7
330
1F
100
AcDbEntity
  8
0
  6
Continuous
 62
     7
370
    25
100
AcDbLine
 10
130.4329285514
 20
142.9806377579
 30
0.0
 11
130.4329285514
 21
142.2389382823
 31
0.0
  0
LINE
  5
F8
330
1F
100
AcDbEntity
  8
0
  6
Continuous
 62
     7
370
    25
100
AcDbLine
 10
131.6329285514
 20
142.9806377579
 30
0.0
 11
131.6329285514
 21
142.2389382823
 31
0.0
  0
LINE
  5
F9
330
1F
100
AcDbEntity
  8
0
  6
Continuous
 62
     7
370
    25
100
AcDbLine
 10
130.5037782892
 20
142.1680885446
 30
0.0
 11
131.5620788137
 21
142.1680885446
 31
0.0
  0
LINE
  5
FA
330
1F
100
AcDbEntity
  8
0
  6
Continuous
 62
     7
370
    25
100
AcDbLine
 10
134.1329285514
 20
142.9806377579
 30
0.0
 11
134.1329285514
 21
142.2389382823
 31
0.0
  0
LINE
  5
FB
330
1F
100
AcDbEntity
  8
0
  6
Continuous
 62
     7
370
    25
100
AcDbLine
 10
133.0037782892
 20
142.1680885446
 30
0.0
 11
134.0620788137
 21
142.1680885446
 31
0.0
  0
LINE
  5
FC
330
1F
100
AcDbEntity
  8
0
  6
Continuous
 62
     7
370
    25
100
AcDbLine
 10
132.9329285514
 20
142.9806377579
 30
0.0
 11
132.9329285514
 21
142.2389382823
 31
0.0
  0
LINE
  5
FD
330
1F
100
AcDbEntity
  8
0
  6
Continuous
 62
     7
370
    25
100
AcDbLine
 10
135.5037782892
 20
143.3680885446
 30
0.0
 11
136.5620788137
 21
143.3680885446
 31
0.0
  0
LINE
  5
FE
330
1F
100
AcDbEntity
  8
0
  6
Continuous
 62
     7
370
    25
100
AcDbLine
 10
128.0037782892
 20
143.3680885446
 30
0.0
 11
129.0620788137
 21
143.3680885446
 31
0.0
  0
LINE
  5
FF
330
1F
100
AcDbEntity
  8
0
  6
Continuous
 62
     7
370
    25
100
AcDbLine
 10
137.9329285514
 20
142.9806377579
 30
0.0
 11
137.9329285514
 21
142.2389382823
 31
0.0
  0
LINE
  5
100
330
1F
100
AcDbEntity
  8
0
  6
Continuous
 62
     7
370
    25
100
AcDbLine
 10
139.1329285514
 20
142.9806377579
 30
0.0
 11
139.1329285514
 21
142.2389382823
 31
0.0
  0
LINE
  5
101
330
1F
100
AcDbEntity
  8
0
  6
Continuous
 62
     7
370
    25
100
AcDbLine
 10
138.0037782892
 20
142.1680885446
 30
0.0
 11
139.0620788137
 21
142.1680885446
 31
0.0
  0
LINE
  5
102
330
1F
100
AcDbEntity
  8
0
  6
Continuous
 62
     7
370
    25
100
AcDbLine
 10
133.0037782892
 20
143.3680885446
 30
0.0
 11
134.0620788137
 21
143.3680885446
 31
0.0
  0
LINE
  5
103
330
1F
100
AcDbEntity
  8
0
  6
Continuous
 62
     7
370
    25
100
AcDbLine
 10
136.6329285514
 20
142.9806377579
 30
0.0
 11
135.4329285514
 21
142.9806377579
 31
0.0
  0
LINE
  5
104
330
1F
100
AcDbEntity
  8
0
  6
Continuous
 62
     7
370
    25
100
AcDbLine
 10
136.6329285514
 20
142.9806377579
 30
0.0
 11
136.6329285514
 21
143.2972388068
 31
0.0
  0
LINE
  5
105
330
1F
100
AcDbEntity
  8
0
  6
Continuous
 62
     7
370
    25
100
AcDbLine
 10
135.4329285514
 20
142.9806377579
 30
0.0
 11
135.4329285514
 21
143.2972388068
 31
0.0
  0
LINE
  5
106
330
1F
100
AcDbEntity
  8
0
  6
Continuous
 62
     7
370
    25
100
AcDbLine
 10
134.1329285514
 20
142.9806377579
 30
0.0
 11
132.9329285514
 21
142.9806377579
 31
0.0
  0
LINE
  5
107
330
1F
100
AcDbEntity
  8
0
  6
Continuous
 62
     7
370
    25
100
AcDbLine
 10
134.1329285514
 20
142.9806377579
 30
0.0
 11
134.1329285514
 21
143.2972388068
 31
0.0
  0
LINE
  5
108
330
1F
100
AcDbEntity
  8
0
  6
Continuous
 62
     7
370
    25
100
AcDbLine
 10
132.9329285514
 20
142.9806377579
 30
0.0
 11
132.9329285514
 21
143.2972388068
 31
0.0
  0
LINE
  5
109
330
1F
100
AcDbEntity
  8
0
  6
Continuous
 62
     7
370
    25
100
AcDbLine
 10
144.1329285514
 20
142.9806377579
 30
0.0
 11
143.0129285514
 21
142.9806377579
 31
0.0
  0
LINE
  5
10A
330
1F
100
AcDbEntity
  8
0
  6
Continuous
 62
     7
370
    25
100
AcDbLine
 10
144.1329285514
 20
142.9806377579
 30
0.0
 11
144.1329285514
 21
143.2972388068
 31
0.0
  0
LINE
  5
10B
330
1F
100
AcDbEntity
  8
0
  6
Continuous
 62
     7
370
    25
100
AcDbLine
 10
141.6329285514
 20
142.9806377579
 30
0.0
 11
140.4329285514
 21
142.9806377579
 31
0.0
  0
LINE
  5
10C
330
1F
100
AcDbEntity
  8
0
  6
Continuous
 62
     7
370
    25
100
AcDbLine
 10
141.6329285514
 20
142.9806377579
 30
0.0
 11
141.6329285514
 21
143.2972388068
 31
0.0
  0
LINE
  5
10D
330
1F
100
AcDbEntity
  8
0
  6
Continuous
 62
     7
370
    25
100
AcDbLine
 10
140.4329285514
 20
142.9806377579
 30
0.0
 11
140.4329285514
 21
143.2972388068
 31
0.0
  0
LINE
  5
10E
330
1F
100
AcDbEntity
  8
0
  6
Continuous
 62
     7
370
    25
100
AcDbLine
 10
139.1329285514
 20
142.9806377579
 30
0.0
 11
137.9329285514
 21
142.9806377579
 31
0.0
  0
LINE
  5
10F
330
1F
100
AcDbEntity
  8
0
  6
Continuous
 62
     7
370
    25
100
AcDbLine
 10
137.9329285514
 20
142.9806377579
 30
0.0
 11
137.9329285514
 21
143.2972388068
 31
0.0
  0
LINE
  5
110
330
1F
100
AcDbEntity
  8
0
  6
Continuous
 62
     7
370
    25
100
AcDbLine
 10
139.1329285514
 20
142.9806377579
 30
0.0
 11
139.1329285514
 21
143.2972388068
 31
0.0
  0
LINE
  5
111
330
1F
100
AcDbEntity
  8
0
  6
Continuous
 62
     7
370
    25
100
AcDbLine
 10
131.6329285514
 20
142.9806377579
 30
0.0
 11
130.4329285514
 21
142.9806377579
 31
0.0
  0
LINE
  5
112
330
1F
100
AcDbEntity
  8
0
  6
Continuous
 62
     7
370
    25
100
AcDbLine
 10
130.4329285514
 20
142.9806377579
 30
0.0
 11
130.4329285514
 21
143.2972388068
 31
0.0
  0
LINE
  5
113
330
1F
100
AcDbEntity
  8
0
  6
Continuous
 62
     7
370
    25
100
AcDbLine
 10
131.6329285514
 20
142.9806377579
 30
0.0
 11
131.6329285514
 21
143.2972388068
 31
0.0
  0
LINE
  5
114
330
1F
100
AcDbEntity
  8
0
  6
Continuous
 62
     7
370
    25
100
AcDbLine
 10
126.5529285514
 20
142.9806377579
 30
0.0
 11
125.4329285514
 21
142.9806377579
 31
0.0
  0
LINE
  5
115
330
1F
100
AcDbEntity
  8
0
  6
Continuous
 62
     7
370
    25
100
AcDbLine
 10
125.4329285514
 20
142.9806377579
 30
0.0
 11
125.4329285514
 21
143.2972388068
 31
0.0
  0
LINE
  5
116
330
1F
100
AcDbEntity
  8
0
  6
Continuous
 62
     7
370
    25
100
AcDbLine
 10
129.1329285514
 20
142.9806377579
 30
0.0
 11
127.9329285514
 21
142.9806377579
 31
0.0
  0
LINE
  5
117
330
1F
100
AcDbEntity
  8
0
  6
Continuous
 62
     7
370
    25
100
AcDbLine
 10
127.9329285514
 20
142.9806377579
 30
0.0
 11
127.9329285514
 21
143.2972388068
 31
0.0
  0
LINE
  5
118
330
1F
100
AcDbEntity
  8
0
  6
Continuous
 62
     7
370
    25
100
AcDbLine
 10
129.1329285514
 20
142.9806377579
 30
0.0
 11
129.1329285514
 21
143.2972388068
 31
0.0
  0
CIRCLE
  5
119
330
1F
100
AcDbEntity
  8
0
  6
Continuous
 62
     7
370
    25
100
AcDbCircle
 10
143.5329285514
 20
146.7680885446
 30
0.0
 40
0.5500000000000114
  0
CIRCLE
  5
11A
330
1F
100
AcDbEntity
  8
0
  6
Continuous
 62
     7
370
    25
100
AcDbCircle
 10
133.5329285514
 20
146.7680885446
 30
0.0
 40
0.549999999999983
  0
CIRCLE
  5
11B
330
1F
100
AcDbEntity
  8
0
  6
Continuous
 62
     7
370
    25
100
AcDbCircle
 10
138.5329285514
 20
146.7680885446
 30
0.0
 40
0.549999999999983
  0
CIRCLE
  5
11C
330
1F
100
AcDbEntity
  8
0
  6
Continuous
 62
     7
370
    25
100
AcDbCircle
 10
136.0329285514
 20
146.7680885446
 30
0.0
 40
0.549999999999983
  0
CIRCLE
  5
11D
330
1F
100
AcDbEntity
  8
0
  6
Continuous
 62
     7
370
    25
100
AcDbCircle
 10
126.0329285514
 20
146.7680885446
 30
0.0
 40
0.5499999999999972
  0
CIRCLE
  5
11E
330
1F
100
AcDbEntity
  8
0
  6
Continuous
 62
     7
370
    25
100
AcDbCircle
 10
141.0329285514
 20
146.7680885446
 30
0.0
 40
0.5500000000000114
  0
CIRCLE
  5
11F
330
1F
100
AcDbEntity
  8
0
  6
Continuous
 62
     7
370
    25
100
AcDbCircle
 10
128.5329285514
 20
146.7680885446
 30
0.0
 40
0.5499999999999972
  0
CIRCLE
  5
120
330
1F
100
AcDbEntity
  8
0
  6
Continuous
 62
     7
370
    25
100
AcDbCircle
 10
123.5329285514
 20
146.7680885446
 30
0.0
 40
0.5500000000000114
  0
CIRCLE
  5
121
330
1F
100
AcDbEntity
  8
0
  6
Continuous
 62
     7
370
    25
100
AcDbCircle
 10
131.0329285514
 20
146.7680885446
 30
0.0
 40
0.5500000000000114
  0
CIRCLE
  5
122
330
1F
100
AcDbEntity
  8
0
  6
Continuous
 62
     7
370
    25
100
AcDbCircle
 10
133.5329285514
 20
146.7680885446
 30
0.0
 40
0.7499999999999716
  0
CIRCLE
  5
123
330
1F
100
AcDbEntity
  8
0
  6
Continuous
 62
     7
370
    25
100
AcDbCircle
 10
131.0329285514
 20
146.7680885446
 30
0.0
 40
0.75
  0
CIRCLE
  5
124
330
1F
100
AcDbEntity
  8
0
  6
Continuous
 62
     7
370
    25
100
AcDbCircle
 10
136.0329285514
 20
146.7680885446
 30
0.0
 40
0.7499999999999716
  0
CIRCLE
  5
125
330
1F
100
AcDbEntity
  8
0
  6
Continuous
 62
     7
370
    25
100
AcDbCircle
 10
126.0329285514
 20
146.7680885446
 30
0.0
 40
0.75
  0
CIRCLE
  5
126
330
1F
100
AcDbEntity
  8
0
  6
Continuous
 62
     7
370
    25
100
AcDbCircle
 10
128.5329285514
 20
146.7680885446
 30
0.0
 40
0.75
  0
CIRCLE
  5
127
330
1F
100
AcDbEntity
  8
0
  6
Continuous
 62
     7
370
    25
100
AcDbCircle
 10
141.0329285514
 20
146.7680885446
 30
0.0
 40
0.75
  0
CIRCLE
  5
128
330
1F
100
AcDbEntity
  8
0
  6
Continuous
 62
     7
370
    25
100
AcDbCircle
 10
123.5329285514
 20
146.7680885446
 30
0.0
 40
0.75
  0
CIRCLE
  5
129
330
1F
100
AcDbEntity
  8
0
  6
Continuous
 62
     7
370
    25
100
AcDbCircle
 10
143.5329285514
 20
146.7680885446
 30
0.0
 40
0.75
  0
CIRCLE
  5
12A
330
1F
100
AcDbEntity
  8
0
  6
Continuous
 62
     7
370
    25
100
AcDbCircle
 10
138.5329285514
 20
146.7680885446
 30
0.0
 40
0.7499999999999716
  0
CIRCLE
  5
12B
330
1F
100
AcDbEntity
  8
0
  6
Continuous
 62
     7
370
    25
100
AcDbCircle
 10
138.5329285514
 20
146.7680885446
 30
0.0
 40
0.7499999999999716
  0
CIRCLE
  5
12C
330
1F
100
AcDbEntity
  8
0
  6
Continuous
 62
     7
370
    25
100
AcDbCircle
 10
143.5329285514
 20
146.7680885446
 30
0.0
 40
0.75
  0
CIRCLE
  5
12D
330
1F
100
AcDbEntity
  8
0
  6
Continuous
 62
     7
370
    25
100
AcDbCircle
 10
123.5329285514
 20
146.7680885446
 30
0.0
 40
0.75
  0
CIRCLE
  5
12E
330
1F
100
AcDbEntity
  8
0
  6
Continuous
 62
     7
370
    25
100
AcDbCircle
 10
141.0329285514
 20
146.7680885446
 30
0.0
 40
0.75
  0
CIRCLE
  5
12F
330
1F
100
AcDbEntity
  8
0
  6
Continuous
 62
     7
370
    25
100
AcDbCircle
 10
128.5329285514
 20
146.7680885446
 30
0.0
 40
0.75
  0
CIRCLE
  5
130
330
1F
100
AcDbEntity
  8
0
  6
Continuous
 62
     7
370
    25
100
AcDbCircle
 10
126.0329285514
 20
146.7680885446
 30
0.0
 40
0.75
  0
CIRCLE
  5
131
330
1F
100
AcDbEntity
  8
0
  6
Continuous
 62
     7
370
    25
100
AcDbCircle
 10
136.0329285514
 20
146.7680885446
 30
0.0
 40
0.7499999999999716
  0
CIRCLE
  5
132
330
1F
100
AcDbEntity
  8
0
  6
Continuous
 62
     7
370
    25
100
AcDbCircle
 10
131.0329285514
 20
146.7680885446
 30
0.0
 40
0.75
  0
CIRCLE
  5
133
330
1F
100
AcDbEntity
  8
0
  6
Continuous
 62
     7
370
    25
100
AcDbCircle
 10
133.5329285514
 20
146.7680885446
 30
0.0
 40
0.7499999999999716
  0
LINE
  5
134
330
1F
100
AcDbEntity
  8
0
  6
Continuous
 62
     7
370
    25
100
AcDbLine
 10
133.0037782892
 20
147.3680885446
 30
0.0
 11
134.0620788137
 21
147.3680885446
 31
0.0
  0
LINE
  5
135
330
1F
100
AcDbEntity
  8
0
  6
Continuous
 62
     7
370
    25
100
AcDbLine
 10
128.0037782892
 20
146.1680885446
 30
0.0
 11
129.0620788137
 21
146.1680885446
 31
0.0
  0
LINE
  5
136
330
1F
100
AcDbEntity
  8
0
  6
Continuous
 62
     7
370
    25
100
AcDbLine
 10
127.9329285514
 20
146.2389382823
 30
0.0
 11
127.9329285514
 21
147.2972388068
 31
0.0
  0
LINE
  5
137
330
1F
100
AcDbEntity
  8
0
  6
Continuous
 62
     7
370
    25
100
AcDbLine
 10
123.0037782892
 20
147.3680885446
 30
0.0
 11
124.0620788137
 21
147.3680885446
 31
0.0
  0
LINE
  5
138
330
1F
100
AcDbEntity
  8
0
  6
Continuous
 62
     7
370
    25
100
AcDbLine
 10
135.4329285514
 20
146.2389382823
 30
0.0
 11
135.4329285514
 21
147.2972388068
 31
0.0
  0
LINE
  5
139
330
1F
100
AcDbEntity
  8
0
  6
Continuous
 62
     7
370
    25
100
AcDbLine
 10
130.5037782892
 20
147.3680885446
 30
0.0
 11
131.5620788137
 21
147.3680885446
 31
0.0
  0
LINE
  5
13A
330
1F
100
AcDbEntity
  8
0
  6
Continuous
 62
     7
370
    25
100
AcDbLine
 10
124.1329285514
 20
146.2389382823
 30
0.0
 11
124.1329285514
 21
147.2972388068
 31
0.0
  0
LINE
  5
13B
330
1F
100
AcDbEntity
  8
0
  6
Continuous
 62
     7
370
    25
100
AcDbLine
 10
136.6329285514
 20
146.2389382823
 30
0.0
 11
136.6329285514
 21
147.2972388068
 31
0.0
  0
LINE
  5
13C
330
1F
100
AcDbEntity
  8
0
  6
Continuous
 62
     7
370
    25
100
AcDbLine
 10
138.0037782892
 20
146.1680885446
 30
0.0
 11
139.0620788137
 21
146.1680885446
 31
0.0
  0
LINE
  5
13D
330
1F
100
AcDbEntity
  8
0
  6
Continuous
 62
     7
370
    25
100
AcDbLine
 10
138.0037782892
 20
147.3680885446
 30
0.0
 11
139.0620788137
 21
147.3680885446
 31
0.0
  0
LINE
  5
13E
330
1F
100
AcDbEntity
  8
0
  6
Continuous
 62
     7
370
    25
100
AcDbLine
 10
133.0037782892
 20
146.1680885446
 30
0.0
 11
134.0620788137
 21
146.1680885446
 31
0.0
  0
LINE
  5
13F
330
1F
100
AcDbEntity
  8
0
  6
Continuous
 62
     7
370
    25
100
AcDbLine
 10
128.0037782892
 20
147.3680885446
 30
0.0
 11
129.0620788137
 21
147.3680885446
 31
0.0
  0
LINE
  5
140
330
1F
100
AcDbEntity
  8
0
  6
Continuous
 62
     7
370
    25
100
AcDbLine
 10
143.0037782892
 20
146.1680885446
 30
0.0
 11
144.0620788137
 21
146.1680885446
 31
0.0
  0
LINE
  5
141
330
1F
100
AcDbEntity
  8
0
  6
Continuous
 62
     7
370
    25
100
AcDbLine
 10
130.5037782892
 20
146.1680885446
 30
0.0
 11
131.5620788137
 21
146.1680885446
 31
0.0
  0
LINE
  5
142
330
1F
100
AcDbEntity
  8
0
  6
Continuous
 62
     7
370
    25
100
AcDbLine
 10
141.6329285514
 20
146.2389382823
 30
0.0
 11
141.6329285514
 21
147.2972388068
 31
0.0
  0
LINE
  5
143
330
1F
100
AcDbEntity
  8
0
  6
Continuous
 62
     7
370
    25
100
AcDbLine
 10
125.4329285514
 20
146.2389382823
 30
0.0
 11
125.4329285514
 21
147.2972388068
 31
0.0
  0
LINE
  5
144
330
1F
100
AcDbEntity
  8
0
  6
Continuous
 62
     7
370
    25
100
AcDbLine
 10
140.5037782892
 20
146.1680885446
 30
0.0
 11
141.5620788137
 21
146.1680885446
 31
0.0
  0
LINE
  5
145
330
1F
100
AcDbEntity
  8
0
  6
Continuous
 62
     7
370
    25
100
AcDbLine
 10
130.4329285514
 20
146.2389382823
 30
0.0
 11
130.4329285514
 21
147.2972388068
 31
0.0
  0
LINE
  5
146
330
1F
100
AcDbEntity
  8
0
  6
Continuous
 62
     7
370
    25
100
AcDbLine
 10
137.9329285514
 20
146.2389382823
 30
0.0
 11
137.9329285514
 21
147.2972388068
 31
0.0
  0
LINE
  5
147
330
1F
100
AcDbEntity
  8
0
  6
Continuous
 62
     7
370
    25
100
AcDbLine
 10
132.9329285514
 20
146.2389382823
 30
0.0
 11
132.9329285514
 21
147.2972388068
 31
0.0
  0
LINE
  5
148
330
1F
100
AcDbEntity
  8
0
  6
Continuous
 62
     7
370
    25
100
AcDbLine
 10
129.1329285514
 20
146.2389382823
 30
0.0
 11
129.1329285514
 21
147.2972388068
 31
0.0
  0
LINE
  5
149
330
1F
100
AcDbEntity
  8
0
  6
Continuous
 62
     7
370
    25
100
AcDbLine
 10
140.4329285514
 20
146.2389382823
 30
0.0
 11
140.4329285514
 21
147.2972388068
 31
0.0
  0
LINE
  5
14A
330
1F
100
AcDbEntity
  8
0
  6
Continuous
 62
     7
370
    25
100
AcDbLine
 10
144.1329285514
 20
146.2389382823
 30
0.0
 11
144.1329285514
 21
147.2972388068
 31
0.0
  0
LINE
  5
14B
330
1F
100
AcDbEntity
  8
0
  6
Continuous
 62
     7
370
    25
100
AcDbLine
 10
125.5037782892
 20
147.3680885446
 30
0.0
 11
126.5620788137
 21
147.3680885446
 31
0.0
  0
LINE
  5
14C
330
1F
100
AcDbEntity
  8
0
  6
Continuous
 62
     7
370
    25
100
AcDbLine
 10
125.5037782892
 20
146.1680885446
 30
0.0
 11
126.5620788137
 21
146.1680885446
 31
0.0
  0
LINE
  5
14D
330
1F
100
AcDbEntity
  8
0
  6
Continuous
 62
     7
370
    25
100
AcDbLine
 10
126.6329285514
 20
146.2389382823
 30
0.0
 11
126.6329285514
 21
147.2972388068
 31
0.0
  0
LINE
  5
14E
330
1F
100
AcDbEntity
  8
0
  6
Continuous
 62
     7
370
    25
100
AcDbLine
 10
135.5037782892
 20
146.1680885446
 30
0.0
 11
136.5620788137
 21
146.1680885446
 31
0.0
  0
LINE
  5
14F
330
1F
100
AcDbEntity
  8
0
  6
Continuous
 62
     7
370
    25
100
AcDbLine
 10
134.1329285514
 20
146.2389382823
 30
0.0
 11
134.1329285514
 21
147.2972388068
 31
0.0
  0
LINE
  5
150
330
1F
100
AcDbEntity
  8
0
  6
Continuous
 62
     7
370
    25
100
AcDbLine
 10
123.0037782892
 20
146.1680885446
 30
0.0
 11
124.0620788137
 21
146.1680885446
 31
0.0
  0
LINE
  5
151
330
1F
100
AcDbEntity
  8
0
  6
Continuous
 62
     7
370
    25
100
AcDbLine
 10
140.5037782892
 20
147.3680885446
 30
0.0
 11
141.5620788137
 21
147.3680885446
 31
0.0
  0
LINE
  5
152
330
1F
100
AcDbEntity
  8
0
  6
Continuous
 62
     7
370
    25
100
AcDbLine
 10
143.0037782892
 20
147.3680885446
 30
0.0
 11
144.0620788137
 21
147.3680885446
 31
0.0
  0
LINE
  5
153
330
1F
100
AcDbEntity
  8
0
  6
Continuous
 62
     7
370
    25
100
AcDbLine
 10
135.5037782892
 20
147.3680885446
 30
0.0
 11
136.5620788137
 21
147.3680885446
 31
0.0
  0
LINE
  5
154
330
1F
100
AcDbEntity
  8
0
  6
Continuous
 62
     7
370
    25
100
AcDbLine
 10
131.6329285514
 20
146.2389382823
 30
0.0
 11
131.6329285514
 21
147.2972388068
 31
0.0
  0
LINE
  5
155
330
1F
100
AcDbEntity
  8
0
  6
Continuous
 62
     7
370
    25
100
AcDbLine
 10
139.1329285514
 20
146.2389382823
 30
0.0
 11
139.1329285514
 21
147.2972388068
 31
0.0
  0
LINE
  5
156
330
1F
100
AcDbEntity
  8
0
  6
Continuous
 62
     7
370
    25
100
AcDbLine
 10
142.9329285514
 20
146.2389382823
 30
0.0
 11
142.9329285514
 21
147.2972388068
 31
0.0
  0
LINE
  5
157
330
1F
100
AcDbEntity
  8
0
  6
Continuous
 62
     7
370
    25
100
AcDbLine
 10
133.0037782892
 20
147.3680885446
 30
0.0
 11
134.0620788137
 21
147.3680885446
 31
0.0
  0
LINE
  5
158
330
1F
100
AcDbEntity
  8
0
  6
Continuous
 62
     7
370
    25
100
AcDbLine
 10
130.5037782892
 20
147.3680885446
 30
0.0
 11
131.5620788137
 21
147.3680885446
 31
0.0
  0
LINE
  5
159
330
1F
100
AcDbEntity
  8
0
  6
Continuous
 62
     7
370
    25
100
AcDbLine
 10
138.0037782892
 20
147.3680885446
 30
0.0
 11
139.0620788137
 21
147.3680885446
 31
0.0
  0
LINE
  5
15A
330
1F
100
AcDbEntity
  8
0
  6
Continuous
 62
     7
370
    25
100
AcDbLine
 10
143.0037782892
 20
147.3680885446
 30
0.0
 11
144.0620788137
 21
147.3680885446
 31
0.0
  0
LINE
  5
15B
330
1F
100
AcDbEntity
  8
0
  6
Continuous
 62
     7
370
    25
100
AcDbLine
 10
125.5037782892
 20
147.3680885446
 30
0.0
 11
126.5620788137
 21
147.3680885446
 31
0.0
  0
LINE
  5
15C
330
1F
100
AcDbEntity
  8
0
  6
Continuous
 62
     7
370
    25
100
AcDbLine
 10
140.5037782892
 20
147.3680885446
 30
0.0
 11
141.5620788137
 21
147.3680885446
 31
0.0
  0
LINE
  5
15D
330
1F
100
AcDbEntity
  8
0
  6
Continuous
 62
     7
370
    25
100
AcDbLine
 10
128.0037782892
 20
147.3680885446
 30
0.0
 11
129.0620788137
 21
147.3680885446
 31
0.0
  0
LINE
  5
15E
330
1F
100
AcDbEntity
  8
0
  6
Continuous
 62
     7
370
    25
100
AcDbLine
 10
123.0037782892
 20
147.3680885446
 30
0.0
 11
124.0620788137
 21
147.3680885446
 31
0.0
  0
LINE
  5
15F
330
1F
100
AcDbEntity
  8
0
  6
Continuous
 62
     7
370
    25
100
AcDbLine
 10
135.5037782892
 20
147.3680885446
 30
0.0
 11
136.5620788137
 21
147.3680885446
 31
0.0
  0
LINE
  5
160
330
1F
100
AcDbEntity
  8
0
  6
Continuous
 62
     7
370
    25
100
AcDbLine
 10
144.1329285514
 20
147.1680885446
 30
0.0
 11
144.1329285514
 21
146.2389382823
 31
0.0
  0
LINE
  5
161
330
1F
100
AcDbEntity
  8
0
  6
Continuous
 62
     7
370
    25
100
AcDbLine
 10
143.0129285514
 20
146.1680885446
 30
0.0
 11
144.0620788137
 21
146.1680885446
 31
0.0
  0
LINE
  5
162
330
1F
100
AcDbEntity
  8
0
  6
Continuous
 62
     7
370
    25
100
AcDbLine
 10
139.1329285514
 20
147.1680885446
 30
0.0
 11
139.1329285514
 21
146.2389382823
 31
0.0
  0
LINE
  5
163
330
1F
100
AcDbEntity
  8
0
  6
Continuous
 62
     7
370
    25
100
AcDbLine
 10
137.9329285514
 20
147.1680885446
 30
0.0
 11
137.9329285514
 21
146.2389382823
 31
0.0
  0
LINE
  5
164
330
1F
100
AcDbEntity
  8
0
  6
Continuous
 62
     7
370
    25
100
AcDbLine
 10
138.0037782892
 20
146.1680885446
 30
0.0
 11
139.0620788137
 21
146.1680885446
 31
0.0
  0
LINE
  5
165
330
1F
100
AcDbEntity
  8
0
  6
Continuous
 62
     7
370
    25
100
AcDbLine
 10
129.1329285514
 20
147.1680885446
 30
0.0
 11
129.1329285514
 21
146.2389382823
 31
0.0
  0
LINE
  5
166
330
1F
100
AcDbEntity
  8
0
  6
Continuous
 62
     7
370
    25
100
AcDbLine
 10
128.0037782892
 20
146.1680885446
 30
0.0
 11
129.0620788137
 21
146.1680885446
 31
0.0
  0
LINE
  5
167
330
1F
100
AcDbEntity
  8
0
  6
Continuous
 62
     7
370
    25
100
AcDbLine
 10
127.9329285514
 20
147.1680885446
 30
0.0
 11
127.9329285514
 21
146.2389382823
 31
0.0
  0
LINE
  5
168
330
1F
100
AcDbEntity
  8
0
  6
Continuous
 62
     7
370
    25
100
AcDbLine
 10
135.5037782892
 20
146.1680885446
 30
0.0
 11
136.5620788137
 21
146.1680885446
 31
0.0
  0
LINE
  5
169
330
1F
100
AcDbEntity
  8
0
  6
Continuous
 62
     7
370
    25
100
AcDbLine
 10
135.4329285514
 20
147.1680885446
 30
0.0
 11
135.4329285514
 21
146.2389382823
 31
0.0
  0
LINE
  5
16A
330
1F
100
AcDbEntity
  8
0
  6
Continuous
 62
     7
370
    25
100
AcDbLine
 10
136.6329285514
 20
147.1680885446
 30
0.0
 11
136.6329285514
 21
146.2389382823
 31
0.0
  0
LINE
  5
16B
330
1F
100
AcDbEntity
  8
0
  6
Continuous
 62
     7
370
    25
100
AcDbLine
 10
126.6329285514
 20
147.1680885446
 30
0.0
 11
126.6329285514
 21
146.2389382823
 31
0.0
  0
LINE
  5
16C
330
1F
100
AcDbEntity
  8
0
  6
Continuous
 62
     7
370
    25
100
AcDbLine
 10
125.5037782892
 20
146.1680885446
 30
0.0
 11
126.5620788137
 21
146.1680885446
 31
0.0
  0
LINE
  5
16D
330
1F
100
AcDbEntity
  8
0
  6
Continuous
 62
     7
370
    25
100
AcDbLine
 10
125.4329285514
 20
147.1680885446
 30
0.0
 11
125.4329285514
 21
146.2389382823
 31
0.0
  0
LINE
  5
16E
330
1F
100
AcDbEntity
  8
0
  6
Continuous
 62
     7
370
    25
100
AcDbLine
 10
123.0037782892
 20
146.1680885446
 30
0.0
 11
124.0529285514
 21
146.1680885446
 31
0.0
  0
LINE
  5
16F
330
1F
100
AcDbEntity
  8
0
  6
Continuous
 62
     7
370
    25
100
AcDbLine
 10
134.1329285514
 20
147.1680885446
 30
0.0
 11
134.1329285514
 21
146.2389382823
 31
0.0
  0
LINE
  5
170
330
1F
100
AcDbEntity
  8
0
  6
Continuous
 62
     7
370
    25
100
AcDbLine
 10
132.9329285514
 20
147.1680885446
 30
0.0
 11
132.9329285514
 21
146.2389382823
 31
0.0
  0
LINE
  5
171
330
1F
100
AcDbEntity
  8
0
  6
Continuous
 62
     7
370
    25
100
AcDbLine
 10
133.0037782892
 20
146.1680885446
 30
0.0
 11
134.0620788137
 21
146.1680885446
 31
0.0
  0
LINE
  5
172
330
1F
100
AcDbEntity
  8
0
  6
Continuous
 62
     7
370
    25
100
AcDbLine
 10
140.4329285514
 20
147.1680885446
 30
0.0
 11
140.4329285514
 21
146.2389382823
 31
0.0
  0
LINE
  5
173
330
1F
100
AcDbEntity
  8
0
  6
Continuous
 62
     7
370
    25
100
AcDbLine
 10
140.5037782892
 20
146.1680885446
 30
0.0
 11
141.5620788137
 21
146.1680885446
 31
0.0
  0
LINE
  5
174
330
1F
100
AcDbEntity
  8
0
  6
Continuous
 62
     7
370
    25
100
AcDbLine
 10
141.6329285514
 20
147.1680885446
 30
0.0
 11
141.6329285514
 21
146.2389382823
 31
0.0
  0
LINE
  5
175
330
1F
100
AcDbEntity
  8
0
  6
Continuous
 62
     7
370
    25
100
AcDbLine
 10
131.6329285514
 20
147.1680885446
 30
0.0
 11
131.6329285514
 21
146.2389382823
 31
0.0
  0
LINE
  5
176
330
1F
100
AcDbEntity
  8
0
  6
Continuous
 62
     7
370
    25
100
AcDbLine
 10
130.4329285514
 20
147.1680885446
 30
0.0
 11
130.4329285514
 21
146.2389382823
 31
0.0
  0
LINE
  5
177
330
1F
100
AcDbEntity
  8
0
  6
Continuous
 62
     7
370
    25
100
AcDbLine
 10
130.5037782892
 20
146.1680885446
 30
0.0
 11
131.5620788137
 21
146.1680885446
 31
0.0
  0
LINE
  5
178
330
1F
100
AcDbEntity
  8
0
  6
Continuous
 62
     7
370
    25
100
AcDbLine
 10
127.9329285514
 20
147.1680885446
 30
0.0
 11
129.1329285514
 21
147.1680885446
 31
0.0
  0
LINE
  5
179
330
1F
100
AcDbEntity
  8
0
  6
Continuous
 62
     7
370
    25
100
AcDbLine
 10
122.8401082284
 20
147.1680885446
 30
0.0
 11
124.0529285514
 21
147.1680885446
 31
0.0
  0
LINE
  5
17A
330
1F
100
AcDbEntity
  8
0
  6
Continuous
 62
     7
370
    25
100
AcDbLine
 10
137.9329285514
 20
147.1680885446
 30
0.0
 11
139.1329285514
 21
147.1680885446
 31
0.0
  0
LINE
  5
17B
330
1F
100
AcDbEntity
  8
0
  6
Continuous
 62
     7
370
    25
100
AcDbLine
 10
125.4329285514
 20
147.1680885446
 30
0.0
 11
126.6329285514
 21
147.1680885446
 31
0.0
  0
LINE
  5
17C
330
1F
100
AcDbEntity
  8
0
  6
Continuous
 62
     7
370
    25
100
AcDbLine
 10
130.4329285514
 20
147.1680885446
 30
0.0
 11
131.6329285514
 21
147.1680885446
 31
0.0
  0
LINE
  5
17D
330
1F
100
AcDbEntity
  8
0
  6
Continuous
 62
     7
370
    25
100
AcDbLine
 10
143.0129285514
 20
147.1680885446
 30
0.0
 11
144.1329285514
 21
147.1680885446
 31
0.0
  0
LINE
  5
17E
330
1F
100
AcDbEntity
  8
0
  6
Continuous
 62
     7
370
    25
100
AcDbLine
 10
135.4329285514
 20
147.1680885446
 30
0.0
 11
136.6329285514
 21
147.1680885446
 31
0.0
  0
LINE
  5
17F
330
1F
100
AcDbEntity
  8
0
  6
Continuous
 62
     7
370
    25
100
AcDbLine
 10
140.4329285514
 20
147.1680885446
 30
0.0
 11
141.6329285514
 21
147.1680885446
 31
0.0
  0
LINE
  5
180
330
1F
100
AcDbEntity
  8
0
  6
Continuous
 62
     7
370
    25
100
AcDbLine
 10
132.9329285514
 20
147.1680885446
 30
0.0
 11
134.1329285514
 21
147.1680885446
 31
0.0
  0
LINE
  5
181
330
1F
100
AcDbEntity
  8
0
  6
Continuous
 62
     7
370
    25
100
AcDbLine
 10
122.8401082284
 20
147.1680885446
 30
0.0
 11
124.0529285514
 21
147.1680885446
 31
0.0
  0
LINE
  5
182
330
1F
100
AcDbEntity
  8
0
  6
Continuous
 62
     7
370
    25
100
AcDbLine
 10
140.4329285514
 20
147.1680885446
 30
0.0
 11
141.6329285514
 21
147.1680885446
 31
0.0
  0
LINE
  5
183
330
1F
100
AcDbEntity
  8
0
  6
Continuous
 62
     7
370
    25
100
AcDbLine
 10
140.4329285514
 20
147.2972388068
 30
0.0
 11
140.4329285514
 21
147.1680885446
 31
0.0
  0
LINE
  5
184
330
1F
100
AcDbEntity
  8
0
  6
Continuous
 62
     7
370
    25
100
AcDbLine
 10
141.6329285514
 20
147.2972388068
 30
0.0
 11
141.6329285514
 21
147.1680885446
 31
0.0
  0
LINE
  5
185
330
1F
100
AcDbEntity
  8
0
  6
Continuous
 62
     7
370
    25
100
AcDbLine
 10
132.9329285514
 20
147.1680885446
 30
0.0
 11
134.1329285514
 21
147.1680885446
 31
0.0
  0
LINE
  5
186
330
1F
100
AcDbEntity
  8
0
  6
Continuous
 62
     7
370
    25
100
AcDbLine
 10
134.1329285514
 20
147.2972388068
 30
0.0
 11
134.1329285514
 21
147.1680885446
 31
0.0
  0
LINE
  5
187
330
1F
100
AcDbEntity
  8
0
  6
Continuous
 62
     7
370
    25
100
AcDbLine
 10
132.9329285514
 20
147.2972388068
 30
0.0
 11
132.9329285514
 21
147.1680885446
 31
0.0
  0
LINE
  5
188
330
1F
100
AcDbEntity
  8
0
  6
Continuous
 62
     7
370
    25
100
AcDbLine
 10
137.9329285514
 20
147.1680885446
 30
0.0
 11
139.1329285514
 21
147.1680885446
 31
0.0
  0
LINE
  5
189
330
1F
100
AcDbEntity
  8
0
  6
Continuous
 62
     7
370
    25
100
AcDbLine
 10
139.1329285514
 20
147.2972388068
 30
0.0
 11
139.1329285514
 21
147.1680885446
 31
0.0
  0
LINE
  5
18A
330
1F
100
AcDbEntity
  8
0
  6
Continuous
 62
     7
370
    25
100
AcDbLine
 10
137.9329285514
 20
147.2972388068
 30
0.0
 11
137.9329285514
 21
147.1680885446
 31
0.0
  0
LINE
  5
18B
330
1F
100
AcDbEntity
  8
0
  6
Continuous
 62
     7
370
    25
100
AcDbLine
 10
125.4329285514
 20
147.1680885446
 30
0.0
 11
126.6329285514
 21
147.1680885446
 31
0.0
  0
LINE
  5
18C
330
1F
100
AcDbEntity
  8
0
  6
Continuous
 62
     7
370
    25
100
AcDbLine
 10
126.6329285514
 20
147.2972388068
 30
0.0
 11
126.6329285514
 21
147.1680885446
 31
0.0
  0
LINE
  5
18D
330
1F
100
AcDbEntity
  8
0
  6
Continuous
 62
     7
370
    25
100
AcDbLine
 10
125.4329285514
 20
147.2972388068
 30
0.0
 11
125.4329285514
 21
147.1680885446
 31
0.0
  0
LINE
  5
18E
330
1F
100
AcDbEntity
  8
0
  6
Continuous
 62
     7
370
    25
100
AcDbLine
 10
135.4329285514
 20
147.1680885446
 30
0.0
 11
136.6329285514
 21
147.1680885446
 31
0.0
  0
LINE
  5
18F
330
1F
100
AcDbEntity
  8
0
  6
Continuous
 62
     7
370
    25
100
AcDbLine
 10
135.4329285514
 20
147.2972388068
 30
0.0
 11
135.4329285514
 21
147.1680885446
 31
0.0
  0
LINE
  5
190
330
1F
100
AcDbEntity
  8
0
  6
Continuous
 62
     7
370
    25
100
AcDbLine
 10
136.6329285514
 20
147.2972388068
 30
0.0
 11
136.6329285514
 21
147.1680885446
 31
0.0
  0
LINE
  5
191
330
1F
100
AcDbEntity
  8
0
  6
Continuous
 62
     7
370
    25
100
AcDbLine
 10
127.9329285514
 20
147.1680885446
 30
0.0
 11
129.1329285514
 21
147.1680885446
 31
0.0
  0
LINE
  5
192
330
1F
100
AcDbEntity
  8
0
  6
Continuous
 62
     7
370
    25
100
AcDbLine
 10
129.1329285514
 20
147.2972388068
 30
0.0
 11
129.1329285514
 21
147.1680885446
 31
0.0
  0
LINE
  5
193
330
1F
100
AcDbEntity
  8
0
  6
Continuous
 62
     7
370
    25
100
AcDbLine
 10
127.9329285514
 20
147.2972388068
 30
0.0
 11
127.9329285514
 21
147.1680885446
 31
0.0
  0
LINE
  5
194
330
1F
100
AcDbEntity
  8
0
  6
Continuous
 62
     7
370
    25
100
AcDbLine
 10
143.0129285514
 20
147.1680885446
 30
0.0
 11
144.1329285514
 21
147.1680885446
 31
0.0
  0
LINE
  5
195
330
1F
100
AcDbEntity
  8
0
  6
Continuous
 62
     7
370
    25
100
AcDbLine
 10
144.1329285514
 20
147.2972388068
 30
0.0
 11
144.1329285514
 21
147.1680885446
 31
0.0
  0
LINE
  5
196
330
1F
100
AcDbEntity
  8
0
  6
Continuous
 62
     7
370
    25
100
AcDbLine
 10
130.4329285514
 20
147.1680885446
 30
0.0
 11
131.6329285514
 21
147.1680885446
 31
0.0
  0
LINE
  5
197
330
1F
100
AcDbEntity
  8
0
  6
Continuous
 62
     7
370
    25
100
AcDbLine
 10
131.6329285514
 20
147.2972388068
 30
0.0
 11
131.6329285514
 21
147.1680885446
 31
0.0
  0
LINE
  5
198
330
1F
100
AcDbEntity
  8
0
  6
Continuous
 62
     7
370
    25
100
AcDbLine
 10
130.4329285514
 20
147.2972388068
 30
0.0
 11
130.4329285514
 21
147.1680885446
 31
0.0
  0
LINE
  5
199
330
1F
100
AcDbEntity
  8
0
  6
Continuous
 62
     7
370
    25
100
AcDbLine
 10
81.8456302168
 20
143.4680885446
 30
0.0
 11
82.6202268861
 21
143.4680885446
 31
0.0
  0
LINE
  5
19A
330
1F
100
AcDbEntity
  8
0
  6
Continuous
 62
     7
370
    25
100
AcDbLine
 10
81.4829285514
 20
142.4897003264
 30
0.0
 11
81.4829285514
 21
143.0464767627
 31
0.0
  0
LINE
  5
19B
330
1F
100
AcDbEntity
  8
0
  6
Continuous
 62
     7
370
    25
100
AcDbLine
 10
80.4829285514
 20
143.0464767627
 30
0.0
 11
80.4829285514
 21
142.4897003264
 31
0.0
  0
LINE
  5
19C
330
1F
100
AcDbEntity
  8
0
  6
Continuous
 62
     7
370
    25
100
AcDbLine
 10
79.3456302168
 20
143.4680885446
 30
0.0
 11
80.1202268861
 21
143.4680885446
 31
0.0
  0
LINE
  5
19D
330
1F
100
AcDbEntity
  8
0
  6
Continuous
 62
     7
370
    25
100
AcDbLine
 10
89.3456302168
 20
143.4680885446
 30
0.0
 11
90.1202268861
 21
143.4680885446
 31
0.0
  0
LINE
  5
19E
330
1F
100
AcDbEntity
  8
0
  6
Continuous
 62
     7
370
    25
100
AcDbLine
 10
88.9829285514
 20
142.4897003264
 30
0.0
 11
88.9829285514
 21
143.0464767627
 31
0.0
  0
LINE
  5
19F
330
1F
100
AcDbEntity
  8
0
  6
Continuous
 62
     7
370
    25
100
AcDbLine
 10
87.9829285514
 20
143.0464767627
 30
0.0
 11
87.9829285514
 21
142.4897003264
 31
0.0
  0
LINE
  5
1A0
330
1F
100
AcDbEntity
  8
0
  6
Continuous
 62
     7
370
    25
100
AcDbLine
 10
86.8456302168
 20
143.4680885446
 30
0.0
 11
87.6202268861
 21
143.4680885446
 31
0.0
  0
LINE
  5
1A1
330
1F
100
AcDbEntity
  8
0
  6
Continuous
 62
     7
370
    25
100
AcDbLine
 10
86.4829285514
 20
142.4897003264
 30
0.0
 11
86.4829285514
 21
143.0464767627
 31
0.0
  0
LINE
  5
1A2
330
1F
100
AcDbEntity
  8
0
  6
Continuous
 62
     7
370
    25
100
AcDbLine
 10
85.4829285514
 20
143.0464767627
 30
0.0
 11
85.4829285514
 21
142.4897003264
 31
0.0
  0
LINE
  5
1A3
330
1F
100
AcDbEntity
  8
0
  6
Continuous
 62
     7
370
    25
100
AcDbLine
 10
84.3456302168
 20
143.4680885446
 30
0.0
 11
85.1202268861
 21
143.4680885446
 31
0.0
  0
LINE
  5
1A4
330
1F
100
AcDbEntity
  8
0
  6
Continuous
 62
     7
370
    25
100
AcDbLine
 10
83.9829285514
 20
143.0464767627
 30
0.0
 11
83.9829285514
 21
142.4897003264
 31
0.0
  0
LINE
  5
1A5
330
1F
100
AcDbEntity
  8
0
  6
Continuous
 62
     7
370
    25
100
AcDbLine
 10
82.9829285514
 20
142.4897003264
 30
0.0
 11
82.9829285514
 21
143.0464767627
 31
0.0
  0
LINE
  5
1A6
330
1F
100
AcDbEntity
  8
0
  6
Continuous
 62
     7
370
    25
100
AcDbLine
 10
80.3329285514
 20
142.2389382823
 30
0.0
 11
80.3329285514
 21
143.2972388068
 31
0.0
  0
LINE
  5
1A7
330
1F
100
AcDbEntity
  8
0
  6
Continuous
 62
     7
370
    25
100
AcDbLine
 10
89.1329285514
 20
143.2972388068
 30
0.0
 11
89.1329285514
 21
142.2389382823
 31
0.0
  0
CIRCLE
  5
1A8
330
1F
100
AcDbEntity
  8
0
  6
Continuous
 62
     7
370
    25
100
AcDbCircle
 10
89.7329285514
 20
142.7680885446
 30
0.0
 40
0.5499999999999972
  0
CIRCLE
  5
1A9
330
1F
100
AcDbEntity
  8
0
  6
Continuous
 62
     7
370
    25
100
AcDbCircle
 10
87.2329285514
 20
142.7680885446
 30
0.0
 40
0.5499999999999972
  0
CIRCLE
  5
1AA
330
1F
100
AcDbEntity
  8
0
  6
Continuous
 62
     7
370
    25
100
AcDbCircle
 10
79.7329285514
 20
142.7680885446
 30
0.0
 40
0.5499999999999972
  0
CIRCLE
  5
1AB
330
1F
100
AcDbEntity
  8
0
  6
Continuous
 62
     7
370
    25
100
AcDbCircle
 10
84.7329285514
 20
142.7680885446
 30
0.0
 40
0.5500000000000114
  0
CIRCLE
  5
1AC
330
1F
100
AcDbEntity
  8
0
  6
Continuous
 62
     7
370
    25
100
AcDbCircle
 10
82.2329285514
 20
142.7680885446
 30
0.0
 40
0.5499999999999972
  0
CIRCLE
  5
1AD
330
1F
100
AcDbEntity
  8
0
  6
Continuous
 62
     7
370
    25
100
AcDbCircle
 10
82.2329285514
 20
142.7680885446
 30
0.0
 40
0.75
  0
CIRCLE
  5
1AE
330
1F
100
AcDbEntity
  8
0
  6
Continuous
 62
     7
370
    25
100
AcDbCircle
 10
89.7329285514
 20
142.7680885446
 30
0.0
 40
0.75
  0
CIRCLE
  5
1AF
330
1F
100
AcDbEntity
  8
0
  6
Continuous
 62
     7
370
    25
100
AcDbCircle
 10
79.7329285514
 20
142.7680885446
 30
0.0
 40
0.75
  0
CIRCLE
  5
1B0
330
1F
100
AcDbEntity
  8
0
  6
Continuous
 62
     7
370
    25
100
AcDbCircle
 10
87.2329285514
 20
142.7680885446
 30
0.0
 40
0.7499999999999858
  0
CIRCLE
  5
1B1
330
1F
100
AcDbEntity
  8
0
  6
Continuous
 62
     7
370
    25
100
AcDbCircle
 10
84.7329285514
 20
142.7680885446
 30
0.0
 40
0.75
  0
CIRCLE
  5
1B2
330
1F
100
AcDbEntity
  8
0
  6
Continuous
 62
     7
370
    25
100
AcDbCircle
 10
84.7329285514
 20
142.7680885446
 30
0.0
 40
0.75
  0
CIRCLE
  5
1B3
330
1F
100
AcDbEntity
  8
0
  6
Continuous
 62
     7
370
    25
100
AcDbCircle
 10
87.2329285514
 20
142.7680885446
 30
0.0
 40
0.7499999999999858
  0
CIRCLE
  5
1B4
330
1F
100
AcDbEntity
  8
0
  6
Continuous
 62
     7
370
    25
100
AcDbCircle
 10
79.7329285514
 20
142.7680885446
 30
0.0
 40
0.75
  0
CIRCLE
  5
1B5
330
1F
100
AcDbEntity
  8
0
  6
Continuous
 62
     7
370
    25
100
AcDbCircle
 10
89.7329285514
 20
142.7680885446
 30
0.0
 40
0.75
  0
CIRCLE
  5
1B6
330
1F
100
AcDbEntity
  8
0
  6
Continuous
 62
     7
370
    25
100
AcDbCircle
 10
82.2329285514
 20
142.7680885446
 30
0.0
 40
0.75
  0
LINE
  5
1B7
330
1F
100
AcDbEntity
  8
0
  6
Continuous
 62
     7
370
    25
100
AcDbLine
 10
84.1329285514
 20
142.2389382823
 30
0.0
 11
84.1329285514
 21
143.2972388068
 31
0.0
  0
LINE
  5
1B8
330
1F
100
AcDbEntity
  8
0
  6
Continuous
 62
     7
370
    25
100
AcDbLine
 10
81.6329285514
 20
142.2389382823
 30
0.0
 11
81.6329285514
 21
143.2972388068
 31
0.0
  0
LINE
  5
1B9
330
1F
100
AcDbEntity
  8
0
  6
Continuous
 62
     7
370
    25
100
AcDbLine
 10
81.7037782892
 20
142.1680885446
 30
0.0
 11
82.7620788137
 21
142.1680885446
 31
0.0
  0
LINE
  5
1BA
330
1F
100
AcDbEntity
  8
0
  6
Continuous
 62
     7
370
    25
100
AcDbLine
 10
84.2037782892
 20
142.1680885446
 30
0.0
 11
85.2620788137
 21
142.1680885446
 31
0.0
  0
LINE
  5
1BB
330
1F
100
AcDbEntity
  8
0
  6
Continuous
 62
     7
370
    25
100
AcDbLine
 10
79.2037782892
 20
142.1680885446
 30
0.0
 11
80.2620788137
 21
142.1680885446
 31
0.0
  0
LINE
  5
1BC
330
1F
100
AcDbEntity
  8
0
  6
Continuous
 62
     7
370
    25
100
AcDbLine
 10
82.8329285514
 20
142.2389382823
 30
0.0
 11
82.8329285514
 21
143.2972388068
 31
0.0
  0
LINE
  5
1BD
330
1F
100
AcDbEntity
  8
0
  6
Continuous
 62
     7
370
    25
100
AcDbLine
 10
86.7037782892
 20
142.1680885446
 30
0.0
 11
87.7620788137
 21
142.1680885446
 31
0.0
  0
LINE
  5
1BE
330
1F
100
AcDbEntity
  8
0
  6
Continuous
 62
     7
370
    25
100
AcDbLine
 10
85.3329285514
 20
142.2389382823
 30
0.0
 11
85.3329285514
 21
143.2972388068
 31
0.0
  0
LINE
  5
1BF
330
1F
100
AcDbEntity
  8
0
  6
Continuous
 62
     7
370
    25
100
AcDbLine
 10
80.3329285514
 20
142.2389382823
 30
0.0
 11
80.3329285514
 21
143.2972388068
 31
0.0
  0
LINE
  5
1C0
330
1F
100
AcDbEntity
  8
0
  6
Continuous
 62
     7
370
    25
100
AcDbLine
 10
81.7037782892
 20
143.3680885446
 30
0.0
 11
82.7620788137
 21
143.3680885446
 31
0.0
  0
LINE
  5
1C1
330
1F
100
AcDbEntity
  8
0
  6
Continuous
 62
     7
370
    25
100
AcDbLine
 10
89.2037782892
 20
143.3680885446
 30
0.0
 11
90.2620788137
 21
143.3680885446
 31
0.0
  0
LINE
  5
1C2
330
1F
100
AcDbEntity
  8
0
  6
Continuous
 62
     7
370
    25
100
AcDbLine
 10
86.6329285514
 20
142.2389382823
 30
0.0
 11
86.6329285514
 21
143.2972388068
 31
0.0
  0
LINE
  5
1C3
330
1F
100
AcDbEntity
  8
0
  6
Continuous
 62
     7
370
    25
100
AcDbLine
 10
87.8329285514
 20
142.2389382823
 30
0.0
 11
87.8329285514
 21
143.2972388068
 31
0.0
  0
LINE
  5
1C4
330
1F
100
AcDbEntity
  8
0
  6
Continuous
 62
     7
370
    25
100
AcDbLine
 10
89.2037782892
 20
142.1680885446
 30
0.0
 11
90.2620788137
 21
142.1680885446
 31
0.0
  0
LINE
  5
1C5
330
1F
100
AcDbEntity
  8
0
  6
Continuous
 62
     7
370
    25
100
AcDbLine
 10
89.1329285514
 20
142.2389382823
 30
0.0
 11
89.1329285514
 21
143.2972388068
 31
0.0
  0
LINE
  5
1C6
330
1F
100
AcDbEntity
  8
0
  6
Continuous
 62
     7
370
    25
100
AcDbLine
 10
86.7037782892
 20
143.3680885446
 30
0.0
 11
87.7620788137
 21
143.3680885446
 31
0.0
  0
LINE
  5
1C7
330
1F
100
AcDbEntity
  8
0
  6
Continuous
 62
     7
370
    25
100
AcDbLine
 10
90.3329285514
 20
142.2389382823
 30
0.0
 11
90.3329285514
 21
143.2972388068
 31
0.0
  0
LINE
  5
1C8
330
1F
100
AcDbEntity
  8
0
  6
Continuous
 62
     7
370
    25
100
AcDbLine
 10
84.2037782892
 20
143.3680885446
 30
0.0
 11
85.2620788137
 21
143.3680885446
 31
0.0
  0
LINE
  5
1C9
330
1F
100
AcDbEntity
  8
0
  6
Continuous
 62
     7
370
    25
100
AcDbLine
 10
79.2037782892
 20
143.3680885446
 30
0.0
 11
80.2620788137
 21
143.3680885446
 31
0.0
  0
LINE
  5
1CA
330
1F
100
AcDbEntity
  8
0
  6
Continuous
 62
     7
370
    25
100
AcDbLine
 10
79.1329285514
 20
142.2389382823
 30
0.0
 11
79.1329285514
 21
143.2972388068
 31
0.0
  0
LINE
  5
1CB
330
1F
100
AcDbEntity
  8
0
  6
Continuous
 62
     7
370
    25
100
AcDbLine
 10
89.2037782892
 20
142.1680885446
 30
0.0
 11
90.2620788137
 21
142.1680885446
 31
0.0
  0
LINE
  5
1CC
330
1F
100
AcDbEntity
  8
0
  6
Continuous
 62
     7
370
    25
100
AcDbLine
 10
90.3329285514
 20
142.9806377579
 30
0.0
 11
90.3329285514
 21
142.2389382823
 31
0.0
  0
LINE
  5
1CD
330
1F
100
AcDbEntity
  8
0
  6
Continuous
 62
     7
370
    25
100
AcDbLine
 10
81.7037782892
 20
143.3680885446
 30
0.0
 11
82.7620788137
 21
143.3680885446
 31
0.0
  0
LINE
  5
1CE
330
1F
100
AcDbEntity
  8
0
  6
Continuous
 62
     7
370
    25
100
AcDbLine
 10
89.2037782892
 20
143.3680885446
 30
0.0
 11
90.2620788137
 21
143.3680885446
 31
0.0
  0
LINE
  5
1CF
330
1F
100
AcDbEntity
  8
0
  6
Continuous
 62
     7
370
    25
100
AcDbLine
 10
79.2037782892
 20
143.3680885446
 30
0.0
 11
80.2620788137
 21
143.3680885446
 31
0.0
  0
LINE
  5
1D0
330
1F
100
AcDbEntity
  8
0
  6
Continuous
 62
     7
370
    25
100
AcDbLine
 10
79.1329285514
 20
142.9806377579
 30
0.0
 11
79.1329285514
 21
142.2389382823
 31
0.0
  0
LINE
  5
1D1
330
1F
100
AcDbEntity
  8
0
  6
Continuous
 62
     7
370
    25
100
AcDbLine
 10
79.2037782892
 20
142.1680885446
 30
0.0
 11
80.2620788137
 21
142.1680885446
 31
0.0
  0
LINE
  5
1D2
330
1F
100
AcDbEntity
  8
0
  6
Continuous
 62
     7
370
    25
100
AcDbLine
 10
86.7037782892
 20
142.1680885446
 30
0.0
 11
87.7620788137
 21
142.1680885446
 31
0.0
  0
LINE
  5
1D3
330
1F
100
AcDbEntity
  8
0
  6
Continuous
 62
     7
370
    25
100
AcDbLine
 10
86.6329285514
 20
142.9806377579
 30
0.0
 11
86.6329285514
 21
142.2389382823
 31
0.0
  0
LINE
  5
1D4
330
1F
100
AcDbEntity
  8
0
  6
Continuous
 62
     7
370
    25
100
AcDbLine
 10
87.8329285514
 20
142.9806377579
 30
0.0
 11
87.8329285514
 21
142.2389382823
 31
0.0
  0
LINE
  5
1D5
330
1F
100
AcDbEntity
  8
0
  6
Continuous
 62
     7
370
    25
100
AcDbLine
 10
84.1329285514
 20
142.9806377579
 30
0.0
 11
84.1329285514
 21
142.2389382823
 31
0.0
  0
LINE
  5
1D6
330
1F
100
AcDbEntity
  8
0
  6
Continuous
 62
     7
370
    25
100
AcDbLine
 10
84.2037782892
 20
142.1680885446
 30
0.0
 11
85.2620788137
 21
142.1680885446
 31
0.0
  0
LINE
  5
1D7
330
1F
100
AcDbEntity
  8
0
  6
Continuous
 62
     7
370
    25
100
AcDbLine
 10
85.3329285514
 20
142.9806377579
 30
0.0
 11
85.3329285514
 21
142.2389382823
 31
0.0
  0
LINE
  5
1D8
330
1F
100
AcDbEntity
  8
0
  6
Continuous
 62
     7
370
    25
100
AcDbLine
 10
81.6329285514
 20
142.9806377579
 30
0.0
 11
81.6329285514
 21
142.2389382823
 31
0.0
  0
LINE
  5
1D9
330
1F
100
AcDbEntity
  8
0
  6
Continuous
 62
     7
370
    25
100
AcDbLine
 10
81.7037782892
 20
142.1680885446
 30
0.0
 11
82.7620788137
 21
142.1680885446
 31
0.0
  0
LINE
  5
1DA
330
1F
100
AcDbEntity
  8
0
  6
Continuous
 62
     7
370
    25
100
AcDbLine
 10
82.8329285514
 20
142.9806377579
 30
0.0
 11
82.8329285514
 21
142.2389382823
 31
0.0
  0
LINE
  5
1DB
330
1F
100
AcDbEntity
  8
0
  6
Continuous
 62
     7
370
    25
100
AcDbLine
 10
86.7037782892
 20
143.3680885446
 30
0.0
 11
87.7620788137
 21
143.3680885446
 31
0.0
  0
LINE
  5
1DC
330
1F
100
AcDbEntity
  8
0
  6
Continuous
 62
     7
370
    25
100
AcDbLine
 10
84.2037782892
 20
143.3680885446
 30
0.0
 11
85.2620788137
 21
143.3680885446
 31
0.0
  0
LINE
  5
1DD
330
1F
100
AcDbEntity
  8
0
  6
Continuous
 62
     7
370
    25
100
AcDbLine
 10
80.3329285514
 20
142.9806377579
 30
0.0
 11
79.1329285514
 21
142.9806377579
 31
0.0
  0
LINE
  5
1DE
330
1F
100
AcDbEntity
  8
0
  6
Continuous
 62
     7
370
    25
100
AcDbLine
 10
79.1329285514
 20
142.9806377579
 30
0.0
 11
79.1329285514
 21
143.2972388068
 31
0.0
  0
LINE
  5
1DF
330
1F
100
AcDbEntity
  8
0
  6
Continuous
 62
     7
370
    25
100
AcDbLine
 10
85.3329285514
 20
142.9806377579
 30
0.0
 11
84.1329285514
 21
142.9806377579
 31
0.0
  0
LINE
  5
1E0
330
1F
100
AcDbEntity
  8
0
  6
Continuous
 62
     7
370
    25
100
AcDbLine
 10
84.1329285514
 20
142.9806377579
 30
0.0
 11
84.1329285514
 21
143.2972388068
 31
0.0
  0
LINE
  5
1E1
330
1F
100
AcDbEntity
  8
0
  6
Continuous
 62
     7
370
    25
100
AcDbLine
 10
85.3329285514
 20
142.9806377579
 30
0.0
 11
85.3329285514
 21
143.2972388068
 31
0.0
  0
LINE
  5
1E2
330
1F
100
AcDbEntity
  8
0
  6
Continuous
 62
     7
370
    25
100
AcDbLine
 10
87.8329285514
 20
142.9806377579
 30
0.0
 11
86.6329285514
 21
142.9806377579
 31
0.0
  0
LINE
  5
1E3
330
1F
100
AcDbEntity
  8
0
  6
Continuous
 62
     7
370
    25
100
AcDbLine
 10
86.6329285514
 20
142.9806377579
 30
0.0
 11
86.6329285514
 21
143.2972388068
 31
0.0
  0
LINE
  5
1E4
330
1F
100
AcDbEntity
  8
0
  6
Continuous
 62
     7
370
    25
100
AcDbLine
 10
87.8329285514
 20
142.9806377579
 30
0.0
 11
87.8329285514
 21
143.2972388068
 31
0.0
  0
LINE
  5
1E5
330
1F
100
AcDbEntity
  8
0
  6
Continuous
 62
     7
370
    25
100
AcDbLine
 10
82.8329285514
 20
142.9806377579
 30
0.0
 11
81.6329285514
 21
142.9806377579
 31
0.0
  0
LINE
  5
1E6
330
1F
100
AcDbEntity
  8
0
  6
Continuous
 62
     7
370
    25
100
AcDbLine
 10
81.6329285514
 20
142.9806377579
 30
0.0
 11
81.6329285514
 21
143.2972388068
 31
0.0
  0
LINE
  5
1E7
330
1F
100
AcDbEntity
  8
0
  6
Continuous
 62
     7
370
    25
100
AcDbLine
 10
82.8329285514
 20
142.9806377579
 30
0.0
 11
82.8329285514
 21
143.2972388068
 31
0.0
  0
LINE
  5
1E8
330
1F
100
AcDbEntity
  8
0
  6
Continuous
 62
     7
370
    25
100
AcDbLine
 10
90.3329285514
 20
142.9806377579
 30
0.0
 11
89.1329285514
 21
142.9806377579
 31
0.0
  0
LINE
  5
1E9
330
1F
100
AcDbEntity
  8
0
  6
Continuous
 62
     7
370
    25
100
AcDbLine
 10
90.3329285514
 20
142.9806377579
 30
0.0
 11
90.3329285514
 21
143.2972388068
 31
0.0
  0
ARC
  5
1EA
330
1F
100
AcDbEntity
  8
0
  6
Continuous
 62
     7
370
    25
100
AcDbCircle
 10
95.1329285514
 20
101.5180885446
 30
0.0
 40
0.9000000000000123
100
AcDbArc
 50
150.0
 51
0.0
  0
LWPOLYLINE
  5
1EB
330
1F
100
AcDbEntity
  8
0
  6
Continuous
 62
     7
370
    25
100
AcDbPolyline
 90
        3
 70
   128
 43
0.0
 10
95.9123514148
 20
101.9680885446
 10
95.9644201307
 20
101.8625036337
 10
96.0329285514
 20
101.5180885446
  0
LINE
  5
1EC
330
1F
100
AcDbEntity
  8
0
  6
Continuous
 62
     7
370
    25
100
AcDbLine
 10
83.9329285514
 20
98.4680885446
 30
0.0
 11
83.9329285514
 21
101.9680885446
 31
0.0
  0
LINE
  5
1ED
330
1F
100
AcDbEntity
  8
0
  6
Continuous
 62
     7
370
    25
100
AcDbLine
 10
99.9329285514
 20
98.4680885446
 30
0.0
 11
83.9329285514
 21
98.4680885446
 31
0.0
  0
LINE
  5
1EE
330
1F
100
AcDbEntity
  8
0
  6
Continuous
 62
     7
370
    25
100
AcDbLine
 10
87.3329285514
 20
101.9680885446
 30
0.0
 11
87.3329285514
 21
99.7680885446
 31
0.0
  0
ARC
  5
1EF
330
1F
100
AcDbEntity
  8
0
  6
Continuous
 62
     7
370
    25
100
AcDbCircle
 10
87.5329285514
 20
99.7680885446
 30
0.0
 40
0.2000000000000028
100
AcDbArc
 50
180.0
 51
270.0
  0
LINE
  5
1F0
330
1F
100
AcDbEntity
  8
0
  6
Continuous
 62
     7
370
    25
100
AcDbLine
 10
87.5329285514
 20
99.5680885446
 30
0.0
 11
96.3329285514
 21
99.5680885446
 31
0.0
  0
ARC
  5
1F1
330
1F
100
AcDbEntity
  8
0
  6
Continuous
 62
     7
370
    25
100
AcDbCircle
 10
96.3329285514
 20
99.7680885446
 30
0.0
 40
0.2000000000000028
100
AcDbArc
 50
270.0
 51
0.0
  0
LINE
  5
1F2
330
1F
100
AcDbEntity
  8
0
  6
Continuous
 62
     7
370
    25
100
AcDbLine
 10
96.5329285514
 20
99.7680885446
 30
0.0
 11
96.5329285514
 21
101.9680885446
 31
0.0
  0
LINE
  5
1F3
330
1F
100
AcDbEntity
  8
0
  6
Continuous
 62
     7
370
    25
100
AcDbLine
 10
99.9329285514
 20
98.4680885446
 30
0.0
 11
99.9329285514
 21
101.9680885446
 31
0.0
  0
LINE
  5
1F4
330
1F
100
AcDbEntity
  8
0
  6
Continuous
 62
     7
370
    25
100
AcDbLine
 10
94.4161331776
 20
100.9738419165
 30
0.0
 11
87.8008235293
 21
100.5481942277
 31
0.0
  0
ARC
  5
1F5
330
1F
100
AcDbEntity
  8
0
  6
Continuous
 62
     7
370
    25
100
AcDbCircle
 10
87.8329285514
 20
100.0492260247
 30
0.0
 40
0.5
100
AcDbArc
 50
93.6814972547
 51
180.0
  0
LINE
  5
1F6
330
1F
100
AcDbEntity
  8
0
  6
Continuous
 62
     7
370
    25
100
AcDbLine
 10
95.8329285514
 20
94.9680885446
 30
0.0
 11
88.0329285514
 21
94.9680885446
 31
0.0
  0
LINE
  5
1F7
330
1F
100
AcDbEntity
  8
0
  6
Continuous
 62
     7
370
    25
100
AcDbLine
 10
95.8329285514
 20
97.9680885446
 30
0.0
 11
95.8329285514
 21
94.9680885446
 31
0.0
  0
LINE
  5
1F8
330
1F
100
AcDbEntity
  8
0
  6
Continuous
 62
     7
370
    25
100
AcDbLine
 10
88.0329285514
 20
97.9680885446
 30
0.0
 11
95.8329285514
 21
97.9680885446
 31
0.0
  0
LINE
  5
1F9
330
1F
100
AcDbEntity
  8
0
  6
Continuous
 62
     7
370
    25
100
AcDbLine
 10
88.0329285514
 20
94.9680885446
 30
0.0
 11
88.0329285514
 21
98.4680885446
 31
0.0
  0
LINE
  5
1FA
330
1F
100
AcDbEntity
  8
0
  6
PHANTOM
 62
     7
370
    25
100
AcDbLine
 10
85.5329285514
 20
94.9680885446
 30
0.0
 11
85.5329285514
 21
98.4680885446
 31
0.0
  0
LINE
  5
1FB
330
1F
100
AcDbEntity
  8
0
  6
PHANTOM
 62
     7
370
    25
100
AcDbLine
 10
98.3329285514
 20
94.9680885446
 30
0.0
 11
98.3329285514
 21
98.4680885446
 31
0.0
  0
ARC
  5
1FC
330
1F
100
AcDbEntity
  8
0
  6
PHANTOM
 62
     7
370
    25
100
AcDbCircle
 10
97.3329285514
 20
94.9680885446
 30
0.0
 40
1.0
100
AcDbArc
 50
270.0
 51
0.0
  0
LINE
  5
1FD
330
1F
100
AcDbEntity
  8
0
  6
PHANTOM
 62
     7
370
    25
100
AcDbLine
 10
86.5329285514
 20
93.9680885446
 30
0.0
 11
97.3329285514
 21
93.9680885446
 31
0.0
  0
ARC
  5
1FE
330
1F
100
AcDbEntity
  8
0
  6
PHANTOM
 62
     7
370
    25
100
AcDbCircle
 10
86.5329285514
 20
94.9680885446
 30
0.0
 40
1.0
100
AcDbArc
 50
180.0
 51
270.0
  0
LINE
  5
1FF
330
1F
100
AcDbEntity
  8
0
  6
Continuous
 62
     7
370
    25
100
AcDbLine
 10
99.9329285514
 20
101.4680885446
 30
0.0
 11
96.0315385892
 21
101.4680885446
 31
0.0
  0
LINE
  5
200
330
1F
100
AcDbEntity
  8
0
  6
Continuous
 62
     7
370
    25
100
AcDbLine
 10
94.2343185137
 20
101.4680885446
 30
0.0
 11
83.9329285514
 21
101.4680885446
 31
0.0
  0
LINE
  5
201
330
1F
100
AcDbEntity
  8
0
  6
Continuous
 62
     7
370
    25
100
AcDbLine
 10
95.8329285514
 20
97.9680885446
 30
0.0
 11
88.0329285514
 21
97.9680885446
 31
0.0
  0
LINE
  5
202
330
1F
100
AcDbEntity
  8
0
  6
Continuous
 62
     7
370
    25
100
AcDbLine
 10
95.8329285514
 20
100.9524031196
 30
0.0
 11
95.8329285514
 21
99.5680885446
 31
0.0
  0
LINE
  5
203
330
1F
100
AcDbEntity
  8
0
  6
Continuous
 62
     7
370
    25
100
AcDbLine
 10
95.8329285514
 20
98.4680885446
 30
0.0
 11
95.8329285514
 21
97.9680885446
 31
0.0
  0
LINE
  5
204
330
1F
100
AcDbEntity
  8
0
  6
Continuous
 62
     7
370
    25
100
AcDbLine
 10
94.3267157129
 20
100.9680885446
 30
0.0
 11
94.420538209
 21
100.9680885446
 31
0.0
  0
LINE
  5
205
330
1F
100
AcDbEntity
  8
0
  6
Continuous
 62
     7
370
    25
100
AcDbLine
 10
88.0329285514
 20
99.5680885446
 30
0.0
 11
88.0329285514
 21
100.5631285197
 31
0.0
  0
ARC
  5
206
330
1F
100
AcDbEntity
  8
0
  6
Continuous
 62
     7
370
    25
100
AcDbCircle
 10
86.5329285514
 20
97.9680885446
 30
0.0
 40
1.0
100
AcDbArc
 50
180.0
 51
270.0
  0
ARC
  5
207
330
1F
100
AcDbEntity
  8
0
  6
Continuous
 62
     7
370
    25
100
AcDbCircle
 10
97.3329285514
 20
97.9680885446
 30
0.0
 40
1.0
100
AcDbArc
 50
270.0
 51
0.0
  0
LINE
  5
208
330
1F
100
AcDbEntity
  8
0
  6
Continuous
 62
     7
370
    25
100
AcDbLine
 10
86.5329285514
 20
96.9680885446
 30
0.0
 11
97.3329285514
 21
96.9680885446
 31
0.0
  0
LINE
  5
209
330
1F
100
AcDbEntity
  8
0
  6
Continuous
 62
     7
370
    25
100
AcDbLine
 10
168.0971707753
 20
133.3680885446
 30
0.0
 11
166.4440776168
 21
133.3680885446
 31
0.0
  0
ARC
  5
20A
330
1F
100
AcDbEntity
  8
0
  6
Continuous
 62
     7
370
    25
100
AcDbCircle
 10
153.4329285514
 20
126.9680885446
 30
0.0
 40
16.00000000000001
100
AcDbArc
 50
336.4218215218
 51
23.5781784782
  0
LINE
  5
20B
330
1F
100
AcDbEntity
  8
0
  6
Continuous
 62
     7
370
    25
100
AcDbLine
 10
166.4440776168
 20
120.5680885446
 30
0.0
 11
168.0971707753
 21
120.5680885446
 31
0.0
  0
ARC
  5
20C
330
1F
100
AcDbEntity
  8
0
  6
Continuous
 62
     7
370
    25
100
AcDbCircle
 10
153.4329285514
 20
126.9680885446
 30
0.0
 40
14.50000000000001
100
AcDbArc
 50
333.8080802775
 51
26.1919197225
  0
ARC
  5
20D
330
1F
100
AcDbEntity
  8
0
  6
Continuous
 62
     7
370
    25
100
AcDbCircle
 10
163.7829285514
 20
126.9680885446
 30
0.0
 40
2.149999999999991
100
AcDbArc
 50
287.5973366081
 51
72.4026633919
  0
LINE
  5
20E
330
1F
100
AcDbEntity
  8
0
  6
Continuous
 62
     7
370
    25
100
AcDbLine
 10
164.4329285514
 20
133.3680885446
 30
0.0
 11
166.4440776168
 21
133.3680885446
 31
0.0
  0
LINE
  5
20F
330
1F
100
AcDbEntity
  8
0
  6
Continuous
 62
     7
370
    25
100
AcDbLine
 10
166.4440776168
 20
120.5680885446
 30
0.0
 11
164.4329285514
 21
120.5680885446
 31
0.0
  0
LINE
  5
210
330
1F
100
AcDbEntity
  8
0
  6
Continuous
 62
     7
370
    25
100
AcDbLine
 10
175.0971707753
 20
133.3680885446
 30
0.0
 11
173.4440776168
 21
133.3680885446
 31
0.0
  0
ARC
  5
211
330
1F
100
AcDbEntity
  8
0
  6
PHANTOM
 62
     7
370
    25
100
AcDbCircle
 10
160.4329285514
 20
126.9680885446
 30
0.0
 40
16.00000000000001
100
AcDbArc
 50
336.4218215218
 51
23.5781784782
  0
LINE
  5
212
330
1F
100
AcDbEntity
  8
0
  6
PHANTOM
 62
     7
370
    25
100
AcDbLine
 10
173.4440776168
 20
120.5680885446
 30
0.0
 11
175.0971707753
 21
120.5680885446
 31
0.0
  0
ARC
  5
213
330
1F
100
AcDbEntity
  8
0
  6
PHANTOM
 62
     7
370
    25
100
AcDbCircle
 10
160.4329285514
 20
126.9680885446
 30
0.0
 40
14.50000000000001
100
AcDbArc
 50
333.8080802775
 51
26.1919197225
  0
LINE
  5
214
330
1F
100
AcDbEntity
  8
0
  6
PHANTOM
 62
     7
370
    25
100
AcDbLine
 10
170.7829285514
 20
134.9680885446
 30
0.0
 11
164.4329285514
 21
134.9680885446
 31
0.0
  0
LINE
  5
215
330
1F
100
AcDbEntity
  8
0
  6
Continuous
 62
     7
370
    25
100
AcDbLine
 10
170.7829285514
 20
133.3680885446
 30
0.0
 11
170.7829285514
 21
134.9680885446
 31
0.0
  0
LINE
  5
216
330
1F
100
AcDbEntity
  8
0
  6
PHANTOM
 62
     7
370
    25
100
AcDbLine
 10
170.7829285514
 20
118.9680885446
 30
0.0
 11
170.7829285514
 21
120.5680885446
 31
0.0
  0
LINE
  5
217
330
1F
100
AcDbEntity
  8
0
  6
PHANTOM
 62
     7
370
    25
100
AcDbLine
 10
164.4329285514
 20
118.9680885446
 30
0.0
 11
170.7829285514
 21
118.9680885446
 31
0.0
  0
ARC
  5
218
330
1F
100
AcDbEntity
  8
0
  6
PHANTOM
 62
     7
370
    25
100
AcDbCircle
 10
170.7829285514
 20
126.9680885446
 30
0.0
 40
2.150000000000007
100
AcDbArc
 50
270.0
 51
131.7159342879
  0
ARC
  5
219
330
1F
100
AcDbEntity
  8
0
  6
PHANTOM
 62
     7
370
    25
100
AcDbCircle
 10
170.7829285514
 20
126.9680885446
 30
0.0
 40
2.149999999999986
100
AcDbArc
 50
228.2840657121
 51
270.0
  0
LINE
  5
21A
330
1F
100
AcDbEntity
  8
0
  6
PHANTOM
 62
     7
370
    25
100
AcDbLine
 10
170.7829285514
 20
133.3680885446
 30
0.0
 11
173.4440776168
 21
133.3680885446
 31
0.0
  0
LINE
  5
21B
330
1F
100
AcDbEntity
  8
0
  6
Continuous
 62
     7
370
    25
100
AcDbLine
 10
173.4440776168
 20
120.5680885446
 30
0.0
 11
170.7829285514
 21
120.5680885446
 31
0.0
  0
LINE
  5
21C
330
1F
100
AcDbEntity
  8
0
  6
Continuous
 62
     7
370
    25
100
AcDbLine
 10
23.7686863276
 20
120.5680885446
 30
0.0
 11
25.4217794861
 21
120.5680885446
 31
0.0
  0
ARC
  5
21D
330
1F
100
AcDbEntity
  8
0
  6
PHANTOM
 62
     7
370
    25
100
AcDbCircle
 10
38.4329285514
 20
126.9680885446
 30
0.0
 40
16.00000000000001
100
AcDbArc
 50
156.4218215218
 51
203.5781784782
  0
LINE
  5
21E
330
1F
100
AcDbEntity
  8
0
  6
Continuous
 62
     7
370
    25
100
AcDbLine
 10
25.4217794861
 20
133.3680885446
 30
0.0
 11
23.7686863276
 21
133.3680885446
 31
0.0
  0
ARC
  5
21F
330
1F
100
AcDbEntity
  8
0
  6
PHANTOM
 62
     7
370
    25
100
AcDbCircle
 10
38.4329285514
 20
126.9680885446
 30
0.0
 40
14.50000000000002
100
AcDbArc
 50
153.8080802775
 51
206.1919197225
  0
LINE
  5
220
330
1F
100
AcDbEntity
  8
0
  6
Continuous
 62
     7
370
    25
100
AcDbLine
 10
33.4329285514
 20
134.9680885446
 30
0.0
 11
33.4329285514
 21
133.3680885446
 31
0.0
  0
LINE
  5
221
330
1F
100
AcDbEntity
  8
0
  6
Continuous
 62
     7
370
    25
100
AcDbLine
 10
34.4329285514
 20
134.9680885446
 30
0.0
 11
33.4329285514
 21
134.9680885446
 31
0.0
  0
LINE
  5
222
330
1F
100
AcDbEntity
  8
0
  6
Continuous
 62
     7
370
    25
100
AcDbLine
 10
33.4329285514
 20
118.9680885446
 30
0.0
 11
34.4329285514
 21
118.9680885446
 31
0.0
  0
LINE
  5
223
330
1F
100
AcDbEntity
  8
0
  6
Continuous
 62
     7
370
    25
100
AcDbLine
 10
33.4329285514
 20
120.5680885446
 30
0.0
 11
33.4329285514
 21
118.9680885446
 31
0.0
  0
ARC
  5
224
330
1F
100
AcDbEntity
  8
0
  6
PHANTOM
 62
     7
370
    25
100
AcDbCircle
 10
27.9329285514
 20
126.9680885446
 30
0.0
 40
2.150000000000009
100
AcDbArc
 50
90.0
 51
316.8195916326
  0
ARC
  5
225
330
1F
100
AcDbEntity
  8
0
  6
PHANTOM
 62
     7
370
    25
100
AcDbCircle
 10
27.9329285514
 20
126.9680885446
 30
0.0
 40
2.149999999999999
100
AcDbArc
 50
43.1804083674
 51
90.0
  0
LINE
  5
226
330
1F
100
AcDbEntity
  8
0
  6
Continuous
 62
     7
370
    25
100
AcDbLine
 10
34.4329285514
 20
123.1680885446
 30
0.0
 11
33.4329285514
 21
123.1680885446
 31
0.0
  0
ARC
  5
227
330
1F
100
AcDbEntity
  8
0
  6
Continuous
 62
     7
370
    25
100
AcDbCircle
 10
33.4329285514
 20
122.1680885446
 30
0.0
 40
1.0
100
AcDbArc
 50
90.0
 51
180.0
  0
LINE
  5
228
330
1F
100
AcDbEntity
  8
0
  6
Continuous
 62
     7
370
    25
100
AcDbLine
 10
32.4329285514
 20
122.1680885446
 30
0.0
 11
32.4329285514
 21
121.9680885446
 31
0.0
  0
LINE
  5
229
330
1F
100
AcDbEntity
  8
0
  6
Continuous
 62
     7
370
    25
100
AcDbLine
 10
32.4329285514
 20
121.9680885446
 30
0.0
 11
34.4329285514
 21
121.9680885446
 31
0.0
  0
LINE
  5
22A
330
1F
100
AcDbEntity
  8
0
  6
Continuous
 62
     7
370
    25
100
AcDbLine
 10
34.4329285514
 20
131.9680885446
 30
0.0
 11
32.4329285514
 21
131.9680885446
 31
0.0
  0
LINE
  5
22B
330
1F
100
AcDbEntity
  8
0
  6
Continuous
 62
     7
370
    25
100
AcDbLine
 10
32.4329285514
 20
131.9680885446
 30
0.0
 11
32.4329285514
 21
131.7680885446
 31
0.0
  0
ARC
  5
22C
330
1F
100
AcDbEntity
  8
0
  6
Continuous
 62
     7
370
    25
100
AcDbCircle
 10
33.4329285514
 20
131.7680885446
 30
0.0
 40
1.0
100
AcDbArc
 50
180.0
 51
270.0
  0
LINE
  5
22D
330
1F
100
AcDbEntity
  8
0
  6
Continuous
 62
     7
370
    25
100
AcDbLine
 10
33.4329285514
 20
130.7680885446
 30
0.0
 11
34.4329285514
 21
130.7680885446
 31
0.0
  0
LINE
  5
22E
330
1F
100
AcDbEntity
  8
0
  6
Continuous
 62
     7
370
    25
100
AcDbLine
 10
34.4329285514
 20
129.1680885446
 30
0.0
 11
33.4329285514
 21
129.1680885446
 31
0.0
  0
ARC
  5
22F
330
1F
100
AcDbEntity
  8
0
  6
Continuous
 62
     7
370
    25
100
AcDbCircle
 10
33.4329285514
 20
128.1680885446
 30
0.0
 40
1.0
100
AcDbArc
 50
90.0
 51
180.0
  0
LINE
  5
230
330
1F
100
AcDbEntity
  8
0
  6
Continuous
 62
     7
370
    25
100
AcDbLine
 10
32.4329285514
 20
128.1680885446
 30
0.0
 11
32.4329285514
 21
125.7680885446
 31
0.0
  0
ARC
  5
231
330
1F
100
AcDbEntity
  8
0
  6
Continuous
 62
     7
370
    25
100
AcDbCircle
 10
33.4329285514
 20
125.7680885446
 30
0.0
 40
1.000000000000014
100
AcDbArc
 50
180.0
 51
270.0
  0
LINE
  5
232
330
1F
100
AcDbEntity
  8
0
  6
Continuous
 62
     7
370
    25
100
AcDbLine
 10
33.4329285514
 20
124.7680885446
 30
0.0
 11
34.4329285514
 21
124.7680885446
 31
0.0
  0
LINE
  5
233
330
1F
100
AcDbEntity
  8
0
  6
PHANTOM
 62
     7
370
    25
100
AcDbLine
 10
33.4329285514
 20
120.5680885446
 30
0.0
 11
32.4217794861
 21
120.5680885446
 31
0.0
  0
LINE
  5
234
330
1F
100
AcDbEntity
  8
0
  6
PHANTOM
 62
     7
370
    25
100
AcDbLine
 10
30.7686863276
 20
120.5680885446
 30
0.0
 11
25.4217794861
 21
120.5680885446
 31
0.0
  0
LINE
  5
235
330
1F
100
AcDbEntity
  8
0
  6
PHANTOM
 62
     7
370
    25
100
AcDbLine
 10
25.4217794861
 20
133.3680885446
 30
0.0
 11
30.7686863276
 21
133.3680885446
 31
0.0
  0
LINE
  5
236
330
1F
100
AcDbEntity
  8
0
  6
PHANTOM
 62
     7
370
    25
100
AcDbLine
 10
34.4329285514
 20
133.3680885446
 30
0.0
 11
32.4217794861
 21
133.3680885446
 31
0.0
  0
LINE
  5
237
330
1F
100
AcDbEntity
  8
0
  6
Continuous
 62
     7
370
    25
100
AcDbLine
 10
30.7686863276
 20
120.5680885446
 30
0.0
 11
32.4217794861
 21
120.5680885446
 31
0.0
  0
ARC
  5
238
330
1F
100
AcDbEntity
  8
0
  6
Continuous
 62
     7
370
    25
100
AcDbCircle
 10
45.4329285514
 20
126.9680885446
 30
0.0
 40
16.00000000000001
100
AcDbArc
 50
156.4218215218
 51
203.5781784782
  0
LINE
  5
239
330
1F
100
AcDbEntity
  8
0
  6
Continuous
 62
     7
370
    25
100
AcDbLine
 10
32.4217794861
 20
133.3680885446
 30
0.0
 11
30.7686863276
 21
133.3680885446
 31
0.0
  0
ARC
  5
23A
330
1F
100
AcDbEntity
  8
0
  6
Continuous
 62
     7
370
    25
100
AcDbCircle
 10
45.4329285514
 20
126.9680885446
 30
0.0
 40
14.50000000000001
100
AcDbArc
 50
153.8080802775
 51
206.1919197225
  0
ARC
  5
23B
330
1F
100
AcDbEntity
  8
0
  6
Continuous
 62
     7
370
    25
100
AcDbCircle
 10
34.9329285514
 20
126.9680885446
 30
0.0
 40
2.150000000000021
100
AcDbArc
 50
103.4477270445
 51
256.5522729555
  0
LINE
  5
23C
330
1F
100
AcDbEntity
  8
0
  6
Continuous
 62
     7
370
    25
100
AcDbLine
 10
34.4329285514
 20
120.5680885446
 30
0.0
 11
32.4217794861
 21
120.5680885446
 31
0.0
  0
ARC
  5
23D
330
1F
100
AcDbEntity
  8
0
  6
Continuous
 62
     7
370
    25
100
AcDbCircle
 10
156.9829285514
 20
142.1680885446
 30
0.0
 40
0.2999999999999829
100
AcDbArc
 50
270.0
 51
0.0
  0
LINE
  5
23E
330
1F
100
AcDbEntity
  8
0
  6
Continuous
 62
     7
370
    25
100
AcDbLine
 10
156.9829285514
 20
141.8680885446
 30
0.0
 11
149.8829285514
 21
141.8680885446
 31
0.0
  0
ARC
  5
23F
330
1F
100
AcDbEntity
  8
0
  6
Continuous
 62
     7
370
    25
100
AcDbCircle
 10
149.8829285514
 20
142.1680885446
 30
0.0
 40
0.3000000000000114
100
AcDbArc
 50
180.0
 51
270.0
  0
ARC
  5
240
330
1F
100
AcDbEntity
  8
0
  6
Continuous
 62
     7
370
    25
100
AcDbCircle
 10
149.8829285514
 20
145.4680885446
 30
0.0
 40
0.3000000000000114
100
AcDbArc
 50
90.0
 51
180.0
  0
ARC
  5
241
330
1F
100
AcDbEntity
  8
0
  6
Continuous
 62
     7
370
    25
100
AcDbCircle
 10
156.9829285514
 20
145.4680885446
 30
0.0
 40
0.2999999999999829
100
AcDbArc
 50
0.0
 51
90.0
  0
LINE
  5
242
330
1F
100
AcDbEntity
  8
0
  6
Continuous
 62
     7
370
    25
100
AcDbLine
 10
157.2829285514
 20
145.4680885446
 30
0.0
 11
157.2829285514
 21
142.1680885446
 31
0.0
  0
LINE
  5
243
330
1F
100
AcDbEntity
  8
0
  6
Continuous
 62
     7
370
    25
100
AcDbLine
 10
149.5829285514
 20
142.1680885446
 30
0.0
 11
149.5829285514
 21
145.4680885446
 31
0.0
  0
LINE
  5
244
330
1F
100
AcDbEntity
  8
0
  6
Continuous
 62
     7
370
    25
100
AcDbLine
 10
149.8829285514
 20
145.7680885446
 30
0.0
 11
156.9829285514
 21
145.7680885446
 31
0.0
  0
LINE
  5
245
330
1F
100
AcDbEntity
  8
0
  6
Continuous
 62
     7
370
    25
100
AcDbLine
 10
148.7829285514
 20
145.2680885446
 30
0.0
 11
149.5829285514
 21
145.2680885446
 31
0.0
  0
LINE
  5
246
330
1F
100
AcDbEntity
  8
0
  6
Continuous
 62
     7
370
    25
100
AcDbLine
 10
157.2829285514
 20
145.2680885446
 30
0.0
 11
158.0829285514
 21
145.2680885446
 31
0.0
  0
LINE
  5
247
330
1F
100
AcDbEntity
  8
0
  6
Continuous
 62
     7
370
    25
100
AcDbLine
 10
143.7829285514
 20
147.1180885446
 30
0.0
 11
143.7829285514
 21
147.0680885446
 31
0.0
  0
LINE
  5
248
330
1F
100
AcDbEntity
  8
0
  6
Continuous
 62
     7
370
    25
100
AcDbLine
 10
143.2829285514
 20
147.1180885446
 30
0.0
 11
143.7829285514
 21
147.1180885446
 31
0.0
  0
LINE
  5
249
330
1F
100
AcDbEntity
  8
0
  6
Continuous
 62
     7
370
    25
100
AcDbLine
 10
143.2829285514
 20
147.1180885446
 30
0.0
 11
143.2829285514
 21
147.0680885446
 31
0.0
  0
LINE
  5
24A
330
1F
100
AcDbEntity
  8
0
  6
Continuous
 62
     7
370
    25
100
AcDbLine
 10
143.2829285514
 20
147.4680885446
 30
0.0
 11
143.7829285514
 21
147.4680885446
 31
0.0
  0
LINE
  5
24B
330
1F
100
AcDbEntity
  8
0
  6
Continuous
 62
     7
370
    25
100
AcDbLine
 10
143.7829285514
 20
147.4680885446
 30
0.0
 11
143.7829285514
 21
147.1180885446
 31
0.0
  0
LINE
  5
24C
330
1F
100
AcDbEntity
  8
0
  6
Continuous
 62
     7
370
    25
100
AcDbLine
 10
143.2829285514
 20
147.4680885446
 30
0.0
 11
143.2829285514
 21
147.1180885446
 31
0.0
  0
LINE
  5
24D
330
1F
100
AcDbEntity
  8
0
  6
Continuous
 62
     7
370
    25
100
AcDbLine
 10
125.7829285514
 20
147.1180885446
 30
0.0
 11
125.7829285514
 21
147.0680885446
 31
0.0
  0
LINE
  5
24E
330
1F
100
AcDbEntity
  8
0
  6
Continuous
 62
     7
370
    25
100
AcDbLine
 10
126.2829285514
 20
147.1180885446
 30
0.0
 11
126.2829285514
 21
147.0680885446
 31
0.0
  0
LINE
  5
24F
330
1F
100
AcDbEntity
  8
0
  6
Continuous
 62
     7
370
    25
100
AcDbLine
 10
125.7829285514
 20
147.1180885446
 30
0.0
 11
126.2829285514
 21
147.1180885446
 31
0.0
  0
LINE
  5
250
330
1F
100
AcDbEntity
  8
0
  6
Continuous
 62
     7
370
    25
100
AcDbLine
 10
125.7829285514
 20
147.4680885446
 30
0.0
 11
126.2829285514
 21
147.4680885446
 31
0.0
  0
LINE
  5
251
330
1F
100
AcDbEntity
  8
0
  6
Continuous
 62
     7
370
    25
100
AcDbLine
 10
125.7829285514
 20
147.4680885446
 30
0.0
 11
125.7829285514
 21
147.1180885446
 31
0.0
  0
LINE
  5
252
330
1F
100
AcDbEntity
  8
0
  6
Continuous
 62
     7
370
    25
100
AcDbLine
 10
126.2829285514
 20
147.4680885446
 30
0.0
 11
126.2829285514
 21
147.1180885446
 31
0.0
  0
LINE
  5
253
330
1F
100
AcDbEntity
  8
0
  6
Continuous
 62
     7
370
    25
100
AcDbLine
 10
130.7829285514
 20
147.1180885446
 30
0.0
 11
130.7829285514
 21
147.0680885446
 31
0.0
  0
LINE
  5
254
330
1F
100
AcDbEntity
  8
0
  6
Continuous
 62
     7
370
    25
100
AcDbLine
 10
131.2829285514
 20
147.1180885446
 30
0.0
 11
131.2829285514
 21
147.0680885446
 31
0.0
  0
LINE
  5
255
330
1F
100
AcDbEntity
  8
0
  6
Continuous
 62
     7
370
    25
100
AcDbLine
 10
130.7829285514
 20
147.1180885446
 30
0.0
 11
131.2829285514
 21
147.1180885446
 31
0.0
  0
LINE
  5
256
330
1F
100
AcDbEntity
  8
0
  6
Continuous
 62
     7
370
    25
100
AcDbLine
 10
130.7829285514
 20
147.4680885446
 30
0.0
 11
131.2829285514
 21
147.4680885446
 31
0.0
  0
LINE
  5
257
330
1F
100
AcDbEntity
  8
0
  6
Continuous
 62
     7
370
    25
100
AcDbLine
 10
130.7829285514
 20
147.4680885446
 30
0.0
 11
130.7829285514
 21
147.1180885446
 31
0.0
  0
LINE
  5
258
330
1F
100
AcDbEntity
  8
0
  6
Continuous
 62
     7
370
    25
100
AcDbLine
 10
131.2829285514
 20
147.4680885446
 30
0.0
 11
131.2829285514
 21
147.1180885446
 31
0.0
  0
LINE
  5
259
330
1F
100
AcDbEntity
  8
0
  6
Continuous
 62
     7
370
    25
100
AcDbLine
 10
128.7829285514
 20
147.1180885446
 30
0.0
 11
128.7829285514
 21
147.0680885446
 31
0.0
  0
LINE
  5
25A
330
1F
100
AcDbEntity
  8
0
  6
Continuous
 62
     7
370
    25
100
AcDbLine
 10
128.2829285514
 20
147.1180885446
 30
0.0
 11
128.2829285514
 21
147.0680885446
 31
0.0
  0
LINE
  5
25B
330
1F
100
AcDbEntity
  8
0
  6
Continuous
 62
     7
370
    25
100
AcDbLine
 10
128.2829285514
 20
147.1180885446
 30
0.0
 11
128.7829285514
 21
147.1180885446
 31
0.0
  0
LINE
  5
25C
330
1F
100
AcDbEntity
  8
0
  6
Continuous
 62
     7
370
    25
100
AcDbLine
 10
128.2829285514
 20
147.4680885446
 30
0.0
 11
128.7829285514
 21
147.4680885446
 31
0.0
  0
LINE
  5
25D
330
1F
100
AcDbEntity
  8
0
  6
Continuous
 62
     7
370
    25
100
AcDbLine
 10
128.7829285514
 20
147.4680885446
 30
0.0
 11
128.7829285514
 21
147.1180885446
 31
0.0
  0
LINE
  5
25E
330
1F
100
AcDbEntity
  8
0
  6
Continuous
 62
     7
370
    25
100
AcDbLine
 10
128.2829285514
 20
147.4680885446
 30
0.0
 11
128.2829285514
 21
147.1180885446
 31
0.0
  0
LINE
  5
25F
330
1F
100
AcDbEntity
  8
0
  6
Continuous
 62
     7
370
    25
100
AcDbLine
 10
141.2829285514
 20
147.1180885446
 30
0.0
 11
141.2829285514
 21
147.0680885446
 31
0.0
  0
LINE
  5
260
330
1F
100
AcDbEntity
  8
0
  6
Continuous
 62
     7
370
    25
100
AcDbLine
 10
140.7829285514
 20
147.1180885446
 30
0.0
 11
141.2829285514
 21
147.1180885446
 31
0.0
  0
LINE
  5
261
330
1F
100
AcDbEntity
  8
0
  6
Continuous
 62
     7
370
    25
100
AcDbLine
 10
140.7829285514
 20
147.1180885446
 30
0.0
 11
140.7829285514
 21
147.0680885446
 31
0.0
  0
LINE
  5
262
330
1F
100
AcDbEntity
  8
0
  6
Continuous
 62
     7
370
    25
100
AcDbLine
 10
140.7829285514
 20
147.4680885446
 30
0.0
 11
141.2829285514
 21
147.4680885446
 31
0.0
  0
LINE
  5
263
330
1F
100
AcDbEntity
  8
0
  6
Continuous
 62
     7
370
    25
100
AcDbLine
 10
141.2829285514
 20
147.4680885446
 30
0.0
 11
141.2829285514
 21
147.1180885446
 31
0.0
  0
LINE
  5
264
330
1F
100
AcDbEntity
  8
0
  6
Continuous
 62
     7
370
    25
100
AcDbLine
 10
140.7829285514
 20
147.4680885446
 30
0.0
 11
140.7829285514
 21
147.1180885446
 31
0.0
  0
LINE
  5
265
330
1F
100
AcDbEntity
  8
0
  6
Continuous
 62
     7
370
    25
100
AcDbLine
 10
136.2829285514
 20
147.1180885446
 30
0.0
 11
136.2829285514
 21
147.0680885446
 31
0.0
  0
LINE
  5
266
330
1F
100
AcDbEntity
  8
0
  6
Continuous
 62
     7
370
    25
100
AcDbLine
 10
135.7829285514
 20
147.1180885446
 30
0.0
 11
136.2829285514
 21
147.1180885446
 31
0.0
  0
LINE
  5
267
330
1F
100
AcDbEntity
  8
0
  6
Continuous
 62
     7
370
    25
100
AcDbLine
 10
135.7829285514
 20
147.1180885446
 30
0.0
 11
135.7829285514
 21
147.0680885446
 31
0.0
  0
LINE
  5
268
330
1F
100
AcDbEntity
  8
0
  6
Continuous
 62
     7
370
    25
100
AcDbLine
 10
135.7829285514
 20
147.4680885446
 30
0.0
 11
136.2829285514
 21
147.4680885446
 31
0.0
  0
LINE
  5
269
330
1F
100
AcDbEntity
  8
0
  6
Continuous
 62
     7
370
    25
100
AcDbLine
 10
136.2829285514
 20
147.4680885446
 30
0.0
 11
136.2829285514
 21
147.1180885446
 31
0.0
  0
LINE
  5
26A
330
1F
100
AcDbEntity
  8
0
  6
Continuous
 62
     7
370
    25
100
AcDbLine
 10
135.7829285514
 20
147.4680885446
 30
0.0
 11
135.7829285514
 21
147.1180885446
 31
0.0
  0
LINE
  5
26B
330
1F
100
AcDbEntity
  8
0
  6
Continuous
 62
     7
370
    25
100
AcDbLine
 10
138.2829285514
 20
147.1180885446
 30
0.0
 11
138.2829285514
 21
147.0680885446
 31
0.0
  0
LINE
  5
26C
330
1F
100
AcDbEntity
  8
0
  6
Continuous
 62
     7
370
    25
100
AcDbLine
 10
138.2829285514
 20
147.1180885446
 30
0.0
 11
138.7829285514
 21
147.1180885446
 31
0.0
  0
LINE
  5
26D
330
1F
100
AcDbEntity
  8
0
  6
Continuous
 62
     7
370
    25
100
AcDbLine
 10
138.7829285514
 20
147.1180885446
 30
0.0
 11
138.7829285514
 21
147.0680885446
 31
0.0
  0
LINE
  5
26E
330
1F
100
AcDbEntity
  8
0
  6
Continuous
 62
     7
370
    25
100
AcDbLine
 10
138.2829285514
 20
147.4680885446
 30
0.0
 11
138.7829285514
 21
147.4680885446
 31
0.0
  0
LINE
  5
26F
330
1F
100
AcDbEntity
  8
0
  6
Continuous
 62
     7
370
    25
100
AcDbLine
 10
138.2829285514
 20
147.4680885446
 30
0.0
 11
138.2829285514
 21
147.1180885446
 31
0.0
  0
LINE
  5
270
330
1F
100
AcDbEntity
  8
0
  6
Continuous
 62
     7
370
    25
100
AcDbLine
 10
138.7829285514
 20
147.4680885446
 30
0.0
 11
138.7829285514
 21
147.1180885446
 31
0.0
  0
LINE
  5
271
330
1F
100
AcDbEntity
  8
0
  6
Continuous
 62
     7
370
    25
100
AcDbLine
 10
133.2829285514
 20
147.1180885446
 30
0.0
 11
133.2829285514
 21
147.0680885446
 31
0.0
  0
LINE
  5
272
330
1F
100
AcDbEntity
  8
0
  6
Continuous
 62
     7
370
    25
100
AcDbLine
 10
133.7829285514
 20
147.1180885446
 30
0.0
 11
133.7829285514
 21
147.0680885446
 31
0.0
  0
LINE
  5
273
330
1F
100
AcDbEntity
  8
0
  6
Continuous
 62
     7
370
    25
100
AcDbLine
 10
133.2829285514
 20
147.1180885446
 30
0.0
 11
133.7829285514
 21
147.1180885446
 31
0.0
  0
LINE
  5
274
330
1F
100
AcDbEntity
  8
0
  6
Continuous
 62
     7
370
    25
100
AcDbLine
 10
133.2829285514
 20
147.4680885446
 30
0.0
 11
133.7829285514
 21
147.4680885446
 31
0.0
  0
LINE
  5
275
330
1F
100
AcDbEntity
  8
0
  6
Continuous
 62
     7
370
    25
100
AcDbLine
 10
133.2829285514
 20
147.4680885446
 30
0.0
 11
133.2829285514
 21
147.1180885446
 31
0.0
  0
LINE
  5
276
330
1F
100
AcDbEntity
  8
0
  6
Continuous
 62
     7
370
    25
100
AcDbLine
 10
133.7829285514
 20
147.4680885446
 30
0.0
 11
133.7829285514
 21
147.1180885446
 31
0.0
  0
CIRCLE
  5
277
330
1F
100
AcDbEntity
  8
0
  6
Continuous
 62
     7
370
    25
100
AcDbCircle
 10
113.4329285514
 20
140.7680885446
 30
0.0
 40
1.900000000000006
  0
CIRCLE
  5
278
330
1F
100
AcDbEntity
  8
0
  6
Continuous
 62
     7
370
    25
100
AcDbCircle
 10
100.4329285514
 20
140.7680885446
 30
0.0
 40
1.900000000000006
  0
LINE
  5
279
330
1F
100
AcDbEntity
  8
0
  6
Continuous
 62
     7
370
    25
100
AcDbLine
 10
68.4329285514
 20
135.2680885446
 30
0.0
 11
69.4329285514
 21
135.2680885446
 31
0.0
  0
LINE
  5
27A
330
1F
100
AcDbEntity
  8
0
  6
Continuous
 62
     7
370
    25
100
AcDbLine
 10
69.4329285514
 20
135.2680885446
 30
0.0
 11
69.4329285514
 21
137.2680885446
 31
0.0
  0
LINE
  5
27B
330
1F
100
AcDbEntity
  8
0
  6
Continuous
 62
     7
370
    25
100
AcDbLine
 10
69.4329285514
 20
137.2680885446
 30
0.0
 11
70.4329285514
 21
137.2680885446
 31
0.0
  0
LINE
  5
27C
330
1F
100
AcDbEntity
  8
0
  6
Continuous
 62
     7
370
    25
100
AcDbLine
 10
70.4329285514
 20
137.2680885446
 30
0.0
 11
70.4329285514
 21
137.7680885446
 31
0.0
  0
LINE
  5
27D
330
1F
100
AcDbEntity
  8
0
  6
Continuous
 62
     7
370
    25
100
AcDbLine
 10
70.4329285514
 20
137.7680885446
 30
0.0
 11
72.4329285514
 21
137.7680885446
 31
0.0
  0
LINE
  5
27E
330
1F
100
AcDbEntity
  8
0
  6
Continuous
 62
     7
370
    25
100
AcDbLine
 10
72.4329285514
 20
137.7680885446
 30
0.0
 11
72.4329285514
 21
144.2680885446
 31
0.0
  0
LINE
  5
27F
330
1F
100
AcDbEntity
  8
0
  6
Continuous
 62
     7
370
    25
100
AcDbLine
 10
72.4329285514
 20
144.2680885446
 30
0.0
 11
59.4329285514
 21
144.2680885446
 31
0.0
  0
LINE
  5
280
330
1F
100
AcDbEntity
  8
0
  6
Continuous
 62
     7
370
    25
100
AcDbLine
 10
59.4329285514
 20
144.2680885446
 30
0.0
 11
59.4329285514
 21
137.7680885446
 31
0.0
  0
LINE
  5
281
330
1F
100
AcDbEntity
  8
0
  6
Continuous
 62
     7
370
    25
100
AcDbLine
 10
59.4329285514
 20
137.7680885446
 30
0.0
 11
61.4329285514
 21
137.7680885446
 31
0.0
  0
LINE
  5
282
330
1F
100
AcDbEntity
  8
0
  6
Continuous
 62
     7
370
    25
100
AcDbLine
 10
61.4329285514
 20
137.7680885446
 30
0.0
 11
61.4329285514
 21
137.2680885446
 31
0.0
  0
LINE
  5
283
330
1F
100
AcDbEntity
  8
0
  6
Continuous
 62
     7
370
    25
100
AcDbLine
 10
61.4329285514
 20
137.2680885446
 30
0.0
 11
62.4329285514
 21
137.2680885446
 31
0.0
  0
LINE
  5
284
330
1F
100
AcDbEntity
  8
0
  6
Continuous
 62
     7
370
    25
100
AcDbLine
 10
62.4329285514
 20
137.2680885446
 30
0.0
 11
62.4329285514
 21
135.2680885446
 31
0.0
  0
LINE
  5
285
330
1F
100
AcDbEntity
  8
0
  6
Continuous
 62
     7
370
    25
100
AcDbLine
 10
62.4329285514
 20
135.2680885446
 30
0.0
 11
63.4329285514
 21
135.2680885446
 31
0.0
  0
LINE
  5
286
330
1F
100
AcDbEntity
  8
0
  6
Continuous
 62
     7
370
    25
100
AcDbLine
 10
63.4329285514
 20
135.2680885446
 30
0.0
 11
63.4329285514
 21
134.2680885446
 31
0.0
  0
LINE
  5
287
330
1F
100
AcDbEntity
  8
0
  6
Continuous
 62
     7
370
    25
100
AcDbLine
 10
59.4829285514
 20
134.2680885446
 30
0.0
 11
60.9829285514
 21
134.2680885446
 31
0.0
  0
LINE
  5
288
330
1F
100
AcDbEntity
  8
0
  6
Continuous
 62
     7
370
    25
100
AcDbLine
 10
58.4329285514
 20
137.0180885446
 30
0.0
 11
58.4329285514
 21
134.2680885446
 31
0.0
  0
LINE
  5
289
330
1F
100
AcDbEntity
  8
0
  6
Continuous
 62
     7
370
    25
100
AcDbLine
 10
58.4329285514
 20
137.0180885446
 30
0.0
 11
58.4329285514
 21
138.5180885446
 31
0.0
  0
LINE
  5
28A
330
1F
100
AcDbEntity
  8
0
  6
Continuous
 62
     7
370
    25
100
AcDbLine
 10
58.4329285514
 20
142.0180885446
 30
0.0
 11
58.4329285514
 21
138.5180885446
 31
0.0
  0
LINE
  5
28B
330
1F
100
AcDbEntity
  8
0
  6
Continuous
 62
     7
370
    25
100
AcDbLine
 10
58.4329285514
 20
142.0180885446
 30
0.0
 11
58.4329285514
 21
143.5180885446
 31
0.0
  0
LINE
  5
28C
330
1F
100
AcDbEntity
  8
0
  6
Continuous
 62
     7
370
    25
100
AcDbLine
 10
58.4329285514
 20
145.7680885446
 30
0.0
 11
58.4329285514
 21
143.5180885446
 31
0.0
  0
LINE
  5
28D
330
1F
100
AcDbEntity
  8
0
  6
Continuous
 62
     7
370
    25
100
AcDbLine
 10
59.4829285514
 20
145.7680885446
 30
0.0
 11
58.4329285514
 21
145.7680885446
 31
0.0
  0
LINE
  5
28E
330
1F
100
AcDbEntity
  8
0
  6
Continuous
 62
     7
370
    25
100
AcDbLine
 10
59.4829285514
 20
145.7680885446
 30
0.0
 11
60.9829285514
 21
145.7680885446
 31
0.0
  0
LINE
  5
28F
330
1F
100
AcDbEntity
  8
0
  6
Continuous
 62
     7
370
    25
100
AcDbLine
 10
70.8829285514
 20
145.7680885446
 30
0.0
 11
60.9829285514
 21
145.7680885446
 31
0.0
  0
LINE
  5
290
330
1F
100
AcDbEntity
  8
0
  6
Continuous
 62
     7
370
    25
100
AcDbLine
 10
72.3829285514
 20
145.7680885446
 30
0.0
 11
70.8829285514
 21
145.7680885446
 31
0.0
  0
LINE
  5
291
330
1F
100
AcDbEntity
  8
0
  6
Continuous
 62
     7
370
    25
100
AcDbLine
 10
73.4329285514
 20
145.7680885446
 30
0.0
 11
72.3829285514
 21
145.7680885446
 31
0.0
  0
LINE
  5
292
330
1F
100
AcDbEntity
  8
0
  6
Continuous
 62
     7
370
    25
100
AcDbLine
 10
73.4329285514
 20
142.0180885446
 30
0.0
 11
73.4329285514
 21
143.5180885446
 31
0.0
  0
LINE
  5
293
330
1F
100
AcDbEntity
  8
0
  6
Continuous
 62
     7
370
    25
100
AcDbLine
 10
73.4329285514
 20
137.0180885446
 30
0.0
 11
73.4329285514
 21
138.5180885446
 31
0.0
  0
LINE
  5
294
330
1F
100
AcDbEntity
  8
0
  6
Continuous
 62
     7
370
    25
100
AcDbLine
 10
72.3829285514
 20
134.2680885446
 30
0.0
 11
70.8829285514
 21
134.2680885446
 31
0.0
  0
LINE
  5
295
330
1F
100
AcDbEntity
  8
0
  6
Continuous
 62
     7
370
    25
100
AcDbLine
 10
68.4329285514
 20
134.2680885446
 30
0.0
 11
68.4329285514
 21
135.2680885446
 31
0.0
  0
LINE
  5
296
330
1F
100
AcDbEntity
  8
0
  6
Continuous
 62
     7
370
    25
100
AcDbLine
 10
73.4329285514
 20
138.5180885446
 30
0.0
 11
73.4329285514
 21
142.0180885446
 31
0.0
  0
LINE
  5
297
330
1F
100
AcDbEntity
  8
0
  6
Continuous
 62
     7
370
    25
100
AcDbLine
 10
73.4329285514
 20
143.5180885446
 30
0.0
 11
73.4329285514
 21
145.7680885446
 31
0.0
  0
LINE
  5
298
330
1F
100
AcDbEntity
  8
0
  6
Continuous
 62
     7
370
    25
100
AcDbLine
 10
73.4329285514
 20
134.2680885446
 30
0.0
 11
73.4329285514
 21
137.0180885446
 31
0.0
  0
LINE
  5
299
330
1F
100
AcDbEntity
  8
0
  6
Continuous
 62
     7
370
    25
100
AcDbLine
 10
72.3829285514
 20
134.2680885446
 30
0.0
 11
73.4329285514
 21
134.2680885446
 31
0.0
  0
LINE
  5
29A
330
1F
100
AcDbEntity
  8
0
  6
Continuous
 62
     7
370
    25
100
AcDbLine
 10
58.4329285514
 20
134.2680885446
 30
0.0
 11
59.4829285514
 21
134.2680885446
 31
0.0
  0
LINE
  5
29B
330
1F
100
AcDbEntity
  8
0
  6
Continuous
 62
     7
370
    25
100
AcDbLine
 10
60.9829285514
 20
134.2680885446
 30
0.0
 11
63.4329285514
 21
134.2680885446
 31
0.0
  0
LINE
  5
29C
330
1F
100
AcDbEntity
  8
0
  6
Continuous
 62
     7
370
    25
100
AcDbLine
 10
68.4329285514
 20
134.2680885446
 30
0.0
 11
70.8829285514
 21
134.2680885446
 31
0.0
  0
LINE
  5
29D
330
1F
100
AcDbEntity
  8
0
  6
Continuous
 62
     7
370
    25
100
AcDbLine
 10
74.2329285514
 20
142.0180885446
 30
0.0
 11
73.4329285514
 21
142.0180885446
 31
0.0
  0
LINE
  5
29E
330
1F
100
AcDbEntity
  8
0
  6
Continuous
 62
     7
370
    25
100
AcDbLine
 10
74.2329285514
 20
143.5180885446
 30
0.0
 11
73.4329285514
 21
143.5180885446
 31
0.0
  0
LINE
  5
29F
330
1F
100
AcDbEntity
  8
0
  6
Continuous
 62
     7
370
    25
100
AcDbLine
 10
59.4829285514
 20
133.4680885446
 30
0.0
 11
59.4829285514
 21
134.2680885446
 31
0.0
  0
LINE
  5
2A0
330
1F
100
AcDbEntity
  8
0
  6
Continuous
 62
     7
370
    25
100
AcDbLine
 10
60.9829285514
 20
133.4680885446
 30
0.0
 11
60.9829285514
 21
134.2680885446
 31
0.0
  0
LINE
  5
2A1
330
1F
100
AcDbEntity
  8
0
  6
Continuous
 62
     7
370
    25
100
AcDbLine
 10
59.4829285514
 20
145.7680885446
 30
0.0
 11
59.4829285514
 21
146.3680885446
 31
0.0
  0
LINE
  5
2A2
330
1F
100
AcDbEntity
  8
0
  6
Continuous
 62
     7
370
    25
100
AcDbLine
 10
59.4829285514
 20
146.3680885446
 30
0.0
 11
60.9829285514
 21
146.3680885446
 31
0.0
  0
LINE
  5
2A3
330
1F
100
AcDbEntity
  8
0
  6
Continuous
 62
     7
370
    25
100
AcDbLine
 10
60.9829285514
 20
145.7680885446
 30
0.0
 11
60.9829285514
 21
146.3680885446
 31
0.0
  0
LINE
  5
2A4
330
1F
100
AcDbEntity
  8
0
  6
Continuous
 62
     7
370
    25
100
AcDbLine
 10
58.4329285514
 20
142.0180885446
 30
0.0
 11
57.6329285514
 21
142.0180885446
 31
0.0
  0
LINE
  5
2A5
330
1F
100
AcDbEntity
  8
0
  6
Continuous
 62
     7
370
    25
100
AcDbLine
 10
58.4329285514
 20
143.5180885446
 30
0.0
 11
57.6329285514
 21
143.5180885446
 31
0.0
  0
LINE
  5
2A6
330
1F
100
AcDbEntity
  8
0
  6
Continuous
 62
     7
370
    25
100
AcDbLine
 10
70.8829285514
 20
133.4680885446
 30
0.0
 11
70.8829285514
 21
134.2680885446
 31
0.0
  0
LINE
  5
2A7
330
1F
100
AcDbEntity
  8
0
  6
Continuous
 62
     7
370
    25
100
AcDbLine
 10
72.3829285514
 20
133.4680885446
 30
0.0
 11
72.3829285514
 21
134.2680885446
 31
0.0
  0
LINE
  5
2A8
330
1F
100
AcDbEntity
  8
0
  6
Continuous
 62
     7
370
    25
100
AcDbLine
 10
74.2329285514
 20
138.5180885446
 30
0.0
 11
73.4329285514
 21
138.5180885446
 31
0.0
  0
LINE
  5
2A9
330
1F
100
AcDbEntity
  8
0
  6
Continuous
 62
     7
370
    25
100
AcDbLine
 10
74.2329285514
 20
137.0180885446
 30
0.0
 11
73.4329285514
 21
137.0180885446
 31
0.0
  0
LINE
  5
2AA
330
1F
100
AcDbEntity
  8
0
  6
Continuous
 62
     7
370
    25
100
AcDbLine
 10
72.3829285514
 20
146.3680885446
 30
0.0
 11
70.8829285514
 21
146.3680885446
 31
0.0
  0
LINE
  5
2AB
330
1F
100
AcDbEntity
  8
0
  6
Continuous
 62
     7
370
    25
100
AcDbLine
 10
72.3829285514
 20
145.7680885446
 30
0.0
 11
72.3829285514
 21
146.3680885446
 31
0.0
  0
LINE
  5
2AC
330
1F
100
AcDbEntity
  8
0
  6
Continuous
 62
     7
370
    25
100
AcDbLine
 10
70.8829285514
 20
145.7680885446
 30
0.0
 11
70.8829285514
 21
146.3680885446
 31
0.0
  0
LINE
  5
2AD
330
1F
100
AcDbEntity
  8
0
  6
Continuous
 62
     7
370
    25
100
AcDbLine
 10
58.4329285514
 20
137.0180885446
 30
0.0
 11
57.6329285514
 21
137.0180885446
 31
0.0
  0
LINE
  5
2AE
330
1F
100
AcDbEntity
  8
0
  6
Continuous
 62
     7
370
    25
100
AcDbLine
 10
58.4329285514
 20
138.5180885446
 30
0.0
 11
57.6329285514
 21
138.5180885446
 31
0.0
  0
LINE
  5
2AF
330
1F
100
AcDbEntity
  8
0
  6
Continuous
 62
     7
370
    25
100
AcDbLine
 10
68.4329285514
 20
134.7680885446
 30
0.0
 11
63.4329285514
 21
134.7680885446
 31
0.0
  0
LINE
  5
2B0
330
1F
100
AcDbEntity
  8
0
  6
Continuous
 62
     7
370
    25
100
AcDbLine
 10
63.4329285514
 20
134.2680885446
 30
0.0
 11
68.4329285514
 21
134.2680885446
 31
0.0
  0
LINE
  5
2B1
330
1F
100
AcDbEntity
  8
0
  6
Continuous
 62
     7
370
    25
100
AcDbLine
 10
50.4329285514
 20
135.2680885446
 30
0.0
 11
51.4329285514
 21
135.2680885446
 31
0.0
  0
LINE
  5
2B2
330
1F
100
AcDbEntity
  8
0
  6
Continuous
 62
     7
370
    25
100
AcDbLine
 10
51.4329285514
 20
135.2680885446
 30
0.0
 11
51.4329285514
 21
137.2680885446
 31
0.0
  0
LINE
  5
2B3
330
1F
100
AcDbEntity
  8
0
  6
Continuous
 62
     7
370
    25
100
AcDbLine
 10
51.4329285514
 20
137.2680885446
 30
0.0
 11
52.4329285514
 21
137.2680885446
 31
0.0
  0
LINE
  5
2B4
330
1F
100
AcDbEntity
  8
0
  6
Continuous
 62
     7
370
    25
100
AcDbLine
 10
52.4329285514
 20
137.2680885446
 30
0.0
 11
52.4329285514
 21
137.7680885446
 31
0.0
  0
LINE
  5
2B5
330
1F
100
AcDbEntity
  8
0
  6
Continuous
 62
     7
370
    25
100
AcDbLine
 10
52.4329285514
 20
137.7680885446
 30
0.0
 11
54.4329285514
 21
137.7680885446
 31
0.0
  0
LINE
  5
2B6
330
1F
100
AcDbEntity
  8
0
  6
Continuous
 62
     7
370
    25
100
AcDbLine
 10
54.4329285514
 20
137.7680885446
 30
0.0
 11
54.4329285514
 21
144.2680885446
 31
0.0
  0
LINE
  5
2B7
330
1F
100
AcDbEntity
  8
0
  6
Continuous
 62
     7
370
    25
100
AcDbLine
 10
54.4329285514
 20
144.2680885446
 30
0.0
 11
41.4329285514
 21
144.2680885446
 31
0.0
  0
LINE
  5
2B8
330
1F
100
AcDbEntity
  8
0
  6
Continuous
 62
     7
370
    25
100
AcDbLine
 10
41.4329285514
 20
144.2680885446
 30
0.0
 11
41.4329285514
 21
137.7680885446
 31
0.0
  0
LINE
  5
2B9
330
1F
100
AcDbEntity
  8
0
  6
Continuous
 62
     7
370
    25
100
AcDbLine
 10
41.4329285514
 20
137.7680885446
 30
0.0
 11
43.4329285514
 21
137.7680885446
 31
0.0
  0
LINE
  5
2BA
330
1F
100
AcDbEntity
  8
0
  6
Continuous
 62
     7
370
    25
100
AcDbLine
 10
43.4329285514
 20
137.7680885446
 30
0.0
 11
43.4329285514
 21
137.2680885446
 31
0.0
  0
LINE
  5
2BB
330
1F
100
AcDbEntity
  8
0
  6
Continuous
 62
     7
370
    25
100
AcDbLine
 10
43.4329285514
 20
137.2680885446
 30
0.0
 11
44.4329285514
 21
137.2680885446
 31
0.0
  0
LINE
  5
2BC
330
1F
100
AcDbEntity
  8
0
  6
Continuous
 62
     7
370
    25
100
AcDbLine
 10
44.4329285514
 20
137.2680885446
 30
0.0
 11
44.4329285514
 21
135.2680885446
 31
0.0
  0
LINE
  5
2BD
330
1F
100
AcDbEntity
  8
0
  6
Continuous
 62
     7
370
    25
100
AcDbLine
 10
44.4329285514
 20
135.2680885446
 30
0.0
 11
45.4329285514
 21
135.2680885446
 31
0.0
  0
LINE
  5
2BE
330
1F
100
AcDbEntity
  8
0
  6
Continuous
 62
     7
370
    25
100
AcDbLine
 10
45.4329285514
 20
135.2680885446
 30
0.0
 11
45.4329285514
 21
134.2680885446
 31
0.0
  0
LINE
  5
2BF
330
1F
100
AcDbEntity
  8
0
  6
Continuous
 62
     7
370
    25
100
AcDbLine
 10
42.9829285514
 20
134.2680885446
 30
0.0
 11
45.4329285514
 21
134.2680885446
 31
0.0
  0
LINE
  5
2C0
330
1F
100
AcDbEntity
  8
0
  6
Continuous
 62
     7
370
    25
100
AcDbLine
 10
41.4829285514
 20
134.2680885446
 30
0.0
 11
42.9829285514
 21
134.2680885446
 31
0.0
  0
LINE
  5
2C1
330
1F
100
AcDbEntity
  8
0
  6
Continuous
 62
     7
370
    25
100
AcDbLine
 10
40.4329285514
 20
134.2680885446
 30
0.0
 11
41.4829285514
 21
134.2680885446
 31
0.0
  0
LINE
  5
2C2
330
1F
100
AcDbEntity
  8
0
  6
Continuous
 62
     7
370
    25
100
AcDbLine
 10
40.4329285514
 20
137.0180885446
 30
0.0
 11
40.4329285514
 21
134.2680885446
 31
0.0
  0
LINE
  5
2C3
330
1F
100
AcDbEntity
  8
0
  6
Continuous
 62
     7
370
    25
100
AcDbLine
 10
40.4329285514
 20
137.0180885446
 30
0.0
 11
40.4329285514
 21
138.5180885446
 31
0.0
  0
LINE
  5
2C4
330
1F
100
AcDbEntity
  8
0
  6
Continuous
 62
     7
370
    25
100
AcDbLine
 10
40.4329285514
 20
142.0180885446
 30
0.0
 11
40.4329285514
 21
138.5180885446
 31
0.0
  0
LINE
  5
2C5
330
1F
100
AcDbEntity
  8
0
  6
Continuous
 62
     7
370
    25
100
AcDbLine
 10
40.4329285514
 20
142.0180885446
 30
0.0
 11
40.4329285514
 21
143.5180885446
 31
0.0
  0
LINE
  5
2C6
330
1F
100
AcDbEntity
  8
0
  6
Continuous
 62
     7
370
    25
100
AcDbLine
 10
40.4329285514
 20
145.7680885446
 30
0.0
 11
40.4329285514
 21
143.5180885446
 31
0.0
  0
LINE
  5
2C7
330
1F
100
AcDbEntity
  8
0
  6
Continuous
 62
     7
370
    25
100
AcDbLine
 10
41.4829285514
 20
145.7680885446
 30
0.0
 11
40.4329285514
 21
145.7680885446
 31
0.0
  0
LINE
  5
2C8
330
1F
100
AcDbEntity
  8
0
  6
Continuous
 62
     7
370
    25
100
AcDbLine
 10
41.4829285514
 20
145.7680885446
 30
0.0
 11
42.9829285514
 21
145.7680885446
 31
0.0
  0
LINE
  5
2C9
330
1F
100
AcDbEntity
  8
0
  6
Continuous
 62
     7
370
    25
100
AcDbLine
 10
52.8829285514
 20
145.7680885446
 30
0.0
 11
42.9829285514
 21
145.7680885446
 31
0.0
  0
LINE
  5
2CA
330
1F
100
AcDbEntity
  8
0
  6
Continuous
 62
     7
370
    25
100
AcDbLine
 10
54.3829285514
 20
145.7680885446
 30
0.0
 11
52.8829285514
 21
145.7680885446
 31
0.0
  0
LINE
  5
2CB
330
1F
100
AcDbEntity
  8
0
  6
Continuous
 62
     7
370
    25
100
AcDbLine
 10
55.4329285514
 20
145.7680885446
 30
0.0
 11
54.3829285514
 21
145.7680885446
 31
0.0
  0
LINE
  5
2CC
330
1F
100
AcDbEntity
  8
0
  6
Continuous
 62
     7
370
    25
100
AcDbLine
 10
55.4329285514
 20
142.0180885446
 30
0.0
 11
55.4329285514
 21
143.5180885446
 31
0.0
  0
LINE
  5
2CD
330
1F
100
AcDbEntity
  8
0
  6
Continuous
 62
     7
370
    25
100
AcDbLine
 10
55.4329285514
 20
137.0180885446
 30
0.0
 11
55.4329285514
 21
138.5180885446
 31
0.0
  0
LINE
  5
2CE
330
1F
100
AcDbEntity
  8
0
  6
Continuous
 62
     7
370
    25
100
AcDbLine
 10
54.3829285514
 20
134.2680885446
 30
0.0
 11
55.4329285514
 21
134.2680885446
 31
0.0
  0
LINE
  5
2CF
330
1F
100
AcDbEntity
  8
0
  6
Continuous
 62
     7
370
    25
100
AcDbLine
 10
54.3829285514
 20
134.2680885446
 30
0.0
 11
52.8829285514
 21
134.2680885446
 31
0.0
  0
LINE
  5
2D0
330
1F
100
AcDbEntity
  8
0
  6
Continuous
 62
     7
370
    25
100
AcDbLine
 10
50.4329285514
 20
134.2680885446
 30
0.0
 11
52.8829285514
 21
134.2680885446
 31
0.0
  0
LINE
  5
2D1
330
1F
100
AcDbEntity
  8
0
  6
Continuous
 62
     7
370
    25
100
AcDbLine
 10
50.4329285514
 20
134.2680885446
 30
0.0
 11
50.4329285514
 21
135.2680885446
 31
0.0
  0
LINE
  5
2D2
330
1F
100
AcDbEntity
  8
0
  6
Continuous
 62
     7
370
    25
100
AcDbLine
 10
55.4329285514
 20
138.5180885446
 30
0.0
 11
55.4329285514
 21
142.0180885446
 31
0.0
  0
LINE
  5
2D3
330
1F
100
AcDbEntity
  8
0
  6
Continuous
 62
     7
370
    25
100
AcDbLine
 10
55.4329285514
 20
143.5180885446
 30
0.0
 11
55.4329285514
 21
145.7680885446
 31
0.0
  0
LINE
  5
2D4
330
1F
100
AcDbEntity
  8
0
  6
Continuous
 62
     7
370
    25
100
AcDbLine
 10
55.4329285514
 20
134.2680885446
 30
0.0
 11
55.4329285514
 21
137.0180885446
 31
0.0
  0
LINE
  5
2D5
330
1F
100
AcDbEntity
  8
0
  6
Continuous
 62
     7
370
    25
100
AcDbLine
 10
56.2329285514
 20
143.5180885446
 30
0.0
 11
55.4329285514
 21
143.5180885446
 31
0.0
  0
LINE
  5
2D6
330
1F
100
AcDbEntity
  8
0
  6
Continuous
 62
     7
370
    25
100
AcDbLine
 10
56.2329285514
 20
142.0180885446
 30
0.0
 11
55.4329285514
 21
142.0180885446
 31
0.0
  0
LINE
  5
2D7
330
1F
100
AcDbEntity
  8
0
  6
Continuous
 62
     7
370
    25
100
AcDbLine
 10
41.4829285514
 20
133.4680885446
 30
0.0
 11
41.4829285514
 21
134.2680885446
 31
0.0
  0
LINE
  5
2D8
330
1F
100
AcDbEntity
  8
0
  6
Continuous
 62
     7
370
    25
100
AcDbLine
 10
42.9829285514
 20
133.4680885446
 30
0.0
 11
42.9829285514
 21
134.2680885446
 31
0.0
  0
LINE
  5
2D9
330
1F
100
AcDbEntity
  8
0
  6
Continuous
 62
     7
370
    25
100
AcDbLine
 10
40.4329285514
 20
142.0180885446
 30
0.0
 11
39.6329285514
 21
142.0180885446
 31
0.0
  0
LINE
  5
2DA
330
1F
100
AcDbEntity
  8
0
  6
Continuous
 62
     7
370
    25
100
AcDbLine
 10
40.4329285514
 20
143.5180885446
 30
0.0
 11
39.6329285514
 21
143.5180885446
 31
0.0
  0
LINE
  5
2DB
330
1F
100
AcDbEntity
  8
0
  6
Continuous
 62
     7
370
    25
100
AcDbLine
 10
41.4829285514
 20
145.7680885446
 30
0.0
 11
41.4829285514
 21
146.3680885446
 31
0.0
  0
LINE
  5
2DC
330
1F
100
AcDbEntity
  8
0
  6
Continuous
 62
     7
370
    25
100
AcDbLine
 10
41.4829285514
 20
146.3680885446
 30
0.0
 11
42.9829285514
 21
146.3680885446
 31
0.0
  0
LINE
  5
2DD
330
1F
100
AcDbEntity
  8
0
  6
Continuous
 62
     7
370
    25
100
AcDbLine
 10
42.9829285514
 20
145.7680885446
 30
0.0
 11
42.9829285514
 21
146.3680885446
 31
0.0
  0
LINE
  5
2DE
330
1F
100
AcDbEntity
  8
0
  6
Continuous
 62
     7
370
    25
100
AcDbLine
 10
52.8829285514
 20
133.4680885446
 30
0.0
 11
52.8829285514
 21
134.2680885446
 31
0.0
  0
LINE
  5
2DF
330
1F
100
AcDbEntity
  8
0
  6
Continuous
 62
     7
370
    25
100
AcDbLine
 10
54.3829285514
 20
133.4680885446
 30
0.0
 11
54.3829285514
 21
134.2680885446
 31
0.0
  0
LINE
  5
2E0
330
1F
100
AcDbEntity
  8
0
  6
Continuous
 62
     7
370
    25
100
AcDbLine
 10
56.2329285514
 20
137.0180885446
 30
0.0
 11
55.4329285514
 21
137.0180885446
 31
0.0
  0
LINE
  5
2E1
330
1F
100
AcDbEntity
  8
0
  6
Continuous
 62
     7
370
    25
100
AcDbLine
 10
56.2329285514
 20
138.5180885446
 30
0.0
 11
55.4329285514
 21
138.5180885446
 31
0.0
  0
LINE
  5
2E2
330
1F
100
AcDbEntity
  8
0
  6
Continuous
 62
     7
370
    25
100
AcDbLine
 10
54.3829285514
 20
146.3680885446
 30
0.0
 11
52.8829285514
 21
146.3680885446
 31
0.0
  0
LINE
  5
2E3
330
1F
100
AcDbEntity
  8
0
  6
Continuous
 62
     7
370
    25
100
AcDbLine
 10
52.8829285514
 20
145.7680885446
 30
0.0
 11
52.8829285514
 21
146.3680885446
 31
0.0
  0
LINE
  5
2E4
330
1F
100
AcDbEntity
  8
0
  6
Continuous
 62
     7
370
    25
100
AcDbLine
 10
54.3829285514
 20
145.7680885446
 30
0.0
 11
54.3829285514
 21
146.3680885446
 31
0.0
  0
LINE
  5
2E5
330
1F
100
AcDbEntity
  8
0
  6
Continuous
 62
     7
370
    25
100
AcDbLine
 10
40.4329285514
 20
137.0180885446
 30
0.0
 11
39.6329285514
 21
137.0180885446
 31
0.0
  0
LINE
  5
2E6
330
1F
100
AcDbEntity
  8
0
  6
Continuous
 62
     7
370
    25
100
AcDbLine
 10
40.4329285514
 20
138.5180885446
 30
0.0
 11
39.6329285514
 21
138.5180885446
 31
0.0
  0
LINE
  5
2E7
330
1F
100
AcDbEntity
  8
0
  6
Continuous
 62
     7
370
    25
100
AcDbLine
 10
50.4329285514
 20
134.7680885446
 30
0.0
 11
45.4329285514
 21
134.7680885446
 31
0.0
  0
LINE
  5
2E8
330
1F
100
AcDbEntity
  8
0
  6
Continuous
 62
     7
370
    25
100
AcDbLine
 10
45.4329285514
 20
134.2680885446
 30
0.0
 11
50.4329285514
 21
134.2680885446
 31
0.0
  0
LINE
  5
2E9
330
1F
100
AcDbEntity
  8
0
  6
Continuous
 62
     7
370
    25
100
AcDbLine
 10
74.2127244486
 20
145.7680885446
 30
0.0
 11
73.4329285514
 21
145.7680885446
 31
0.0
  0
LINE
  5
2EA
330
1F
100
AcDbEntity
  8
0
  6
Continuous
 62
     7
370
    25
100
AcDbLine
 10
58.4329285514
 20
145.7680885446
 30
0.0
 11
57.6531326543
 21
145.7680885446
 31
0.0
  0
LINE
  5
2EB
330
1F
100
AcDbEntity
  8
0
  6
Continuous
 62
     7
370
    25
100
AcDbLine
 10
56.2127244486
 20
145.7680885446
 30
0.0
 11
55.4329285514
 21
145.7680885446
 31
0.0
  0
LINE
  5
2EC
330
1F
100
AcDbEntity
  8
0
  6
Continuous
 62
     7
370
    25
100
AcDbLine
 10
40.4329285514
 20
145.7680885446
 30
0.0
 11
39.6531326543
 21
145.7680885446
 31
0.0
  0
LINE
  5
2ED
330
1F
100
AcDbEntity
  8
0
  6
Continuous
 62
     7
370
    25
100
AcDbLine
 10
158.0627244486
 20
145.7680885446
 30
0.0
 11
156.9829285514
 21
145.7680885446
 31
0.0
  0
LINE
  5
2EE
330
1F
100
AcDbEntity
  8
0
  6
Continuous
 62
     7
370
    25
100
AcDbLine
 10
149.8829285514
 20
145.7680885446
 30
0.0
 11
148.8031326543
 21
145.7680885446
 31
0.0
  0
LINE
  5
2EF
330
1F
100
AcDbEntity
  8
0
  6
Continuous
 62
     7
370
    25
100
AcDbLine
 10
133.9829285514
 20
124.1298439058
 30
0.0
 11
133.9829285514
 21
122.8647699039
 31
0.0
  0
LINE
  5
2F0
330
1F
100
AcDbEntity
  8
0
  6
Continuous
 62
     7
370
    25
100
AcDbLine
 10
133.9829285514
 20
122.8647699039
 30
0.0
 11
138.0829285514
 21
122.8647699039
 31
0.0
  0
LINE
  5
2F1
330
1F
100
AcDbEntity
  8
0
  6
Continuous
 62
     7
370
    25
100
AcDbLine
 10
138.0829285514
 20
122.8647699039
 30
0.0
 11
138.0829285514
 21
124.1298439058
 31
0.0
  0
LINE
  5
2F2
330
1F
100
AcDbEntity
  8
0
  6
Continuous
 62
     7
370
    25
100
AcDbLine
 10
151.4329285514
 20
124.1298439058
 30
0.0
 11
138.0829285514
 21
124.1298439058
 31
0.0
  0
LINE
  5
2F3
330
1F
100
AcDbEntity
  8
0
  6
Continuous
 62
     7
370
    25
100
AcDbLine
 10
151.4329285514
 20
122.3074383817
 30
0.0
 11
151.4329285514
 21
124.1298439058
 31
0.0
  0
LINE
  5
2F4
330
1F
100
AcDbEntity
  8
0
  6
Continuous
 62
     7
370
    25
100
AcDbLine
 10
151.4329285514
 20
122.3074383817
 30
0.0
 11
152.9329285514
 21
122.3074383817
 31
0.0
  0
LINE
  5
2F5
330
1F
100
AcDbEntity
  8
0
  6
Continuous
 62
     7
370
    25
100
AcDbLine
 10
152.9329285514
 20
106.8401314157
 30
0.0
 11
152.9329285514
 21
122.3074383817
 31
0.0
  0
LINE
  5
2F6
330
1F
100
AcDbEntity
  8
0
  6
Continuous
 62
     7
370
    25
100
AcDbLine
 10
82.9329285514
 20
106.8401314157
 30
0.0
 11
152.9329285514
 21
106.8401314157
 31
0.0
  0
LINE
  5
2F7
330
1F
100
AcDbEntity
  8
0
  6
Continuous
 62
     7
370
    25
100
AcDbLine
 10
82.9329285514
 20
122.3074383817
 30
0.0
 11
82.9329285514
 21
106.8401314157
 31
0.0
  0
LINE
  5
2F8
330
1F
100
AcDbEntity
  8
0
  6
Continuous
 62
     7
370
    25
100
AcDbLine
 10
89.8329285514
 20
122.3074383817
 30
0.0
 11
82.9329285514
 21
122.3074383817
 31
0.0
  0
LINE
  5
2F9
330
1F
100
AcDbEntity
  8
0
  6
Continuous
 62
     7
370
    25
100
AcDbLine
 10
89.8329285514
 20
124.1298439058
 30
0.0
 11
89.8329285514
 21
122.3074383817
 31
0.0
  0
LINE
  5
2FA
330
1F
100
AcDbEntity
  8
0
  6
Continuous
 62
     7
370
    25
100
AcDbLine
 10
103.1829285514
 20
124.1298439058
 30
0.0
 11
89.8329285514
 21
124.1298439058
 31
0.0
  0
LINE
  5
2FB
330
1F
100
AcDbEntity
  8
0
  6
Continuous
 62
     7
370
    25
100
AcDbLine
 10
103.1829285514
 20
124.1298439058
 30
0.0
 11
103.1829285514
 21
122.8647699039
 31
0.0
  0
LINE
  5
2FC
330
1F
100
AcDbEntity
  8
0
  6
Continuous
 62
     7
370
    25
100
AcDbLine
 10
103.1829285514
 20
122.8647699039
 30
0.0
 11
107.2829285514
 21
122.8647699039
 31
0.0
  0
LINE
  5
2FD
330
1F
100
AcDbEntity
  8
0
  6
Continuous
 62
     7
370
    25
100
AcDbLine
 10
107.2829285514
 20
122.8647699039
 30
0.0
 11
107.2829285514
 21
124.1298439058
 31
0.0
  0
LINE
  5
2FE
330
1F
100
AcDbEntity
  8
0
  6
Continuous
 62
     7
370
    25
100
AcDbLine
 10
133.9829285514
 20
124.1298439058
 30
0.0
 11
107.2829285514
 21
124.1298439058
 31
0.0
  0
ARC
  5
2FF
330
1F
100
AcDbEntity
  8
0
  6
Continuous
 62
     7
370
    25
100
AcDbCircle
 10
82.8158544545
 20
107.4309695191
 30
0.0
 40
0.602325500572694
100
AcDbArc
 50
230.5246794794
 51
281.2079317706
  0
LINE
  5
300
330
1F
100
AcDbEntity
  8
0
  6
Continuous
 62
     7
370
    25
100
AcDbLine
 10
82.4329285514
 20
106.9660353717
 30
0.0
 11
82.4329285514
 21
121.9402134852
 31
0.0
  0
SPLINE
  5
301
330
1F
100
AcDbEntity
  8
0
  6
Continuous
 62
     7
370
    25
100
AcDbSpline
210
0.0
220
0.0
230
1.0
 70
     8
 71
     3
 72
    13
 73
     9
 74
     0
 42
0.00000001
 43
0.00000001
 40
0.0
 40
0.0
 40
0.0
 40
0.0
 40
0.0464595631894643
 40
0.297057884664109
 40
0.548703513915109
 40
0.7780605812391872
 40
0.9776203598986072
 40
1.0
 40
1.0
 40
1.0
 40
1.0
 10
82.43292855144207
 20
121.9402134852128
 30
0.0
 10
82.43317423976447
 20
121.9485741274071
 30
0.0
 10
82.43474514677114
 20
122.0020312525752
 30
0.0
 10
82.46976126700464
 20
122.100379990012
 30
0.0
 10
82.58139819369221
 20
122.2140240961655
 30
0.0
 10
82.73929260034133
 20
122.2872260227337
 30
0.0
 10
82.86489003363847
 20
122.3068427582426
 30
0.0
 10
82.92669621922629
 20
122.307383822575
 30
0.0
 10
82.93292855144206
 20
122.3074383817205
 30
0.0
  0
LINE
  5
302
330
1F
100
AcDbEntity
  8
0
  6
Continuous
 62
     7
370
    25
100
AcDbLine
 10
153.4329285514
 20
121.9402134852
 30
0.0
 11
153.4329285514
 21
106.9660353717
 31
0.0
  0
ARC
  5
303
330
1F
100
AcDbEntity
  8
0
  6
Continuous
 62
     7
370
    25
100
AcDbCircle
 10
153.0500026484
 20
107.4309695191
 30
0.0
 40
0.6023255005724913
100
AcDbArc
 50
258.7920682294
 51
309.4753205206
  0
SPLINE
  5
304
330
1F
100
AcDbEntity
  8
0
  6
Continuous
 62
     7
370
    25
100
AcDbSpline
210
0.0
220
0.0
230
1.0
 70
     8
 71
     3
 72
    14
 73
    10
 74
     0
 42
0.00000001
 43
0.00000001
 40
0.0
 40
0.0
 40
0.0
 40
0.0
 40
0.0361844445285665
 40
0.2142578513006764
 40
0.3944665826597168
 40
0.5888084030253606
 40
0.8054960344963222
 40
0.9536275050128835
 40
1.0
 40
1.0
 40
1.0
 40
1.0
 10
152.932928551442
 20
122.3074383817205
 30
0.0
 10
152.9430244271239
 20
122.3072975242682
 30
0.0
 10
153.0028048288624
 20
122.3064634693184
 30
0.0
 10
153.1120647478292
 20
122.2888047668219
 30
0.0
 10
153.244302003565
 20
122.2347260120682
 30
0.0
 10
153.3520774591389
 20
122.1517857531813
 30
0.0
 10
153.4132364481789
 20
122.0573662976331
 30
0.0
 10
153.4316747441157
 20
121.983653406921
 30
0.0
 10
153.4326871738751
 20
121.9485763511713
 30
0.0
 10
153.432928551442
 20
121.9402134852128
 30
0.0
  0
LINE
  5
305
330
1F
100
AcDbEntity
  8
0
  6
Continuous
 62
     7
370
    25
100
AcDbLine
 10
103.1829285514
 20
122.8671562872
 30
0.0
 11
107.2829285514
 21
122.8671562872
 31
0.0
  0
LINE
  5
306
330
1F
100
AcDbEntity
  8
0
  6
Continuous
 62
     7
370
    25
100
AcDbLine
 10
133.9829285514
 20
122.8671562872
 30
0.0
 11
138.0829285514
 21
122.8671562872
 31
0.0
  0
LINE
  5
307
330
1F
100
AcDbEntity
  8
0
  6
Continuous
 62
     7
370
    25
100
AcDbLine
 10
82.9329285514
 20
106.4660362438
 30
0.0
 11
82.9329285514
 21
106.8401314157
 31
0.0
  0
ARC
  5
308
330
1F
100
AcDbEntity
  8
0
  6
Continuous
 62
     7
370
    25
100
AcDbCircle
 10
82.9329281154
 20
106.9660358077
 30
0.0
 40
0.4999995639837689
100
AcDbArc
 50
180.0000499639
 51
270.0000499638
  0
LINE
  5
309
330
1F
100
AcDbEntity
  8
0
  6
Continuous
 62
     7
370
    25
100
AcDbLine
 10
152.9329285514
 20
106.4660362438
 30
0.0
 11
152.9329285514
 21
106.8401314157
 31
0.0
  0
ARC
  5
30A
330
1F
100
AcDbEntity
  8
0
  6
Continuous
 62
     7
370
    25
100
AcDbCircle
 10
152.9329289875
 20
106.9660358077
 30
0.0
 40
0.499999563983712
100
AcDbArc
 50
269.9999500361
 51
359.9999500361
  0
LINE
  5
30B
330
1F
100
AcDbEntity
  8
0
  6
Continuous
 62
     7
370
    25
100
AcDbLine
 10
152.9329285514
 20
106.4660362438
 30
0.0
 11
82.9329285514
 21
106.4660362438
 31
0.0
  0
LINE
  5
30C
330
1F
100
AcDbEntity
  8
0
  6
Continuous
 62
     7
370
    25
100
AcDbLine
 10
110.4329285514
 20
124.7659986999
 30
0.0
 11
110.4329285514
 21
125.2680885446
 31
0.0
  0
LINE
  5
30D
330
1F
100
AcDbEntity
  8
0
  6
Continuous
 62
     7
370
    25
100
AcDbLine
 10
125.4329285514
 20
124.7659986999
 30
0.0
 11
110.4329285514
 21
124.7659986999
 31
0.0
  0
LINE
  5
30E
330
1F
100
AcDbEntity
  8
0
  6
Continuous
 62
     7
370
    25
100
AcDbLine
 10
125.4329285514
 20
125.2680885446
 30
0.0
 11
125.4329285514
 21
124.7659986999
 31
0.0
  0
LINE
  5
30F
330
1F
100
AcDbEntity
  8
0
  6
Continuous
 62
     7
370
    25
100
AcDbLine
 10
133.9829285514
 20
124.265446411
 30
0.0
 11
138.0829285514
 21
124.265446411
 31
0.0
  0
LINE
  5
310
330
1F
100
AcDbEntity
  8
0
  6
Continuous
 62
     7
370
    25
100
AcDbLine
 10
103.1829285514
 20
124.265446411
 30
0.0
 11
107.2829285514
 21
124.265446411
 31
0.0
  0
LINE
  5
311
330
1F
100
AcDbEntity
  8
0
  6
Continuous
 62
     7
370
    25
100
AcDbLine
 10
138.0829285514
 20
124.265446411
 30
0.0
 11
138.0829285514
 21
124.2022343883
 31
0.0
  0
LINE
  5
312
330
1F
100
AcDbEntity
  8
0
  6
Continuous
 62
     7
370
    25
100
AcDbLine
 10
138.0829285514
 20
124.2022343883
 30
0.0
 11
138.0829285514
 21
124.1298439058
 31
0.0
  0
LINE
  5
313
330
1F
100
AcDbEntity
  8
0
  6
Continuous
 62
     7
370
    25
100
AcDbLine
 10
133.9829285514
 20
124.2022343883
 30
0.0
 11
133.9829285514
 21
124.265446411
 31
0.0
  0
LINE
  5
314
330
1F
100
AcDbEntity
  8
0
  6
Continuous
 62
     7
370
    25
100
AcDbLine
 10
133.9829285514
 20
124.1298439058
 30
0.0
 11
133.9829285514
 21
124.2022343883
 31
0.0
  0
LINE
  5
315
330
1F
100
AcDbEntity
  8
0
  6
Continuous
 62
     7
370
    25
100
AcDbLine
 10
107.2829285514
 20
124.265446411
 30
0.0
 11
107.2829285514
 21
124.2022343883
 31
0.0
  0
LINE
  5
316
330
1F
100
AcDbEntity
  8
0
  6
Continuous
 62
     7
370
    25
100
AcDbLine
 10
107.2829285514
 20
124.2022343883
 30
0.0
 11
107.2829285514
 21
124.1298439058
 31
0.0
  0
LINE
  5
317
330
1F
100
AcDbEntity
  8
0
  6
Continuous
 62
     7
370
    25
100
AcDbLine
 10
103.1829285514
 20
124.2022343883
 30
0.0
 11
103.1829285514
 21
124.265446411
 31
0.0
  0
LINE
  5
318
330
1F
100
AcDbEntity
  8
0
  6
Continuous
 62
     7
370
    25
100
AcDbLine
 10
103.1829285514
 20
124.1298439058
 30
0.0
 11
103.1829285514
 21
124.2022343883
 31
0.0
  0
LINE
  5
319
330
1F
100
AcDbEntity
  8
0
  6
Continuous
 62
     7
370
    25
100
AcDbLine
 10
151.4329285514
 20
125.2680885446
 30
0.0
 11
151.4329285514
 21
124.1298439058
 31
0.0
  0
LINE
  5
31A
330
1F
100
AcDbEntity
  8
0
  6
Continuous
 62
     7
370
    25
100
AcDbLine
 10
89.8329285514
 20
124.1298439058
 30
0.0
 11
89.8329285514
 21
125.2680885446
 31
0.0
  0
LINE
  5
31B
330
1F
100
AcDbEntity
  8
0
  6
Continuous
 62
     7
370
    25
100
AcDbLine
 10
125.4329285514
 20
124.7690206274
 30
0.0
 11
110.4329285514
 21
124.7690206274
 31
0.0
  0
LINE
  5
31C
330
1F
100
AcDbEntity
  8
0
  6
Continuous
 62
     7
370
    25
100
AcDbLine
 10
87.9329285514
 20
123.7676216311
 30
0.0
 11
87.9329285514
 21
124.0180885446
 31
0.0
  0
LINE
  5
31D
330
1F
100
AcDbEntity
  8
0
  6
Continuous
 62
     7
370
    25
100
AcDbLine
 10
87.9329285514
 20
123.5180885446
 30
0.0
 11
87.9329285514
 21
123.7676216311
 31
0.0
  0
LINE
  5
31E
330
1F
100
AcDbEntity
  8
0
  6
Continuous
 62
     7
370
    25
100
AcDbLine
 10
89.6329285514
 20
124.5026540377
 30
0.0
 11
89.8329285514
 21
124.5026540377
 31
0.0
  0
LINE
  5
31F
330
1F
100
AcDbEntity
  8
0
  6
Continuous
 62
     7
370
    25
100
AcDbLine
 10
151.6329285514
 20
124.5026540377
 30
0.0
 11
151.4329285514
 21
124.5026540377
 31
0.0
  0
LINE
  5
320
330
1F
100
AcDbEntity
  8
0
  6
Continuous
 62
     7
370
    25
100
AcDbLine
 10
103.5329285514
 20
123.2680894166
 30
0.0
 11
103.5329285514
 21
124.265446411
 31
0.0
  0
LINE
  5
321
330
1F
100
AcDbEntity
  8
0
  6
Continuous
 62
     7
370
    25
100
AcDbLine
 10
106.9329285514
 20
124.265446411
 30
0.0
 11
106.9329285514
 21
123.2680894166
 31
0.0
  0
LINE
  5
322
330
1F
100
AcDbEntity
  8
0
  6
Continuous
 62
     7
370
    25
100
AcDbLine
 10
106.9329285514
 20
123.2680894166
 30
0.0
 11
103.5329285514
 21
123.2680894166
 31
0.0
  0
LINE
  5
323
330
1F
100
AcDbEntity
  8
0
  6
Continuous
 62
     7
370
    25
100
AcDbLine
 10
137.7329285514
 20
124.265446411
 30
0.0
 11
137.7329285514
 21
123.2680894166
 31
0.0
  0
LINE
  5
324
330
1F
100
AcDbEntity
  8
0
  6
Continuous
 62
     7
370
    25
100
AcDbLine
 10
137.7329285514
 20
123.2680894166
 30
0.0
 11
134.3329285514
 21
123.2680894166
 31
0.0
  0
LINE
  5
325
330
1F
100
AcDbEntity
  8
0
  6
Continuous
 62
     7
370
    25
100
AcDbLine
 10
134.3329285514
 20
123.2680894166
 30
0.0
 11
134.3329285514
 21
124.265446411
 31
0.0
  0
LINE
  5
326
330
1F
100
AcDbEntity
  8
0
  6
Continuous
 62
     7
370
    25
100
AcDbLine
 10
153.3832908898
 20
110.6290420329
 30
0.0
 11
154.3956345597
 21
110.6319673325
 31
0.0
  0
LINE
  5
327
330
1F
100
AcDbEntity
  8
0
  6
Continuous
 62
     7
370
    25
100
AcDbLine
 10
154.3927890446
 20
111.6167003786
 30
0.0
 11
153.4885101651
 21
111.6140873464
 31
0.0
  0
ARC
  5
328
330
1F
100
AcDbEntity
  8
0
  6
Continuous
 62
     7
370
    25
100
AcDbCircle
 10
152.2329285514
 20
111.1180885446
 30
0.0
 40
2.899999999999979
100
AcDbArc
 50
294.4433354277
 51
65.5566645723
  0
ARC
  5
329
330
1F
100
AcDbEntity
  8
0
  6
Continuous
 62
     7
370
    25
100
AcDbCircle
 10
152.2329285514
 20
111.1180885446
 30
0.0
 40
2.8779629127037
100
AcDbArc
 50
350.3148096807
 51
10.0163167138
  0
SPLINE
  5
32A
330
1F
100
AcDbEntity
  8
0
  6
Continuous
 62
     7
370
    25
100
AcDbSpline
210
0.0
220
0.0
230
1.0
 70
    24
 71
     3
 72
    11
 73
     7
 74
     0
 42
0.00000001
 43
0.00000001
 40
0.0
 40
0.0
 40
0.0
 40
0.0
 40
0.2316885866444274
 40
0.472435007396622
 40
0.7988058568893922
 40
1.0
 40
1.0
 40
1.0
 40
1.0
 10
155.0670263059748
 20
111.6186486754562
 30
0.0
 10
155.0442411116644
 20
111.6185828346534
 30
0.0
 10
154.9977799389393
 20
111.6184485790104
 30
0.0
 10
154.83853357579
 20
111.61798841579
 30
0.0
 10
154.6297689147915
 20
111.6173851629632
 30
0.0
 10
154.4582139011823
 20
111.6168894322853
 30
0.0
 10
154.3927890446369
 20
111.6167003785946
 30
0.0
  0
SPLINE
  5
32B
330
1F
100
AcDbEntity
  8
0
  6
Continuous
 62
     7
370
    25
100
AcDbSpline
210
0.0
220
0.0
230
1.0
 70
    24
 71
     3
 72
    11
 73
     7
 74
     0
 42
0.00000001
 43
0.00000001
 40
0.0
 40
0.0
 40
0.0
 40
0.0
 40
0.2607555203543868
 40
0.5279402418624273
 40
0.8468562454774144
 40
1.0
 40
1.0
 40
1.0
 40
1.0
 10
154.3956345597298
 20
110.6319673324798
 30
0.0
 10
154.480110263141
 20
110.6322114360873
 30
0.0
 10
154.6511445071327
 20
110.6327056619332
 30
0.0
 10
154.8736110337221
 20
110.6333485080949
 30
0.0
 10
155.0133786901394
 20
110.6337523850415
 30
0.0
 10
155.0560338147225
 20
110.6338756426099
 30
0.0
 10
155.0698718210675
 20
110.6339156293414
 30
0.0
  0
LINE
  5
32C
330
1F
100
AcDbEntity
  8
0
  6
Continuous
 62
     7
370
    25
100
AcDbLine
 10
88.1329285514
 20
122.3074383817
 30
0.0
 11
88.1329285514
 21
122.9451605528
 31
0.0
  0
LINE
  5
32D
330
1F
100
AcDbEntity
  8
0
  6
Continuous
 62
     7
370
    25
100
AcDbLine
 10
89.6329285514
 20
122.9451605528
 30
0.0
 11
88.1329285514
 21
122.9451605528
 31
0.0
  0
LINE
  5
32E
330
1F
100
AcDbEntity
  8
0
  6
Continuous
 62
     7
370
    25
100
AcDbLine
 10
89.6329285514
 20
122.9451605528
 30
0.0
 11
89.6329285514
 21
122.3074383817
 31
0.0
  0
LINE
  5
32F
330
1F
100
AcDbEntity
  8
0
  6
Continuous
 62
     7
370
    25
100
AcDbLine
 10
89.6329285514
 20
124.9680885446
 30
0.0
 11
88.1329285514
 21
124.9680885446
 31
0.0
  0
LINE
  5
330
330
1F
100
AcDbEntity
  8
0
  6
Continuous
 62
     7
370
    25
100
AcDbLine
 10
88.1329285514
 20
124.9680885446
 30
0.0
 11
88.1329285514
 21
125.4680885446
 31
0.0
  0
LINE
  5
331
330
1F
100
AcDbEntity
  8
0
  6
Continuous
 62
     7
370
    25
100
AcDbLine
 10
89.6329285514
 20
125.4680885446
 30
0.0
 11
88.1329285514
 21
125.4680885446
 31
0.0
  0
LINE
  5
332
330
1F
100
AcDbEntity
  8
0
  6
Continuous
 62
     7
370
    25
100
AcDbLine
 10
89.6329285514
 20
125.4680885446
 30
0.0
 11
89.6329285514
 21
124.9680885446
 31
0.0
  0
LINE
  5
333
330
1F
100
AcDbEntity
  8
0
  6
Continuous
 62
     7
370
    25
100
AcDbLine
 10
88.1329285514
 20
122.9451605528
 30
0.0
 11
88.1329285514
 21
124.9680885446
 31
0.0
  0
LINE
  5
334
330
1F
100
AcDbEntity
  8
0
  6
Continuous
 62
     7
370
    25
100
AcDbLine
 10
89.6329285514
 20
124.9680885446
 30
0.0
 11
89.6329285514
 21
122.9451605528
 31
0.0
  0
LINE
  5
335
330
1F
100
AcDbEntity
  8
0
  6
Continuous
 62
     7
370
    25
100
AcDbLine
 10
151.6329285514
 20
122.9451605528
 30
0.0
 11
153.4329285514
 21
122.9451605528
 31
0.0
  0
LINE
  5
336
330
1F
100
AcDbEntity
  8
0
  6
Continuous
 62
     7
370
    25
100
AcDbLine
 10
153.4329285514
 20
122.9451605528
 30
0.0
 11
153.4329285514
 21
122.167915682
 31
0.0
  0
LINE
  5
337
330
1F
100
AcDbEntity
  8
0
  6
Continuous
 62
     7
370
    25
100
AcDbLine
 10
151.6329285514
 20
122.3074383817
 30
0.0
 11
151.6329285514
 21
122.9451605528
 31
0.0
  0
LINE
  5
338
330
1F
100
AcDbEntity
  8
0
  6
Continuous
 62
     7
370
    25
100
AcDbLine
 10
151.6329285514
 20
125.4680885446
 30
0.0
 11
153.4329285514
 21
125.4680885446
 31
0.0
  0
LINE
  5
339
330
1F
100
AcDbEntity
  8
0
  6
Continuous
 62
     7
370
    25
100
AcDbLine
 10
151.6329285514
 20
124.9680885446
 30
0.0
 11
153.4329285514
 21
124.9680885446
 31
0.0
  0
LINE
  5
33A
330
1F
100
AcDbEntity
  8
0
  6
Continuous
 62
     7
370
    25
100
AcDbLine
 10
153.4329285514
 20
125.4680885446
 30
0.0
 11
153.4329285514
 21
124.9680885446
 31
0.0
  0
LINE
  5
33B
330
1F
100
AcDbEntity
  8
0
  6
Continuous
 62
     7
370
    25
100
AcDbLine
 10
151.6329285514
 20
124.9680885446
 30
0.0
 11
151.6329285514
 21
125.4680885446
 31
0.0
  0
LINE
  5
33C
330
1F
100
AcDbEntity
  8
0
  6
Continuous
 62
     7
370
    25
100
AcDbLine
 10
153.4329285514
 20
124.9680885446
 30
0.0
 11
153.4329285514
 21
122.9451605528
 31
0.0
  0
LINE
  5
33D
330
1F
100
AcDbEntity
  8
0
  6
Continuous
 62
     7
370
    25
100
AcDbLine
 10
151.6329285514
 20
122.9451605528
 30
0.0
 11
151.6329285514
 21
124.9680885446
 31
0.0
  0
LINE
  5
33E
330
1F
100
AcDbEntity
  8
0
  6
Continuous
 62
     7
370
    25
100
AcDbLine
 10
153.4329285514
 20
122.167915682
 30
0.0
 11
153.4329285514
 21
121.9402134852
 31
0.0
  0
LINE
  5
33F
330
1F
100
AcDbEntity
  8
0
  6
Continuous
 62
     7
370
    25
100
AcDbLine
 10
138.0829285514
 20
123.8680885446
 30
0.0
 11
137.7329285514
 21
123.8680885446
 31
0.0
  0
LINE
  5
340
330
1F
100
AcDbEntity
  8
0
  6
Continuous
 62
     7
370
    25
100
AcDbLine
 10
134.3329285514
 20
123.8680885446
 30
0.0
 11
133.9829285514
 21
123.8680885446
 31
0.0
  0
LINE
  5
341
330
1F
100
AcDbEntity
  8
0
  6
Continuous
 62
     7
370
    25
100
AcDbLine
 10
107.2829285514
 20
123.8680885446
 30
0.0
 11
106.9329285514
 21
123.8680885446
 31
0.0
  0
LINE
  5
342
330
1F
100
AcDbEntity
  8
0
  6
Continuous
 62
     7
370
    25
100
AcDbLine
 10
103.5329285514
 20
123.8680885446
 30
0.0
 11
103.1829285514
 21
123.8680885446
 31
0.0
  0
LINE
  5
343
330
1F
100
AcDbEntity
  8
0
  6
Continuous
 62
     7
370
    25
100
AcDbLine
 10
89.6329285514
 20
125.4680885446
 30
0.0
 11
151.6329285514
 21
125.4680885446
 31
0.0
  0
LINE
  5
344
330
1F
100
AcDbEntity
  8
0
  6
Continuous
 62
     7
370
    25
100
AcDbLine
 10
103.6329285514
 20
123.2680894166
 30
0.0
 11
103.6329285514
 21
122.8680885446
 31
0.0
  0
LINE
  5
345
330
1F
100
AcDbEntity
  8
0
  6
Continuous
 62
     7
370
    25
100
AcDbLine
 10
82.4329285514
 20
125.4680885446
 30
0.0
 11
82.4329285514
 21
121.9402134852
 31
0.0
  0
LINE
  5
346
330
1F
100
AcDbEntity
  8
0
  6
Continuous
 62
     7
370
    25
100
AcDbLine
 10
88.1329285514
 20
125.4680885446
 30
0.0
 11
82.4329285514
 21
125.4680885446
 31
0.0
  0
LINE
  5
347
330
1F
100
AcDbEntity
  8
0
  6
Continuous
 62
     7
370
    25
100
AcDbLine
 10
82.8876726963
 20
106.4680885446
 30
0.0
 11
82.4329285514
 21
106.4680885446
 31
0.0
  0
LINE
  5
348
330
1F
100
AcDbEntity
  8
0
  6
Continuous
 62
     7
370
    25
100
AcDbLine
 10
82.4329285514
 20
106.4680885446
 30
0.0
 11
82.4329285514
 21
106.9660353717
 31
0.0
  0
LINE
  5
349
330
1F
100
AcDbEntity
  8
0
  6
Continuous
 62
     7
370
    25
100
AcDbLine
 10
153.4329285514
 20
114.9180885446
 30
0.0
 11
155.4329285514
 21
114.9180885446
 31
0.0
  0
LINE
  5
34A
330
1F
100
AcDbEntity
  8
0
  6
Continuous
 62
     7
370
    25
100
AcDbLine
 10
155.4329285514
 20
114.9180885446
 30
0.0
 11
155.4329285514
 21
106.4680885446
 31
0.0
  0
LINE
  5
34B
330
1F
100
AcDbEntity
  8
0
  6
Continuous
 62
     7
370
    25
100
AcDbLine
 10
152.9781844066
 20
106.4680885446
 30
0.0
 11
155.4329285514
 21
106.4680885446
 31
0.0
  0
LINE
  5
34C
330
1F
100
AcDbEntity
  8
0
  6
Continuous
 62
     7
370
    25
100
AcDbLine
 10
74.4829285514
 20
122.3008672329
 30
0.0
 11
74.4829285514
 21
124.1248022401
 31
0.0
  0
LINE
  5
34D
330
1F
100
AcDbEntity
  8
0
  6
Continuous
 62
     7
370
    25
100
AcDbLine
 10
74.4829285514
 20
122.3008672329
 30
0.0
 11
78.4329285514
 21
122.3008672329
 31
0.0
  0
LINE
  5
34E
330
1F
100
AcDbEntity
  8
0
  6
Continuous
 62
     7
370
    25
100
AcDbLine
 10
78.4329285514
 20
106.8348062956
 30
0.0
 11
78.4329285514
 21
122.3008672329
 31
0.0
  0
LINE
  5
34F
330
1F
100
AcDbEntity
  8
0
  6
Continuous
 62
     7
370
    25
100
AcDbLine
 10
43.9329285514
 20
106.8348062956
 30
0.0
 11
78.4329285514
 21
106.8348062956
 31
0.0
  0
LINE
  5
350
330
1F
100
AcDbEntity
  8
0
  6
Continuous
 62
     7
370
    25
100
AcDbLine
 10
43.9329285514
 20
122.3008672329
 30
0.0
 11
43.9329285514
 21
106.8348062956
 31
0.0
  0
LINE
  5
351
330
1F
100
AcDbEntity
  8
0
  6
Continuous
 62
     7
370
    25
100
AcDbLine
 10
47.8829285514
 20
122.3008672329
 30
0.0
 11
43.9329285514
 21
122.3008672329
 31
0.0
  0
LINE
  5
352
330
1F
100
AcDbEntity
  8
0
  6
Continuous
 62
     7
370
    25
100
AcDbLine
 10
47.8829285514
 20
124.1248022401
 30
0.0
 11
47.8829285514
 21
122.3008672329
 31
0.0
  0
LINE
  5
353
330
1F
100
AcDbEntity
  8
0
  6
Continuous
 62
     7
370
    25
100
AcDbLine
 10
64.7829285514
 20
124.1248022401
 30
0.0
 11
47.8829285514
 21
124.1248022401
 31
0.0
  0
LINE
  5
354
330
1F
100
AcDbEntity
  8
0
  6
Continuous
 62
     7
370
    25
100
AcDbLine
 10
64.7829285514
 20
124.1248022401
 30
0.0
 11
64.7829285514
 21
122.8586268651
 31
0.0
  0
LINE
  5
355
330
1F
100
AcDbEntity
  8
0
  6
Continuous
 62
     7
370
    25
100
AcDbLine
 10
64.7829285514
 20
122.8586268651
 30
0.0
 11
68.8829285514
 21
122.8586268651
 31
0.0
  0
LINE
  5
356
330
1F
100
AcDbEntity
  8
0
  6
Continuous
 62
     7
370
    25
100
AcDbLine
 10
68.8829285514
 20
122.8586268651
 30
0.0
 11
68.8829285514
 21
124.1248022401
 31
0.0
  0
LINE
  5
357
330
1F
100
AcDbEntity
  8
0
  6
Continuous
 62
     7
370
    25
100
AcDbLine
 10
74.4829285514
 20
124.1248022401
 30
0.0
 11
68.8829285514
 21
124.1248022401
 31
0.0
  0
ARC
  5
358
330
1F
100
AcDbEntity
  8
0
  6
Continuous
 62
     7
370
    25
100
AcDbCircle
 10
43.8160666693
 20
107.4203850878
 30
0.0
 40
0.5971258003316999
100
AcDbArc
 50
230.0859911003
 51
281.2860454378
  0
LINE
  5
359
330
1F
100
AcDbEntity
  8
0
  6
Continuous
 62
     7
370
    25
100
AcDbLine
 10
43.4329285514
 20
106.9623846467
 30
0.0
 11
43.4329285514
 21
121.9351458302
 31
0.0
  0
SPLINE
  5
35A
330
1F
100
AcDbEntity
  8
0
  6
Continuous
 62
     7
370
    25
100
AcDbSpline
210
0.0
220
0.0
230
1.0
 70
     8
 71
     3
 72
    13
 73
     9
 74
     0
 42
0.00000001
 43
0.00000001
 40
0.0
 40
0.0
 40
0.0
 40
0.0
 40
0.0464595631894757
 40
0.2970578846640684
 40
0.5487035139150531
 40
0.7780605812391213
 40
0.9776203598986406
 40
1.0
 40
1.0
 40
1.0
 40
1.0
 10
43.43292855144212
 20
121.935145830223
 30
0.0
 10
43.4331742397645
 20
121.9434722422386
 30
0.0
 10
43.43474514677104
 20
121.9967105030058
 30
0.0
 10
43.46976126700473
 20
122.0946565806018
 30
0.0
 10
43.58139819369211
 20
122.2078354045476
 30
0.0
 10
43.73929260034132
 20
122.2807376274607
 30
0.0
 10
43.86489003363836
 20
122.3002740480434
 30
0.0
 10
43.92669621922627
 20
122.3008128971478
 30
0.0
 10
43.93292855144204
 20
122.3008672329169
 30
0.0
  0
LINE
  5
35B
330
1F
100
AcDbEntity
  8
0
  6
Continuous
 62
     7
370
    25
100
AcDbLine
 10
78.9329285514
 20
121.9351458302
 30
0.0
 11
78.9329285514
 21
106.9623846467
 31
0.0
  0
ARC
  5
35C
330
1F
100
AcDbEntity
  8
0
  6
Continuous
 62
     7
370
    25
100
AcDbCircle
 10
78.5497904336
 20
107.4203850878
 30
0.0
 40
0.597125800331953
100
AcDbArc
 50
258.7139545622
 51
309.9140088997
  0
SPLINE
  5
35D
330
1F
100
AcDbEntity
  8
0
  6
Continuous
 62
     7
370
    25
100
AcDbSpline
210
0.0
220
0.0
230
1.0
 70
     8
 71
     3
 72
    14
 73
    10
 74
     0
 42
0.00000001
 43
0.00000001
 40
0.0
 40
0.0
 40
0.0
 40
0.0
 40
0.0361844445285377
 40
0.2142578513006348
 40
0.3944665826596447
 40
0.5888084030253229
 40
0.8054960344963974
 40
0.953627505012923
 40
1.0
 40
1.0
 40
1.0
 40
1.0
 10
78.4329285514421
 20
122.3008672329174
 30
0.0
 10
78.44302442712397
 20
122.3007269521643
 30
0.0
 10
78.50280482886241
 20
122.2998963120059
 30
0.0
 10
78.61206474782928
 20
122.2823099078482
 30
0.0
 10
78.74430200356508
 20
122.2284525625741
 30
0.0
 10
78.85207745913895
 20
122.1458518780663
 30
0.0
 10
78.91323644817894
 20
122.0518189950751
 30
0.0
 10
78.9316747441159
 20
121.9784079000101
 30
0.0
 10
78.93268717387524
 20
121.9434744568988
 30
0.0
 10
78.9329285514421
 20
121.9351458302234
 30
0.0
  0
LINE
  5
35E
330
1F
100
AcDbEntity
  8
0
  6
Continuous
 62
     7
370
    25
100
AcDbLine
 10
64.7829285514
 20
122.8654365832
 30
0.0
 11
68.8829285514
 21
122.8654365832
 31
0.0
  0
LINE
  5
35F
330
1F
100
AcDbEntity
  8
0
  6
Continuous
 62
     7
370
    25
100
AcDbLine
 10
43.9329285514
 20
106.4623917476
 30
0.0
 11
43.9329285514
 21
106.8348062956
 31
0.0
  0
ARC
  5
360
330
1F
100
AcDbEntity
  8
0
  6
Continuous
 62
     7
370
    25
100
AcDbCircle
 10
43.932925001
 20
106.9623881972
 30
0.0
 40
0.4999964495850128
100
AcDbArc
 50
180.0004068577
 51
270.0004068519
  0
LINE
  5
361
330
1F
100
AcDbEntity
  8
0
  6
Continuous
 62
     7
370
    25
100
AcDbLine
 10
78.4329285514
 20
106.4623917476
 30
0.0
 11
78.4329285514
 21
106.8348062956
 31
0.0
  0
ARC
  5
362
330
1F
100
AcDbEntity
  8
0
  6
Continuous
 62
     7
370
    25
100
AcDbCircle
 10
78.4329321019
 20
106.9623881972
 30
0.0
 40
0.4999964495849275
100
AcDbArc
 50
269.9995931481
 51
359.9995931423
  0
LINE
  5
363
330
1F
100
AcDbEntity
  8
0
  6
Continuous
 62
     7
370
    25
100
AcDbLine
 10
78.4329285514
 20
106.4623917476
 30
0.0
 11
43.9329285514
 21
106.4623917476
 31
0.0
  0
LINE
  5
364
330
1F
100
AcDbEntity
  8
0
  6
Continuous
 62
     7
370
    25
100
AcDbLine
 10
49.4829285514
 20
124.7621157962
 30
0.0
 11
49.4829285514
 21
125.2680885446
 31
0.0
  0
LINE
  5
365
330
1F
100
AcDbEntity
  8
0
  6
Continuous
 62
     7
370
    25
100
AcDbLine
 10
61.4829285514
 20
124.7621157962
 30
0.0
 11
49.4829285514
 21
124.7621157962
 31
0.0
  0
LINE
  5
366
330
1F
100
AcDbEntity
  8
0
  6
Continuous
 62
     7
370
    25
100
AcDbLine
 10
61.4829285514
 20
125.2680885446
 30
0.0
 11
61.4829285514
 21
124.7621157962
 31
0.0
  0
LINE
  5
367
330
1F
100
AcDbEntity
  8
0
  6
Continuous
 62
     7
370
    25
100
AcDbLine
 10
64.7829285514
 20
124.2605444122
 30
0.0
 11
68.8829285514
 21
124.2605444122
 31
0.0
  0
LINE
  5
368
330
1F
100
AcDbEntity
  8
0
  6
Continuous
 62
     7
370
    25
100
AcDbLine
 10
68.8829285514
 20
124.2605444122
 30
0.0
 11
68.8829285514
 21
124.1972612686
 31
0.0
  0
LINE
  5
369
330
1F
100
AcDbEntity
  8
0
  6
Continuous
 62
     7
370
    25
100
AcDbLine
 10
68.8829285514
 20
124.1972612686
 30
0.0
 11
68.8829285514
 21
124.1248022401
 31
0.0
  0
LINE
  5
36A
330
1F
100
AcDbEntity
  8
0
  6
Continuous
 62
     7
370
    25
100
AcDbLine
 10
64.7829285514
 20
124.1972612686
 30
0.0
 11
64.7829285514
 21
124.2605444122
 31
0.0
  0
LINE
  5
36B
330
1F
100
AcDbEntity
  8
0
  6
Continuous
 62
     7
370
    25
100
AcDbLine
 10
64.7829285514
 20
124.1248022401
 30
0.0
 11
64.7829285514
 21
124.1972612686
 31
0.0
  0
LINE
  5
36C
330
1F
100
AcDbEntity
  8
0
  6
Continuous
 62
     7
370
    25
100
AcDbLine
 10
74.4829285514
 20
125.2680885446
 30
0.0
 11
74.4829285514
 21
124.1248022401
 31
0.0
  0
LINE
  5
36D
330
1F
100
AcDbEntity
  8
0
  6
Continuous
 62
     7
370
    25
100
AcDbLine
 10
47.8829285514
 20
124.1248022401
 30
0.0
 11
47.8829285514
 21
125.2680885446
 31
0.0
  0
LINE
  5
36E
330
1F
100
AcDbEntity
  8
0
  6
Continuous
 62
     7
370
    25
100
AcDbLine
 10
61.4829285514
 20
124.7707390858
 30
0.0
 11
49.4829285514
 21
124.7707390857
 31
0.0
  0
LINE
  5
36F
330
1F
100
AcDbEntity
  8
0
  6
Continuous
 62
     7
370
    25
100
AcDbLine
 10
74.6829285514
 20
124.5021256083
 30
0.0
 11
74.4829285514
 21
124.5021256083
 31
0.0
  0
LINE
  5
370
330
1F
100
AcDbEntity
  8
0
  6
Continuous
 62
     7
370
    25
100
AcDbLine
 10
47.6829285514
 20
124.5021256083
 30
0.0
 11
47.8829285514
 21
124.5021256083
 31
0.0
  0
LINE
  5
371
330
1F
100
AcDbEntity
  8
0
  6
Continuous
 62
     7
370
    25
100
AcDbLine
 10
65.1329285514
 20
123.2680956455
 30
0.0
 11
65.1329285514
 21
124.2605444122
 31
0.0
  0
LINE
  5
372
330
1F
100
AcDbEntity
  8
0
  6
Continuous
 62
     7
370
    25
100
AcDbLine
 10
68.5329285514
 20
124.2605444122
 30
0.0
 11
68.5329285514
 21
123.2680956455
 31
0.0
  0
LINE
  5
373
330
1F
100
AcDbEntity
  8
0
  6
Continuous
 62
     7
370
    25
100
AcDbLine
 10
68.5329285514
 20
123.2680956455
 30
0.0
 11
65.1329285514
 21
123.2680956455
 31
0.0
  0
LINE
  5
374
330
1F
100
AcDbEntity
  8
0
  6
Continuous
 62
     7
370
    25
100
AcDbLine
 10
47.6829285514
 20
122.9451605528
 30
0.0
 11
43.4329285514
 21
122.9451605528
 31
0.0
  0
LINE
  5
375
330
1F
100
AcDbEntity
  8
0
  6
Continuous
 62
     7
370
    25
100
AcDbLine
 10
47.6829285514
 20
124.9680885446
 30
0.0
 11
43.4329285514
 21
124.9680885446
 31
0.0
  0
LINE
  5
376
330
1F
100
AcDbEntity
  8
0
  6
Continuous
 62
     7
370
    25
100
AcDbLine
 10
47.6829285514
 20
124.9680885446
 30
0.0
 11
47.6829285514
 21
122.9451605528
 31
0.0
  0
LINE
  5
377
330
1F
100
AcDbEntity
  8
0
  6
Continuous
 62
     7
370
    25
100
AcDbLine
 10
43.4329285514
 20
122.9451605528
 30
0.0
 11
43.4329285514
 21
124.9680885446
 31
0.0
  0
LINE
  5
378
330
1F
100
AcDbEntity
  8
0
  6
Continuous
 62
     7
370
    25
100
AcDbLine
 10
47.6829285514
 20
122.9451605528
 30
0.0
 11
47.6829285514
 21
122.3008672329
 31
0.0
  0
LINE
  5
379
330
1F
100
AcDbEntity
  8
0
  6
Continuous
 62
     7
370
    25
100
AcDbLine
 10
43.4329285514
 20
122.167915682
 30
0.0
 11
43.4329285514
 21
122.9451605528
 31
0.0
  0
LINE
  5
37A
330
1F
100
AcDbEntity
  8
0
  6
Continuous
 62
     7
370
    25
100
AcDbLine
 10
47.6829285514
 20
125.4680885446
 30
0.0
 11
43.4329285514
 21
125.4680885446
 31
0.0
  0
LINE
  5
37B
330
1F
100
AcDbEntity
  8
0
  6
Continuous
 62
     7
370
    25
100
AcDbLine
 10
47.6829285514
 20
125.4680885446
 30
0.0
 11
47.6829285514
 21
124.9680885446
 31
0.0
  0
LINE
  5
37C
330
1F
100
AcDbEntity
  8
0
  6
Continuous
 62
     7
370
    25
100
AcDbLine
 10
43.4329285514
 20
124.9680885446
 30
0.0
 11
43.4329285514
 21
125.4680885446
 31
0.0
  0
LINE
  5
37D
330
1F
100
AcDbEntity
  8
0
  6
Continuous
 62
     7
370
    25
100
AcDbLine
 10
74.6829285514
 20
122.9451605528
 30
0.0
 11
78.9329285514
 21
122.9451605528
 31
0.0
  0
LINE
  5
37E
330
1F
100
AcDbEntity
  8
0
  6
Continuous
 62
     7
370
    25
100
AcDbLine
 10
78.9329285514
 20
122.9451605528
 30
0.0
 11
78.9329285514
 21
122.167915682
 31
0.0
  0
LINE
  5
37F
330
1F
100
AcDbEntity
  8
0
  6
Continuous
 62
     7
370
    25
100
AcDbLine
 10
74.6829285514
 20
122.3008672329
 30
0.0
 11
74.6829285514
 21
122.9451605528
 31
0.0
  0
LINE
  5
380
330
1F
100
AcDbEntity
  8
0
  6
Continuous
 62
     7
370
    25
100
AcDbLine
 10
74.6829285514
 20
124.9680885446
 30
0.0
 11
78.9329285514
 21
124.9680885446
 31
0.0
  0
LINE
  5
381
330
1F
100
AcDbEntity
  8
0
  6
Continuous
 62
     7
370
    25
100
AcDbLine
 10
78.9329285514
 20
124.9680885446
 30
0.0
 11
78.9329285514
 21
122.9451605528
 31
0.0
  0
LINE
  5
382
330
1F
100
AcDbEntity
  8
0
  6
Continuous
 62
     7
370
    25
100
AcDbLine
 10
74.6829285514
 20
122.9451605528
 30
0.0
 11
74.6829285514
 21
124.9680885446
 31
0.0
  0
LINE
  5
383
330
1F
100
AcDbEntity
  8
0
  6
Continuous
 62
     7
370
    25
100
AcDbLine
 10
74.6829285514
 20
125.4680885446
 30
0.0
 11
78.9329285514
 21
125.4680885446
 31
0.0
  0
LINE
  5
384
330
1F
100
AcDbEntity
  8
0
  6
Continuous
 62
     7
370
    25
100
AcDbLine
 10
78.9329285514
 20
125.4680885446
 30
0.0
 11
78.9329285514
 21
124.9680885446
 31
0.0
  0
LINE
  5
385
330
1F
100
AcDbEntity
  8
0
  6
Continuous
 62
     7
370
    25
100
AcDbLine
 10
74.6829285514
 20
124.9680885446
 30
0.0
 11
74.6829285514
 21
125.4680885446
 31
0.0
  0
LINE
  5
386
330
1F
100
AcDbEntity
  8
0
  6
Continuous
 62
     7
370
    25
100
AcDbLine
 10
43.4329285514
 20
121.9351458302
 30
0.0
 11
43.4329285514
 21
122.167915682
 31
0.0
  0
LINE
  5
387
330
1F
100
AcDbEntity
  8
0
  6
Continuous
 62
     7
370
    25
100
AcDbLine
 10
78.9329285514
 20
122.167915682
 30
0.0
 11
78.9329285514
 21
121.9351458302
 31
0.0
  0
LINE
  5
388
330
1F
100
AcDbEntity
  8
0
  6
Continuous
 62
     7
370
    25
100
AcDbLine
 10
68.8829285514
 20
123.8680885446
 30
0.0
 11
68.5329285514
 21
123.8680885446
 31
0.0
  0
LINE
  5
389
330
1F
100
AcDbEntity
  8
0
  6
Continuous
 62
     7
370
    25
100
AcDbLine
 10
65.1329285514
 20
123.8680885446
 30
0.0
 11
64.7829285514
 21
123.8680885446
 31
0.0
  0
LINE
  5
38A
330
1F
100
AcDbEntity
  8
0
  6
Continuous
 62
     7
370
    25
100
AcDbLine
 10
47.6829285514
 20
125.4680885446
 30
0.0
 11
74.6829285514
 21
125.4680885446
 31
0.0
  0
LINE
  5
38B
330
1F
100
AcDbEntity
  8
0
  6
Continuous
 62
     7
370
    25
100
AcDbLine
 10
43.4329285514
 20
106.4680885446
 30
0.0
 11
43.8576661873
 21
106.4680885446
 31
0.0
  0
LINE
  5
38C
330
1F
100
AcDbEntity
  8
0
  6
Continuous
 62
     7
370
    25
100
AcDbLine
 10
43.4329285514
 20
106.9623846467
 30
0.0
 11
43.4329285514
 21
106.4680885446
 31
0.0
  0
LINE
  5
38D
330
1F
100
AcDbEntity
  8
0
  6
Continuous
 62
     7
370
    25
100
AcDbLine
 10
78.5081909155
 20
106.4680885446
 30
0.0
 11
78.9329285514
 21
106.4680885446
 31
0.0
  0
LINE
  5
38E
330
1F
100
AcDbEntity
  8
0
  6
Continuous
 62
     7
370
    25
100
AcDbLine
 10
78.9329285514
 20
106.4680885446
 30
0.0
 11
78.9329285514
 21
106.9623846467
 31
0.0
  0
ARC
  5
38F
330
1F
100
AcDbEntity
  8
0
  6
Continuous
 62
     7
370
    25
100
AcDbCircle
 10
40.0329285514
 20
145.6680885446
 30
0.0
 40
0.5000000000000057
100
AcDbArc
 50
216.8698976459
 51
323.1301023542
  0
LINE
  5
390
330
1F
100
AcDbEntity
  8
0
  6
Continuous
 62
     7
370
    25
100
AcDbLine
 10
35.4329285514
 20
150.9680885446
 30
0.0
 11
34.4329285514
 21
150.9680885446
 31
0.0
  0
ARC
  5
391
330
1F
100
AcDbEntity
  8
0
  6
Continuous
 62
     7
370
    25
100
AcDbCircle
 10
35.4329285514
 20
150.9680885446
 30
0.0
 40
1.0
100
AcDbArc
 50
90.0
 51
180.0
  0
LINE
  5
392
330
1F
100
AcDbEntity
  8
0
  6
Continuous
 62
     7
370
    25
100
AcDbLine
 10
35.4329285514
 20
151.9680885446
 30
0.0
 11
35.4329285514
 21
150.9680885446
 31
0.0
  0
LINE
  5
393
330
1F
100
AcDbEntity
  8
0
  6
Continuous
 62
     7
370
    25
100
AcDbLine
 10
35.4329285514
 20
127.4680885446
 30
0.0
 11
163.4329285514
 21
127.4680885446
 31
0.0
  0
LINE
  5
394
330
1F
100
AcDbEntity
  8
0
  6
Continuous
 62
     7
370
    25
100
AcDbLine
 10
163.4329285514
 20
127.4680885446
 30
0.0
 11
163.4329285514
 21
126.4680885446
 31
0.0
  0
LINE
  5
395
330
1F
100
AcDbEntity
  8
0
  6
Continuous
 62
     7
370
    25
100
AcDbLine
 10
163.4329285514
 20
126.4680885446
 30
0.0
 11
35.4329285514
 21
126.4680885446
 31
0.0
  0
LINE
  5
396
330
1F
100
AcDbEntity
  8
0
  6
Continuous
 62
     7
370
    25
100
AcDbLine
 10
35.4329285514
 20
127.4680885446
 30
0.0
 11
35.4329285514
 21
126.4680885446
 31
0.0
  0
LINE
  5
397
330
1F
100
AcDbEntity
  8
0
  6
Continuous
 62
     7
370
    25
100
AcDbLine
 10
163.4329285514
 20
150.9680885446
 30
0.0
 11
35.4329285514
 21
150.9680885446
 31
0.0
  0
LINE
  5
398
330
1F
100
AcDbEntity
  8
0
  6
Continuous
 62
     7
370
    25
100
AcDbLine
 10
163.4329285514
 20
127.4680885446
 30
0.0
 11
163.4329285514
 21
150.9680885446
 31
0.0
  0
LINE
  5
399
330
1F
100
AcDbEntity
  8
0
  6
Continuous
 62
     7
370
    25
100
AcDbLine
 10
35.4329285514
 20
150.9680885446
 30
0.0
 11
35.4329285514
 21
127.4680885446
 31
0.0
  0
CIRCLE
  5
39A
330
1F
100
AcDbEntity
  8
0
  6
Continuous
 62
     7
370
    25
100
AcDbCircle
 10
84.7329285514
 20
142.7680885446
 30
0.0
 40
0.7999999999999972
  0
CIRCLE
  5
39B
330
1F
100
AcDbEntity
  8
0
  6
Continuous
 62
     7
370
    25
100
AcDbCircle
 10
133.5329285514
 20
146.7680885446
 30
0.0
 40
0.8000000000000114
  0
CIRCLE
  5
39C
330
1F
100
AcDbEntity
  8
0
  6
Continuous
 62
     7
370
    25
100
AcDbCircle
 10
131.0329285514
 20
146.7680885446
 30
0.0
 40
0.8000000000000114
  0
CIRCLE
  5
39D
330
1F
100
AcDbEntity
  8
0
  6
Continuous
 62
     7
370
    25
100
AcDbCircle
 10
128.5329285514
 20
146.7680885446
 30
0.0
 40
0.8000000000000114
  0
CIRCLE
  5
39E
330
1F
100
AcDbEntity
  8
0
  6
Continuous
 62
     7
370
    25
100
AcDbCircle
 10
100.4329285514
 20
140.7680885446
 30
0.0
 40
5.0
  0
CIRCLE
  5
39F
330
1F
100
AcDbEntity
  8
0
  6
Continuous
 62
     7
370
    25
100
AcDbCircle
 10
113.4329285514
 20
140.7680885446
 30
0.0
 40
4.999999999999986
  0
LINE
  5
3A0
330
1F
100
AcDbEntity
  8
0
  6
Continuous
 62
     7
370
    25
100
AcDbLine
 10
56.2329285514
 20
134.4680885446
 30
0.0
 11
56.2329285514
 21
145.5680885446
 31
0.0
  0
ARC
  5
3A1
330
1F
100
AcDbEntity
  8
0
  6
Continuous
 62
     7
370
    25
100
AcDbCircle
 10
55.2329285514
 20
145.5680885446
 30
0.0
 40
1.000000000000014
100
AcDbArc
 50
0.0
 51
90.0
  0
ARC
  5
3A2
330
1F
100
AcDbEntity
  8
0
  6
Continuous
 62
     7
370
    25
100
AcDbCircle
 10
40.6329285514
 20
145.5680885446
 30
0.0
 40
1.000000000000028
100
AcDbArc
 50
90.0
 51
180.0
  0
LINE
  5
3A3
330
1F
100
AcDbEntity
  8
0
  6
Continuous
 62
     7
370
    25
100
AcDbLine
 10
40.6329285514
 20
133.4680885446
 30
0.0
 11
55.2329285514
 21
133.4680885446
 31
0.0
  0
LINE
  5
3A4
330
1F
100
AcDbEntity
  8
0
  6
Continuous
 62
     7
370
    25
100
AcDbLine
 10
74.2329285514
 20
134.4680885446
 30
0.0
 11
74.2329285514
 21
145.5680885446
 31
0.0
  0
ARC
  5
3A5
330
1F
100
AcDbEntity
  8
0
  6
Continuous
 62
     7
370
    25
100
AcDbCircle
 10
73.2329285514
 20
145.5680885446
 30
0.0
 40
1.000000000000014
100
AcDbArc
 50
0.0
 51
90.0
  0
LINE
  5
3A6
330
1F
100
AcDbEntity
  8
0
  6
Continuous
 62
     7
370
    25
100
AcDbLine
 10
58.6329285514
 20
133.4680885446
 30
0.0
 11
73.2329285514
 21
133.4680885446
 31
0.0
  0
ARC
  5
3A7
330
1F
100
AcDbEntity
  8
0
  6
Continuous
 62
     7
370
    25
100
AcDbCircle
 10
73.2329285514
 20
134.4680885446
 30
0.0
 40
1.0
100
AcDbArc
 50
270.0
 51
0.0
  0
LINE
  5
3A8
330
1F
100
AcDbEntity
  8
0
  6
Continuous
 62
     7
370
    25
100
AcDbLine
 10
157.0829285514
 20
146.5680885446
 30
0.0
 11
149.7829285514
 21
146.5680885446
 31
0.0
  0
ARC
  5
3A9
330
1F
100
AcDbEntity
  8
0
  6
Continuous
 62
     7
370
    25
100
AcDbCircle
 10
149.7829285514
 20
145.5680885446
 30
0.0
 40
1.0
100
AcDbArc
 50
90.0
 51
180.0
  0
LINE
  5
3AA
330
1F
100
AcDbEntity
  8
0
  6
Continuous
 62
     7
370
    25
100
AcDbLine
 10
148.7829285514
 20
145.5680885446
 30
0.0
 11
148.7829285514
 21
142.0680885446
 31
0.0
  0
ARC
  5
3AB
330
1F
100
AcDbEntity
  8
0
  6
Continuous
 62
     7
370
    25
100
AcDbCircle
 10
149.7829285514
 20
142.0680885446
 30
0.0
 40
1.0
100
AcDbArc
 50
180.0
 51
270.0
  0
LINE
  5
3AC
330
1F
100
AcDbEntity
  8
0
  6
Continuous
 62
     7
370
    25
100
AcDbLine
 10
149.7829285514
 20
141.0680885446
 30
0.0
 11
157.0829285514
 21
141.0680885446
 31
0.0
  0
ARC
  5
3AD
330
1F
100
AcDbEntity
  8
0
  6
Continuous
 62
     7
370
    25
100
AcDbCircle
 10
157.0829285514
 20
145.5680885446
 30
0.0
 40
1.000000000000028
100
AcDbArc
 50
0.0
 51
90.0
  0
CIRCLE
  5
3AE
330
1F
100
AcDbEntity
  8
0
  6
Continuous
 62
     7
370
    25
100
AcDbCircle
 10
82.2329285514
 20
142.7680885446
 30
0.0
 40
0.7999999999999972
  0
LINE
  5
3AF
330
1F
100
AcDbEntity
  8
0
  6
Continuous
 62
     7
370
    25
100
AcDbLine
 10
55.2329285514
 20
146.5680885446
 30
0.0
 11
40.6329285514
 21
146.5680885446
 31
0.0
  0
ARC
  5
3B0
330
1F
100
AcDbEntity
  8
0
  6
Continuous
 62
     7
370
    25
100
AcDbCircle
 10
55.2329285514
 20
134.4680885446
 30
0.0
 40
1.000000000000007
100
AcDbArc
 50
270.0
 51
0.0
  0
CIRCLE
  5
3B1
330
1F
100
AcDbEntity
  8
0
  6
Continuous
 62
     7
370
    25
100
AcDbCircle
 10
131.0329285514
 20
142.7680885446
 30
0.0
 40
0.8000000000000114
  0
ARC
  5
3B2
330
1F
100
AcDbEntity
  8
0
  6
Continuous
 62
     7
370
    25
100
AcDbCircle
 10
58.6329285514
 20
134.4680885446
 30
0.0
 40
1.000000000000014
100
AcDbArc
 50
180.0
 51
270.0
  0
CIRCLE
  5
3B3
330
1F
100
AcDbEntity
  8
0
  6
Continuous
 62
     7
370
    25
100
AcDbCircle
 10
141.0329285514
 20
146.7680885446
 30
0.0
 40
0.799999999999983
  0
LINE
  5
3B4
330
1F
100
AcDbEntity
  8
0
  6
Continuous
 62
     7
370
    25
100
AcDbLine
 10
57.6329285514
 20
145.5680885446
 30
0.0
 11
57.6329285514
 21
134.4680885446
 31
0.0
  0
CIRCLE
  5
3B5
330
1F
100
AcDbEntity
  8
0
  6
Continuous
 62
     7
370
    25
100
AcDbCircle
 10
126.0329285514
 20
146.7680885446
 30
0.0
 40
0.7999999999999972
  0
CIRCLE
  5
3B6
330
1F
100
AcDbEntity
  8
0
  6
Continuous
 62
     7
370
    25
100
AcDbCircle
 10
123.5329285514
 20
146.7680885446
 30
0.0
 40
0.7999999999999972
  0
ARC
  5
3B7
330
1F
100
AcDbEntity
  8
0
  6
Continuous
 62
     7
370
    25
100
AcDbCircle
 10
157.0829285514
 20
142.0680885446
 30
0.0
 40
1.0
100
AcDbArc
 50
270.0
 51
0.0
  0
LINE
  5
3B8
330
1F
100
AcDbEntity
  8
0
  6
Continuous
 62
     7
370
    25
100
AcDbLine
 10
158.0829285514
 20
142.0680885446
 30
0.0
 11
158.0829285514
 21
145.5680885446
 31
0.0
  0
CIRCLE
  5
3B9
330
1F
100
AcDbEntity
  8
0
  6
Continuous
 62
     7
370
    25
100
AcDbCircle
 10
138.5329285514
 20
142.7680885446
 30
0.0
 40
0.799999999999983
  0
CIRCLE
  5
3BA
330
1F
100
AcDbEntity
  8
0
  6
Continuous
 62
     7
370
    25
100
AcDbCircle
 10
126.0329285514
 20
142.7680885446
 30
0.0
 40
0.7999999999999972
  0
CIRCLE
  5
3BB
330
1F
100
AcDbEntity
  8
0
  6
Continuous
 62
     7
370
    25
100
AcDbCircle
 10
128.5329285514
 20
142.7680885446
 30
0.0
 40
0.8000000000000114
  0
CIRCLE
  5
3BC
330
1F
100
AcDbEntity
  8
0
  6
Continuous
 62
     7
370
    25
100
AcDbCircle
 10
143.5329285514
 20
142.7680885446
 30
0.0
 40
0.799999999999983
  0
ARC
  5
3BD
330
1F
100
AcDbEntity
  8
0
  6
Continuous
 62
     7
370
    25
100
AcDbCircle
 10
58.6329285514
 20
145.5680885446
 30
0.0
 40
1.000000000000007
100
AcDbArc
 50
90.0
 51
180.0
  0
CIRCLE
  5
3BE
330
1F
100
AcDbEntity
  8
0
  6
Continuous
 62
     7
370
    25
100
AcDbCircle
 10
141.0329285514
 20
142.7680885446
 30
0.0
 40
0.799999999999983
  0
CIRCLE
  5
3BF
330
1F
100
AcDbEntity
  8
0
  6
Continuous
 62
     7
370
    25
100
AcDbCircle
 10
133.5329285514
 20
142.7680885446
 30
0.0
 40
0.8000000000000114
  0
ARC
  5
3C0
330
1F
100
AcDbEntity
  8
0
  6
Continuous
 62
     7
370
    25
100
AcDbCircle
 10
40.6329285514
 20
134.4680885446
 30
0.0
 40
1.000000000000021
100
AcDbArc
 50
180.0
 51
270.0
  0
CIRCLE
  5
3C1
330
1F
100
AcDbEntity
  8
0
  6
Continuous
 62
     7
370
    25
100
AcDbCircle
 10
138.5329285514
 20
146.7680885446
 30
0.0
 40
0.799999999999983
  0
LINE
  5
3C2
330
1F
100
AcDbEntity
  8
0
  6
Continuous
 62
     7
370
    25
100
AcDbLine
 10
39.6329285514
 20
145.5680885446
 30
0.0
 11
39.6329285514
 21
134.4680885446
 31
0.0
  0
CIRCLE
  5
3C3
330
1F
100
AcDbEntity
  8
0
  6
Continuous
 62
     7
370
    25
100
AcDbCircle
 10
136.0329285514
 20
146.7680885446
 30
0.0
 40
0.799999999999983
  0
CIRCLE
  5
3C4
330
1F
100
AcDbEntity
  8
0
  6
Continuous
 62
     7
370
    25
100
AcDbCircle
 10
143.5329285514
 20
146.7680885446
 30
0.0
 40
0.799999999999983
  0
LINE
  5
3C5
330
1F
100
AcDbEntity
  8
0
  6
Continuous
 62
     7
370
    25
100
AcDbLine
 10
73.2329285514
 20
146.5680885446
 30
0.0
 11
58.6329285514
 21
146.5680885446
 31
0.0
  0
CIRCLE
  5
3C6
330
1F
100
AcDbEntity
  8
0
  6
Continuous
 62
     7
370
    25
100
AcDbCircle
 10
136.0329285514
 20
142.7680885446
 30
0.0
 40
0.8000000000000114
  0
CIRCLE
  5
3C7
330
1F
100
AcDbEntity
  8
0
  6
Continuous
 62
     7
370
    25
100
AcDbCircle
 10
79.7329285514
 20
142.7680885446
 30
0.0
 40
0.799999999999983
  0
CIRCLE
  5
3C8
330
1F
100
AcDbEntity
  8
0
  6
Continuous
 62
     7
370
    25
100
AcDbCircle
 10
89.7329285514
 20
142.7680885446
 30
0.0
 40
0.7999999999999972
  0
CIRCLE
  5
3C9
330
1F
100
AcDbEntity
  8
0
  6
Continuous
 62
     7
370
    25
100
AcDbCircle
 10
87.2329285514
 20
142.7680885446
 30
0.0
 40
0.7999999999999972
  0
LINE
  5
3CA
330
1F
100
AcDbEntity
  8
0
  6
Continuous
 62
     7
370
    25
100
AcDbLine
 10
35.4329285514
 20
127.4680885446
 30
0.0
 11
34.4329285514
 21
127.4680885446
 31
0.0
  0
LINE
  5
3CB
330
1F
100
AcDbEntity
  8
0
  6
Continuous
 62
     7
370
    25
100
AcDbLine
 10
34.4329285514
 20
127.4680885446
 30
0.0
 11
34.4329285514
 21
150.9680885446
 31
0.0
  0
LINE
  5
3CC
330
1F
100
AcDbEntity
  8
0
  6
Continuous
 62
     7
370
    25
100
AcDbLine
 10
164.4329285514
 20
150.9680885446
 30
0.0
 11
164.4329285514
 21
127.4680885446
 31
0.0
  0
LINE
  5
3CD
330
1F
100
AcDbEntity
  8
0
  6
Continuous
 62
     7
370
    25
100
AcDbLine
 10
164.4329285514
 20
127.4680885446
 30
0.0
 11
163.4329285514
 21
127.4680885446
 31
0.0
  0
LINE
  5
3CE
330
1F
100
AcDbEntity
  8
0
  6
Continuous
 62
     7
370
    25
100
AcDbLine
 10
164.4329285514
 20
150.9680885446
 30
0.0
 11
163.4329285514
 21
150.9680885446
 31
0.0
  0
ARC
  5
3CF
330
1F
100
AcDbEntity
  8
0
  6
Continuous
 62
     7
370
    25
100
AcDbCircle
 10
163.4329285514
 20
127.4680885446
 30
0.0
 40
1.0
100
AcDbArc
 50
270.0
 51
0.0
  0
LINE
  5
3D0
330
1F
100
AcDbEntity
  8
0
  6
Continuous
 62
     7
370
    25
100
AcDbLine
 10
35.4329285514
 20
151.9680885446
 30
0.0
 11
163.4329285514
 21
151.9680885446
 31
0.0
  0
LINE
  5
3D1
330
1F
100
AcDbEntity
  8
0
  6
Continuous
 62
     7
370
    25
100
AcDbLine
 10
163.4329285514
 20
151.9680885446
 30
0.0
 11
163.4329285514
 21
150.9680885446
 31
0.0
  0
ARC
  5
3D2
330
1F
100
AcDbEntity
  8
0
  6
Continuous
 62
     7
370
    25
100
AcDbCircle
 10
163.4329285514
 20
150.9680885446
 30
0.0
 40
1.0
100
AcDbArc
 50
0.0
 51
90.0
  0
ARC
  5
3D3
330
1F
100
AcDbEntity
  8
0
  6
Continuous
 62
     7
370
    25
100
AcDbCircle
 10
35.4329285514
 20
127.4680885446
 30
0.0
 40
1.0
100
AcDbArc
 50
180.0
 51
270.0
  0
LINE
  5
3D4
330
1F
100
AcDbEntity
  8
0
  6
Continuous
 62
     7
370
    25
100
AcDbLine
 10
35.4329285514
 20
102.9680885446
 30
0.0
 11
35.4329285514
 21
101.9680885446
 31
0.0
  0
ARC
  5
3D5
330
1F
100
AcDbEntity
  8
0
  6
Continuous
 62
     7
370
    25
100
AcDbCircle
 10
35.4329285514
 20
102.9680885446
 30
0.0
 40
1.0
100
AcDbArc
 50
180.0
 51
270.0
  0
LINE
  5
3D6
330
1F
100
AcDbEntity
  8
0
  6
Continuous
 62
     7
370
    25
100
AcDbLine
 10
35.4329285514
 20
102.9680885446
 30
0.0
 11
34.4329285514
 21
102.9680885446
 31
0.0
  0
LINE
  5
3D7
330
1F
100
AcDbEntity
  8
0
  6
Continuous
 62
     7
370
    25
100
AcDbLine
 10
35.4329285514
 20
126.4680885446
 30
0.0
 11
35.4329285514
 21
102.9680885446
 31
0.0
  0
LINE
  5
3D8
330
1F
100
AcDbEntity
  8
0
  6
Continuous
 62
     7
370
    25
100
AcDbLine
 10
163.4329285514
 20
102.9680885446
 30
0.0
 11
163.4329285514
 21
126.4680885446
 31
0.0
  0
LINE
  5
3D9
330
1F
100
AcDbEntity
  8
0
  6
Continuous
 62
     7
370
    25
100
AcDbLine
 10
35.4329285514
 20
102.9680885446
 30
0.0
 11
163.4329285514
 21
102.9680885446
 31
0.0
  0
LINE
  5
3DA
330
1F
100
AcDbEntity
  8
0
  6
Continuous
 62
     7
370
    25
100
AcDbLine
 10
154.9329285514
 20
115.4180885446
 30
0.0
 11
153.9329285514
 21
115.4180885446
 31
0.0
  0
LINE
  5
3DB
330
1F
100
AcDbEntity
  8
0
  6
Continuous
 62
     7
370
    25
100
AcDbLine
 10
153.9329285514
 20
115.4180885446
 30
0.0
 11
153.9329285514
 21
124.9680885446
 31
0.0
  0
ARC
  5
3DC
330
1F
100
AcDbEntity
  8
0
  6
Continuous
 62
     7
370
    25
100
AcDbCircle
 10
152.9329285514
 20
124.9680885446
 30
0.0
 40
1.000000000000014
100
AcDbArc
 50
0.0
 51
90.0
  0
LINE
  5
3DD
330
1F
100
AcDbEntity
  8
0
  6
Continuous
 62
     7
370
    25
100
AcDbLine
 10
152.9329285514
 20
125.9680885446
 30
0.0
 11
82.9329285514
 21
125.9680885446
 31
0.0
  0
ARC
  5
3DE
330
1F
100
AcDbEntity
  8
0
  6
Continuous
 62
     7
370
    25
100
AcDbCircle
 10
82.9329285514
 20
124.9680885446
 30
0.0
 40
1.0
100
AcDbArc
 50
90.0
 51
180.0
  0
LINE
  5
3DF
330
1F
100
AcDbEntity
  8
0
  6
Continuous
 62
     7
370
    25
100
AcDbLine
 10
81.9329285514
 20
124.9680885446
 30
0.0
 11
81.9329285514
 21
106.9680885446
 31
0.0
  0
LINE
  5
3E0
330
1F
100
AcDbEntity
  8
0
  6
Continuous
 62
     7
370
    25
100
AcDbLine
 10
82.9329285514
 20
105.9680885446
 30
0.0
 11
154.9329285514
 21
105.9680885446
 31
0.0
  0
ARC
  5
3E1
330
1F
100
AcDbEntity
  8
0
  6
Continuous
 62
     7
370
    25
100
AcDbCircle
 10
154.9329285514
 20
106.9680885446
 30
0.0
 40
1.0
100
AcDbArc
 50
270.0
 51
0.0
  0
LINE
  5
3E2
330
1F
100
AcDbEntity
  8
0
  6
Continuous
 62
     7
370
    25
100
AcDbLine
 10
155.9329285514
 20
106.9680885446
 30
0.0
 11
155.9329285514
 21
114.4180885446
 31
0.0
  0
LINE
  5
3E3
330
1F
100
AcDbEntity
  8
0
  6
Continuous
 62
     7
370
    25
100
AcDbLine
 10
42.9329285514
 20
124.9680885446
 30
0.0
 11
42.9329285514
 21
106.9620885446
 31
0.0
  0
LINE
  5
3E4
330
1F
100
AcDbEntity
  8
0
  6
Continuous
 62
     7
370
    25
100
AcDbLine
 10
43.9329285514
 20
105.9620885446
 30
0.0
 11
78.4359285514
 21
105.9620885446
 31
0.0
  0
ARC
  5
3E5
330
1F
100
AcDbEntity
  8
0
  6
Continuous
 62
     7
370
    25
100
AcDbCircle
 10
78.4359285514
 20
106.9620885446
 30
0.0
 40
1.000000000000014
100
AcDbArc
 50
270.0
 51
0.0
  0
LINE
  5
3E6
330
1F
100
AcDbEntity
  8
0
  6
Continuous
 62
     7
370
    25
100
AcDbLine
 10
79.4359285514
 20
106.9620885446
 30
0.0
 11
79.4359285514
 21
124.9680885446
 31
0.0
  0
ARC
  5
3E7
330
1F
100
AcDbEntity
  8
0
  6
Continuous
 62
     7
370
    25
100
AcDbCircle
 10
78.4359285514
 20
124.9680885446
 30
0.0
 40
1.000000000000014
100
AcDbArc
 50
0.0
 51
90.0
  0
ARC
  5
3E8
330
1F
100
AcDbEntity
  8
0
  6
Continuous
 62
     7
370
    25
100
AcDbCircle
 10
82.9329285514
 20
106.9680885446
 30
0.0
 40
1.0
100
AcDbArc
 50
180.0
 51
270.0
  0
ARC
  5
3E9
330
1F
100
AcDbEntity
  8
0
  6
Continuous
 62
     7
370
    25
100
AcDbCircle
 10
154.9329285514
 20
114.4180885446
 30
0.0
 40
1.0
100
AcDbArc
 50
0.0
 51
90.0
  0
ARC
  5
3EA
330
1F
100
AcDbEntity
  8
0
  6
Continuous
 62
     7
370
    25
100
AcDbCircle
 10
43.9329285514
 20
124.9680885446
 30
0.0
 40
1.000000000000014
100
AcDbArc
 50
90.0
 51
180.0
  0
ARC
  5
3EB
330
1F
100
AcDbEntity
  8
0
  6
Continuous
 62
     7
370
    25
100
AcDbCircle
 10
43.9329285514
 20
106.9620885446
 30
0.0
 40
1.000000000000007
100
AcDbArc
 50
180.0
 51
270.0
  0
LINE
  5
3EC
330
1F
100
AcDbEntity
  8
0
  6
Continuous
 62
     7
370
    25
100
AcDbLine
 10
78.4359285514
 20
125.9680885446
 30
0.0
 11
43.9329285514
 21
125.9680885446
 31
0.0
  0
LINE
  5
3ED
330
1F
100
AcDbEntity
  8
0
  6
Continuous
 62
     7
370
    25
100
AcDbLine
 10
163.4329285514
 20
102.9680885446
 30
0.0
 11
163.4329285514
 21
101.9680885446
 31
0.0
  0
LINE
  5
3EE
330
1F
100
AcDbEntity
  8
0
  6
Continuous
 62
     7
370
    25
100
AcDbLine
 10
163.4329285514
 20
101.9680885446
 30
0.0
 11
35.4329285514
 21
101.9680885446
 31
0.0
  0
LINE
  5
3EF
330
1F
100
AcDbEntity
  8
0
  6
Continuous
 62
     7
370
    25
100
AcDbLine
 10
163.4329285514
 20
102.9680885446
 30
0.0
 11
164.4329285514
 21
102.9680885446
 31
0.0
  0
LINE
  5
3F0
330
1F
100
AcDbEntity
  8
0
  6
Continuous
 62
     7
370
    25
100
AcDbLine
 10
164.4329285514
 20
127.4680885446
 30
0.0
 11
164.4329285514
 21
102.9680885446
 31
0.0
  0
ARC
  5
3F1
330
1F
100
AcDbEntity
  8
0
  6
Continuous
 62
     7
370
    25
100
AcDbCircle
 10
163.4329285514
 20
102.9680885446
 30
0.0
 40
1.0
100
AcDbArc
 50
270.0
 51
0.0
  0
LINE
  5
3F2
330
1F
100
AcDbEntity
  8
0
  6
Continuous
 62
     7
370
    25
100
AcDbLine
 10
34.4329285514
 20
102.9680885446
 30
0.0
 11
34.4329285514
 21
127.4680885446
 31
0.0
  0
LWPOLYLINE
  5
3F3
330
1F
100
AcDbEntity
  8
0
  6
Continuous
 62
     7
370
    25
100
AcDbPolyline
 90
        3
 70
   128
 43
0.0
 10
95.8329285514
 20
101.5180885446
 10
95.7796442242
 20
101.7859669472
 10
95.6691188162
 20
101.9680885446
  0
ARC
  5
3F4
330
1F
100
AcDbEntity
  8
0
  6
Continuous
 62
     7
370
    25
100
AcDbCircle
 10
95.1329285514
 20
101.5180885446
 30
0.0
 40
0.7000000000000094
100
AcDbArc
 50
139.9947991151
 51
0.0
  0
LINE
  5
3F5
330
1F
100
AcDbEntity
  8
0
  6
Continuous
 62
     7
370
    25
100
AcDbLine
 10
89.6329285514
 20
124.617806914
 30
0.0
 11
89.8329285514
 21
124.617806914
 31
0.0
  0
LINE
  5
3F6
330
1F
100
AcDbEntity
  8
0
  6
Continuous
 62
     7
370
    25
100
AcDbLine
 10
151.6329285514
 20
124.617806914
 30
0.0
 11
151.4329285514
 21
124.617806914
 31
0.0
  0
ARC
  5
3F7
330
1F
100
AcDbEntity
  8
0
  6
Continuous
 62
     7
370
    25
100
AcDbCircle
 10
152.2329285514
 20
111.1180885446
 30
0.0
 40
2.216666666666675
100
AcDbArc
 50
302.7758171269
 51
347.3319134613
  0
ARC
  5
3F8
330
1F
100
AcDbEntity
  8
0
  6
Continuous
 62
     7
370
    25
100
AcDbCircle
 10
152.2329285514
 20
111.1180885446
 30
0.0
 40
2.216666666666646
100
AcDbArc
 50
12.9992129333
 51
57.2241828731
  0
LINE
  5
3F9
330
1F
100
AcDbEntity
  8
0
  6
Continuous
 62
     7
370
    25
100
AcDbLine
 10
153.3207728778
 20
122.167915682
 30
0.0
 11
153.4329285514
 21
122.167915682
 31
0.0
  0
LINE
  5
3FA
330
1F
100
AcDbEntity
  8
0
  6
Continuous
 62
     7
370
    25
100
AcDbLine
 10
47.6829285514
 20
124.6172770501
 30
0.0
 11
47.8829285514
 21
124.6172770501
 31
0.0
  0
LINE
  5
3FB
330
1F
100
AcDbEntity
  8
0
  6
Continuous
 62
     7
370
    25
100
AcDbLine
 10
74.6829285514
 20
124.6172770501
 30
0.0
 11
74.4829285514
 21
124.6172770501
 31
0.0
  0
LINE
  5
3FC
330
1F
100
AcDbEntity
  8
0
  6
Continuous
 62
     7
370
    25
100
AcDbLine
 10
78.8128544885
 20
122.167915682
 30
0.0
 11
78.9329285514
 21
122.167915682
 31
0.0
  0
LINE
  5
3FD
330
1F
100
AcDbEntity
  8
0
  6
Continuous
 62
     7
370
    25
100
AcDbLine
 10
206.129135522
 20
143.5180885446
 30
0.0
 11
205.929135522
 21
143.5180885446
 31
0.0
  0
LINE
  5
3FE
330
1F
100
AcDbEntity
  8
0
  6
Continuous
 62
     7
370
    25
100
AcDbLine
 10
205.929135522
 20
142.0180885446
 30
0.0
 11
206.129135522
 21
142.0180885446
 31
0.0
  0
ARC
  5
3FF
330
1F
100
AcDbEntity
  8
0
  6
Continuous
 62
     7
370
    25
100
AcDbCircle
 10
205.929135522
 20
142.2180885446
 30
0.0
 40
0.2000000000000171
100
AcDbArc
 50
180.0
 51
270.0
  0
ARC
  5
400
330
1F
100
AcDbEntity
  8
0
  6
Continuous
 62
     7
370
    25
100
AcDbCircle
 10
205.929135522
 20
143.3180885446
 30
0.0
 40
0.2000000000000171
100
AcDbArc
 50
90.0
 51
180.0
  0
LINE
  5
401
330
1F
100
AcDbEntity
  8
0
  6
Continuous
 62
     7
370
    25
100
AcDbLine
 10
206.129135522
 20
147.5180885446
 30
0.0
 11
205.929135522
 21
147.5180885446
 31
0.0
  0
LINE
  5
402
330
1F
100
AcDbEntity
  8
0
  6
Continuous
 62
     7
370
    25
100
AcDbLine
 10
205.929135522
 20
146.0180885446
 30
0.0
 11
206.129135522
 21
146.0180885446
 31
0.0
  0
ARC
  5
403
330
1F
100
AcDbEntity
  8
0
  6
Continuous
 62
     7
370
    25
100
AcDbCircle
 10
205.929135522
 20
146.2180885446
 30
0.0
 40
0.2000000000000455
100
AcDbArc
 50
180.0
 51
270.0
  0
ARC
  5
404
330
1F
100
AcDbEntity
  8
0
  6
Continuous
 62
     7
370
    25
100
AcDbCircle
 10
205.929135522
 20
147.3180885446
 30
0.0
 40
0.2000000000000455
100
AcDbArc
 50
90.0
 51
180.0
  0
LINE
  5
405
330
1F
100
AcDbEntity
  8
0
  6
Continuous
 62
     7
370
    25
100
AcDbLine
 10
264.229135522
 20
100.6180885446
 30
0.0
 11
265.529135522
 21
100.6180885446
 31
0.0
  0
ARC
  5
406
330
1F
100
AcDbEntity
  8
0
  6
Continuous
 62
     7
370
    25
100
AcDbCircle
 10
264.229135522
 20
100.8180885446
 30
0.0
 40
0.2000000000000028
100
AcDbArc
 50
180.0
 51
270.0
  0
ARC
  5
407
330
1F
100
AcDbEntity
  8
0
  6
Continuous
 62
     7
370
    25
100
AcDbCircle
 10
235.4379142119
 20
113.0180885446
 30
0.0
 40
1.0
100
AcDbArc
 50
90.0
 51
161.5385417032
  0
ARC
  5
408
330
1F
100
AcDbEntity
  8
0
  6
Continuous
 62
     7
370
    25
100
AcDbCircle
 10
235.4379142119
 20
109.2180885446
 30
0.0
 40
1.00000000000001
100
AcDbArc
 50
198.4614582968
 51
270.0
  0
LINE
  5
409
330
1F
100
AcDbEntity
  8
0
  6
Continuous
 62
     7
370
    25
100
AcDbLine
 10
236.529135522
 20
114.0180885446
 30
0.0
 11
235.4379142119
 21
114.0180885446
 31
0.0
  0
LINE
  5
40A
330
1F
100
AcDbEntity
  8
0
  6
Continuous
 62
     7
370
    25
100
AcDbLine
 10
235.4379142119
 20
108.2180885446
 30
0.0
 11
236.529135522
 21
108.2180885446
 31
0.0
  0
ARC
  5
40B
330
1F
100
AcDbEntity
  8
0
  6
Continuous
 62
     7
370
    25
100
AcDbCircle
 10
241.129135522
 20
111.1180885446
 30
0.0
 40
7.000000000000004
100
AcDbArc
 50
194.2015900581
 51
198.4614582968
  0
ARC
  5
40C
330
1F
100
AcDbEntity
  8
0
  6
Continuous
 62
     7
370
    25
100
AcDbCircle
 10
241.129135522
 20
111.1180885446
 30
0.0
 40
7.000000000000004
100
AcDbArc
 50
161.5385417032
 51
165.7984099419
  0
ARC
  5
40D
330
1F
100
AcDbEntity
  8
0
  6
Continuous
 62
     7
370
    25
100
AcDbCircle
 10
272.329135522
 20
116.2680885446
 30
0.0
 40
2.0
100
AcDbArc
 50
270.0
 51
0.0
  0
LINE
  5
40E
330
1F
100
AcDbEntity
  8
0
  6
PHANTOM
 62
     7
370
    25
100
AcDbLine
 10
274.329135522
 20
137.6680885446
 30
0.0
 11
274.329135522
 21
116.2680885446
 31
0.0
  0
ARC
  5
40F
330
1F
100
AcDbEntity
  8
0
  6
Continuous
 62
     7
370
    25
100
AcDbCircle
 10
272.329135522
 20
137.6680885446
 30
0.0
 40
2.0
100
AcDbArc
 50
0.0
 51
90.0
  0
LINE
  5
410
330
1F
100
AcDbEntity
  8
0
  6
Continuous
 62
     7
370
    25
100
AcDbLine
 10
268.529135522
 20
139.6680885446
 30
0.0
 11
272.329135522
 21
139.6680885446
 31
0.0
  0
ARC
  5
411
330
1F
100
AcDbEntity
  8
0
  6
Continuous
 62
     7
370
    25
100
AcDbCircle
 10
268.529135522
 20
140.6680885446
 30
0.0
 40
1.0
100
AcDbArc
 50
180.0
 51
270.0
  0
LINE
  5
412
330
1F
100
AcDbEntity
  8
0
  6
Continuous
 62
     7
370
    25
100
AcDbLine
 10
267.529135522
 20
144.4680885446
 30
0.0
 11
267.529135522
 21
140.6680885446
 31
0.0
  0
LINE
  5
413
330
1F
100
AcDbEntity
  8
0
  6
Continuous
 62
     7
370
    25
100
AcDbLine
 10
268.329135522
 20
144.4680885446
 30
0.0
 11
267.529135522
 21
144.4680885446
 31
0.0
  0
LINE
  5
414
330
1F
100
AcDbEntity
  8
0
  6
Continuous
 62
     7
370
    25
100
AcDbLine
 10
268.329135522
 20
142.4680885446
 30
0.0
 11
268.329135522
 21
144.4680885446
 31
0.0
  0
LINE
  5
415
330
1F
100
AcDbEntity
  8
0
  6
Continuous
 62
     7
370
    25
100
AcDbLine
 10
269.829135522
 20
140.4680885446
 30
0.0
 11
268.329135522
 21
142.4680885446
 31
0.0
  0
LINE
  5
416
330
1F
100
AcDbEntity
  8
0
  6
Continuous
 62
     7
370
    25
100
AcDbLine
 10
274.129135522
 20
140.4680885446
 30
0.0
 11
269.829135522
 21
140.4680885446
 31
0.0
  0
ARC
  5
417
330
1F
100
AcDbEntity
  8
0
  6
Continuous
 62
     7
370
    25
100
AcDbCircle
 10
274.129135522
 20
139.4680885446
 30
0.0
 40
1.0
100
AcDbArc
 50
0.0
 51
90.0
  0
LINE
  5
418
330
1F
100
AcDbEntity
  8
0
  6
PHANTOM
 62
     7
370
    25
100
AcDbLine
 10
275.129135522
 20
114.4680885446
 30
0.0
 11
275.129135522
 21
139.4680885446
 31
0.0
  0
ARC
  5
419
330
1F
100
AcDbEntity
  8
0
  6
Continuous
 62
     7
370
    25
100
AcDbCircle
 10
274.129135522
 20
114.4680885446
 30
0.0
 40
1.0
100
AcDbArc
 50
270.0
 51
0.0
  0
LINE
  5
41A
330
1F
100
AcDbEntity
  8
0
  6
Continuous
 62
     7
370
    25
100
AcDbLine
 10
269.829135522
 20
113.4680885446
 30
0.0
 11
274.129135522
 21
113.4680885446
 31
0.0
  0
LINE
  5
41B
330
1F
100
AcDbEntity
  8
0
  6
Continuous
 62
     7
370
    25
100
AcDbLine
 10
268.329135522
 20
111.4680885446
 30
0.0
 11
269.829135522
 21
113.4680885446
 31
0.0
  0
LINE
  5
41C
330
1F
100
AcDbEntity
  8
0
  6
Continuous
 62
     7
370
    25
100
AcDbLine
 10
268.329135522
 20
109.4680885446
 30
0.0
 11
268.329135522
 21
111.4680885446
 31
0.0
  0
LINE
  5
41D
330
1F
100
AcDbEntity
  8
0
  6
Continuous
 62
     7
370
    25
100
AcDbLine
 10
267.529135522
 20
109.4680885446
 30
0.0
 11
268.329135522
 21
109.4680885446
 31
0.0
  0
LINE
  5
41E
330
1F
100
AcDbEntity
  8
0
  6
Continuous
 62
     7
370
    25
100
AcDbLine
 10
267.529135522
 20
113.2680885446
 30
0.0
 11
267.529135522
 21
109.4680885446
 31
0.0
  0
ARC
  5
41F
330
1F
100
AcDbEntity
  8
0
  6
Continuous
 62
     7
370
    25
100
AcDbCircle
 10
268.529135522
 20
113.2680885446
 30
0.0
 40
1.0
100
AcDbArc
 50
90.0
 51
180.0
  0
LINE
  5
420
330
1F
100
AcDbEntity
  8
0
  6
Continuous
 62
     7
370
    25
100
AcDbLine
 10
272.329135522
 20
114.2680885446
 30
0.0
 11
268.529135522
 21
114.2680885446
 31
0.0
  0
LINE
  5
421
330
1F
100
AcDbEntity
  8
0
  6
Continuous
 62
     7
370
    25
100
AcDbLine
 10
205.729135522
 20
142.2180885446
 30
0.0
 11
205.729135522
 21
143.3180885446
 31
0.0
  0
LINE
  5
422
330
1F
100
AcDbEntity
  8
0
  6
Continuous
 62
     7
370
    25
100
AcDbLine
 10
205.729135522
 20
146.2180885446
 30
0.0
 11
205.729135522
 21
147.3180885446
 31
0.0
  0
LINE
  5
423
330
1F
100
AcDbEntity
  8
0
  6
Continuous
 62
     7
370
    25
100
AcDbLine
 10
267.529135522
 20
98.4680885446
 30
0.0
 11
265.529135522
 21
98.4680885446
 31
0.0
  0
LINE
  5
424
330
1F
100
AcDbEntity
  8
0
  6
Continuous
 62
     7
370
    25
100
AcDbLine
 10
265.529135522
 20
98.4680885446
 30
0.0
 11
265.529135522
 21
101.9680885446
 31
0.0
  0
LINE
  5
425
330
1F
100
AcDbEntity
  8
0
  6
Continuous
 62
     7
370
    25
100
AcDbLine
 10
267.529135522
 20
98.4680885446
 30
0.0
 11
267.529135522
 21
101.9680885446
 31
0.0
  0
LINE
  5
426
330
1F
100
AcDbEntity
  8
0
  6
Continuous
 62
     7
370
    25
100
AcDbLine
 10
266.329135522
 20
94.9680885446
 30
0.0
 11
270.029135522
 21
94.9680885446
 31
0.0
  0
LINE
  5
427
330
1F
100
AcDbEntity
  8
0
  6
Continuous
 62
     7
370
    25
100
AcDbLine
 10
266.329135522
 20
94.9680885446
 30
0.0
 11
266.329135522
 21
98.4680885446
 31
0.0
  0
LINE
  5
428
330
1F
100
AcDbEntity
  8
0
  6
Continuous
 62
     7
370
    25
100
AcDbLine
 10
270.029135522
 20
94.9680885446
 30
0.0
 11
270.029135522
 21
101.9680885446
 31
0.0
  0
LINE
  5
429
330
1F
100
AcDbEntity
  8
0
  6
Continuous
 62
     7
370
    25
100
AcDbLine
 10
270.029135522
 20
93.9680885446
 30
0.0
 11
266.329135522
 21
93.9680885446
 31
0.0
  0
LINE
  5
42A
330
1F
100
AcDbEntity
  8
0
  6
Continuous
 62
     7
370
    25
100
AcDbLine
 10
266.329135522
 20
94.9680885446
 30
0.0
 11
266.329135522
 21
93.9680885446
 31
0.0
  0
LINE
  5
42B
330
1F
100
AcDbEntity
  8
0
  6
Continuous
 62
     7
370
    25
100
AcDbLine
 10
270.029135522
 20
94.9680885446
 30
0.0
 11
270.029135522
 21
93.9680885446
 31
0.0
  0
LINE
  5
42C
330
1F
100
AcDbEntity
  8
0
  6
Continuous
 62
     7
370
    25
100
AcDbLine
 10
264.029135522
 20
101.5180885446
 30
0.0
 11
264.029135522
 21
101.9680885446
 31
0.0
  0
LINE
  5
42D
330
1F
100
AcDbEntity
  8
0
  6
Continuous
 62
     7
370
    25
100
AcDbLine
 10
264.029135522
 20
100.8180885446
 30
0.0
 11
264.029135522
 21
101.5180885446
 31
0.0
  0
LINE
  5
42E
330
1F
100
AcDbEntity
  8
0
  6
Continuous
 62
     7
370
    25
100
AcDbLine
 10
267.529135522
 20
101.4680885446
 30
0.0
 11
265.529135522
 21
101.4680885446
 31
0.0
  0
LINE
  5
42F
330
1F
100
AcDbEntity
  8
0
  6
Continuous
 62
     7
370
    25
100
AcDbLine
 10
266.329135522
 20
97.9680885446
 30
0.0
 11
270.029135522
 21
97.9680885446
 31
0.0
  0
LINE
  5
430
330
1F
100
AcDbEntity
  8
0
  6
Continuous
 62
     7
370
    25
100
AcDbLine
 10
267.529135522
 20
109.4680885446
 30
0.0
 11
267.529135522
 21
109.2180885446
 31
0.0
  0
LINE
  5
431
330
1F
100
AcDbEntity
  8
0
  6
Continuous
 62
     7
370
    25
100
AcDbLine
 10
268.7281374416
 20
110.6702289348
 30
0.0
 11
268.329135522
 21
110.6702289348
 31
0.0
  0
LINE
  5
432
330
1F
100
AcDbEntity
  8
0
  6
Continuous
 62
     7
370
    25
100
AcDbLine
 10
269.4052816263
 20
109.2180885446
 30
0.0
 11
268.7281374416
 21
110.6702289348
 31
0.0
  0
LINE
  5
433
330
1F
100
AcDbEntity
  8
0
  6
Continuous
 62
     7
370
    25
100
AcDbLine
 10
267.679135522
 20
98.9680885446
 30
0.0
 11
267.529135522
 21
98.9680885446
 31
0.0
  0
LINE
  5
434
330
1F
100
AcDbEntity
  8
0
  6
Continuous
 62
     7
370
    25
100
AcDbLine
 10
267.679135522
 20
101.9680885446
 30
0.0
 11
267.679135522
 21
98.9680885446
 31
0.0
  0
LINE
  5
435
330
1F
100
AcDbEntity
  8
0
  6
Continuous
 62
     7
370
    25
100
AcDbLine
 10
267.529135522
 20
101.9680885446
 30
0.0
 11
267.529135522
 21
98.9680885446
 31
0.0
  0
LINE
  5
436
330
1F
100
AcDbEntity
  8
0
  6
Continuous
 62
     7
370
    25
100
AcDbLine
 10
270.029135522
 20
133.3680885446
 30
0.0
 11
270.029135522
 21
120.5680885446
 31
0.0
  0
LINE
  5
437
330
1F
100
AcDbEntity
  8
0
  6
Continuous
 62
     7
370
    25
100
AcDbLine
 10
264.029135522
 20
120.5680885446
 30
0.0
 11
270.029135522
 21
120.5680885446
 31
0.0
  0
LINE
  5
438
330
1F
100
AcDbEntity
  8
0
  6
Continuous
 62
     7
370
    25
100
AcDbLine
 10
264.029135522
 20
120.5680885446
 30
0.0
 11
264.029135522
 21
133.3680885446
 31
0.0
  0
LINE
  5
439
330
1F
100
AcDbEntity
  8
0
  6
Continuous
 62
     7
370
    25
100
AcDbLine
 10
270.029135522
 20
133.3680885446
 30
0.0
 11
264.029135522
 21
133.3680885446
 31
0.0
  0
LINE
  5
43A
330
1F
100
AcDbEntity
  8
0
  6
Continuous
 62
     7
370
    25
100
AcDbLine
 10
267.529135522
 20
118.9680885446
 30
0.0
 11
266.029135522
 21
118.9680885446
 31
0.0
  0
LINE
  5
43B
330
1F
100
AcDbEntity
  8
0
  6
Continuous
 62
     7
370
    25
100
AcDbLine
 10
267.529135522
 20
118.9680885446
 30
0.0
 11
267.529135522
 21
120.5680885446
 31
0.0
  0
LINE
  5
43C
330
1F
100
AcDbEntity
  8
0
  6
Continuous
 62
     7
370
    25
100
AcDbLine
 10
266.029135522
 20
118.9680885446
 30
0.0
 11
266.029135522
 21
120.5680885446
 31
0.0
  0
LINE
  5
43D
330
1F
100
AcDbEntity
  8
0
  6
Continuous
 62
     7
370
    25
100
AcDbLine
 10
267.529135522
 20
134.9680885446
 30
0.0
 11
266.029135522
 21
134.9680885446
 31
0.0
  0
LINE
  5
43E
330
1F
100
AcDbEntity
  8
0
  6
Continuous
 62
     7
370
    25
100
AcDbLine
 10
267.529135522
 20
133.3680885446
 30
0.0
 11
267.529135522
 21
134.9680885446
 31
0.0
  0
LINE
  5
43F
330
1F
100
AcDbEntity
  8
0
  6
Continuous
 62
     7
370
    25
100
AcDbLine
 10
266.029135522
 20
133.3680885446
 30
0.0
 11
266.029135522
 21
134.9680885446
 31
0.0
  0
LINE
  5
440
330
1F
100
AcDbEntity
  8
0
  6
Continuous
 62
     7
370
    25
100
AcDbLine
 10
205.629135522
 20
142.0180885446
 30
0.0
 11
205.629135522
 21
143.5180885446
 31
0.0
  0
LINE
  5
441
330
1F
100
AcDbEntity
  8
0
  6
Continuous
 62
     7
370
    25
100
AcDbLine
 10
205.929135522
 20
143.5180885446
 30
0.0
 11
205.629135522
 21
143.5180885446
 31
0.0
  0
LINE
  5
442
330
1F
100
AcDbEntity
  8
0
  6
Continuous
 62
     7
370
    25
100
AcDbLine
 10
205.929135522
 20
142.0180885446
 30
0.0
 11
205.629135522
 21
142.0180885446
 31
0.0
  0
LINE
  5
443
330
1F
100
AcDbEntity
  8
0
  6
Continuous
 62
     7
370
    25
100
AcDbLine
 10
205.629135522
 20
137.0180885446
 30
0.0
 11
205.629135522
 21
138.5180885446
 31
0.0
  0
LINE
  5
444
330
1F
100
AcDbEntity
  8
0
  6
Continuous
 62
     7
370
    25
100
AcDbLine
 10
206.129135522
 20
138.5180885446
 30
0.0
 11
205.629135522
 21
138.5180885446
 31
0.0
  0
LINE
  5
445
330
1F
100
AcDbEntity
  8
0
  6
Continuous
 62
     7
370
    25
100
AcDbLine
 10
206.129135522
 20
137.0180885446
 30
0.0
 11
205.629135522
 21
137.0180885446
 31
0.0
  0
LINE
  5
446
330
1F
100
AcDbEntity
  8
0
  6
Continuous
 62
     7
370
    25
100
AcDbLine
 10
205.629135522
 20
138.5180885446
 30
0.0
 11
205.629135522
 21
142.0180885446
 31
0.0
  0
LINE
  5
447
330
1F
100
AcDbEntity
  8
0
  6
Continuous
 62
     7
370
    25
100
AcDbLine
 10
205.629135522
 20
143.5180885446
 30
0.0
 11
205.629135522
 21
145.7680885446
 31
0.0
  0
LINE
  5
448
330
1F
100
AcDbEntity
  8
0
  6
Continuous
 62
     7
370
    25
100
AcDbLine
 10
206.129135522
 20
145.7680885446
 30
0.0
 11
205.629135522
 21
145.7680885446
 31
0.0
  0
LINE
  5
449
330
1F
100
AcDbEntity
  8
0
  6
Continuous
 62
     7
370
    25
100
AcDbLine
 10
206.129135522
 20
134.2680885446
 30
0.0
 11
205.629135522
 21
134.2680885446
 31
0.0
  0
LINE
  5
44A
330
1F
100
AcDbEntity
  8
0
  6
Continuous
 62
     7
370
    25
100
AcDbLine
 10
205.629135522
 20
134.2680885446
 30
0.0
 11
205.629135522
 21
137.0180885446
 31
0.0
  0
LINE
  5
44B
330
1F
100
AcDbEntity
  8
0
  6
Continuous
 62
     7
370
    25
100
AcDbLine
 10
206.129135522
 20
134.0680885446
 30
0.0
 11
205.629135522
 21
134.2680885446
 31
0.0
  0
LINE
  5
44C
330
1F
100
AcDbEntity
  8
0
  6
Continuous
 62
     7
370
    25
100
AcDbLine
 10
205.629135522
 20
145.7680885446
 30
0.0
 11
206.0458021887
 21
146.0180885446
 31
0.0
  0
LINE
  5
44D
330
1F
100
AcDbEntity
  8
0
  6
Continuous
 62
     7
370
    25
100
AcDbLine
 10
206.129135522
 20
145.8348504688
 30
0.0
 11
206.0178656483
 21
145.7680885446
 31
0.0
  0
LINE
  5
44E
330
1F
100
AcDbEntity
  8
0
  6
Continuous
 62
     7
370
    25
100
AcDbLine
 10
243.629135522
 20
146.9680885446
 30
0.0
 11
238.629135522
 21
146.9680885446
 31
0.0
  0
LINE
  5
44F
330
1F
100
AcDbEntity
  8
0
  6
Continuous
 62
     7
370
    25
100
AcDbLine
 10
243.629135522
 20
145.7680885446
 30
0.0
 11
238.629135522
 21
145.7680885446
 31
0.0
  0
LINE
  5
450
330
1F
100
AcDbEntity
  8
0
  6
Continuous
 62
     7
370
    25
100
AcDbLine
 10
238.629135522
 20
146.9680885446
 30
0.0
 11
238.629135522
 21
145.7680885446
 31
0.0
  0
LINE
  5
451
330
1F
100
AcDbEntity
  8
0
  6
Continuous
 62
     7
370
    25
100
AcDbLine
 10
243.629135522
 20
146.9680885446
 30
0.0
 11
243.629135522
 21
145.7680885446
 31
0.0
  0
LINE
  5
452
330
1F
100
AcDbEntity
  8
0
  6
Continuous
 62
     7
370
    25
100
AcDbLine
 10
238.529135522
 20
146.9680885446
 30
0.0
 11
238.629135522
 21
146.9680885446
 31
0.0
  0
LINE
  5
453
330
1F
100
AcDbEntity
  8
0
  6
Continuous
 62
     7
370
    25
100
AcDbLine
 10
238.629135522
 20
145.7680885446
 30
0.0
 11
238.529135522
 21
145.7680885446
 31
0.0
  0
LINE
  5
454
330
1F
100
AcDbEntity
  8
0
  6
Continuous
 62
     7
370
    25
100
AcDbLine
 10
243.629135522
 20
146.9680885446
 30
0.0
 11
243.729135522
 21
146.9680885446
 31
0.0
  0
LINE
  5
455
330
1F
100
AcDbEntity
  8
0
  6
Continuous
 62
     7
370
    25
100
AcDbLine
 10
243.729135522
 20
145.7680885446
 30
0.0
 11
243.629135522
 21
145.7680885446
 31
0.0
  0
LINE
  5
456
330
1F
100
AcDbEntity
  8
0
  6
Continuous
 62
     7
370
    25
100
AcDbLine
 10
245.029135522
 20
143.4680885446
 30
0.0
 11
245.029135522
 21
144.2680885446
 31
0.0
  0
ARC
  5
457
330
1F
100
AcDbEntity
  8
0
  6
Continuous
 62
     7
370
    25
100
AcDbCircle
 10
247.6821418871
 20
115.2756964717
 30
0.0
 40
33.00000000000001
100
AcDbArc
 50
168.3486909875
 51
194.5845209357
  0
LINE
  5
458
330
1F
100
AcDbEntity
  8
0
  6
Continuous
 62
     7
370
    25
100
AcDbLine
 10
215.2616045352
 20
106.8401314157
 30
0.0
 11
215.7454931524
 21
106.9660353717
 31
0.0
  0
ARC
  5
459
330
1F
100
AcDbEntity
  8
0
  6
Continuous
 62
     7
370
    25
100
AcDbCircle
 10
247.6821418871
 20
115.2756964717
 30
0.0
 40
33.50000000000003
100
AcDbArc
 50
167.883347167
 51
194.5845209357
  0
SPLINE
  5
45A
330
1F
100
AcDbEntity
  8
0
  6
Continuous
 62
     7
370
    25
100
AcDbSpline
210
0.0
220
0.0
230
1.0
 70
    24
 71
     3
 72
    14
 73
    10
 74
     0
 42
0.00000001
 43
0.00000001
 40
0.0
 40
0.0
 40
0.0
 40
0.0
 40
0.0361844445285665
 40
0.2142578513006764
 40
0.3944665826597168
 40
0.5888084030253606
 40
0.8054960344963222
 40
0.9536275050128835
 40
1.0
 40
1.0
 40
1.0
 40
1.0
 10
214.9284458252426
 20
122.3074383817205
 30
0.0
 10
214.9286121684624
 20
122.3072975242682
 30
0.0
 10
214.9295971315125
 20
122.3064634693184
 30
0.0
 10
214.95045087679
 20
122.2888047668219
 30
0.0
 10
215.0143142652117
 20
122.2347260120682
 30
0.0
 10
215.1122611575396
 20
122.1517857531813
 30
0.0
 10
215.2237642125139
 20
122.0573662976331
 30
0.0
 10
215.3108142008629
 20
121.983653406921
 30
0.0
 10
215.3522378550545
 20
121.9485763511713
 30
0.0
 10
215.3621138398005
 20
121.9402134852128
 30
0.0
  0
LINE
  5
45B
330
1F
100
AcDbEntity
  8
0
  6
Continuous
 62
     7
370
    25
100
AcDbLine
 10
217.8614441909
 20
106.4699863708
 30
0.0
 11
215.7464269794
 21
106.4660362438
 31
0.0
  0
LINE
  5
45C
330
1F
100
AcDbEntity
  8
0
  6
Continuous
 62
     7
370
    25
100
AcDbLine
 10
215.7464269794
 20
106.4660362438
 30
0.0
 11
215.7454931524
 21
106.9660353717
 31
0.0
  0
LINE
  5
45D
330
1F
100
AcDbEntity
  8
0
  6
Continuous
 62
     7
370
    25
100
AcDbLine
 10
215.7454931524
 20
106.9660353717
 30
0.0
 11
217.8605103639
 21
106.9699854988
 31
0.0
  0
LINE
  5
45E
330
1F
100
AcDbEntity
  8
0
  6
Continuous
 62
     7
370
    25
100
AcDbLine
 10
217.8605103639
 20
106.9699854988
 30
0.0
 11
217.8614441909
 21
106.4699863708
 31
0.0
  0
LINE
  5
45F
330
1F
100
AcDbEntity
  8
0
  6
Continuous
 62
     7
370
    25
100
AcDbLine
 10
217.3424577485
 20
116.6354334861
 30
0.0
 11
217.3356714387
 21
120.2690284758
 31
0.0
  0
ARC
  5
460
330
1F
100
AcDbEntity
  8
0
  6
Continuous
 62
     7
370
    25
100
AcDbCircle
 10
217.9424567021
 20
116.6365540784
 30
0.0
 40
0.6000000000000173
100
AcDbArc
 50
180.1070087498
 51
314.4538184176
  0
LINE
  5
461
330
1F
100
AcDbEntity
  8
0
  6
Continuous
 62
     7
370
    25
100
AcDbLine
 10
218.4634728694
 20
116.3071766694
 30
0.0
 11
218.3626571873
 21
116.2082649796
 31
0.0
  0
ARC
  5
462
330
1F
100
AcDbEntity
  8
0
  6
Continuous
 62
     7
370
    25
100
AcDbCircle
 10
218.7436065262
 20
116.0216506035
 30
0.0
 40
0.4000000000000209
100
AcDbArc
 50
0.1070087498
 51
134.4538184176
  0
LINE
  5
463
330
1F
100
AcDbEntity
  8
0
  6
Continuous
 62
     7
370
    25
100
AcDbLine
 10
219.1456602479
 20
114.9223995836
 30
0.0
 11
219.1436058286
 21
116.0223976651
 31
0.0
  0
LINE
  5
464
330
1F
100
AcDbEntity
  8
0
  6
Continuous
 62
     7
370
    25
100
AcDbLine
 10
217.8456625152
 20
114.9199716335
 30
0.0
 11
219.1456602479
 21
114.9223995836
 31
0.0
  0
LINE
  5
465
330
1F
100
AcDbEntity
  8
0
  6
Continuous
 62
     7
370
    25
100
AcDbLine
 10
217.8456625152
 20
114.9199716335
 30
0.0
 11
217.8605103639
 21
106.9699854988
 31
0.0
  0
LINE
  5
466
330
1F
100
AcDbEntity
  8
0
  6
Continuous
 62
     7
370
    25
100
AcDbLine
 10
216.535672834
 20
120.2675343526
 30
0.0
 11
215.365066261
 21
120.2653480608
 31
0.0
  0
ARC
  5
467
330
1F
100
AcDbEntity
  8
0
  6
Continuous
 62
     7
370
    25
100
AcDbCircle
 10
247.6821418871
 20
115.2756964717
 30
0.0
 40
32.70000000000001
100
AcDbArc
 50
171.2230226136
 51
194.1777241476
  0
LINE
  5
468
330
1F
100
AcDbEntity
  8
0
  6
Continuous
 62
     7
370
    25
100
AcDbLine
 10
215.9781626668
 20
107.2664704418
 30
0.0
 11
216.559952335
 21
107.2675570255
 31
0.0
  0
LINE
  5
469
330
1F
100
AcDbEntity
  8
0
  6
Continuous
 62
     7
370
    25
100
AcDbLine
 10
216.559952335
 20
107.2675570255
 30
0.0
 11
216.535672834
 21
120.2675343526
 31
0.0
  0
LINE
  5
46A
330
1F
100
AcDbEntity
  8
0
  6
Continuous
 62
     7
370
    25
100
AcDbLine
 10
215.3621138398
 20
121.9402134852
 30
0.0
 11
217.3356714387
 21
120.2690284758
 31
0.0
  0
ARC
  5
46B
330
1F
100
AcDbEntity
  8
0
  6
Continuous
 62
     7
370
    25
100
AcDbCircle
 10
215.7454931524
 20
106.9660353717
 30
0.0
 40
0.5000000000000215
100
AcDbArc
 50
194.5845209357
 51
270.1070087498
  0
CIRCLE
  5
46C
330
1F
100
AcDbEntity
  8
0
  6
Continuous
 62
     7
370
    25
100
AcDbCircle
 10
216.829135522
 20
123.7680885446
 30
0.0
 40
0.2500000000000167
  0
ARC
  5
46D
330
1F
100
AcDbEntity
  8
0
  6
Continuous
 62
     7
370
    25
100
AcDbCircle
 10
216.829135522
 20
123.7680885446
 30
0.0
 40
0.7499999999999837
100
AcDbArc
 50
90.1070087498
 51
101.6439677826
  0
ARC
  5
46E
330
1F
100
AcDbEntity
  8
0
  6
Continuous
 62
     7
370
    25
100
AcDbCircle
 10
216.829135522
 20
123.7680885446
 30
0.0
 40
0.7499999999999836
100
AcDbArc
 50
78.570049717
 51
90.1070087498
  0
LINE
  5
46F
330
1F
100
AcDbEntity
  8
0
  6
Continuous
 62
     7
370
    25
100
AcDbLine
 10
216.9777628207
 20
124.5032143339
 30
0.0
 11
217.0151649111
 21
124.4946510446
 31
0.0
  0
ARC
  5
470
330
1F
100
AcDbEntity
  8
0
  6
Continuous
 62
     7
370
    25
100
AcDbCircle
 10
216.829135522
 20
123.7680885446
 30
0.0
 40
0.7499999999999979
100
AcDbArc
 50
316.0768159336
 51
344.4334214725
  0
LWPOLYLINE
  5
471
330
1F
100
AcDbEntity
  8
0
  6
Continuous
 62
     7
370
    25
100
AcDbPolyline
 90
        3
 70
   128
 43
0.0
 10
217.0151649111
 20
123.0415260446
 10
216.8305362624
 20
123.0180898526
 10
216.6431061329
 20
123.0415260446
  0
LINE
  5
472
330
1F
100
AcDbEntity
  8
0
  6
Continuous
 62
     7
370
    25
100
AcDbLine
 10
216.6431061329
 20
124.4946510446
 30
0.0
 11
216.6777633439
 21
124.5026540377
 31
0.0
  0
LINE
  5
473
330
1F
100
AcDbEntity
  8
0
  6
Continuous
 62
     7
370
    25
100
AcDbLine
 10
216.9777345199
 20
124.5183673846
 30
0.0
 11
216.8277347816
 21
124.5180872365
 31
0.0
  0
LINE
  5
474
330
1F
100
AcDbEntity
  8
0
  6
Continuous
 62
     7
370
    25
100
AcDbLine
 10
216.9777628207
 20
124.5032143339
 30
0.0
 11
216.9777345199
 21
124.5183673846
 31
0.0
  0
LINE
  5
475
330
1F
100
AcDbEntity
  8
0
  6
Continuous
 62
     7
370
    25
100
AcDbLine
 10
216.6777350432
 20
124.5178070884
 30
0.0
 11
216.6777633439
 21
124.5026540377
 31
0.0
  0
LINE
  5
476
330
1F
100
AcDbEntity
  8
0
  6
Continuous
 62
     7
370
    25
100
AcDbLine
 10
216.8277347816
 20
124.5180872365
 30
0.0
 11
216.6777350432
 21
124.5178070884
 31
0.0
  0
SPLINE
  5
477
330
1F
100
AcDbEntity
  8
0
  6
Continuous
 62
     7
370
    25
100
AcDbSpline
210
0.0
220
0.0
230
1.0
 70
     8
 71
     3
 72
    11
 73
     7
 74
     0
 42
0.00000001
 43
0.00000001
 40
0.0
 40
0.0
 40
0.0
 40
0.0
 40
0.3255649170687449
 40
0.7826142507501554
 40
0.9393295141764657
 40
1.0
 40
1.0
 40
1.0
 40
1.0
 10
216.6775482777748
 20
124.6178069140067
 30
0.0
 10
216.6806049183934
 20
124.6398399370575
 30
0.0
 10
216.6879526711214
 20
124.6928043595817
 30
0.0
 10
216.7274512399796
 20
124.7326360672505
 30
0.0
 10
216.7594120717044
 20
124.7530265316463
 30
0.0
 10
216.7731912399549
 20
124.7573757769605
 30
0.0
 10
216.7770368868516
 20
124.7585896137787
 30
0.0
  0
SPLINE
  5
478
330
1F
100
AcDbEntity
  8
0
  6
Continuous
 62
     7
370
    25
100
AcDbSpline
210
0.0
220
0.0
230
1.0
 70
     8
 71
     3
 72
    10
 73
     6
 74
     0
 42
0.00000001
 43
0.00000001
 40
0.0
 40
0.0
 40
0.0
 40
0.0
 40
0.1440705838013628
 40
0.6351828297919675
 40
1.0
 40
1.0
 40
1.0
 40
1.0
 10
216.8760289920654
 20
124.7584199391535
 30
0.0
 10
216.8847735225643
 20
124.7553500829868
 30
0.0
 10
216.9233266781144
 20
124.7418156065134
 30
0.0
 10
216.9634125929881
 20
124.6999872223703
 30
0.0
 10
216.9733234956458
 20
124.6427591537784
 30
0.0
 10
216.9775477545546
 20
124.6183672101846
 30
0.0
  0
LINE
  5
479
330
1F
100
AcDbEntity
  8
0
  6
Continuous
 62
     7
370
    25
100
AcDbLine
 10
216.6775482778
 20
124.617806914
 30
0.0
 11
216.6777350432
 21
124.5178070884
 31
0.0
  0
LINE
  5
47A
330
1F
100
AcDbEntity
  8
0
  6
Continuous
 62
     7
370
    25
100
AcDbLine
 10
216.9775477546
 20
124.6183672102
 30
0.0
 11
216.9777345199
 21
124.5183673846
 31
0.0
  0
LINE
  5
47B
330
1F
100
AcDbEntity
  8
0
  6
Continuous
 62
     7
370
    25
100
AcDbLine
 10
217.3356714387
 20
120.2690284758
 30
0.0
 11
217.429135522
 21
120.4283686152
 31
0.0
  0
ARC
  5
47C
330
1F
100
AcDbEntity
  8
0
  6
Continuous
 62
     7
370
    25
100
AcDbCircle
 10
247.6821418871
 20
115.2756964717
 30
0.0
 40
33.50000000000001
100
AcDbArc
 50
164.9636398323
 51
167.883347167
  0
LINE
  5
47D
330
1F
100
AcDbEntity
  8
0
  6
Continuous
 62
     7
370
    25
100
AcDbLine
 10
235.229135522
 20
111.6186486755
 30
0.0
 11
235.229135522
 21
110.6339156293
 31
0.0
  0
SPLINE
  5
47E
330
1F
100
AcDbEntity
  8
0
  6
Continuous
 62
     7
370
    25
100
AcDbSpline
210
0.0
220
0.0
230
1.0
 70
     8
 71
     3
 72
    11
 73
     7
 74
     0
 42
0.00000001
 43
0.00000001
 40
0.0
 40
0.0
 40
0.0
 40
0.0
 40
0.2316885866444274
 40
0.472435007396622
 40
0.7988058568893922
 40
1.0
 40
1.0
 40
1.0
 40
1.0
 10
235.2291355220023
 20
111.6186486754562
 30
0.0
 10
235.1512724405881
 20
111.6185828346534
 30
0.0
 10
234.9925022310727
 20
111.6184485790104
 30
0.0
 10
234.7600308248235
 20
111.61798841579
 30
0.0
 10
234.5825406151489
 20
111.6173851629632
 30
0.0
 10
234.5150976328989
 20
111.6168894322853
 30
0.0
 10
234.4893773269406
 20
111.6167003785946
 30
0.0
  0
SPLINE
  5
47F
330
1F
100
AcDbEntity
  8
0
  6
Continuous
 62
     7
370
    25
100
AcDbSpline
210
0.0
220
0.0
230
1.0
 70
     8
 71
     3
 72
    11
 73
     7
 74
     0
 42
0.00000001
 43
0.00000001
 40
0.0
 40
0.0
 40
0.0
 40
0.0
 40
0.2607555203543868
 40
0.5279402418624273
 40
0.8468562454774144
 40
1.0
 40
1.0
 40
1.0
 40
1.0
 10
234.4893773269399
 20
110.6319673324798
 30
0.0
 10
234.5242014950394
 20
110.6322114360873
 30
0.0
 10
234.594708457669
 20
110.6327056619332
 30
0.0
 10
234.7954879410655
 20
110.6333485080949
 30
0.0
 10
235.0184553441521
 20
110.6337523850415
 30
0.0
 10
235.1775293605107
 20
110.6338756426099
 30
0.0
 10
235.2291355220023
 20
110.6339156293414
 30
0.0
  0
SPLINE
  5
480
330
1F
100
AcDbEntity
  8
0
  6
Continuous
 62
     7
370
    25
100
AcDbSpline
210
0.0
220
0.0
230
1.0
 70
     8
 71
     3
 72
    13
 73
     9
 74
     0
 42
0.00000001
 43
0.00000001
 40
0.0
 40
0.0
 40
0.0
 40
0.0
 40
0.1644119061120093
 40
0.6598393092675849
 40
0.9083286445473594
 40
0.9708603883194634
 40
0.9896984332646984
 40
1.0
 40
1.0
 40
1.0
 40
1.0
 10
235.2291355220023
 20
111.6124364962521
 30
0.0
 10
235.1710191440422
 20
111.6124649830199
 30
0.0
 10
234.937778914687
 20
111.6125793098326
 30
0.0
 10
234.6196397587401
 20
111.6127695503536
 30
0.0
 10
234.3395189369873
 20
111.6130023463653
 30
0.0
 10
234.2391536145589
 20
111.6131958133581
 30
0.0
 10
234.2204776838358
 20
111.613276421696
 30
0.0
 10
234.217931696868
 20
111.6133058235322
 30
0.0
 10
234.2170316280908
 20
111.6133162178017
 30
0.0
  0
ARC
  5
481
330
1F
100
AcDbEntity
  8
0
  6
Continuous
 62
     7
370
    25
100
AcDbCircle
 10
234.6914451503
 20
84.3945545328
 30
0.0
 40
27.22289580210666
100
AcDbArc
 50
90.4252942028
 51
90.9985443433
  0
ARC
  5
482
330
1F
100
AcDbEntity
  8
0
  6
Continuous
 62
     7
370
    25
100
AcDbCircle
 10
241.1653960053
 20
111.1162605216
 30
0.0
 40
7.018455981089859
100
AcDbArc
 50
187.9545448636
 51
194.0637442672
  0
ARC
  5
483
330
1F
100
AcDbEntity
  8
0
  6
Continuous
 62
     7
370
    25
100
AcDbCircle
 10
234.4152785191
 20
109.3347267515
 30
0.0
 40
0.0978445735817762
100
AcDbArc
 50
126.3304149968
 51
137.5643563017
  0
ARC
  5
484
330
1F
100
AcDbEntity
  8
0
  6
Continuous
 62
     7
370
    25
100
AcDbCircle
 10
241.1671984981
 20
111.119309028
 30
0.0
 40
7.020268547683842
100
AcDbArc
 50
187.9541104131
 51
194.0622577969
  0
SPLINE
  5
485
330
1F
100
AcDbEntity
  8
0
  6
Continuous
 62
     7
370
    25
100
AcDbSpline
210
0.0
220
0.0
230
1.0
 70
     8
 71
     3
 72
    12
 73
     8
 74
     0
 42
0.00000001
 43
0.00000001
 40
0.0
 40
0.0
 40
0.0
 40
0.0
 40
0.1915206211354159
 40
0.4179228351505178
 40
0.6415331534765617
 40
0.8641181916558895
 40
1.0
 40
1.0
 40
1.0
 40
1.0
 10
234.2144704219711
 20
110.1478447819295
 30
0.0
 10
234.208557463578
 20
110.1956371610135
 30
0.0
 10
234.1956546214655
 20
110.2999263307486
 30
0.0
 10
234.1869833851618
 20
110.4439234457168
 30
0.0
 10
234.1891707455764
 20
110.5581070643896
 30
0.0
 10
234.200653256587
 20
110.6174663185959
 30
0.0
 10
234.212529698702
 20
110.6255274779246
 30
0.0
 10
234.2170316280908
 20
110.6285831716869
 30
0.0
  0
ARC
  5
486
330
1F
100
AcDbEntity
  8
0
  6
Continuous
 62
     7
370
    25
100
AcDbCircle
 10
234.6914451503
 20
83.4098214869
 30
0.0
 40
27.22289580191489
100
AcDbArc
 50
90.4252942028
 51
90.9985443433
  0
SPLINE
  5
487
330
1F
100
AcDbEntity
  8
0
  6
Continuous
 62
     7
370
    25
100
AcDbSpline
210
0.0
220
0.0
230
1.0
 70
     8
 71
     3
 72
    12
 73
     8
 74
     0
 42
0.00000001
 43
0.00000001
 40
0.0
 40
0.0
 40
0.0
 40
0.0
 40
0.215938394416818
 40
0.442380899580021
 40
0.6660310122006423
 40
0.8886556622130635
 40
1.0
 40
1.0
 40
1.0
 40
1.0
 10
234.2170316280908
 20
111.6133162178017
 30
0.0
 10
234.2101220239372
 20
111.6196730954056
 30
0.0
 10
234.195966704734
 20
111.6326960746701
 30
0.0
 10
234.1869901272307
 20
111.7194161707408
 30
0.0
 10
234.189161500488
 20
111.8479803908369
 30
0.0
 10
234.2001924399062
 20
111.9802882293844
 30
0.0
 10
234.2109004132455
 20
112.0634550939307
 30
0.0
 10
234.2144704219711
 20
112.0911826967832
 30
0.0
  0
ARC
  5
488
330
1F
100
AcDbEntity
  8
0
  6
Continuous
 62
     7
370
    25
100
AcDbCircle
 10
241.1653960053
 20
111.1199165675
 30
0.0
 40
7.018455981091238
100
AcDbArc
 50
165.9362557328
 51
172.0454551364
  0
LWPOLYLINE
  5
489
330
1F
100
AcDbEntity
  8
0
  6
Continuous
 62
     7
370
    25
100
AcDbPolyline
 90
        9
 70
   128
 43
0.0
 10
234.3573113903
 20
112.8226253888
 10
234.3510799278
 20
112.827958192
 10
234.3466272886
 20
112.8318683166
 10
234.3439550672
 20
112.8343543624
 10
234.3430642204
 20
112.8354154392
 10
234.3439550672
 20
112.8350511671
 10
234.3466272886
 20
112.8332616765
 10
234.3510799278
 20
112.8300476081
 10
234.3573113903
 20
112.825410113
  0
LINE
  5
48A
330
1F
100
AcDbEntity
  8
0
  6
Continuous
 62
     7
370
    25
100
AcDbLine
 10
238.829135522
 20
106.4680885446
 30
0.0
 11
236.529135522
 21
106.4680885446
 31
0.0
  0
LINE
  5
48B
330
1F
100
AcDbEntity
  8
0
  6
Continuous
 62
     7
370
    25
100
AcDbLine
 10
236.529135522
 20
114.9180885446
 30
0.0
 11
236.529135522
 21
106.4680885446
 31
0.0
  0
LINE
  5
48C
330
1F
100
AcDbEntity
  8
0
  6
Continuous
 62
     7
370
    25
100
AcDbLine
 10
238.829135522
 20
114.9180885446
 30
0.0
 11
236.529135522
 21
114.9180885446
 31
0.0
  0
LINE
  5
48D
330
1F
100
AcDbEntity
  8
0
  6
Continuous
 62
     7
370
    25
100
AcDbLine
 10
219.229135522
 20
116.7180885446
 30
0.0
 11
219.229135522
 21
115.4180885446
 31
0.0
  0
ARC
  5
48E
330
1F
100
AcDbEntity
  8
0
  6
Continuous
 62
     7
370
    25
100
AcDbCircle
 10
219.029135522
 20
116.7180885446
 30
0.0
 40
0.2
100
AcDbArc
 50
0.0
 51
143.1301023542
  0
LINE
  5
48F
330
1F
100
AcDbEntity
  8
0
  6
Continuous
 62
     7
370
    25
100
AcDbLine
 10
218.509135522
 20
116.3580885446
 30
0.0
 11
218.869135522
 21
116.8380885446
 31
0.0
  0
ARC
  5
490
330
1F
100
AcDbEntity
  8
0
  6
Continuous
 62
     7
370
    25
100
AcDbCircle
 10
218.029135522
 20
116.7180885446
 30
0.0
 40
0.5999999999999943
100
AcDbArc
 50
180.0
 51
323.1301023542
  0
LINE
  5
491
330
1F
100
AcDbEntity
  8
0
  6
Continuous
 62
     7
370
    25
100
AcDbLine
 10
217.429135522
 20
120.7680885446
 30
0.0
 11
217.429135522
 21
116.7180885446
 31
0.0
  0
LINE
  5
492
330
1F
100
AcDbEntity
  8
0
  6
Continuous
 62
     7
370
    25
100
AcDbLine
 10
215.6999372933
 20
122.167915682
 30
0.0
 11
217.429135522
 21
120.7680885446
 31
0.0
  0
ARC
  5
493
330
1F
100
AcDbEntity
  8
0
  6
Continuous
 62
     7
370
    25
100
AcDbCircle
 10
216.329135522
 20
122.9451605528
 30
0.0
 40
0.9999999999999928
100
AcDbArc
 50
180.0
 51
231.0090059575
  0
LINE
  5
494
330
1F
100
AcDbEntity
  8
0
  6
Continuous
 62
     7
370
    25
100
AcDbLine
 10
215.329135522
 20
124.9680885446
 30
0.0
 11
215.329135522
 21
122.9451605528
 31
0.0
  0
ARC
  5
495
330
1F
100
AcDbEntity
  8
0
  6
Continuous
 62
     7
370
    25
100
AcDbCircle
 10
215.829135522
 20
124.9680885446
 30
0.0
 40
0.5
100
AcDbArc
 50
90.0
 51
180.0
  0
LINE
  5
496
330
1F
100
AcDbEntity
  8
0
  6
Continuous
 62
     7
370
    25
100
AcDbLine
 10
238.829135522
 20
125.4680885446
 30
0.0
 11
215.829135522
 21
125.4680885446
 31
0.0
  0
ARC
  5
497
330
1F
100
AcDbEntity
  8
0
  6
Continuous
 62
     7
370
    25
100
AcDbCircle
 10
216.829135522
 20
123.7680885446
 30
0.0
 40
0.7500000000000189
100
AcDbArc
 50
344.4334214725
 51
75.6384884371
  0
ARC
  5
498
330
1F
100
AcDbEntity
  8
0
  6
Continuous
 62
     7
370
    25
100
AcDbCircle
 10
216.829135522
 20
124.5680885446
 30
0.0
 40
0.1999999999999988
100
AcDbArc
 50
338.4577326556
 51
201.5422673444
  0
ARC
  5
499
330
1F
100
AcDbEntity
  8
0
  6
Continuous
 62
     7
370
    25
100
AcDbCircle
 10
216.829135522
 20
123.7680885446
 30
0.0
 40
0.7499999999999929
100
AcDbArc
 50
104.3615115629
 51
255.6384884371
  0
ARC
  5
49A
330
1F
100
AcDbEntity
  8
0
  6
Continuous
 62
     7
370
    25
100
AcDbCircle
 10
216.829135522
 20
122.9680885446
 30
0.0
 40
0.200000000000004
100
AcDbArc
 50
158.4577326556
 51
21.5422673444
  0
ARC
  5
49B
330
1F
100
AcDbEntity
  8
0
  6
Continuous
 62
     7
370
    25
100
AcDbCircle
 10
216.829135522
 20
123.7680885446
 30
0.0
 40
0.7499999999999999
100
AcDbArc
 50
284.3615115629
 51
316.0768159336
  0
ARC
  5
49C
330
1F
100
AcDbEntity
  8
0
  6
Continuous
 62
     7
370
    25
100
AcDbCircle
 10
217.529135522
 20
123.3680885446
 30
0.0
 40
0.2000000000000119
100
AcDbArc
 50
216.9666457807
 51
83.5435916254
  0
ARC
  5
49D
330
1F
100
AcDbEntity
  8
0
  6
Continuous
 62
     7
370
    25
100
AcDbCircle
 10
219.729135522
 20
115.4180885446
 30
0.0
 40
0.5
100
AcDbArc
 50
180.0
 51
270.0
  0
LINE
  5
49E
330
1F
100
AcDbEntity
  8
0
  6
Continuous
 62
     7
370
    25
100
AcDbLine
 10
236.529135522
 20
114.9180885446
 30
0.0
 11
219.729135522
 21
114.9180885446
 31
0.0
  0
LINE
  5
49F
330
1F
100
AcDbEntity
  8
0
  6
Continuous
 62
     7
370
    25
100
AcDbLine
 10
231.629135522
 20
114.9180885446
 30
0.0
 11
231.629135522
 21
107.5680885446
 31
0.0
  0
ARC
  5
4A0
330
1F
100
AcDbEntity
  8
0
  6
Continuous
 62
     7
370
    25
100
AcDbCircle
 10
232.729135522
 20
107.5680885446
 30
0.0
 40
1.099999999999994
100
AcDbArc
 50
180.0
 51
270.0
  0
LINE
  5
4A1
330
1F
100
AcDbEntity
  8
0
  6
Continuous
 62
     7
370
    25
100
AcDbLine
 10
232.729135522
 20
106.4680885446
 30
0.0
 11
236.529135522
 21
106.4680885446
 31
0.0
  0
LINE
  5
4A2
330
1F
100
AcDbEntity
  8
0
  6
Continuous
 62
     7
370
    25
100
AcDbLine
 10
217.429135522
 20
116.3259073882
 30
0.0
 11
217.429135522
 21
116.7180885446
 31
0.0
  0
LINE
  5
4A3
330
1F
100
AcDbEntity
  8
0
  6
Continuous
 62
     7
370
    25
100
AcDbLine
 10
219.729135522
 20
114.9180885446
 30
0.0
 11
217.8456660321
 21
114.9180885446
 31
0.0
  0
LINE
  5
4A4
330
1F
100
AcDbEntity
  8
0
  6
Continuous
 62
     7
370
    25
100
AcDbLine
 10
217.3674089293
 20
116.588078566
 30
0.0
 11
217.3477816222
 21
120.2708029939
 31
0.0
  0
LWPOLYLINE
  5
4A5
330
1F
100
AcDbEntity
  8
0
  6
Continuous
 62
     7
370
    25
100
AcDbPolyline
 90
        3
 70
   128
 43
0.0
 10
217.429135522
 20
116.3261896448
 10
217.3979475821
 20
116.4022697
 10
217.3674089293
 20
116.588078566
  0
LINE
  5
4A6
330
1F
100
AcDbEntity
  8
0
  6
Continuous
 62
     7
370
    25
100
AcDbLine
 10
217.8763163451
 20
114.9180885446
 30
0.0
 11
217.9186566853
 21
106.973656621
 31
0.0
  0
LINE
  5
4A7
330
1F
100
AcDbEntity
  8
0
  6
Continuous
 62
     7
370
    25
100
AcDbLine
 10
217.3403685966
 20
120.2770363197
 30
0.0
 11
217.3477816222
 21
120.2708029939
 31
0.0
  0
LINE
  5
4A8
330
1F
100
AcDbEntity
  8
0
  6
Continuous
 62
     7
370
    25
100
AcDbLine
 10
217.9213214283
 20
106.4736637219
 30
0.0
 11
217.8614379189
 21
106.4733445691
 31
0.0
  0
LINE
  5
4A9
330
1F
100
AcDbEntity
  8
0
  6
Continuous
 62
     7
370
    25
100
AcDbLine
 10
216.8913909692
 20
106.468174644
 30
0.0
 11
215.8063305652
 21
106.4623917476
 31
0.0
  0
LINE
  5
4AA
330
1F
100
AcDbEntity
  8
0
  6
Continuous
 62
     7
370
    25
100
AcDbLine
 10
217.9186566853
 20
106.973656621
 30
0.0
 11
217.9213214283
 21
106.4736637219
 31
0.0
  0
LINE
  5
4AB
330
1F
100
AcDbEntity
  8
0
  6
Continuous
 62
     7
370
    25
100
AcDbLine
 10
215.8063305652
 20
106.4623917476
 30
0.0
 11
215.7433159864
 21
106.4660401118
 31
0.0
  0
LINE
  5
4AC
330
1F
100
AcDbEntity
  8
0
  6
Continuous
 62
     7
370
    25
100
AcDbLine
 10
217.3477816222
 20
120.2708029939
 30
0.0
 11
217.429135522
 21
120.4106040871
 31
0.0
  0
LINE
  5
4AD
330
1F
100
AcDbEntity
  8
0
  6
Continuous
 62
     7
370
    25
100
AcDbLine
 10
251.029135522
 20
101.9680885446
 30
0.0
 11
239.829135522
 21
101.9680885446
 31
0.0
  0
LINE
  5
4AE
330
1F
100
AcDbEntity
  8
0
  6
Continuous
 62
     7
370
    25
100
AcDbLine
 10
239.829135522
 20
101.9680885446
 30
0.0
 11
239.829135522
 21
102.9680885446
 31
0.0
  0
LINE
  5
4AF
330
1F
100
AcDbEntity
  8
0
  6
Continuous
 62
     7
370
    25
100
AcDbLine
 10
239.829135522
 20
102.9680885446
 30
0.0
 11
251.029135522
 21
102.9680885446
 31
0.0
  0
LINE
  5
4B0
330
1F
100
AcDbEntity
  8
0
  6
Continuous
 62
     7
370
    25
100
AcDbLine
 10
251.029135522
 20
102.9680885446
 30
0.0
 11
251.029135522
 21
101.9680885446
 31
0.0
  0
LINE
  5
4B1
330
1F
100
AcDbEntity
  8
0
  6
Continuous
 62
     7
370
    25
100
AcDbLine
 10
246.829135522
 20
143.4680885446
 30
0.0
 11
233.629135522
 21
143.4680885446
 31
0.0
  0
LINE
  5
4B2
330
1F
100
AcDbEntity
  8
0
  6
Continuous
 62
     7
370
    25
100
AcDbLine
 10
246.829135522
 20
149.2680885446
 30
0.0
 11
246.829135522
 21
143.4680885446
 31
0.0
  0
LINE
  5
4B3
330
1F
100
AcDbEntity
  8
0
  6
Continuous
 62
     7
370
    25
100
AcDbLine
 10
233.629135522
 20
149.2680885446
 30
0.0
 11
246.829135522
 21
149.2680885446
 31
0.0
  0
LINE
  5
4B4
330
1F
100
AcDbEntity
  8
0
  6
Continuous
 62
     7
370
    25
100
AcDbLine
 10
233.629135522
 20
143.4680885446
 30
0.0
 11
233.629135522
 21
149.2680885446
 31
0.0
  0
LINE
  5
4B5
330
1F
100
AcDbEntity
  8
0
  6
Continuous
 62
     7
370
    25
100
AcDbLine
 10
239.829135522
 20
127.4680885446
 30
0.0
 11
239.829135522
 21
102.9680885446
 31
0.0
  0
LINE
  5
4B6
330
1F
100
AcDbEntity
  8
0
  6
Continuous
 62
     7
370
    25
100
AcDbLine
 10
207.129135522
 20
127.4680885446
 30
0.0
 11
239.829135522
 21
127.4680885446
 31
0.0
  0
LINE
  5
4B7
330
1F
100
AcDbEntity
  8
0
  6
Continuous
 62
     7
370
    25
100
AcDbLine
 10
207.129135522
 20
150.9680885446
 30
0.0
 11
207.129135522
 21
127.4680885446
 31
0.0
  0
LINE
  5
4B8
330
1F
100
AcDbEntity
  8
0
  6
Continuous
 62
     7
370
    25
100
AcDbLine
 10
251.029135522
 20
150.9680885446
 30
0.0
 11
207.129135522
 21
150.9680885446
 31
0.0
  0
LINE
  5
4B9
330
1F
100
AcDbEntity
  8
0
  6
Continuous
 62
     7
370
    25
100
AcDbLine
 10
251.029135522
 20
150.9680885446
 30
0.0
 11
251.029135522
 21
102.9680885446
 31
0.0
  0
LINE
  5
4BA
330
1F
100
AcDbEntity
  8
0
  6
Continuous
 62
     7
370
    25
100
AcDbLine
 10
238.829135522
 20
102.9680885446
 30
0.0
 11
239.829135522
 21
102.9680885446
 31
0.0
  0
ARC
  5
4BB
330
1F
100
AcDbEntity
  8
0
  6
Continuous
 62
     7
370
    25
100
AcDbCircle
 10
239.829135522
 20
102.9680885446
 30
0.0
 40
1.0
100
AcDbArc
 50
180.0
 51
270.0
  0
LINE
  5
4BC
330
1F
100
AcDbEntity
  8
0
  6
Continuous
 62
     7
370
    25
100
AcDbLine
 10
238.829135522
 20
102.9680885446
 30
0.0
 11
238.829135522
 21
126.4680885446
 31
0.0
  0
LINE
  5
4BD
330
1F
100
AcDbEntity
  8
0
  6
Continuous
 62
     7
370
    25
100
AcDbLine
 10
238.829135522
 20
126.4680885446
 30
0.0
 11
239.829135522
 21
127.4680885446
 31
0.0
  0
LINE
  5
4BE
330
1F
100
AcDbEntity
  8
0
  6
Continuous
 62
     7
370
    25
100
AcDbLine
 10
238.829135522
 20
126.4680885446
 30
0.0
 11
207.129135522
 21
126.4680885446
 31
0.0
  0
LINE
  5
4BF
330
1F
100
AcDbEntity
  8
0
  6
Continuous
 62
     7
370
    25
100
AcDbLine
 10
207.129135522
 20
127.4680885446
 30
0.0
 11
207.129135522
 21
126.4680885446
 31
0.0
  0
ARC
  5
4C0
330
1F
100
AcDbEntity
  8
0
  6
Continuous
 62
     7
370
    25
100
AcDbCircle
 10
207.129135522
 20
127.4680885446
 30
0.0
 40
1.0
100
AcDbArc
 50
180.0
 51
270.0
  0
LINE
  5
4C1
330
1F
100
AcDbEntity
  8
0
  6
Continuous
 62
     7
370
    25
100
AcDbLine
 10
207.129135522
 20
127.4680885446
 30
0.0
 11
206.129135522
 21
127.4680885446
 31
0.0
  0
LINE
  5
4C2
330
1F
100
AcDbEntity
  8
0
  6
Continuous
 62
     7
370
    25
100
AcDbLine
 10
206.129135522
 20
127.4680885446
 30
0.0
 11
206.129135522
 21
150.9680885446
 31
0.0
  0
LINE
  5
4C3
330
1F
100
AcDbEntity
  8
0
  6
Continuous
 62
     7
370
    25
100
AcDbLine
 10
207.129135522
 20
150.9680885446
 30
0.0
 11
206.129135522
 21
150.9680885446
 31
0.0
  0
LINE
  5
4C4
330
1F
100
AcDbEntity
  8
0
  6
Continuous
 62
     7
370
    25
100
AcDbLine
 10
246.029135522
 20
148.4680885446
 30
0.0
 11
237.629135522
 21
148.4680885446
 31
0.0
  0
LINE
  5
4C5
330
1F
100
AcDbEntity
  8
0
  6
Continuous
 62
     7
370
    25
100
AcDbLine
 10
237.629135522
 20
148.4680885446
 30
0.0
 11
237.629135522
 21
144.2680885446
 31
0.0
  0
LINE
  5
4C6
330
1F
100
AcDbEntity
  8
0
  6
Continuous
 62
     7
370
    25
100
AcDbLine
 10
238.529135522
 20
147.0680885446
 30
0.0
 11
243.729135522
 21
147.0680885446
 31
0.0
  0
LINE
  5
4C7
330
1F
100
AcDbEntity
  8
0
  6
Continuous
 62
     7
370
    25
100
AcDbLine
 10
238.529135522
 20
145.6680885446
 30
0.0
 11
238.529135522
 21
147.0680885446
 31
0.0
  0
LINE
  5
4C8
330
1F
100
AcDbEntity
  8
0
  6
Continuous
 62
     7
370
    25
100
AcDbLine
 10
243.729135522
 20
145.6680885446
 30
0.0
 11
238.529135522
 21
145.6680885446
 31
0.0
  0
LINE
  5
4C9
330
1F
100
AcDbEntity
  8
0
  6
Continuous
 62
     7
370
    25
100
AcDbLine
 10
243.729135522
 20
147.0680885446
 30
0.0
 11
243.729135522
 21
145.6680885446
 31
0.0
  0
LINE
  5
4CA
330
1F
100
AcDbEntity
  8
0
  6
Continuous
 62
     7
370
    25
100
AcDbLine
 10
237.629135522
 20
144.2680885446
 30
0.0
 11
246.029135522
 21
144.2680885446
 31
0.0
  0
LINE
  5
4CB
330
1F
100
AcDbEntity
  8
0
  6
Continuous
 62
     7
370
    25
100
AcDbLine
 10
246.029135522
 20
144.2680885446
 30
0.0
 11
246.029135522
 21
148.4680885446
 31
0.0
  0
LINE
  5
4CC
330
1F
100
AcDbEntity
  8
0
  6
Continuous
 62
     7
370
    25
100
AcDbLine
 10
207.129135522
 20
150.9680885446
 30
0.0
 11
207.129135522
 21
151.9680885446
 31
0.0
  0
LINE
  5
4CD
330
1F
100
AcDbEntity
  8
0
  6
Continuous
 62
     7
370
    25
100
AcDbLine
 10
207.129135522
 20
151.9680885446
 30
0.0
 11
251.029135522
 21
151.9680885446
 31
0.0
  0
LINE
  5
4CE
330
1F
100
AcDbEntity
  8
0
  6
Continuous
 62
     7
370
    25
100
AcDbLine
 10
251.029135522
 20
151.9680885446
 30
0.0
 11
251.029135522
 21
150.9680885446
 31
0.0
  0
ARC
  5
4CF
330
1F
100
AcDbEntity
  8
0
  6
Continuous
 62
     7
370
    25
100
AcDbCircle
 10
207.129135522
 20
150.9680885446
 30
0.0
 40
1.0
100
AcDbArc
 50
90.0
 51
180.0
  0
LINE
  5
4D0
330
1F
100
AcDbEntity
  8
0
  6
Continuous
 62
     7
370
    25
100
AcDbLine
 10
237.029135522
 20
144.2680885446
 30
0.0
 11
237.029135522
 21
148.4680885446
 31
0.0
  0
LINE
  5
4D1
330
1F
100
AcDbEntity
  8
0
  6
Continuous
 62
     7
370
    25
100
AcDbLine
 10
237.029135522
 20
148.4680885446
 30
0.0
 11
237.629135522
 21
148.4680885446
 31
0.0
  0
LINE
  5
4D2
330
1F
100
AcDbEntity
  8
0
  6
Continuous
 62
     7
370
    25
100
AcDbLine
 10
237.629135522
 20
144.2680885446
 30
0.0
 11
237.029135522
 21
144.2680885446
 31
0.0
  0
LINE
  5
4D3
330
1F
100
AcDbEntity
  8
0
  6
Continuous
 62
     7
370
    25
100
AcDbLine
 10
234.229135522
 20
148.4680885446
 30
0.0
 11
234.229135522
 21
144.2680885446
 31
0.0
  0
LINE
  5
4D4
330
1F
100
AcDbEntity
  8
0
  6
Continuous
 62
     7
370
    25
100
AcDbLine
 10
233.629135522
 20
148.4680885446
 30
0.0
 11
234.229135522
 21
148.4680885446
 31
0.0
  0
LINE
  5
4D5
330
1F
100
AcDbEntity
  8
0
  6
Continuous
 62
     7
370
    25
100
AcDbLine
 10
234.229135522
 20
144.2680885446
 30
0.0
 11
233.629135522
 21
144.2680885446
 31
0.0
  0
LINE
  5
4D6
330
1F
100
AcDbEntity
  8
0
  6
Continuous
 62
     7
370
    25
100
AcDbLine
 10
234.229135522
 20
148.4680885446
 30
0.0
 11
237.029135522
 21
148.4680885446
 31
0.0
  0
LINE
  5
4D7
330
1F
100
AcDbEntity
  8
0
  6
Continuous
 62
     7
370
    25
100
AcDbLine
 10
237.029135522
 20
144.2680885446
 30
0.0
 11
234.229135522
 21
144.2680885446
 31
0.0
  0
LINE
  5
4D8
330
1F
100
AcDbEntity
  8
0
  6
Continuous
 62
     7
370
    25
100
AcDbLine
 10
244.929135522
 20
148.9680885446
 30
0.0
 11
244.929135522
 21
149.2680885446
 31
0.0
  0
LINE
  5
4D9
330
1F
100
AcDbEntity
  8
0
  6
Continuous
 62
     7
370
    25
100
AcDbLine
 10
246.029135522
 20
148.9680885446
 30
0.0
 11
244.929135522
 21
148.9680885446
 31
0.0
  0
LINE
  5
4DA
330
1F
100
AcDbEntity
  8
0
  6
Continuous
 62
     7
370
    25
100
AcDbLine
 10
271.129135522
 20
150.9680885446
 30
0.0
 11
251.029135522
 21
150.9680885446
 31
0.0
  0
LINE
  5
4DB
330
1F
100
AcDbEntity
  8
0
  6
Continuous
 62
     7
370
    25
100
AcDbLine
 10
271.129135522
 20
150.9680885446
 30
0.0
 11
271.129135522
 21
144.7180885446
 31
0.0
  0
LINE
  5
4DC
330
1F
100
AcDbEntity
  8
0
  6
Continuous
 62
     7
370
    25
100
AcDbLine
 10
271.129135522
 20
144.7180885446
 30
0.0
 11
267.129135522
 21
144.7180885446
 31
0.0
  0
LINE
  5
4DD
330
1F
100
AcDbEntity
  8
0
  6
Continuous
 62
     7
370
    25
100
AcDbLine
 10
267.129135522
 20
144.7180885446
 30
0.0
 11
267.129135522
 21
137.2180885446
 31
0.0
  0
LINE
  5
4DE
330
1F
100
AcDbEntity
  8
0
  6
Continuous
 62
     7
370
    25
100
AcDbLine
 10
270.529135522
 20
137.2180885446
 30
0.0
 11
267.129135522
 21
137.2180885446
 31
0.0
  0
LINE
  5
4DF
330
1F
100
AcDbEntity
  8
0
  6
Continuous
 62
     7
370
    25
100
AcDbLine
 10
270.529135522
 20
135.1180885446
 30
0.0
 11
270.529135522
 21
137.2180885446
 31
0.0
  0
LINE
  5
4E0
330
1F
100
AcDbEntity
  8
0
  6
Continuous
 62
     7
370
    25
100
AcDbLine
 10
267.129135522
 20
135.1180885446
 30
0.0
 11
270.529135522
 21
135.1180885446
 31
0.0
  0
LINE
  5
4E1
330
1F
100
AcDbEntity
  8
0
  6
Continuous
 62
     7
370
    25
100
AcDbLine
 10
267.129135522
 20
135.1180885446
 30
0.0
 11
267.129135522
 21
134.9680885446
 31
0.0
  0
LINE
  5
4E2
330
1F
100
AcDbEntity
  8
0
  6
Continuous
 62
     7
370
    25
100
AcDbLine
 10
267.129135522
 20
118.9680885446
 30
0.0
 11
267.129135522
 21
118.8180885446
 31
0.0
  0
LINE
  5
4E3
330
1F
100
AcDbEntity
  8
0
  6
Continuous
 62
     7
370
    25
100
AcDbLine
 10
267.129135522
 20
118.8180885446
 30
0.0
 11
270.529135522
 21
118.8180885446
 31
0.0
  0
LINE
  5
4E4
330
1F
100
AcDbEntity
  8
0
  6
Continuous
 62
     7
370
    25
100
AcDbLine
 10
270.529135522
 20
116.7180885446
 30
0.0
 11
270.529135522
 21
118.8180885446
 31
0.0
  0
LINE
  5
4E5
330
1F
100
AcDbEntity
  8
0
  6
Continuous
 62
     7
370
    25
100
AcDbLine
 10
270.529135522
 20
116.7180885446
 30
0.0
 11
267.129135522
 21
116.7180885446
 31
0.0
  0
LINE
  5
4E6
330
1F
100
AcDbEntity
  8
0
  6
Continuous
 62
     7
370
    25
100
AcDbLine
 10
267.129135522
 20
116.7180885446
 30
0.0
 11
267.129135522
 21
109.2180885446
 31
0.0
  0
LINE
  5
4E7
330
1F
100
AcDbEntity
  8
0
  6
Continuous
 62
     7
370
    25
100
AcDbLine
 10
270.2631101182
 20
109.2180885446
 30
0.0
 11
267.129135522
 21
109.2180885446
 31
0.0
  0
LINE
  5
4E8
330
1F
100
AcDbEntity
  8
0
  6
Continuous
 62
     7
370
    25
100
AcDbLine
 10
271.129135522
 20
107.7180885446
 30
0.0
 11
270.2631101182
 21
109.2180885446
 31
0.0
  0
LINE
  5
4E9
330
1F
100
AcDbEntity
  8
0
  6
Continuous
 62
     7
370
    25
100
AcDbLine
 10
271.129135522
 20
107.7180885446
 30
0.0
 11
271.129135522
 21
102.9680885446
 31
0.0
  0
LINE
  5
4EA
330
1F
100
AcDbEntity
  8
0
  6
Continuous
 62
     7
370
    25
100
AcDbLine
 10
251.029135522
 20
102.9680885446
 30
0.0
 11
271.129135522
 21
102.9680885446
 31
0.0
  0
LINE
  5
4EB
330
1F
100
AcDbEntity
  8
0
  6
Continuous
 62
     7
370
    25
100
AcDbLine
 10
251.029135522
 20
102.9680885446
 30
0.0
 11
251.029135522
 21
150.9680885446
 31
0.0
  0
LINE
  5
4EC
330
1F
100
AcDbEntity
  8
0
  6
Continuous
 62
     7
370
    25
100
AcDbLine
 10
271.129135522
 20
101.9680885446
 30
0.0
 11
251.029135522
 21
101.9680885446
 31
0.0
  0
LINE
  5
4ED
330
1F
100
AcDbEntity
  8
0
  6
Continuous
 62
     7
370
    25
100
AcDbLine
 10
251.029135522
 20
102.9680885446
 30
0.0
 11
251.029135522
 21
101.9680885446
 31
0.0
  0
LINE
  5
4EE
330
1F
100
AcDbEntity
  8
0
  6
Continuous
 62
     7
370
    25
100
AcDbLine
 10
271.129135522
 20
102.9680885446
 30
0.0
 11
271.129135522
 21
101.9680885446
 31
0.0
  0
LINE
  5
4EF
330
1F
100
AcDbEntity
  8
0
  6
Continuous
 62
     7
370
    25
100
AcDbLine
 10
251.029135522
 20
151.9680885446
 30
0.0
 11
271.129135522
 21
151.9680885446
 31
0.0
  0
LINE
  5
4F0
330
1F
100
AcDbEntity
  8
0
  6
Continuous
 62
     7
370
    25
100
AcDbLine
 10
271.129135522
 20
151.9680885446
 30
0.0
 11
271.129135522
 21
150.9680885446
 31
0.0
  0
LINE
  5
4F1
330
1F
100
AcDbEntity
  8
0
  6
Continuous
 62
     7
370
    25
100
AcDbLine
 10
251.029135522
 20
151.9680885446
 30
0.0
 11
251.029135522
 21
150.9680885446
 31
0.0
  0
LINE
  5
4F2
330
1F
100
AcDbEntity
  8
0
  6
Continuous
 62
     7
370
    25
100
AcDbLine
 10
246.329135522
 20
149.2680885446
 30
0.0
 11
246.329135522
 21
143.4680885446
 31
0.0
  0
LINE
  5
4F3
330
1F
100
AcDbEntity
  8
0
  6
Continuous
 62
     7
370
    25
100
AcDbLine
 10
246.029135522
 20
143.4680885446
 30
0.0
 11
246.029135522
 21
144.2680885446
 31
0.0
  0
LINE
  5
4F4
330
1F
100
AcDbEntity
  8
0
  6
Continuous
 62
     7
370
    25
100
AcDbLine
 10
246.029135522
 20
148.4680885446
 30
0.0
 11
246.029135522
 21
149.2680885446
 31
0.0
  0
LINE
  5
4F5
330
1F
100
AcDbEntity
  8
0
  6
Continuous
 62
     7
370
    25
100
AcDbLine
 10
268.779135522
 20
120.5680885446
 30
0.0
 11
268.779135522
 21
118.8180885446
 31
0.0
  0
LINE
  5
4F6
330
1F
100
AcDbEntity
  8
0
  6
Continuous
 62
     7
370
    25
100
AcDbLine
 10
270.029135522
 20
120.5680885446
 30
0.0
 11
270.529135522
 21
120.5680885446
 31
0.0
  0
LINE
  5
4F7
330
1F
100
AcDbEntity
  8
0
  6
Continuous
 62
     7
370
    25
100
AcDbLine
 10
270.529135522
 20
120.5680885446
 30
0.0
 11
270.529135522
 21
118.8180885446
 31
0.0
  0
LINE
  5
4F8
330
1F
100
AcDbEntity
  8
0
  6
Continuous
 62
     7
370
    25
100
AcDbLine
 10
270.029135522
 20
133.3680885446
 30
0.0
 11
270.529135522
 21
133.3680885446
 31
0.0
  0
LINE
  5
4F9
330
1F
100
AcDbEntity
  8
0
  6
Continuous
 62
     7
370
    25
100
AcDbLine
 10
268.779135522
 20
135.1180885446
 30
0.0
 11
268.779135522
 21
133.3680885446
 31
0.0
  0
LINE
  5
4FA
330
1F
100
AcDbEntity
  8
0
  6
Continuous
 62
     7
370
    25
100
AcDbLine
 10
270.529135522
 20
135.1180885446
 30
0.0
 11
270.529135522
 21
133.3680885446
 31
0.0
  0
LINE
  5
4FB
330
1F
100
AcDbEntity
  8
0
  6
Continuous
 62
     7
370
    25
100
AcDbLine
 10
267.129135522
 20
142.0680885446
 30
0.0
 11
267.379135522
 21
142.0680885446
 31
0.0
  0
ARC
  5
4FC
330
1F
100
AcDbEntity
  8
0
  6
Continuous
 62
     7
370
    25
100
AcDbCircle
 10
266.579135522
 20
141.4680885446
 30
0.0
 40
1.00000000000001
100
AcDbArc
 50
18.1948723388
 51
36.8698976458
  0
ARC
  5
4FD
330
1F
100
AcDbEntity
  8
0
  6
Continuous
 62
     7
370
    25
100
AcDbCircle
 10
266.579135522
 20
141.4680885446
 30
0.0
 40
1.000000000000019
100
AcDbArc
 50
323.1301023542
 51
341.8051276612
  0
LINE
  5
4FE
330
1F
100
AcDbEntity
  8
0
  6
Continuous
 62
     7
370
    25
100
AcDbLine
 10
267.379135522
 20
140.8680885446
 30
0.0
 11
267.129135522
 21
140.8680885446
 31
0.0
  0
ARC
  5
4FF
330
1F
100
AcDbEntity
  8
0
  6
Continuous
 62
     7
370
    25
100
AcDbCircle
 10
269.8933047112
 20
143.2180885446
 30
0.0
 40
0.2999999999999829
100
AcDbArc
 50
270.0
 51
329.3949456031
  0
LINE
  5
500
330
1F
100
AcDbEntity
  8
0
  6
Continuous
 62
     7
370
    25
100
AcDbLine
 10
269.8933047112
 20
142.9180885446
 30
0.0
 11
268.8976483599
 21
142.9180885446
 31
0.0
  0
ARC
  5
501
330
1F
100
AcDbEntity
  8
0
  6
Continuous
 62
     7
370
    25
100
AcDbCircle
 10
268.8976483599
 20
143.2180885446
 30
0.0
 40
0.2999999999999878
100
AcDbArc
 50
186.3401917459
 51
270.0
  0
LINE
  5
502
330
1F
100
AcDbEntity
  8
0
  6
Continuous
 62
     7
370
    25
100
AcDbLine
 10
268.5994832395
 20
143.1849590867
 30
0.0
 11
268.429135522
 21
144.7180885446
 31
0.0
  0
LINE
  5
503
330
1F
100
AcDbEntity
  8
0
  6
Continuous
 62
     7
370
    25
100
AcDbLine
 10
271.129135522
 20
144.7180885446
 30
0.0
 11
270.1515138467
 21
143.0653533411
 31
0.0
  0
LINE
  5
504
330
1F
100
AcDbEntity
  8
0
  6
Continuous
 62
     7
370
    25
100
AcDbLine
 10
270.529135522
 20
120.5680885446
 30
0.0
 11
270.529135522
 21
133.3680885446
 31
0.0
  0
LINE
  5
505
330
1F
100
AcDbEntity
  8
0
  6
Continuous
 62
     7
370
    25
100
AcDbLine
 10
205.929135522
 20
143.5180885446
 30
0.0
 11
205.929135522
 21
142.0180885446
 31
0.0
  0
LINE
  5
506
330
1F
100
AcDbEntity
  8
0
  6
Continuous
 62
     7
370
    25
100
AcDbLine
 10
205.929135522
 20
147.5180885446
 30
0.0
 11
205.929135522
 21
146.0180885446
 31
0.0
  0
LINE
  5
507
330
1F
100
AcDbEntity
  8
0
  6
Continuous
 62
     7
370
    25
100
AcDbLine
 10
264.229135522
 20
101.5180885446
 30
0.0
 11
264.229135522
 21
100.6180885446
 31
0.0
  0
LINE
  5
508
330
1F
100
AcDbEntity
  8
0
  6
Continuous
 62
     7
370
    25
100
AcDbLine
 10
264.229135522
 20
101.9680885446
 30
0.0
 11
264.229135522
 21
101.5180885446
 31
0.0
  0
LINE
  5
509
330
1F
100
AcDbEntity
  8
0
  6
Continuous
 62
     7
370
    25
100
AcDbLine
 10
235.4379142119
 20
114.0180885446
 30
0.0
 11
235.4379142119
 21
108.2181006519
 31
0.0
  0
LINE
  5
50A
330
1F
100
AcDbEntity
  8
0
  6
Continuous
 62
     7
370
    25
100
AcDbLine
 10
234.4893773269
 20
113.3347552112
 30
0.0
 11
234.4893773269
 21
111.6167003786
 31
0.0
  0
LINE
  5
50B
330
1F
100
AcDbEntity
  8
0
  6
Continuous
 62
     7
370
    25
100
AcDbLine
 10
234.4893773269
 20
110.6319673325
 30
0.0
 11
234.4893773269
 21
108.9014218779
 31
0.0
  0
LINE
  5
50C
330
1F
100
AcDbEntity
  8
0
  6
Continuous
 62
     7
370
    25
100
AcDbLine
 10
217.8605040863
 20
106.9733466931
 30
0.0
 11
217.9186566853
 21
106.973656621
 31
0.0
  0
LINE
  5
50D
330
1F
100
AcDbEntity
  8
0
  6
Continuous
 62
     7
370
    25
100
AcDbLine
 10
215.8063305652
 20
106.4623917476
 30
0.0
 11
215.8063105456
 21
106.4661480857
 31
0.0
  0
MTEXT
  5
50F
330
1F
100
AcDbEntity
  8
0
  6
Continuous
 62
     7
370
     0
100
AcDbMText
 10
240.0407771658
 20
85.3221510228
 30
0.0
 40
3.5
 41
0.0
 71
     1
 72
     1
  1
000
  7
SLDTEXTSTYLE0
 73
     1
 44
1.0
  0
ENDSEC
  0
SECTION
  2
OBJECTS
  0
DICTIONARY
  5
C
330
0
100
AcDbDictionary
281
     1
  3
ACAD_GROUP
350
D
  3
ACAD_LAYOUT
350
1A
  3
ACAD_MLINESTYLE
350
17
  3
ACAD_PLOTSETTINGS
350
19
  3
ACAD_PLOTSTYLENAME
350
E
  3
ACAD_SCALELIST
350
47
  3
DWGPROPS
350
510
  0
DICTIONARY
  5
D
102
{ACAD_REACTORS
330
C
102
}
330
C
100
AcDbDictionary
281
     1
  0
DICTIONARY
  5
1A
102
{ACAD_REACTORS
330
C
102
}
330
C
100
AcDbDictionary
281
     1
  3
Layout1
350
1E
  3
Layout2
350
26
  3
Model
350
22
  0
DICTIONARY
  5
17
102
{ACAD_REACTORS
330
C
102
}
330
C
100
AcDbDictionary
281
     1
  3
Standard
350
18
  0
DICTIONARY
  5
19
102
{ACAD_REACTORS
330
C
102
}
330
C
100
AcDbDictionary
281
     1
  0
ACDBDICTIONARYWDFLT
  5
E
102
{ACAD_REACTORS
330
C
102
}
330
C
100
AcDbDictionary
281
     1
  3
Normal
350
F
100
AcDbDictionaryWithDefault
340
F
  0
DICTIONARY
  5
47
102
{ACAD_REACTORS
330
C
102
}
330
C
100
AcDbDictionary
281
     1
  3
A0
350
48
  3
A1
350
49
  3
A2
350
4A
  3
A3
350
4B
  3
A4
350
4C
  3
A5
350
4D
  3
A6
350
4E
  3
A7
350
4F
  3
A8
350
50
  3
A9
350
51
  3
B0
350
52
  3
B1
350
53
  3
B2
350
54
  3
B3
350
55
  3
B4
350
56
  3
B5
350
57
  3
B6
350
58
  0
XRECORD
  5
510
102
{ACAD_REACTORS
330
C
102
}
330
C
100
AcDbXrecord
280
     1
  1
DWGPROPS COOKIE
  2

  3

  4

  6

  7

  8
miyaki
  9

300
=
301
=
302
=
303
=
304
=
305
=
306
=
307
=
308
=
309
=
 40
0.0
 41
2460712.09899875
 42
2460712.098999121
  1

 90
        0
  0
LAYOUT
  5
1E
102
{ACAD_REACTORS
330
1A
102
}
330
1A
100
AcDbPlotSettings
  1

  2
none_device
  4

  6

 40
0.0
 41
0.0
 42
0.0
 43
0.0
 44
0.0
 45
0.0
 46
0.0
 47
0.0
 48
0.0
 49
0.0
140
0.0
141
0.0
142
1.0
143
1.0
 70
   688
 72
     1
 73
     0
 74
     5
  7

 75
    16
147
1.0
148
0.0
149
0.0
100
AcDbLayout
  1
Layout1
 70
     1
 71
     1
 10
0.0
 20
0.0
 11
420.0
 21
297.0
 12
0.0
 22
0.0
 32
0.0
 14
1.0000000000E+20
 24
1.0000000000E+20
 34
1.0000000000E+20
 15
-1.0000000000E+20
 25
-1.0000000000E+20
 35
-1.0000000000E+20
146
0.0
 13
0.0
 23
0.0
 33
0.0
 16
1.0
 26
0.0
 36
0.0
 17
0.0
 27
1.0
 37
0.0
 76
     0
330
1B
  0
LAYOUT
  5
26
102
{ACAD_REACTORS
330
1A
102
}
330
1A
100
AcDbPlotSettings
  1

  2
none_device
  4

  6

 40
0.0
 41
0.0
 42
0.0
 43
0.0
 44
0.0
 45
0.0
 46
0.0
 47
0.0
 48
0.0
 49
0.0
140
0.0
141
0.0
142
1.0
143
1.0
 70
   688
 72
     1
 73
     0
 74
     5
  7

 75
    16
147
1.0
148
0.0
149
0.0
100
AcDbLayout
  1
Layout2
 70
     1
 71
     2
 10
0.0
 20
0.0
 11
0.0
 21
0.0
 12
0.0
 22
0.0
 32
0.0
 14
0.0
 24
0.0
 34
0.0
 15
0.0
 25
0.0
 35
0.0
146
0.0
 13
0.0
 23
0.0
 33
0.0
 16
1.0
 26
0.0
 36
0.0
 17
0.0
 27
1.0
 37
0.0
 76
     0
330
23
  0
LAYOUT
  5
22
102
{ACAD_REACTORS
330
1A
102
}
330
1A
100
AcDbPlotSettings
  1

  2
none_device
  4
Letter_(8.50_x_11.00_Inches)
  6

 40
6.35
 41
6.35
 42
6.35000508
 43
6.35000508
 44
215.9
 45
279.4
 46
0.0
 47
0.0
 48
0.0
 49
0.0
140
0.0
141
0.0
142
1.0
143
1.0
 70
  1712
 72
     1
 73
     0
 74
     0
  7

 75
     0
147
1.0
148
0.0
149
0.0
100
AcDbLayout
  1
Model
 70
     1
 71
     0
 10
0.0
 20
0.0
 11
297.0
 21
210.0
 12
0.0
 22
0.0
 32
0.0
 14
0.0
 24
0.0
 34
0.0
 15
297.0
 25
210.0
 35
0.0
146
0.0
 13
0.0
 23
0.0
 33
0.0
 16
1.0
 26
0.0
 36
0.0
 17
0.0
 27
1.0
 37
0.0
 76
     0
330
1F
331
29
  0
MLINESTYLE
  5
18
102
{ACAD_REACTORS
330
17
102
}
330
17
100
AcDbMlineStyle
  2
Standard
 70
     0
  3

 62
   256
 51
90.0
 52
90.0
 71
     2
 49
0.5
 62
   256
  6
BYLAYER
 49
-0.5
 62
   256
  6
BYLAYER
  0
ACDBPLACEHOLDER
  5
F
102
{ACAD_REACTORS
330
E
102
}
330
E
  0
SCALE
  5
48
102
{ACAD_REACTORS
330
47
102
}
330
47
100
AcDbScale
 70
     0
300
1:1
140
1.0
141
1.0
290
     1
  0
SCALE
  5
49
102
{ACAD_REACTORS
330
47
102
}
330
47
100
AcDbScale
 70
     0
300
1:2
140
1.0
141
2.0
290
     0
  0
SCALE
  5
4A
102
{ACAD_REACTORS
330
47
102
}
330
47
100
AcDbScale
 70
     0
300
1:4
140
1.0
141
4.0
290
     0
  0
SCALE
  5
4B
102
{ACAD_REACTORS
330
47
102
}
330
47
100
AcDbScale
 70
     0
300
1:5
140
1.0
141
5.0
290
     0
  0
SCALE
  5
4C
102
{ACAD_REACTORS
330
47
102
}
330
47
100
AcDbScale
 70
     0
300
1:8
140
1.0
141
8.0
290
     0
  0
SCALE
  5
4D
102
{ACAD_REACTORS
330
47
102
}
330
47
100
AcDbScale
 70
     0
300
1:10
140
1.0
141
10.0
290
     0
  0
SCALE
  5
4E
102
{ACAD_REACTORS
330
47
102
}
330
47
100
AcDbScale
 70
     0
300
1:16
140
1.0
141
16.0
290
     0
  0
SCALE
  5
4F
102
{ACAD_REACTORS
330
47
102
}
330
47
100
AcDbScale
 70
     0
300
1:20
140
1.0
141
20.0
290
     0
  0
SCALE
  5
50
102
{ACAD_REACTORS
330
47
102
}
330
47
100
AcDbScale
 70
     0
300
1:30
140
1.0
141
30.0
290
     0
  0
SCALE
  5
51
102
{ACAD_REACTORS
330
47
102
}
330
47
100
AcDbScale
 70
     0
300
1:40
140
1.0
141
40.0
290
     0
  0
SCALE
  5
52
102
{ACAD_REACTORS
330
47
102
}
330
47
100
AcDbScale
 70
     0
300
1:50
140
1.0
141
50.0
290
     0
  0
SCALE
  5
53
102
{ACAD_REACTORS
330
47
102
}
330
47
100
AcDbScale
 70
     0
300
1:100
140
1.0
141
100.0
290
     0
  0
SCALE
  5
54
102
{ACAD_REACTORS
330
47
102
}
330
47
100
AcDbScale
 70
     0
300
2:1
140
2.0
141
1.0
290
     0
  0
SCALE
  5
55
102
{ACAD_REACTORS
330
47
102
}
330
47
100
AcDbScale
 70
     0
300
4:1
140
4.0
141
1.0
290
     0
  0
SCALE
  5
56
102
{ACAD_REACTORS
330
47
102
}
330
47
100
AcDbScale
 70
     0
300
8:1
140
8.0
141
1.0
290
     0
  0
SCALE
  5
57
102
{ACAD_REACTORS
330
47
102
}
330
47
100
AcDbScale
 70
     0
300
10:1
140
10.0
141
1.0
290
     0
  0
SCALE
  5
58
102
{ACAD_REACTORS
330
47
102
}
330
47
100
AcDbScale
 70
     0
300
100:1
140
100.0
141
1.0
290
     0
  0
ENDSEC
  0
EOF
