  0
SECTION
  2
HEADER
  9
$ACADVER
  1
AC1014
  9
$ACADMAINTVER
 70
       0
  9
$DWGCODEPAGE
  3
ANSI_932
  9
$INSBASE
 10
0.0
 20
0.0
 30
0.0
  9
$EXTMIN
 10
-58.71585105
 20
-84.38179857
 30
0.0
  9
$EXTMAX
 10
55.46585107
 20
81.88179857
 30
0.0
  9
$LIMMIN
 10
-62.28402924
 20
-89.57753598
  9
$LIMMAX
 10
59.03402926
 20
87.07753598
  9
$ORTHOMODE
 70
       0
  9
$REGENMODE
 70
       1
  9
$FILLMODE
 70
       1
  9
$QTEXTMODE
 70
       0
  9
$MIRRTEXT
 70
       1
  9
$DRAGMODE
 70
       2
  9
$LTSCALE
 40
1.0
  9
$OSMODE
 70
       0
  9
$ATTMODE
 70
       1
  9
$TEXTSIZE
 40
0.2
  9
$TRACEWID
 40
0.05
  9
$TEXTSTYLE
  7
STANDARD
  9
$CLAYER
  8
0
  9
$CELTYPE
  6
CONTINUOUS
  9
$CECOLOR
 62
     256
  9
$CELTSCALE
 40
1.0
  9
$DELOBJ
 70
       1
  9
$DISPSILH
 70
       0
  9
$DIMSCALE
 40
1.0
  9
$DIMASZ
 40
0.18
  9
$DIMEXO
 40
0.0625
  9
$DIMDLI
 40
0.38
  9
$DIMRND
 40
0.0
  9
$DIMDLE
 40
0.0
  9
$DIMEXE
 40
0.18
  9
$DIMTP
 40
0.0
  9
$DIMTM
 40
0.0
  9
$DIMTXT
 40
0.18
  9
$DIMCEN
 40
0.09
  9
$DIMTSZ
 40
0.0
  9
$DIMTOL
 70
       0
  9
$DIMLIM
 70
       0
  9
$DIMTIH
 70
       1
  9
$DIMTOH
 70
       1
  9
$DIMSE1
 70
       0
  9
$DIMSE2
 70
       0
  9
$DIMTAD
 70
       0
  9
$DIMZIN
 70
       0
  9
$DIMBLK
  1

  9
$DIMASO
 70
       1
  9
$DIMSHO
 70
       1
  9
$DIMPOST
  1

  9
$DIMAPOST
  1

  9
$DIMALT
 70
       0
  9
$DIMALTD
 70
       2
  9
$DIMALTF
 40
25.4
  9
$DIMLFAC
 40
1.0
  9
$DIMTOFL
 70
       0
  9
$DIMTVP
 40
0.0
  9
$DIMTIX
 70
       0
  9
$DIMSOXD
 70
       0
  9
$DIMSAH
 70
       0
  9
$DIMBLK1
  1

  9
$DIMBLK2
  1

  9
$DIMSTYLE
  2
STANDARD
  9
$DIMCLRD
 70
       0
  9
$DIMCLRE
 70
       0
  9
$DIMCLRT
 70
       0
  9
$DIMTFAC
 40
1.0
  9
$DIMGAP
 40
0.09
  9
$DIMJUST
 70
       0
  9
$DIMSD1
 70
       0
  9
$DIMSD2
 70
       0
  9
$DIMTOLJ
 70
       1
  9
$DIMTZIN
 70
       0
  9
$DIMALTZ
 70
       0
  9
$DIMALTTZ
 70
       0
  9
$DIMFIT
 70
       3
  9
$DIMUPT
 70
       0
  9
$DIMUNIT
 70
       2
  9
$DIMDEC
 70
       4
  9
$DIMTDEC
 70
       4
  9
$DIMALTU
 70
       2
  9
$DIMALTTD
 70
       2
  9
$DIMTXSTY
  7
STANDARD
  9
$DIMAUNIT
 70
       0
  9
$LUNITS
 70
       2
  9
$LUPREC
 70
       4
  9
$SKETCHINC
 40
0.1
  9
$FILLETRAD
 40
0.0
  9
$AUNITS
 70
       0
  9
$AUPREC
 70
       0
  9
$MENU
  1
acad
  9
$ELEVATION
 40
0.0
  9
$PELEVATION
 40
0.0
  9
$THICKNESS
 40
0.0
  9
$LIMCHECK
 70
       0
  9
$BLIPMODE
 70
       1
  9
$CHAMFERA
 40
0.0
  9
$CHAMFERB
 40
0.0
  9
$CHAMFERC
 40
0.0
  9
$CHAMFERD
 40
0.0
  9
$SKPOLY
 70
       0
  9
$TDCREATE
 40
0.000000000
  9
$TDUPDATE
 40
0.000000000
  9
$TDINDWG
 40
0.0000000000
  9
$TDUSRTIMER
 40
0.0000000000
  9
$USRTIMER
 70
       1
  9
$ANGBASE
 50
0.0
  9
$ANGDIR
 70
       0
  9
$PDMODE
 70
       0
  9
$PDSIZE
 40
1.0
  9
$PLINEWID
 40
0.0
  9
$COORDS
 70
       1
  9
$SPLFRAME
 70
       0
  9
$SPLINETYPE
 70
       6
  9
$SPLINESEGS
 70
       8
  9
$ATTDIA
 70
       0
  9
$ATTREQ
 70
       1
  9
$HANDLING
 70
       1
  9
$HANDSEED
  5
2E8
  9
$SURFTAB1
 70
       6
  9
$SURFTAB2
 70
       6
  9
$SURFTYPE
 70
       6
  9
$SURFU
 70
       6
  9
$SURFV
 70
       6
  9
$UCSNAME
  2

  9
$UCSORG
 10
0.0
 20
0.0
 30
0.0
  9
$UCSXDIR
 10
1.0
 20
0.0
 30
0.0
  9
$UCSYDIR
 10
0.0
 20
1.0
 30
0.0
  9
$PUCSNAME
  2

  9
$PUCSORG
 10
0.0
 20
0.0
 30
0.0
  9
$PUCSXDIR
 10
1.0
 20
0.0
 30
0.0
  9
$PUCSYDIR
 10
0.0
 20
1.0
 30
0.0
  9
$USERI1
 70
       0
  9
$USERI2
 70
       0
  9
$USERI3
 70
       0
  9
$USERI4
 70
       0
  9
$USERI5
 70
       0
  9
$USERR1
 40
0.0
  9
$USERR2
 40
0.0
  9
$USERR3
 40
0.0
  9
$USERR4
 40
0.0
  9
$USERR5
 40
0.0
  9
$WORLDVIEW
 70
       1
  9
$SHADEDGE
 70
       3
  9
$SHADEDIF
 70
      70
  9
$TILEMODE
 70
       1
  9
$MAXACTVP
 70
      16
  9
$PINSBASE
 10
0.0
 20
0.0
 30
0.0
  9
$PLIMCHECK
 70
       0
  9
$PEXTMIN
 10
1.00000000E+20
 20
1.00000000E+20
 30
1.00000000E+20
  9
$PEXTMAX
 10
-1.00000000E+20
 20
-1.00000000E+20
 30
-1.00000000E+20
  9
$PLIMMIN
 10
0.0
 20
0.0
  9
$PLIMMAX
 10
12.0
 20
9.0
  9
$UNITMODE
 70
       0
  9
$VISRETAIN
 70
       0
  9
$PLINEGEN
 70
       1
  9
$PSLTSCALE
 70
       0
  9
$TREEDEPTH
 70
    3020
  9
$PICKSTYLE
 70
       1
  9
$CMLSTYLE
  2
STANDARD
  9
$CMLJUST
 70
       0
  9
$CMLSCALE
 40
1.0
  9
$PROXYGRAPHICS
 70
       0
  9
$MEASUREMENT
 70
       0
  0
ENDSEC
  0
SECTION
  2
CLASSES
  0
CLASS
  1
LWPOLYLINE
  2
AcDbPolyline
  3
"AutoCAD"
 90
        0
280
       0
281
       1
  0
CLASS
  1
IMAGE
  2
AcDbRasterImage
  3
ISM
 90
      127
280
       0
281
       1
  0
CLASS
  1
OLE2FRAME
  2
AcDbOle2Frame
  3
""
 90
        0
280
       0
281
       1
  0
CLASS
  1
HATCH
  2
AcDbHatch
  3
"ACAD_SEDONA"
 90
        0
280
       0
281
       1
  0
CLASS
  1
DICTIONARYVAR
  2
AcDbDictionaryVar
  3
"AutoCAD"
 90
        0
280
       0
281
       0
  0
CLASS
  1
RASTERVARIABLES
  2
AcDbRasterVariables
  3
ISM
 90
        0
280
       0
281
       0
  0
CLASS
  1
IMAGEDEF
  2
AcDbRasterImageDef
  3
ISM
 90
        0
280
       0
281
       0
  0
CLASS
  1
IMAGEDEF_REACTOR
  2
AcDbRasterImageDefReactor
  3
ISM
 90
        1
280
       0
281
       0
  0
CLASS
  1
IDBUFFER
  2
AcDbIdBuffer
  3
"Acad"
 90
        0
280
       0
281
       0
  0
CLASS
  1
SPATIAL_FILTER
  2
AcDbSpatialFilter
  3
"Acad"
 90
        0
280
       0
281
       0
  0
CLASS
  1
XRECORD
  2
AcDbXrecord
  3
"<Built In>"
 90
        0
280
       0
281
       0
  0
CLASS
  1
SORTENTSTABLE
  2
AcDbSortentsTable
  3
"AutoCAD"
 90
        0
280
       0
281
       0
  0
CLASS
  1
LAYER_INDEX
  2
AcDbLayerIndex
  3
"Acad"
 90
        0
280
       0
281
       0
  0
CLASS
  1
SPATIAL_INDEX
  2
AcDbSpatialIndex
  3
"Acad"
 90
        0
280
       0
281
       0
  0
CLASS
  1
OBJECT_PTR
  2
CAseDLPNTableRecord
  3
"ASE-LPNTableRecord"
 90
        1
280
       0
281
       0
  0
CLASS
  1
LAYOUT
  2
AcDbLayout
  3
"AutoCAD 2000"
 90
        1
280
       0
281
       0
  0
CLASS
  1
PLOTSETTINGS
  2
AcDbPlotSettings
  3
"AutoCAD 2000"
 90
        1
280
       0
281
       0
  0
CLASS
  1
ACDBDICTIONARYWDFLT
  2
AcDbDictionaryWithDefault
  3
"AutoCAD 2000"
 90
        1
280
       0
281
       0
  0
CLASS
  1
ACDBPLACEHOLDER
  2
AcDbPlaceHolder
  3
"AutoCAD 2000"
 90
        1
280
       0
281
       0
  0
CLASS
  1
VBA_PROJECT
  2
AcDbVbaProject
  3
"acadvba"
 90
        1
280
       0
281
       0
  0
CLASS
  1
WIPEOUT
  2
AcDbWipeout
  3
WipeOut|AutoCAD Express Tool|expresstools@autodesk.com
 90
      127
280
       0
281
       1
  0
CLASS
  1
WIPEOUTVARIABLES
  2
AcDbWipeoutVariables
  3
WipeOut|AutoCAD Express Tool|expresstools@autodesk.com
 90
        0
280
       0
281
       0
  0
CLASS
  1
RTEXT
  2
RText
  3
RText|AutoCAD Express Tool|expresstools@autodesk.com
 90
        0
280
       0
281
       1
  0
CLASS
  1
ARCALIGNEDTEXT
  2
AcDbArcAlignedText
  3
ATEXT|AutoCAD Express Tool|expresstools@autodesk.com
 90
        0
280
       0
281
       1
  0
ENDSEC
  0
SECTION
  2
TABLES
  0
TABLE
  2
VPORT
  5
7
100
AcDbSymbolTable
 70
       1
  0
VPORT
  5
15
100
AcDbSymbolTableRecord
100
AcDbViewportTableRecord
  2
*ACTIVE
 70
       0
 10
0.0
 20
0.0
 11
1.0
 21
1.0
 12
-1.62499999
 22
-1.25
 13
0.0
 23
0.0
 14
1.0
 24
1.0
 15
0.0
 25
0.0
 16
0.0
 26
0.0
 36
1.0
 17
0.0
 27
0.0
 37
0.0
 40
176.65507197
 41
0.68675106
 42
50.0
 43
0.0
 44
0.0
 50
0.0
 51
0.0
 71
       0
 72
     100
 73
       1
 74
       1
 75
       0
 76
       0
 77
       0
 78
       0
  0
ENDTAB
  0
TABLE
  2
LTYPE
  5
4
100
AcDbSymbolTable
 70
      30
  0
LTYPE
  5
11
100
AcDbSymbolTableRecord
100
AcDbLinetypeTableRecord
  2
BYBLOCK
 70
      64
  3

 72
      65
 73
       0
 40
0.0
  0
LTYPE
  5
12
100
AcDbSymbolTableRecord
100
AcDbLinetypeTableRecord
  2
BYLAYER
 70
      64
  3

 72
      65
 73
       0
 40
0.0
  0
LTYPE
  5
13
100
AcDbSymbolTableRecord
100
AcDbLinetypeTableRecord
  2
CONTINUOUS
 70
      64
  3
Solid line
 72
      65
 73
       0
 40
0.0
  0
LTYPE
  5
1D
100
AcDbSymbolTableRecord
100
AcDbLinetypeTableRecord
  2
HIDDENX2
 70
      64
  3
CADPAC LINETYPE
 72
      65
 73
       2
 40
9.2554586
 49
6.94159395
 74
       0
 49
-2.31386465
 74
       0
  0
LTYPE
  5
1E
100
AcDbSymbolTableRecord
100
AcDbLinetypeTableRecord
  2
HIDDEN
 70
      64
  3
CADPAC LINETYPE
 72
      65
 73
       2
 40
6.94159395
 49
4.6277293
 74
       0
 49
-2.31386465
 74
       0
  0
LTYPE
  5
1F
100
AcDbSymbolTableRecord
100
AcDbLinetypeTableRecord
  2
HIDDEN2
 70
      64
  3
CADPAC LINETYPE
 72
      65
 73
       2
 40
5.78466162
 49
3.47079697
 74
       0
 49
-2.31386465
 74
       0
  0
LTYPE
  5
20
100
AcDbSymbolTableRecord
100
AcDbLinetypeTableRecord
  2
DASHED
 70
      64
  3
CADPAC LINETYPE
 72
      65
 73
       2
 40
6.94159395
 49
4.6277293
 74
       0
 49
-2.31386465
 74
       0
  0
LTYPE
  5
21
100
AcDbSymbolTableRecord
100
AcDbLinetypeTableRecord
  2
DASHED2
 70
      64
  3
CADPAC LINETYPE
 72
      65
 73
       2
 40
5.20619546
 49
3.47079697
 74
       0
 49
-1.73539849
 74
       0
  0
LTYPE
  5
22
100
AcDbSymbolTableRecord
100
AcDbLinetypeTableRecord
  2
DASHEDX2
 70
      64
  3
CADPAC LINETYPE
 72
      65
 73
       2
 40
10.41239092
 49
6.94159395
 74
       0
 49
-3.47079697
 74
       0
  0
LTYPE
  5
23
100
AcDbSymbolTableRecord
100
AcDbLinetypeTableRecord
  2
DOTX2
 70
      64
  3
CADPAC LINETYPE
 72
      65
 73
       2
 40
2.89233081
 49
0.0
 74
       0
 49
-2.89233081
 74
       0
  0
LTYPE
  5
24
100
AcDbSymbolTableRecord
100
AcDbLinetypeTableRecord
  2
DOT
 70
      64
  3
CADPAC LINETYPE
 72
      65
 73
       2
 40
2.31386465
 49
0.0
 74
       0
 49
-2.31386465
 74
       0
  0
LTYPE
  5
25
100
AcDbSymbolTableRecord
100
AcDbLinetypeTableRecord
  2
DOT2
 70
      64
  3
CADPAC LINETYPE
 72
      65
 73
       2
 40
1.73539849
 49
0.0
 74
       0
 49
-1.73539849
 74
       0
  0
LTYPE
  5
26
100
AcDbSymbolTableRecord
100
AcDbLinetypeTableRecord
  2
CENTERX2
 70
      64
  3
CADPAC LINETYPE
 72
      65
 73
       4
 40
13.8831879
 49
5.78466162
 74
       0
 49
-2.89233081
 74
       0
 49
2.31386465
 74
       0
 49
-2.89233081
 74
       0
  0
LTYPE
  5
27
100
AcDbSymbolTableRecord
100
AcDbLinetypeTableRecord
  2
CENTER
 70
      64
  3
CADPAC LINETYPE
 72
      65
 73
       4
 40
10.64377739
 49
4.6277293
 74
       0
 49
-2.31386465
 74
       0
 49
1.38831879
 74
       0
 49
-2.31386465
 74
       0
  0
LTYPE
  5
28
100
AcDbSymbolTableRecord
100
AcDbLinetypeTableRecord
  2
CENTER2
 70
      64
  3
CADPAC LINETYPE
 72
      65
 73
       4
 40
7.40436688
 49
3.47079697
 74
       0
 49
-1.73539849
 74
       0
 49
0.46277293
 74
       0
 49
-1.73539849
 74
       0
  0
LTYPE
  5
29
100
AcDbSymbolTableRecord
100
AcDbLinetypeTableRecord
  2
DASHDOTX2
 70
      64
  3
CADPAC LINETYPE
 72
      65
 73
       4
 40
11.56932325
 49
5.78466162
 74
       0
 49
-2.89233081
 74
       0
 49
0.0
 74
       0
 49
-2.89233081
 74
       0
  0
LTYPE
  5
2A
100
AcDbSymbolTableRecord
100
AcDbLinetypeTableRecord
  2
DASHDOT
 70
      64
  3
CADPAC LINETYPE
 72
      65
 73
       4
 40
9.2554586
 49
4.6277293
 74
       0
 49
-2.31386465
 74
       0
 49
0.0
 74
       0
 49
-2.31386465
 74
       0
  0
LTYPE
  5
2B
100
AcDbSymbolTableRecord
100
AcDbLinetypeTableRecord
  2
DASHDOT2
 70
      64
  3
CADPAC LINETYPE
 72
      65
 73
       4
 40
6.94159395
 49
3.47079697
 74
       0
 49
-1.73539849
 74
       0
 49
0.0
 74
       0
 49
-1.73539849
 74
       0
  0
LTYPE
  5
2C
100
AcDbSymbolTableRecord
100
AcDbLinetypeTableRecord
  2
DIVIDEX2
 70
      64
  3
CADPAC LINETYPE
 72
      65
 73
       6
 40
14.46165406
 49
5.78466162
 74
       0
 49
-2.89233081
 74
       0
 49
0.0
 74
       0
 49
-2.89233081
 74
       0
 49
0.0
 74
       0
 49
-2.89233081
 74
       0
  0
LTYPE
  5
2D
100
AcDbSymbolTableRecord
100
AcDbLinetypeTableRecord
  2
DIVIDE
 70
      64
  3
CADPAC LINETYPE
 72
      65
 73
       6
 40
11.56932325
 49
4.6277293
 74
       0
 49
-2.31386465
 74
       0
 49
0.0
 74
       0
 49
-2.31386465
 74
       0
 49
0.0
 74
       0
 49
-2.31386465
 74
       0
  0
LTYPE
  5
2E
100
AcDbSymbolTableRecord
100
AcDbLinetypeTableRecord
  2
DIVIDE2
 70
      64
  3
CADPAC LINETYPE
 72
      65
 73
       6
 40
8.67699243
 49
3.47079697
 74
       0
 49
-1.73539849
 74
       0
 49
0.0
 74
       0
 49
-1.73539849
 74
       0
 49
0.0
 74
       0
 49
-1.73539849
 74
       0
  0
LTYPE
  5
2F
100
AcDbSymbolTableRecord
100
AcDbLinetypeTableRecord
  2
BORDERX2
 70
      64
  3
CADPAC LINETYPE
 72
      65
 73
       6
 40
20.24631568
 49
5.78466162
 74
       0
 49
-2.89233081
 74
       0
 49
5.78466162
 74
       0
 49
-2.89233081
 74
       0
 49
0.0
 74
       0
 49
-2.89233081
 74
       0
  0
LTYPE
  5
30
100
AcDbSymbolTableRecord
100
AcDbLinetypeTableRecord
  2
BORDER
 70
      64
  3
CADPAC LINETYPE
 72
      65
 73
       6
 40
16.19705255
 49
4.6277293
 74
       0
 49
-2.31386465
 74
       0
 49
4.6277293
 74
       0
 49
-2.31386465
 74
       0
 49
0.0
 74
       0
 49
-2.31386465
 74
       0
  0
LTYPE
  5
31
100
AcDbSymbolTableRecord
100
AcDbLinetypeTableRecord
  2
BORDER2
 70
      64
  3
CADPAC LINETYPE
 72
      65
 73
       6
 40
12.14778941
 49
3.47079697
 74
       0
 49
-1.73539849
 74
       0
 49
3.47079697
 74
       0
 49
-1.73539849
 74
       0
 49
0.0
 74
       0
 49
-1.73539849
 74
       0
  0
LTYPE
  5
32
100
AcDbSymbolTableRecord
100
AcDbLinetypeTableRecord
  2
PHANTOMX2
 70
      64
  3
CADPAC LINETYPE
 72
      65
 73
       6
 40
17.35398487
 49
5.78466162
 74
       0
 49
-2.31386465
 74
       0
 49
2.31386465
 74
       0
 49
-2.31386465
 74
       0
 49
2.31386465
 74
       0
 49
-2.31386465
 74
       0
  0
LTYPE
  5
33
100
AcDbSymbolTableRecord
100
AcDbLinetypeTableRecord
  2
PHANTOM
 70
      64
  3
CADPAC LINETYPE
 72
      65
 73
       6
 40
14.34596083
 49
4.6277293
 74
       0
 49
-2.31386465
 74
       0
 49
1.38831879
 74
       0
 49
-2.31386465
 74
       0
 49
1.38831879
 74
       0
 49
-2.31386465
 74
       0
  0
LTYPE
  5
34
100
AcDbSymbolTableRecord
100
AcDbLinetypeTableRecord
  2
PHANTOM2
 70
      64
  3
CADPAC LINETYPE
 72
      65
 73
       6
 40
12.26348264
 49
3.47079697
 74
       0
 49
-2.31386465
 74
       0
 49
0.92554586
 74
       0
 49
-2.31386465
 74
       0
 49
0.92554586
 74
       0
 49
-2.31386465
 74
       0
  0
LTYPE
  5
35
100
AcDbSymbolTableRecord
100
AcDbLinetypeTableRecord
  2
ACAD_ISO06W100
 70
      64
  3
CADPAC LINETYPE
 72
      65
 73
       8
 40
15.61858638
 49
5.78466162
 74
       0
 49
-2.89233081
 74
       0
 49
0.0
 74
       0
 49
-2.31386465
 74
       0
 49
0.0
 74
       0
 49
-2.31386465
 74
       0
 49
0.0
 74
       0
 49
-2.31386465
 74
       0
  0
LTYPE
  5
36
100
AcDbSymbolTableRecord
100
AcDbLinetypeTableRecord
  2
ACAD_ISO13W100
 70
      64
  3
CADPAC LINETYPE
 72
      65
 73
       8
 40
18.51091719
 49
4.6277293
 74
       0
 49
-2.31386465
 74
       0
 49
4.6277293
 74
       0
 49
-2.31386465
 74
       0
 49
0.0
 74
       0
 49
-2.31386465
 74
       0
 49
0.0
 74
       0
 49
-2.31386465
 74
       0
  0
LTYPE
  5
37
100
AcDbSymbolTableRecord
100
AcDbLinetypeTableRecord
  2
ACAD_ISO14W100
 70
      64
  3
CADPAC LINETYPE
 72
      65
 73
       8
 40
13.8831879
 49
4.6277293
 74
       0
 49
-2.31386465
 74
       0
 49
0.0
 74
       0
 49
-2.31386465
 74
       0
 49
0.0
 74
       0
 49
-2.31386465
 74
       0
 49
0.0
 74
       0
 49
-2.31386465
 74
       0
  0
ENDTAB
  0
TABLE
  2
LAYER
  5
2
100
AcDbSymbolTable
 70
       2
  0
LAYER
  5
14
100
AcDbSymbolTableRecord
100
AcDbLayerTableRecord
  2
0
 70
       0
 62
       7
  6
CONTINUOUS
  0
LAYER
  5
38
100
AcDbSymbolTableRecord
100
AcDbLayerTableRecord
  2
SLD-0
 70
       0
 62
       7
  6
CONTINUOUS
  0
ENDTAB
  0
TABLE
  2
STYLE
  5
3
100
AcDbSymbolTable
 70
       1
  0
STYLE
  5
17
100
AcDbSymbolTableRecord
100
AcDbTextStyleTableRecord
  2
STANDARD
 70
       0
 40
0.0
 41
1.0
 50
0.0
 71
       0
 42
5.0
  3
txt.shx
  4
bigfont.shx
  0
ENDTAB
  0
TABLE
  2
VIEW
  5
5
100
AcDbSymbolTable
 70
       1
  0
VIEW
  5
39
100
AcDbSymbolTableRecord
100
AcDbViewTableRecord
  2
QQQQ
 70
       0
 40
176.65507197
 10
-1.62499999
 20
-1.25
 41
121.3180585
 11
0.0
 21
0.0
 31
1.0
 12
100.0
 22
100.0
 32
0.0
 42
50.0
 43
0.0
 44
0.0
 50
0.0
 71
       0
  0
ENDTAB
  0
TABLE
  2
UCS
  5
6
100
AcDbSymbolTable
 70
       0
  0
ENDTAB
  0
TABLE
  2
APPID
  5
8
100
AcDbSymbolTable
 70
       1
  0
APPID
  5
16
100
AcDbSymbolTableRecord
100
AcDbRegAppTableRecord
  2
ACAD
 70
       0
  0
ENDTAB
  0
TABLE
  2
DIMSTYLE
  5
9
100
AcDbSymbolTable
 70
       1
  0
DIMSTYLE
105
18
100
AcDbSymbolTableRecord
100
AcDbDimStyleTableRecord
  2
STANDARD
 70
       0
  3

  4

  5

  6

  7

 40
1.0
 41
0.18
 42
0.0625
 43
0.38
 44
0.18
 45
0.0
 46
0.0
 47
0.0
 48
0.0
 71
       0
 72
       0
 73
       1
 74
       1
 75
       0
 76
       0
 77
       0
 78
       0
140
0.18
141
0.09
142
0.0
143
25.4
144
1.0
145
0.0
146
1.0
147
0.09
170
       0
171
       2
172
       0
173
       0
174
       0
175
       0
176
       0
177
       0
178
       0
270
       2
271
       4
272
       4
273
       2
274
       2
275
       0
280
       0
281
       0
282
       0
283
       1
284
       0
285
       0
286
       0
287
       0
288
       0
340
17
  0
ENDTAB
  0
TABLE
  2
BLOCK_RECORD
  5
1
100
AcDbSymbolTable
 70
       0
  0
BLOCK_RECORD
  5
A
100
AcDbSymbolTableRecord
100
AcDbBlockTableRecord
  2
*MODEL_SPACE
  0
BLOCK_RECORD
  5
B
100
AcDbSymbolTableRecord
100
AcDbBlockTableRecord
  2
*PAPER_SPACE
  0
ENDTAB
  0
ENDSEC
  0
SECTION
  2
BLOCKS
  0
BLOCK
  5
D
100
AcDbEntity
  8
0
100
AcDbBlockBegin
  2
*MODEL_SPACE
 70
       0
 10
0.0
 20
0.0
 30
0.0
  3
*MODEL_SPACE
  1

  0
ENDBLK
  5
E
100
AcDbEntity
  8
0
100
AcDbBlockEnd
  0
BLOCK
  5
F
100
AcDbEntity
 67
       1
  8
0
100
AcDbBlockBegin
  2
*PAPER_SPACE
 70
       0
 10
0.0
 20
0.0
 30
0.0
  3
*PAPER_SPACE
  1

  0
ENDBLK
  5
10
100
AcDbEntity
 67
       1
  8
0
100
AcDbBlockEnd
  0
ENDSEC
  0
SECTION
  2
ENTITIES
  0
LINE
  5
3A
100
AcDbEntity
  8
SLD-0
  6
CONTINUOUS
 62
       3
100
AcDbLine
 10
-53.17004899
 20
73.03442225
 30
0.0
 11
-54.67004901
 21
73.03442225
 31
0.0
  0
LINE
  5
3B
100
AcDbEntity
  8
SLD-0
  6
CONTINUOUS
 62
       3
100
AcDbLine
 10
-54.67004901
 20
78.13684806
 30
0.0
 11
-54.67004901
 21
73.03442225
 31
0.0
  0
LINE
  5
3C
100
AcDbEntity
  8
SLD-0
  6
CONTINUOUS
 62
       3
100
AcDbLine
 10
-46.37004914
 20
73.03442225
 30
0.0
 11
-46.37004907
 21
78.1368487
 31
0.0
  0
LINE
  5
3D
100
AcDbEntity
  8
SLD-0
  6
CONTINUOUS
 62
       3
100
AcDbLine
 10
-46.37004914
 20
73.03442225
 30
0.0
 11
-47.87004915
 21
73.03442225
 31
0.0
  0
LINE
  5
3E
100
AcDbEntity
  8
SLD-0
  6
CONTINUOUS
 62
       3
100
AcDbLine
 10
-47.07004911
 20
74.83442292
 30
0.0
 11
-47.07004911
 21
76.03442088
 31
0.0
  0
LINE
  5
3F
100
AcDbEntity
  8
SLD-0
  6
CONTINUOUS
 62
       3
100
AcDbLine
 10
-47.07004911
 20
76.03442088
 30
0.0
 11
-47.87004915
 21
76.03442088
 31
0.0
  0
LINE
  5
40
100
AcDbEntity
  8
SLD-0
  6
CONTINUOUS
 62
       3
100
AcDbLine
 10
-47.87004915
 20
76.03442088
 30
0.0
 11
-47.87004915
 21
76.94021031
 31
0.0
  0
LINE
  5
41
100
AcDbEntity
  8
SLD-0
  6
CONTINUOUS
 62
       3
100
AcDbLine
 10
-53.17004907
 20
76.94021
 30
0.0
 11
-53.17004899
 21
76.03442088
 31
0.0
  0
LINE
  5
42
100
AcDbEntity
  8
SLD-0
  6
CONTINUOUS
 62
       3
100
AcDbLine
 10
-53.17004899
 20
76.03442088
 30
0.0
 11
-53.97004903
 21
76.03442088
 31
0.0
  0
LINE
  5
43
100
AcDbEntity
  8
SLD-0
  6
CONTINUOUS
 62
       3
100
AcDbLine
 10
-53.97004903
 20
76.03442088
 30
0.0
 11
-53.97004903
 21
74.83442292
 31
0.0
  0
LINE
  5
44
100
AcDbEntity
  8
SLD-0
  6
CONTINUOUS
 62
       3
100
AcDbLine
 10
-53.97004903
 20
74.83442292
 30
0.0
 11
-51.84292469
 21
74.83442292
 31
0.0
  0
LINE
  5
45
100
AcDbEntity
  8
SLD-0
  6
CONTINUOUS
 62
       3
100
AcDbLine
 10
-49.19717342
 20
74.83442171
 30
0.0
 11
-47.07004911
 21
74.83442292
 31
0.0
  0
LINE
  5
46
100
AcDbEntity
  8
SLD-0
  6
CONTINUOUS
 62
       3
100
AcDbLine
 10
-47.87004915
 20
73.03442225
 30
0.0
 11
-47.87004915
 21
72.78442174
 31
0.0
  0
LINE
  5
47
100
AcDbEntity
  8
SLD-0
  6
CONTINUOUS
 62
       3
100
AcDbLine
 10
-53.17004899
 20
72.78442174
 30
0.0
 11
-53.17004899
 21
73.03442225
 31
0.0
  0
LINE
  5
48
100
AcDbEntity
  8
SLD-0
  6
CONTINUOUS
 62
       3
100
AcDbLine
 10
-47.87004915
 20
-42.46557882
 30
0.0
 11
-46.37004914
 21
-42.46557882
 31
0.0
  0
LINE
  5
49
100
AcDbEntity
  8
SLD-0
  6
CONTINUOUS
 62
       3
100
AcDbLine
 10
-46.37004914
 20
-47.56800464
 30
0.0
 11
-46.37004914
 21
-42.46557882
 31
0.0
  0
LINE
  5
4A
100
AcDbEntity
  8
SLD-0
  6
CONTINUOUS
 62
       3
100
AcDbLine
 10
-54.67004901
 20
-42.46557882
 30
0.0
 11
-54.67004901
 21
-47.56800464
 31
0.0
  0
LINE
  5
4B
100
AcDbEntity
  8
SLD-0
  6
CONTINUOUS
 62
       3
100
AcDbLine
 10
-54.67004901
 20
-42.46557882
 30
0.0
 11
-53.17004899
 21
-42.46557882
 31
0.0
  0
LINE
  5
4C
100
AcDbEntity
  8
SLD-0
  6
CONTINUOUS
 62
       3
100
AcDbLine
 10
-53.97004903
 20
-44.26557949
 30
0.0
 11
-53.97004903
 21
-45.46557745
 31
0.0
  0
LINE
  5
4D
100
AcDbEntity
  8
SLD-0
  6
CONTINUOUS
 62
       3
100
AcDbLine
 10
-53.97004903
 20
-45.46557745
 30
0.0
 11
-53.17004899
 21
-45.46557745
 31
0.0
  0
LINE
  5
4E
100
AcDbEntity
  8
SLD-0
  6
CONTINUOUS
 62
       3
100
AcDbLine
 10
-53.17004899
 20
-45.46557745
 30
0.0
 11
-53.17004899
 21
-46.37136689
 31
0.0
  0
LINE
  5
4F
100
AcDbEntity
  8
SLD-0
  6
CONTINUOUS
 62
       3
100
AcDbLine
 10
-47.87004907
 20
-46.37136659
 30
0.0
 11
-47.87004915
 21
-45.46557745
 31
0.0
  0
LINE
  5
50
100
AcDbEntity
  8
SLD-0
  6
CONTINUOUS
 62
       3
100
AcDbLine
 10
-47.87004915
 20
-45.46557745
 30
0.0
 11
-47.07004911
 21
-45.46557745
 31
0.0
  0
LINE
  5
51
100
AcDbEntity
  8
SLD-0
  6
CONTINUOUS
 62
       3
100
AcDbLine
 10
-47.07004911
 20
-45.46557745
 30
0.0
 11
-47.07004911
 21
-44.26557949
 31
0.0
  0
LINE
  5
52
100
AcDbEntity
  8
SLD-0
  6
CONTINUOUS
 62
       3
100
AcDbLine
 10
-47.07004911
 20
-44.26557949
 30
0.0
 11
-49.19717346
 21
-44.26557949
 31
0.0
  0
LINE
  5
53
100
AcDbEntity
  8
SLD-0
  6
CONTINUOUS
 62
       3
100
AcDbLine
 10
-51.84292473
 20
-44.26557829
 30
0.0
 11
-53.97004903
 21
-44.26557949
 31
0.0
  0
LINE
  5
54
100
AcDbEntity
  8
SLD-0
  6
CONTINUOUS
 62
       3
100
AcDbLine
 10
-53.17004899
 20
-42.46557882
 30
0.0
 11
-53.17004899
 21
-42.21557832
 31
0.0
  0
LINE
  5
55
100
AcDbEntity
  8
SLD-0
  6
CONTINUOUS
 62
       3
100
AcDbLine
 10
-47.87004915
 20
-42.21557832
 30
0.0
 11
-47.87004915
 21
-42.46557882
 31
0.0
  0
LINE
  5
56
100
AcDbEntity
  8
SLD-0
  6
CONTINUOUS
 62
       3
100
AcDbLine
 10
-53.27004906
 20
72.78442174
 30
0.0
 11
-53.27004906
 21
73.03442225
 31
0.0
  0
LINE
  5
57
100
AcDbEntity
  8
SLD-0
  6
CONTINUOUS
 62
       3
100
AcDbLine
 10
-47.77004909
 20
-42.21557832
 30
0.0
 11
-47.77004909
 21
-42.46557882
 31
0.0
  0
LINE
  5
58
100
AcDbEntity
  8
SLD-0
  6
CONTINUOUS
 62
       3
100
AcDbLine
 10
-47.77004909
 20
73.03442225
 30
0.0
 11
-47.77004909
 21
72.78442174
 31
0.0
  0
LINE
  5
59
100
AcDbEntity
  8
SLD-0
  6
CONTINUOUS
 62
       3
100
AcDbLine
 10
-53.27004906
 20
-42.46557882
 30
0.0
 11
-53.27004906
 21
-42.21557832
 31
0.0
  0
LINE
  5
5A
100
AcDbEntity
  8
SLD-0
  6
CONTINUOUS
 62
       3
100
AcDbLine
 10
-42.5200492
 20
29.03442164
 30
0.0
 11
-42.5200492
 21
29.0644214
 31
0.0
  0
LINE
  5
5B
100
AcDbEntity
  8
SLD-0
  6
CONTINUOUS
 62
       3
100
AcDbLine
 10
-44.52004906
 20
29.03442164
 30
0.0
 11
-42.5200492
 21
29.03442164
 31
0.0
  0
LINE
  5
5C
100
AcDbEntity
  8
SLD-0
  6
CONTINUOUS
 62
       3
100
AcDbLine
 10
-56.42004925
 20
25.80929844
 30
0.0
 11
-55.8051235
 21
25.82294351
 31
0.0
  0
LINE
  5
5D
100
AcDbEntity
  8
SLD-0
  6
CONTINUOUS
 62
       3
100
AcDbLine
 10
-55.8051235
 20
25.74589985
 30
0.0
 11
-56.42004925
 21
25.75954492
 31
0.0
  0
LINE
  5
5E
100
AcDbEntity
  8
SLD-0
  6
CONTINUOUS
 62
       3
100
AcDbLine
 10
-44.52004906
 20
29.53442172
 30
0.0
 11
-42.5200492
 21
29.53442172
 31
0.0
  0
LINE
  5
5F
100
AcDbEntity
  8
SLD-0
  6
CONTINUOUS
 62
       3
100
AcDbLine
 10
-42.5200492
 20
29.50442196
 30
0.0
 11
-42.5200492
 21
29.53442172
 31
0.0
  0
LINE
  5
60
100
AcDbEntity
  8
SLD-0
  6
CONTINUOUS
 62
       3
100
AcDbLine
 10
-42.5200492
 20
29.50442196
 30
0.0
 11
-42.5200492
 21
29.0644214
 31
0.0
  0
LINE
  5
61
100
AcDbEntity
  8
SLD-0
  6
CONTINUOUS
 62
       3
100
AcDbLine
 10
-56.42004925
 20
25.43442181
 30
0.0
 11
-55.8051235
 21
25.43442181
 31
0.0
  0
LINE
  5
62
100
AcDbEntity
  8
SLD-0
  6
CONTINUOUS
 62
       3
100
AcDbLine
 10
-56.42004925
 20
25.75954492
 30
0.0
 11
-56.42004925
 21
25.28442206
 31
0.0
  0
LINE
  5
63
100
AcDbEntity
  8
SLD-0
  6
CONTINUOUS
 62
       3
100
AcDbLine
 10
-55.8051235
 20
26.13442155
 30
0.0
 11
-56.42004925
 21
26.13442155
 31
0.0
  0
LINE
  5
64
100
AcDbEntity
  8
SLD-0
  6
CONTINUOUS
 62
       3
100
AcDbLine
 10
-56.42004925
 20
26.2844213
 30
0.0
 11
-56.42004925
 21
25.80929844
 31
0.0
  0
LINE
  5
65
100
AcDbEntity
  8
SLD-0
  6
CONTINUOUS
 62
       3
100
AcDbLine
 10
-55.8051235
 20
25.26949669
 30
0.0
 11
-55.8051235
 21
26.29934667
 31
0.0
  0
LINE
  5
66
100
AcDbEntity
  8
SLD-0
  6
CONTINUOUS
 62
       3
100
AcDbLine
 10
-56.42004925
 20
29.30929844
 30
0.0
 11
-55.8051235
 21
29.32294351
 31
0.0
  0
LINE
  5
67
100
AcDbEntity
  8
SLD-0
  6
CONTINUOUS
 62
       3
100
AcDbLine
 10
-55.8051235
 20
29.24589985
 30
0.0
 11
-56.42004925
 21
29.25954492
 31
0.0
  0
LINE
  5
68
100
AcDbEntity
  8
SLD-0
  6
CONTINUOUS
 62
       3
100
AcDbLine
 10
-56.52004908
 20
25.28442206
 30
0.0
 11
-55.8051235
 21
25.28442206
 31
0.0
  0
LINE
  5
69
100
AcDbEntity
  8
SLD-0
  6
CONTINUOUS
 62
       3
100
AcDbLine
 10
-56.52004907
 20
25.08442171
 30
0.0
 11
-56.52004908
 21
25.28442206
 31
0.0
  0
LINE
  5
6A
100
AcDbEntity
  8
SLD-0
  6
CONTINUOUS
 62
       3
100
AcDbLine
 10
-55.8051235
 20
26.2844213
 30
0.0
 11
-56.52004908
 21
26.2844213
 31
0.0
  0
LINE
  5
6B
100
AcDbEntity
  8
SLD-0
  6
CONTINUOUS
 62
       3
100
AcDbLine
 10
-56.52004908
 20
26.2844213
 30
0.0
 11
-56.52004908
 21
26.48442189
 31
0.0
  0
LINE
  5
6C
100
AcDbEntity
  8
SLD-0
  6
CONTINUOUS
 62
       3
100
AcDbLine
 10
-56.52004908
 20
22.98442131
 30
0.0
 11
-56.52004907
 21
25.08442171
 31
0.0
  0
LINE
  5
6D
100
AcDbEntity
  8
SLD-0
  6
CONTINUOUS
 62
       3
100
AcDbLine
 10
-42.5200492
 20
25.53442164
 30
0.0
 11
-42.5200492
 21
25.5644214
 31
0.0
  0
LINE
  5
6E
100
AcDbEntity
  8
SLD-0
  6
CONTINUOUS
 62
       3
100
AcDbLine
 10
-44.52004906
 20
25.53442164
 30
0.0
 11
-42.5200492
 21
25.53442164
 31
0.0
  0
LINE
  5
6F
100
AcDbEntity
  8
SLD-0
  6
CONTINUOUS
 62
       3
100
AcDbLine
 10
-44.52004906
 20
26.03442172
 30
0.0
 11
-42.5200492
 21
26.03442172
 31
0.0
  0
LINE
  5
70
100
AcDbEntity
  8
SLD-0
  6
CONTINUOUS
 62
       3
100
AcDbLine
 10
-42.5200492
 20
26.00442196
 30
0.0
 11
-42.5200492
 21
26.03442172
 31
0.0
  0
LINE
  5
71
100
AcDbEntity
  8
SLD-0
  6
CONTINUOUS
 62
       3
100
AcDbLine
 10
-42.5200492
 20
26.00442196
 30
0.0
 11
-42.5200492
 21
25.5644214
 31
0.0
  0
LINE
  5
72
100
AcDbEntity
  8
SLD-0
  6
CONTINUOUS
 62
       3
100
AcDbLine
 10
-56.42004925
 20
22.30929844
 30
0.0
 11
-55.8051235
 21
22.32294351
 31
0.0
  0
LINE
  5
73
100
AcDbEntity
  8
SLD-0
  6
CONTINUOUS
 62
       3
100
AcDbLine
 10
-55.8051235
 20
22.24589985
 30
0.0
 11
-56.42004925
 21
22.25954492
 31
0.0
  0
LINE
  5
74
100
AcDbEntity
  8
SLD-0
  6
CONTINUOUS
 62
       3
100
AcDbLine
 10
-56.42004925
 20
21.93442181
 30
0.0
 11
-55.8051235
 21
21.93442181
 31
0.0
  0
LINE
  5
75
100
AcDbEntity
  8
SLD-0
  6
CONTINUOUS
 62
       3
100
AcDbLine
 10
-56.42004925
 20
22.25954492
 30
0.0
 11
-56.42004925
 21
21.78442206
 31
0.0
  0
LINE
  5
76
100
AcDbEntity
  8
SLD-0
  6
CONTINUOUS
 62
       3
100
AcDbLine
 10
-55.8051235
 20
22.63442155
 30
0.0
 11
-56.42004925
 21
22.63442155
 31
0.0
  0
LINE
  5
77
100
AcDbEntity
  8
SLD-0
  6
CONTINUOUS
 62
       3
100
AcDbLine
 10
-56.42004925
 20
22.7844213
 30
0.0
 11
-56.42004925
 21
22.30929844
 31
0.0
  0
LINE
  5
78
100
AcDbEntity
  8
SLD-0
  6
CONTINUOUS
 62
       3
100
AcDbLine
 10
-55.8051235
 20
21.76949669
 30
0.0
 11
-55.8051235
 21
22.79934667
 31
0.0
  0
LINE
  5
79
100
AcDbEntity
  8
SLD-0
  6
CONTINUOUS
 62
       3
100
AcDbLine
 10
-56.52004908
 20
21.78442206
 30
0.0
 11
-55.8051235
 21
21.78442206
 31
0.0
  0
LINE
  5
7A
100
AcDbEntity
  8
SLD-0
  6
CONTINUOUS
 62
       3
100
AcDbLine
 10
-56.52004907
 20
21.58442171
 30
0.0
 11
-56.52004908
 21
21.78442206
 31
0.0
  0
LINE
  5
7B
100
AcDbEntity
  8
SLD-0
  6
CONTINUOUS
 62
       3
100
AcDbLine
 10
-55.8051235
 20
22.7844213
 30
0.0
 11
-56.52004908
 21
22.7844213
 31
0.0
  0
LINE
  5
7C
100
AcDbEntity
  8
SLD-0
  6
CONTINUOUS
 62
       3
100
AcDbLine
 10
-56.52004908
 20
22.7844213
 30
0.0
 11
-56.52004908
 21
22.98442189
 31
0.0
  0
LINE
  5
7D
100
AcDbEntity
  8
SLD-0
  6
CONTINUOUS
 62
       3
100
AcDbLine
 10
-56.52004908
 20
19.48442131
 30
0.0
 11
-56.52004907
 21
21.58442171
 31
0.0
  0
LINE
  5
7E
100
AcDbEntity
  8
SLD-0
  6
CONTINUOUS
 62
       3
100
AcDbLine
 10
-42.5200492
 20
22.03442164
 30
0.0
 11
-42.5200492
 21
22.0644214
 31
0.0
  0
LINE
  5
7F
100
AcDbEntity
  8
SLD-0
  6
CONTINUOUS
 62
       3
100
AcDbLine
 10
-44.52004906
 20
22.03442164
 30
0.0
 11
-42.5200492
 21
22.03442164
 31
0.0
  0
LINE
  5
80
100
AcDbEntity
  8
SLD-0
  6
CONTINUOUS
 62
       3
100
AcDbLine
 10
-44.52004906
 20
22.53442172
 30
0.0
 11
-42.5200492
 21
22.53442172
 31
0.0
  0
LINE
  5
81
100
AcDbEntity
  8
SLD-0
  6
CONTINUOUS
 62
       3
100
AcDbLine
 10
-42.5200492
 20
22.50442196
 30
0.0
 11
-42.5200492
 21
22.53442172
 31
0.0
  0
LINE
  5
82
100
AcDbEntity
  8
SLD-0
  6
CONTINUOUS
 62
       3
100
AcDbLine
 10
-42.5200492
 20
22.50442196
 30
0.0
 11
-42.5200492
 21
22.0644214
 31
0.0
  0
LINE
  5
83
100
AcDbEntity
  8
SLD-0
  6
CONTINUOUS
 62
       3
100
AcDbLine
 10
-56.42004925
 20
18.80929844
 30
0.0
 11
-55.8051235
 21
18.82294351
 31
0.0
  0
LINE
  5
84
100
AcDbEntity
  8
SLD-0
  6
CONTINUOUS
 62
       3
100
AcDbLine
 10
-55.8051235
 20
18.74589985
 30
0.0
 11
-56.42004925
 21
18.75954492
 31
0.0
  0
LINE
  5
85
100
AcDbEntity
  8
SLD-0
  6
CONTINUOUS
 62
       3
100
AcDbLine
 10
-56.42004925
 20
18.43442181
 30
0.0
 11
-55.8051235
 21
18.43442181
 31
0.0
  0
LINE
  5
86
100
AcDbEntity
  8
SLD-0
  6
CONTINUOUS
 62
       3
100
AcDbLine
 10
-56.42004925
 20
18.75954492
 30
0.0
 11
-56.42004925
 21
18.28442206
 31
0.0
  0
LINE
  5
87
100
AcDbEntity
  8
SLD-0
  6
CONTINUOUS
 62
       3
100
AcDbLine
 10
-55.8051235
 20
19.13442155
 30
0.0
 11
-56.42004925
 21
19.13442155
 31
0.0
  0
LINE
  5
88
100
AcDbEntity
  8
SLD-0
  6
CONTINUOUS
 62
       3
100
AcDbLine
 10
-56.42004925
 20
19.2844213
 30
0.0
 11
-56.42004925
 21
18.80929844
 31
0.0
  0
LINE
  5
89
100
AcDbEntity
  8
SLD-0
  6
CONTINUOUS
 62
       3
100
AcDbLine
 10
-55.8051235
 20
18.26949669
 30
0.0
 11
-55.8051235
 21
19.29934667
 31
0.0
  0
LINE
  5
8A
100
AcDbEntity
  8
SLD-0
  6
CONTINUOUS
 62
       3
100
AcDbLine
 10
-56.52004908
 20
18.28442206
 30
0.0
 11
-55.8051235
 21
18.28442206
 31
0.0
  0
LINE
  5
8B
100
AcDbEntity
  8
SLD-0
  6
CONTINUOUS
 62
       3
100
AcDbLine
 10
-56.52004907
 20
18.08442171
 30
0.0
 11
-56.52004908
 21
18.28442206
 31
0.0
  0
LINE
  5
8C
100
AcDbEntity
  8
SLD-0
  6
CONTINUOUS
 62
       3
100
AcDbLine
 10
-55.8051235
 20
19.2844213
 30
0.0
 11
-56.52004908
 21
19.2844213
 31
0.0
  0
LINE
  5
8D
100
AcDbEntity
  8
SLD-0
  6
CONTINUOUS
 62
       3
100
AcDbLine
 10
-56.52004908
 20
19.2844213
 30
0.0
 11
-56.52004908
 21
19.48442189
 31
0.0
  0
LINE
  5
8E
100
AcDbEntity
  8
SLD-0
  6
CONTINUOUS
 62
       3
100
AcDbLine
 10
-56.52004908
 20
15.98442131
 30
0.0
 11
-56.52004907
 21
18.08442171
 31
0.0
  0
LINE
  5
8F
100
AcDbEntity
  8
SLD-0
  6
CONTINUOUS
 62
       3
100
AcDbLine
 10
-42.5200492
 20
18.53442164
 30
0.0
 11
-42.5200492
 21
18.5644214
 31
0.0
  0
LINE
  5
90
100
AcDbEntity
  8
SLD-0
  6
CONTINUOUS
 62
       3
100
AcDbLine
 10
-44.52004906
 20
18.53442164
 30
0.0
 11
-42.5200492
 21
18.53442164
 31
0.0
  0
LINE
  5
91
100
AcDbEntity
  8
SLD-0
  6
CONTINUOUS
 62
       3
100
AcDbLine
 10
-44.52004906
 20
19.03442172
 30
0.0
 11
-42.5200492
 21
19.03442172
 31
0.0
  0
LINE
  5
92
100
AcDbEntity
  8
SLD-0
  6
CONTINUOUS
 62
       3
100
AcDbLine
 10
-42.5200492
 20
19.00442196
 30
0.0
 11
-42.5200492
 21
19.03442172
 31
0.0
  0
LINE
  5
93
100
AcDbEntity
  8
SLD-0
  6
CONTINUOUS
 62
       3
100
AcDbLine
 10
-42.5200492
 20
19.00442196
 30
0.0
 11
-42.5200492
 21
18.5644214
 31
0.0
  0
LINE
  5
94
100
AcDbEntity
  8
SLD-0
  6
CONTINUOUS
 62
       3
100
AcDbLine
 10
-56.42004925
 20
15.30929844
 30
0.0
 11
-55.8051235
 21
15.32294351
 31
0.0
  0
LINE
  5
95
100
AcDbEntity
  8
SLD-0
  6
CONTINUOUS
 62
       3
100
AcDbLine
 10
-55.8051235
 20
15.24589985
 30
0.0
 11
-56.42004925
 21
15.25954492
 31
0.0
  0
LINE
  5
96
100
AcDbEntity
  8
SLD-0
  6
CONTINUOUS
 62
       3
100
AcDbLine
 10
-56.42004925
 20
14.93442181
 30
0.0
 11
-55.8051235
 21
14.93442181
 31
0.0
  0
LINE
  5
97
100
AcDbEntity
  8
SLD-0
  6
CONTINUOUS
 62
       3
100
AcDbLine
 10
-56.42004925
 20
15.25954492
 30
0.0
 11
-56.42004925
 21
14.78442206
 31
0.0
  0
LINE
  5
98
100
AcDbEntity
  8
SLD-0
  6
CONTINUOUS
 62
       3
100
AcDbLine
 10
-55.8051235
 20
15.63442155
 30
0.0
 11
-56.42004925
 21
15.63442155
 31
0.0
  0
LINE
  5
99
100
AcDbEntity
  8
SLD-0
  6
CONTINUOUS
 62
       3
100
AcDbLine
 10
-56.42004925
 20
15.7844213
 30
0.0
 11
-56.42004925
 21
15.30929844
 31
0.0
  0
LINE
  5
9A
100
AcDbEntity
  8
SLD-0
  6
CONTINUOUS
 62
       3
100
AcDbLine
 10
-55.8051235
 20
14.76949669
 30
0.0
 11
-55.8051235
 21
15.79934667
 31
0.0
  0
LINE
  5
9B
100
AcDbEntity
  8
SLD-0
  6
CONTINUOUS
 62
       3
100
AcDbLine
 10
-56.52004908
 20
14.78442206
 30
0.0
 11
-55.8051235
 21
14.78442206
 31
0.0
  0
LINE
  5
9C
100
AcDbEntity
  8
SLD-0
  6
CONTINUOUS
 62
       3
100
AcDbLine
 10
-56.52004907
 20
14.58442171
 30
0.0
 11
-56.52004908
 21
14.78442206
 31
0.0
  0
LINE
  5
9D
100
AcDbEntity
  8
SLD-0
  6
CONTINUOUS
 62
       3
100
AcDbLine
 10
-55.8051235
 20
15.7844213
 30
0.0
 11
-56.52004908
 21
15.7844213
 31
0.0
  0
LINE
  5
9E
100
AcDbEntity
  8
SLD-0
  6
CONTINUOUS
 62
       3
100
AcDbLine
 10
-56.52004908
 20
15.7844213
 30
0.0
 11
-56.52004908
 21
15.98442189
 31
0.0
  0
LINE
  5
9F
100
AcDbEntity
  8
SLD-0
  6
CONTINUOUS
 62
       3
100
AcDbLine
 10
-56.52004908
 20
12.48442131
 30
0.0
 11
-56.52004907
 21
14.58442171
 31
0.0
  0
LINE
  5
A0
100
AcDbEntity
  8
SLD-0
  6
CONTINUOUS
 62
       3
100
AcDbLine
 10
-42.5200492
 20
15.03442164
 30
0.0
 11
-42.5200492
 21
15.0644214
 31
0.0
  0
LINE
  5
A1
100
AcDbEntity
  8
SLD-0
  6
CONTINUOUS
 62
       3
100
AcDbLine
 10
-44.52004906
 20
15.03442164
 30
0.0
 11
-42.5200492
 21
15.03442164
 31
0.0
  0
LINE
  5
A2
100
AcDbEntity
  8
SLD-0
  6
CONTINUOUS
 62
       3
100
AcDbLine
 10
-44.52004906
 20
15.53442172
 30
0.0
 11
-42.5200492
 21
15.53442172
 31
0.0
  0
LINE
  5
A3
100
AcDbEntity
  8
SLD-0
  6
CONTINUOUS
 62
       3
100
AcDbLine
 10
-42.5200492
 20
15.50442196
 30
0.0
 11
-42.5200492
 21
15.53442172
 31
0.0
  0
LINE
  5
A4
100
AcDbEntity
  8
SLD-0
  6
CONTINUOUS
 62
       3
100
AcDbLine
 10
-42.5200492
 20
15.50442196
 30
0.0
 11
-42.5200492
 21
15.0644214
 31
0.0
  0
LINE
  5
A5
100
AcDbEntity
  8
SLD-0
  6
CONTINUOUS
 62
       3
100
AcDbLine
 10
-56.42004925
 20
11.80929844
 30
0.0
 11
-55.8051235
 21
11.82294351
 31
0.0
  0
LINE
  5
A6
100
AcDbEntity
  8
SLD-0
  6
CONTINUOUS
 62
       3
100
AcDbLine
 10
-55.8051235
 20
11.74589985
 30
0.0
 11
-56.42004925
 21
11.75954492
 31
0.0
  0
LINE
  5
A7
100
AcDbEntity
  8
SLD-0
  6
CONTINUOUS
 62
       3
100
AcDbLine
 10
-56.42004925
 20
11.43442181
 30
0.0
 11
-55.8051235
 21
11.43442181
 31
0.0
  0
LINE
  5
A8
100
AcDbEntity
  8
SLD-0
  6
CONTINUOUS
 62
       3
100
AcDbLine
 10
-56.42004925
 20
11.75954492
 30
0.0
 11
-56.42004925
 21
11.28442206
 31
0.0
  0
LINE
  5
A9
100
AcDbEntity
  8
SLD-0
  6
CONTINUOUS
 62
       3
100
AcDbLine
 10
-55.8051235
 20
12.13442155
 30
0.0
 11
-56.42004925
 21
12.13442155
 31
0.0
  0
LINE
  5
AA
100
AcDbEntity
  8
SLD-0
  6
CONTINUOUS
 62
       3
100
AcDbLine
 10
-56.42004925
 20
12.2844213
 30
0.0
 11
-56.42004925
 21
11.80929844
 31
0.0
  0
LINE
  5
AB
100
AcDbEntity
  8
SLD-0
  6
CONTINUOUS
 62
       3
100
AcDbLine
 10
-55.8051235
 20
11.26949669
 30
0.0
 11
-55.8051235
 21
12.29934667
 31
0.0
  0
LINE
  5
AC
100
AcDbEntity
  8
SLD-0
  6
CONTINUOUS
 62
       3
100
AcDbLine
 10
-56.52004908
 20
11.28442206
 30
0.0
 11
-55.8051235
 21
11.28442206
 31
0.0
  0
LINE
  5
AD
100
AcDbEntity
  8
SLD-0
  6
CONTINUOUS
 62
       3
100
AcDbLine
 10
-56.52004907
 20
11.08442171
 30
0.0
 11
-56.52004908
 21
11.28442206
 31
0.0
  0
LINE
  5
AE
100
AcDbEntity
  8
SLD-0
  6
CONTINUOUS
 62
       3
100
AcDbLine
 10
-55.8051235
 20
12.2844213
 30
0.0
 11
-56.52004908
 21
12.2844213
 31
0.0
  0
LINE
  5
AF
100
AcDbEntity
  8
SLD-0
  6
CONTINUOUS
 62
       3
100
AcDbLine
 10
-56.52004908
 20
12.2844213
 30
0.0
 11
-56.52004908
 21
12.48442189
 31
0.0
  0
LINE
  5
B0
100
AcDbEntity
  8
SLD-0
  6
CONTINUOUS
 62
       3
100
AcDbLine
 10
-56.52004908
 20
8.98442131
 30
0.0
 11
-56.52004907
 21
11.08442171
 31
0.0
  0
LINE
  5
B1
100
AcDbEntity
  8
SLD-0
  6
CONTINUOUS
 62
       3
100
AcDbLine
 10
-42.5200492
 20
11.53442164
 30
0.0
 11
-42.5200492
 21
11.5644214
 31
0.0
  0
LINE
  5
B2
100
AcDbEntity
  8
SLD-0
  6
CONTINUOUS
 62
       3
100
AcDbLine
 10
-44.52004906
 20
11.53442164
 30
0.0
 11
-42.5200492
 21
11.53442164
 31
0.0
  0
LINE
  5
B3
100
AcDbEntity
  8
SLD-0
  6
CONTINUOUS
 62
       3
100
AcDbLine
 10
-44.52004906
 20
12.03442172
 30
0.0
 11
-42.5200492
 21
12.03442172
 31
0.0
  0
LINE
  5
B4
100
AcDbEntity
  8
SLD-0
  6
CONTINUOUS
 62
       3
100
AcDbLine
 10
-42.5200492
 20
12.00442196
 30
0.0
 11
-42.5200492
 21
12.03442172
 31
0.0
  0
LINE
  5
B5
100
AcDbEntity
  8
SLD-0
  6
CONTINUOUS
 62
       3
100
AcDbLine
 10
-42.5200492
 20
12.00442196
 30
0.0
 11
-42.5200492
 21
11.5644214
 31
0.0
  0
LINE
  5
B6
100
AcDbEntity
  8
SLD-0
  6
CONTINUOUS
 62
       3
100
AcDbLine
 10
-56.42004925
 20
8.30929844
 30
0.0
 11
-55.8051235
 21
8.32294351
 31
0.0
  0
LINE
  5
B7
100
AcDbEntity
  8
SLD-0
  6
CONTINUOUS
 62
       3
100
AcDbLine
 10
-55.8051235
 20
8.24589985
 30
0.0
 11
-56.42004925
 21
8.25954492
 31
0.0
  0
LINE
  5
B8
100
AcDbEntity
  8
SLD-0
  6
CONTINUOUS
 62
       3
100
AcDbLine
 10
-56.42004925
 20
7.93442181
 30
0.0
 11
-55.8051235
 21
7.93442181
 31
0.0
  0
LINE
  5
B9
100
AcDbEntity
  8
SLD-0
  6
CONTINUOUS
 62
       3
100
AcDbLine
 10
-56.42004925
 20
8.25954492
 30
0.0
 11
-56.42004925
 21
7.78442206
 31
0.0
  0
LINE
  5
BA
100
AcDbEntity
  8
SLD-0
  6
CONTINUOUS
 62
       3
100
AcDbLine
 10
-55.8051235
 20
8.63442155
 30
0.0
 11
-56.42004925
 21
8.63442155
 31
0.0
  0
LINE
  5
BB
100
AcDbEntity
  8
SLD-0
  6
CONTINUOUS
 62
       3
100
AcDbLine
 10
-56.42004925
 20
8.7844213
 30
0.0
 11
-56.42004925
 21
8.30929844
 31
0.0
  0
LINE
  5
BC
100
AcDbEntity
  8
SLD-0
  6
CONTINUOUS
 62
       3
100
AcDbLine
 10
-55.8051235
 20
7.76949669
 30
0.0
 11
-55.8051235
 21
8.79934667
 31
0.0
  0
LINE
  5
BD
100
AcDbEntity
  8
SLD-0
  6
CONTINUOUS
 62
       3
100
AcDbLine
 10
-56.52004908
 20
7.78442206
 30
0.0
 11
-55.8051235
 21
7.78442206
 31
0.0
  0
LINE
  5
BE
100
AcDbEntity
  8
SLD-0
  6
CONTINUOUS
 62
       3
100
AcDbLine
 10
-56.52004907
 20
7.58442171
 30
0.0
 11
-56.52004908
 21
7.78442206
 31
0.0
  0
LINE
  5
BF
100
AcDbEntity
  8
SLD-0
  6
CONTINUOUS
 62
       3
100
AcDbLine
 10
-55.8051235
 20
8.7844213
 30
0.0
 11
-56.52004908
 21
8.7844213
 31
0.0
  0
LINE
  5
C0
100
AcDbEntity
  8
SLD-0
  6
CONTINUOUS
 62
       3
100
AcDbLine
 10
-56.52004908
 20
8.7844213
 30
0.0
 11
-56.52004908
 21
8.98442189
 31
0.0
  0
LINE
  5
C1
100
AcDbEntity
  8
SLD-0
  6
CONTINUOUS
 62
       3
100
AcDbLine
 10
-56.52004908
 20
5.48442131
 30
0.0
 11
-56.52004907
 21
7.58442171
 31
0.0
  0
LINE
  5
C2
100
AcDbEntity
  8
SLD-0
  6
CONTINUOUS
 62
       3
100
AcDbLine
 10
-42.5200492
 20
8.03442164
 30
0.0
 11
-42.5200492
 21
8.0644214
 31
0.0
  0
LINE
  5
C3
100
AcDbEntity
  8
SLD-0
  6
CONTINUOUS
 62
       3
100
AcDbLine
 10
-44.52004906
 20
8.03442164
 30
0.0
 11
-42.5200492
 21
8.03442164
 31
0.0
  0
LINE
  5
C4
100
AcDbEntity
  8
SLD-0
  6
CONTINUOUS
 62
       3
100
AcDbLine
 10
-44.52004906
 20
8.53442172
 30
0.0
 11
-42.5200492
 21
8.53442172
 31
0.0
  0
LINE
  5
C5
100
AcDbEntity
  8
SLD-0
  6
CONTINUOUS
 62
       3
100
AcDbLine
 10
-42.5200492
 20
8.50442196
 30
0.0
 11
-42.5200492
 21
8.53442172
 31
0.0
  0
LINE
  5
C6
100
AcDbEntity
  8
SLD-0
  6
CONTINUOUS
 62
       3
100
AcDbLine
 10
-42.5200492
 20
8.50442196
 30
0.0
 11
-42.5200492
 21
8.0644214
 31
0.0
  0
LINE
  5
C7
100
AcDbEntity
  8
SLD-0
  6
CONTINUOUS
 62
       3
100
AcDbLine
 10
-56.42004925
 20
4.80929844
 30
0.0
 11
-55.8051235
 21
4.82294351
 31
0.0
  0
LINE
  5
C8
100
AcDbEntity
  8
SLD-0
  6
CONTINUOUS
 62
       3
100
AcDbLine
 10
-55.8051235
 20
4.74589985
 30
0.0
 11
-56.42004925
 21
4.75954492
 31
0.0
  0
LINE
  5
C9
100
AcDbEntity
  8
SLD-0
  6
CONTINUOUS
 62
       3
100
AcDbLine
 10
-56.42004925
 20
4.43442181
 30
0.0
 11
-55.8051235
 21
4.43442181
 31
0.0
  0
LINE
  5
CA
100
AcDbEntity
  8
SLD-0
  6
CONTINUOUS
 62
       3
100
AcDbLine
 10
-56.42004925
 20
4.75954492
 30
0.0
 11
-56.42004925
 21
4.28442206
 31
0.0
  0
LINE
  5
CB
100
AcDbEntity
  8
SLD-0
  6
CONTINUOUS
 62
       3
100
AcDbLine
 10
-55.8051235
 20
5.13442155
 30
0.0
 11
-56.42004925
 21
5.13442155
 31
0.0
  0
LINE
  5
CC
100
AcDbEntity
  8
SLD-0
  6
CONTINUOUS
 62
       3
100
AcDbLine
 10
-56.42004925
 20
5.2844213
 30
0.0
 11
-56.42004925
 21
4.80929844
 31
0.0
  0
LINE
  5
CD
100
AcDbEntity
  8
SLD-0
  6
CONTINUOUS
 62
       3
100
AcDbLine
 10
-55.8051235
 20
4.26949669
 30
0.0
 11
-55.8051235
 21
5.29934667
 31
0.0
  0
LINE
  5
CE
100
AcDbEntity
  8
SLD-0
  6
CONTINUOUS
 62
       3
100
AcDbLine
 10
-56.52004908
 20
4.28442206
 30
0.0
 11
-55.8051235
 21
4.28442206
 31
0.0
  0
LINE
  5
CF
100
AcDbEntity
  8
SLD-0
  6
CONTINUOUS
 62
       3
100
AcDbLine
 10
-56.52004907
 20
4.08442171
 30
0.0
 11
-56.52004908
 21
4.28442206
 31
0.0
  0
LINE
  5
D0
100
AcDbEntity
  8
SLD-0
  6
CONTINUOUS
 62
       3
100
AcDbLine
 10
-55.8051235
 20
5.2844213
 30
0.0
 11
-56.52004908
 21
5.2844213
 31
0.0
  0
LINE
  5
D1
100
AcDbEntity
  8
SLD-0
  6
CONTINUOUS
 62
       3
100
AcDbLine
 10
-56.52004908
 20
5.2844213
 30
0.0
 11
-56.52004908
 21
5.48442189
 31
0.0
  0
LINE
  5
D2
100
AcDbEntity
  8
SLD-0
  6
CONTINUOUS
 62
       3
100
AcDbLine
 10
-56.52004908
 20
1.98442131
 30
0.0
 11
-56.52004907
 21
4.08442171
 31
0.0
  0
LINE
  5
D3
100
AcDbEntity
  8
SLD-0
  6
CONTINUOUS
 62
       3
100
AcDbLine
 10
-42.5200492
 20
4.53442164
 30
0.0
 11
-42.5200492
 21
4.5644214
 31
0.0
  0
LINE
  5
D4
100
AcDbEntity
  8
SLD-0
  6
CONTINUOUS
 62
       3
100
AcDbLine
 10
-44.52004906
 20
4.53442164
 30
0.0
 11
-42.5200492
 21
4.53442164
 31
0.0
  0
LINE
  5
D5
100
AcDbEntity
  8
SLD-0
  6
CONTINUOUS
 62
       3
100
AcDbLine
 10
-44.52004906
 20
5.03442172
 30
0.0
 11
-42.5200492
 21
5.03442172
 31
0.0
  0
LINE
  5
D6
100
AcDbEntity
  8
SLD-0
  6
CONTINUOUS
 62
       3
100
AcDbLine
 10
-42.5200492
 20
5.00442196
 30
0.0
 11
-42.5200492
 21
5.03442172
 31
0.0
  0
LINE
  5
D7
100
AcDbEntity
  8
SLD-0
  6
CONTINUOUS
 62
       3
100
AcDbLine
 10
-42.5200492
 20
5.00442196
 30
0.0
 11
-42.5200492
 21
4.5644214
 31
0.0
  0
LINE
  5
D8
100
AcDbEntity
  8
SLD-0
  6
CONTINUOUS
 62
       3
100
AcDbLine
 10
-56.42004925
 20
1.30929844
 30
0.0
 11
-55.8051235
 21
1.32294351
 31
0.0
  0
LINE
  5
D9
100
AcDbEntity
  8
SLD-0
  6
CONTINUOUS
 62
       3
100
AcDbLine
 10
-55.8051235
 20
1.24589985
 30
0.0
 11
-56.42004925
 21
1.25954492
 31
0.0
  0
LINE
  5
DA
100
AcDbEntity
  8
SLD-0
  6
CONTINUOUS
 62
       3
100
AcDbLine
 10
-56.42004925
 20
0.93442181
 30
0.0
 11
-55.8051235
 21
0.93442181
 31
0.0
  0
LINE
  5
DB
100
AcDbEntity
  8
SLD-0
  6
CONTINUOUS
 62
       3
100
AcDbLine
 10
-56.42004925
 20
1.25954492
 30
0.0
 11
-56.42004925
 21
0.78442206
 31
0.0
  0
LINE
  5
DC
100
AcDbEntity
  8
SLD-0
  6
CONTINUOUS
 62
       3
100
AcDbLine
 10
-55.8051235
 20
1.63442155
 30
0.0
 11
-56.42004925
 21
1.63442155
 31
0.0
  0
LINE
  5
DD
100
AcDbEntity
  8
SLD-0
  6
CONTINUOUS
 62
       3
100
AcDbLine
 10
-56.42004925
 20
1.7844213
 30
0.0
 11
-56.42004925
 21
1.30929844
 31
0.0
  0
LINE
  5
DE
100
AcDbEntity
  8
SLD-0
  6
CONTINUOUS
 62
       3
100
AcDbLine
 10
-55.8051235
 20
0.76949669
 30
0.0
 11
-55.8051235
 21
1.79934667
 31
0.0
  0
LINE
  5
DF
100
AcDbEntity
  8
SLD-0
  6
CONTINUOUS
 62
       3
100
AcDbLine
 10
-56.52004908
 20
0.78442206
 30
0.0
 11
-55.8051235
 21
0.78442206
 31
0.0
  0
LINE
  5
E0
100
AcDbEntity
  8
SLD-0
  6
CONTINUOUS
 62
       3
100
AcDbLine
 10
-56.52004907
 20
0.58442171
 30
0.0
 11
-56.52004908
 21
0.78442206
 31
0.0
  0
LINE
  5
E1
100
AcDbEntity
  8
SLD-0
  6
CONTINUOUS
 62
       3
100
AcDbLine
 10
-55.8051235
 20
1.7844213
 30
0.0
 11
-56.52004908
 21
1.7844213
 31
0.0
  0
LINE
  5
E2
100
AcDbEntity
  8
SLD-0
  6
CONTINUOUS
 62
       3
100
AcDbLine
 10
-56.52004908
 20
1.7844213
 30
0.0
 11
-56.52004908
 21
1.98442189
 31
0.0
  0
LINE
  5
E3
100
AcDbEntity
  8
SLD-0
  6
CONTINUOUS
 62
       3
100
AcDbLine
 10
-42.5200492
 20
1.03442164
 30
0.0
 11
-42.5200492
 21
1.0644214
 31
0.0
  0
LINE
  5
E4
100
AcDbEntity
  8
SLD-0
  6
CONTINUOUS
 62
       3
100
AcDbLine
 10
-44.52004906
 20
1.03442164
 30
0.0
 11
-42.5200492
 21
1.03442164
 31
0.0
  0
LINE
  5
E5
100
AcDbEntity
  8
SLD-0
  6
CONTINUOUS
 62
       3
100
AcDbLine
 10
-44.52004906
 20
1.53442172
 30
0.0
 11
-42.5200492
 21
1.53442172
 31
0.0
  0
LINE
  5
E6
100
AcDbEntity
  8
SLD-0
  6
CONTINUOUS
 62
       3
100
AcDbLine
 10
-42.5200492
 20
1.50442196
 30
0.0
 11
-42.5200492
 21
1.53442172
 31
0.0
  0
LINE
  5
E7
100
AcDbEntity
  8
SLD-0
  6
CONTINUOUS
 62
       3
100
AcDbLine
 10
-42.5200492
 20
1.50442196
 30
0.0
 11
-42.5200492
 21
1.0644214
 31
0.0
  0
LINE
  5
E8
100
AcDbEntity
  8
SLD-0
  6
CONTINUOUS
 62
       3
100
AcDbLine
 10
-56.42004925
 20
28.93442181
 30
0.0
 11
-55.8051235
 21
28.93442181
 31
0.0
  0
LINE
  5
E9
100
AcDbEntity
  8
SLD-0
  6
CONTINUOUS
 62
       3
100
AcDbLine
 10
-56.42004925
 20
29.25954492
 30
0.0
 11
-56.42004925
 21
28.78442206
 31
0.0
  0
LINE
  5
EA
100
AcDbEntity
  8
SLD-0
  6
CONTINUOUS
 62
       3
100
AcDbLine
 10
-55.8051235
 20
29.63442155
 30
0.0
 11
-56.42004925
 21
29.63442155
 31
0.0
  0
LINE
  5
EB
100
AcDbEntity
  8
SLD-0
  6
CONTINUOUS
 62
       3
100
AcDbLine
 10
-56.42004925
 20
29.7844213
 30
0.0
 11
-56.42004925
 21
29.30929844
 31
0.0
  0
LINE
  5
EC
100
AcDbEntity
  8
SLD-0
  6
CONTINUOUS
 62
       3
100
AcDbLine
 10
-44.82004902
 20
-42.21557832
 30
0.0
 11
-53.27004906
 21
-42.21557832
 31
0.0
  0
LINE
  5
ED
100
AcDbEntity
  8
SLD-0
  6
CONTINUOUS
 62
       3
100
AcDbLine
 10
-53.27004906
 20
72.78442174
 30
0.0
 11
-44.82004902
 21
72.78442174
 31
0.0
  0
LINE
  5
EE
100
AcDbEntity
  8
SLD-0
  6
CONTINUOUS
 62
       3
100
AcDbLine
 10
-44.52004907
 20
72.48442171
 30
0.0
 11
-44.52004907
 21
-41.91557829
 31
0.0
  0
LINE
  5
EF
100
AcDbEntity
  8
SLD-0
  6
CONTINUOUS
 62
       3
100
AcDbLine
 10
-53.57004901
 20
-41.91557696
 30
0.0
 11
-53.57004901
 21
-38.21557766
 31
0.0
  0
LINE
  5
F0
100
AcDbEntity
  8
SLD-0
  6
CONTINUOUS
 62
       3
100
AcDbLine
 10
-53.57004901
 20
-38.21557766
 30
0.0
 11
-56.22004913
 21
-38.21557766
 31
0.0
  0
LINE
  5
F1
100
AcDbEntity
  8
SLD-0
  6
CONTINUOUS
 62
       3
100
AcDbLine
 10
-56.22004913
 20
68.78442109
 30
0.0
 11
-53.57004901
 21
68.78442109
 31
0.0
  0
LINE
  5
F2
100
AcDbEntity
  8
SLD-0
  6
CONTINUOUS
 62
       3
100
AcDbLine
 10
-53.57004901
 20
68.78442109
 30
0.0
 11
-53.57004907
 21
72.48442171
 31
0.0
  0
LINE
  5
F3
100
AcDbEntity
  8
SLD-0
  6
CONTINUOUS
 62
       3
100
AcDbLine
 10
-55.8051235
 20
28.76949669
 30
0.0
 11
-55.8051235
 21
29.79934667
 31
0.0
  0
LINE
  5
F4
100
AcDbEntity
  8
SLD-0
  6
CONTINUOUS
 62
       3
100
AcDbLine
 10
-56.52004908
 20
28.78442206
 30
0.0
 11
-55.8051235
 21
28.78442206
 31
0.0
  0
LINE
  5
F5
100
AcDbEntity
  8
SLD-0
  6
CONTINUOUS
 62
       3
100
AcDbLine
 10
-56.52004907
 20
28.58442171
 30
0.0
 11
-56.52004908
 21
28.78442206
 31
0.0
  0
LINE
  5
F6
100
AcDbEntity
  8
SLD-0
  6
CONTINUOUS
 62
       3
100
AcDbLine
 10
-55.8051235
 20
29.7844213
 30
0.0
 11
-56.52004908
 21
29.7844213
 31
0.0
  0
LINE
  5
F7
100
AcDbEntity
  8
SLD-0
  6
CONTINUOUS
 62
       3
100
AcDbLine
 10
-56.52004908
 20
29.7844213
 30
0.0
 11
-56.52004908
 21
29.98442189
 31
0.0
  0
LINE
  5
F8
100
AcDbEntity
  8
SLD-0
  6
CONTINUOUS
 62
       3
100
AcDbLine
 10
-56.52004908
 20
29.98442189
 30
0.0
 11
-56.52004908
 21
68.48442346
 31
0.0
  0
LINE
  5
F9
100
AcDbEntity
  8
SLD-0
  6
CONTINUOUS
 62
       3
100
AcDbLine
 10
-56.52004907
 20
-37.91557829
 30
0.0
 11
-56.52004907
 21
0.58442171
 31
0.0
  0
LINE
  5
FA
100
AcDbEntity
  8
SLD-0
  6
CONTINUOUS
 62
       3
100
AcDbLine
 10
-56.52004908
 20
26.48442131
 30
0.0
 11
-56.52004907
 21
28.58442171
 31
0.0
  0
LINE
  5
FB
100
AcDbEntity
  8
SLD-0
  6
CONTINUOUS
 62
       3
100
AcDbLine
 10
-41.92004929
 20
69.2844221
 30
0.0
 11
-42.42004937
 21
69.2844221
 31
0.0
  0
LINE
  5
FC
100
AcDbEntity
  8
SLD-0
  6
CONTINUOUS
 62
       3
100
AcDbLine
 10
-42.42004937
 20
70.78442141
 30
0.0
 11
-42.42004937
 21
69.2844221
 31
0.0
  0
LINE
  5
FD
100
AcDbEntity
  8
SLD-0
  6
CONTINUOUS
 62
       3
100
AcDbLine
 10
-41.92004929
 20
72.48442039
 30
0.0
 11
-41.92004929
 21
69.2844221
 31
0.0
  0
LINE
  5
FE
100
AcDbEntity
  8
SLD-0
  6
CONTINUOUS
 62
       3
100
AcDbLine
 10
-42.42004937
 20
70.78442141
 30
0.0
 11
-44.52004906
 21
70.78442141
 31
0.0
  0
LINE
  5
FF
100
AcDbEntity
  8
SLD-0
  6
CONTINUOUS
 62
       3
100
AcDbLine
 10
-42.42004937
 20
-38.71557867
 30
0.0
 11
-42.42004937
 21
-40.21557799
 31
0.0
  0
LINE
  5
100
100
AcDbEntity
  8
SLD-0
  6
CONTINUOUS
 62
       3
100
AcDbLine
 10
-42.42004937
 20
-38.71557867
 30
0.0
 11
-41.92004929
 21
-38.71557867
 31
0.0
  0
LINE
  5
101
100
AcDbEntity
  8
SLD-0
  6
CONTINUOUS
 62
       3
100
AcDbLine
 10
-41.92004929
 20
-38.71557867
 30
0.0
 11
-41.92004929
 21
-41.91557696
 31
0.0
  0
LINE
  5
102
100
AcDbEntity
  8
SLD-0
  6
CONTINUOUS
 62
       3
100
AcDbLine
 10
-44.52004906
 20
-40.21557799
 30
0.0
 11
-42.42004937
 21
-40.21557799
 31
0.0
  0
LINE
  5
103
100
AcDbEntity
  8
SLD-0
  6
CONTINUOUS
 62
       3
100
AcDbLine
 10
-42.22004907
 20
-42.21557829
 30
0.0
 11
-44.82004902
 21
-42.21557832
 31
0.0
  0
LINE
  5
104
100
AcDbEntity
  8
SLD-0
  6
CONTINUOUS
 62
       3
100
AcDbLine
 10
-44.82004902
 20
72.78442174
 30
0.0
 11
-42.22004907
 21
72.78442171
 31
0.0
  0
LINE
  5
105
100
AcDbEntity
  8
SLD-0
  6
CONTINUOUS
 62
       3
100
AcDbLine
 10
-43.12004911
 20
-40.21557799
 30
0.0
 11
-43.12004911
 21
-38.71557867
 31
0.0
  0
LINE
  5
106
100
AcDbEntity
  8
SLD-0
  6
CONTINUOUS
 62
       3
100
AcDbLine
 10
-43.12004911
 20
-38.71557867
 30
0.0
 11
-42.42004937
 21
-38.71557867
 31
0.0
  0
LINE
  5
107
100
AcDbEntity
  8
SLD-0
  6
CONTINUOUS
 62
       3
100
AcDbLine
 10
-43.12004911
 20
69.2844221
 30
0.0
 11
-43.12004911
 21
70.78442141
 31
0.0
  0
LINE
  5
108
100
AcDbEntity
  8
SLD-0
  6
CONTINUOUS
 62
       3
100
AcDbLine
 10
-42.42004937
 20
69.2844221
 30
0.0
 11
-43.12004911
 21
69.2844221
 31
0.0
  0
LINE
  5
109
100
AcDbEntity
  8
SLD-0
  6
CONTINUOUS
 62
       3
100
AcDbLine
 10
-56.52004908
 20
70.68442345
 30
0.0
 11
-56.1200493
 21
70.68442345
 31
0.0
  0
LINE
  5
10A
100
AcDbEntity
  8
SLD-0
  6
CONTINUOUS
 62
       3
100
AcDbLine
 10
-56.1200493
 20
68.78442109
 30
0.0
 11
-56.1200493
 21
70.68442345
 31
0.0
  0
LINE
  5
10B
100
AcDbEntity
  8
SLD-0
  6
CONTINUOUS
 62
       3
100
AcDbLine
 10
-56.52004908
 20
68.48442346
 30
0.0
 11
-56.52004908
 21
70.68442345
 31
0.0
  0
LINE
  5
10C
100
AcDbEntity
  8
SLD-0
  6
CONTINUOUS
 62
       3
100
AcDbLine
 10
-55.32004926
 20
-38.21557766
 30
0.0
 11
-55.32004926
 21
-40.11558002
 31
0.0
  0
LINE
  5
10D
100
AcDbEntity
  8
SLD-0
  6
CONTINUOUS
 62
       3
100
AcDbLine
 10
-56.1200493
 20
-40.11558002
 30
0.0
 11
-56.1200493
 21
-38.21557766
 31
0.0
  0
LINE
  5
10E
100
AcDbEntity
  8
SLD-0
  6
CONTINUOUS
 62
       3
100
AcDbLine
 10
-55.32004926
 20
-40.11558002
 30
0.0
 11
-56.1200493
 21
-40.11558002
 31
0.0
  0
LINE
  5
10F
100
AcDbEntity
  8
SLD-0
  6
CONTINUOUS
 62
       3
100
AcDbLine
 10
-56.1200493
 20
-40.11558002
 30
0.0
 11
-56.52004908
 21
-40.11558002
 31
0.0
  0
LINE
  5
110
100
AcDbEntity
  8
SLD-0
  6
CONTINUOUS
 62
       3
100
AcDbLine
 10
-56.52004908
 20
-40.11558002
 30
0.0
 11
-56.52004907
 21
-37.91557829
 31
0.0
  0
LINE
  5
111
100
AcDbEntity
  8
SLD-0
  6
CONTINUOUS
 62
       3
100
AcDbLine
 10
-55.32004926
 20
70.68442345
 30
0.0
 11
-55.32004926
 21
68.78442109
 31
0.0
  0
LINE
  5
112
100
AcDbEntity
  8
SLD-0
  6
CONTINUOUS
 62
       3
100
AcDbLine
 10
-56.1200493
 20
70.68442345
 30
0.0
 11
-55.32004926
 21
70.68442345
 31
0.0
  0
LINE
  5
113
100
AcDbEntity
  8
SLD-0
  6
CONTINUOUS
 62
       3
100
AcDbLine
 10
41.17614359
 20
78.68442103
 30
0.0
 11
37.1761434
 21
78.68442103
 31
0.0
  0
LINE
  5
114
100
AcDbEntity
  8
SLD-0
  6
CONTINUOUS
 62
       3
100
AcDbLine
 10
37.1761434
 20
-48.11557761
 30
0.0
 11
41.17614359
 21
-48.11557761
 31
0.0
  0
LINE
  5
115
100
AcDbEntity
  8
SLD-0
  6
CONTINUOUS
 62
       3
100
AcDbLine
 10
41.17614359
 20
78.68442103
 30
0.0
 11
41.17614359
 21
78.13684806
 31
0.0
  0
LINE
  5
116
100
AcDbEntity
  8
SLD-0
  6
CONTINUOUS
 62
       3
100
AcDbLine
 10
37.1761434
 20
78.68442103
 30
0.0
 11
37.1761434
 21
78.13684806
 31
0.0
  0
LINE
  5
117
100
AcDbEntity
  8
SLD-0
  6
CONTINUOUS
 62
       3
100
AcDbLine
 10
37.1761434
 20
73.03442225
 30
0.0
 11
37.1761434
 21
78.13684806
 31
0.0
  0
LINE
  5
118
100
AcDbEntity
  8
SLD-0
  6
CONTINUOUS
 62
       3
100
AcDbLine
 10
41.17614359
 20
78.13684806
 30
0.0
 11
41.17614359
 21
73.03442225
 31
0.0
  0
LINE
  5
119
100
AcDbEntity
  8
SLD-0
  6
CONTINUOUS
 62
       3
100
AcDbLine
 10
37.1761434
 20
-47.56800464
 30
0.0
 11
37.1761434
 21
-48.11557761
 31
0.0
  0
LINE
  5
11A
100
AcDbEntity
  8
SLD-0
  6
CONTINUOUS
 62
       3
100
AcDbLine
 10
41.17614359
 20
-47.56800464
 30
0.0
 11
41.17614359
 21
-48.11557761
 31
0.0
  0
LINE
  5
11B
100
AcDbEntity
  8
SLD-0
  6
CONTINUOUS
 62
       3
100
AcDbLine
 10
37.1761434
 20
-47.56800464
 30
0.0
 11
37.1761434
 21
-42.46557882
 31
0.0
  0
LINE
  5
11C
100
AcDbEntity
  8
SLD-0
  6
CONTINUOUS
 62
       3
100
AcDbLine
 10
41.17614359
 20
-42.46557882
 30
0.0
 11
41.17614359
 21
-47.56800464
 31
0.0
  0
LINE
  5
11D
100
AcDbEntity
  8
SLD-0
  6
CONTINUOUS
 62
       3
100
AcDbLine
 10
40.63084415
 20
-2.46557887
 30
0.0
 11
39.47614357
 21
-0.46557854
 31
0.0
  0
LINE
  5
11E
100
AcDbEntity
  8
SLD-0
  6
CONTINUOUS
 62
       3
100
AcDbLine
 10
41.17614359
 20
-42.46557882
 30
0.0
 11
41.17614359
 21
-41.91557696
 31
0.0
  0
LINE
  5
11F
100
AcDbEntity
  8
SLD-0
  6
CONTINUOUS
 62
       3
100
AcDbLine
 10
37.1761434
 20
-42.21557832
 30
0.0
 11
37.1761434
 21
-42.46557882
 31
0.0
  0
LINE
  5
120
100
AcDbEntity
  8
SLD-0
  6
CONTINUOUS
 62
       3
100
AcDbLine
 10
38.67614365
 20
-0.46557854
 30
0.0
 11
38.67614365
 21
-2.46557887
 31
0.0
  0
LINE
  5
121
100
AcDbEntity
  8
SLD-0
  6
CONTINUOUS
 62
       3
100
AcDbLine
 10
39.47614357
 20
-0.46557854
 30
0.0
 11
38.67614365
 21
-0.46557854
 31
0.0
  0
LINE
  5
122
100
AcDbEntity
  8
SLD-0
  6
CONTINUOUS
 62
       3
100
AcDbLine
 10
37.1761434
 20
73.03442225
 30
0.0
 11
37.1761434
 21
72.78442174
 31
0.0
  0
LINE
  5
123
100
AcDbEntity
  8
SLD-0
  6
CONTINUOUS
 62
       3
100
AcDbLine
 10
41.17614359
 20
72.48442039
 30
0.0
 11
41.17614359
 21
73.03442225
 31
0.0
  0
LINE
  5
124
100
AcDbEntity
  8
SLD-0
  6
CONTINUOUS
 62
       3
100
AcDbLine
 10
39.47614357
 20
31.03442197
 30
0.0
 11
40.63084415
 21
33.03442229
 31
0.0
  0
LINE
  5
125
100
AcDbEntity
  8
SLD-0
  6
CONTINUOUS
 62
       3
100
AcDbLine
 10
38.67614365
 20
31.03442197
 30
0.0
 11
39.47614357
 21
31.03442197
 31
0.0
  0
LINE
  5
126
100
AcDbEntity
  8
SLD-0
  6
CONTINUOUS
 62
       3
100
AcDbLine
 10
38.67614365
 20
33.03442229
 30
0.0
 11
38.67614365
 21
31.03442197
 31
0.0
  0
LINE
  5
127
100
AcDbEntity
  8
SLD-0
  6
CONTINUOUS
 62
       3
100
AcDbLine
 10
-13.52385641
 20
72.78442174
 30
0.0
 11
-0.32385483
 21
72.78442174
 31
0.0
  0
LINE
  5
128
100
AcDbEntity
  8
SLD-0
  6
CONTINUOUS
 62
       3
100
AcDbLine
 10
-0.32385483
 20
72.78442174
 30
0.0
 11
-0.32385483
 21
72.48442039
 31
0.0
  0
LINE
  5
129
100
AcDbEntity
  8
SLD-0
  6
CONTINUOUS
 62
       3
100
AcDbLine
 10
-0.32385483
 20
-42.21557832
 30
0.0
 11
-13.52385641
 21
-42.21557832
 31
0.0
  0
LINE
  5
12A
100
AcDbEntity
  8
SLD-0
  6
CONTINUOUS
 62
       3
100
AcDbLine
 10
-0.32385483
 20
-41.91557696
 30
0.0
 11
-0.32385483
 21
-42.21557832
 31
0.0
  0
LINE
  5
12B
100
AcDbEntity
  8
SLD-0
  6
CONTINUOUS
 62
       3
100
AcDbLine
 10
-0.32385483
 20
-41.91557696
 30
0.0
 11
-0.32385483
 21
72.48442039
 31
0.0
  0
LINE
  5
12C
100
AcDbEntity
  8
SLD-0
  6
CONTINUOUS
 62
       3
100
AcDbLine
 10
-13.82385641
 20
-41.91557829
 30
0.0
 11
-13.8238551
 21
72.48442039
 31
0.0
  0
LINE
  5
12D
100
AcDbEntity
  8
SLD-0
  6
CONTINUOUS
 62
       3
100
AcDbLine
 10
4.17614311
 20
-38.71557867
 30
0.0
 11
27.17614316
 21
-38.71557867
 31
0.0
  0
LINE
  5
12E
100
AcDbEntity
  8
SLD-0
  6
CONTINUOUS
 62
       3
100
AcDbLine
 10
27.17614316
 20
-38.71557867
 30
0.0
 11
27.17614316
 21
-41.91557696
 31
0.0
  0
LINE
  5
12F
100
AcDbEntity
  8
SLD-0
  6
CONTINUOUS
 62
       3
100
AcDbLine
 10
4.17614311
 20
-38.71557867
 30
0.0
 11
4.17614311
 21
-41.91557696
 31
0.0
  0
LINE
  5
130
100
AcDbEntity
  8
SLD-0
  6
CONTINUOUS
 62
       3
100
AcDbLine
 10
26.87614367
 20
-42.21557832
 30
0.0
 11
4.47614447
 21
-42.21557832
 31
0.0
  0
LINE
  5
131
100
AcDbEntity
  8
SLD-0
  6
CONTINUOUS
 62
       3
100
AcDbLine
 10
4.17614311
 20
69.2844221
 30
0.0
 11
27.17614316
 21
69.2844221
 31
0.0
  0
LINE
  5
132
100
AcDbEntity
  8
SLD-0
  6
CONTINUOUS
 62
       3
100
AcDbLine
 10
4.17614311
 20
72.48442039
 30
0.0
 11
4.17614311
 21
69.2844221
 31
0.0
  0
LINE
  5
133
100
AcDbEntity
  8
SLD-0
  6
CONTINUOUS
 62
       3
100
AcDbLine
 10
27.17614316
 20
72.48442039
 30
0.0
 11
27.17614316
 21
69.2844221
 31
0.0
  0
LINE
  5
134
100
AcDbEntity
  8
SLD-0
  6
CONTINUOUS
 62
       3
100
AcDbLine
 10
4.47614447
 20
72.78442174
 30
0.0
 11
26.87614367
 21
72.78442174
 31
0.0
  0
LINE
  5
135
100
AcDbEntity
  8
SLD-0
  6
CONTINUOUS
 62
       3
100
AcDbLine
 10
41.17614359
 20
-2.76557836
 30
0.0
 11
41.17614359
 21
-41.91557696
 31
0.0
  0
LINE
  5
136
100
AcDbEntity
  8
SLD-0
  6
CONTINUOUS
 62
       3
100
AcDbLine
 10
40.87614359
 20
-42.21557829
 30
0.0
 11
26.87614367
 21
-42.21557832
 31
0.0
  0
LINE
  5
137
100
AcDbEntity
  8
SLD-0
  6
CONTINUOUS
 62
       3
100
AcDbLine
 10
24.07614359
 20
57.68442171
 30
0.0
 11
31.27614364
 21
57.68442047
 31
0.0
  0
LINE
  5
138
100
AcDbEntity
  8
SLD-0
  6
CONTINUOUS
 62
       3
100
AcDbLine
 10
31.77614359
 20
58.18442171
 30
0.0
 11
31.77614373
 21
65.38442043
 31
0.0
  0
LINE
  5
139
100
AcDbEntity
  8
SLD-0
  6
CONTINUOUS
 62
       3
100
AcDbLine
 10
31.27614359
 20
65.88442171
 30
0.0
 11
24.07614284
 21
65.88442144
 31
0.0
  0
LINE
  5
13A
100
AcDbEntity
  8
SLD-0
  6
CONTINUOUS
 62
       3
100
AcDbLine
 10
23.57614359
 20
65.38442171
 30
0.0
 11
23.57614359
 21
58.18442171
 31
0.0
  0
LINE
  5
13B
100
AcDbEntity
  8
SLD-0
  6
CONTINUOUS
 62
       3
100
AcDbLine
 10
14.07614359
 20
57.68442171
 30
0.0
 11
21.27614387
 21
57.68442047
 31
0.0
  0
LINE
  5
13C
100
AcDbEntity
  8
SLD-0
  6
CONTINUOUS
 62
       3
100
AcDbLine
 10
21.77614359
 20
58.18442171
 30
0.0
 11
21.77614302
 21
65.38442043
 31
0.0
  0
LINE
  5
13D
100
AcDbEntity
  8
SLD-0
  6
CONTINUOUS
 62
       3
100
AcDbLine
 10
21.27614359
 20
65.88442171
 30
0.0
 11
14.07614306
 21
65.88442144
 31
0.0
  0
LINE
  5
13E
100
AcDbEntity
  8
SLD-0
  6
CONTINUOUS
 62
       3
100
AcDbLine
 10
13.57614359
 20
65.38442171
 30
0.0
 11
13.57614359
 21
58.18442171
 31
0.0
  0
LINE
  5
13F
100
AcDbEntity
  8
SLD-0
  6
CONTINUOUS
 62
       3
100
AcDbLine
 10
4.47614447
 20
-42.21557832
 30
0.0
 11
-0.32385483
 21
-42.21557832
 31
0.0
  0
LINE
  5
140
100
AcDbEntity
  8
SLD-0
  6
CONTINUOUS
 62
       3
100
AcDbLine
 10
37.1761434
 20
-2.46557887
 30
0.0
 11
40.87614359
 21
-2.46557829
 31
0.0
  0
LINE
  5
141
100
AcDbEntity
  8
SLD-0
  6
CONTINUOUS
 62
       3
100
AcDbLine
 10
37.1761434
 20
33.03442229
 30
0.0
 11
37.1761434
 21
-2.46557887
 31
0.0
  0
LINE
  5
142
100
AcDbEntity
  8
SLD-0
  6
CONTINUOUS
 62
       3
100
AcDbLine
 10
41.17614359
 20
72.48442039
 30
0.0
 11
41.17614359
 21
33.33442171
 31
0.0
  0
LINE
  5
143
100
AcDbEntity
  8
SLD-0
  6
CONTINUOUS
 62
       3
100
AcDbLine
 10
40.87614359
 20
33.03442171
 30
0.0
 11
37.1761434
 21
33.03442229
 31
0.0
  0
LINE
  5
144
100
AcDbEntity
  8
SLD-0
  6
CONTINUOUS
 62
       3
100
AcDbLine
 10
26.87614367
 20
72.78442174
 30
0.0
 11
40.87614359
 21
72.78442171
 31
0.0
  0
LINE
  5
145
100
AcDbEntity
  8
SLD-0
  6
CONTINUOUS
 62
       3
100
AcDbLine
 10
-0.32385483
 20
72.78442174
 30
0.0
 11
4.47614447
 21
72.78442174
 31
0.0
  0
LINE
  5
146
100
AcDbEntity
  8
SLD-0
  6
CONTINUOUS
 62
       3
100
AcDbLine
 10
-53.57004901
 20
-38.21557766
 30
0.0
 11
-53.56428459
 21
-38.20981464
 31
0.0
  0
LINE
  5
147
100
AcDbEntity
  8
SLD-0
  6
CONTINUOUS
 62
       3
100
AcDbLine
 10
-53.56428459
 20
-38.20981464
 30
0.0
 11
-53.54721298
 21
-38.19274163
 31
0.0
  0
LINE
  5
148
100
AcDbEntity
  8
SLD-0
  6
CONTINUOUS
 62
       3
100
AcDbLine
 10
-53.54721298
 20
-38.19274163
 30
0.0
 11
-53.51949007
 21
-38.16501802
 31
0.0
  0
LINE
  5
149
100
AcDbEntity
  8
SLD-0
  6
CONTINUOUS
 62
       3
100
AcDbLine
 10
-53.51949007
 20
-38.16501802
 30
0.0
 11
-53.48218106
 21
-38.12770924
 31
0.0
  0
LINE
  5
14A
100
AcDbEntity
  8
SLD-0
  6
CONTINUOUS
 62
       3
100
AcDbLine
 10
-53.48218106
 20
-38.12770924
 30
0.0
 11
-53.43672017
 21
-38.08224952
 31
0.0
  0
LINE
  5
14B
100
AcDbEntity
  8
SLD-0
  6
CONTINUOUS
 62
       3
100
AcDbLine
 10
-53.43672017
 20
-38.08224952
 30
0.0
 11
-53.38485412
 21
-38.0303823
 31
0.0
  0
LINE
  5
14C
100
AcDbEntity
  8
SLD-0
  6
CONTINUOUS
 62
       3
100
AcDbLine
 10
-53.38485412
 20
-38.0303823
 30
0.0
 11
-53.32857616
 21
-37.97410434
 31
0.0
  0
LINE
  5
14D
100
AcDbEntity
  8
SLD-0
  6
CONTINUOUS
 62
       3
100
AcDbLine
 10
-53.32857616
 20
-37.97410434
 30
0.0
 11
-53.27004906
 21
-37.91558003
 31
0.0
  0
LINE
  5
14E
100
AcDbEntity
  8
SLD-0
  6
CONTINUOUS
 62
       3
100
AcDbLine
 10
-53.57004901
 20
68.78442109
 30
0.0
 11
-53.56428459
 21
68.77865806
 31
0.0
  0
LINE
  5
14F
100
AcDbEntity
  8
SLD-0
  6
CONTINUOUS
 62
       3
100
AcDbLine
 10
-53.56428459
 20
68.77865806
 30
0.0
 11
-53.54721298
 21
68.76158506
 31
0.0
  0
LINE
  5
150
100
AcDbEntity
  8
SLD-0
  6
CONTINUOUS
 62
       3
100
AcDbLine
 10
37.1761434
 20
-2.46557887
 30
0.0
 11
37.17037898
 21
-2.47134189
 31
0.0
  0
LINE
  5
151
100
AcDbEntity
  8
SLD-0
  6
CONTINUOUS
 62
       3
100
AcDbLine
 10
37.17037898
 20
-2.47134189
 30
0.0
 11
37.15330737
 21
-2.4884149
 31
0.0
  0
LINE
  5
152
100
AcDbEntity
  8
SLD-0
  6
CONTINUOUS
 62
       3
100
AcDbLine
 10
37.15330737
 20
-2.4884149
 30
0.0
 11
37.12558469
 21
-2.51613665
 31
0.0
  0
LINE
  5
153
100
AcDbEntity
  8
SLD-0
  6
CONTINUOUS
 62
       3
100
AcDbLine
 10
37.12558469
 20
-2.51613665
 30
0.0
 11
37.08827544
 21
-2.55344543
 31
0.0
  0
LINE
  5
154
100
AcDbEntity
  8
SLD-0
  6
CONTINUOUS
 62
       3
100
AcDbLine
 10
37.08827544
 20
-2.55344543
 30
0.0
 11
37.04281479
 21
-2.59890701
 31
0.0
  0
LINE
  5
155
100
AcDbEntity
  8
SLD-0
  6
CONTINUOUS
 62
       3
100
AcDbLine
 10
37.04281479
 20
-2.59890701
 30
0.0
 11
36.99094851
 21
-2.65077236
 31
0.0
  0
LINE
  5
156
100
AcDbEntity
  8
SLD-0
  6
CONTINUOUS
 62
       3
100
AcDbLine
 10
36.99094851
 20
-2.65077236
 30
0.0
 11
36.93467055
 21
-2.70705032
 31
0.0
  0
LINE
  5
157
100
AcDbEntity
  8
SLD-0
  6
CONTINUOUS
 62
       3
100
AcDbLine
 10
36.93467055
 20
-2.70705032
 30
0.0
 11
36.87614344
 21
-2.76557836
 31
0.0
  0
LINE
  5
158
100
AcDbEntity
  8
SLD-0
  6
CONTINUOUS
 62
       3
100
AcDbLine
 10
37.1761434
 20
33.03442229
 30
0.0
 11
37.17158597
 21
33.03898019
 31
0.0
  0
LINE
  5
159
100
AcDbEntity
  8
SLD-0
  6
CONTINUOUS
 62
       3
100
AcDbLine
 10
37.17158597
 20
33.03898019
 30
0.0
 11
37.15805153
 21
33.05251417
 31
0.0
  0
LINE
  5
15A
100
AcDbEntity
  8
SLD-0
  6
CONTINUOUS
 62
       3
100
AcDbLine
 10
37.15805153
 20
33.05251417
 30
0.0
 11
37.13595124
 21
33.07461445
 31
0.0
  0
LINE
  5
15B
100
AcDbEntity
  8
SLD-0
  6
CONTINUOUS
 62
       3
100
AcDbLine
 10
37.13595124
 20
33.07461445
 30
0.0
 11
37.10595707
 21
33.10460863
 31
0.0
  0
LINE
  5
15C
100
AcDbEntity
  8
SLD-0
  6
CONTINUOUS
 62
       3
100
AcDbLine
 10
37.10595707
 20
33.10460863
 30
0.0
 11
37.06897984
 21
33.14158586
 31
0.0
  0
LINE
  5
15D
100
AcDbEntity
  8
SLD-0
  6
CONTINUOUS
 62
       3
100
AcDbLine
 10
37.06897984
 20
33.14158586
 30
0.0
 11
37.02614365
 21
33.18442111
 31
0.0
  0
LINE
  5
15E
100
AcDbEntity
  8
SLD-0
  6
CONTINUOUS
 62
       3
100
AcDbLine
 10
37.02614365
 20
33.18442111
 30
0.0
 11
36.97874958
 21
33.23181611
 31
0.0
  0
LINE
  5
15F
100
AcDbEntity
  8
SLD-0
  6
CONTINUOUS
 62
       3
100
AcDbLine
 10
36.97874958
 20
33.23181611
 30
0.0
 11
36.9282379
 21
33.28232732
 31
0.0
  0
LINE
  5
160
100
AcDbEntity
  8
SLD-0
  6
CONTINUOUS
 62
       3
100
AcDbLine
 10
36.9282379
 20
33.28232732
 30
0.0
 11
36.87614344
 21
33.33442178
 31
0.0
  0
ARC
  5
161
100
AcDbEntity
  8
SLD-0
  6
CONTINUOUS
 62
       3
100
AcDbCircle
 10
-50.52004907
 20
62.68442171
 30
0.0
 40
16.0
100
AcDbArc
 50
74.9670199
 51
105.03298049
  0
ARC
  5
162
100
AcDbEntity
  8
SLD-0
  6
CONTINUOUS
 62
       3
100
AcDbCircle
 10
-50.52004907
 20
62.68442171
 30
0.0
 40
14.50000028
100
AcDbArc
 50
79.46951746
 51
87.18244317
  0
ARC
  5
163
100
AcDbEntity
  8
SLD-0
  6
CONTINUOUS
 62
       3
100
AcDbCircle
 10
-50.52004907
 20
75.73442171
 30
0.0
 40
1.6
100
AcDbArc
 50
63.54628769
 51
116.45371235
  0
ARC
  5
164
100
AcDbEntity
  8
SLD-0
  6
CONTINUOUS
 62
       3
100
AcDbCircle
 10
-50.52004907
 20
62.68442171
 30
0.0
 40
14.5
100
AcDbArc
 50
92.81755683
 51
100.53048307
  0
ARC
  5
165
100
AcDbEntity
  8
SLD-0
  6
CONTINUOUS
 62
       3
100
AcDbCircle
 10
-50.52004907
 20
75.73442171
 30
0.0
 40
1.6
100
AcDbArc
 50
214.22883122
 51
325.77113367
  0
ARC
  5
166
100
AcDbEntity
  8
SLD-0
  6
CONTINUOUS
 62
       3
100
AcDbCircle
 10
-50.52004907
 20
75.73442171
 30
0.0
 40
1.6
100
AcDbArc
 50
116.45371235
 51
214.22883122
  0
ARC
  5
167
100
AcDbEntity
  8
SLD-0
  6
CONTINUOUS
 62
       3
100
AcDbCircle
 10
-50.52004907
 20
75.73442171
 30
0.0
 40
1.6
100
AcDbArc
 50
325.77113367
 51
423.54628769
  0
ARC
  5
168
100
AcDbEntity
  8
SLD-0
  6
CONTINUOUS
 62
       3
100
AcDbCircle
 10
-50.52004907
 20
-32.11557829
 30
0.0
 40
14.50000028
100
AcDbArc
 50
259.46951746
 51
267.18244317
  0
ARC
  5
169
100
AcDbEntity
  8
SLD-0
  6
CONTINUOUS
 62
       3
100
AcDbCircle
 10
-50.52004907
 20
-45.16557829
 30
0.0
 40
1.6
100
AcDbArc
 50
243.54628769
 51
296.45371235
  0
ARC
  5
16A
100
AcDbEntity
  8
SLD-0
  6
CONTINUOUS
 62
       3
100
AcDbCircle
 10
-50.52004907
 20
-32.11557829
 30
0.0
 40
14.5
100
AcDbArc
 50
272.81755683
 51
280.53048307
  0
ARC
  5
16B
100
AcDbEntity
  8
SLD-0
  6
CONTINUOUS
 62
       3
100
AcDbCircle
 10
-50.52004907
 20
-45.16557829
 30
0.0
 40
1.6
100
AcDbArc
 50
34.22883172
 51
145.77113367
  0
ARC
  5
16C
100
AcDbEntity
  8
SLD-0
  6
CONTINUOUS
 62
       3
100
AcDbCircle
 10
-50.52004907
 20
-32.11557829
 30
0.0
 40
15.99999936
100
AcDbArc
 50
254.96701951
 51
285.03298045
  0
ARC
  5
16D
100
AcDbEntity
  8
SLD-0
  6
CONTINUOUS
 62
       3
100
AcDbCircle
 10
-50.52004907
 20
-45.16557829
 30
0.0
 40
1.6
100
AcDbArc
 50
145.77113367
 51
243.54628769
  0
ARC
  5
16E
100
AcDbEntity
  8
SLD-0
  6
CONTINUOUS
 62
       3
100
AcDbCircle
 10
-50.52004907
 20
-45.16557829
 30
0.0
 40
1.6
100
AcDbArc
 50
296.45371235
 51
394.22883172
  0
ARC
  5
16F
100
AcDbEntity
  8
SLD-0
  6
CONTINUOUS
 62
       3
100
AcDbCircle
 10
-44.82004907
 20
-41.91557829
 30
0.0
 40
0.30000003
100
AcDbArc
 50
270.00000955
 51
360.0
  0
ARC
  5
170
100
AcDbEntity
  8
SLD-0
  6
CONTINUOUS
 62
       3
100
AcDbCircle
 10
-44.82004907
 20
72.48442171
 30
0.0
 40
0.30000003
100
AcDbArc
 50
0.0
 51
89.99999045
  0
CIRCLE
  5
171
100
AcDbEntity
  8
SLD-0
  6
CONTINUOUS
 62
       3
100
AcDbCircle
 10
-48.52004907
 20
47.78442171
 30
0.0
 40
0.8
  0
CIRCLE
  5
172
100
AcDbEntity
  8
SLD-0
  6
CONTINUOUS
 62
       3
100
AcDbCircle
 10
-48.52004907
 20
52.78442171
 30
0.0
 40
0.8
  0
CIRCLE
  5
173
100
AcDbEntity
  8
SLD-0
  6
CONTINUOUS
 62
       3
100
AcDbCircle
 10
-48.52004907
 20
57.78442171
 30
0.0
 40
0.8
  0
CIRCLE
  5
174
100
AcDbEntity
  8
SLD-0
  6
CONTINUOUS
 62
       3
100
AcDbCircle
 10
-48.52004907
 20
62.78442171
 30
0.0
 40
0.8
  0
CIRCLE
  5
175
100
AcDbEntity
  8
SLD-0
  6
CONTINUOUS
 62
       3
100
AcDbCircle
 10
-52.52004907
 20
65.28442171
 30
0.0
 40
0.8
  0
CIRCLE
  5
176
100
AcDbEntity
  8
SLD-0
  6
CONTINUOUS
 62
       3
100
AcDbCircle
 10
-52.52004907
 20
62.78442171
 30
0.0
 40
0.8
  0
CIRCLE
  5
177
100
AcDbEntity
  8
SLD-0
  6
CONTINUOUS
 62
       3
100
AcDbCircle
 10
-52.52004907
 20
60.28442171
 30
0.0
 40
0.8
  0
CIRCLE
  5
178
100
AcDbEntity
  8
SLD-0
  6
CONTINUOUS
 62
       3
100
AcDbCircle
 10
-52.52004907
 20
57.78442171
 30
0.0
 40
0.8
  0
CIRCLE
  5
179
100
AcDbEntity
  8
SLD-0
  6
CONTINUOUS
 62
       3
100
AcDbCircle
 10
-52.52004907
 20
55.28442171
 30
0.0
 40
0.8
  0
CIRCLE
  5
17A
100
AcDbEntity
  8
SLD-0
  6
CONTINUOUS
 62
       3
100
AcDbCircle
 10
-52.52004907
 20
52.78442171
 30
0.0
 40
0.8
  0
CIRCLE
  5
17B
100
AcDbEntity
  8
SLD-0
  6
CONTINUOUS
 62
       3
100
AcDbCircle
 10
-52.52004907
 20
50.28442171
 30
0.0
 40
0.8
  0
CIRCLE
  5
17C
100
AcDbEntity
  8
SLD-0
  6
CONTINUOUS
 62
       3
100
AcDbCircle
 10
-52.52004907
 20
47.78442171
 30
0.0
 40
0.8
  0
CIRCLE
  5
17D
100
AcDbEntity
  8
SLD-0
  6
CONTINUOUS
 62
       3
100
AcDbCircle
 10
-48.52004907
 20
65.28442171
 30
0.0
 40
0.8
  0
CIRCLE
  5
17E
100
AcDbEntity
  8
SLD-0
  6
CONTINUOUS
 62
       3
100
AcDbCircle
 10
-48.52004907
 20
60.28442171
 30
0.0
 40
0.8
  0
CIRCLE
  5
17F
100
AcDbEntity
  8
SLD-0
  6
CONTINUOUS
 62
       3
100
AcDbCircle
 10
-48.52004907
 20
55.28442171
 30
0.0
 40
0.8
  0
CIRCLE
  5
180
100
AcDbEntity
  8
SLD-0
  6
CONTINUOUS
 62
       3
100
AcDbCircle
 10
-48.52004907
 20
50.28442171
 30
0.0
 40
0.8
  0
CIRCLE
  5
181
100
AcDbEntity
  8
SLD-0
  6
CONTINUOUS
 62
       3
100
AcDbCircle
 10
-48.52004907
 20
67.78442171
 30
0.0
 40
0.8
  0
ARC
  5
182
100
AcDbEntity
  8
SLD-0
  6
CONTINUOUS
 62
       3
100
AcDbCircle
 10
-53.27004907
 20
72.48442171
 30
0.0
 40
0.30000003
100
AcDbArc
 50
89.99999809
 51
180.0
  0
ARC
  5
183
100
AcDbEntity
  8
SLD-0
  6
CONTINUOUS
 62
       3
100
AcDbCircle
 10
-53.27004907
 20
-41.91557829
 30
0.0
 40
0.30000003
100
AcDbArc
 50
179.99974599
 51
270.00000191
  0
ARC
  5
184
100
AcDbEntity
  8
SLD-0
  6
CONTINUOUS
 62
       3
100
AcDbCircle
 10
-56.22004907
 20
-37.91557829
 30
0.0
 40
0.3
100
AcDbArc
 50
180.0
 51
269.99998854
  0
ARC
  5
185
100
AcDbEntity
  8
SLD-0
  6
CONTINUOUS
 62
       3
100
AcDbCircle
 10
-56.22004907
 20
68.48442171
 30
0.0
 40
0.30000001
100
AcDbArc
 50
90.00001146
 51
179.99966577
  0
ARC
  5
186
100
AcDbEntity
  8
SLD-0
  6
CONTINUOUS
 62
       3
100
AcDbCircle
 10
-42.22004907
 20
-41.91557829
 30
0.0
 40
0.3
100
AcDbArc
 50
270.0
 51
360.00025401
  0
ARC
  5
187
100
AcDbEntity
  8
SLD-0
  6
CONTINUOUS
 62
       3
100
AcDbCircle
 10
-42.22004907
 20
72.48442171
 30
0.0
 40
0.3
100
AcDbArc
 50
359.9997479
 51
450.0
  0
ARC
  5
188
100
AcDbEntity
  8
SLD-0
  6
CONTINUOUS
 62
       3
100
AcDbCircle
 10
-13.52385641
 20
-41.91557829
 30
0.0
 40
0.30000003
100
AcDbArc
 50
180.0
 51
270.0
  0
ARC
  5
189
100
AcDbEntity
  8
SLD-0
  6
CONTINUOUS
 62
       3
100
AcDbCircle
 10
-13.52385641
 20
72.48442171
 30
0.0
 40
0.30000003
100
AcDbArc
 50
90.0
 51
180.0002521
  0
ARC
  5
18A
100
AcDbEntity
  8
SLD-0
  6
CONTINUOUS
 62
       3
100
AcDbCircle
 10
4.47614359
 20
-41.91557829
 30
0.0
 40
0.30000048
100
AcDbArc
 50
179.99974599
 51
270.00016807
  0
ARC
  5
18B
100
AcDbEntity
  8
SLD-0
  6
CONTINUOUS
 62
       3
100
AcDbCircle
 10
26.87614359
 20
-41.91557829
 30
0.0
 40
0.30000003
100
AcDbArc
 50
270.00001528
 51
360.00025401
  0
ARC
  5
18C
100
AcDbEntity
  8
SLD-0
  6
CONTINUOUS
 62
       3
100
AcDbCircle
 10
4.47614359
 20
72.48442171
 30
0.0
 40
0.30000048
100
AcDbArc
 50
89.99983193
 51
180.0002521
  0
ARC
  5
18D
100
AcDbEntity
  8
SLD-0
  6
CONTINUOUS
 62
       3
100
AcDbCircle
 10
26.87614359
 20
72.48442171
 30
0.0
 40
0.30000003
100
AcDbArc
 50
359.9997479
 51
449.99998472
  0
ARC
  5
18E
100
AcDbEntity
  8
SLD-0
  6
CONTINUOUS
 62
       3
100
AcDbCircle
 10
40.87614359
 20
-41.91557829
 30
0.0
 40
0.3
100
AcDbArc
 50
270.0
 51
360.00025401
  0
ARC
  5
18F
100
AcDbEntity
  8
SLD-0
  6
CONTINUOUS
 62
       3
100
AcDbCircle
 10
24.07614359
 20
58.18442171
 30
0.0
 40
0.5
100
AcDbArc
 50
180.0
 51
270.0
  0
ARC
  5
190
100
AcDbEntity
  8
SLD-0
  6
CONTINUOUS
 62
       3
100
AcDbCircle
 10
31.27614359
 20
58.18442171
 30
0.0
 40
0.50000124
100
AcDbArc
 50
270.00000573
 51
360.0
  0
ARC
  5
191
100
AcDbEntity
  8
SLD-0
  6
CONTINUOUS
 62
       3
100
AcDbCircle
 10
31.27614359
 20
65.38442171
 30
0.0
 40
0.50000014
100
AcDbArc
 50
359.99985332
 51
450.0
  0
ARC
  5
192
100
AcDbEntity
  8
SLD-0
  6
CONTINUOUS
 62
       3
100
AcDbCircle
 10
24.07614359
 20
65.38442171
 30
0.0
 40
0.5
100
AcDbArc
 50
90.00008594
 51
180.0
  0
ARC
  5
193
100
AcDbEntity
  8
SLD-0
  6
CONTINUOUS
 62
       3
100
AcDbCircle
 10
14.07614359
 20
58.18442171
 30
0.0
 40
0.5
100
AcDbArc
 50
180.0
 51
270.0
  0
ARC
  5
194
100
AcDbEntity
  8
SLD-0
  6
CONTINUOUS
 62
       3
100
AcDbCircle
 10
21.27614359
 20
58.18442171
 30
0.0
 40
0.50000124
100
AcDbArc
 50
270.00003209
 51
360.0
  0
ARC
  5
195
100
AcDbEntity
  8
SLD-0
  6
CONTINUOUS
 62
       3
100
AcDbCircle
 10
21.27614359
 20
65.38442171
 30
0.0
 40
0.5
100
AcDbArc
 50
359.99985332
 51
450.0
  0
ARC
  5
196
100
AcDbEntity
  8
SLD-0
  6
CONTINUOUS
 62
       3
100
AcDbCircle
 10
14.07614359
 20
65.38442171
 30
0.0
 40
0.5
100
AcDbArc
 50
90.00006073
 51
180.0
  0
ARC
  5
197
100
AcDbEntity
  8
SLD-0
  6
CONTINUOUS
 62
       3
100
AcDbCircle
 10
40.87614359
 20
-2.76557829
 30
0.0
 40
0.3
100
AcDbArc
 50
359.99998663
 51
450.0
  0
ARC
  5
198
100
AcDbEntity
  8
SLD-0
  6
CONTINUOUS
 62
       3
100
AcDbCircle
 10
40.87614359
 20
33.33442171
 30
0.0
 40
0.3
100
AcDbArc
 50
270.0
 51
360.0
  0
ARC
  5
199
100
AcDbEntity
  8
SLD-0
  6
CONTINUOUS
 62
       3
100
AcDbCircle
 10
40.87614359
 20
72.48442171
 30
0.0
 40
0.3
100
AcDbArc
 50
359.9997479
 51
450.0
  0
LINE
  5
19A
100
AcDbEntity
  8
SLD-0
  6
CONTINUOUS
 62
       3
100
AcDbLine
 10
28.37354459
 20
4.53442164
 30
0.0
 11
23.97354368
 21
4.53442163
 31
0.0
  0
LINE
  5
19B
100
AcDbEntity
  8
SLD-0
  6
CONTINUOUS
 62
       3
100
AcDbLine
 10
23.97354368
 20
4.53442163
 30
0.0
 11
23.87354386
 21
4.5644214
 31
0.0
  0
LINE
  5
19C
100
AcDbEntity
  8
SLD-0
  6
CONTINUOUS
 62
       3
100
AcDbLine
 10
23.87354386
 20
5.00442195
 30
0.0
 11
23.97354368
 21
5.03442172
 31
0.0
  0
LINE
  5
19D
100
AcDbEntity
  8
SLD-0
  6
CONTINUOUS
 62
       3
100
AcDbLine
 10
23.4735436
 20
4.68442138
 30
0.0
 11
23.4735436
 21
4.88442197
 31
0.0
  0
LINE
  5
19E
100
AcDbEntity
  8
SLD-0
  6
CONTINUOUS
 62
       3
100
AcDbLine
 10
25.67614384
 20
1.53442172
 30
0.0
 11
25.67614384
 21
4.53442163
 31
0.0
  0
LINE
  5
19F
100
AcDbEntity
  8
SLD-0
  6
CONTINUOUS
 62
       3
100
AcDbLine
 10
25.67614384
 20
3.38442172
 30
0.0
 11
29.77614433
 21
3.38442172
 31
0.0
  0
LINE
  5
1A0
100
AcDbEntity
  8
SLD-0
  6
CONTINUOUS
 62
       3
100
AcDbLine
 10
29.77614433
 20
3.38442172
 30
0.0
 11
29.77614433
 21
6.28442145
 31
0.0
  0
LINE
  5
1A1
100
AcDbEntity
  8
SLD-0
  6
CONTINUOUS
 62
       3
100
AcDbLine
 10
29.77614433
 20
6.28442145
 30
0.0
 11
25.67614384
 21
6.28442145
 31
0.0
  0
LINE
  5
1A2
100
AcDbEntity
  8
SLD-0
  6
CONTINUOUS
 62
       3
100
AcDbLine
 10
23.87354386
 20
4.5644214
 30
0.0
 11
23.80408489
 21
4.58525974
 31
0.0
  0
LINE
  5
1A3
100
AcDbEntity
  8
SLD-0
  6
CONTINUOUS
 62
       3
100
AcDbLine
 10
23.80408489
 20
4.58525974
 30
0.0
 11
23.73673536
 21
4.60546385
 31
0.0
  0
LINE
  5
1A4
100
AcDbEntity
  8
SLD-0
  6
CONTINUOUS
 62
       3
100
AcDbLine
 10
23.73673536
 20
4.60546385
 30
0.0
 11
23.67354419
 21
4.62442185
 31
0.0
  0
LINE
  5
1A5
100
AcDbEntity
  8
SLD-0
  6
CONTINUOUS
 62
       3
100
AcDbLine
 10
23.67354419
 20
4.62442185
 30
0.0
 11
23.61642897
 21
4.64155633
 31
0.0
  0
LINE
  5
1A6
100
AcDbEntity
  8
SLD-0
  6
CONTINUOUS
 62
       3
100
AcDbLine
 10
23.61642897
 20
4.64155633
 30
0.0
 11
23.56712569
 21
4.65634666
 31
0.0
  0
LINE
  5
1A7
100
AcDbEntity
  8
SLD-0
  6
CONTINUOUS
 62
       3
100
AcDbLine
 10
23.56712569
 20
4.65634666
 30
0.0
 11
23.52713377
 21
4.66834489
 31
0.0
  0
LINE
  5
1A8
100
AcDbEntity
  8
SLD-0
  6
CONTINUOUS
 62
       3
100
AcDbLine
 10
23.52713377
 20
4.66834489
 30
0.0
 11
23.49766672
 21
4.677185
 31
0.0
  0
LINE
  5
1A9
100
AcDbEntity
  8
SLD-0
  6
CONTINUOUS
 62
       3
100
AcDbLine
 10
23.49766672
 20
4.677185
 30
0.0
 11
23.47962048
 21
4.68259878
 31
0.0
  0
LINE
  5
1AA
100
AcDbEntity
  8
SLD-0
  6
CONTINUOUS
 62
       3
100
AcDbLine
 10
23.47962048
 20
4.68259878
 30
0.0
 11
23.4735436
 21
4.68442138
 31
0.0
  0
LINE
  5
1AB
100
AcDbEntity
  8
SLD-0
  6
CONTINUOUS
 62
       3
100
AcDbLine
 10
23.4735436
 20
4.88442197
 30
0.0
 11
23.47962048
 21
4.88624457
 31
0.0
  0
LINE
  5
1AC
100
AcDbEntity
  8
SLD-0
  6
CONTINUOUS
 62
       3
100
AcDbLine
 10
23.47962048
 20
4.88624457
 30
0.0
 11
23.49766672
 21
4.89165835
 31
0.0
  0
LINE
  5
1AD
100
AcDbEntity
  8
SLD-0
  6
CONTINUOUS
 62
       3
100
AcDbLine
 10
23.49766672
 20
4.89165835
 30
0.0
 11
23.52713377
 21
4.90049846
 31
0.0
  0
LINE
  5
1AE
100
AcDbEntity
  8
SLD-0
  6
CONTINUOUS
 62
       3
100
AcDbLine
 10
23.52713377
 20
4.90049846
 30
0.0
 11
23.56712569
 21
4.91249669
 31
0.0
  0
LINE
  5
1AF
100
AcDbEntity
  8
SLD-0
  6
CONTINUOUS
 62
       3
100
AcDbLine
 10
23.56712569
 20
4.91249669
 30
0.0
 11
23.61642897
 21
4.92728702
 31
0.0
  0
LINE
  5
1B0
100
AcDbEntity
  8
SLD-0
  6
CONTINUOUS
 62
       3
100
AcDbLine
 10
23.61642897
 20
4.92728702
 30
0.0
 11
23.67354419
 21
4.9444215
 31
0.0
  0
LINE
  5
1B1
100
AcDbEntity
  8
SLD-0
  6
CONTINUOUS
 62
       3
100
AcDbLine
 10
23.67354419
 20
4.9444215
 30
0.0
 11
23.73673536
 21
4.9633795
 31
0.0
  0
LINE
  5
1B2
100
AcDbEntity
  8
SLD-0
  6
CONTINUOUS
 62
       3
100
AcDbLine
 10
23.73673536
 20
4.9633795
 30
0.0
 11
23.80408489
 21
4.98358361
 31
0.0
  0
LINE
  5
1B3
100
AcDbEntity
  8
SLD-0
  6
CONTINUOUS
 62
       3
100
AcDbLine
 10
23.80408489
 20
4.98358361
 30
0.0
 11
23.87354386
 21
5.00442195
 31
0.0
  0
LINE
  5
1B4
100
AcDbEntity
  8
SLD-0
  6
CONTINUOUS
 62
       3
100
AcDbLine
 10
28.37354459
 20
8.03442164
 30
0.0
 11
23.97354368
 21
8.03442163
 31
0.0
  0
LINE
  5
1B5
100
AcDbEntity
  8
SLD-0
  6
CONTINUOUS
 62
       3
100
AcDbLine
 10
23.97354368
 20
8.03442163
 30
0.0
 11
23.87354386
 21
8.0644214
 31
0.0
  0
LINE
  5
1B6
100
AcDbEntity
  8
SLD-0
  6
CONTINUOUS
 62
       3
100
AcDbLine
 10
23.87354386
 20
8.50442195
 30
0.0
 11
23.97354368
 21
8.53442172
 31
0.0
  0
LINE
  5
1B7
100
AcDbEntity
  8
SLD-0
  6
CONTINUOUS
 62
       3
100
AcDbLine
 10
23.4735436
 20
8.18442138
 30
0.0
 11
23.4735436
 21
8.38442197
 31
0.0
  0
LINE
  5
1B8
100
AcDbEntity
  8
SLD-0
  6
CONTINUOUS
 62
       3
100
AcDbLine
 10
25.67614384
 20
5.03442172
 30
0.0
 11
25.67614384
 21
8.03442163
 31
0.0
  0
LINE
  5
1B9
100
AcDbEntity
  8
SLD-0
  6
CONTINUOUS
 62
       3
100
AcDbLine
 10
25.67614384
 20
6.88442172
 30
0.0
 11
29.77614433
 21
6.88442172
 31
0.0
  0
LINE
  5
1BA
100
AcDbEntity
  8
SLD-0
  6
CONTINUOUS
 62
       3
100
AcDbLine
 10
29.77614433
 20
6.88442172
 30
0.0
 11
29.77614433
 21
9.78442145
 31
0.0
  0
LINE
  5
1BB
100
AcDbEntity
  8
SLD-0
  6
CONTINUOUS
 62
       3
100
AcDbLine
 10
29.77614433
 20
9.78442145
 30
0.0
 11
25.67614384
 21
9.78442145
 31
0.0
  0
LINE
  5
1BC
100
AcDbEntity
  8
SLD-0
  6
CONTINUOUS
 62
       3
100
AcDbLine
 10
23.87354386
 20
8.0644214
 30
0.0
 11
23.80408489
 21
8.08525974
 31
0.0
  0
LINE
  5
1BD
100
AcDbEntity
  8
SLD-0
  6
CONTINUOUS
 62
       3
100
AcDbLine
 10
28.37354459
 20
1.03442164
 30
0.0
 11
23.97354368
 21
1.03442163
 31
0.0
  0
LINE
  5
1BE
100
AcDbEntity
  8
SLD-0
  6
CONTINUOUS
 62
       3
100
AcDbLine
 10
23.97354368
 20
1.03442163
 30
0.0
 11
23.87354386
 21
1.0644214
 31
0.0
  0
LINE
  5
1BF
100
AcDbEntity
  8
SLD-0
  6
CONTINUOUS
 62
       3
100
AcDbLine
 10
23.87354386
 20
1.50442195
 30
0.0
 11
23.97354368
 21
1.53442172
 31
0.0
  0
LINE
  5
1C0
100
AcDbEntity
  8
SLD-0
  6
CONTINUOUS
 62
       3
100
AcDbLine
 10
23.80408489
 20
8.08525974
 30
0.0
 11
23.73673536
 21
8.10546385
 31
0.0
  0
LINE
  5
1C1
100
AcDbEntity
  8
SLD-0
  6
CONTINUOUS
 62
       3
100
AcDbLine
 10
23.4735436
 20
1.18442138
 30
0.0
 11
23.4735436
 21
1.38442197
 31
0.0
  0
LINE
  5
1C2
100
AcDbEntity
  8
SLD-0
  6
CONTINUOUS
 62
       3
100
AcDbLine
 10
23.73673536
 20
8.10546385
 30
0.0
 11
23.67354419
 21
8.12442185
 31
0.0
  0
LINE
  5
1C3
100
AcDbEntity
  8
SLD-0
  6
CONTINUOUS
 62
       3
100
AcDbLine
 10
23.67354419
 20
8.12442185
 30
0.0
 11
23.61642897
 21
8.14155633
 31
0.0
  0
LINE
  5
1C4
100
AcDbEntity
  8
SLD-0
  6
CONTINUOUS
 62
       3
100
AcDbLine
 10
23.61642897
 20
8.14155633
 30
0.0
 11
23.56712569
 21
8.15634666
 31
0.0
  0
LINE
  5
1C5
100
AcDbEntity
  8
SLD-0
  6
CONTINUOUS
 62
       3
100
AcDbLine
 10
23.56712569
 20
8.15634666
 30
0.0
 11
23.52713377
 21
8.16834489
 31
0.0
  0
LINE
  5
1C6
100
AcDbEntity
  8
SLD-0
  6
CONTINUOUS
 62
       3
100
AcDbLine
 10
23.52713377
 20
8.16834489
 30
0.0
 11
23.49766672
 21
8.177185
 31
0.0
  0
LINE
  5
1C7
100
AcDbEntity
  8
SLD-0
  6
CONTINUOUS
 62
       3
100
AcDbLine
 10
23.49766672
 20
8.177185
 30
0.0
 11
23.47962048
 21
8.18259878
 31
0.0
  0
LINE
  5
1C8
100
AcDbEntity
  8
SLD-0
  6
CONTINUOUS
 62
       3
100
AcDbLine
 10
23.47962048
 20
8.18259878
 30
0.0
 11
23.4735436
 21
8.18442138
 31
0.0
  0
LINE
  5
1C9
100
AcDbEntity
  8
SLD-0
  6
CONTINUOUS
 62
       3
100
AcDbLine
 10
23.4735436
 20
8.38442197
 30
0.0
 11
23.47962048
 21
8.38624457
 31
0.0
  0
LINE
  5
1CA
100
AcDbEntity
  8
SLD-0
  6
CONTINUOUS
 62
       3
100
AcDbLine
 10
23.47962048
 20
8.38624457
 30
0.0
 11
23.49766672
 21
8.39165835
 31
0.0
  0
LINE
  5
1CB
100
AcDbEntity
  8
SLD-0
  6
CONTINUOUS
 62
       3
100
AcDbLine
 10
23.49766672
 20
8.39165835
 30
0.0
 11
23.52713377
 21
8.40049846
 31
0.0
  0
LINE
  5
1CC
100
AcDbEntity
  8
SLD-0
  6
CONTINUOUS
 62
       3
100
AcDbLine
 10
23.52713377
 20
8.40049846
 30
0.0
 11
23.56712569
 21
8.41249669
 31
0.0
  0
LINE
  5
1CD
100
AcDbEntity
  8
SLD-0
  6
CONTINUOUS
 62
       3
100
AcDbLine
 10
23.56712569
 20
8.41249669
 30
0.0
 11
23.61642897
 21
8.42728702
 31
0.0
  0
LINE
  5
1CE
100
AcDbEntity
  8
SLD-0
  6
CONTINUOUS
 62
       3
100
AcDbLine
 10
23.61642897
 20
8.42728702
 30
0.0
 11
23.67354419
 21
8.4444215
 31
0.0
  0
LINE
  5
1CF
100
AcDbEntity
  8
SLD-0
  6
CONTINUOUS
 62
       3
100
AcDbLine
 10
23.67354419
 20
8.4444215
 30
0.0
 11
23.73673536
 21
8.4633795
 31
0.0
  0
LINE
  5
1D0
100
AcDbEntity
  8
SLD-0
  6
CONTINUOUS
 62
       3
100
AcDbLine
 10
23.73673536
 20
8.4633795
 30
0.0
 11
23.80408489
 21
8.48358361
 31
0.0
  0
LINE
  5
1D1
100
AcDbEntity
  8
SLD-0
  6
CONTINUOUS
 62
       3
100
AcDbLine
 10
23.80408489
 20
8.48358361
 30
0.0
 11
23.87354386
 21
8.50442195
 31
0.0
  0
LINE
  5
1D2
100
AcDbEntity
  8
SLD-0
  6
CONTINUOUS
 62
       3
100
AcDbLine
 10
28.37354459
 20
11.53442164
 30
0.0
 11
23.97354368
 21
11.53442163
 31
0.0
  0
LINE
  5
1D3
100
AcDbEntity
  8
SLD-0
  6
CONTINUOUS
 62
       3
100
AcDbLine
 10
23.97354368
 20
11.53442163
 30
0.0
 11
23.87354386
 21
11.5644214
 31
0.0
  0
LINE
  5
1D4
100
AcDbEntity
  8
SLD-0
  6
CONTINUOUS
 62
       3
100
AcDbLine
 10
23.87354386
 20
12.00442195
 30
0.0
 11
23.97354368
 21
12.03442172
 31
0.0
  0
LINE
  5
1D5
100
AcDbEntity
  8
SLD-0
  6
CONTINUOUS
 62
       3
100
AcDbLine
 10
23.4735436
 20
11.68442138
 30
0.0
 11
23.4735436
 21
11.88442197
 31
0.0
  0
LINE
  5
1D6
100
AcDbEntity
  8
SLD-0
  6
CONTINUOUS
 62
       3
100
AcDbLine
 10
25.67614384
 20
8.53442172
 30
0.0
 11
25.67614384
 21
11.53442163
 31
0.0
  0
LINE
  5
1D7
100
AcDbEntity
  8
SLD-0
  6
CONTINUOUS
 62
       3
100
AcDbLine
 10
25.67614384
 20
10.38442172
 30
0.0
 11
29.77614433
 21
10.38442172
 31
0.0
  0
LINE
  5
1D8
100
AcDbEntity
  8
SLD-0
  6
CONTINUOUS
 62
       3
100
AcDbLine
 10
29.77614433
 20
10.38442172
 30
0.0
 11
29.77614433
 21
13.28442145
 31
0.0
  0
LINE
  5
1D9
100
AcDbEntity
  8
SLD-0
  6
CONTINUOUS
 62
       3
100
AcDbLine
 10
29.77614433
 20
13.28442145
 30
0.0
 11
25.67614384
 21
13.28442145
 31
0.0
  0
LINE
  5
1DA
100
AcDbEntity
  8
SLD-0
  6
CONTINUOUS
 62
       3
100
AcDbLine
 10
23.87354386
 20
11.5644214
 30
0.0
 11
23.80408489
 21
11.58525974
 31
0.0
  0
LINE
  5
1DB
100
AcDbEntity
  8
SLD-0
  6
CONTINUOUS
 62
       3
100
AcDbLine
 10
23.80408489
 20
11.58525974
 30
0.0
 11
23.73673536
 21
11.60546385
 31
0.0
  0
LINE
  5
1DC
100
AcDbEntity
  8
SLD-0
  6
CONTINUOUS
 62
       3
100
AcDbLine
 10
23.73673536
 20
11.60546385
 30
0.0
 11
23.67354419
 21
11.62442185
 31
0.0
  0
LINE
  5
1DD
100
AcDbEntity
  8
SLD-0
  6
CONTINUOUS
 62
       3
100
AcDbLine
 10
23.67354419
 20
11.62442185
 30
0.0
 11
23.61642897
 21
11.64155633
 31
0.0
  0
LINE
  5
1DE
100
AcDbEntity
  8
SLD-0
  6
CONTINUOUS
 62
       3
100
AcDbLine
 10
23.61642897
 20
11.64155633
 30
0.0
 11
23.56712569
 21
11.65634666
 31
0.0
  0
LINE
  5
1DF
100
AcDbEntity
  8
SLD-0
  6
CONTINUOUS
 62
       3
100
AcDbLine
 10
23.56712569
 20
11.65634666
 30
0.0
 11
23.52713377
 21
11.66834489
 31
0.0
  0
LINE
  5
1E0
100
AcDbEntity
  8
SLD-0
  6
CONTINUOUS
 62
       3
100
AcDbLine
 10
23.52713377
 20
11.66834489
 30
0.0
 11
23.49766672
 21
11.677185
 31
0.0
  0
LINE
  5
1E1
100
AcDbEntity
  8
SLD-0
  6
CONTINUOUS
 62
       3
100
AcDbLine
 10
23.49766672
 20
11.677185
 30
0.0
 11
23.47962048
 21
11.68259878
 31
0.0
  0
LINE
  5
1E2
100
AcDbEntity
  8
SLD-0
  6
CONTINUOUS
 62
       3
100
AcDbLine
 10
23.47962048
 20
11.68259878
 30
0.0
 11
23.4735436
 21
11.68442138
 31
0.0
  0
LINE
  5
1E3
100
AcDbEntity
  8
SLD-0
  6
CONTINUOUS
 62
       3
100
AcDbLine
 10
23.4735436
 20
11.88442197
 30
0.0
 11
23.47962048
 21
11.88624457
 31
0.0
  0
LINE
  5
1E4
100
AcDbEntity
  8
SLD-0
  6
CONTINUOUS
 62
       3
100
AcDbLine
 10
23.47962048
 20
11.88624457
 30
0.0
 11
23.49766672
 21
11.89165835
 31
0.0
  0
LINE
  5
1E5
100
AcDbEntity
  8
SLD-0
  6
CONTINUOUS
 62
       3
100
AcDbLine
 10
23.49766672
 20
11.89165835
 30
0.0
 11
23.52713377
 21
11.90049846
 31
0.0
  0
LINE
  5
1E6
100
AcDbEntity
  8
SLD-0
  6
CONTINUOUS
 62
       3
100
AcDbLine
 10
23.52713377
 20
11.90049846
 30
0.0
 11
23.56712569
 21
11.91249669
 31
0.0
  0
LINE
  5
1E7
100
AcDbEntity
  8
SLD-0
  6
CONTINUOUS
 62
       3
100
AcDbLine
 10
23.56712569
 20
11.91249669
 30
0.0
 11
23.61642897
 21
11.92728702
 31
0.0
  0
LINE
  5
1E8
100
AcDbEntity
  8
SLD-0
  6
CONTINUOUS
 62
       3
100
AcDbLine
 10
23.61642897
 20
11.92728702
 30
0.0
 11
23.67354419
 21
11.9444215
 31
0.0
  0
LINE
  5
1E9
100
AcDbEntity
  8
SLD-0
  6
CONTINUOUS
 62
       3
100
AcDbLine
 10
23.67354419
 20
11.9444215
 30
0.0
 11
23.73673536
 21
11.9633795
 31
0.0
  0
LINE
  5
1EA
100
AcDbEntity
  8
SLD-0
  6
CONTINUOUS
 62
       3
100
AcDbLine
 10
23.73673536
 20
11.9633795
 30
0.0
 11
23.80408489
 21
11.98358361
 31
0.0
  0
LINE
  5
1EB
100
AcDbEntity
  8
SLD-0
  6
CONTINUOUS
 62
       3
100
AcDbLine
 10
23.80408489
 20
11.98358361
 30
0.0
 11
23.87354386
 21
12.00442195
 31
0.0
  0
LINE
  5
1EC
100
AcDbEntity
  8
SLD-0
  6
CONTINUOUS
 62
       3
100
AcDbLine
 10
28.37354459
 20
15.03442164
 30
0.0
 11
23.97354368
 21
15.03442163
 31
0.0
  0
LINE
  5
1ED
100
AcDbEntity
  8
SLD-0
  6
CONTINUOUS
 62
       3
100
AcDbLine
 10
23.97354368
 20
15.03442163
 30
0.0
 11
23.87354386
 21
15.0644214
 31
0.0
  0
LINE
  5
1EE
100
AcDbEntity
  8
SLD-0
  6
CONTINUOUS
 62
       3
100
AcDbLine
 10
23.87354386
 20
15.50442195
 30
0.0
 11
23.97354368
 21
15.53442172
 31
0.0
  0
LINE
  5
1EF
100
AcDbEntity
  8
SLD-0
  6
CONTINUOUS
 62
       3
100
AcDbLine
 10
23.4735436
 20
15.18442138
 30
0.0
 11
23.4735436
 21
15.38442197
 31
0.0
  0
LINE
  5
1F0
100
AcDbEntity
  8
SLD-0
  6
CONTINUOUS
 62
       3
100
AcDbLine
 10
25.67614384
 20
12.03442172
 30
0.0
 11
25.67614384
 21
15.03442163
 31
0.0
  0
LINE
  5
1F1
100
AcDbEntity
  8
SLD-0
  6
CONTINUOUS
 62
       3
100
AcDbLine
 10
25.67614384
 20
13.88442172
 30
0.0
 11
29.77614433
 21
13.88442172
 31
0.0
  0
LINE
  5
1F2
100
AcDbEntity
  8
SLD-0
  6
CONTINUOUS
 62
       3
100
AcDbLine
 10
29.77614433
 20
13.88442172
 30
0.0
 11
29.77614433
 21
16.78442145
 31
0.0
  0
LINE
  5
1F3
100
AcDbEntity
  8
SLD-0
  6
CONTINUOUS
 62
       3
100
AcDbLine
 10
29.77614433
 20
16.78442145
 30
0.0
 11
25.67614384
 21
16.78442145
 31
0.0
  0
LINE
  5
1F4
100
AcDbEntity
  8
SLD-0
  6
CONTINUOUS
 62
       3
100
AcDbLine
 10
23.87354386
 20
15.0644214
 30
0.0
 11
23.80408489
 21
15.08525974
 31
0.0
  0
LINE
  5
1F5
100
AcDbEntity
  8
SLD-0
  6
CONTINUOUS
 62
       3
100
AcDbLine
 10
23.80408489
 20
15.08525974
 30
0.0
 11
23.73673536
 21
15.10546385
 31
0.0
  0
LINE
  5
1F6
100
AcDbEntity
  8
SLD-0
  6
CONTINUOUS
 62
       3
100
AcDbLine
 10
23.73673536
 20
15.10546385
 30
0.0
 11
23.67354419
 21
15.12442185
 31
0.0
  0
LINE
  5
1F7
100
AcDbEntity
  8
SLD-0
  6
CONTINUOUS
 62
       3
100
AcDbLine
 10
23.67354419
 20
15.12442185
 30
0.0
 11
23.61642897
 21
15.14155633
 31
0.0
  0
LINE
  5
1F8
100
AcDbEntity
  8
SLD-0
  6
CONTINUOUS
 62
       3
100
AcDbLine
 10
23.61642897
 20
15.14155633
 30
0.0
 11
23.56712569
 21
15.15634666
 31
0.0
  0
LINE
  5
1F9
100
AcDbEntity
  8
SLD-0
  6
CONTINUOUS
 62
       3
100
AcDbLine
 10
23.56712569
 20
15.15634666
 30
0.0
 11
23.52713377
 21
15.16834489
 31
0.0
  0
LINE
  5
1FA
100
AcDbEntity
  8
SLD-0
  6
CONTINUOUS
 62
       3
100
AcDbLine
 10
23.52713377
 20
15.16834489
 30
0.0
 11
23.49766672
 21
15.177185
 31
0.0
  0
LINE
  5
1FB
100
AcDbEntity
  8
SLD-0
  6
CONTINUOUS
 62
       3
100
AcDbLine
 10
23.49766672
 20
15.177185
 30
0.0
 11
23.47962048
 21
15.18259878
 31
0.0
  0
LINE
  5
1FC
100
AcDbEntity
  8
SLD-0
  6
CONTINUOUS
 62
       3
100
AcDbLine
 10
23.47962048
 20
15.18259878
 30
0.0
 11
23.4735436
 21
15.18442138
 31
0.0
  0
LINE
  5
1FD
100
AcDbEntity
  8
SLD-0
  6
CONTINUOUS
 62
       3
100
AcDbLine
 10
23.4735436
 20
15.38442197
 30
0.0
 11
23.47962048
 21
15.38624457
 31
0.0
  0
LINE
  5
1FE
100
AcDbEntity
  8
SLD-0
  6
CONTINUOUS
 62
       3
100
AcDbLine
 10
23.47962048
 20
15.38624457
 30
0.0
 11
23.49766672
 21
15.39165835
 31
0.0
  0
LINE
  5
1FF
100
AcDbEntity
  8
SLD-0
  6
CONTINUOUS
 62
       3
100
AcDbLine
 10
23.49766672
 20
15.39165835
 30
0.0
 11
23.52713377
 21
15.40049846
 31
0.0
  0
LINE
  5
200
100
AcDbEntity
  8
SLD-0
  6
CONTINUOUS
 62
       3
100
AcDbLine
 10
23.52713377
 20
15.40049846
 30
0.0
 11
23.56712569
 21
15.41249669
 31
0.0
  0
LINE
  5
201
100
AcDbEntity
  8
SLD-0
  6
CONTINUOUS
 62
       3
100
AcDbLine
 10
23.56712569
 20
15.41249669
 30
0.0
 11
23.61642897
 21
15.42728702
 31
0.0
  0
LINE
  5
202
100
AcDbEntity
  8
SLD-0
  6
CONTINUOUS
 62
       3
100
AcDbLine
 10
23.61642897
 20
15.42728702
 30
0.0
 11
23.67354419
 21
15.4444215
 31
0.0
  0
LINE
  5
203
100
AcDbEntity
  8
SLD-0
  6
CONTINUOUS
 62
       3
100
AcDbLine
 10
23.67354419
 20
15.4444215
 30
0.0
 11
23.73673536
 21
15.4633795
 31
0.0
  0
LINE
  5
204
100
AcDbEntity
  8
SLD-0
  6
CONTINUOUS
 62
       3
100
AcDbLine
 10
23.73673536
 20
15.4633795
 30
0.0
 11
23.80408489
 21
15.48358361
 31
0.0
  0
LINE
  5
205
100
AcDbEntity
  8
SLD-0
  6
CONTINUOUS
 62
       3
100
AcDbLine
 10
23.80408489
 20
15.48358361
 30
0.0
 11
23.87354386
 21
15.50442195
 31
0.0
  0
LINE
  5
206
100
AcDbEntity
  8
SLD-0
  6
CONTINUOUS
 62
       3
100
AcDbLine
 10
28.37354459
 20
18.53442164
 30
0.0
 11
23.97354368
 21
18.53442163
 31
0.0
  0
LINE
  5
207
100
AcDbEntity
  8
SLD-0
  6
CONTINUOUS
 62
       3
100
AcDbLine
 10
23.97354368
 20
18.53442163
 30
0.0
 11
23.87354386
 21
18.5644214
 31
0.0
  0
LINE
  5
208
100
AcDbEntity
  8
SLD-0
  6
CONTINUOUS
 62
       3
100
AcDbLine
 10
23.87354386
 20
19.00442195
 30
0.0
 11
23.97354368
 21
19.03442172
 31
0.0
  0
LINE
  5
209
100
AcDbEntity
  8
SLD-0
  6
CONTINUOUS
 62
       3
100
AcDbLine
 10
23.4735436
 20
18.68442138
 30
0.0
 11
23.4735436
 21
18.88442197
 31
0.0
  0
LINE
  5
20A
100
AcDbEntity
  8
SLD-0
  6
CONTINUOUS
 62
       3
100
AcDbLine
 10
25.67614384
 20
15.53442172
 30
0.0
 11
25.67614384
 21
18.53442163
 31
0.0
  0
LINE
  5
20B
100
AcDbEntity
  8
SLD-0
  6
CONTINUOUS
 62
       3
100
AcDbLine
 10
25.67614384
 20
17.38442172
 30
0.0
 11
29.77614433
 21
17.38442172
 31
0.0
  0
LINE
  5
20C
100
AcDbEntity
  8
SLD-0
  6
CONTINUOUS
 62
       3
100
AcDbLine
 10
29.77614433
 20
17.38442172
 30
0.0
 11
29.77614433
 21
20.28442145
 31
0.0
  0
LINE
  5
20D
100
AcDbEntity
  8
SLD-0
  6
CONTINUOUS
 62
       3
100
AcDbLine
 10
29.77614433
 20
20.28442145
 30
0.0
 11
25.67614384
 21
20.28442145
 31
0.0
  0
LINE
  5
20E
100
AcDbEntity
  8
SLD-0
  6
CONTINUOUS
 62
       3
100
AcDbLine
 10
23.87354386
 20
18.5644214
 30
0.0
 11
23.80408489
 21
18.58525974
 31
0.0
  0
LINE
  5
20F
100
AcDbEntity
  8
SLD-0
  6
CONTINUOUS
 62
       3
100
AcDbLine
 10
23.80408489
 20
18.58525974
 30
0.0
 11
23.73673536
 21
18.60546385
 31
0.0
  0
LINE
  5
210
100
AcDbEntity
  8
SLD-0
  6
CONTINUOUS
 62
       3
100
AcDbLine
 10
23.73673536
 20
18.60546385
 30
0.0
 11
23.67354419
 21
18.62442185
 31
0.0
  0
LINE
  5
211
100
AcDbEntity
  8
SLD-0
  6
CONTINUOUS
 62
       3
100
AcDbLine
 10
23.67354419
 20
18.62442185
 30
0.0
 11
23.61642897
 21
18.64155633
 31
0.0
  0
LINE
  5
212
100
AcDbEntity
  8
SLD-0
  6
CONTINUOUS
 62
       3
100
AcDbLine
 10
23.61642897
 20
18.64155633
 30
0.0
 11
23.56712569
 21
18.65634666
 31
0.0
  0
LINE
  5
213
100
AcDbEntity
  8
SLD-0
  6
CONTINUOUS
 62
       3
100
AcDbLine
 10
23.56712569
 20
18.65634666
 30
0.0
 11
23.52713377
 21
18.66834489
 31
0.0
  0
LINE
  5
214
100
AcDbEntity
  8
SLD-0
  6
CONTINUOUS
 62
       3
100
AcDbLine
 10
23.52713377
 20
18.66834489
 30
0.0
 11
23.49766672
 21
18.677185
 31
0.0
  0
LINE
  5
215
100
AcDbEntity
  8
SLD-0
  6
CONTINUOUS
 62
       3
100
AcDbLine
 10
23.49766672
 20
18.677185
 30
0.0
 11
23.47962048
 21
18.68259878
 31
0.0
  0
LINE
  5
216
100
AcDbEntity
  8
SLD-0
  6
CONTINUOUS
 62
       3
100
AcDbLine
 10
23.47962048
 20
18.68259878
 30
0.0
 11
23.4735436
 21
18.68442138
 31
0.0
  0
LINE
  5
217
100
AcDbEntity
  8
SLD-0
  6
CONTINUOUS
 62
       3
100
AcDbLine
 10
23.4735436
 20
18.88442197
 30
0.0
 11
23.47962048
 21
18.88624457
 31
0.0
  0
LINE
  5
218
100
AcDbEntity
  8
SLD-0
  6
CONTINUOUS
 62
       3
100
AcDbLine
 10
23.47962048
 20
18.88624457
 30
0.0
 11
23.49766672
 21
18.89165835
 31
0.0
  0
LINE
  5
219
100
AcDbEntity
  8
SLD-0
  6
CONTINUOUS
 62
       3
100
AcDbLine
 10
23.49766672
 20
18.89165835
 30
0.0
 11
23.52713377
 21
18.90049846
 31
0.0
  0
LINE
  5
21A
100
AcDbEntity
  8
SLD-0
  6
CONTINUOUS
 62
       3
100
AcDbLine
 10
23.52713377
 20
18.90049846
 30
0.0
 11
23.56712569
 21
18.91249669
 31
0.0
  0
LINE
  5
21B
100
AcDbEntity
  8
SLD-0
  6
CONTINUOUS
 62
       3
100
AcDbLine
 10
23.56712569
 20
18.91249669
 30
0.0
 11
23.61642897
 21
18.92728702
 31
0.0
  0
LINE
  5
21C
100
AcDbEntity
  8
SLD-0
  6
CONTINUOUS
 62
       3
100
AcDbLine
 10
23.61642897
 20
18.92728702
 30
0.0
 11
23.67354419
 21
18.9444215
 31
0.0
  0
LINE
  5
21D
100
AcDbEntity
  8
SLD-0
  6
CONTINUOUS
 62
       3
100
AcDbLine
 10
23.67354419
 20
18.9444215
 30
0.0
 11
23.73673536
 21
18.9633795
 31
0.0
  0
LINE
  5
21E
100
AcDbEntity
  8
SLD-0
  6
CONTINUOUS
 62
       3
100
AcDbLine
 10
23.73673536
 20
18.9633795
 30
0.0
 11
23.80408489
 21
18.98358361
 31
0.0
  0
LINE
  5
21F
100
AcDbEntity
  8
SLD-0
  6
CONTINUOUS
 62
       3
100
AcDbLine
 10
23.80408489
 20
18.98358361
 30
0.0
 11
23.87354386
 21
19.00442195
 31
0.0
  0
LINE
  5
220
100
AcDbEntity
  8
SLD-0
  6
CONTINUOUS
 62
       3
100
AcDbLine
 10
28.37354459
 20
22.03442164
 30
0.0
 11
23.97354368
 21
22.03442163
 31
0.0
  0
LINE
  5
221
100
AcDbEntity
  8
SLD-0
  6
CONTINUOUS
 62
       3
100
AcDbLine
 10
23.97354368
 20
22.03442163
 30
0.0
 11
23.87354386
 21
22.0644214
 31
0.0
  0
LINE
  5
222
100
AcDbEntity
  8
SLD-0
  6
CONTINUOUS
 62
       3
100
AcDbLine
 10
23.87354386
 20
22.50442195
 30
0.0
 11
23.97354368
 21
22.53442172
 31
0.0
  0
LINE
  5
223
100
AcDbEntity
  8
SLD-0
  6
CONTINUOUS
 62
       3
100
AcDbLine
 10
23.4735436
 20
22.18442138
 30
0.0
 11
23.4735436
 21
22.38442197
 31
0.0
  0
LINE
  5
224
100
AcDbEntity
  8
SLD-0
  6
CONTINUOUS
 62
       3
100
AcDbLine
 10
25.67614384
 20
19.03442172
 30
0.0
 11
25.67614384
 21
22.03442163
 31
0.0
  0
LINE
  5
225
100
AcDbEntity
  8
SLD-0
  6
CONTINUOUS
 62
       3
100
AcDbLine
 10
25.67614384
 20
20.88442172
 30
0.0
 11
29.77614433
 21
20.88442172
 31
0.0
  0
LINE
  5
226
100
AcDbEntity
  8
SLD-0
  6
CONTINUOUS
 62
       3
100
AcDbLine
 10
29.77614433
 20
20.88442172
 30
0.0
 11
29.77614433
 21
23.78442145
 31
0.0
  0
LINE
  5
227
100
AcDbEntity
  8
SLD-0
  6
CONTINUOUS
 62
       3
100
AcDbLine
 10
29.77614433
 20
23.78442145
 30
0.0
 11
25.67614384
 21
23.78442145
 31
0.0
  0
LINE
  5
228
100
AcDbEntity
  8
SLD-0
  6
CONTINUOUS
 62
       3
100
AcDbLine
 10
23.87354386
 20
22.0644214
 30
0.0
 11
23.80408489
 21
22.08525974
 31
0.0
  0
LINE
  5
229
100
AcDbEntity
  8
SLD-0
  6
CONTINUOUS
 62
       3
100
AcDbLine
 10
23.80408489
 20
22.08525974
 30
0.0
 11
23.73673536
 21
22.10546385
 31
0.0
  0
LINE
  5
22A
100
AcDbEntity
  8
SLD-0
  6
CONTINUOUS
 62
       3
100
AcDbLine
 10
23.73673536
 20
22.10546385
 30
0.0
 11
23.67354419
 21
22.12442185
 31
0.0
  0
LINE
  5
22B
100
AcDbEntity
  8
SLD-0
  6
CONTINUOUS
 62
       3
100
AcDbLine
 10
23.67354419
 20
22.12442185
 30
0.0
 11
23.61642897
 21
22.14155633
 31
0.0
  0
LINE
  5
22C
100
AcDbEntity
  8
SLD-0
  6
CONTINUOUS
 62
       3
100
AcDbLine
 10
23.61642897
 20
22.14155633
 30
0.0
 11
23.56712569
 21
22.15634666
 31
0.0
  0
LINE
  5
22D
100
AcDbEntity
  8
SLD-0
  6
CONTINUOUS
 62
       3
100
AcDbLine
 10
23.56712569
 20
22.15634666
 30
0.0
 11
23.52713377
 21
22.16834489
 31
0.0
  0
LINE
  5
22E
100
AcDbEntity
  8
SLD-0
  6
CONTINUOUS
 62
       3
100
AcDbLine
 10
23.52713377
 20
22.16834489
 30
0.0
 11
23.49766672
 21
22.177185
 31
0.0
  0
LINE
  5
22F
100
AcDbEntity
  8
SLD-0
  6
CONTINUOUS
 62
       3
100
AcDbLine
 10
23.49766672
 20
22.177185
 30
0.0
 11
23.47962048
 21
22.18259878
 31
0.0
  0
LINE
  5
230
100
AcDbEntity
  8
SLD-0
  6
CONTINUOUS
 62
       3
100
AcDbLine
 10
23.47962048
 20
22.18259878
 30
0.0
 11
23.4735436
 21
22.18442138
 31
0.0
  0
LINE
  5
231
100
AcDbEntity
  8
SLD-0
  6
CONTINUOUS
 62
       3
100
AcDbLine
 10
23.4735436
 20
22.38442197
 30
0.0
 11
23.47962048
 21
22.38624457
 31
0.0
  0
LINE
  5
232
100
AcDbEntity
  8
SLD-0
  6
CONTINUOUS
 62
       3
100
AcDbLine
 10
23.47962048
 20
22.38624457
 30
0.0
 11
23.49766672
 21
22.39165835
 31
0.0
  0
LINE
  5
233
100
AcDbEntity
  8
SLD-0
  6
CONTINUOUS
 62
       3
100
AcDbLine
 10
23.49766672
 20
22.39165835
 30
0.0
 11
23.52713377
 21
22.40049846
 31
0.0
  0
LINE
  5
234
100
AcDbEntity
  8
SLD-0
  6
CONTINUOUS
 62
       3
100
AcDbLine
 10
23.52713377
 20
22.40049846
 30
0.0
 11
23.56712569
 21
22.41249669
 31
0.0
  0
LINE
  5
235
100
AcDbEntity
  8
SLD-0
  6
CONTINUOUS
 62
       3
100
AcDbLine
 10
23.56712569
 20
22.41249669
 30
0.0
 11
23.61642897
 21
22.42728702
 31
0.0
  0
LINE
  5
236
100
AcDbEntity
  8
SLD-0
  6
CONTINUOUS
 62
       3
100
AcDbLine
 10
23.61642897
 20
22.42728702
 30
0.0
 11
23.67354419
 21
22.4444215
 31
0.0
  0
LINE
  5
237
100
AcDbEntity
  8
SLD-0
  6
CONTINUOUS
 62
       3
100
AcDbLine
 10
23.67354419
 20
22.4444215
 30
0.0
 11
23.73673536
 21
22.4633795
 31
0.0
  0
LINE
  5
238
100
AcDbEntity
  8
SLD-0
  6
CONTINUOUS
 62
       3
100
AcDbLine
 10
23.73673536
 20
22.4633795
 30
0.0
 11
23.80408489
 21
22.48358361
 31
0.0
  0
LINE
  5
239
100
AcDbEntity
  8
SLD-0
  6
CONTINUOUS
 62
       3
100
AcDbLine
 10
23.80408489
 20
22.48358361
 30
0.0
 11
23.87354386
 21
22.50442195
 31
0.0
  0
LINE
  5
23A
100
AcDbEntity
  8
SLD-0
  6
CONTINUOUS
 62
       3
100
AcDbLine
 10
28.37354459
 20
25.53442164
 30
0.0
 11
23.97354368
 21
25.53442163
 31
0.0
  0
LINE
  5
23B
100
AcDbEntity
  8
SLD-0
  6
CONTINUOUS
 62
       3
100
AcDbLine
 10
23.97354368
 20
25.53442163
 30
0.0
 11
23.87354386
 21
25.5644214
 31
0.0
  0
LINE
  5
23C
100
AcDbEntity
  8
SLD-0
  6
CONTINUOUS
 62
       3
100
AcDbLine
 10
23.87354386
 20
26.00442195
 30
0.0
 11
23.97354368
 21
26.03442172
 31
0.0
  0
LINE
  5
23D
100
AcDbEntity
  8
SLD-0
  6
CONTINUOUS
 62
       3
100
AcDbLine
 10
23.4735436
 20
25.68442138
 30
0.0
 11
23.4735436
 21
25.88442197
 31
0.0
  0
LINE
  5
23E
100
AcDbEntity
  8
SLD-0
  6
CONTINUOUS
 62
       3
100
AcDbLine
 10
25.67614384
 20
22.53442172
 30
0.0
 11
25.67614384
 21
25.53442163
 31
0.0
  0
LINE
  5
23F
100
AcDbEntity
  8
SLD-0
  6
CONTINUOUS
 62
       3
100
AcDbLine
 10
25.67614384
 20
24.38442172
 30
0.0
 11
29.77614433
 21
24.38442172
 31
0.0
  0
LINE
  5
240
100
AcDbEntity
  8
SLD-0
  6
CONTINUOUS
 62
       3
100
AcDbLine
 10
29.77614433
 20
24.38442172
 30
0.0
 11
29.77614433
 21
27.28442145
 31
0.0
  0
LINE
  5
241
100
AcDbEntity
  8
SLD-0
  6
CONTINUOUS
 62
       3
100
AcDbLine
 10
29.77614433
 20
27.28442145
 30
0.0
 11
25.67614384
 21
27.28442145
 31
0.0
  0
LINE
  5
242
100
AcDbEntity
  8
SLD-0
  6
CONTINUOUS
 62
       3
100
AcDbLine
 10
23.87354386
 20
25.5644214
 30
0.0
 11
23.80408489
 21
25.58525974
 31
0.0
  0
LINE
  5
243
100
AcDbEntity
  8
SLD-0
  6
CONTINUOUS
 62
       3
100
AcDbLine
 10
23.80408489
 20
25.58525974
 30
0.0
 11
23.73673536
 21
25.60546385
 31
0.0
  0
LINE
  5
244
100
AcDbEntity
  8
SLD-0
  6
CONTINUOUS
 62
       3
100
AcDbLine
 10
23.73673536
 20
25.60546385
 30
0.0
 11
23.67354419
 21
25.62442185
 31
0.0
  0
LINE
  5
245
100
AcDbEntity
  8
SLD-0
  6
CONTINUOUS
 62
       3
100
AcDbLine
 10
23.67354419
 20
25.62442185
 30
0.0
 11
23.61642897
 21
25.64155633
 31
0.0
  0
LINE
  5
246
100
AcDbEntity
  8
SLD-0
  6
CONTINUOUS
 62
       3
100
AcDbLine
 10
23.61642897
 20
25.64155633
 30
0.0
 11
23.56712569
 21
25.65634666
 31
0.0
  0
LINE
  5
247
100
AcDbEntity
  8
SLD-0
  6
CONTINUOUS
 62
       3
100
AcDbLine
 10
23.56712569
 20
25.65634666
 30
0.0
 11
23.52713377
 21
25.66834489
 31
0.0
  0
LINE
  5
248
100
AcDbEntity
  8
SLD-0
  6
CONTINUOUS
 62
       3
100
AcDbLine
 10
23.52713377
 20
25.66834489
 30
0.0
 11
23.49766672
 21
25.677185
 31
0.0
  0
LINE
  5
249
100
AcDbEntity
  8
SLD-0
  6
CONTINUOUS
 62
       3
100
AcDbLine
 10
23.49766672
 20
25.677185
 30
0.0
 11
23.47962048
 21
25.68259878
 31
0.0
  0
LINE
  5
24A
100
AcDbEntity
  8
SLD-0
  6
CONTINUOUS
 62
       3
100
AcDbLine
 10
23.47962048
 20
25.68259878
 30
0.0
 11
23.4735436
 21
25.68442138
 31
0.0
  0
LINE
  5
24B
100
AcDbEntity
  8
SLD-0
  6
CONTINUOUS
 62
       3
100
AcDbLine
 10
23.4735436
 20
25.88442197
 30
0.0
 11
23.47962048
 21
25.88624457
 31
0.0
  0
LINE
  5
24C
100
AcDbEntity
  8
SLD-0
  6
CONTINUOUS
 62
       3
100
AcDbLine
 10
23.47962048
 20
25.88624457
 30
0.0
 11
23.49766672
 21
25.89165835
 31
0.0
  0
LINE
  5
24D
100
AcDbEntity
  8
SLD-0
  6
CONTINUOUS
 62
       3
100
AcDbLine
 10
23.49766672
 20
25.89165835
 30
0.0
 11
23.52713377
 21
25.90049846
 31
0.0
  0
LINE
  5
24E
100
AcDbEntity
  8
SLD-0
  6
CONTINUOUS
 62
       3
100
AcDbLine
 10
23.52713377
 20
25.90049846
 30
0.0
 11
23.56712569
 21
25.91249669
 31
0.0
  0
LINE
  5
24F
100
AcDbEntity
  8
SLD-0
  6
CONTINUOUS
 62
       3
100
AcDbLine
 10
23.56712569
 20
25.91249669
 30
0.0
 11
23.61642897
 21
25.92728702
 31
0.0
  0
LINE
  5
250
100
AcDbEntity
  8
SLD-0
  6
CONTINUOUS
 62
       3
100
AcDbLine
 10
23.61642897
 20
25.92728702
 30
0.0
 11
23.67354419
 21
25.9444215
 31
0.0
  0
LINE
  5
251
100
AcDbEntity
  8
SLD-0
  6
CONTINUOUS
 62
       3
100
AcDbLine
 10
23.67354419
 20
25.9444215
 30
0.0
 11
23.73673536
 21
25.9633795
 31
0.0
  0
LINE
  5
252
100
AcDbEntity
  8
SLD-0
  6
CONTINUOUS
 62
       3
100
AcDbLine
 10
23.73673536
 20
25.9633795
 30
0.0
 11
23.80408489
 21
25.98358361
 31
0.0
  0
LINE
  5
253
100
AcDbEntity
  8
SLD-0
  6
CONTINUOUS
 62
       3
100
AcDbLine
 10
23.80408489
 20
25.98358361
 30
0.0
 11
23.87354386
 21
26.00442195
 31
0.0
  0
LINE
  5
254
100
AcDbEntity
  8
SLD-0
  6
CONTINUOUS
 62
       3
100
AcDbLine
 10
28.37354459
 20
29.03442164
 30
0.0
 11
23.97354368
 21
29.03442163
 31
0.0
  0
LINE
  5
255
100
AcDbEntity
  8
SLD-0
  6
CONTINUOUS
 62
       3
100
AcDbLine
 10
23.97354368
 20
29.03442163
 30
0.0
 11
23.87354386
 21
29.0644214
 31
0.0
  0
LINE
  5
256
100
AcDbEntity
  8
SLD-0
  6
CONTINUOUS
 62
       3
100
AcDbLine
 10
23.87354386
 20
29.50442195
 30
0.0
 11
23.97354368
 21
29.53442172
 31
0.0
  0
LINE
  5
257
100
AcDbEntity
  8
SLD-0
  6
CONTINUOUS
 62
       3
100
AcDbLine
 10
23.4735436
 20
29.18442138
 30
0.0
 11
23.4735436
 21
29.38442197
 31
0.0
  0
LINE
  5
258
100
AcDbEntity
  8
SLD-0
  6
CONTINUOUS
 62
       3
100
AcDbLine
 10
25.67614384
 20
26.03442172
 30
0.0
 11
25.67614384
 21
29.03442163
 31
0.0
  0
LINE
  5
259
100
AcDbEntity
  8
SLD-0
  6
CONTINUOUS
 62
       3
100
AcDbLine
 10
25.67614384
 20
27.88442172
 30
0.0
 11
29.77614433
 21
27.88442172
 31
0.0
  0
LINE
  5
25A
100
AcDbEntity
  8
SLD-0
  6
CONTINUOUS
 62
       3
100
AcDbLine
 10
29.77614433
 20
27.88442172
 30
0.0
 11
29.77614433
 21
30.78442145
 31
0.0
  0
LINE
  5
25B
100
AcDbEntity
  8
SLD-0
  6
CONTINUOUS
 62
       3
100
AcDbLine
 10
29.77614433
 20
30.78442145
 30
0.0
 11
25.67614384
 21
30.78442145
 31
0.0
  0
LINE
  5
25C
100
AcDbEntity
  8
SLD-0
  6
CONTINUOUS
 62
       3
100
AcDbLine
 10
23.87354386
 20
29.0644214
 30
0.0
 11
23.80408489
 21
29.08525974
 31
0.0
  0
LINE
  5
25D
100
AcDbEntity
  8
SLD-0
  6
CONTINUOUS
 62
       3
100
AcDbLine
 10
23.80408489
 20
29.08525974
 30
0.0
 11
23.73673536
 21
29.10546385
 31
0.0
  0
LINE
  5
25E
100
AcDbEntity
  8
SLD-0
  6
CONTINUOUS
 62
       3
100
AcDbLine
 10
23.73673536
 20
29.10546385
 30
0.0
 11
23.67354419
 21
29.12442185
 31
0.0
  0
LINE
  5
25F
100
AcDbEntity
  8
SLD-0
  6
CONTINUOUS
 62
       3
100
AcDbLine
 10
23.67354419
 20
29.12442185
 30
0.0
 11
23.61642897
 21
29.14155633
 31
0.0
  0
LINE
  5
260
100
AcDbEntity
  8
SLD-0
  6
CONTINUOUS
 62
       3
100
AcDbLine
 10
23.61642897
 20
29.14155633
 30
0.0
 11
23.56712569
 21
29.15634666
 31
0.0
  0
LINE
  5
261
100
AcDbEntity
  8
SLD-0
  6
CONTINUOUS
 62
       3
100
AcDbLine
 10
23.56712569
 20
29.15634666
 30
0.0
 11
23.52713377
 21
29.16834489
 31
0.0
  0
LINE
  5
262
100
AcDbEntity
  8
SLD-0
  6
CONTINUOUS
 62
       3
100
AcDbLine
 10
23.52713377
 20
29.16834489
 30
0.0
 11
23.49766672
 21
29.177185
 31
0.0
  0
LINE
  5
263
100
AcDbEntity
  8
SLD-0
  6
CONTINUOUS
 62
       3
100
AcDbLine
 10
23.49766672
 20
29.177185
 30
0.0
 11
23.47962048
 21
29.18259878
 31
0.0
  0
LINE
  5
264
100
AcDbEntity
  8
SLD-0
  6
CONTINUOUS
 62
       3
100
AcDbLine
 10
23.47962048
 20
29.18259878
 30
0.0
 11
23.4735436
 21
29.18442138
 31
0.0
  0
LINE
  5
265
100
AcDbEntity
  8
SLD-0
  6
CONTINUOUS
 62
       3
100
AcDbLine
 10
23.4735436
 20
29.38442197
 30
0.0
 11
23.47962048
 21
29.38624457
 31
0.0
  0
LINE
  5
266
100
AcDbEntity
  8
SLD-0
  6
CONTINUOUS
 62
       3
100
AcDbLine
 10
23.47962048
 20
29.38624457
 30
0.0
 11
23.49766672
 21
29.39165835
 31
0.0
  0
LINE
  5
267
100
AcDbEntity
  8
SLD-0
  6
CONTINUOUS
 62
       3
100
AcDbLine
 10
23.49766672
 20
29.39165835
 30
0.0
 11
23.52713377
 21
29.40049846
 31
0.0
  0
LINE
  5
268
100
AcDbEntity
  8
SLD-0
  6
CONTINUOUS
 62
       3
100
AcDbLine
 10
23.52713377
 20
29.40049846
 30
0.0
 11
23.56712569
 21
29.41249669
 31
0.0
  0
LINE
  5
269
100
AcDbEntity
  8
SLD-0
  6
CONTINUOUS
 62
       3
100
AcDbLine
 10
23.56712569
 20
29.41249669
 30
0.0
 11
23.61642897
 21
29.42728702
 31
0.0
  0
LINE
  5
26A
100
AcDbEntity
  8
SLD-0
  6
CONTINUOUS
 62
       3
100
AcDbLine
 10
23.61642897
 20
29.42728702
 30
0.0
 11
23.67354419
 21
29.4444215
 31
0.0
  0
LINE
  5
26B
100
AcDbEntity
  8
SLD-0
  6
CONTINUOUS
 62
       3
100
AcDbLine
 10
23.67354419
 20
29.4444215
 30
0.0
 11
23.73673536
 21
29.4633795
 31
0.0
  0
LINE
  5
26C
100
AcDbEntity
  8
SLD-0
  6
CONTINUOUS
 62
       3
100
AcDbLine
 10
23.73673536
 20
29.4633795
 30
0.0
 11
23.80408489
 21
29.48358361
 31
0.0
  0
LINE
  5
26D
100
AcDbEntity
  8
SLD-0
  6
CONTINUOUS
 62
       3
100
AcDbLine
 10
23.80408489
 20
29.48358361
 30
0.0
 11
23.87354386
 21
29.50442195
 31
0.0
  0
LINE
  5
26E
100
AcDbEntity
  8
SLD-0
  6
CONTINUOUS
 62
       3
100
AcDbLine
 10
25.67614384
 20
-1.36557895
 30
0.0
 11
30.47614314
 21
-1.36557895
 31
0.0
  0
LINE
  5
26F
100
AcDbEntity
  8
SLD-0
  6
CONTINUOUS
 62
       3
100
AcDbLine
 10
30.97614341
 20
-0.86557836
 30
0.0
 11
30.97614415
 21
31.43442121
 31
0.0
  0
LINE
  5
270
100
AcDbEntity
  8
SLD-0
  6
CONTINUOUS
 62
       3
100
AcDbLine
 10
30.47614341
 20
31.93442164
 30
0.0
 11
22.17614327
 21
31.93442223
 31
0.0
  0
LINE
  5
271
100
AcDbEntity
  8
SLD-0
  6
CONTINUOUS
 62
       3
100
AcDbLine
 10
21.67614341
 20
31.43442164
 30
0.0
 11
21.6761432
 21
-0.86557793
 31
0.0
  0
LINE
  5
272
100
AcDbEntity
  8
SLD-0
  6
CONTINUOUS
 62
       3
100
AcDbLine
 10
22.17614341
 20
-1.36557836
 30
0.0
 11
25.67614384
 21
-1.36557895
 31
0.0
  0
LINE
  5
273
100
AcDbEntity
  8
SLD-0
  6
CONTINUOUS
 62
       3
100
AcDbLine
 10
22.67614335
 20
-0.36557878
 30
0.0
 11
22.67614335
 21
30.93442206
 31
0.0
  0
LINE
  5
274
100
AcDbEntity
  8
SLD-0
  6
CONTINUOUS
 62
       3
100
AcDbLine
 10
22.67614335
 20
30.93442206
 30
0.0
 11
25.67614384
 21
30.93442206
 31
0.0
  0
LINE
  5
275
100
AcDbEntity
  8
SLD-0
  6
CONTINUOUS
 62
       3
100
AcDbLine
 10
25.67614384
 20
-0.36557878
 30
0.0
 11
25.67614384
 21
1.03442163
 31
0.0
  0
LINE
  5
276
100
AcDbEntity
  8
SLD-0
  6
CONTINUOUS
 62
       3
100
AcDbLine
 10
25.67614384
 20
-0.36557878
 30
0.0
 11
22.67614335
 21
-0.36557878
 31
0.0
  0
LINE
  5
277
100
AcDbEntity
  8
SLD-0
  6
CONTINUOUS
 62
       3
100
AcDbLine
 10
30.37614332
 20
-0.81557895
 30
0.0
 11
30.37614332
 21
31.38442223
 31
0.0
  0
LINE
  5
278
100
AcDbEntity
  8
SLD-0
  6
CONTINUOUS
 62
       3
100
AcDbLine
 10
30.37614332
 20
-0.81557895
 30
0.0
 11
22.37614386
 21
-0.81557895
 31
0.0
  0
LINE
  5
279
100
AcDbEntity
  8
SLD-0
  6
CONTINUOUS
 62
       3
100
AcDbLine
 10
22.37614386
 20
-0.81557895
 30
0.0
 11
22.37614386
 21
31.38442223
 31
0.0
  0
LINE
  5
27A
100
AcDbEntity
  8
SLD-0
  6
CONTINUOUS
 62
       3
100
AcDbLine
 10
25.67614384
 20
-0.11557828
 30
0.0
 11
29.77614433
 21
-0.11557828
 31
0.0
  0
LINE
  5
27B
100
AcDbEntity
  8
SLD-0
  6
CONTINUOUS
 62
       3
100
AcDbLine
 10
29.77614433
 20
-0.11557828
 30
0.0
 11
29.77614433
 21
2.78442145
 31
0.0
  0
LINE
  5
27C
100
AcDbEntity
  8
SLD-0
  6
CONTINUOUS
 62
       3
100
AcDbLine
 10
29.77614433
 20
2.78442145
 30
0.0
 11
25.67614384
 21
2.78442145
 31
0.0
  0
LINE
  5
27D
100
AcDbEntity
  8
SLD-0
  6
CONTINUOUS
 62
       3
100
AcDbLine
 10
22.37614386
 20
31.38442223
 30
0.0
 11
30.37614332
 21
31.38442223
 31
0.0
  0
LINE
  5
27E
100
AcDbEntity
  8
SLD-0
  6
CONTINUOUS
 62
       3
100
AcDbLine
 10
23.87354386
 20
1.0644214
 30
0.0
 11
23.80408489
 21
1.08525974
 31
0.0
  0
LINE
  5
27F
100
AcDbEntity
  8
SLD-0
  6
CONTINUOUS
 62
       3
100
AcDbLine
 10
23.80408489
 20
1.08525974
 30
0.0
 11
23.73673536
 21
1.10546385
 31
0.0
  0
LINE
  5
280
100
AcDbEntity
  8
SLD-0
  6
CONTINUOUS
 62
       3
100
AcDbLine
 10
23.73673536
 20
1.10546385
 30
0.0
 11
23.67354419
 21
1.12442185
 31
0.0
  0
LINE
  5
281
100
AcDbEntity
  8
SLD-0
  6
CONTINUOUS
 62
       3
100
AcDbLine
 10
23.67354419
 20
1.12442185
 30
0.0
 11
23.61642897
 21
1.14155633
 31
0.0
  0
LINE
  5
282
100
AcDbEntity
  8
SLD-0
  6
CONTINUOUS
 62
       3
100
AcDbLine
 10
23.61642897
 20
1.14155633
 30
0.0
 11
23.56712569
 21
1.15634666
 31
0.0
  0
LINE
  5
283
100
AcDbEntity
  8
SLD-0
  6
CONTINUOUS
 62
       3
100
AcDbLine
 10
23.56712569
 20
1.15634666
 30
0.0
 11
23.52713377
 21
1.16834489
 31
0.0
  0
LINE
  5
284
100
AcDbEntity
  8
SLD-0
  6
CONTINUOUS
 62
       3
100
AcDbLine
 10
23.52713377
 20
1.16834489
 30
0.0
 11
23.49766672
 21
1.177185
 31
0.0
  0
LINE
  5
285
100
AcDbEntity
  8
SLD-0
  6
CONTINUOUS
 62
       3
100
AcDbLine
 10
23.49766672
 20
1.177185
 30
0.0
 11
23.47962048
 21
1.18259878
 31
0.0
  0
LINE
  5
286
100
AcDbEntity
  8
SLD-0
  6
CONTINUOUS
 62
       3
100
AcDbLine
 10
23.47962048
 20
1.18259878
 30
0.0
 11
23.4735436
 21
1.18442138
 31
0.0
  0
LINE
  5
287
100
AcDbEntity
  8
SLD-0
  6
CONTINUOUS
 62
       3
100
AcDbLine
 10
23.4735436
 20
1.38442197
 30
0.0
 11
23.47962048
 21
1.38624457
 31
0.0
  0
LINE
  5
288
100
AcDbEntity
  8
SLD-0
  6
CONTINUOUS
 62
       3
100
AcDbLine
 10
23.47962048
 20
1.38624457
 30
0.0
 11
23.49766672
 21
1.39165835
 31
0.0
  0
LINE
  5
289
100
AcDbEntity
  8
SLD-0
  6
CONTINUOUS
 62
       3
100
AcDbLine
 10
23.49766672
 20
1.39165835
 30
0.0
 11
23.52713377
 21
1.40049846
 31
0.0
  0
LINE
  5
28A
100
AcDbEntity
  8
SLD-0
  6
CONTINUOUS
 62
       3
100
AcDbLine
 10
23.52713377
 20
1.40049846
 30
0.0
 11
23.56712569
 21
1.41249669
 31
0.0
  0
LINE
  5
28B
100
AcDbEntity
  8
SLD-0
  6
CONTINUOUS
 62
       3
100
AcDbLine
 10
23.56712569
 20
1.41249669
 30
0.0
 11
23.61642897
 21
1.42728702
 31
0.0
  0
LINE
  5
28C
100
AcDbEntity
  8
SLD-0
  6
CONTINUOUS
 62
       3
100
AcDbLine
 10
23.61642897
 20
1.42728702
 30
0.0
 11
23.67354419
 21
1.4444215
 31
0.0
  0
LINE
  5
28D
100
AcDbEntity
  8
SLD-0
  6
CONTINUOUS
 62
       3
100
AcDbLine
 10
23.67354419
 20
1.4444215
 30
0.0
 11
23.73673536
 21
1.4633795
 31
0.0
  0
LINE
  5
28E
100
AcDbEntity
  8
SLD-0
  6
CONTINUOUS
 62
       3
100
AcDbLine
 10
23.73673536
 20
1.4633795
 30
0.0
 11
23.80408489
 21
1.48358361
 31
0.0
  0
LINE
  5
28F
100
AcDbEntity
  8
SLD-0
  6
CONTINUOUS
 62
       3
100
AcDbLine
 10
23.80408489
 20
1.48358361
 30
0.0
 11
23.87354386
 21
1.50442195
 31
0.0
  0
LINE
  5
290
100
AcDbEntity
  8
SLD-0
  6
CONTINUOUS
 62
       3
100
AcDbLine
 10
25.67614384
 20
30.93442206
 30
0.0
 11
25.67614384
 21
29.53442172
 31
0.0
  0
LINE
  5
291
100
AcDbEntity
  8
SLD-0
  6
CONTINUOUS
 62
       3
100
AcDbLine
 10
28.37354459
 20
1.53442172
 30
0.0
 11
28.37354459
 21
1.03442164
 31
0.0
  0
LINE
  5
292
100
AcDbEntity
  8
SLD-0
  6
CONTINUOUS
 62
       3
100
AcDbLine
 10
28.37354459
 20
1.53442172
 30
0.0
 11
23.97354368
 21
1.53442172
 31
0.0
  0
LINE
  5
293
100
AcDbEntity
  8
SLD-0
  6
CONTINUOUS
 62
       3
100
AcDbLine
 10
28.37354459
 20
5.03442172
 30
0.0
 11
28.37354459
 21
4.53442164
 31
0.0
  0
LINE
  5
294
100
AcDbEntity
  8
SLD-0
  6
CONTINUOUS
 62
       3
100
AcDbLine
 10
28.37354459
 20
5.03442172
 30
0.0
 11
23.97354368
 21
5.03442172
 31
0.0
  0
LINE
  5
295
100
AcDbEntity
  8
SLD-0
  6
CONTINUOUS
 62
       3
100
AcDbLine
 10
28.37354459
 20
8.53442172
 30
0.0
 11
28.37354459
 21
8.03442164
 31
0.0
  0
LINE
  5
296
100
AcDbEntity
  8
SLD-0
  6
CONTINUOUS
 62
       3
100
AcDbLine
 10
28.37354459
 20
8.53442172
 30
0.0
 11
23.97354368
 21
8.53442172
 31
0.0
  0
LINE
  5
297
100
AcDbEntity
  8
SLD-0
  6
CONTINUOUS
 62
       3
100
AcDbLine
 10
28.37354459
 20
12.03442172
 30
0.0
 11
28.37354459
 21
11.53442164
 31
0.0
  0
LINE
  5
298
100
AcDbEntity
  8
SLD-0
  6
CONTINUOUS
 62
       3
100
AcDbLine
 10
28.37354459
 20
12.03442172
 30
0.0
 11
23.97354368
 21
12.03442172
 31
0.0
  0
LINE
  5
299
100
AcDbEntity
  8
SLD-0
  6
CONTINUOUS
 62
       3
100
AcDbLine
 10
28.37354459
 20
15.53442172
 30
0.0
 11
28.37354459
 21
15.03442164
 31
0.0
  0
LINE
  5
29A
100
AcDbEntity
  8
SLD-0
  6
CONTINUOUS
 62
       3
100
AcDbLine
 10
28.37354459
 20
15.53442172
 30
0.0
 11
23.97354368
 21
15.53442172
 31
0.0
  0
LINE
  5
29B
100
AcDbEntity
  8
SLD-0
  6
CONTINUOUS
 62
       3
100
AcDbLine
 10
28.37354459
 20
19.03442172
 30
0.0
 11
28.37354459
 21
18.53442164
 31
0.0
  0
LINE
  5
29C
100
AcDbEntity
  8
SLD-0
  6
CONTINUOUS
 62
       3
100
AcDbLine
 10
28.37354459
 20
19.03442172
 30
0.0
 11
23.97354368
 21
19.03442172
 31
0.0
  0
LINE
  5
29D
100
AcDbEntity
  8
SLD-0
  6
CONTINUOUS
 62
       3
100
AcDbLine
 10
28.37354459
 20
22.53442172
 30
0.0
 11
28.37354459
 21
22.03442164
 31
0.0
  0
LINE
  5
29E
100
AcDbEntity
  8
SLD-0
  6
CONTINUOUS
 62
       3
100
AcDbLine
 10
28.37354459
 20
22.53442172
 30
0.0
 11
23.97354368
 21
22.53442172
 31
0.0
  0
LINE
  5
29F
100
AcDbEntity
  8
SLD-0
  6
CONTINUOUS
 62
       3
100
AcDbLine
 10
28.37354459
 20
26.03442172
 30
0.0
 11
28.37354459
 21
25.53442164
 31
0.0
  0
LINE
  5
2A0
100
AcDbEntity
  8
SLD-0
  6
CONTINUOUS
 62
       3
100
AcDbLine
 10
28.37354459
 20
26.03442172
 30
0.0
 11
23.97354368
 21
26.03442172
 31
0.0
  0
LINE
  5
2A1
100
AcDbEntity
  8
SLD-0
  6
CONTINUOUS
 62
       3
100
AcDbLine
 10
28.37354459
 20
29.53442172
 30
0.0
 11
28.37354459
 21
29.03442164
 31
0.0
  0
LINE
  5
2A2
100
AcDbEntity
  8
SLD-0
  6
CONTINUOUS
 62
       3
100
AcDbLine
 10
28.37354459
 20
29.53442172
 30
0.0
 11
23.97354368
 21
29.53442172
 31
0.0
  0
ARC
  5
2A3
100
AcDbEntity
  8
SLD-0
  6
CONTINUOUS
 62
       3
100
AcDbCircle
 10
30.47614341
 20
-0.86557836
 30
0.0
 40
0.50000059
100
AcDbArc
 50
269.99996906
 51
360.0
  0
ARC
  5
2A4
100
AcDbEntity
  8
SLD-0
  6
CONTINUOUS
 62
       3
100
AcDbCircle
 10
30.47614341
 20
31.43442164
 30
0.0
 40
0.50000074
100
AcDbArc
 50
359.99995073
 51
450.0
  0
ARC
  5
2A5
100
AcDbEntity
  8
SLD-0
  6
CONTINUOUS
 62
       3
100
AcDbCircle
 10
22.17614341
 20
31.43442164
 30
0.0
 40
0.50000059
100
AcDbArc
 50
90.00001604
 51
180.0
  0
ARC
  5
2A6
100
AcDbEntity
  8
SLD-0
  6
CONTINUOUS
 62
       3
100
AcDbCircle
 10
22.17614341
 20
-0.86557836
 30
0.0
 40
0.50000021
100
AcDbArc
 50
179.99995073
 51
270.0
  0
LINE
  5
2A7
100
AcDbEntity
  8
SLD-0
  6
PHANTOM2
 62
       3
100
AcDbLine
 10
-46.82004907
 20
23.6844219
 30
0.0
 11
-54.22004907
 21
23.6844219
 31
0.0
  0
LINE
  5
2A8
100
AcDbEntity
  8
SLD-0
  6
PHANTOM2
 62
       3
100
AcDbLine
 10
-54.22004907
 20
23.6844219
 30
0.0
 11
-54.22004907
 21
6.88442157
 31
0.0
  0
LINE
  5
2A9
100
AcDbEntity
  8
SLD-0
  6
PHANTOM2
 62
       3
100
AcDbLine
 10
-54.22004907
 20
6.88442157
 30
0.0
 11
-46.82004907
 21
6.88442157
 31
0.0
  0
LINE
  5
2AA
100
AcDbEntity
  8
SLD-0
  6
PHANTOM2
 62
       3
100
AcDbLine
 10
-46.82004907
 20
6.88442157
 30
0.0
 11
-46.82004907
 21
23.6844219
 31
0.0
  0
LINE
  5
2AB
100
AcDbEntity
  8
SLD-0
  6
PHANTOM2
 62
       3
100
AcDbLine
 10
-46.82004907
 20
3.6844219
 30
0.0
 11
-54.22004907
 21
3.6844219
 31
0.0
  0
LINE
  5
2AC
100
AcDbEntity
  8
SLD-0
  6
PHANTOM2
 62
       3
100
AcDbLine
 10
-54.22004907
 20
3.6844219
 30
0.0
 11
-54.22004907
 21
-13.11557843
 31
0.0
  0
LINE
  5
2AD
100
AcDbEntity
  8
SLD-0
  6
PHANTOM2
 62
       3
100
AcDbLine
 10
-54.22004907
 20
-13.11557843
 30
0.0
 11
-46.82004907
 21
-13.11557843
 31
0.0
  0
LINE
  5
2AE
100
AcDbEntity
  8
SLD-0
  6
PHANTOM2
 62
       3
100
AcDbLine
 10
-46.82004907
 20
-13.11557843
 30
0.0
 11
-46.82004907
 21
3.6844219
 31
0.0
  0
LINE
  5
2AF
100
AcDbEntity
  8
SLD-0
  6
PHANTOM2
 62
       3
100
AcDbLine
 10
-46.82004907
 20
-16.3155781
 30
0.0
 11
-54.22004907
 21
-16.3155781
 31
0.0
  0
LINE
  5
2B0
100
AcDbEntity
  8
SLD-0
  6
PHANTOM2
 62
       3
100
AcDbLine
 10
-54.22004907
 20
-16.3155781
 30
0.0
 11
-54.22004907
 21
-33.11557843
 31
0.0
  0
LINE
  5
2B1
100
AcDbEntity
  8
SLD-0
  6
PHANTOM2
 62
       3
100
AcDbLine
 10
-54.22004907
 20
-33.11557843
 30
0.0
 11
-46.82004907
 21
-33.11557843
 31
0.0
  0
LINE
  5
2B2
100
AcDbEntity
  8
SLD-0
  6
PHANTOM2
 62
       3
100
AcDbLine
 10
-46.82004907
 20
-33.11557843
 30
0.0
 11
-46.82004907
 21
-16.3155781
 31
0.0
  0
LINE
  5
2B3
100
AcDbEntity
  8
SLD-0
  6
PHANTOM2
 62
       3
100
AcDbLine
 10
-54.22004907
 20
26.88442157
 30
0.0
 11
-46.82004907
 21
26.88442157
 31
0.0
  0
LINE
  5
2B4
100
AcDbEntity
  8
SLD-0
  6
PHANTOM2
 62
       3
100
AcDbLine
 10
-46.82004907
 20
26.88442157
 30
0.0
 11
-46.82004907
 21
43.6844219
 31
0.0
  0
LINE
  5
2B5
100
AcDbEntity
  8
SLD-0
  6
PHANTOM2
 62
       3
100
AcDbLine
 10
-46.82004907
 20
43.6844219
 30
0.0
 11
-54.22004907
 21
43.6844219
 31
0.0
  0
LINE
  5
2B6
100
AcDbEntity
  8
SLD-0
  6
PHANTOM2
 62
       3
100
AcDbLine
 10
-54.22004907
 20
43.6844219
 30
0.0
 11
-54.22004907
 21
26.88442157
 31
0.0
  0
LINE
  5
2B7
100
AcDbEntity
  8
SLD-0
  6
PHANTOM2
 62
       3
100
AcDbLine
 10
-13.8238551
 20
7.38442209
 30
0.0
 11
-17.82385575
 21
7.38442209
 31
0.0
  0
LINE
  5
2B8
100
AcDbEntity
  8
SLD-0
  6
PHANTOM2
 62
       3
100
AcDbLine
 10
-17.82385575
 20
7.38442209
 30
0.0
 11
-17.82385575
 21
7.82080632
 31
0.0
  0
LINE
  5
2B9
100
AcDbEntity
  8
SLD-0
  6
PHANTOM2
 62
       3
100
AcDbLine
 10
-17.42409858
 20
8.24949224
 30
0.0
 11
-17.82385575
 21
7.82080632
 31
0.0
  0
LINE
  5
2BA
100
AcDbEntity
  8
SLD-0
  6
PHANTOM2
 62
       3
100
AcDbLine
 10
-16.42385813
 20
8.2844215
 30
0.0
 11
-17.42409858
 21
8.24949224
 31
0.0
  0
LINE
  5
2BB
100
AcDbEntity
  8
SLD-0
  6
PHANTOM2
 62
       3
100
AcDbLine
 10
-16.42385813
 20
9.208707
 30
0.0
 11
-16.42385813
 21
8.2844215
 31
0.0
  0
LINE
  5
2BC
100
AcDbEntity
  8
SLD-0
  6
PHANTOM2
 62
       3
100
AcDbLine
 10
-13.8238551
 20
9.29950117
 30
0.0
 11
-16.42385813
 21
9.208707
 31
0.0
  0
LINE
  5
2BD
100
AcDbEntity
  8
SLD-0
  6
PHANTOM2
 62
       3
100
AcDbLine
 10
-16.42385813
 20
19.06013638
 30
0.0
 11
-13.8238551
 21
18.96934244
 31
0.0
  0
LINE
  5
2BE
100
AcDbEntity
  8
SLD-0
  6
PHANTOM2
 62
       3
100
AcDbLine
 10
-16.42385813
 20
20.8344216
 30
0.0
 11
-16.42385813
 21
19.06013638
 31
0.0
  0
LINE
  5
2BF
100
AcDbEntity
  8
SLD-0
  6
PHANTOM2
 62
       3
100
AcDbLine
 10
-17.40938368
 20
20.86883723
 30
0.0
 11
-16.42385813
 21
20.8344216
 31
0.0
  0
LINE
  5
2C0
100
AcDbEntity
  8
SLD-0
  6
PHANTOM2
 62
       3
100
AcDbLine
 10
-17.82385575
 20
21.2833107
 30
0.0
 11
-17.40938368
 21
20.86883723
 31
0.0
  0
LINE
  5
2C1
100
AcDbEntity
  8
SLD-0
  6
PHANTOM2
 62
       3
100
AcDbLine
 10
-17.82385575
 20
21.2833107
 30
0.0
 11
-17.82385575
 21
23.18442133
 31
0.0
  0
LINE
  5
2C2
100
AcDbEntity
  8
SLD-0
  6
PHANTOM2
 62
       3
100
AcDbLine
 10
-17.82385575
 20
23.18442133
 30
0.0
 11
-13.8238551
 21
23.18442133
 31
0.0
  0
LINE
  5
2C3
100
AcDbEntity
  8
SLD-0
  6
PHANTOM2
 62
       3
100
AcDbLine
 10
-13.8238551
 20
-32.61557701
 30
0.0
 11
-17.82385575
 21
-32.61557701
 31
0.0
  0
LINE
  5
2C4
100
AcDbEntity
  8
SLD-0
  6
PHANTOM2
 62
       3
100
AcDbLine
 10
-17.82385575
 20
-32.61557701
 30
0.0
 11
-17.82385575
 21
-32.17919278
 31
0.0
  0
LINE
  5
2C5
100
AcDbEntity
  8
SLD-0
  6
PHANTOM2
 62
       3
100
AcDbLine
 10
-17.42409858
 20
-31.75050873
 30
0.0
 11
-17.82385575
 21
-32.17919278
 31
0.0
  0
LINE
  5
2C6
100
AcDbEntity
  8
SLD-0
  6
PHANTOM2
 62
       3
100
AcDbLine
 10
-16.42385813
 20
-31.71557668
 30
0.0
 11
-17.42409858
 21
-31.75050873
 31
0.0
  0
LINE
  5
2C7
100
AcDbEntity
  8
SLD-0
  6
PHANTOM2
 62
       3
100
AcDbLine
 10
-16.42385813
 20
-30.7912949
 30
0.0
 11
-16.42385813
 21
-31.71557668
 31
0.0
  0
LINE
  5
2C8
100
AcDbEntity
  8
SLD-0
  6
PHANTOM2
 62
       3
100
AcDbLine
 10
-13.8238551
 20
-30.7004984
 30
0.0
 11
-16.42385813
 21
-30.7912949
 31
0.0
  0
LINE
  5
2C9
100
AcDbEntity
  8
SLD-0
  6
PHANTOM2
 62
       3
100
AcDbLine
 10
-16.42385813
 20
-20.93986529
 30
0.0
 11
-13.8238551
 21
-21.03065807
 31
0.0
  0
LINE
  5
2CA
100
AcDbEntity
  8
SLD-0
  6
PHANTOM2
 62
       3
100
AcDbLine
 10
-16.42385813
 20
-19.16557658
 30
0.0
 11
-16.42385813
 21
-20.93986529
 31
0.0
  0
LINE
  5
2CB
100
AcDbEntity
  8
SLD-0
  6
PHANTOM2
 62
       3
100
AcDbLine
 10
-17.40938368
 20
-19.13116234
 30
0.0
 11
-16.42385813
 21
-19.16557658
 31
0.0
  0
LINE
  5
2CC
100
AcDbEntity
  8
SLD-0
  6
PHANTOM2
 62
       3
100
AcDbLine
 10
-17.82385575
 20
-18.71669027
 30
0.0
 11
-17.40938368
 21
-19.13116234
 31
0.0
  0
LINE
  5
2CD
100
AcDbEntity
  8
SLD-0
  6
PHANTOM2
 62
       3
100
AcDbLine
 10
-17.82385575
 20
-18.71669027
 30
0.0
 11
-17.82385575
 21
-16.81557777
 31
0.0
  0
LINE
  5
2CE
100
AcDbEntity
  8
SLD-0
  6
PHANTOM2
 62
       3
100
AcDbLine
 10
-17.82385575
 20
-16.81557777
 30
0.0
 11
-13.8238551
 21
-16.81557777
 31
0.0
  0
LINE
  5
2CF
100
AcDbEntity
  8
SLD-0
  6
PHANTOM2
 62
       3
100
AcDbLine
 10
-13.8238551
 20
-12.61557746
 30
0.0
 11
-17.82385575
 21
-12.61557746
 31
0.0
  0
LINE
  5
2D0
100
AcDbEntity
  8
SLD-0
  6
PHANTOM2
 62
       3
100
AcDbLine
 10
-17.82385575
 20
-12.61557746
 30
0.0
 11
-17.82385575
 21
-12.17919323
 31
0.0
  0
LINE
  5
2D1
100
AcDbEntity
  8
SLD-0
  6
PHANTOM2
 62
       3
100
AcDbLine
 10
-17.42409858
 20
-11.75050731
 30
0.0
 11
-17.82385575
 21
-12.17919323
 31
0.0
  0
LINE
  5
2D2
100
AcDbEntity
  8
SLD-0
  6
PHANTOM2
 62
       3
100
AcDbLine
 10
-16.42385813
 20
-11.71557899
 30
0.0
 11
-17.42409858
 21
-11.75050731
 31
0.0
  0
LINE
  5
2D3
100
AcDbEntity
  8
SLD-0
  6
PHANTOM2
 62
       3
100
AcDbLine
 10
-16.42385813
 20
-10.79129349
 30
0.0
 11
-16.42385813
 21
-11.71557899
 31
0.0
  0
LINE
  5
2D4
100
AcDbEntity
  8
SLD-0
  6
PHANTOM2
 62
       3
100
AcDbLine
 10
-13.8238551
 20
-10.70049885
 30
0.0
 11
-16.42385813
 21
-10.79129349
 31
0.0
  0
LINE
  5
2D5
100
AcDbEntity
  8
SLD-0
  6
PHANTOM2
 62
       3
100
AcDbLine
 10
-16.42385813
 20
-0.93986388
 30
0.0
 11
-13.8238551
 21
-1.03065665
 31
0.0
  0
LINE
  5
2D6
100
AcDbEntity
  8
SLD-0
  6
PHANTOM2
 62
       3
100
AcDbLine
 10
-16.42385813
 20
0.83442204
 30
0.0
 11
-16.42385813
 21
-0.93986388
 31
0.0
  0
LINE
  5
2D7
100
AcDbEntity
  8
SLD-0
  6
PHANTOM2
 62
       3
100
AcDbLine
 10
-17.40938368
 20
0.86883721
 30
0.0
 11
-16.42385813
 21
0.83442204
 31
0.0
  0
LINE
  5
2D8
100
AcDbEntity
  8
SLD-0
  6
PHANTOM2
 62
       3
100
AcDbLine
 10
-17.82385575
 20
1.28331114
 30
0.0
 11
-17.40938368
 21
0.86883721
 31
0.0
  0
LINE
  5
2D9
100
AcDbEntity
  8
SLD-0
  6
PHANTOM2
 62
       3
100
AcDbLine
 10
-17.82385575
 20
1.28331114
 30
0.0
 11
-17.82385575
 21
3.18442178
 31
0.0
  0
LINE
  5
2DA
100
AcDbEntity
  8
SLD-0
  6
PHANTOM2
 62
       3
100
AcDbLine
 10
-17.82385575
 20
3.18442178
 30
0.0
 11
-13.8238551
 21
3.18442178
 31
0.0
  0
LINE
  5
2DB
100
AcDbEntity
  8
SLD-0
  6
PHANTOM2
 62
       3
100
AcDbLine
 10
-13.8238551
 20
27.38442165
 30
0.0
 11
-17.82385575
 21
27.38442165
 31
0.0
  0
LINE
  5
2DC
100
AcDbEntity
  8
SLD-0
  6
PHANTOM2
 62
       3
100
AcDbLine
 10
-17.82385575
 20
27.38442165
 30
0.0
 11
-17.82385575
 21
27.82080588
 31
0.0
  0
LINE
  5
2DD
100
AcDbEntity
  8
SLD-0
  6
PHANTOM2
 62
       3
100
AcDbLine
 10
-17.42409858
 20
28.24949273
 30
0.0
 11
-17.82385575
 21
27.82080588
 31
0.0
  0
LINE
  5
2DE
100
AcDbEntity
  8
SLD-0
  6
PHANTOM2
 62
       3
100
AcDbLine
 10
-16.42385813
 20
28.28442198
 30
0.0
 11
-17.42409858
 21
28.24949273
 31
0.0
  0
LINE
  5
2DF
100
AcDbEntity
  8
SLD-0
  6
PHANTOM2
 62
       3
100
AcDbLine
 10
-16.42385813
 20
29.20870655
 30
0.0
 11
-16.42385813
 21
28.28442198
 31
0.0
  0
LINE
  5
2E0
100
AcDbEntity
  8
SLD-0
  6
PHANTOM2
 62
       3
100
AcDbLine
 10
-13.8238551
 20
29.29950119
 30
0.0
 11
-16.42385813
 21
29.20870655
 31
0.0
  0
LINE
  5
2E1
100
AcDbEntity
  8
SLD-0
  6
PHANTOM2
 62
       3
100
AcDbLine
 10
-16.42385813
 20
39.06013709
 30
0.0
 11
-13.8238551
 21
38.96934246
 31
0.0
  0
LINE
  5
2E2
100
AcDbEntity
  8
SLD-0
  6
PHANTOM2
 62
       3
100
AcDbLine
 10
-16.42385813
 20
40.83442208
 30
0.0
 11
-16.42385813
 21
39.06013709
 31
0.0
  0
LINE
  5
2E3
100
AcDbEntity
  8
SLD-0
  6
PHANTOM2
 62
       3
100
AcDbLine
 10
-17.40938368
 20
40.86883631
 30
0.0
 11
-16.42385813
 21
40.83442208
 31
0.0
  0
LINE
  5
2E4
100
AcDbEntity
  8
SLD-0
  6
PHANTOM2
 62
       3
100
AcDbLine
 10
-17.82385575
 20
41.28331025
 30
0.0
 11
-17.40938368
 21
40.86883631
 31
0.0
  0
LINE
  5
2E5
100
AcDbEntity
  8
SLD-0
  6
PHANTOM2
 62
       3
100
AcDbLine
 10
-17.82385575
 20
41.28331025
 30
0.0
 11
-17.82385575
 21
43.18442088
 31
0.0
  0
LINE
  5
2E6
100
AcDbEntity
  8
SLD-0
  6
PHANTOM2
 62
       3
100
AcDbLine
 10
-17.82385575
 20
43.18442088
 30
0.0
 11
-13.8238551
 21
43.18442088
 31
0.0
  0
TEXT
  5
2E7
100
AcDbEntity
  8
SLD-0
 62
       3
100
AcDbText
 10
50.27004911
 20
-81.18442171
 30
0.0
 40
5.0
  1
000
 72
       5
 11
65.27004911
 21
-81.18442171
 31
0.0
100
AcDbText
  0
ENDSEC
  0
SECTION
  2
OBJECTS
  0
DICTIONARY
  5
19
100
AcDbDictionary
  3
ACAD_GROUP
350
1A
  3
ACAD_MLINESTYLE
350
1B
  0
DICTIONARY
  5
1A
102
{ACAD_REACTORS
330
19
102
}
100
AcDbDictionary
  0
DICTIONARY
  5
1B
102
{ACAD_REACTORS
330
19
102
}
100
AcDbDictionary
  3
STANDARD
350
1C
  0
MLINESTYLE
  5
1C
102
{ACAD_REACTORS
330
1B
102
}
100
AcDbMlineStyle
  2
STANDARD
 70
       0
  3

 62
       0
 51
90.0
 52
90.0
 71
       2
 49
0.5
 62
     256
  6
BYLAYER
 49
-0.5
 62
     256
  6
BYLAYER
  0
ENDSEC
  0
EOF
