  0
SECTION
  2
HEADER
  9
$ACADVER
  1
AC1014
  9
$ACADMAINTVER
 70
     9
  9
$DWGCODEPAGE
  3
ANSI_932
  9
$INSBASE
 10
0.0
 20
0.0
 30
0.0
  9
$EXTMIN
 10
-617.2571957493
 20
-212.6444921635501
 30
0.0
  9
$EXTMAX
 10
617.2571957493
 20
207.88199216355
 30
0.0
  9
$LIMMIN
 10
-297.25
 20
-210.25
  9
$LIMMAX
 10
297.25
 20
210.25
  9
$ORTHOMODE
 70
     0
  9
$REGENMODE
 70
     1
  9
$FILLMODE
 70
     1
  9
$QTEXTMODE
 70
     0
  9
$MIRRTEXT
 70
     1
  9
$DRAGMODE
 70
     2
  9
$LTSCALE
 40
0.125
  9
$OSMODE
 70
    37
  9
$ATTMODE
 70
     1
  9
$TEXTSIZE
 40
0.2
  9
$TRACEWID
 40
0.05
  9
$TEXTSTYLE
  7
STANDARD
  9
$CLAYER
  8
0
  9
$CELTYPE
  6
BYLAYER
  9
$CECOLOR
 62
   256
  9
$CELTSCALE
 40
1.0
  9
$DELOBJ
 70
     1
  9
$DISPSILH
 70
     0
  9
$DIMSCALE
 40
1.0
  9
$DIMASZ
 40
1.500000953674316
  9
$DIMEXO
 40
1.0
  9
$DIMDLI
 40
10.0
  9
$DIMRND
 40
0.0
  9
$DIMDLE
 40
0.0
  9
$DIMEXE
 40
1.0
  9
$DIMTP
 40
0.0
  9
$DIMTM
 40
0.0
  9
$DIMTXT
 40
1.75
  9
$DIMCEN
 40
0.0
  9
$DIMTSZ
 40
0.0
  9
$DIMTOL
 70
     0
  9
$DIMLIM
 70
     0
  9
$DIMTIH
 70
     0
  9
$DIMTOH
 70
     0
  9
$DIMSE1
 70
     0
  9
$DIMSE2
 70
     0
  9
$DIMTAD
 70
     1
  9
$DIMZIN
 70
     8
  9
$DIMBLK
  1

  9
$DIMASO
 70
     1
  9
$DIMSHO
 70
     1
  9
$DIMPOST
  1

  9
$DIMAPOST
  1

  9
$DIMALT
 70
     0
  9
$DIMALTD
 70
     2
  9
$DIMALTF
 40
25.4
  9
$DIMLFAC
 40
1.0
  9
$DIMTOFL
 70
     0
  9
$DIMTVP
 40
0.0
  9
$DIMTIX
 70
     0
  9
$DIMSOXD
 70
     0
  9
$DIMSAH
 70
     0
  9
$DIMBLK1
  1

  9
$DIMBLK2
  1

  9
$DIMSTYLE
  2
STANDARD
  9
$DIMCLRD
 70
     0
  9
$DIMCLRE
 70
     0
  9
$DIMCLRT
 70
     0
  9
$DIMTFAC
 40
0.65
  9
$DIMGAP
 40
0.09
  9
$DIMJUST
 70
     0
  9
$DIMSD1
 70
     0
  9
$DIMSD2
 70
     0
  9
$DIMTOLJ
 70
     0
  9
$DIMTZIN
 70
     0
  9
$DIMALTZ
 70
     0
  9
$DIMALTTZ
 70
     0
  9
$DIMFIT
 70
     3
  9
$DIMUPT
 70
     0
  9
$DIMUNIT
 70
     2
  9
$DIMDEC
 70
     2
  9
$DIMTDEC
 70
     2
  9
$DIMALTU
 70
     2
  9
$DIMALTTD
 70
     2
  9
$DIMTXSTY
  7
STANDARD
  9
$DIMAUNIT
 70
     0
  9
$LUNITS
 70
     2
  9
$LUPREC
 70
     4
  9
$SKETCHINC
 40
0.1
  9
$FILLETRAD
 40
0.5
  9
$AUNITS
 70
     0
  9
$AUPREC
 70
     0
  9
$MENU
  1
.
  9
$ELEVATION
 40
0.0
  9
$PELEVATION
 40
0.0
  9
$THICKNESS
 40
0.0
  9
$LIMCHECK
 70
     0
  9
$CHAMFERA
 40
0.0
  9
$CHAMFERB
 40
0.0
  9
$CHAMFERC
 40
0.0
  9
$CHAMFERD
 40
0.0
  9
$SKPOLY
 70
     0
  9
$TDCREATE
 40
2457176.66968846
  9
$TDUPDATE
 40
2457176.66968846
  9
$TDINDWG
 40
0.0000000116
  9
$TDUSRTIMER
 40
0.0000000116
  9
$USRTIMER
 70
     1
  9
$ANGBASE
 50
0.0
  9
$ANGDIR
 70
     0
  9
$PDMODE
 70
     0
  9
$PDSIZE
 40
1.0
  9
$PLINEWID
 40
0.0
  9
$COORDS
 70
     1
  9
$SPLFRAME
 70
     0
  9
$SPLINETYPE
 70
     6
  9
$SPLINESEGS
 70
     8
  9
$ATTDIA
 70
     0
  9
$ATTREQ
 70
     1
  9
$HANDLING
 70
     1
  9
$HANDSEED
  5
499
  9
$SURFTAB1
 70
     6
  9
$SURFTAB2
 70
     6
  9
$SURFTYPE
 70
     6
  9
$SURFU
 70
     6
  9
$SURFV
 70
     6
  9
$UCSNAME
  2

  9
$UCSORG
 10
0.0
 20
0.0
 30
0.0
  9
$UCSXDIR
 10
1.0
 20
0.0
 30
0.0
  9
$UCSYDIR
 10
0.0
 20
1.0
 30
0.0
  9
$PUCSNAME
  2

  9
$PUCSORG
 10
0.0
 20
0.0
 30
0.0
  9
$PUCSXDIR
 10
1.0
 20
0.0
 30
0.0
  9
$PUCSYDIR
 10
0.0
 20
1.0
 30
0.0
  9
$USERI1
 70
     0
  9
$USERI2
 70
     0
  9
$USERI3
 70
     0
  9
$USERI4
 70
     0
  9
$USERI5
 70
     0
  9
$USERR1
 40
0.0
  9
$USERR2
 40
0.0
  9
$USERR3
 40
0.0
  9
$USERR4
 40
0.0
  9
$USERR5
 40
0.0
  9
$WORLDVIEW
 70
     1
  9
$SHADEDGE
 70
     3
  9
$SHADEDIF
 70
    70
  9
$TILEMODE
 70
     1
  9
$MAXACTVP
 70
    64
  9
$PINSBASE
 10
0.0
 20
0.0
 30
0.0
  9
$PLIMCHECK
 70
     0
  9
$PEXTMIN
 10
1.000000000000000E+20
 20
1.000000000000000E+20
 30
1.000000000000000E+20
  9
$PEXTMAX
 10
-1.000000000000000E+20
 20
-1.000000000000000E+20
 30
-1.000000000000000E+20
  9
$PLIMMIN
 10
0.0
 20
0.0
  9
$PLIMMAX
 10
12.0
 20
9.0
  9
$UNITMODE
 70
     0
  9
$VISRETAIN
 70
     0
  9
$PLINEGEN
 70
     1
  9
$PSLTSCALE
 70
     0
  9
$TREEDEPTH
 70
  3020
  9
$PICKSTYLE
 70
     1
  9
$CMLSTYLE
  2
STANDARD
  9
$CMLJUST
 70
     0
  9
$CMLSCALE
 40
1.0
  9
$PROXYGRAPHICS
 70
     0
  9
$MEASUREMENT
 70
     1
  0
ENDSEC
  0
SECTION
  2
CLASSES
  0
CLASS
  1
ACDBDICTIONARYWDFLT
  2
AcDbDictionaryWithDefault
  3
ObjectDBX Classes
 90
        0
280
     0
281
     0
  0
CLASS
  1
VISUALSTYLE
  2
AcDbVisualStyle
  3
ObjectDBX Classes
 90
     4095
280
     0
281
     0
  0
CLASS
  1
MATERIAL
  2
AcDbMaterial
  3
ObjectDBX Classes
 90
     1153
280
     0
281
     0
  0
CLASS
  1
SCALE
  2
AcDbScale
  3
ObjectDBX Classes
 90
     1153
280
     0
281
     0
  0
CLASS
  1
SUN
  2
AcDbSun
  3
SCENEOE
 90
     1153
280
     0
281
     0
  0
CLASS
  1
DICTIONARYVAR
  2
AcDbDictionaryVar
  3
ObjectDBX Classes
 90
        0
280
     0
281
     0
  0
CLASS
  1
XRECORD
  2
AcDbXrecord
  3
ObjectDBX Classes
 90
        0
280
     0
281
     0
  0
CLASS
  1
LWPOLYLINE
  2
AcDbPolyline
  3
ObjectDBX Classes
 90
        0
280
     0
281
     1
  0
CLASS
  1
HATCH
  2
AcDbHatch
  3
ObjectDBX Classes
 90
        0
280
     0
281
     1
  0
CLASS
  1
ACDBPLACEHOLDER
  2
AcDbPlaceHolder
  3
ObjectDBX Classes
 90
        0
280
     0
281
     0
  0
CLASS
  1
LAYOUT
  2
AcDbLayout
  3
ObjectDBX Classes
 90
        0
280
     0
281
     0
  0
ENDSEC
  0
SECTION
  2
TABLES
  0
TABLE
  2
VPORT
  5
8
102
{ACAD_XDICTIONARY
360
48F
102
}
330
0
100
AcDbSymbolTable
 70
     1
  0
VPORT
  5
29
330
8
100
AcDbSymbolTableRecord
100
AcDbViewportTableRecord
  2
*ACTIVE
 70
     0
 10
0.0
 20
0.0
 11
1.0
 21
1.0
 12
-0.0000000000000036
 22
-2.381250000000009
 13
0.0
 23
0.0
 14
0.5
 24
0.5
 15
0.5
 25
0.5
 16
0.0
 26
0.0
 36
1.0
 17
0.0
 27
0.0
 37
0.0
 40
142.979004671214
 41
2.935640054808895
 42
50.0
 43
0.0
 44
0.0
 50
0.0
 51
0.0
 71
     0
 72
  1000
 73
     1
 74
     1
 75
     0
 76
     0
 77
     0
 78
     0
  0
ENDTAB
  0
TABLE
  2
LTYPE
  5
5
330
0
100
AcDbSymbolTable
 70
    67
  0
LTYPE
  5
14
330
5
100
AcDbSymbolTableRecord
100
AcDbLinetypeTableRecord
  2
BYBLOCK
 70
     0
  3

 72
    65
 73
     0
 40
0.0
  0
LTYPE
  5
15
330
5
100
AcDbSymbolTableRecord
100
AcDbLinetypeTableRecord
  2
BYLAYER
 70
     0
  3

 72
    65
 73
     0
 40
0.0
  0
LTYPE
  5
16
330
5
100
AcDbSymbolTableRecord
100
AcDbLinetypeTableRecord
  2
CONTINUOUS
 70
     0
  3
Solid line
 72
    65
 73
     0
 40
0.0
  0
LTYPE
  5
6B
330
5
100
AcDbSymbolTableRecord
100
AcDbLinetypeTableRecord
  2
HIDDENX2
 70
     0
  3
Hidden (2x) ____ ____ ____ ____ ____ ____ ____ 
 72
    65
 73
     2
 40
19.05
 49
12.7
 74
     0
 49
-6.35
 74
     0
  0
LTYPE
  5
6C
330
5
100
AcDbSymbolTableRecord
100
AcDbLinetypeTableRecord
  2
HIDDEN
 70
     0
  3
Hidden __ __ __ __ __ __ __ __ __ __ __ __ __ __
 72
    65
 73
     2
 40
9.524999999999999
 49
6.35
 74
     0
 49
-3.175
 74
     0
  0
LTYPE
  5
6D
330
5
100
AcDbSymbolTableRecord
100
AcDbLinetypeTableRecord
  2
HIDDEN2
 70
     0
  3
Hidden (.5x) _ _ _ _ _ _ _ _ _ _ _ _ _ _ _ _ _ 
 72
    65
 73
     2
 40
4.762499999999999
 49
3.175
 74
     0
 49
-1.5875
 74
     0
  0
LTYPE
  5
6E
330
5
100
AcDbSymbolTableRecord
100
AcDbLinetypeTableRecord
  2
DASHED
 70
     0
  3
Dashed __ __ __ __ __ __ __ __ __ __ __ __ __ _
 72
    65
 73
     2
 40
19.05
 49
12.7
 74
     0
 49
-6.35
 74
     0
  0
LTYPE
  5
6F
330
5
100
AcDbSymbolTableRecord
100
AcDbLinetypeTableRecord
  2
DASHED2
 70
     0
  3
Dashed (.5x) _ _ _ _ _ _ _ _ _ _ _ _ _ _ _ _ _ 
 72
    65
 73
     2
 40
9.524999999999999
 49
6.35
 74
     0
 49
-3.175
 74
     0
  0
LTYPE
  5
70
330
5
100
AcDbSymbolTableRecord
100
AcDbLinetypeTableRecord
  2
DASHEDX2
 70
     0
  3
Dashed (2x) ____  ____  ____  ____  ____  ___
 72
    65
 73
     2
 40
38.09999999999999
 49
25.4
 74
     0
 49
-12.7
 74
     0
  0
LTYPE
  5
71
330
5
100
AcDbSymbolTableRecord
100
AcDbLinetypeTableRecord
  2
DOTX2
 70
     0
  3
Dot (2x) .  .  .  .  .  .  .  .  .  .  .  .  .  .
 72
    65
 73
     2
 40
12.7
 49
0.0
 74
     0
 49
-12.7
 74
     0
  0
LTYPE
  5
72
330
5
100
AcDbSymbolTableRecord
100
AcDbLinetypeTableRecord
  2
DOT
 70
     0
  3
Dot . . . . . . . . . . . . . . . . . . . . . . . .
 72
    65
 73
     2
 40
6.35
 49
0.0
 74
     0
 49
-6.35
 74
     0
  0
LTYPE
  5
73
330
5
100
AcDbSymbolTableRecord
100
AcDbLinetypeTableRecord
  2
DOT2
 70
     0
  3
Dot (.5x) ........................................
 72
    65
 73
     2
 40
3.175
 49
0.0
 74
     0
 49
-3.175
 74
     0
  0
LTYPE
  5
74
330
5
100
AcDbSymbolTableRecord
100
AcDbLinetypeTableRecord
  2
CENTERX2
 70
     0
  3
Center (2x) ________  __  ________  __  _____
 72
    65
 73
     4
 40
101.6
 49
63.5
 74
     0
 49
-12.7
 74
     0
 49
12.7
 74
     0
 49
-12.7
 74
     0
  0
LTYPE
  5
75
330
5
100
AcDbSymbolTableRecord
100
AcDbLinetypeTableRecord
  2
CENTER
 70
     0
  3
Center ____ _ ____ _ ____ _ ____ _ ____ _ ____
 72
    65
 73
     4
 40
50.8
 49
31.75
 74
     0
 49
-6.35
 74
     0
 49
6.35
 74
     0
 49
-6.35
 74
     0
  0
LTYPE
  5
76
330
5
100
AcDbSymbolTableRecord
100
AcDbLinetypeTableRecord
  2
CENTER2
 70
     0
  3
Center (.5x) ___ _ ___ _ ___ _ ___ _ ___ _ ___
 72
    65
 73
     4
 40
28.575
 49
19.05
 74
     0
 49
-3.175
 74
     0
 49
3.175
 74
     0
 49
-3.175
 74
     0
  0
LTYPE
  5
77
330
5
100
AcDbSymbolTableRecord
100
AcDbLinetypeTableRecord
  2
DASHDOTX2
 70
     0
  3
Dash dot (2x) ____  .  ____  .  ____  .  ___
 72
    65
 73
     4
 40
50.8
 49
25.4
 74
     0
 49
-12.7
 74
     0
 49
0.0
 74
     0
 49
-12.7
 74
     0
  0
LTYPE
  5
78
330
5
100
AcDbSymbolTableRecord
100
AcDbLinetypeTableRecord
  2
DASHDOT
 70
     0
  3
Dash dot __ . __ . __ . __ . __ . __ . __ . __
 72
    65
 73
     4
 40
25.4
 49
12.7
 74
     0
 49
-6.35
 74
     0
 49
0.0
 74
     0
 49
-6.35
 74
     0
  0
LTYPE
  5
79
330
5
100
AcDbSymbolTableRecord
100
AcDbLinetypeTableRecord
  2
DASHDOT2
 70
     0
  3
Dash dot (.5x) _._._._._._._._._._._._._._._.
 72
    65
 73
     4
 40
12.7
 49
6.35
 74
     0
 49
-3.175
 74
     0
 49
0.0
 74
     0
 49
-3.175
 74
     0
  0
LTYPE
  5
7A
330
5
100
AcDbSymbolTableRecord
100
AcDbLinetypeTableRecord
  2
DIVIDEX2
 70
     0
  3
Divide (2x) ________  .  .  ________  .  .  _
 72
    65
 73
     6
 40
63.5
 49
25.4
 74
     0
 49
-12.7
 74
     0
 49
0.0
 74
     0
 49
-12.7
 74
     0
 49
0.0
 74
     0
 49
-12.7
 74
     0
  0
LTYPE
  5
7B
330
5
100
AcDbSymbolTableRecord
100
AcDbLinetypeTableRecord
  2
DIVIDE
 70
     0
  3
Divide ____ . . ____ . . ____ . . ____ . . ____
 72
    65
 73
     6
 40
31.75
 49
12.7
 74
     0
 49
-6.35
 74
     0
 49
0.0
 74
     0
 49
-6.35
 74
     0
 49
0.0
 74
     0
 49
-6.35
 74
     0
  0
LTYPE
  5
7C
330
5
100
AcDbSymbolTableRecord
100
AcDbLinetypeTableRecord
  2
DIVIDE2
 70
     0
  3
Divide (.5x) __..__..__..__..__..__..__..__.._
 72
    65
 73
     6
 40
15.875
 49
6.35
 74
     0
 49
-3.175
 74
     0
 49
0.0
 74
     0
 49
-3.175
 74
     0
 49
0.0
 74
     0
 49
-3.175
 74
     0
  0
LTYPE
  5
7D
330
5
100
AcDbSymbolTableRecord
100
AcDbLinetypeTableRecord
  2
BORDERX2
 70
     0
  3
Border (2x) ____  ____  .  ____  ____  .  ___
 72
    65
 73
     6
 40
88.89999999999999
 49
25.4
 74
     0
 49
-12.7
 74
     0
 49
25.4
 74
     0
 49
-12.7
 74
     0
 49
0.0
 74
     0
 49
-12.7
 74
     0
  0
LTYPE
  5
7E
330
5
100
AcDbSymbolTableRecord
100
AcDbLinetypeTableRecord
  2
BORDER
 70
     0
  3
Border __ __ . __ __ . __ __ . __ __ . __ __ .
 72
    65
 73
     6
 40
44.45
 49
12.7
 74
     0
 49
-6.35
 74
     0
 49
12.7
 74
     0
 49
-6.35
 74
     0
 49
0.0
 74
     0
 49
-6.35
 74
     0
  0
LTYPE
  5
7F
330
5
100
AcDbSymbolTableRecord
100
AcDbLinetypeTableRecord
  2
BORDER2
 70
     0
  3
Border (.5x) __.__.__.__.__.__.__.__.__.__.__.
 72
    65
 73
     6
 40
22.225
 49
6.35
 74
     0
 49
-3.175
 74
     0
 49
6.35
 74
     0
 49
-3.175
 74
     0
 49
0.0
 74
     0
 49
-3.175
 74
     0
  0
LTYPE
  5
80
330
5
100
AcDbSymbolTableRecord
100
AcDbLinetypeTableRecord
  2
PHANTOMX2
 70
     0
  3
Phantom (2x) ____________    ____    ____   _
 72
    65
 73
     6
 40
127.0
 49
63.5
 74
     0
 49
-12.7
 74
     0
 49
12.7
 74
     0
 49
-12.7
 74
     0
 49
12.7
 74
     0
 49
-12.7
 74
     0
  0
LTYPE
  5
81
330
5
100
AcDbSymbolTableRecord
100
AcDbLinetypeTableRecord
  2
PHANTOM
 70
     0
  3
Phantom ______  __  __  ______  __  __  ______ 
 72
    65
 73
     6
 40
63.5
 49
31.75
 74
     0
 49
-6.35
 74
     0
 49
6.35
 74
     0
 49
-6.35
 74
     0
 49
6.35
 74
     0
 49
-6.35
 74
     0
  0
LTYPE
  5
82
330
5
100
AcDbSymbolTableRecord
100
AcDbLinetypeTableRecord
  2
PHANTOM2
 70
     0
  3
Phantom (.5x) ___ _ _ ___ _ _ ___ _ _ ___ _ _
 72
    65
 73
     6
 40
31.75
 49
15.875
 74
     0
 49
-3.175
 74
     0
 49
3.175
 74
     0
 49
-3.175
 74
     0
 49
3.175
 74
     0
 49
-3.175
 74
     0
  0
LTYPE
  5
83
330
5
100
AcDbSymbolTableRecord
100
AcDbLinetypeTableRecord
  2
ACAD_ISO06W100
 70
     0
  3
ISO long-dash triple-dot ____ ... ____ ... ____
 72
    65
 73
     8
 40
36.0
 49
24.0
 74
     0
 49
-3.0
 74
     0
 49
0.0
 74
     0
 49
-3.0
 74
     0
 49
0.0
 74
     0
 49
-3.0
 74
     0
 49
0.0
 74
     0
 49
-3.0
 74
     0
  0
LTYPE
  5
84
330
5
100
AcDbSymbolTableRecord
100
AcDbLinetypeTableRecord
  2
ACAD_ISO13W100
 70
     0
  3
ISO double-dash double-dot __ __ . . __ __ . . _
 72
    65
 73
     8
 40
36.0
 49
12.0
 74
     0
 49
-3.0
 74
     0
 49
12.0
 74
     0
 49
-3.0
 74
     0
 49
0.0
 74
     0
 49
-3.0
 74
     0
 49
0.0
 74
     0
 49
-3.0
 74
     0
  0
LTYPE
  5
85
330
5
100
AcDbSymbolTableRecord
100
AcDbLinetypeTableRecord
  2
ACAD_ISO14W100
 70
     0
  3
ISO dash triple-dot __ . . . __ . . . __ . . . _
 72
    65
 73
     8
 40
24.0
 49
12.0
 74
     0
 49
-3.0
 74
     0
 49
0.0
 74
     0
 49
-3.0
 74
     0
 49
0.0
 74
     0
 49
-3.0
 74
     0
 49
0.0
 74
     0
 49
-3.0
 74
     0
  0
LTYPE
  5
86
330
5
100
AcDbSymbolTableRecord
100
AcDbLinetypeTableRecord
  2
ACAD_ISO02W100
 70
     0
  3
ISO dash __ __ __ __ __ __ __ __ __ __ __ __ __
 72
    65
 73
     2
 40
15.0
 49
12.0
 74
     0
 49
-3.0
 74
     0
  0
LTYPE
  5
87
330
5
100
AcDbSymbolTableRecord
100
AcDbLinetypeTableRecord
  2
ACAD_ISO03W100
 70
     0
  3
ISO dash space __    __    __    __    __    __
 72
    65
 73
     2
 40
30.0
 49
12.0
 74
     0
 49
-18.0
 74
     0
  0
LTYPE
  5
88
330
5
100
AcDbSymbolTableRecord
100
AcDbLinetypeTableRecord
  2
ACAD_ISO04W100
 70
     0
  3
ISO long-dash dot ____ . ____ . ____ . ____ . _
 72
    65
 73
     4
 40
30.0
 49
24.0
 74
     0
 49
-3.0
 74
     0
 49
0.0
 74
     0
 49
-3.0
 74
     0
  0
LTYPE
  5
89
330
5
100
AcDbSymbolTableRecord
100
AcDbLinetypeTableRecord
  2
ACAD_ISO05W100
 70
     0
  3
ISO long-dash double-dot ____ .. ____ .. ____ . 
 72
    65
 73
     6
 40
33.0
 49
24.0
 74
     0
 49
-3.0
 74
     0
 49
0.0
 74
     0
 49
-3.0
 74
     0
 49
0.0
 74
     0
 49
-3.0
 74
     0
  0
LTYPE
  5
8A
330
5
100
AcDbSymbolTableRecord
100
AcDbLinetypeTableRecord
  2
ACAD_ISO07W100
 70
     0
  3
ISO dot . . . . . . . . . . . . . . . . . . . . 
 72
    65
 73
     2
 40
3.0
 49
0.0
 74
     0
 49
-3.0
 74
     0
  0
LTYPE
  5
8B
330
5
100
AcDbSymbolTableRecord
100
AcDbLinetypeTableRecord
  2
ACAD_ISO08W100
 70
     0
  3
ISO long-dash short-dash ____ __ ____ __ ____ _
 72
    65
 73
     4
 40
36.0
 49
24.0
 74
     0
 49
-3.0
 74
     0
 49
6.0
 74
     0
 49
-3.0
 74
     0
  0
LTYPE
  5
8C
330
5
100
AcDbSymbolTableRecord
100
AcDbLinetypeTableRecord
  2
ACAD_ISO09W100
 70
     0
  3
ISO long-dash double-short-dash ____ __ __ ____
 72
    65
 73
     6
 40
45.0
 49
24.0
 74
     0
 49
-3.0
 74
     0
 49
6.0
 74
     0
 49
-3.0
 74
     0
 49
6.0
 74
     0
 49
-3.0
 74
     0
  0
LTYPE
  5
8D
330
5
100
AcDbSymbolTableRecord
100
AcDbLinetypeTableRecord
  2
ACAD_ISO10W100
 70
     0
  3
ISO dash dot __ . __ . __ . __ . __ . __ . __ . 
 72
    65
 73
     4
 40
18.0
 49
12.0
 74
     0
 49
-3.0
 74
     0
 49
0.0
 74
     0
 49
-3.0
 74
     0
  0
LTYPE
  5
8E
330
5
100
AcDbSymbolTableRecord
100
AcDbLinetypeTableRecord
  2
ACAD_ISO11W100
 70
     0
  3
ISO double-dash dot __ __ . __ __ . __ __ . __ _
 72
    65
 73
     6
 40
33.0
 49
12.0
 74
     0
 49
-3.0
 74
     0
 49
12.0
 74
     0
 49
-3.0
 74
     0
 49
0.0
 74
     0
 49
-3.0
 74
     0
  0
LTYPE
  5
8F
330
5
100
AcDbSymbolTableRecord
100
AcDbLinetypeTableRecord
  2
ACAD_ISO12W100
 70
     0
  3
ISO dash double-dot __ . . __ . . __ . . __ . . 
 72
    65
 73
     6
 40
21.0
 49
12.0
 74
     0
 49
-3.0
 74
     0
 49
0.0
 74
     0
 49
-3.0
 74
     0
 49
0.0
 74
     0
 49
-3.0
 74
     0
  0
LTYPE
  5
90
330
5
100
AcDbSymbolTableRecord
100
AcDbLinetypeTableRecord
  2
ACAD_ISO15W100
 70
     0
  3
ISO double-dash triple-dot __ __ . . . __ __ . .
 72
    65
 73
    10
 40
39.0
 49
12.0
 74
     0
 49
-3.0
 74
     0
 49
12.0
 74
     0
 49
-3.0
 74
     0
 49
0.0
 74
     0
 49
-3.0
 74
     0
 49
0.0
 74
     0
 49
-3.0
 74
     0
 49
0.0
 74
     0
 49
-3.0
 74
     0
  0
LTYPE
  5
91
330
5
100
AcDbSymbolTableRecord
100
AcDbLinetypeTableRecord
  2
JIS_02_0_7
 70
     0
  3
HIDDEN0.75 _ _ _ _ _ _ _ _ _ _ _ _ _ _ _ _ _ 
 72
    65
 73
     2
 40
1.35
 49
0.75
 74
     0
 49
-0.6
 74
     0
  0
LTYPE
  5
92
330
5
100
AcDbSymbolTableRecord
100
AcDbLinetypeTableRecord
  2
JIS_02_1_0
 70
     0
  3
HIDDEN01 _ _ _ _ _ _ _ _ _ _ _ _ _ _ _ _ _ 
 72
    65
 73
     2
 40
2.0
 49
1.0
 74
     0
 49
-1.0
 74
     0
  0
LTYPE
  5
93
330
5
100
AcDbSymbolTableRecord
100
AcDbLinetypeTableRecord
  2
JIS_02_1_2
 70
     0
  3
HIDDEN01.25  _ _ _ _ _ _ _ _ _ _ _ _ _ _ _ _ _ 
 72
    65
 73
     2
 40
2.5
 49
1.25
 74
     0
 49
-1.25
 74
     0
  0
LTYPE
  5
94
330
5
100
AcDbSymbolTableRecord
100
AcDbLinetypeTableRecord
  2
JIS_02_2_0
 70
     0
  3
HIDDEN02 __ __ __ __ __ __ __ __ __ __ __ 
 72
    65
 73
     2
 40
3.0
 49
2.0
 74
     0
 49
-1.0
 74
     0
  0
LTYPE
  5
95
330
5
100
AcDbSymbolTableRecord
100
AcDbLinetypeTableRecord
  2
JIS_02_4_0
 70
     0
  3
HIDDEN04 ____ ____ ____ ____ ____ ____ ____ 
 72
    65
 73
     2
 40
5.5
 49
4.0
 74
     0
 49
-1.5
 74
     0
  0
LTYPE
  5
96
330
5
100
AcDbSymbolTableRecord
100
AcDbLinetypeTableRecord
  2
JIS_08_11
 70
     0
  3
1SASEN11 ___ _ ___ _ ___ _ ___ _ ___ _ ___
 72
    65
 73
     4
 40
12.8
 49
11.0
 74
     0
 49
-0.6
 74
     0
 49
0.6
 74
     0
 49
-0.6
 74
     0
  0
LTYPE
  5
97
330
5
100
AcDbSymbolTableRecord
100
AcDbLinetypeTableRecord
  2
JIS_08_15
 70
     0
  3
1SASEN15 ____ _ ____ _ ____ _ ____ _ ____ 
 72
    65
 73
     4
 40
17.25
 49
15.0
 74
     0
 49
-0.75
 74
     0
 49
0.75
 74
     0
 49
-0.75
 74
     0
  0
LTYPE
  5
98
330
5
100
AcDbSymbolTableRecord
100
AcDbLinetypeTableRecord
  2
JIS_08_25
 70
     0
  3
1SASEN25 ________  __  ________  __  _____
 72
    65
 73
     4
 40
28.0
 49
25.0
 74
     0
 49
-1.125
 74
     0
 49
0.75
 74
     0
 49
-1.125
 74
     0
  0
LTYPE
  5
99
330
5
100
AcDbSymbolTableRecord
100
AcDbLinetypeTableRecord
  2
JIS_08_37
 70
     0
  3
1SASEN37 ________  __  ________  __  _____
 72
    65
 73
     4
 40
40.5
 49
37.5
 74
     0
 49
-1.125
 74
     0
 49
0.75
 74
     0
 49
-1.125
 74
     0
  0
LTYPE
  5
9A
330
5
100
AcDbSymbolTableRecord
100
AcDbLinetypeTableRecord
  2
JIS_08_50
 70
     0
  3
1SASEN50 _______________  __  ____________
 72
    65
 73
     4
 40
53.0
 49
50.0
 74
     0
 49
-1.125
 74
     0
 49
0.75
 74
     0
 49
-1.125
 74
     0
  0
LTYPE
  5
9B
330
5
100
AcDbSymbolTableRecord
100
AcDbLinetypeTableRecord
  2
JIS_09_08
 70
     0
  3
2SASEN8 __ _ _ __ _ _ __ _ _ __ _ _ __ _ _ 
 72
    65
 73
     6
 40
10.75
 49
8.0
 74
     0
 49
-0.55
 74
     0
 49
0.55
 74
     0
 49
-0.55
 74
     0
 49
0.55
 74
     0
 49
-0.55
 74
     0
  0
LTYPE
  5
9C
330
5
100
AcDbSymbolTableRecord
100
AcDbLinetypeTableRecord
  2
JIS_09_15
 70
     0
  3
2SASEN15 ___ _ _ ___ _ _ ___ _ _ ___ _ _ ___ 
 72
    65
 73
     6
 40
18.9
 49
15.0
 74
     0
 49
-0.9
 74
     0
 49
0.6
 74
     0
 49
-0.9
 74
     0
 49
0.6
 74
     0
 49
-0.9
 74
     0
  0
LTYPE
  5
9D
330
5
100
AcDbSymbolTableRecord
100
AcDbLinetypeTableRecord
  2
JIS_09_29
 70
     0
  3
2SASEN29 ______　__  __  ______　__  __  ___
 72
    65
 73
     6
 40
34.0
 49
29.0
 74
     0
 49
-1.2
 74
     0
 49
0.7
 74
     0
 49
-1.2
 74
     0
 49
0.7
 74
     0
 49
-1.2
 74
     0
  0
LTYPE
  5
9E
330
5
100
AcDbSymbolTableRecord
100
AcDbLinetypeTableRecord
  2
JIS_09_50
 70
     0
  3
2SASEN50 ____________　__  __  _____________
 72
    65
 73
     6
 40
55.0
 49
50.0
 74
     0
 49
-1.2
 74
     0
 49
0.7
 74
     0
 49
-1.2
 74
     0
 49
0.7
 74
     0
 49
-1.2
 74
     0
  0
LTYPE
  5
9F
330
5
100
AcDbSymbolTableRecord
100
AcDbLinetypeTableRecord
  2
SXF_破線
 70
     0
  3
02 dashed -- -- -- -- -- --
 72
    65
 73
     2
 40
7.5
 49
6.0
 74
     0
 49
-1.5
 74
     0
  0
LTYPE
  5
A0
330
5
100
AcDbSymbolTableRecord
100
AcDbLinetypeTableRecord
  2
SXF_跳び破線
 70
     0
  3
03 dashed_spaced --  --  --  --
 72
    65
 73
     2
 40
12.0
 49
6.0
 74
     0
 49
-6.0
 74
     0
  0
LTYPE
  5
A1
330
5
100
AcDbSymbolTableRecord
100
AcDbLinetypeTableRecord
  2
SXF_一点長鎖線
 70
     0
  3
04 long_dashed_dotted ---- . ---- . ----
 72
    65
 73
     4
 40
15.25
 49
12.0
 74
     0
 49
-1.5
 74
     0
 49
0.25
 74
     0
 49
-1.5
 74
     0
  0
LTYPE
  5
A2
330
5
100
AcDbSymbolTableRecord
100
AcDbLinetypeTableRecord
  2
SXF_二点長鎖線
 70
     0
  3
05 long_dashed_double-dotted ---- . . ---- 
 72
    65
 73
     6
 40
17.0
 49
12.0
 74
     0
 49
-1.5
 74
     0
 49
0.25
 74
     0
 49
-1.5
 74
     0
 49
0.25
 74
     0
 49
-1.5
 74
     0
  0
LTYPE
  5
A3
330
5
100
AcDbSymbolTableRecord
100
AcDbLinetypeTableRecord
  2
SXF_三点長鎖線
 70
     0
  3
06 long_dashed_triplicate-dotted ---- ... ---- 
 72
    65
 73
     8
 40
18.75
 49
12.0
 74
     0
 49
-1.5
 74
     0
 49
0.25
 74
     0
 49
-1.5
 74
     0
 49
0.25
 74
     0
 49
-1.5
 74
     0
 49
0.25
 74
     0
 49
-1.5
 74
     0
  0
LTYPE
  5
A4
330
5
100
AcDbSymbolTableRecord
100
AcDbLinetypeTableRecord
  2
SXF_点線
 70
     0
  3
07 dotted . . . . . . . . . . . . 
 72
    65
 73
     2
 40
1.75
 49
0.25
 74
     0
 49
-1.5
 74
     0
  0
LTYPE
  5
A5
330
5
100
AcDbSymbolTableRecord
100
AcDbLinetypeTableRecord
  2
SXF_一点鎖線
 70
     0
  3
08 chain ---- - --- - --- - ---
 72
    65
 73
     4
 40
18.5
 49
12.0
 74
     0
 49
-1.5
 74
     0
 49
3.5
 74
     0
 49
-1.5
 74
     0
  0
LTYPE
  5
A6
330
5
100
AcDbSymbolTableRecord
100
AcDbLinetypeTableRecord
  2
SXF_二点鎖線
 70
     0
  3
09 chain_double_dash ---- - - ---- - - ----
 72
    65
 73
     6
 40
23.5
 49
12.0
 74
     0
 49
-1.5
 74
     0
 49
3.5
 74
     0
 49
-1.5
 74
     0
 49
3.5
 74
     0
 49
-1.5
 74
     0
  0
LTYPE
  5
A7
330
5
100
AcDbSymbolTableRecord
100
AcDbLinetypeTableRecord
  2
SXF_一点短鎖線
 70
     0
  3
10 dashed_dotted -- . -- . -- . --
 72
    65
 73
     4
 40
9.25
 49
6.0
 74
     0
 49
-1.5
 74
     0
 49
0.25
 74
     0
 49
-1.5
 74
     0
  0
LTYPE
  5
A8
330
5
100
AcDbSymbolTableRecord
100
AcDbLinetypeTableRecord
  2
SXF_一点二短鎖線
 70
     0
  3
11 double-dashed_dotted -- -- . -- --
 72
    65
 73
     6
 40
16.75
 49
6.0
 74
     0
 49
-1.5
 74
     0
 49
6.0
 74
     0
 49
-1.5
 74
     0
 49
0.25
 74
     0
 49
-1.5
 74
     0
  0
LTYPE
  5
A9
330
5
100
AcDbSymbolTableRecord
100
AcDbLinetypeTableRecord
  2
SXF_二点短鎖線
 70
     0
  3
12 dashed_double_dotted -- . . -- . . --
 72
    65
 73
     6
 40
11.0
 49
6.0
 74
     0
 49
-1.5
 74
     0
 49
0.25
 74
     0
 49
-1.5
 74
     0
 49
0.25
 74
     0
 49
-1.5
 74
     0
  0
LTYPE
  5
AA
330
5
100
AcDbSymbolTableRecord
100
AcDbLinetypeTableRecord
  2
SXF_二点二短鎖線
 70
     0
  3
13 double-dashed_double-dotted -- -- . . -- --
 72
    65
 73
     8
 40
18.5
 49
6.0
 74
     0
 49
-1.5
 74
     0
 49
6.0
 74
     0
 49
-1.5
 74
     0
 49
0.25
 74
     0
 49
-1.5
 74
     0
 49
0.25
 74
     0
 49
-1.5
 74
     0
  0
LTYPE
  5
AB
330
5
100
AcDbSymbolTableRecord
100
AcDbLinetypeTableRecord
  2
SXF_三点短鎖線
 70
     0
  3
14 dashed triplicate-dotted -- . . . -- . . . --
 72
    65
 73
     8
 40
12.75
 49
6.0
 74
     0
 49
-1.5
 74
     0
 49
0.25
 74
     0
 49
-1.5
 74
     0
 49
0.25
 74
     0
 49
-1.5
 74
     0
 49
0.25
 74
     0
 49
-1.5
 74
     0
  0
LTYPE
  5
AC
330
5
100
AcDbSymbolTableRecord
100
AcDbLinetypeTableRecord
  2
SXF_三点二短鎖線
 70
     0
  3
15 double-dashed triplicate-dotted -- -- . . . -- -- 
 72
    65
 73
    10
 40
20.25
 49
6.0
 74
     0
 49
-1.5
 74
     0
 49
6.0
 74
     0
 49
-1.5
 74
     0
 49
0.25
 74
     0
 49
-1.5
 74
     0
 49
0.25
 74
     0
 49
-1.5
 74
     0
 49
0.25
 74
     0
 49
-1.5
 74
     0
  0
ENDTAB
  0
TABLE
  2
LAYER
  5
2
330
0
100
AcDbSymbolTable
 70
     1
  0
LAYER
  5
10
330
2
100
AcDbSymbolTableRecord
100
AcDbLayerTableRecord
  2
0
 70
     0
 62
     7
  6
CONTINUOUS
  0
ENDTAB
  0
TABLE
  2
STYLE
  5
3
330
0
100
AcDbSymbolTable
 70
     2
  0
STYLE
  5
11
330
3
100
AcDbSymbolTableRecord
100
AcDbTextStyleTableRecord
  2
STANDARD
 70
     0
 40
0.0
 41
1.0
 50
0.0
 71
     0
 42
0.2
  3
txt.shx
  4
bigfont.shx
  0
STYLE
  5
465
330
3
100
AcDbSymbolTableRecord
100
AcDbTextStyleTableRecord
  2
DCSTYLE0
 70
     0
 40
0.0
 41
0.2999999999999997
 50
0.0
 71
     0
 42
0.2
  3
txt.shx
  4
bigfont
  0
ENDTAB
  0
TABLE
  2
VIEW
  5
6
330
0
100
AcDbSymbolTable
 70
     0
  0
ENDTAB
  0
TABLE
  2
UCS
  5
7
330
0
100
AcDbSymbolTable
 70
     0
  0
ENDTAB
  0
TABLE
  2
APPID
  5
9
330
0
100
AcDbSymbolTable
 70
     2
  0
APPID
  5
12
330
9
100
AcDbSymbolTableRecord
100
AcDbRegAppTableRecord
  2
ACAD
 70
     0
  0
APPID
  5
6A
330
9
100
AcDbSymbolTableRecord
100
AcDbRegAppTableRecord
  2
DAFUSIONOUT
 70
     0
  0
ENDTAB
  0
TABLE
  2
DIMSTYLE
  5
A
330
0
100
AcDbSymbolTable
 70
     1
  0
DIMSTYLE
105
27
330
A
100
AcDbSymbolTableRecord
100
AcDbDimStyleTableRecord
  2
STANDARD
 70
     0
  3

  4

  5

  6

  7

 40
1.0
 41
0.18
 42
0.0625
 43
0.38
 44
0.18
 45
0.0
 46
0.0
 47
0.0
 48
0.0
140
0.18
141
0.09
142
0.0
143
25.4
144
1.0
145
0.0
146
1.0
147
0.09
 71
     0
 72
     0
 73
     1
 74
     1
 75
     0
 76
     0
 77
     0
 78
     0
170
     0
171
     2
172
     0
173
     0
174
     0
175
     0
176
     0
177
     0
178
     0
270
     2
271
     4
272
     4
273
     2
274
     2
340
11
275
     0
280
     0
281
     0
282
     0
283
     1
284
     0
285
     0
286
     0
287
     3
288
     0
  0
ENDTAB
  0
TABLE
  2
BLOCK_RECORD
  5
1
330
0
100
AcDbSymbolTable
 70
     1
  0
BLOCK_RECORD
  5
1F
330
1
100
AcDbSymbolTableRecord
100
AcDbBlockTableRecord
  2
*MODEL_SPACE
  0
BLOCK_RECORD
  5
1B
330
1
100
AcDbSymbolTableRecord
100
AcDbBlockTableRecord
  2
*PAPER_SPACE
  0
ENDTAB
  0
ENDSEC
  0
SECTION
  2
BLOCKS
  0
BLOCK
  5
20
330
1F
100
AcDbEntity
  8
0
100
AcDbBlockBegin
  2
*MODEL_SPACE
 70
     0
 10
0.0
 20
0.0
 30
0.0
  3
*MODEL_SPACE
  1

  0
ENDBLK
  5
21
330
1F
100
AcDbEntity
  8
0
100
AcDbBlockEnd
  0
BLOCK
  5
1C
330
1B
100
AcDbEntity
 67
     1
  8
0
100
AcDbBlockBegin
  2
*PAPER_SPACE
 70
     0
 10
0.0
 20
0.0
 30
0.0
  3
*PAPER_SPACE
  1

  0
ENDBLK
  5
1D
330
1B
100
AcDbEntity
 67
     1
  8
0
100
AcDbBlockEnd
  0
ENDSEC
  0
SECTION
  2
ENTITIES
  0
LINE
  5
AE
330
1F
100
AcDbEntity
  8
0
  6
CONTINUOUS
 62
     7
100
AcDbLine
 10
-137.5523993699
 20
-42.64585378035002
 30
0.0
 11
-137.5523993699
 21
-44.34585478765004
 31
0.0
  0
LINE
  5
AF
330
1F
100
AcDbEntity
  8
0
  6
CONTINUOUS
 62
     7
100
AcDbLine
 10
-137.5523993699
 20
-44.34585478765004
 30
0.0
 11
-157.5523985882
 21
-44.34585478765004
 31
0.0
  0
LINE
  5
B0
330
1F
100
AcDbEntity
  8
0
  6
CONTINUOUS
 62
     7
100
AcDbLine
 10
-157.5523985882
 20
-44.34585478765004
 30
0.0
 11
-157.5523985882
 21
-42.64585378035002
 31
0.0
  0
LINE
  5
B1
330
1F
100
AcDbEntity
  8
0
  6
CONTINUOUS
 62
     7
100
AcDbLine
 10
-137.5523993699
 20
-42.64585378035002
 30
0.0
 11
-137.5523993699
 21
-37.34585347045004
 31
0.0
  0
LINE
  5
B2
330
1F
100
AcDbEntity
  8
0
  6
CONTINUOUS
 62
     7
100
AcDbLine
 10
-157.5523985882
 20
-42.64585378035002
 30
0.0
 11
-157.5523985882
 21
-37.34585347045004
 31
0.0
  0
LINE
  5
B3
330
1F
100
AcDbEntity
  8
0
  6
CONTINUOUS
 62
     7
100
AcDbLine
 10
-177.9523977964
 20
63.95414666074998
 30
0.0
 11
-177.9523977964
 21
58.65414635074995
 31
0.0
  0
LINE
  5
B4
330
1F
100
AcDbEntity
  8
0
  6
CONTINUOUS
 62
     7
100
AcDbLine
 10
-157.9523985781
 20
63.95414666074998
 30
0.0
 11
-157.9523985781
 21
58.65414635074995
 31
0.0
  0
LINE
  5
B5
330
1F
100
AcDbEntity
  8
0
  6
CONTINUOUS
 62
     7
100
AcDbLine
 10
-177.9523977964
 20
63.95414666074998
 30
0.0
 11
-177.9523977964
 21
65.65414766804997
 31
0.0
  0
LINE
  5
B6
330
1F
100
AcDbEntity
  8
0
  6
CONTINUOUS
 62
     7
100
AcDbLine
 10
-177.9523977964
 20
65.65414766804997
 30
0.0
 11
-157.9523985781
 21
65.65414766804997
 31
0.0
  0
LINE
  5
B7
330
1F
100
AcDbEntity
  8
0
  6
CONTINUOUS
 62
     7
100
AcDbLine
 10
-157.9523985781
 20
65.65414766804997
 30
0.0
 11
-157.9523985781
 21
63.95414666074998
 31
0.0
  0
LINE
  5
B8
330
1F
100
AcDbEntity
  8
0
  6
CONTINUOUS
 62
     7
100
AcDbLine
 10
-131.3523987262
 20
-39.54585345855003
 30
0.0
 11
-131.3523987262
 21
-41.54585378635002
 31
0.0
  0
LINE
  5
B9
330
1F
100
AcDbEntity
  8
0
  6
CONTINUOUS
 62
     7
100
AcDbLine
 10
-131.3523987262
 20
-41.54585378635002
 30
0.0
 11
-132.5523985504
 21
-41.54585378635002
 31
0.0
  0
LINE
  5
BA
330
1F
100
AcDbEntity
  8
0
  6
CONTINUOUS
 62
     7
100
AcDbLine
 10
-132.5523985504
 20
-41.54585378635002
 30
0.0
 11
-132.5523985504
 21
-39.54585345855003
 31
0.0
  0
LINE
  5
BB
330
1F
100
AcDbEntity
  8
0
  6
CONTINUOUS
 62
     7
100
AcDbLine
 10
-132.5523985504
 20
-37.34585347045004
 30
0.0
 11
-132.5523985504
 21
-39.54585345855003
 31
0.0
  0
LINE
  5
BC
330
1F
100
AcDbEntity
  8
0
  6
CONTINUOUS
 62
     7
100
AcDbLine
 10
-162.5523988111
 20
-39.54585345855003
 30
0.0
 11
-162.5523988111
 21
-37.34585347045004
 31
0.0
  0
LINE
  5
BD
330
1F
100
AcDbEntity
  8
0
  6
CONTINUOUS
 62
     7
100
AcDbLine
 10
-131.3523987262
 20
-39.54585345855003
 30
0.0
 11
-131.3523987262
 21
-37.34585347045004
 31
0.0
  0
LINE
  5
BE
330
1F
100
AcDbEntity
  8
0
  6
CONTINUOUS
 62
     7
100
AcDbLine
 10
-163.7523986353
 20
-37.34585347045004
 30
0.0
 11
-163.7523986353
 21
-39.54585345855003
 31
0.0
  0
LINE
  5
BF
330
1F
100
AcDbEntity
  8
0
  6
CONTINUOUS
 62
     7
100
AcDbLine
 10
-162.5523988111
 20
-41.54585378635002
 30
0.0
 11
-163.7523986353
 21
-41.54585378635002
 31
0.0
  0
LINE
  5
C0
330
1F
100
AcDbEntity
  8
0
  6
CONTINUOUS
 62
     7
100
AcDbLine
 10
-162.5523988111
 20
-39.54585345855003
 30
0.0
 11
-162.5523988111
 21
-41.54585378635002
 31
0.0
  0
LINE
  5
C1
330
1F
100
AcDbEntity
  8
0
  6
CONTINUOUS
 62
     7
100
AcDbLine
 10
-163.7523986353
 20
-41.54585378635002
 30
0.0
 11
-163.7523986353
 21
-39.54585345855003
 31
0.0
  0
LINE
  5
C2
330
1F
100
AcDbEntity
  8
0
  6
CONTINUOUS
 62
     7
100
AcDbLine
 10
-152.9523983552
 20
60.85414633885
 30
0.0
 11
-152.9523983552
 21
58.65414635074995
 31
0.0
  0
LINE
  5
C3
330
1F
100
AcDbEntity
  8
0
  6
CONTINUOUS
 62
     7
100
AcDbLine
 10
-182.9523986159
 20
58.65414635074995
 30
0.0
 11
-182.9523986159
 21
60.85414633885
 31
0.0
  0
LINE
  5
C4
330
1F
100
AcDbEntity
  8
0
  6
CONTINUOUS
 62
     7
100
AcDbLine
 10
-184.1523984401
 20
60.85414633885
 30
0.0
 11
-184.1523984401
 21
58.65414635074995
 31
0.0
  0
LINE
  5
C5
330
1F
100
AcDbEntity
  8
0
  6
CONTINUOUS
 62
     7
100
AcDbLine
 10
-151.752398531
 20
58.65414635074995
 30
0.0
 11
-151.752398531
 21
60.85414633885
 31
0.0
  0
LINE
  5
C6
330
1F
100
AcDbEntity
  8
0
  6
CONTINUOUS
 62
     7
100
AcDbLine
 10
-184.1523984401
 20
62.85414666664997
 30
0.0
 11
-182.9523986159
 21
62.85414666664997
 31
0.0
  0
LINE
  5
C7
330
1F
100
AcDbEntity
  8
0
  6
CONTINUOUS
 62
     7
100
AcDbLine
 10
-182.9523986159
 20
62.85414666664997
 30
0.0
 11
-182.9523986159
 21
60.85414633885
 31
0.0
  0
LINE
  5
C8
330
1F
100
AcDbEntity
  8
0
  6
CONTINUOUS
 62
     7
100
AcDbLine
 10
-184.1523984401
 20
60.85414633885
 30
0.0
 11
-184.1523984401
 21
62.85414666664997
 31
0.0
  0
LINE
  5
C9
330
1F
100
AcDbEntity
  8
0
  6
CONTINUOUS
 62
     7
100
AcDbLine
 10
-152.9523983552
 20
62.85414666664997
 30
0.0
 11
-151.752398531
 21
62.85414666664997
 31
0.0
  0
LINE
  5
CA
330
1F
100
AcDbEntity
  8
0
  6
CONTINUOUS
 62
     7
100
AcDbLine
 10
-152.9523983552
 20
60.85414633885
 30
0.0
 11
-152.9523983552
 21
62.85414666664997
 31
0.0
  0
LINE
  5
CB
330
1F
100
AcDbEntity
  8
0
  6
CONTINUOUS
 62
     7
100
AcDbLine
 10
-151.752398531
 20
62.85414666664997
 30
0.0
 11
-151.752398531
 21
60.85414633885
 31
0.0
  0
LINE
  5
CC
330
1F
100
AcDbEntity
  8
0
  6
CONTINUOUS
 62
     7
100
AcDbLine
 10
-111.7523985831
 20
58.65414644014999
 30
0.0
 11
-203.7523985831
 21
58.65414644014999
 31
0.0
  0
LINE
  5
CD
330
1F
100
AcDbEntity
  8
0
  6
CONTINUOUS
 62
     7
100
AcDbLine
 10
-109.7523986726
 20
-35.34585364925002
 30
0.0
 11
-109.7523986726
 21
56.65414652954996
 31
0.0
  0
LINE
  5
CE
330
1F
100
AcDbEntity
  8
0
  6
CONTINUOUS
 62
     7
100
AcDbLine
 10
-203.7523985831
 20
-37.34585355985001
 30
0.0
 11
-111.7523985831
 21
-37.34585355985001
 31
0.0
  0
LINE
  5
CF
330
1F
100
AcDbEntity
  8
0
  6
CONTINUOUS
 62
     7
100
AcDbLine
 10
-205.7523985831
 20
56.65414644014999
 30
0.0
 11
-205.7523985831
 21
-35.34585355985001
 31
0.0
  0
LINE
  5
D0
330
1F
100
AcDbEntity
  8
0
  6
CONTINUOUS
 62
     7
100
AcDbLine
 10
9.564797127500015
 20
57.56778235504999
 30
0.0
 11
10.54382111349997
 21
57.56778209875
 31
0.0
  0
LINE
  5
D1
330
1F
100
AcDbEntity
  8
0
  6
CONTINUOUS
 62
     7
100
AcDbLine
 10
10.54381428210002
 20
64.56778306364998
 30
0.0
 11
9.564797127500015
 21
64.56778260475
 31
0.0
  0
LINE
  5
D2
330
1F
100
AcDbEntity
  8
0
  6
CONTINUOUS
 62
     7
100
AcDbLine
 10
9.564793979099989
 20
63.06778366374999
 30
0.0
 11
9.464792286299996
 21
63.06778366374999
 31
0.0
  0
LINE
  5
D3
330
1F
100
AcDbEntity
  8
0
  6
CONTINUOUS
 62
     7
100
AcDbLine
 10
7.264792298200007
 20
63.06778343725
 30
0.0
 11
5.264793639300024
 21
63.06778343725
 31
0.0
  0
LINE
  5
D4
330
1F
100
AcDbEntity
  8
0
  6
CONTINUOUS
 62
     7
100
AcDbLine
 10
9.464792286299996
 20
59.06778300815
 30
0.0
 11
9.564793979099989
 21
59.06778300815
 31
0.0
  0
LINE
  5
D5
330
1F
100
AcDbEntity
  8
0
  6
CONTINUOUS
 62
     7
100
AcDbLine
 10
9.564797171999999
 20
-42.83221705565003
 30
0.0
 11
10.54382115800001
 21
-42.83221751465004
 31
0.0
  0
LINE
  5
D6
330
1F
100
AcDbEntity
  8
0
  6
CONTINUOUS
 62
     7
100
AcDbLine
 10
10.54381763369997
 20
-35.83221656005003
 30
0.0
 11
9.564797171999999
 21
-35.83221681635001
 31
0.0
  0
LINE
  5
D7
330
1F
100
AcDbEntity
  8
0
  6
CONTINUOUS
 62
     7
100
AcDbLine
 10
9.564793979099989
 20
-37.33221613355002
 30
0.0
 11
9.464792286299996
 21
-37.33221613355002
 31
0.0
  0
LINE
  5
D8
330
1F
100
AcDbEntity
  8
0
  6
CONTINUOUS
 62
     7
100
AcDbLine
 10
5.264793752599985
 20
-41.33221667605002
 30
0.0
 11
7.264792411399981
 21
-41.33221667605002
 31
0.0
  0
LINE
  5
D9
330
1F
100
AcDbEntity
  8
0
  6
CONTINUOUS
 62
     7
100
AcDbLine
 10
9.464792286299996
 20
-41.33221678925003
 30
0.0
 11
9.564793979099989
 21
-41.33221678925003
 31
0.0
  0
LINE
  5
DA
330
1F
100
AcDbEntity
  8
0
  6
CONTINUOUS
 62
     7
100
AcDbLine
 10
9.464793183300003
 20
-35.83221748965002
 30
0.0
 11
8.46479488220001
 21
-35.83221748965002
 31
0.0
  0
LINE
  5
DB
330
1F
100
AcDbEntity
  8
0
  6
CONTINUOUS
 62
     7
100
AcDbLine
 10
8.464794882100023
 20
-42.83221677445002
 30
0.0
 11
9.464793183300003
 21
-42.83221677445002
 31
0.0
  0
LINE
  5
DC
330
1F
100
AcDbEntity
  8
0
  6
CONTINUOUS
 62
     7
100
AcDbLine
 10
9.464793070099972
 20
64.56778353565
 30
0.0
 11
8.464794768800004
 21
64.56778353565
 31
0.0
  0
LINE
  5
DD
330
1F
100
AcDbEntity
  8
0
  6
CONTINUOUS
 62
     7
100
AcDbLine
 10
8.464794768800004
 20
57.56778425084997
 30
0.0
 11
9.464793070099972
 21
57.56778425084997
 31
0.0
  0
LINE
  5
DE
330
1F
100
AcDbEntity
  8
0
  6
CONTINUOUS
 62
     7
100
AcDbLine
 10
9.564797127500015
 20
61.06778199744997
 30
0.0
 11
9.564797127500015
 21
64.56778260475
 31
0.0
  0
LINE
  5
DF
330
1F
100
AcDbEntity
  8
0
  6
CONTINUOUS
 62
     7
100
AcDbLine
 10
9.564797127500015
 20
57.56778235504999
 30
0.0
 11
9.564797127500015
 21
61.06778199744997
 31
0.0
  0
LINE
  5
E0
330
1F
100
AcDbEntity
  8
0
  6
CONTINUOUS
 62
     7
100
AcDbLine
 10
12.0214264558
 20
62.66778323154995
 30
0.0
 11
12.01239227309998
 21
62.66778413754997
 31
0.0
  0
LINE
  5
E1
330
1F
100
AcDbEntity
  8
0
  6
CONTINUOUS
 62
     7
100
AcDbLine
 10
12.07546139009997
 20
61.46778265644997
 30
0.0
 11
12.0123922253
 21
61.46778265644997
 31
0.0
  0
LINE
  5
E2
330
1F
100
AcDbEntity
  8
0
  6
CONTINUOUS
 62
     7
100
AcDbLine
 10
12.01239218350003
 20
60.66778343724997
 30
0.0
 11
12.07546455160002
 21
60.66778401544997
 31
0.0
  0
LINE
  5
E3
330
1F
100
AcDbEntity
  8
0
  6
CONTINUOUS
 62
     7
100
AcDbLine
 10
12.012395459
 20
59.46778263054995
 30
0.0
 11
12.0214328449
 21
59.46778263054995
 31
0.0
  0
LINE
  5
E4
330
1F
100
AcDbEntity
  8
0
  6
CONTINUOUS
 62
     7
100
AcDbLine
 10
9.564797171999999
 20
-42.83221705565003
 30
0.0
 11
9.564797171999999
 21
-35.83221681635001
 31
0.0
  0
LINE
  5
E5
330
1F
100
AcDbEntity
  8
0
  6
CONTINUOUS
 62
     7
100
AcDbLine
 10
12.01239218350003
 20
-39.73221656275004
 30
0.0
 11
12.07546455160002
 21
-39.73221578185002
 31
0.0
  0
LINE
  5
E6
330
1F
100
AcDbEntity
  8
0
  6
CONTINUOUS
 62
     7
100
AcDbLine
 10
12.01239546210002
 20
-40.93221715565002
 30
0.0
 11
12.02143284810001
 21
-40.93221715565002
 31
0.0
  0
LINE
  5
E7
330
1F
100
AcDbEntity
  8
0
  6
CONTINUOUS
 62
     7
100
AcDbLine
 10
12.02142957870001
 20
-37.73221656105002
 30
0.0
 11
12.01239539599999
 21
-37.73221545235003
 31
0.0
  0
LINE
  5
E8
330
1F
100
AcDbEntity
  8
0
  6
CONTINUOUS
 62
     7
100
AcDbLine
 10
12.07546455160002
 20
-38.93221714085001
 30
0.0
 11
12.01239218350003
 21
-38.93221656275003
 31
0.0
  0
LINE
  5
E9
330
1F
100
AcDbEntity
  8
0
  6
CONTINUOUS
 62
     7
100
AcDbLine
 10
8.46479488220001
 20
-35.83221748965002
 30
0.0
 11
8.46479488220001
 21
-36.33221850295001
 31
0.0
  0
LINE
  5
EA
330
1F
100
AcDbEntity
  8
0
  6
CONTINUOUS
 62
     7
100
AcDbLine
 10
9.464793183300003
 20
-39.33221713205003
 30
0.0
 11
9.464793183300003
 21
-42.83221677445002
 31
0.0
  0
LINE
  5
EB
330
1F
100
AcDbEntity
  8
0
  6
CONTINUOUS
 62
     7
100
AcDbLine
 10
9.464793183300003
 20
-35.83221748965002
 30
0.0
 11
9.464793183300003
 21
-39.33221713205003
 31
0.0
  0
LINE
  5
EC
330
1F
100
AcDbEntity
  8
0
  6
CONTINUOUS
 62
     7
100
AcDbLine
 10
8.464794768800004
 20
58.06778526414996
 30
0.0
 11
8.464794768800004
 21
57.56778425084997
 31
0.0
  0
LINE
  5
ED
330
1F
100
AcDbEntity
  8
0
  6
CONTINUOUS
 62
     7
100
AcDbLine
 10
9.464793070099972
 20
64.56778353565
 30
0.0
 11
9.464793070099972
 21
57.56778425084997
 31
0.0
  0
LINE
  5
EE
330
1F
100
AcDbEntity
  8
0
  6
CONTINUOUS
 62
     7
100
AcDbLine
 10
-2.735205615600023
 20
64.26778365784998
 30
0.0
 11
-2.735205615600023
 21
63.06778366374999
 31
0.0
  0
LINE
  5
EF
330
1F
100
AcDbEntity
  8
0
  6
CONTINUOUS
 62
     7
100
AcDbLine
 10
-23.83520702530001
 20
64.26778365784998
 30
0.0
 11
-2.735205615600023
 21
64.26778365784998
 31
0.0
  0
LINE
  5
F0
330
1F
100
AcDbEntity
  8
0
  6
CONTINUOUS
 62
     7
100
AcDbLine
 10
-23.83520702530001
 20
63.06778366374999
 30
0.0
 11
-23.83520702530001
 21
64.26778365784998
 31
0.0
  0
LINE
  5
F1
330
1F
100
AcDbEntity
  8
0
  6
CONTINUOUS
 62
     7
100
AcDbLine
 10
-25.43520648729998
 20
64.26778365784998
 30
0.0
 11
-25.43520648729998
 21
63.06778366374999
 31
0.0
  0
LINE
  5
F2
330
1F
100
AcDbEntity
  8
0
  6
CONTINUOUS
 62
     7
100
AcDbLine
 10
-2.735205615600023
 20
65.86778434774999
 30
0.0
 11
-23.83520711839998
 21
65.86778311984995
 31
0.0
  0
LINE
  5
F3
330
1F
100
AcDbEntity
  8
0
  6
CONTINUOUS
 62
     7
100
AcDbLine
 10
-1.135203014000012
 20
63.06778366374999
 30
0.0
 11
-1.135204925700009
 21
64.26778620674997
 31
0.0
  0
LINE
  5
F4
330
1F
100
AcDbEntity
  8
0
  6
CONTINUOUS
 62
     7
100
AcDbLine
 10
-25.43520636070002
 20
-42.53221656275002
 30
0.0
 11
-25.43520615260002
 21
-41.33221667595004
 31
0.0
  0
LINE
  5
F5
330
1F
100
AcDbEntity
  8
0
  6
CONTINUOUS
 62
     7
100
AcDbLine
 10
-23.83520708570001
 20
-41.33221667595004
 30
0.0
 11
-23.8352063607
 21
-42.53221656275002
 31
0.0
  0
LINE
  5
F6
330
1F
100
AcDbEntity
  8
0
  6
CONTINUOUS
 62
     7
100
AcDbLine
 10
-23.8352063607
 20
-42.53221656275002
 30
0.0
 11
-2.735205615600023
 21
-42.53221678325002
 31
0.0
  0
LINE
  5
F7
330
1F
100
AcDbEntity
  8
0
  6
CONTINUOUS
 62
     7
100
AcDbLine
 10
-2.735205615600023
 20
-42.53221678325002
 30
0.0
 11
-2.735205615600023
 21
-41.33221667595004
 31
0.0
  0
LINE
  5
F8
330
1F
100
AcDbEntity
  8
0
  6
CONTINUOUS
 62
     7
100
AcDbLine
 10
-2.735206360699976
 20
-44.13221656275002
 30
0.0
 11
-23.8352063607
 21
-44.13221656275002
 31
0.0
  0
LINE
  5
F9
330
1F
100
AcDbEntity
  8
0
  6
CONTINUOUS
 62
     7
100
AcDbLine
 10
-1.135203924400003
 20
-41.33221667595004
 30
0.0
 11
-1.135205836099999
 21
-42.53221933215002
 31
0.0
  0
LINE
  5
FA
330
1F
100
AcDbEntity
  8
0
  6
CONTINUOUS
 62
     7
100
AcDbLine
 10
-42.7352065842
 20
56.86778302004996
 30
0.0
 11
-42.7352065842
 21
58.06778470684998
 31
0.0
  0
LINE
  5
FB
330
1F
100
AcDbEntity
  8
0
  6
CONTINUOUS
 62
     7
100
AcDbLine
 10
7.264793081999983
 20
58.06778526414996
 30
0.0
 11
7.264793081999983
 21
56.86778357735
 31
0.0
  0
LINE
  5
FC
330
1F
100
AcDbEntity
  8
0
  6
CONTINUOUS
 62
     7
100
AcDbLine
 10
-40.73520636069998
 20
63.06778343725
 30
0.0
 11
5.264793639300024
 21
63.06778343725
 31
0.0
  0
LINE
  5
FD
330
1F
100
AcDbEntity
  8
0
  6
CONTINUOUS
 62
     7
100
AcDbLine
 10
-42.7352065842
 20
58.06778470684998
 30
0.0
 11
-42.7352063607
 21
61.06778358634995
 31
0.0
  0
LINE
  5
FE
330
1F
100
AcDbEntity
  8
0
  6
CONTINUOUS
 62
     7
100
AcDbLine
 10
7.264793081999983
 20
58.06778526414996
 30
0.0
 11
7.264793081999983
 21
61.06778389324995
 31
0.0
  0
LINE
  5
FF
330
1F
100
AcDbEntity
  8
0
  6
CONTINUOUS
 62
     7
100
AcDbLine
 10
7.264793081999983
 20
62.06778219454998
 30
0.0
 11
7.264793081999983
 21
61.06778389324995
 31
0.0
  0
LINE
  5
100
330
1F
100
AcDbEntity
  8
0
  6
CONTINUOUS
 62
     7
100
AcDbLine
 10
8.464794768800004
 20
58.06778526414996
 30
0.0
 11
8.464794768800004
 21
62.06778219454998
 31
0.0
  0
LINE
  5
101
330
1F
100
AcDbEntity
  8
0
  6
CONTINUOUS
 62
     7
100
AcDbLine
 10
7.264793081999983
 20
62.06778219454998
 30
0.0
 11
7.264793081999983
 21
65.06778454894999
 31
0.0
  0
LINE
  5
102
330
1F
100
AcDbEntity
  8
0
  6
CONTINUOUS
 62
     7
100
AcDbLine
 10
7.264793081999983
 20
65.06778454894999
 30
0.0
 11
8.464794768800004
 21
65.06778454894999
 31
0.0
  0
LINE
  5
103
330
1F
100
AcDbEntity
  8
0
  6
CONTINUOUS
 62
     7
100
AcDbLine
 10
8.464794768800004
 20
65.06778454894999
 30
0.0
 11
8.464794768800004
 21
62.06778219454998
 31
0.0
  0
LINE
  5
104
330
1F
100
AcDbEntity
  8
0
  6
CONTINUOUS
 62
     7
100
AcDbLine
 10
7.264793195300001
 20
-35.13221681605003
 30
0.0
 11
7.264793195300001
 21
-36.33221850295001
 31
0.0
  0
LINE
  5
105
330
1F
100
AcDbEntity
  8
0
  6
CONTINUOUS
 62
     7
100
AcDbLine
 10
-42.7352065842
 20
-36.33221783225002
 30
0.0
 11
-42.7352065842
 21
-35.13221614545003
 31
0.0
  0
LINE
  5
106
330
1F
100
AcDbEntity
  8
0
  6
CONTINUOUS
 62
     7
100
AcDbLine
 10
-40.7352061432
 20
-41.33221667605002
 30
0.0
 11
5.264793752599985
 21
-41.33221667605002
 31
0.0
  0
LINE
  5
107
330
1F
100
AcDbEntity
  8
0
  6
CONTINUOUS
 62
     7
100
AcDbLine
 10
-42.7352063607
 20
-39.33221671175002
 30
0.0
 11
-42.7352065842
 21
-36.33221783225002
 31
0.0
  0
LINE
  5
108
330
1F
100
AcDbEntity
  8
0
  6
CONTINUOUS
 62
     7
100
AcDbLine
 10
7.264793195300001
 20
-39.33221713205003
 30
0.0
 11
7.264793195300001
 21
-36.33221850295001
 31
0.0
  0
LINE
  5
109
330
1F
100
AcDbEntity
  8
0
  6
CONTINUOUS
 62
     7
100
AcDbLine
 10
7.264793195300001
 20
-40.33221543335003
 30
0.0
 11
7.264793195300001
 21
-39.33221713205003
 31
0.0
  0
LINE
  5
10A
330
1F
100
AcDbEntity
  8
0
  6
CONTINUOUS
 62
     7
100
AcDbLine
 10
8.46479488220001
 20
-36.33221850295001
 30
0.0
 11
8.46479488220001
 21
-40.33221543335003
 31
0.0
  0
LINE
  5
10B
330
1F
100
AcDbEntity
  8
0
  6
CONTINUOUS
 62
     7
100
AcDbLine
 10
8.46479488220001
 20
-43.33221778765002
 30
0.0
 11
7.264793195300001
 21
-43.33221778765002
 31
0.0
  0
LINE
  5
10C
330
1F
100
AcDbEntity
  8
0
  6
CONTINUOUS
 62
     7
100
AcDbLine
 10
7.264793195300001
 20
-43.33221778765002
 30
0.0
 11
7.264793195300001
 21
-40.33221543335003
 31
0.0
  0
LINE
  5
10D
330
1F
100
AcDbEntity
  8
0
  6
CONTINUOUS
 62
     7
100
AcDbLine
 10
8.46479488220001
 20
-40.33221543335003
 30
0.0
 11
8.46479488220001
 21
-43.33221778765002
 31
0.0
  0
LINE
  5
10E
330
1F
100
AcDbEntity
  8
0
  6
CONTINUOUS
 62
     7
100
AcDbLine
 10
-46.03520656629999
 20
-36.78221478055002
 30
0.0
 11
-48.0352064285
 21
-36.78221478055002
 31
0.0
  0
LINE
  5
10F
330
1F
100
AcDbEntity
  8
0
  6
CONTINUOUS
 62
     7
100
AcDbLine
 10
-46.03520656629999
 20
-34.78221817795003
 30
0.0
 11
-46.03520656629999
 21
-36.78221478055002
 31
0.0
  0
LINE
  5
110
330
1F
100
AcDbEntity
  8
0
  6
CONTINUOUS
 62
     7
100
AcDbLine
 10
-48.0352064285
 20
58.51778165514997
 30
0.0
 11
-46.03520656629999
 21
58.51778165514997
 31
0.0
  0
LINE
  5
111
330
1F
100
AcDbEntity
  8
0
  6
CONTINUOUS
 62
     7
100
AcDbLine
 10
-46.03520656629999
 20
58.51778165514997
 30
0.0
 11
-46.03520656629999
 21
56.51778505254998
 31
0.0
  0
LINE
  5
112
330
1F
100
AcDbEntity
  8
0
  6
CONTINUOUS
 62
     7
100
AcDbLine
 10
-46.03520656629999
 20
-34.78221817795003
 30
0.0
 11
-46.03520656629999
 21
56.51778505254998
 31
0.0
  0
LINE
  5
113
330
1F
100
AcDbEntity
  8
0
  6
CONTINUOUS
 62
     7
100
AcDbLine
 10
42.96479481950001
 20
49.66778458174997
 30
0.0
 11
42.96479481950001
 21
-27.93221770715002
 31
0.0
  0
LINE
  5
114
330
1F
100
AcDbEntity
  8
0
  6
CONTINUOUS
 62
     7
100
AcDbLine
 10
34.3647908021
 20
-27.93221770715002
 30
0.0
 11
42.96479481950001
 21
-27.93221770715002
 31
0.0
  0
LINE
  5
115
330
1F
100
AcDbEntity
  8
0
  6
CONTINUOUS
 62
     7
100
AcDbLine
 10
34.3647908021
 20
49.66778458174997
 30
0.0
 11
34.3647908021
 21
-27.93221770715002
 31
0.0
  0
LINE
  5
116
330
1F
100
AcDbEntity
  8
0
  6
CONTINUOUS
 62
     7
100
AcDbLine
 10
34.3647908021
 20
49.66778458174997
 30
0.0
 11
42.96479481950001
 21
49.66778458174997
 31
0.0
  0
LINE
  5
117
330
1F
100
AcDbEntity
  8
0
  6
CONTINUOUS
 62
     7
100
AcDbLine
 10
34.3647908021
 20
-27.93221770715002
 30
0.0
 11
33.36479622619999
 21
-27.93221770715002
 31
0.0
  0
LINE
  5
118
330
1F
100
AcDbEntity
  8
0
  6
CONTINUOUS
 62
     7
100
AcDbLine
 10
33.36479622619999
 20
49.66778458174997
 30
0.0
 11
33.36479622619999
 21
-27.93221770715002
 31
0.0
  0
LINE
  5
119
330
1F
100
AcDbEntity
  8
0
  6
CONTINUOUS
 62
     7
100
AcDbLine
 10
33.36479622619999
 20
49.66778458174997
 30
0.0
 11
34.3647908021
 21
49.66778458174997
 31
0.0
  0
LINE
  5
11A
330
1F
100
AcDbEntity
  8
0
  6
CONTINUOUS
 62
     7
100
AcDbLine
 10
33.36479622619999
 20
-27.93221770715002
 30
0.0
 11
28.36479354390002
 21
-27.93221770715002
 31
0.0
  0
LINE
  5
11B
330
1F
100
AcDbEntity
  8
0
  6
CONTINUOUS
 62
     7
100
AcDbLine
 10
28.36479354390002
 20
49.66778458174997
 30
0.0
 11
33.36479622619999
 21
49.66778458174997
 31
0.0
  0
LINE
  5
11C
330
1F
100
AcDbEntity
  8
0
  6
CONTINUOUS
 62
     7
100
AcDbLine
 10
35.36479282869999
 20
49.66778499894997
 30
0.0
 11
33.10940460220002
 21
55.62201091714996
 31
0.0
  0
LINE
  5
11D
330
1F
100
AcDbEntity
  8
0
  6
CONTINUOUS
 62
     7
100
AcDbLine
 10
28.36479354390002
 20
56.26778496314995
 30
0.0
 11
32.1742454459
 21
56.26778385604996
 31
0.0
  0
LINE
  5
11E
330
1F
100
AcDbEntity
  8
0
  6
CONTINUOUS
 62
     7
100
AcDbLine
 10
32.17424515530001
 20
-34.53221656275002
 30
0.0
 11
28.36479354390002
 21
-34.53221767135003
 31
0.0
  0
LINE
  5
11F
330
1F
100
AcDbEntity
  8
0
  6
CONTINUOUS
 62
     7
100
AcDbLine
 10
35.36479282869999
 20
-27.93221770715002
 30
0.0
 11
33.1094046202
 21
-33.88644357345004
 31
0.0
  0
LINE
  5
120
330
1F
100
AcDbEntity
  8
0
  6
CONTINUOUS
 62
     7
100
AcDbLine
 10
42.36479236899999
 20
-27.93221807725001
 30
0.0
 11
40.10940476479999
 21
-33.88644269355004
 31
0.0
  0
LINE
  5
121
330
1F
100
AcDbEntity
  8
0
  6
CONTINUOUS
 62
     7
100
AcDbLine
 10
39.17424544630001
 20
-34.53221656275002
 30
0.0
 11
35.36479282869999
 21
-34.53221767135003
 31
0.0
  0
LINE
  5
122
330
1F
100
AcDbEntity
  8
0
  6
CONTINUOUS
 62
     7
100
AcDbLine
 10
39.17424488559999
 20
56.26778454594995
 30
0.0
 11
35.36479282869999
 21
56.26778454594995
 31
0.0
  0
LINE
  5
123
330
1F
100
AcDbEntity
  8
0
  6
CONTINUOUS
 62
     7
100
AcDbLine
 10
42.36479263180001
 20
49.66778533234998
 30
0.0
 11
40.10940517580002
 21
55.62201110054997
 31
0.0
  0
LINE
  5
124
330
1F
100
AcDbEntity
  8
0
  6
CONTINUOUS
 62
     7
100
AcDbLine
 10
42.96479481950001
 20
11.37778342074998
 30
0.0
 11
48.9647920777
 21
11.37778342074998
 31
0.0
  0
LINE
  5
125
330
1F
100
AcDbEntity
  8
0
  6
CONTINUOUS
 62
     7
100
AcDbLine
 10
42.96479481950001
 20
10.35778345384998
 30
0.0
 11
48.9647920777
 21
10.35778345384998
 31
0.0
  0
LINE
  5
126
330
1F
100
AcDbEntity
  8
0
  6
CONTINUOUS
 62
     7
100
AcDbLine
 10
42.96479481950001
 20
3.757783314949961
 30
0.0
 11
48.9647920777
 21
3.757783314949961
 31
0.0
  0
LINE
  5
127
330
1F
100
AcDbEntity
  8
0
  6
CONTINUOUS
 62
     7
100
AcDbLine
 10
42.96479481950001
 20
2.737783464449961
 30
0.0
 11
48.9647920777
 21
2.737783464449961
 31
0.0
  0
LINE
  5
128
330
1F
100
AcDbEntity
  8
0
  6
CONTINUOUS
 62
     7
100
AcDbLine
 10
42.96479481950001
 20
17.97778355964996
 30
0.0
 11
48.9647920777
 21
17.97778355964996
 31
0.0
  0
LINE
  5
129
330
1F
100
AcDbEntity
  8
0
  6
CONTINUOUS
 62
     7
100
AcDbLine
 10
42.96479481950001
 20
18.99778341014996
 30
0.0
 11
48.9647920777
 21
18.99778341014996
 31
0.0
  0
LINE
  5
12A
330
1F
100
AcDbEntity
  8
0
  6
CONTINUOUS
 62
     7
100
AcDbLine
 10
42.96479481950001
 20
-3.862216499850035
 30
0.0
 11
48.9647920777
 21
-3.862216499850035
 31
0.0
  0
LINE
  5
12B
330
1F
100
AcDbEntity
  8
0
  6
CONTINUOUS
 62
     7
100
AcDbLine
 10
42.96479481950001
 20
-4.882216816050033
 30
0.0
 11
48.9647920777
 21
-4.882216816050033
 31
0.0
  0
LINE
  5
12C
330
1F
100
AcDbEntity
  8
0
  6
CONTINUOUS
 62
     7
100
AcDbLine
 10
42.96479481950001
 20
25.59778337444996
 30
0.0
 11
48.9647920777
 21
25.59778337444996
 31
0.0
  0
LINE
  5
12D
330
1F
100
AcDbEntity
  8
0
  6
CONTINUOUS
 62
     7
100
AcDbLine
 10
42.96479481950001
 20
26.61778369064999
 30
0.0
 11
48.9647920777
 21
26.61778369064999
 31
0.0
  0
LINE
  5
12E
330
1F
100
AcDbEntity
  8
0
  6
CONTINUOUS
 62
     7
100
AcDbLine
 10
42.96479481950001
 20
-11.48221678025001
 30
0.0
 11
48.9647920777
 21
-11.48221678025001
 31
0.0
  0
LINE
  5
12F
330
1F
100
AcDbEntity
  8
0
  6
CONTINUOUS
 62
     7
100
AcDbLine
 10
42.96479481950001
 20
-12.50221616515003
 30
0.0
 11
48.9647920777
 21
-12.50221616515003
 31
0.0
  0
LINE
  5
130
330
1F
100
AcDbEntity
  8
0
  6
CONTINUOUS
 62
     7
100
AcDbLine
 10
42.96479481950001
 20
33.21778365484997
 30
0.0
 11
48.9647920777
 21
33.21778365484997
 31
0.0
  0
LINE
  5
131
330
1F
100
AcDbEntity
  8
0
  6
CONTINUOUS
 62
     7
100
AcDbLine
 10
42.96479481950001
 20
34.23778303974998
 30
0.0
 11
48.9647920777
 21
34.23778303974998
 31
0.0
  0
LINE
  5
132
330
1F
100
AcDbEntity
  8
0
  6
CONTINUOUS
 62
     7
100
AcDbLine
 10
42.96479481950001
 20
-19.10221612935004
 30
0.0
 11
48.9647920777
 21
-19.10221612935004
 31
0.0
  0
LINE
  5
133
330
1F
100
AcDbEntity
  8
0
  6
CONTINUOUS
 62
     7
100
AcDbLine
 10
42.96479481950001
 20
-20.12221737695003
 30
0.0
 11
48.9647920777
 21
-20.12221737695003
 31
0.0
  0
LINE
  5
134
330
1F
100
AcDbEntity
  8
0
  6
CONTINUOUS
 62
     7
100
AcDbLine
 10
42.96479481950001
 20
40.83778300394997
 30
0.0
 11
48.9647920777
 21
40.83778300394997
 31
0.0
  0
LINE
  5
135
330
1F
100
AcDbEntity
  8
0
  6
CONTINUOUS
 62
     7
100
AcDbLine
 10
42.96479481950001
 20
41.85778425144997
 30
0.0
 11
48.9647920777
 21
41.85778425144997
 31
0.0
  0
LINE
  5
136
330
1F
100
AcDbEntity
  8
0
  6
CONTINUOUS
 62
     7
100
AcDbLine
 10
42.96479481950001
 20
49.66778458174997
 30
0.0
 11
48.9647920777
 21
49.66778458174997
 31
0.0
  0
LINE
  5
137
330
1F
100
AcDbEntity
  8
0
  6
CONTINUOUS
 62
     7
100
AcDbLine
 10
42.96479481950001
 20
48.45778421575
 30
0.0
 11
48.9647920777
 21
48.45778421575
 31
0.0
  0
LINE
  5
138
330
1F
100
AcDbEntity
  8
0
  6
CONTINUOUS
 62
     7
100
AcDbLine
 10
48.9647920777
 20
-27.93221770715002
 30
0.0
 11
42.96479481950001
 21
-27.93221770715002
 31
0.0
  0
LINE
  5
139
330
1F
100
AcDbEntity
  8
0
  6
CONTINUOUS
 62
     7
100
AcDbLine
 10
48.9647920777
 20
-26.72221734115001
 30
0.0
 11
42.96479481950001
 21
-26.72221734115001
 31
0.0
  0
LINE
  5
13A
330
1F
100
AcDbEntity
  8
0
  6
CONTINUOUS
 62
     7
100
AcDbLine
 10
49.9647941042
 20
49.66778458174997
 30
0.0
 11
49.9647941042
 21
48.45778421575
 31
0.0
  0
LINE
  5
13B
330
1F
100
AcDbEntity
  8
0
  6
CONTINUOUS
 62
     7
100
AcDbLine
 10
48.9647920777
 20
49.66778458174997
 30
0.0
 11
49.9647941042
 21
49.66778458174997
 31
0.0
  0
LINE
  5
13C
330
1F
100
AcDbEntity
  8
0
  6
CONTINUOUS
 62
     7
100
AcDbLine
 10
48.9647920777
 20
48.45778421575
 30
0.0
 11
49.9647941042
 21
48.45778421575
 31
0.0
  0
LINE
  5
13D
330
1F
100
AcDbEntity
  8
0
  6
CONTINUOUS
 62
     7
100
AcDbLine
 10
49.9647941042
 20
-19.10221612935004
 30
0.0
 11
49.9647941042
 21
-20.12221737695003
 31
0.0
  0
LINE
  5
13E
330
1F
100
AcDbEntity
  8
0
  6
CONTINUOUS
 62
     7
100
AcDbLine
 10
48.9647920777
 20
-19.10221612935004
 30
0.0
 11
49.9647941042
 21
-19.10221612935004
 31
0.0
  0
LINE
  5
13F
330
1F
100
AcDbEntity
  8
0
  6
CONTINUOUS
 62
     7
100
AcDbLine
 10
48.9647920777
 20
-20.12221737695003
 30
0.0
 11
49.9647941042
 21
-20.12221737695003
 31
0.0
  0
LINE
  5
140
330
1F
100
AcDbEntity
  8
0
  6
CONTINUOUS
 62
     7
100
AcDbLine
 10
49.9647941042
 20
-3.862216499850035
 30
0.0
 11
49.9647941042
 21
-4.882216816050033
 31
0.0
  0
LINE
  5
141
330
1F
100
AcDbEntity
  8
0
  6
CONTINUOUS
 62
     7
100
AcDbLine
 10
48.9647920777
 20
-3.862216499850035
 30
0.0
 11
49.9647941042
 21
-3.862216499850035
 31
0.0
  0
LINE
  5
142
330
1F
100
AcDbEntity
  8
0
  6
CONTINUOUS
 62
     7
100
AcDbLine
 10
48.9647920777
 20
-4.882216816050033
 30
0.0
 11
49.9647941042
 21
-4.882216816050033
 31
0.0
  0
LINE
  5
143
330
1F
100
AcDbEntity
  8
0
  6
CONTINUOUS
 62
     7
100
AcDbLine
 10
49.9647941042
 20
18.99778341014996
 30
0.0
 11
49.9647941042
 21
17.97778355964996
 31
0.0
  0
LINE
  5
144
330
1F
100
AcDbEntity
  8
0
  6
CONTINUOUS
 62
     7
100
AcDbLine
 10
48.9647920777
 20
17.97778355964996
 30
0.0
 11
49.9647941042
 21
17.97778355964996
 31
0.0
  0
LINE
  5
145
330
1F
100
AcDbEntity
  8
0
  6
CONTINUOUS
 62
     7
100
AcDbLine
 10
48.9647920777
 20
18.99778341014996
 30
0.0
 11
49.9647941042
 21
18.99778341014996
 31
0.0
  0
LINE
  5
146
330
1F
100
AcDbEntity
  8
0
  6
CONTINUOUS
 62
     7
100
AcDbLine
 10
49.9647941042
 20
34.23778303974998
 30
0.0
 11
49.9647941042
 21
33.21778365484997
 31
0.0
  0
LINE
  5
147
330
1F
100
AcDbEntity
  8
0
  6
CONTINUOUS
 62
     7
100
AcDbLine
 10
48.9647920777
 20
33.21778365484997
 30
0.0
 11
49.9647941042
 21
33.21778365484997
 31
0.0
  0
LINE
  5
148
330
1F
100
AcDbEntity
  8
0
  6
CONTINUOUS
 62
     7
100
AcDbLine
 10
48.9647920777
 20
34.23778303974998
 30
0.0
 11
49.9647941042
 21
34.23778303974998
 31
0.0
  0
LINE
  5
149
330
1F
100
AcDbEntity
  8
0
  6
CONTINUOUS
 62
     7
100
AcDbLine
 10
49.9647941042
 20
11.37778342074998
 30
0.0
 11
49.9647941042
 21
10.35778345384998
 31
0.0
  0
LINE
  5
14A
330
1F
100
AcDbEntity
  8
0
  6
CONTINUOUS
 62
     7
100
AcDbLine
 10
48.9647920777
 20
11.37778342074998
 30
0.0
 11
49.9647941042
 21
11.37778342074998
 31
0.0
  0
LINE
  5
14B
330
1F
100
AcDbEntity
  8
0
  6
CONTINUOUS
 62
     7
100
AcDbLine
 10
48.9647920777
 20
10.35778345384998
 30
0.0
 11
49.9647941042
 21
10.35778345384998
 31
0.0
  0
LINE
  5
14C
330
1F
100
AcDbEntity
  8
0
  6
CONTINUOUS
 62
     7
100
AcDbLine
 10
49.9647941042
 20
3.757783314949961
 30
0.0
 11
49.9647941042
 21
2.737783464449961
 31
0.0
  0
LINE
  5
14D
330
1F
100
AcDbEntity
  8
0
  6
CONTINUOUS
 62
     7
100
AcDbLine
 10
48.9647920777
 20
3.757783314949961
 30
0.0
 11
49.9647941042
 21
3.757783314949961
 31
0.0
  0
LINE
  5
14E
330
1F
100
AcDbEntity
  8
0
  6
CONTINUOUS
 62
     7
100
AcDbLine
 10
48.9647920777
 20
2.737783464449961
 30
0.0
 11
49.9647941042
 21
2.737783464449961
 31
0.0
  0
LINE
  5
14F
330
1F
100
AcDbEntity
  8
0
  6
CONTINUOUS
 62
     7
100
AcDbLine
 10
49.9647941042
 20
26.61778369064999
 30
0.0
 11
49.9647941042
 21
25.59778337444996
 31
0.0
  0
LINE
  5
150
330
1F
100
AcDbEntity
  8
0
  6
CONTINUOUS
 62
     7
100
AcDbLine
 10
48.9647920777
 20
25.59778337444996
 30
0.0
 11
49.9647941042
 21
25.59778337444996
 31
0.0
  0
LINE
  5
151
330
1F
100
AcDbEntity
  8
0
  6
CONTINUOUS
 62
     7
100
AcDbLine
 10
48.9647920777
 20
26.61778369064999
 30
0.0
 11
49.9647941042
 21
26.61778369064999
 31
0.0
  0
LINE
  5
152
330
1F
100
AcDbEntity
  8
0
  6
CONTINUOUS
 62
     7
100
AcDbLine
 10
49.9647941042
 20
41.85778425144997
 30
0.0
 11
49.9647941042
 21
40.83778300394997
 31
0.0
  0
LINE
  5
153
330
1F
100
AcDbEntity
  8
0
  6
CONTINUOUS
 62
     7
100
AcDbLine
 10
49.9647941042
 20
40.83778300394997
 30
0.0
 11
48.9647920777
 21
40.83778300394997
 31
0.0
  0
LINE
  5
154
330
1F
100
AcDbEntity
  8
0
  6
CONTINUOUS
 62
     7
100
AcDbLine
 10
48.9647920777
 20
41.85778425144997
 30
0.0
 11
49.9647941042
 21
41.85778425144997
 31
0.0
  0
LINE
  5
155
330
1F
100
AcDbEntity
  8
0
  6
CONTINUOUS
 62
     7
100
AcDbLine
 10
49.9647941042
 20
-11.48221678025001
 30
0.0
 11
49.9647941042
 21
-12.50221616515003
 31
0.0
  0
LINE
  5
156
330
1F
100
AcDbEntity
  8
0
  6
CONTINUOUS
 62
     7
100
AcDbLine
 10
48.9647920777
 20
-11.48221678025001
 30
0.0
 11
49.9647941042
 21
-11.48221678025001
 31
0.0
  0
LINE
  5
157
330
1F
100
AcDbEntity
  8
0
  6
CONTINUOUS
 62
     7
100
AcDbLine
 10
48.9647920777
 20
-12.50221616515003
 30
0.0
 11
49.9647941042
 21
-12.50221616515003
 31
0.0
  0
LINE
  5
158
330
1F
100
AcDbEntity
  8
0
  6
CONTINUOUS
 62
     7
100
AcDbLine
 10
49.9647941042
 20
-26.72221734115001
 30
0.0
 11
49.9647941042
 21
-27.93221770715002
 31
0.0
  0
LINE
  5
159
330
1F
100
AcDbEntity
  8
0
  6
CONTINUOUS
 62
     7
100
AcDbLine
 10
49.9647941042
 20
-27.93221770715002
 30
0.0
 11
48.9647920777
 21
-27.93221770715002
 31
0.0
  0
LINE
  5
15A
330
1F
100
AcDbEntity
  8
0
  6
CONTINUOUS
 62
     7
100
AcDbLine
 10
48.9647920777
 20
-26.72221734115001
 30
0.0
 11
49.9647941042
 21
-26.72221734115001
 31
0.0
  0
LINE
  5
15B
330
1F
100
AcDbEntity
  8
0
  6
CONTINUOUS
 62
     7
100
AcDbLine
 10
49.9647941042
 20
48.45778421575
 30
0.0
 11
49.9647941042
 21
41.85778425144997
 31
0.0
  0
LINE
  5
15C
330
1F
100
AcDbEntity
  8
0
  6
CONTINUOUS
 62
     7
100
AcDbLine
 10
49.9647941042
 20
-20.12221737695003
 30
0.0
 11
49.9647941042
 21
-26.72221734115001
 31
0.0
  0
LINE
  5
15D
330
1F
100
AcDbEntity
  8
0
  6
CONTINUOUS
 62
     7
100
AcDbLine
 10
49.9647941042
 20
-4.882216816050033
 30
0.0
 11
49.9647941042
 21
-11.48221678025001
 31
0.0
  0
LINE
  5
15E
330
1F
100
AcDbEntity
  8
0
  6
CONTINUOUS
 62
     7
100
AcDbLine
 10
49.9647941042
 20
33.21778365484997
 30
0.0
 11
49.9647941042
 21
26.61778369064999
 31
0.0
  0
LINE
  5
15F
330
1F
100
AcDbEntity
  8
0
  6
CONTINUOUS
 62
     7
100
AcDbLine
 10
49.9647941042
 20
25.59778337444996
 30
0.0
 11
49.9647941042
 21
18.99778341014996
 31
0.0
  0
LINE
  5
160
330
1F
100
AcDbEntity
  8
0
  6
CONTINUOUS
 62
     7
100
AcDbLine
 10
49.9647941042
 20
2.737783464449961
 30
0.0
 11
49.9647941042
 21
-3.862216499850035
 31
0.0
  0
LINE
  5
161
330
1F
100
AcDbEntity
  8
0
  6
CONTINUOUS
 62
     7
100
AcDbLine
 10
49.9647941042
 20
17.97778355964996
 30
0.0
 11
49.9647941042
 21
11.37778342074998
 31
0.0
  0
LINE
  5
162
330
1F
100
AcDbEntity
  8
0
  6
CONTINUOUS
 62
     7
100
AcDbLine
 10
49.9647941042
 20
10.35778345384998
 30
0.0
 11
49.9647941042
 21
3.757783314949961
 31
0.0
  0
LINE
  5
163
330
1F
100
AcDbEntity
  8
0
  6
CONTINUOUS
 62
     7
100
AcDbLine
 10
49.9647941042
 20
40.83778300394997
 30
0.0
 11
49.9647941042
 21
34.23778303974998
 31
0.0
  0
LINE
  5
164
330
1F
100
AcDbEntity
  8
0
  6
CONTINUOUS
 62
     7
100
AcDbLine
 10
49.9647941042
 20
-12.50221616515003
 30
0.0
 11
49.9647941042
 21
-19.10221612935004
 31
0.0
  0
LINE
  5
165
330
1F
100
AcDbEntity
  8
0
  6
CONTINUOUS
 62
     7
100
AcDbLine
 10
-48.0352064285
 20
-37.13221656275002
 30
0.0
 11
-56.0352063048
 21
-37.13221656275002
 31
0.0
  0
LINE
  5
166
330
1F
100
AcDbEntity
  8
0
  6
CONTINUOUS
 62
     7
100
AcDbLine
 10
-48.0352064285
 20
58.86778343724995
 30
0.0
 11
-56.0352063048
 21
58.86778343724995
 31
0.0
  0
LINE
  5
167
330
1F
100
AcDbEntity
  8
0
  6
CONTINUOUS
 62
     7
100
AcDbLine
 10
-52.7352063607
 20
-37.13221656275002
 30
0.0
 11
-52.7352063607
 21
58.86778343724995
 31
0.0
  0
LINE
  5
168
330
1F
100
AcDbEntity
  8
0
  6
CONTINUOUS
 62
     7
100
AcDbLine
 10
-56.0352063048
 20
-37.13221656275002
 30
0.0
 11
-56.0352063048
 21
58.86778343724995
 31
0.0
  0
LINE
  5
169
330
1F
100
AcDbEntity
  8
0
  6
CONTINUOUS
 62
     7
100
AcDbLine
 10
-48.0352064285
 20
-37.13221656275002
 30
0.0
 11
-48.0352064285
 21
58.86778343724995
 31
0.0
  0
LINE
  5
16A
330
1F
100
AcDbEntity
  8
0
  6
CONTINUOUS
 62
     7
100
AcDbLine
 10
-52.23520633690001
 20
58.86778343724995
 30
0.0
 11
-52.23520633690001
 21
-37.13221656275002
 31
0.0
  0
LINE
  5
16B
330
1F
100
AcDbEntity
  8
0
  6
CONTINUOUS
 62
     7
100
AcDbLine
 10
-46.03520656629999
 20
56.86787907314999
 30
0.0
 11
19.2647936413
 21
56.86787907314999
 31
0.0
  0
LINE
  5
16C
330
1F
100
AcDbEntity
  8
0
  6
CONTINUOUS
 62
     7
100
AcDbLine
 10
19.26479691439999
 20
-35.13231528075002
 30
0.0
 11
-46.03520685020001
 21
-35.13231528075002
 31
0.0
  0
LINE
  5
16D
330
1F
100
AcDbEntity
  8
0
  6
CONTINUOUS
 62
     7
100
AcDbLine
 10
28.36437644419999
 20
-34.88221614545003
 30
0.0
 11
19.26479363930002
 21
-34.88221656385002
 31
0.0
  0
LINE
  5
16E
330
1F
100
AcDbEntity
  8
0
  6
CONTINUOUS
 62
     7
100
AcDbLine
 10
28.36437644419999
 20
-34.88221614545003
 30
0.0
 11
28.36437644419999
 21
55.86778522544995
 31
0.0
  0
LINE
  5
16F
330
1F
100
AcDbEntity
  8
0
  6
CONTINUOUS
 62
     7
100
AcDbLine
 10
19.26479363930002
 20
56.61778343724995
 30
0.0
 11
28.36437644419999
 21
56.61778343724995
 31
0.0
  0
LINE
  5
170
330
1F
100
AcDbEntity
  8
0
  6
CONTINUOUS
 62
     7
100
AcDbLine
 10
28.36437644419999
 20
56.61778343724995
 30
0.0
 11
28.36437644419999
 21
55.86778522544995
 31
0.0
  0
LINE
  5
171
330
1F
100
AcDbEntity
  8
0
  6
CONTINUOUS
 62
     7
100
AcDbLine
 10
35.36479282869999
 20
56.61778343724995
 30
0.0
 11
35.36479282869999
 21
49.66778499894997
 31
0.0
  0
LINE
  5
172
330
1F
100
AcDbEntity
  8
0
  6
CONTINUOUS
 62
     7
100
AcDbLine
 10
35.36479282869999
 20
-27.93221770715002
 30
0.0
 11
35.36479282869999
 21
-34.88221614545003
 31
0.0
  0
LINE
  5
173
330
1F
100
AcDbEntity
  8
0
  6
CONTINUOUS
 62
     7
100
AcDbLine
 10
28.36437644419999
 20
-34.88221614545003
 30
0.0
 11
35.36479282869999
 21
-34.88221614545003
 31
0.0
  0
LINE
  5
174
330
1F
100
AcDbEntity
  8
0
  6
CONTINUOUS
 62
     7
100
AcDbLine
 10
35.36479282869999
 20
56.61778343724995
 30
0.0
 11
28.36437644419999
 21
56.61778343724995
 31
0.0
  0
LINE
  5
175
330
1F
100
AcDbEntity
  8
0
  6
CONTINUOUS
 62
     7
100
AcDbLine
 10
104.6096272954
 20
58.86778343724995
 30
0.0
 11
196.609627206
 21
58.86778343724995
 31
0.0
  0
LINE
  5
176
330
1F
100
AcDbEntity
  8
0
  6
CONTINUOUS
 62
     7
100
AcDbLine
 10
198.609627206
 20
56.86778343724995
 30
0.0
 11
198.609627206
 21
-35.13221651805003
 31
0.0
  0
LINE
  5
177
330
1F
100
AcDbEntity
  8
0
  6
CONTINUOUS
 62
     7
100
AcDbLine
 10
196.609627206
 20
-37.13221651805003
 30
0.0
 11
104.6096272954
 21
-37.13221651805003
 31
0.0
  0
LINE
  5
178
330
1F
100
AcDbEntity
  8
0
  6
CONTINUOUS
 62
     7
100
AcDbLine
 10
102.6096272954
 20
-35.13221651805003
 30
0.0
 11
102.6096272954
 21
56.86778343724995
 31
0.0
  0
LINE
  5
179
330
1F
100
AcDbEntity
  8
0
  6
CONTINUOUS
 62
     7
100
AcDbLine
 10
105.1096272954
 20
56.86778343724995
 30
0.0
 11
196.109627206
 21
56.86778343724995
 31
0.0
  0
LINE
  5
17A
330
1F
100
AcDbEntity
  8
0
  6
CONTINUOUS
 62
     7
100
AcDbLine
 10
196.609627206
 20
56.36778343724995
 30
0.0
 11
196.609627206
 21
-34.63221651805003
 31
0.0
  0
LINE
  5
17B
330
1F
100
AcDbEntity
  8
0
  6
CONTINUOUS
 62
     7
100
AcDbLine
 10
196.109627206
 20
-35.13221651805003
 30
0.0
 11
105.1096272954
 21
-35.13221651805003
 31
0.0
  0
LINE
  5
17C
330
1F
100
AcDbEntity
  8
0
  6
CONTINUOUS
 62
     7
100
AcDbLine
 10
104.6096272954
 20
-34.63221651805003
 30
0.0
 11
104.6096272954
 21
56.36778343724995
 31
0.0
  0
LINE
  5
17D
330
1F
100
AcDbEntity
  8
0
  6
CONTINUOUS
 62
     7
100
AcDbLine
 10
158.9096271658
 20
49.66778458174997
 30
0.0
 11
148.2096271814
 21
49.66778458174997
 31
0.0
  0
LINE
  5
17E
330
1F
100
AcDbEntity
  8
0
  6
CONTINUOUS
 62
     7
100
AcDbLine
 10
158.9096271658
 20
-27.93221770715002
 30
0.0
 11
158.9096271658
 21
49.66778458174997
 31
0.0
  0
LINE
  5
17F
330
1F
100
AcDbEntity
  8
0
  6
CONTINUOUS
 62
     7
100
AcDbLine
 10
158.9096271658
 20
-27.93221770715002
 30
0.0
 11
148.2096271814
 21
-27.93221770715002
 31
0.0
  0
LINE
  5
180
330
1F
100
AcDbEntity
  8
0
  6
CONTINUOUS
 62
     7
100
AcDbLine
 10
157.8096271717
 20
-26.72221734115001
 30
0.0
 11
148.2096271814
 21
-26.72221734115001
 31
0.0
  0
LINE
  5
181
330
1F
100
AcDbEntity
  8
0
  6
CONTINUOUS
 62
     7
100
AcDbLine
 10
157.8096271717
 20
-20.12221737695003
 30
0.0
 11
157.8096271717
 21
-26.72221734115001
 31
0.0
  0
LINE
  5
182
330
1F
100
AcDbEntity
  8
0
  6
CONTINUOUS
 62
     7
100
AcDbLine
 10
148.2096271814
 20
-20.12221737695003
 30
0.0
 11
157.8096271717
 21
-20.12221737695003
 31
0.0
  0
LINE
  5
183
330
1F
100
AcDbEntity
  8
0
  6
CONTINUOUS
 62
     7
100
AcDbLine
 10
157.8096271717
 20
-19.10221612935004
 30
0.0
 11
148.2096271814
 21
-19.10221612935004
 31
0.0
  0
LINE
  5
184
330
1F
100
AcDbEntity
  8
0
  6
CONTINUOUS
 62
     7
100
AcDbLine
 10
157.8096271717
 20
-12.50221616515003
 30
0.0
 11
157.8096271717
 21
-19.10221612935004
 31
0.0
  0
LINE
  5
185
330
1F
100
AcDbEntity
  8
0
  6
CONTINUOUS
 62
     7
100
AcDbLine
 10
148.2096271814
 20
-12.50221616515003
 30
0.0
 11
157.8096271717
 21
-12.50221616515003
 31
0.0
  0
LINE
  5
186
330
1F
100
AcDbEntity
  8
0
  6
CONTINUOUS
 62
     7
100
AcDbLine
 10
157.8096271717
 20
-11.48221678025001
 30
0.0
 11
148.2096271814
 21
-11.48221678025001
 31
0.0
  0
LINE
  5
187
330
1F
100
AcDbEntity
  8
0
  6
CONTINUOUS
 62
     7
100
AcDbLine
 10
157.8096271717
 20
-4.882216816050033
 30
0.0
 11
157.8096271717
 21
-11.48221678025001
 31
0.0
  0
LINE
  5
188
330
1F
100
AcDbEntity
  8
0
  6
CONTINUOUS
 62
     7
100
AcDbLine
 10
148.2096271814
 20
-4.882216816050033
 30
0.0
 11
157.8096271717
 21
-4.882216816050033
 31
0.0
  0
LINE
  5
189
330
1F
100
AcDbEntity
  8
0
  6
CONTINUOUS
 62
     7
100
AcDbLine
 10
157.8096271717
 20
-3.862216499850035
 30
0.0
 11
148.2096271814
 21
-3.862216499850035
 31
0.0
  0
LINE
  5
18A
330
1F
100
AcDbEntity
  8
0
  6
CONTINUOUS
 62
     7
100
AcDbLine
 10
157.8096271717
 20
2.737783464449961
 30
0.0
 11
157.8096271717
 21
-3.862216499850035
 31
0.0
  0
LINE
  5
18B
330
1F
100
AcDbEntity
  8
0
  6
CONTINUOUS
 62
     7
100
AcDbLine
 10
148.2096271814
 20
2.737783464449961
 30
0.0
 11
157.8096271717
 21
2.737783464449961
 31
0.0
  0
LINE
  5
18C
330
1F
100
AcDbEntity
  8
0
  6
CONTINUOUS
 62
     7
100
AcDbLine
 10
157.8096271717
 20
3.757783314949961
 30
0.0
 11
148.2096271814
 21
3.757783314949961
 31
0.0
  0
LINE
  5
18D
330
1F
100
AcDbEntity
  8
0
  6
CONTINUOUS
 62
     7
100
AcDbLine
 10
157.8096271717
 20
10.35778345384998
 30
0.0
 11
157.8096271717
 21
3.757783314949961
 31
0.0
  0
LINE
  5
18E
330
1F
100
AcDbEntity
  8
0
  6
CONTINUOUS
 62
     7
100
AcDbLine
 10
148.2096271814
 20
10.35778345384998
 30
0.0
 11
157.8096271717
 21
10.35778345384998
 31
0.0
  0
LINE
  5
18F
330
1F
100
AcDbEntity
  8
0
  6
CONTINUOUS
 62
     7
100
AcDbLine
 10
157.8096271717
 20
11.37778342074998
 30
0.0
 11
148.2096271814
 21
11.37778342074998
 31
0.0
  0
LINE
  5
190
330
1F
100
AcDbEntity
  8
0
  6
CONTINUOUS
 62
     7
100
AcDbLine
 10
157.8096271717
 20
17.97778355964996
 30
0.0
 11
157.8096271717
 21
11.37778342074998
 31
0.0
  0
LINE
  5
191
330
1F
100
AcDbEntity
  8
0
  6
CONTINUOUS
 62
     7
100
AcDbLine
 10
148.2096271814
 20
17.97778355964996
 30
0.0
 11
157.8096271717
 21
17.97778355964996
 31
0.0
  0
LINE
  5
192
330
1F
100
AcDbEntity
  8
0
  6
CONTINUOUS
 62
     7
100
AcDbLine
 10
157.8096271717
 20
18.99778341014996
 30
0.0
 11
148.2096271814
 21
18.99778341014996
 31
0.0
  0
LINE
  5
193
330
1F
100
AcDbEntity
  8
0
  6
CONTINUOUS
 62
     7
100
AcDbLine
 10
157.8096271717
 20
25.59778337444996
 30
0.0
 11
157.8096271717
 21
18.99778341014996
 31
0.0
  0
LINE
  5
194
330
1F
100
AcDbEntity
  8
0
  6
CONTINUOUS
 62
     7
100
AcDbLine
 10
148.2096271814
 20
25.59778337444996
 30
0.0
 11
157.8096271717
 21
25.59778337444996
 31
0.0
  0
LINE
  5
195
330
1F
100
AcDbEntity
  8
0
  6
CONTINUOUS
 62
     7
100
AcDbLine
 10
157.8096271717
 20
26.61778369064999
 30
0.0
 11
148.2096271814
 21
26.61778369064999
 31
0.0
  0
LINE
  5
196
330
1F
100
AcDbEntity
  8
0
  6
CONTINUOUS
 62
     7
100
AcDbLine
 10
157.8096271717
 20
33.21778365484997
 30
0.0
 11
157.8096271717
 21
26.61778369064999
 31
0.0
  0
LINE
  5
197
330
1F
100
AcDbEntity
  8
0
  6
CONTINUOUS
 62
     7
100
AcDbLine
 10
148.2096271814
 20
33.21778365484997
 30
0.0
 11
157.8096271717
 21
33.21778365484997
 31
0.0
  0
LINE
  5
198
330
1F
100
AcDbEntity
  8
0
  6
CONTINUOUS
 62
     7
100
AcDbLine
 10
157.8096271717
 20
34.23778303974998
 30
0.0
 11
148.2096271814
 21
34.23778303974998
 31
0.0
  0
LINE
  5
199
330
1F
100
AcDbEntity
  8
0
  6
CONTINUOUS
 62
     7
100
AcDbLine
 10
157.8096271717
 20
40.83778300394997
 30
0.0
 11
157.8096271717
 21
34.23778303974998
 31
0.0
  0
LINE
  5
19A
330
1F
100
AcDbEntity
  8
0
  6
CONTINUOUS
 62
     7
100
AcDbLine
 10
148.2096271814
 20
40.83778300394997
 30
0.0
 11
157.8096271717
 21
40.83778300394997
 31
0.0
  0
LINE
  5
19B
330
1F
100
AcDbEntity
  8
0
  6
CONTINUOUS
 62
     7
100
AcDbLine
 10
157.8096271717
 20
41.85778425144997
 30
0.0
 11
148.2096271814
 21
41.85778425144997
 31
0.0
  0
LINE
  5
19C
330
1F
100
AcDbEntity
  8
0
  6
CONTINUOUS
 62
     7
100
AcDbLine
 10
148.2096271814
 20
48.45778421575
 30
0.0
 11
157.8096271717
 21
48.45778421575
 31
0.0
  0
LINE
  5
19D
330
1F
100
AcDbEntity
  8
0
  6
CONTINUOUS
 62
     7
100
AcDbLine
 10
157.8096271717
 20
48.45778421575
 30
0.0
 11
157.8096271717
 21
41.85778425144997
 31
0.0
  0
LINE
  5
19E
330
1F
100
AcDbEntity
  8
0
  6
CONTINUOUS
 62
     7
100
AcDbLine
 10
147.2096272504
 20
25.59778337444996
 30
0.0
 11
147.2096272504
 21
26.61778369064999
 31
0.0
  0
LINE
  5
19F
330
1F
100
AcDbEntity
  8
0
  6
CONTINUOUS
 62
     7
100
AcDbLine
 10
147.2096272504
 20
25.59778337444996
 30
0.0
 11
148.2096271814
 21
25.59778337444996
 31
0.0
  0
LINE
  5
1A0
330
1F
100
AcDbEntity
  8
0
  6
CONTINUOUS
 62
     7
100
AcDbLine
 10
147.2096272504
 20
26.61778369064999
 30
0.0
 11
148.2096271814
 21
26.61778369064999
 31
0.0
  0
LINE
  5
1A1
330
1F
100
AcDbEntity
  8
0
  6
CONTINUOUS
 62
     7
100
AcDbLine
 10
147.2096272504
 20
-27.93221770715002
 30
0.0
 11
147.2096272504
 21
-26.72221734115001
 31
0.0
  0
LINE
  5
1A2
330
1F
100
AcDbEntity
  8
0
  6
CONTINUOUS
 62
     7
100
AcDbLine
 10
148.2096271814
 20
-27.93221770715002
 30
0.0
 11
147.2096272504
 21
-27.93221770715002
 31
0.0
  0
LINE
  5
1A3
330
1F
100
AcDbEntity
  8
0
  6
CONTINUOUS
 62
     7
100
AcDbLine
 10
147.2096272504
 20
-26.72221734115001
 30
0.0
 11
148.2096271814
 21
-26.72221734115001
 31
0.0
  0
LINE
  5
1A4
330
1F
100
AcDbEntity
  8
0
  6
CONTINUOUS
 62
     7
100
AcDbLine
 10
147.2096272504
 20
48.45778421575
 30
0.0
 11
147.2096272504
 21
49.66778458174997
 31
0.0
  0
LINE
  5
1A5
330
1F
100
AcDbEntity
  8
0
  6
CONTINUOUS
 62
     7
100
AcDbLine
 10
147.2096272504
 20
49.66778458174997
 30
0.0
 11
148.2096271814
 21
49.66778458174997
 31
0.0
  0
LINE
  5
1A6
330
1F
100
AcDbEntity
  8
0
  6
CONTINUOUS
 62
     7
100
AcDbLine
 10
147.2096272504
 20
48.45778421575
 30
0.0
 11
148.2096271814
 21
48.45778421575
 31
0.0
  0
LINE
  5
1A7
330
1F
100
AcDbEntity
  8
0
  6
CONTINUOUS
 62
     7
100
AcDbLine
 10
147.2096272504
 20
-20.12221737695003
 30
0.0
 11
147.2096272504
 21
-19.10221612935004
 31
0.0
  0
LINE
  5
1A8
330
1F
100
AcDbEntity
  8
0
  6
CONTINUOUS
 62
     7
100
AcDbLine
 10
147.2096272504
 20
-20.12221737695003
 30
0.0
 11
148.2096271814
 21
-20.12221737695003
 31
0.0
  0
LINE
  5
1A9
330
1F
100
AcDbEntity
  8
0
  6
CONTINUOUS
 62
     7
100
AcDbLine
 10
147.2096272504
 20
-19.10221612935004
 30
0.0
 11
148.2096271814
 21
-19.10221612935004
 31
0.0
  0
LINE
  5
1AA
330
1F
100
AcDbEntity
  8
0
  6
CONTINUOUS
 62
     7
100
AcDbLine
 10
147.2096272504
 20
40.83778300394997
 30
0.0
 11
147.2096272504
 21
41.85778425144997
 31
0.0
  0
LINE
  5
1AB
330
1F
100
AcDbEntity
  8
0
  6
CONTINUOUS
 62
     7
100
AcDbLine
 10
147.2096272504
 20
41.85778425144997
 30
0.0
 11
148.2096271814
 21
41.85778425144997
 31
0.0
  0
LINE
  5
1AC
330
1F
100
AcDbEntity
  8
0
  6
CONTINUOUS
 62
     7
100
AcDbLine
 10
148.2096271814
 20
40.83778300394997
 30
0.0
 11
147.2096272504
 21
40.83778300394997
 31
0.0
  0
LINE
  5
1AD
330
1F
100
AcDbEntity
  8
0
  6
CONTINUOUS
 62
     7
100
AcDbLine
 10
147.2096272504
 20
17.97778355964996
 30
0.0
 11
147.2096272504
 21
18.99778341014996
 31
0.0
  0
LINE
  5
1AE
330
1F
100
AcDbEntity
  8
0
  6
CONTINUOUS
 62
     7
100
AcDbLine
 10
147.2096272504
 20
18.99778341014996
 30
0.0
 11
148.2096271814
 21
18.99778341014996
 31
0.0
  0
LINE
  5
1AF
330
1F
100
AcDbEntity
  8
0
  6
CONTINUOUS
 62
     7
100
AcDbLine
 10
147.2096272504
 20
17.97778355964996
 30
0.0
 11
148.2096271814
 21
17.97778355964996
 31
0.0
  0
LINE
  5
1B0
330
1F
100
AcDbEntity
  8
0
  6
CONTINUOUS
 62
     7
100
AcDbLine
 10
147.2096272504
 20
-4.882216816050033
 30
0.0
 11
147.2096272504
 21
-3.862216499850035
 31
0.0
  0
LINE
  5
1B1
330
1F
100
AcDbEntity
  8
0
  6
CONTINUOUS
 62
     7
100
AcDbLine
 10
147.2096272504
 20
-3.862216499850035
 30
0.0
 11
148.2096271814
 21
-3.862216499850035
 31
0.0
  0
LINE
  5
1B2
330
1F
100
AcDbEntity
  8
0
  6
CONTINUOUS
 62
     7
100
AcDbLine
 10
147.2096272504
 20
-4.882216816050033
 30
0.0
 11
148.2096271814
 21
-4.882216816050033
 31
0.0
  0
LINE
  5
1B3
330
1F
100
AcDbEntity
  8
0
  6
CONTINUOUS
 62
     7
100
AcDbLine
 10
147.2096272504
 20
33.21778365484997
 30
0.0
 11
147.2096272504
 21
34.23778303974998
 31
0.0
  0
LINE
  5
1B4
330
1F
100
AcDbEntity
  8
0
  6
CONTINUOUS
 62
     7
100
AcDbLine
 10
147.2096272504
 20
33.21778365484997
 30
0.0
 11
148.2096271814
 21
33.21778365484997
 31
0.0
  0
LINE
  5
1B5
330
1F
100
AcDbEntity
  8
0
  6
CONTINUOUS
 62
     7
100
AcDbLine
 10
147.2096272504
 20
34.23778303974998
 30
0.0
 11
148.2096271814
 21
34.23778303974998
 31
0.0
  0
LINE
  5
1B6
330
1F
100
AcDbEntity
  8
0
  6
CONTINUOUS
 62
     7
100
AcDbLine
 10
147.2096272504
 20
2.737783464449961
 30
0.0
 11
147.2096272504
 21
3.757783314949961
 31
0.0
  0
LINE
  5
1B7
330
1F
100
AcDbEntity
  8
0
  6
CONTINUOUS
 62
     7
100
AcDbLine
 10
147.2096272504
 20
2.737783464449961
 30
0.0
 11
148.2096271814
 21
2.737783464449961
 31
0.0
  0
LINE
  5
1B8
330
1F
100
AcDbEntity
  8
0
  6
CONTINUOUS
 62
     7
100
AcDbLine
 10
147.2096272504
 20
3.757783314949961
 30
0.0
 11
148.2096271814
 21
3.757783314949961
 31
0.0
  0
LINE
  5
1B9
330
1F
100
AcDbEntity
  8
0
  6
CONTINUOUS
 62
     7
100
AcDbLine
 10
147.2096272504
 20
10.35778345384998
 30
0.0
 11
147.2096272504
 21
11.37778342074998
 31
0.0
  0
LINE
  5
1BA
330
1F
100
AcDbEntity
  8
0
  6
CONTINUOUS
 62
     7
100
AcDbLine
 10
147.2096272504
 20
11.37778342074998
 30
0.0
 11
148.2096271814
 21
11.37778342074998
 31
0.0
  0
LINE
  5
1BB
330
1F
100
AcDbEntity
  8
0
  6
CONTINUOUS
 62
     7
100
AcDbLine
 10
147.2096272504
 20
10.35778345384998
 30
0.0
 11
148.2096271814
 21
10.35778345384998
 31
0.0
  0
LINE
  5
1BC
330
1F
100
AcDbEntity
  8
0
  6
CONTINUOUS
 62
     7
100
AcDbLine
 10
147.2096272504
 20
-12.50221616515003
 30
0.0
 11
147.2096272504
 21
-11.48221678025001
 31
0.0
  0
LINE
  5
1BD
330
1F
100
AcDbEntity
  8
0
  6
CONTINUOUS
 62
     7
100
AcDbLine
 10
147.2096272504
 20
-11.48221678025001
 30
0.0
 11
148.2096271814
 21
-11.48221678025001
 31
0.0
  0
LINE
  5
1BE
330
1F
100
AcDbEntity
  8
0
  6
CONTINUOUS
 62
     7
100
AcDbLine
 10
147.2096272504
 20
-12.50221616515003
 30
0.0
 11
148.2096271814
 21
-12.50221616515003
 31
0.0
  0
LINE
  5
1BF
330
1F
100
AcDbEntity
  8
0
  6
CONTINUOUS
 62
     7
100
AcDbLine
 10
141.9096271732
 20
48.45778421575
 30
0.0
 11
141.9096271732
 21
49.66778458174997
 31
0.0
  0
LINE
  5
1C0
330
1F
100
AcDbEntity
  8
0
  6
CONTINUOUS
 62
     7
100
AcDbLine
 10
143.1096274631
 20
49.66778458174997
 30
0.0
 11
141.9096271732
 21
49.66778458174997
 31
0.0
  0
LINE
  5
1C1
330
1F
100
AcDbEntity
  8
0
  6
CONTINUOUS
 62
     7
100
AcDbLine
 10
143.1096274631
 20
49.66778458174997
 30
0.0
 11
147.2096272504
 21
49.66778458174997
 31
0.0
  0
LINE
  5
1C2
330
1F
100
AcDbEntity
  8
0
  6
CONTINUOUS
 62
     7
100
AcDbLine
 10
141.9096271732
 20
48.45778421575
 30
0.0
 11
147.2096272504
 21
48.45778421575
 31
0.0
  0
LINE
  5
1C3
330
1F
100
AcDbEntity
  8
0
  6
CONTINUOUS
 62
     7
100
AcDbLine
 10
143.1096274631
 20
-27.93221770715002
 30
0.0
 11
141.9096271732
 21
-27.93221770715002
 31
0.0
  0
LINE
  5
1C4
330
1F
100
AcDbEntity
  8
0
  6
CONTINUOUS
 62
     7
100
AcDbLine
 10
141.9096271732
 20
-26.72221734115001
 30
0.0
 11
141.9096271732
 21
-27.93221770715002
 31
0.0
  0
LINE
  5
1C5
330
1F
100
AcDbEntity
  8
0
  6
CONTINUOUS
 62
     7
100
AcDbLine
 10
147.2096272504
 20
-27.93221770715002
 30
0.0
 11
143.1096274631
 21
-27.93221770715002
 31
0.0
  0
LINE
  5
1C6
330
1F
100
AcDbEntity
  8
0
  6
CONTINUOUS
 62
     7
100
AcDbLine
 10
147.2096272504
 20
-26.72221734115001
 30
0.0
 11
141.9096271732
 21
-26.72221734115001
 31
0.0
  0
LINE
  5
1C7
330
1F
100
AcDbEntity
  8
0
  6
CONTINUOUS
 62
     7
100
AcDbLine
 10
143.1096274631
 20
55.62200919794998
 30
0.0
 11
143.1096274631
 21
49.66778458174997
 31
0.0
  0
LINE
  5
1C8
330
1F
100
AcDbEntity
  8
0
  6
CONTINUOUS
 62
     7
100
AcDbLine
 10
141.9096271732
 20
49.66778458174997
 30
0.0
 11
141.9096271732
 21
55.62200919794998
 31
0.0
  0
LINE
  5
1C9
330
1F
100
AcDbEntity
  8
0
  6
CONTINUOUS
 62
     7
100
AcDbLine
 10
143.1096274631
 20
-27.93221770715002
 30
0.0
 11
143.1096274631
 21
-33.88644232345001
 31
0.0
  0
LINE
  5
1CA
330
1F
100
AcDbEntity
  8
0
  6
CONTINUOUS
 62
     7
100
AcDbLine
 10
141.9096271732
 20
-27.93221770715002
 30
0.0
 11
141.9096271732
 21
-33.88644232345001
 31
0.0
  0
LINE
  5
1CB
330
1F
100
AcDbEntity
  8
0
  6
CONTINUOUS
 62
     7
100
AcDbLine
 10
154.5096271896
 20
-33.88644232345001
 30
0.0
 11
154.5096271896
 21
-27.93221770715002
 31
0.0
  0
LINE
  5
1CC
330
1F
100
AcDbEntity
  8
0
  6
CONTINUOUS
 62
     7
100
AcDbLine
 10
155.7096274795
 20
-27.93221770715002
 30
0.0
 11
155.7096274795
 21
-33.88644232345001
 31
0.0
  0
LINE
  5
1CD
330
1F
100
AcDbEntity
  8
0
  6
CONTINUOUS
 62
     7
100
AcDbLine
 10
155.7096274795
 20
49.66778458174997
 30
0.0
 11
155.7096274795
 21
55.62200919794998
 31
0.0
  0
LINE
  5
1CE
330
1F
100
AcDbEntity
  8
0
  6
CONTINUOUS
 62
     7
100
AcDbLine
 10
154.5096271896
 20
55.62200919794998
 30
0.0
 11
154.5096271896
 21
49.66778458174997
 31
0.0
  0
LINE
  5
1CF
330
1F
100
AcDbEntity
  8
0
  6
CONTINUOUS
 62
     7
100
AcDbLine
 10
147.7096273323
 20
-20.12221737695003
 30
0.0
 11
147.7096273323
 21
-26.72221734115001
 31
0.0
  0
LINE
  5
1D0
330
1F
100
AcDbEntity
  8
0
  6
CONTINUOUS
 62
     7
100
AcDbLine
 10
156.4096272217
 20
-26.17221548145002
 30
0.0
 11
156.4096272217
 21
-20.67221551125002
 31
0.0
  0
LINE
  5
1D1
330
1F
100
AcDbEntity
  8
0
  6
CONTINUOUS
 62
     7
100
AcDbLine
 10
156.4096272217
 20
-20.67221551125002
 30
0.0
 11
148.9096272729
 21
-20.67221551125002
 31
0.0
  0
LINE
  5
1D2
330
1F
100
AcDbEntity
  8
0
  6
CONTINUOUS
 62
     7
100
AcDbLine
 10
148.9096272729
 20
-20.67221551125002
 30
0.0
 11
148.9096272729
 21
-26.17221548145002
 31
0.0
  0
LINE
  5
1D3
330
1F
100
AcDbEntity
  8
0
  6
CONTINUOUS
 62
     7
100
AcDbLine
 10
148.9096272729
 20
-26.17221548145002
 30
0.0
 11
156.4096272217
 21
-26.17221548145002
 31
0.0
  0
LINE
  5
1D4
330
1F
100
AcDbEntity
  8
0
  6
CONTINUOUS
 62
     7
100
AcDbLine
 10
147.7096273323
 20
40.83778300394997
 30
0.0
 11
147.7096273323
 21
34.23778303974998
 31
0.0
  0
LINE
  5
1D5
330
1F
100
AcDbEntity
  8
0
  6
CONTINUOUS
 62
     7
100
AcDbLine
 10
156.4096272217
 20
34.78778303674997
 30
0.0
 11
156.4096272217
 21
40.28778300694998
 31
0.0
  0
LINE
  5
1D6
330
1F
100
AcDbEntity
  8
0
  6
CONTINUOUS
 62
     7
100
AcDbLine
 10
156.4096272217
 20
40.28778300694998
 30
0.0
 11
148.9096272729
 21
40.28778300694998
 31
0.0
  0
LINE
  5
1D7
330
1F
100
AcDbEntity
  8
0
  6
CONTINUOUS
 62
     7
100
AcDbLine
 10
148.9096272729
 20
40.28778300694998
 30
0.0
 11
148.9096272729
 21
34.78778303674997
 31
0.0
  0
LINE
  5
1D8
330
1F
100
AcDbEntity
  8
0
  6
CONTINUOUS
 62
     7
100
AcDbLine
 10
148.9096272729
 20
34.78778303674997
 30
0.0
 11
156.4096272217
 21
34.78778303674997
 31
0.0
  0
LINE
  5
1D9
330
1F
100
AcDbEntity
  8
0
  6
CONTINUOUS
 62
     7
100
AcDbLine
 10
147.7096273323
 20
17.97778355964996
 30
0.0
 11
147.7096273323
 21
11.37778342074998
 31
0.0
  0
LINE
  5
1DA
330
1F
100
AcDbEntity
  8
0
  6
CONTINUOUS
 62
     7
100
AcDbLine
 10
156.4096272217
 20
11.92778347594998
 30
0.0
 11
156.4096272217
 21
17.42778356264998
 31
0.0
  0
LINE
  5
1DB
330
1F
100
AcDbEntity
  8
0
  6
CONTINUOUS
 62
     7
100
AcDbLine
 10
156.4096272217
 20
17.42778356264998
 30
0.0
 11
148.9096272729
 21
17.42778356264998
 31
0.0
  0
LINE
  5
1DC
330
1F
100
AcDbEntity
  8
0
  6
CONTINUOUS
 62
     7
100
AcDbLine
 10
148.9096272729
 20
17.42778356264998
 30
0.0
 11
148.9096272729
 21
11.92778347594998
 31
0.0
  0
LINE
  5
1DD
330
1F
100
AcDbEntity
  8
0
  6
CONTINUOUS
 62
     7
100
AcDbLine
 10
148.9096272729
 20
11.92778347594998
 30
0.0
 11
156.4096272217
 21
11.92778347594998
 31
0.0
  0
LINE
  5
1DE
330
1F
100
AcDbEntity
  8
0
  6
CONTINUOUS
 62
     7
100
AcDbLine
 10
147.7096273323
 20
-4.882216816050033
 30
0.0
 11
147.7096273323
 21
-11.48221678025001
 31
0.0
  0
LINE
  5
1DF
330
1F
100
AcDbEntity
  8
0
  6
CONTINUOUS
 62
     7
100
AcDbLine
 10
156.4096272217
 20
-10.93221678325003
 30
0.0
 11
156.4096272217
 21
-5.432216813050019
 31
0.0
  0
LINE
  5
1E0
330
1F
100
AcDbEntity
  8
0
  6
CONTINUOUS
 62
     7
100
AcDbLine
 10
156.4096272217
 20
-5.432216813050019
 30
0.0
 11
148.9096272729
 21
-5.432216813050019
 31
0.0
  0
LINE
  5
1E1
330
1F
100
AcDbEntity
  8
0
  6
CONTINUOUS
 62
     7
100
AcDbLine
 10
148.9096272729
 20
-5.432216813050019
 30
0.0
 11
148.9096272729
 21
-10.93221678325003
 31
0.0
  0
LINE
  5
1E2
330
1F
100
AcDbEntity
  8
0
  6
CONTINUOUS
 62
     7
100
AcDbLine
 10
148.9096272729
 20
-10.93221678325003
 30
0.0
 11
156.4096272217
 21
-10.93221678325003
 31
0.0
  0
LINE
  5
1E3
330
1F
100
AcDbEntity
  8
0
  6
CONTINUOUS
 62
     7
100
AcDbLine
 10
147.7096273323
 20
10.35778345384998
 30
0.0
 11
147.7096273323
 21
3.757783314949961
 31
0.0
  0
LINE
  5
1E4
330
1F
100
AcDbEntity
  8
0
  6
CONTINUOUS
 62
     7
100
AcDbLine
 10
156.4096272217
 20
4.307783311949976
 30
0.0
 11
156.4096272217
 21
9.807783398549986
 31
0.0
  0
LINE
  5
1E5
330
1F
100
AcDbEntity
  8
0
  6
CONTINUOUS
 62
     7
100
AcDbLine
 10
156.4096272217
 20
9.807783398549986
 30
0.0
 11
148.9096272729
 21
9.807783398549986
 31
0.0
  0
LINE
  5
1E6
330
1F
100
AcDbEntity
  8
0
  6
CONTINUOUS
 62
     7
100
AcDbLine
 10
148.9096272729
 20
9.807783398549986
 30
0.0
 11
148.9096272729
 21
4.307783311949976
 31
0.0
  0
LINE
  5
1E7
330
1F
100
AcDbEntity
  8
0
  6
CONTINUOUS
 62
     7
100
AcDbLine
 10
148.9096272729
 20
4.307783311949976
 30
0.0
 11
156.4096272217
 21
4.307783311949976
 31
0.0
  0
LINE
  5
1E8
330
1F
100
AcDbEntity
  8
0
  6
CONTINUOUS
 62
     7
100
AcDbLine
 10
147.7096273323
 20
33.21778365484997
 30
0.0
 11
147.7096273323
 21
26.61778369064999
 31
0.0
  0
LINE
  5
1E9
330
1F
100
AcDbEntity
  8
0
  6
CONTINUOUS
 62
     7
100
AcDbLine
 10
156.4096272217
 20
27.16778368764997
 30
0.0
 11
156.4096272217
 21
32.66778365784998
 31
0.0
  0
LINE
  5
1EA
330
1F
100
AcDbEntity
  8
0
  6
CONTINUOUS
 62
     7
100
AcDbLine
 10
156.4096272217
 20
32.66778365784998
 30
0.0
 11
148.9096272729
 21
32.66778365784998
 31
0.0
  0
LINE
  5
1EB
330
1F
100
AcDbEntity
  8
0
  6
CONTINUOUS
 62
     7
100
AcDbLine
 10
148.9096272729
 20
32.66778365784998
 30
0.0
 11
148.9096272729
 21
27.16778368764997
 31
0.0
  0
LINE
  5
1EC
330
1F
100
AcDbEntity
  8
0
  6
CONTINUOUS
 62
     7
100
AcDbLine
 10
148.9096272729
 20
27.16778368764997
 30
0.0
 11
156.4096272217
 21
27.16778368764997
 31
0.0
  0
LINE
  5
1ED
330
1F
100
AcDbEntity
  8
0
  6
CONTINUOUS
 62
     7
100
AcDbLine
 10
147.7096273323
 20
2.737783464449961
 30
0.0
 11
147.7096273323
 21
-3.862216499850035
 31
0.0
  0
LINE
  5
1EE
330
1F
100
AcDbEntity
  8
0
  6
CONTINUOUS
 62
     7
100
AcDbLine
 10
156.4096272217
 20
-3.312216502850021
 30
0.0
 11
156.4096272217
 21
2.187783467349988
 31
0.0
  0
LINE
  5
1EF
330
1F
100
AcDbEntity
  8
0
  6
CONTINUOUS
 62
     7
100
AcDbLine
 10
156.4096272217
 20
2.187783467349988
 30
0.0
 11
148.9096272729
 21
2.187783467349988
 31
0.0
  0
LINE
  5
1F0
330
1F
100
AcDbEntity
  8
0
  6
CONTINUOUS
 62
     7
100
AcDbLine
 10
148.9096272729
 20
2.187783467349988
 30
0.0
 11
148.9096272729
 21
-3.312216502850021
 31
0.0
  0
LINE
  5
1F1
330
1F
100
AcDbEntity
  8
0
  6
CONTINUOUS
 62
     7
100
AcDbLine
 10
148.9096272729
 20
-3.312216502850021
 30
0.0
 11
156.4096272217
 21
-3.312216502850021
 31
0.0
  0
LINE
  5
1F2
330
1F
100
AcDbEntity
  8
0
  6
CONTINUOUS
 62
     7
100
AcDbLine
 10
147.7096273323
 20
-12.50221616515003
 30
0.0
 11
147.7096273323
 21
-19.10221612935004
 31
0.0
  0
LINE
  5
1F3
330
1F
100
AcDbEntity
  8
0
  6
CONTINUOUS
 62
     7
100
AcDbLine
 10
156.4096272217
 20
-18.55221613235003
 30
0.0
 11
156.4096272217
 21
-13.05221616215002
 31
0.0
  0
LINE
  5
1F4
330
1F
100
AcDbEntity
  8
0
  6
CONTINUOUS
 62
     7
100
AcDbLine
 10
156.4096272217
 20
-13.05221616215002
 30
0.0
 11
148.9096272729
 21
-13.05221616215002
 31
0.0
  0
LINE
  5
1F5
330
1F
100
AcDbEntity
  8
0
  6
CONTINUOUS
 62
     7
100
AcDbLine
 10
148.9096272729
 20
-13.05221616215002
 30
0.0
 11
148.9096272729
 21
-18.55221613235003
 31
0.0
  0
LINE
  5
1F6
330
1F
100
AcDbEntity
  8
0
  6
CONTINUOUS
 62
     7
100
AcDbLine
 10
148.9096272729
 20
-18.55221613235003
 30
0.0
 11
156.4096272217
 21
-18.55221613235003
 31
0.0
  0
LINE
  5
1F7
330
1F
100
AcDbEntity
  8
0
  6
CONTINUOUS
 62
     7
100
AcDbLine
 10
147.7096273323
 20
25.59778337444996
 30
0.0
 11
147.7096273323
 21
18.99778341014996
 31
0.0
  0
LINE
  5
1F8
330
1F
100
AcDbEntity
  8
0
  6
CONTINUOUS
 62
     7
100
AcDbLine
 10
156.4096272217
 20
19.54778340714998
 30
0.0
 11
156.4096272217
 21
25.04778337734999
 31
0.0
  0
LINE
  5
1F9
330
1F
100
AcDbEntity
  8
0
  6
CONTINUOUS
 62
     7
100
AcDbLine
 10
156.4096272217
 20
25.04778337734999
 30
0.0
 11
148.9096272729
 21
25.04778337734999
 31
0.0
  0
LINE
  5
1FA
330
1F
100
AcDbEntity
  8
0
  6
CONTINUOUS
 62
     7
100
AcDbLine
 10
148.9096272729
 20
25.04778337734999
 30
0.0
 11
148.9096272729
 21
19.54778340714998
 31
0.0
  0
LINE
  5
1FB
330
1F
100
AcDbEntity
  8
0
  6
CONTINUOUS
 62
     7
100
AcDbLine
 10
148.9096272729
 20
19.54778340714998
 30
0.0
 11
156.4096272217
 21
19.54778340714998
 31
0.0
  0
LINE
  5
1FC
330
1F
100
AcDbEntity
  8
0
  6
CONTINUOUS
 62
     7
100
AcDbLine
 10
147.7096273323
 20
48.45778421575
 30
0.0
 11
147.7096273323
 21
41.85778425144997
 31
0.0
  0
LINE
  5
1FD
330
1F
100
AcDbEntity
  8
0
  6
CONTINUOUS
 62
     7
100
AcDbLine
 10
156.4096272217
 20
42.40778238584997
 30
0.0
 11
156.4096272217
 21
47.90778235604995
 31
0.0
  0
LINE
  5
1FE
330
1F
100
AcDbEntity
  8
0
  6
CONTINUOUS
 62
     7
100
AcDbLine
 10
156.4096272217
 20
47.90778235604995
 30
0.0
 11
148.9096272729
 21
47.90778235604995
 31
0.0
  0
LINE
  5
1FF
330
1F
100
AcDbEntity
  8
0
  6
CONTINUOUS
 62
     7
100
AcDbLine
 10
148.9096272729
 20
47.90778235604995
 30
0.0
 11
148.9096272729
 21
42.40778238584997
 31
0.0
  0
LINE
  5
200
330
1F
100
AcDbEntity
  8
0
  6
CONTINUOUS
 62
     7
100
AcDbLine
 10
148.9096272729
 20
42.40778238584997
 30
0.0
 11
156.4096272217
 21
42.40778238584997
 31
0.0
  0
LINE
  5
201
330
1F
100
AcDbEntity
  8
0
  6
CONTINUOUS
 62
     7
100
AcDbLine
 10
155.7096274795
 20
-34.53221767135003
 30
0.0
 11
154.5096271896
 21
-34.53221767135003
 31
0.0
  0
LINE
  5
202
330
1F
100
AcDbEntity
  8
0
  6
CONTINUOUS
 62
     7
100
AcDbLine
 10
154.5096271896
 20
-34.53221767135003
 30
0.0
 11
154.5096271896
 21
-33.88644232345001
 31
0.0
  0
LINE
  5
203
330
1F
100
AcDbEntity
  8
0
  6
CONTINUOUS
 62
     7
100
AcDbLine
 10
155.7096274795
 20
-33.88644232345001
 30
0.0
 11
155.7096274795
 21
-34.53221767135003
 31
0.0
  0
LINE
  5
204
330
1F
100
AcDbEntity
  8
0
  6
CONTINUOUS
 62
     7
100
AcDbLine
 10
143.1096274631
 20
-34.53221767135003
 30
0.0
 11
141.9096271732
 21
-34.53221767135003
 31
0.0
  0
LINE
  5
205
330
1F
100
AcDbEntity
  8
0
  6
CONTINUOUS
 62
     7
100
AcDbLine
 10
143.1096274631
 20
-33.88644232345001
 30
0.0
 11
143.1096274631
 21
-34.53221767135003
 31
0.0
  0
LINE
  5
206
330
1F
100
AcDbEntity
  8
0
  6
CONTINUOUS
 62
     7
100
AcDbLine
 10
141.9096271732
 20
-34.53221767135003
 30
0.0
 11
141.9096271732
 21
-33.88644232345001
 31
0.0
  0
LINE
  5
207
330
1F
100
AcDbEntity
  8
0
  6
CONTINUOUS
 62
     7
100
AcDbLine
 10
154.5096271896
 20
56.26778454594995
 30
0.0
 11
155.7096274795
 21
56.26778454594995
 31
0.0
  0
LINE
  5
208
330
1F
100
AcDbEntity
  8
0
  6
CONTINUOUS
 62
     7
100
AcDbLine
 10
155.7096274795
 20
55.62200919794998
 30
0.0
 11
155.7096274795
 21
56.26778454594995
 31
0.0
  0
LINE
  5
209
330
1F
100
AcDbEntity
  8
0
  6
CONTINUOUS
 62
     7
100
AcDbLine
 10
154.5096271896
 20
56.26778454594995
 30
0.0
 11
154.5096271896
 21
55.62200919794998
 31
0.0
  0
LINE
  5
20A
330
1F
100
AcDbEntity
  8
0
  6
CONTINUOUS
 62
     7
100
AcDbLine
 10
141.9096271732
 20
56.26778454594995
 30
0.0
 11
143.1096274631
 21
56.26778454594995
 31
0.0
  0
LINE
  5
20B
330
1F
100
AcDbEntity
  8
0
  6
CONTINUOUS
 62
     7
100
AcDbLine
 10
143.1096274631
 20
56.26778454594995
 30
0.0
 11
143.1096274631
 21
55.62200919794998
 31
0.0
  0
LINE
  5
20C
330
1F
100
AcDbEntity
  8
0
  6
CONTINUOUS
 62
     7
100
AcDbLine
 10
141.9096271732
 20
55.62200919794998
 30
0.0
 11
141.9096271732
 21
56.26778454594995
 31
0.0
  0
LINE
  5
20D
330
1F
100
AcDbEntity
  8
0
  6
CONTINUOUS
 62
     7
100
AcDbLine
 10
143.1096274631
 20
56.26778454594995
 30
0.0
 11
154.5096271896
 21
56.26778454594995
 31
0.0
  0
LINE
  5
20E
330
1F
100
AcDbEntity
  8
0
  6
CONTINUOUS
 62
     7
100
AcDbLine
 10
143.1096274631
 20
-34.53221767135003
 30
0.0
 11
154.5096271896
 21
-34.53221767135003
 31
0.0
  0
LINE
  5
20F
330
1F
100
AcDbEntity
  8
0
  6
CONTINUOUS
 62
     7
100
AcDbLine
 10
141.9096271732
 20
48.45778421575
 30
0.0
 11
141.9096271732
 21
47.95778320244995
 31
0.0
  0
LINE
  5
210
330
1F
100
AcDbEntity
  8
0
  6
CONTINUOUS
 62
     7
100
AcDbLine
 10
141.9096271732
 20
-26.22221632785002
 30
0.0
 11
141.9096271732
 21
-26.72221734115001
 31
0.0
  0
LINE
  5
211
330
1F
100
AcDbEntity
  8
0
  6
CONTINUOUS
 62
     7
100
AcDbLine
 10
150.2096273055
 20
19.54778340714998
 30
0.0
 11
150.2096273055
 21
25.04778337734999
 31
0.0
  0
LINE
  5
212
330
1F
100
AcDbEntity
  8
0
  6
CONTINUOUS
 62
     7
100
AcDbLine
 10
150.2096273055
 20
-3.312216502850021
 30
0.0
 11
150.2096273055
 21
2.187783467349988
 31
0.0
  0
LINE
  5
213
330
1F
100
AcDbEntity
  8
0
  6
CONTINUOUS
 62
     7
100
AcDbLine
 10
150.2096273055
 20
4.307783311949976
 30
0.0
 11
150.2096273055
 21
9.807783398549986
 31
0.0
  0
LINE
  5
214
330
1F
100
AcDbEntity
  8
0
  6
CONTINUOUS
 62
     7
100
AcDbLine
 10
150.2096273055
 20
27.16778368764997
 30
0.0
 11
150.2096273055
 21
32.66778365784998
 31
0.0
  0
LINE
  5
215
330
1F
100
AcDbEntity
  8
0
  6
CONTINUOUS
 62
     7
100
AcDbLine
 10
150.2096273055
 20
42.40778238584997
 30
0.0
 11
150.2096273055
 21
47.90778235604995
 31
0.0
  0
LINE
  5
216
330
1F
100
AcDbEntity
  8
0
  6
CONTINUOUS
 62
     7
100
AcDbLine
 10
150.2096273055
 20
-18.55221613235003
 30
0.0
 11
150.2096273055
 21
-13.05221616215002
 31
0.0
  0
LINE
  5
217
330
1F
100
AcDbEntity
  8
0
  6
CONTINUOUS
 62
     7
100
AcDbLine
 10
150.2096273055
 20
-10.93221678325003
 30
0.0
 11
150.2096273055
 21
-5.432216813050019
 31
0.0
  0
LINE
  5
218
330
1F
100
AcDbEntity
  8
0
  6
CONTINUOUS
 62
     7
100
AcDbLine
 10
150.2096273055
 20
34.78778303674997
 30
0.0
 11
150.2096273055
 21
40.28778300694998
 31
0.0
  0
LINE
  5
219
330
1F
100
AcDbEntity
  8
0
  6
CONTINUOUS
 62
     7
100
AcDbLine
 10
150.2096273055
 20
11.92778347594998
 30
0.0
 11
150.2096273055
 21
17.42778356264998
 31
0.0
  0
LINE
  5
21A
330
1F
100
AcDbEntity
  8
0
  6
CONTINUOUS
 62
     7
100
AcDbLine
 10
150.2096273055
 20
-26.17221548145002
 30
0.0
 11
150.2096273055
 21
-20.67221551125002
 31
0.0
  0
LINE
  5
21B
330
1F
100
AcDbEntity
  8
0
  6
CONTINUOUS
 62
     7
100
AcDbLine
 10
149.7096273109
 20
40.28778300694998
 30
0.0
 11
149.7096273109
 21
34.78778303674997
 31
0.0
  0
LINE
  5
21C
330
1F
100
AcDbEntity
  8
0
  6
CONTINUOUS
 62
     7
100
AcDbLine
 10
149.7096273109
 20
32.66778365784998
 30
0.0
 11
149.7096273109
 21
27.16778368764997
 31
0.0
  0
LINE
  5
21D
330
1F
100
AcDbEntity
  8
0
  6
CONTINUOUS
 62
     7
100
AcDbLine
 10
149.7096273109
 20
-20.67221551125002
 30
0.0
 11
149.7096273109
 21
-26.17221548145002
 31
0.0
  0
LINE
  5
21E
330
1F
100
AcDbEntity
  8
0
  6
CONTINUOUS
 62
     7
100
AcDbLine
 10
149.7096273109
 20
2.187783467349988
 30
0.0
 11
149.7096273109
 21
-3.312216502850021
 31
0.0
  0
LINE
  5
21F
330
1F
100
AcDbEntity
  8
0
  6
CONTINUOUS
 62
     7
100
AcDbLine
 10
149.7096273109
 20
9.807783398549986
 30
0.0
 11
149.7096273109
 21
4.307783311949976
 31
0.0
  0
LINE
  5
220
330
1F
100
AcDbEntity
  8
0
  6
CONTINUOUS
 62
     7
100
AcDbLine
 10
149.7096273109
 20
25.04778337734999
 30
0.0
 11
149.7096273109
 21
19.54778340714998
 31
0.0
  0
LINE
  5
221
330
1F
100
AcDbEntity
  8
0
  6
CONTINUOUS
 62
     7
100
AcDbLine
 10
149.7096273109
 20
-13.05221616215002
 30
0.0
 11
149.7096273109
 21
-18.55221613235003
 31
0.0
  0
LINE
  5
222
330
1F
100
AcDbEntity
  8
0
  6
CONTINUOUS
 62
     7
100
AcDbLine
 10
149.7096273109
 20
17.42778356264998
 30
0.0
 11
149.7096273109
 21
11.92778347594998
 31
0.0
  0
LINE
  5
223
330
1F
100
AcDbEntity
  8
0
  6
CONTINUOUS
 62
     7
100
AcDbLine
 10
149.7096273109
 20
-5.432216813050019
 30
0.0
 11
149.7096273109
 21
-10.93221678325003
 31
0.0
  0
LINE
  5
224
330
1F
100
AcDbEntity
  8
0
  6
CONTINUOUS
 62
     7
100
AcDbLine
 10
149.7096273109
 20
47.90778235604995
 30
0.0
 11
149.7096273109
 21
42.40778238584997
 31
0.0
  0
LINE
  5
225
330
1F
100
AcDbEntity
  8
0
  6
CONTINUOUS
 62
     7
100
AcDbLine
 10
141.9096271732
 20
-26.22221632785002
 30
0.0
 11
141.9096271732
 21
47.95778320244995
 31
0.0
  0
LINE
  5
226
330
1F
100
AcDbEntity
  8
0
  6
CONTINUOUS
 62
     7
100
AcDbLine
 10
149.7096273109
 20
47.20778168254998
 30
0.0
 11
148.9096272729
 21
47.20778168254998
 31
0.0
  0
LINE
  5
227
330
1F
100
AcDbEntity
  8
0
  6
CONTINUOUS
 62
     7
100
AcDbLine
 10
149.7096273109
 20
-25.47221480795002
 30
0.0
 11
148.9096272729
 21
-25.47221480795002
 31
0.0
  0
LINE
  5
228
330
1F
100
AcDbEntity
  8
0
  6
CONTINUOUS
 62
     7
100
AcDbLine
 10
149.7096273109
 20
-17.25221647805003
 30
0.0
 11
148.9096272729
 21
-17.25221647805003
 31
0.0
  0
LINE
  5
229
330
1F
100
AcDbEntity
  8
0
  6
CONTINUOUS
 62
     7
100
AcDbLine
 10
149.7096273109
 20
36.08778269104997
 30
0.0
 11
148.9096272729
 21
36.08778269104997
 31
0.0
  0
LINE
  5
22A
330
1F
100
AcDbEntity
  8
0
  6
CONTINUOUS
 62
     7
100
AcDbLine
 10
149.7096273109
 20
13.22778347954997
 30
0.0
 11
148.9096272729
 21
13.22778347954997
 31
0.0
  0
LINE
  5
22B
330
1F
100
AcDbEntity
  8
0
  6
CONTINUOUS
 62
     7
100
AcDbLine
 10
149.7096273109
 20
-2.012216848550025
 30
0.0
 11
148.9096272729
 21
-2.012216848550025
 31
0.0
  0
LINE
  5
22C
330
1F
100
AcDbEntity
  8
0
  6
CONTINUOUS
 62
     7
100
AcDbLine
 10
149.7096273109
 20
8.507783395049984
 30
0.0
 11
148.9096272729
 21
8.507783395049984
 31
0.0
  0
LINE
  5
22D
330
1F
100
AcDbEntity
  8
0
  6
CONTINUOUS
 62
     7
100
AcDbLine
 10
149.7096273109
 20
-14.35221581645001
 30
0.0
 11
148.9096272729
 21
-14.35221581645001
 31
0.0
  0
LINE
  5
22E
330
1F
100
AcDbEntity
  8
0
  6
CONTINUOUS
 62
     7
100
AcDbLine
 10
149.7096273109
 20
-6.732216467350014
 30
0.0
 11
148.9096272729
 21
-6.732216467350014
 31
0.0
  0
LINE
  5
22F
330
1F
100
AcDbEntity
  8
0
  6
CONTINUOUS
 62
     7
100
AcDbLine
 10
149.7096273109
 20
31.36778400354999
 30
0.0
 11
148.9096272729
 21
31.36778400354999
 31
0.0
  0
LINE
  5
230
330
1F
100
AcDbEntity
  8
0
  6
CONTINUOUS
 62
     7
100
AcDbLine
 10
149.7096273109
 20
20.84778306144997
 30
0.0
 11
148.9096272729
 21
20.84778306144997
 31
0.0
  0
LINE
  5
231
330
1F
100
AcDbEntity
  8
0
  6
CONTINUOUS
 62
     7
100
AcDbLine
 10
149.7096273109
 20
28.46778334194997
 30
0.0
 11
148.9096272729
 21
28.46778334194997
 31
0.0
  0
LINE
  5
232
330
1F
100
AcDbEntity
  8
0
  6
CONTINUOUS
 62
     7
100
AcDbLine
 10
149.7096273109
 20
16.12778344264999
 30
0.0
 11
148.9096272729
 21
16.12778344264999
 31
0.0
  0
LINE
  5
233
330
1F
100
AcDbEntity
  8
0
  6
CONTINUOUS
 62
     7
100
AcDbLine
 10
149.7096273109
 20
23.74778372304996
 30
0.0
 11
148.9096272729
 21
23.74778372304996
 31
0.0
  0
LINE
  5
234
330
1F
100
AcDbEntity
  8
0
  6
CONTINUOUS
 62
     7
100
AcDbLine
 10
149.7096273109
 20
5.607783431949969
 30
0.0
 11
148.9096272729
 21
5.607783431949969
 31
0.0
  0
LINE
  5
235
330
1F
100
AcDbEntity
  8
0
  6
CONTINUOUS
 62
     7
100
AcDbLine
 10
149.7096273109
 20
38.98778335264998
 30
0.0
 11
148.9096272729
 21
38.98778335264998
 31
0.0
  0
LINE
  5
236
330
1F
100
AcDbEntity
  8
0
  6
CONTINUOUS
 62
     7
100
AcDbLine
 10
149.7096273109
 20
0.887783813049964
 30
0.0
 11
148.9096272729
 21
0.887783813049964
 31
0.0
  0
LINE
  5
237
330
1F
100
AcDbEntity
  8
0
  6
CONTINUOUS
 62
     7
100
AcDbLine
 10
149.7096273109
 20
-9.632217128950032
 30
0.0
 11
148.9096272729
 21
-9.632217128950032
 31
0.0
  0
LINE
  5
238
330
1F
100
AcDbEntity
  8
0
  6
CONTINUOUS
 62
     7
100
AcDbLine
 10
149.7096273109
 20
43.70778204014997
 30
0.0
 11
148.9096272729
 21
43.70778204014997
 31
0.0
  0
LINE
  5
239
330
1F
100
AcDbEntity
  8
0
  6
CONTINUOUS
 62
     7
100
AcDbLine
 10
149.7096273109
 20
-21.97221516555004
 30
0.0
 11
148.9096272729
 21
-21.97221516555004
 31
0.0
  0
LINE
  5
23A
330
1F
100
AcDbEntity
  8
0
  6
CONTINUOUS
 62
     7
100
AcDbLine
 10
149.7096273109
 20
46.60778270174995
 30
0.0
 11
148.9096272729
 21
46.60778270174995
 31
0.0
  0
LINE
  5
23B
330
1F
100
AcDbEntity
  8
0
  6
CONTINUOUS
 62
     7
100
AcDbLine
 10
149.7096273109
 20
-24.87221582715003
 30
0.0
 11
148.9096272729
 21
-24.87221582715003
 31
0.0
  0
LINE
  5
23C
330
1F
100
AcDbEntity
  8
0
  6
CONTINUOUS
 62
     7
100
AcDbLine
 10
107.4096261749
 20
-26.72221734115001
 30
0.0
 11
107.4096261749
 21
-20.12221737695003
 31
0.0
  0
LINE
  5
23D
330
1F
100
AcDbEntity
  8
0
  6
CONTINUOUS
 62
     7
100
AcDbLine
 10
106.3096261808
 20
-27.93221770715002
 30
0.0
 11
117.0096284935
 21
-27.93221770715002
 31
0.0
  0
LINE
  5
23E
330
1F
100
AcDbEntity
  8
0
  6
CONTINUOUS
 62
     7
100
AcDbLine
 10
106.3096261808
 20
49.66778458174997
 30
0.0
 11
106.3096261808
 21
-27.93221770715002
 31
0.0
  0
LINE
  5
23F
330
1F
100
AcDbEntity
  8
0
  6
CONTINUOUS
 62
     7
100
AcDbLine
 10
106.3096261808
 20
49.66778458174997
 30
0.0
 11
117.0096284935
 21
49.66778458174997
 31
0.0
  0
LINE
  5
240
330
1F
100
AcDbEntity
  8
0
  6
CONTINUOUS
 62
     7
100
AcDbLine
 10
107.4096261749
 20
48.45778421575
 30
0.0
 11
117.0096284935
 21
48.45778421575
 31
0.0
  0
LINE
  5
241
330
1F
100
AcDbEntity
  8
0
  6
CONTINUOUS
 62
     7
100
AcDbLine
 10
107.4096261749
 20
41.85778425144997
 30
0.0
 11
107.4096261749
 21
48.45778421575
 31
0.0
  0
LINE
  5
242
330
1F
100
AcDbEntity
  8
0
  6
CONTINUOUS
 62
     7
100
AcDbLine
 10
117.0096284935
 20
41.85778425144997
 30
0.0
 11
107.4096261749
 21
41.85778425144997
 31
0.0
  0
LINE
  5
243
330
1F
100
AcDbEntity
  8
0
  6
CONTINUOUS
 62
     7
100
AcDbLine
 10
107.4096261749
 20
40.83778300394997
 30
0.0
 11
117.0096284935
 21
40.83778300394997
 31
0.0
  0
LINE
  5
244
330
1F
100
AcDbEntity
  8
0
  6
CONTINUOUS
 62
     7
100
AcDbLine
 10
107.4096261749
 20
34.23778303974998
 30
0.0
 11
107.4096261749
 21
40.83778300394997
 31
0.0
  0
LINE
  5
245
330
1F
100
AcDbEntity
  8
0
  6
CONTINUOUS
 62
     7
100
AcDbLine
 10
117.0096284935
 20
34.23778303974998
 30
0.0
 11
107.4096261749
 21
34.23778303974998
 31
0.0
  0
LINE
  5
246
330
1F
100
AcDbEntity
  8
0
  6
CONTINUOUS
 62
     7
100
AcDbLine
 10
107.4096261749
 20
33.21778365484997
 30
0.0
 11
117.0096284935
 21
33.21778365484997
 31
0.0
  0
LINE
  5
247
330
1F
100
AcDbEntity
  8
0
  6
CONTINUOUS
 62
     7
100
AcDbLine
 10
107.4096261749
 20
26.61778369064999
 30
0.0
 11
107.4096261749
 21
33.21778365484997
 31
0.0
  0
LINE
  5
248
330
1F
100
AcDbEntity
  8
0
  6
CONTINUOUS
 62
     7
100
AcDbLine
 10
117.0096284935
 20
26.61778369064999
 30
0.0
 11
107.4096261749
 21
26.61778369064999
 31
0.0
  0
LINE
  5
249
330
1F
100
AcDbEntity
  8
0
  6
CONTINUOUS
 62
     7
100
AcDbLine
 10
107.4096261749
 20
25.59778337444996
 30
0.0
 11
117.0096284935
 21
25.59778337444996
 31
0.0
  0
LINE
  5
24A
330
1F
100
AcDbEntity
  8
0
  6
CONTINUOUS
 62
     7
100
AcDbLine
 10
107.4096261749
 20
18.99778341014996
 30
0.0
 11
107.4096261749
 21
25.59778337444996
 31
0.0
  0
LINE
  5
24B
330
1F
100
AcDbEntity
  8
0
  6
CONTINUOUS
 62
     7
100
AcDbLine
 10
117.0096284935
 20
18.99778341014996
 30
0.0
 11
107.4096261749
 21
18.99778341014996
 31
0.0
  0
LINE
  5
24C
330
1F
100
AcDbEntity
  8
0
  6
CONTINUOUS
 62
     7
100
AcDbLine
 10
107.4096261749
 20
17.97778355964996
 30
0.0
 11
117.0096284935
 21
17.97778355964996
 31
0.0
  0
LINE
  5
24D
330
1F
100
AcDbEntity
  8
0
  6
CONTINUOUS
 62
     7
100
AcDbLine
 10
107.4096261749
 20
11.37778342074998
 30
0.0
 11
107.4096261749
 21
17.97778355964996
 31
0.0
  0
LINE
  5
24E
330
1F
100
AcDbEntity
  8
0
  6
CONTINUOUS
 62
     7
100
AcDbLine
 10
117.0096284935
 20
11.37778342074998
 30
0.0
 11
107.4096261749
 21
11.37778342074998
 31
0.0
  0
LINE
  5
24F
330
1F
100
AcDbEntity
  8
0
  6
CONTINUOUS
 62
     7
100
AcDbLine
 10
107.4096261749
 20
10.35778345384998
 30
0.0
 11
117.0096284935
 21
10.35778345384998
 31
0.0
  0
LINE
  5
250
330
1F
100
AcDbEntity
  8
0
  6
CONTINUOUS
 62
     7
100
AcDbLine
 10
107.4096261749
 20
3.757783314949961
 30
0.0
 11
107.4096261749
 21
10.35778345384998
 31
0.0
  0
LINE
  5
251
330
1F
100
AcDbEntity
  8
0
  6
CONTINUOUS
 62
     7
100
AcDbLine
 10
117.0096284935
 20
3.757783314949961
 30
0.0
 11
107.4096261749
 21
3.757783314949961
 31
0.0
  0
LINE
  5
252
330
1F
100
AcDbEntity
  8
0
  6
CONTINUOUS
 62
     7
100
AcDbLine
 10
107.4096261749
 20
2.737783464449961
 30
0.0
 11
117.0096284935
 21
2.737783464449961
 31
0.0
  0
LINE
  5
253
330
1F
100
AcDbEntity
  8
0
  6
CONTINUOUS
 62
     7
100
AcDbLine
 10
107.4096261749
 20
-3.862216499850035
 30
0.0
 11
107.4096261749
 21
2.737783464449961
 31
0.0
  0
LINE
  5
254
330
1F
100
AcDbEntity
  8
0
  6
CONTINUOUS
 62
     7
100
AcDbLine
 10
117.0096284935
 20
-3.862216499850035
 30
0.0
 11
107.4096261749
 21
-3.862216499850035
 31
0.0
  0
LINE
  5
255
330
1F
100
AcDbEntity
  8
0
  6
CONTINUOUS
 62
     7
100
AcDbLine
 10
107.4096261749
 20
-4.882216816050033
 30
0.0
 11
117.0096284935
 21
-4.882216816050033
 31
0.0
  0
LINE
  5
256
330
1F
100
AcDbEntity
  8
0
  6
CONTINUOUS
 62
     7
100
AcDbLine
 10
107.4096261749
 20
-11.48221678025001
 30
0.0
 11
107.4096261749
 21
-4.882216816050033
 31
0.0
  0
LINE
  5
257
330
1F
100
AcDbEntity
  8
0
  6
CONTINUOUS
 62
     7
100
AcDbLine
 10
117.0096284935
 20
-11.48221678025001
 30
0.0
 11
107.4096261749
 21
-11.48221678025001
 31
0.0
  0
LINE
  5
258
330
1F
100
AcDbEntity
  8
0
  6
CONTINUOUS
 62
     7
100
AcDbLine
 10
107.4096261749
 20
-12.50221616515003
 30
0.0
 11
117.0096284935
 21
-12.50221616515003
 31
0.0
  0
LINE
  5
259
330
1F
100
AcDbEntity
  8
0
  6
CONTINUOUS
 62
     7
100
AcDbLine
 10
107.4096261749
 20
-19.10221612935004
 30
0.0
 11
107.4096261749
 21
-12.50221616515003
 31
0.0
  0
LINE
  5
25A
330
1F
100
AcDbEntity
  8
0
  6
CONTINUOUS
 62
     7
100
AcDbLine
 10
117.0096284935
 20
-19.10221612935004
 30
0.0
 11
107.4096261749
 21
-19.10221612935004
 31
0.0
  0
LINE
  5
25B
330
1F
100
AcDbEntity
  8
0
  6
CONTINUOUS
 62
     7
100
AcDbLine
 10
107.4096261749
 20
-20.12221737695003
 30
0.0
 11
117.0096284935
 21
-20.12221737695003
 31
0.0
  0
LINE
  5
25C
330
1F
100
AcDbEntity
  8
0
  6
CONTINUOUS
 62
     7
100
AcDbLine
 10
117.0096284935
 20
-26.72221734115001
 30
0.0
 11
107.4096261749
 21
-26.72221734115001
 31
0.0
  0
LINE
  5
25D
330
1F
100
AcDbEntity
  8
0
  6
CONTINUOUS
 62
     7
100
AcDbLine
 10
118.0096267947
 20
41.85778425144997
 30
0.0
 11
118.0096267947
 21
40.83778300394997
 31
0.0
  0
LINE
  5
25E
330
1F
100
AcDbEntity
  8
0
  6
CONTINUOUS
 62
     7
100
AcDbLine
 10
118.0096267947
 20
41.85778425144997
 30
0.0
 11
117.0096284935
 21
41.85778425144997
 31
0.0
  0
LINE
  5
25F
330
1F
100
AcDbEntity
  8
0
  6
CONTINUOUS
 62
     7
100
AcDbLine
 10
118.0096267947
 20
40.83778300394997
 30
0.0
 11
117.0096284935
 21
40.83778300394997
 31
0.0
  0
LINE
  5
260
330
1F
100
AcDbEntity
  8
0
  6
CONTINUOUS
 62
     7
100
AcDbLine
 10
118.0096267947
 20
49.66778458174997
 30
0.0
 11
118.0096267947
 21
48.45778421575
 31
0.0
  0
LINE
  5
261
330
1F
100
AcDbEntity
  8
0
  6
CONTINUOUS
 62
     7
100
AcDbLine
 10
117.0096284935
 20
49.66778458174997
 30
0.0
 11
118.0096267947
 21
49.66778458174997
 31
0.0
  0
LINE
  5
262
330
1F
100
AcDbEntity
  8
0
  6
CONTINUOUS
 62
     7
100
AcDbLine
 10
118.0096267947
 20
48.45778421575
 30
0.0
 11
117.0096284935
 21
48.45778421575
 31
0.0
  0
LINE
  5
263
330
1F
100
AcDbEntity
  8
0
  6
CONTINUOUS
 62
     7
100
AcDbLine
 10
118.0096267947
 20
3.757783314949961
 30
0.0
 11
118.0096267947
 21
2.737783464449961
 31
0.0
  0
LINE
  5
264
330
1F
100
AcDbEntity
  8
0
  6
CONTINUOUS
 62
     7
100
AcDbLine
 10
118.0096267947
 20
2.737783464449961
 30
0.0
 11
117.0096284935
 21
2.737783464449961
 31
0.0
  0
LINE
  5
265
330
1F
100
AcDbEntity
  8
0
  6
CONTINUOUS
 62
     7
100
AcDbLine
 10
118.0096267947
 20
3.757783314949961
 30
0.0
 11
117.0096284935
 21
3.757783314949961
 31
0.0
  0
LINE
  5
266
330
1F
100
AcDbEntity
  8
0
  6
CONTINUOUS
 62
     7
100
AcDbLine
 10
118.0096267947
 20
-3.862216499850035
 30
0.0
 11
118.0096267947
 21
-4.882216816050033
 31
0.0
  0
LINE
  5
267
330
1F
100
AcDbEntity
  8
0
  6
CONTINUOUS
 62
     7
100
AcDbLine
 10
118.0096267947
 20
-3.862216499850035
 30
0.0
 11
117.0096284935
 21
-3.862216499850035
 31
0.0
  0
LINE
  5
268
330
1F
100
AcDbEntity
  8
0
  6
CONTINUOUS
 62
     7
100
AcDbLine
 10
118.0096267947
 20
-4.882216816050033
 30
0.0
 11
117.0096284935
 21
-4.882216816050033
 31
0.0
  0
LINE
  5
269
330
1F
100
AcDbEntity
  8
0
  6
CONTINUOUS
 62
     7
100
AcDbLine
 10
118.0096267947
 20
-26.72221734115001
 30
0.0
 11
118.0096267947
 21
-27.93221770715002
 31
0.0
  0
LINE
  5
26A
330
1F
100
AcDbEntity
  8
0
  6
CONTINUOUS
 62
     7
100
AcDbLine
 10
118.0096267947
 20
-27.93221770715002
 30
0.0
 11
117.0096284935
 21
-27.93221770715002
 31
0.0
  0
LINE
  5
26B
330
1F
100
AcDbEntity
  8
0
  6
CONTINUOUS
 62
     7
100
AcDbLine
 10
118.0096267947
 20
-26.72221734115001
 30
0.0
 11
117.0096284935
 21
-26.72221734115001
 31
0.0
  0
LINE
  5
26C
330
1F
100
AcDbEntity
  8
0
  6
CONTINUOUS
 62
     7
100
AcDbLine
 10
118.0096267947
 20
-19.10221612935004
 30
0.0
 11
118.0096267947
 21
-20.12221737695003
 31
0.0
  0
LINE
  5
26D
330
1F
100
AcDbEntity
  8
0
  6
CONTINUOUS
 62
     7
100
AcDbLine
 10
118.0096267947
 20
-20.12221737695003
 30
0.0
 11
117.0096284935
 21
-20.12221737695003
 31
0.0
  0
LINE
  5
26E
330
1F
100
AcDbEntity
  8
0
  6
CONTINUOUS
 62
     7
100
AcDbLine
 10
117.0096284935
 20
-19.10221612935004
 30
0.0
 11
118.0096267947
 21
-19.10221612935004
 31
0.0
  0
LINE
  5
26F
330
1F
100
AcDbEntity
  8
0
  6
CONTINUOUS
 62
     7
100
AcDbLine
 10
118.0096267947
 20
26.61778369064999
 30
0.0
 11
118.0096267947
 21
25.59778337444996
 31
0.0
  0
LINE
  5
270
330
1F
100
AcDbEntity
  8
0
  6
CONTINUOUS
 62
     7
100
AcDbLine
 10
118.0096267947
 20
25.59778337444996
 30
0.0
 11
117.0096284935
 21
25.59778337444996
 31
0.0
  0
LINE
  5
271
330
1F
100
AcDbEntity
  8
0
  6
CONTINUOUS
 62
     7
100
AcDbLine
 10
118.0096267947
 20
26.61778369064999
 30
0.0
 11
117.0096284935
 21
26.61778369064999
 31
0.0
  0
LINE
  5
272
330
1F
100
AcDbEntity
  8
0
  6
CONTINUOUS
 62
     7
100
AcDbLine
 10
118.0096267947
 20
18.99778341014996
 30
0.0
 11
118.0096267947
 21
17.97778355964996
 31
0.0
  0
LINE
  5
273
330
1F
100
AcDbEntity
  8
0
  6
CONTINUOUS
 62
     7
100
AcDbLine
 10
118.0096267947
 20
18.99778341014996
 30
0.0
 11
117.0096284935
 21
18.99778341014996
 31
0.0
  0
LINE
  5
274
330
1F
100
AcDbEntity
  8
0
  6
CONTINUOUS
 62
     7
100
AcDbLine
 10
118.0096267947
 20
17.97778355964996
 30
0.0
 11
117.0096284935
 21
17.97778355964996
 31
0.0
  0
LINE
  5
275
330
1F
100
AcDbEntity
  8
0
  6
CONTINUOUS
 62
     7
100
AcDbLine
 10
118.0096267947
 20
-11.48221678025001
 30
0.0
 11
118.0096267947
 21
-12.50221616515003
 31
0.0
  0
LINE
  5
276
330
1F
100
AcDbEntity
  8
0
  6
CONTINUOUS
 62
     7
100
AcDbLine
 10
118.0096267947
 20
-11.48221678025001
 30
0.0
 11
117.0096284935
 21
-11.48221678025001
 31
0.0
  0
LINE
  5
277
330
1F
100
AcDbEntity
  8
0
  6
CONTINUOUS
 62
     7
100
AcDbLine
 10
118.0096267947
 20
-12.50221616515003
 30
0.0
 11
117.0096284935
 21
-12.50221616515003
 31
0.0
  0
LINE
  5
278
330
1F
100
AcDbEntity
  8
0
  6
CONTINUOUS
 62
     7
100
AcDbLine
 10
118.0096267947
 20
34.23778303974998
 30
0.0
 11
118.0096267947
 21
33.21778365484997
 31
0.0
  0
LINE
  5
279
330
1F
100
AcDbEntity
  8
0
  6
CONTINUOUS
 62
     7
100
AcDbLine
 10
118.0096267947
 20
33.21778365484997
 30
0.0
 11
117.0096284935
 21
33.21778365484997
 31
0.0
  0
LINE
  5
27A
330
1F
100
AcDbEntity
  8
0
  6
CONTINUOUS
 62
     7
100
AcDbLine
 10
118.0096267947
 20
34.23778303974998
 30
0.0
 11
117.0096284935
 21
34.23778303974998
 31
0.0
  0
LINE
  5
27B
330
1F
100
AcDbEntity
  8
0
  6
CONTINUOUS
 62
     7
100
AcDbLine
 10
118.0096267947
 20
11.37778342074998
 30
0.0
 11
118.0096267947
 21
10.35778345384998
 31
0.0
  0
LINE
  5
27C
330
1F
100
AcDbEntity
  8
0
  6
CONTINUOUS
 62
     7
100
AcDbLine
 10
118.0096267947
 20
10.35778345384998
 30
0.0
 11
117.0096284935
 21
10.35778345384998
 31
0.0
  0
LINE
  5
27D
330
1F
100
AcDbEntity
  8
0
  6
CONTINUOUS
 62
     7
100
AcDbLine
 10
118.0096267947
 20
11.37778342074998
 30
0.0
 11
117.0096284935
 21
11.37778342074998
 31
0.0
  0
LINE
  5
27E
330
1F
100
AcDbEntity
  8
0
  6
CONTINUOUS
 62
     7
100
AcDbLine
 10
122.1096272805
 20
-27.93221770715002
 30
0.0
 11
123.3096271047
 21
-27.93221770715002
 31
0.0
  0
LINE
  5
27F
330
1F
100
AcDbEntity
  8
0
  6
CONTINUOUS
 62
     7
100
AcDbLine
 10
123.3096271047
 20
-26.72221734115001
 30
0.0
 11
123.3096271047
 21
-27.93221770715002
 31
0.0
  0
LINE
  5
280
330
1F
100
AcDbEntity
  8
0
  6
CONTINUOUS
 62
     7
100
AcDbLine
 10
122.1096272805
 20
-27.93221770715002
 30
0.0
 11
118.0096267947
 21
-27.93221770715002
 31
0.0
  0
LINE
  5
281
330
1F
100
AcDbEntity
  8
0
  6
CONTINUOUS
 62
     7
100
AcDbLine
 10
123.3096271047
 20
-26.72221734115001
 30
0.0
 11
118.0096267947
 21
-26.72221734115001
 31
0.0
  0
LINE
  5
282
330
1F
100
AcDbEntity
  8
0
  6
CONTINUOUS
 62
     7
100
AcDbLine
 10
122.1096272805
 20
49.66778458174997
 30
0.0
 11
123.3096271047
 21
49.66778458174997
 31
0.0
  0
LINE
  5
283
330
1F
100
AcDbEntity
  8
0
  6
CONTINUOUS
 62
     7
100
AcDbLine
 10
123.3096271047
 20
48.45778421575
 30
0.0
 11
123.3096271047
 21
49.66778458174997
 31
0.0
  0
LINE
  5
284
330
1F
100
AcDbEntity
  8
0
  6
CONTINUOUS
 62
     7
100
AcDbLine
 10
118.0096267947
 20
49.66778458174997
 30
0.0
 11
122.1096272805
 21
49.66778458174997
 31
0.0
  0
LINE
  5
285
330
1F
100
AcDbEntity
  8
0
  6
CONTINUOUS
 62
     7
100
AcDbLine
 10
118.0096267947
 20
48.45778421575
 30
0.0
 11
123.3096271047
 21
48.45778421575
 31
0.0
  0
LINE
  5
286
330
1F
100
AcDbEntity
  8
0
  6
CONTINUOUS
 62
     7
100
AcDbLine
 10
122.1096272805
 20
-33.88644232345001
 30
0.0
 11
122.1096272805
 21
-27.93221770715002
 31
0.0
  0
LINE
  5
287
330
1F
100
AcDbEntity
  8
0
  6
CONTINUOUS
 62
     7
100
AcDbLine
 10
123.3096271047
 20
-27.93221770715002
 30
0.0
 11
123.3096271047
 21
-33.88644232345001
 31
0.0
  0
LINE
  5
288
330
1F
100
AcDbEntity
  8
0
  6
CONTINUOUS
 62
     7
100
AcDbLine
 10
122.1096272805
 20
49.66778458174997
 30
0.0
 11
122.1096272805
 21
55.62200919794998
 31
0.0
  0
LINE
  5
289
330
1F
100
AcDbEntity
  8
0
  6
CONTINUOUS
 62
     7
100
AcDbLine
 10
123.3096271047
 20
49.66778458174997
 30
0.0
 11
123.3096271047
 21
55.62200919794998
 31
0.0
  0
LINE
  5
28A
330
1F
100
AcDbEntity
  8
0
  6
CONTINUOUS
 62
     7
100
AcDbLine
 10
110.709626157
 20
55.62200919794998
 30
0.0
 11
110.709626157
 21
49.66778458174997
 31
0.0
  0
LINE
  5
28B
330
1F
100
AcDbEntity
  8
0
  6
CONTINUOUS
 62
     7
100
AcDbLine
 10
109.5096281955
 20
49.66778458174997
 30
0.0
 11
109.5096281955
 21
55.62200919794998
 31
0.0
  0
LINE
  5
28C
330
1F
100
AcDbEntity
  8
0
  6
CONTINUOUS
 62
     7
100
AcDbLine
 10
109.5096281955
 20
-27.93221770715002
 30
0.0
 11
109.5096281955
 21
-34.53221767135003
 31
0.0
  0
LINE
  5
28D
330
1F
100
AcDbEntity
  8
0
  6
CONTINUOUS
 62
     7
100
AcDbLine
 10
110.709626157
 20
-33.88644232345001
 30
0.0
 11
110.709626157
 21
-27.93221770715002
 31
0.0
  0
LINE
  5
28E
330
1F
100
AcDbEntity
  8
0
  6
CONTINUOUS
 62
     7
100
AcDbLine
 10
117.5096257815
 20
41.85778425144997
 30
0.0
 11
117.5096257815
 21
48.45778421575
 31
0.0
  0
LINE
  5
28F
330
1F
100
AcDbEntity
  8
0
  6
CONTINUOUS
 62
     7
100
AcDbLine
 10
108.8096275219
 20
47.90778235604995
 30
0.0
 11
108.8096275219
 21
42.40778238584997
 31
0.0
  0
LINE
  5
290
330
1F
100
AcDbEntity
  8
0
  6
CONTINUOUS
 62
     7
100
AcDbLine
 10
108.8096275219
 20
42.40778238584997
 30
0.0
 11
116.3096278199
 21
42.40778238584997
 31
0.0
  0
LINE
  5
291
330
1F
100
AcDbEntity
  8
0
  6
CONTINUOUS
 62
     7
100
AcDbLine
 10
116.3096278199
 20
42.40778238584997
 30
0.0
 11
116.3096278199
 21
47.90778235604995
 31
0.0
  0
LINE
  5
292
330
1F
100
AcDbEntity
  8
0
  6
CONTINUOUS
 62
     7
100
AcDbLine
 10
116.3096278199
 20
47.90778235604995
 30
0.0
 11
108.8096275219
 21
47.90778235604995
 31
0.0
  0
LINE
  5
293
330
1F
100
AcDbEntity
  8
0
  6
CONTINUOUS
 62
     7
100
AcDbLine
 10
108.8096275219
 20
-13.05221616215002
 30
0.0
 11
108.8096275219
 21
-18.55221613235003
 31
0.0
  0
LINE
  5
294
330
1F
100
AcDbEntity
  8
0
  6
CONTINUOUS
 62
     7
100
AcDbLine
 10
108.8096275219
 20
-18.55221613235003
 30
0.0
 11
116.3096278199
 21
-18.55221613235003
 31
0.0
  0
LINE
  5
295
330
1F
100
AcDbEntity
  8
0
  6
CONTINUOUS
 62
     7
100
AcDbLine
 10
116.3096278199
 20
-18.55221613235003
 30
0.0
 11
116.3096278199
 21
-13.05221616215002
 31
0.0
  0
LINE
  5
296
330
1F
100
AcDbEntity
  8
0
  6
CONTINUOUS
 62
     7
100
AcDbLine
 10
116.3096278199
 20
-13.05221616215002
 30
0.0
 11
108.8096275219
 21
-13.05221616215002
 31
0.0
  0
LINE
  5
297
330
1F
100
AcDbEntity
  8
0
  6
CONTINUOUS
 62
     7
100
AcDbLine
 10
117.5096257815
 20
-19.10221612935004
 30
0.0
 11
117.5096257815
 21
-12.50221616515003
 31
0.0
  0
LINE
  5
298
330
1F
100
AcDbEntity
  8
0
  6
CONTINUOUS
 62
     7
100
AcDbLine
 10
108.8096275219
 20
40.28778300694998
 30
0.0
 11
108.8096275219
 21
34.78778303674997
 31
0.0
  0
LINE
  5
299
330
1F
100
AcDbEntity
  8
0
  6
CONTINUOUS
 62
     7
100
AcDbLine
 10
108.8096275219
 20
34.78778303674997
 30
0.0
 11
116.3096278199
 21
34.78778303674997
 31
0.0
  0
LINE
  5
29A
330
1F
100
AcDbEntity
  8
0
  6
CONTINUOUS
 62
     7
100
AcDbLine
 10
116.3096278199
 20
34.78778303674997
 30
0.0
 11
116.3096278199
 21
40.28778300694998
 31
0.0
  0
LINE
  5
29B
330
1F
100
AcDbEntity
  8
0
  6
CONTINUOUS
 62
     7
100
AcDbLine
 10
116.3096278199
 20
40.28778300694998
 30
0.0
 11
108.8096275219
 21
40.28778300694998
 31
0.0
  0
LINE
  5
29C
330
1F
100
AcDbEntity
  8
0
  6
CONTINUOUS
 62
     7
100
AcDbLine
 10
117.5096257815
 20
34.23778303974998
 30
0.0
 11
117.5096257815
 21
40.83778300394997
 31
0.0
  0
LINE
  5
29D
330
1F
100
AcDbEntity
  8
0
  6
CONTINUOUS
 62
     7
100
AcDbLine
 10
117.5096257815
 20
3.757783314949961
 30
0.0
 11
117.5096257815
 21
10.35778345384998
 31
0.0
  0
LINE
  5
29E
330
1F
100
AcDbEntity
  8
0
  6
CONTINUOUS
 62
     7
100
AcDbLine
 10
108.8096275219
 20
9.807783398549986
 30
0.0
 11
108.8096275219
 21
4.307783311949976
 31
0.0
  0
LINE
  5
29F
330
1F
100
AcDbEntity
  8
0
  6
CONTINUOUS
 62
     7
100
AcDbLine
 10
108.8096275219
 20
4.307783311949976
 30
0.0
 11
116.3096278199
 21
4.307783311949976
 31
0.0
  0
LINE
  5
2A0
330
1F
100
AcDbEntity
  8
0
  6
CONTINUOUS
 62
     7
100
AcDbLine
 10
116.3096278199
 20
4.307783311949976
 30
0.0
 11
116.3096278199
 21
9.807783398549986
 31
0.0
  0
LINE
  5
2A1
330
1F
100
AcDbEntity
  8
0
  6
CONTINUOUS
 62
     7
100
AcDbLine
 10
116.3096278199
 20
9.807783398549986
 30
0.0
 11
108.8096275219
 21
9.807783398549986
 31
0.0
  0
LINE
  5
2A2
330
1F
100
AcDbEntity
  8
0
  6
CONTINUOUS
 62
     7
100
AcDbLine
 10
117.5096257815
 20
-11.48221678025001
 30
0.0
 11
117.5096257815
 21
-4.882216816050033
 31
0.0
  0
LINE
  5
2A3
330
1F
100
AcDbEntity
  8
0
  6
CONTINUOUS
 62
     7
100
AcDbLine
 10
108.8096275219
 20
-5.432216813050019
 30
0.0
 11
108.8096275219
 21
-10.93221678325003
 31
0.0
  0
LINE
  5
2A4
330
1F
100
AcDbEntity
  8
0
  6
CONTINUOUS
 62
     7
100
AcDbLine
 10
108.8096275219
 20
-10.93221678325003
 30
0.0
 11
116.3096278199
 21
-10.93221678325003
 31
0.0
  0
LINE
  5
2A5
330
1F
100
AcDbEntity
  8
0
  6
CONTINUOUS
 62
     7
100
AcDbLine
 10
116.3096278199
 20
-10.93221678325003
 30
0.0
 11
116.3096278199
 21
-5.432216813050019
 31
0.0
  0
LINE
  5
2A6
330
1F
100
AcDbEntity
  8
0
  6
CONTINUOUS
 62
     7
100
AcDbLine
 10
116.3096278199
 20
-5.432216813050019
 30
0.0
 11
108.8096275219
 21
-5.432216813050019
 31
0.0
  0
LINE
  5
2A7
330
1F
100
AcDbEntity
  8
0
  6
CONTINUOUS
 62
     7
100
AcDbLine
 10
117.5096257815
 20
-3.862216499850035
 30
0.0
 11
117.5096257815
 21
2.737783464449961
 31
0.0
  0
LINE
  5
2A8
330
1F
100
AcDbEntity
  8
0
  6
CONTINUOUS
 62
     7
100
AcDbLine
 10
108.8096275219
 20
2.187783467349988
 30
0.0
 11
108.8096275219
 21
-3.312216502850021
 31
0.0
  0
LINE
  5
2A9
330
1F
100
AcDbEntity
  8
0
  6
CONTINUOUS
 62
     7
100
AcDbLine
 10
108.8096275219
 20
-3.312216502850021
 30
0.0
 11
116.3096278199
 21
-3.312216502850021
 31
0.0
  0
LINE
  5
2AA
330
1F
100
AcDbEntity
  8
0
  6
CONTINUOUS
 62
     7
100
AcDbLine
 10
116.3096278199
 20
-3.312216502850021
 30
0.0
 11
116.3096278199
 21
2.187783467349988
 31
0.0
  0
LINE
  5
2AB
330
1F
100
AcDbEntity
  8
0
  6
CONTINUOUS
 62
     7
100
AcDbLine
 10
116.3096278199
 20
2.187783467349988
 30
0.0
 11
108.8096275219
 21
2.187783467349988
 31
0.0
  0
LINE
  5
2AC
330
1F
100
AcDbEntity
  8
0
  6
CONTINUOUS
 62
     7
100
AcDbLine
 10
117.5096257815
 20
18.99778341014996
 30
0.0
 11
117.5096257815
 21
25.59778337444996
 31
0.0
  0
LINE
  5
2AD
330
1F
100
AcDbEntity
  8
0
  6
CONTINUOUS
 62
     7
100
AcDbLine
 10
108.8096275219
 20
25.04778337734999
 30
0.0
 11
108.8096275219
 21
19.54778340714998
 31
0.0
  0
LINE
  5
2AE
330
1F
100
AcDbEntity
  8
0
  6
CONTINUOUS
 62
     7
100
AcDbLine
 10
108.8096275219
 20
19.54778340714998
 30
0.0
 11
116.3096278199
 21
19.54778340714998
 31
0.0
  0
LINE
  5
2AF
330
1F
100
AcDbEntity
  8
0
  6
CONTINUOUS
 62
     7
100
AcDbLine
 10
116.3096278199
 20
19.54778340714998
 30
0.0
 11
116.3096278199
 21
25.04778337734999
 31
0.0
  0
LINE
  5
2B0
330
1F
100
AcDbEntity
  8
0
  6
CONTINUOUS
 62
     7
100
AcDbLine
 10
116.3096278199
 20
25.04778337734999
 30
0.0
 11
108.8096275219
 21
25.04778337734999
 31
0.0
  0
LINE
  5
2B1
330
1F
100
AcDbEntity
  8
0
  6
CONTINUOUS
 62
     7
100
AcDbLine
 10
108.8096275219
 20
-20.67221551125002
 30
0.0
 11
108.8096275219
 21
-26.17221548145002
 31
0.0
  0
LINE
  5
2B2
330
1F
100
AcDbEntity
  8
0
  6
CONTINUOUS
 62
     7
100
AcDbLine
 10
108.8096275219
 20
-26.17221548145002
 30
0.0
 11
116.3096278199
 21
-26.17221548145002
 31
0.0
  0
LINE
  5
2B3
330
1F
100
AcDbEntity
  8
0
  6
CONTINUOUS
 62
     7
100
AcDbLine
 10
116.3096278199
 20
-26.17221548145002
 30
0.0
 11
116.3096278199
 21
-20.67221551125002
 31
0.0
  0
LINE
  5
2B4
330
1F
100
AcDbEntity
  8
0
  6
CONTINUOUS
 62
     7
100
AcDbLine
 10
116.3096278199
 20
-20.67221551125002
 30
0.0
 11
108.8096275219
 21
-20.67221551125002
 31
0.0
  0
LINE
  5
2B5
330
1F
100
AcDbEntity
  8
0
  6
CONTINUOUS
 62
     7
100
AcDbLine
 10
117.5096257815
 20
-26.72221734115001
 30
0.0
 11
117.5096257815
 21
-20.12221737695003
 31
0.0
  0
LINE
  5
2B6
330
1F
100
AcDbEntity
  8
0
  6
CONTINUOUS
 62
     7
100
AcDbLine
 10
108.8096275219
 20
32.66778365784998
 30
0.0
 11
108.8096275219
 21
27.16778368764997
 31
0.0
  0
LINE
  5
2B7
330
1F
100
AcDbEntity
  8
0
  6
CONTINUOUS
 62
     7
100
AcDbLine
 10
108.8096275219
 20
27.16778368764997
 30
0.0
 11
116.3096278199
 21
27.16778368764997
 31
0.0
  0
LINE
  5
2B8
330
1F
100
AcDbEntity
  8
0
  6
CONTINUOUS
 62
     7
100
AcDbLine
 10
116.3096278199
 20
27.16778368764997
 30
0.0
 11
116.3096278199
 21
32.66778365784998
 31
0.0
  0
LINE
  5
2B9
330
1F
100
AcDbEntity
  8
0
  6
CONTINUOUS
 62
     7
100
AcDbLine
 10
116.3096278199
 20
32.66778365784998
 30
0.0
 11
108.8096275219
 21
32.66778365784998
 31
0.0
  0
LINE
  5
2BA
330
1F
100
AcDbEntity
  8
0
  6
CONTINUOUS
 62
     7
100
AcDbLine
 10
117.5096257815
 20
26.61778369064999
 30
0.0
 11
117.5096257815
 21
33.21778365484997
 31
0.0
  0
LINE
  5
2BB
330
1F
100
AcDbEntity
  8
0
  6
CONTINUOUS
 62
     7
100
AcDbLine
 10
108.8096275219
 20
17.42778356264998
 30
0.0
 11
108.8096275219
 21
11.92778347594998
 31
0.0
  0
LINE
  5
2BC
330
1F
100
AcDbEntity
  8
0
  6
CONTINUOUS
 62
     7
100
AcDbLine
 10
108.8096275219
 20
11.92778347594998
 30
0.0
 11
116.3096278199
 21
11.92778347594998
 31
0.0
  0
LINE
  5
2BD
330
1F
100
AcDbEntity
  8
0
  6
CONTINUOUS
 62
     7
100
AcDbLine
 10
116.3096278199
 20
11.92778347594998
 30
0.0
 11
116.3096278199
 21
17.42778356264998
 31
0.0
  0
LINE
  5
2BE
330
1F
100
AcDbEntity
  8
0
  6
CONTINUOUS
 62
     7
100
AcDbLine
 10
116.3096278199
 20
17.42778356264998
 30
0.0
 11
108.8096275219
 21
17.42778356264998
 31
0.0
  0
LINE
  5
2BF
330
1F
100
AcDbEntity
  8
0
  6
CONTINUOUS
 62
     7
100
AcDbLine
 10
117.5096257815
 20
11.37778342074998
 30
0.0
 11
117.5096257815
 21
17.97778355964996
 31
0.0
  0
LINE
  5
2C0
330
1F
100
AcDbEntity
  8
0
  6
CONTINUOUS
 62
     7
100
AcDbLine
 10
109.5096281955
 20
56.26778454594995
 30
0.0
 11
110.709626157
 21
56.26778454594995
 31
0.0
  0
LINE
  5
2C1
330
1F
100
AcDbEntity
  8
0
  6
CONTINUOUS
 62
     7
100
AcDbLine
 10
110.709626157
 20
56.26778454594995
 30
0.0
 11
110.709626157
 21
55.62200919794998
 31
0.0
  0
LINE
  5
2C2
330
1F
100
AcDbEntity
  8
0
  6
CONTINUOUS
 62
     7
100
AcDbLine
 10
109.5096281955
 20
55.62200919794998
 30
0.0
 11
109.5096281955
 21
56.26778454594995
 31
0.0
  0
LINE
  5
2C3
330
1F
100
AcDbEntity
  8
0
  6
CONTINUOUS
 62
     7
100
AcDbLine
 10
122.1096272805
 20
56.26778454594995
 30
0.0
 11
123.3096271047
 21
56.26778454594995
 31
0.0
  0
LINE
  5
2C4
330
1F
100
AcDbEntity
  8
0
  6
CONTINUOUS
 62
     7
100
AcDbLine
 10
122.1096272805
 20
55.62200919794998
 30
0.0
 11
122.1096272805
 21
56.26778454594995
 31
0.0
  0
LINE
  5
2C5
330
1F
100
AcDbEntity
  8
0
  6
CONTINUOUS
 62
     7
100
AcDbLine
 10
123.3096271047
 20
56.26778454594995
 30
0.0
 11
123.3096271047
 21
55.62200919794998
 31
0.0
  0
LINE
  5
2C6
330
1F
100
AcDbEntity
  8
0
  6
CONTINUOUS
 62
     7
100
AcDbLine
 10
110.709626157
 20
-34.53221767135003
 30
0.0
 11
109.5096281955
 21
-34.53221767135003
 31
0.0
  0
LINE
  5
2C7
330
1F
100
AcDbEntity
  8
0
  6
CONTINUOUS
 62
     7
100
AcDbLine
 10
110.709626157
 20
-34.53221767135003
 30
0.0
 11
110.709626157
 21
-33.88644232345001
 31
0.0
  0
LINE
  5
2C8
330
1F
100
AcDbEntity
  8
0
  6
CONTINUOUS
 62
     7
100
AcDbLine
 10
123.3096271047
 20
-34.53221767135003
 30
0.0
 11
122.1096272805
 21
-34.53221767135003
 31
0.0
  0
LINE
  5
2C9
330
1F
100
AcDbEntity
  8
0
  6
CONTINUOUS
 62
     7
100
AcDbLine
 10
122.1096272805
 20
-34.53221767135003
 30
0.0
 11
122.1096272805
 21
-33.88644232345001
 31
0.0
  0
LINE
  5
2CA
330
1F
100
AcDbEntity
  8
0
  6
CONTINUOUS
 62
     7
100
AcDbLine
 10
123.3096271047
 20
-33.88644232345001
 30
0.0
 11
123.3096271047
 21
-34.53221767135003
 31
0.0
  0
LINE
  5
2CB
330
1F
100
AcDbEntity
  8
0
  6
CONTINUOUS
 62
     7
100
AcDbLine
 10
122.1096272805
 20
-34.53221767135003
 30
0.0
 11
110.709626157
 21
-34.53221767135003
 31
0.0
  0
LINE
  5
2CC
330
1F
100
AcDbEntity
  8
0
  6
CONTINUOUS
 62
     7
100
AcDbLine
 10
122.1096272805
 20
56.26778454594995
 30
0.0
 11
110.709626157
 21
56.26778454594995
 31
0.0
  0
LINE
  5
2CD
330
1F
100
AcDbEntity
  8
0
  6
CONTINUOUS
 62
     7
100
AcDbLine
 10
123.3096271047
 20
47.95778320244995
 30
0.0
 11
123.3096271047
 21
48.45778421575
 31
0.0
  0
LINE
  5
2CE
330
1F
100
AcDbEntity
  8
0
  6
CONTINUOUS
 62
     7
100
AcDbLine
 10
123.3096271047
 20
-26.72221734115001
 30
0.0
 11
123.3096271047
 21
-26.22221632785002
 31
0.0
  0
LINE
  5
2CF
330
1F
100
AcDbEntity
  8
0
  6
CONTINUOUS
 62
     7
100
AcDbLine
 10
115.0096281657
 20
32.66778365784998
 30
0.0
 11
115.0096281657
 21
27.16778368764997
 31
0.0
  0
LINE
  5
2D0
330
1F
100
AcDbEntity
  8
0
  6
CONTINUOUS
 62
     7
100
AcDbLine
 10
115.0096281657
 20
40.28778300694998
 30
0.0
 11
115.0096281657
 21
34.78778303674997
 31
0.0
  0
LINE
  5
2D1
330
1F
100
AcDbEntity
  8
0
  6
CONTINUOUS
 62
     7
100
AcDbLine
 10
115.0096281657
 20
-13.05221616215002
 30
0.0
 11
115.0096281657
 21
-18.55221613235003
 31
0.0
  0
LINE
  5
2D2
330
1F
100
AcDbEntity
  8
0
  6
CONTINUOUS
 62
     7
100
AcDbLine
 10
115.0096281657
 20
-20.67221551125002
 30
0.0
 11
115.0096281657
 21
-26.17221548145002
 31
0.0
  0
LINE
  5
2D3
330
1F
100
AcDbEntity
  8
0
  6
CONTINUOUS
 62
     7
100
AcDbLine
 10
115.0096281657
 20
17.42778356264998
 30
0.0
 11
115.0096281657
 21
11.92778347594998
 31
0.0
  0
LINE
  5
2D4
330
1F
100
AcDbEntity
  8
0
  6
CONTINUOUS
 62
     7
100
AcDbLine
 10
115.0096281657
 20
-5.432216813050019
 30
0.0
 11
115.0096281657
 21
-10.93221678325003
 31
0.0
  0
LINE
  5
2D5
330
1F
100
AcDbEntity
  8
0
  6
CONTINUOUS
 62
     7
100
AcDbLine
 10
115.0096281657
 20
9.807783398549986
 30
0.0
 11
115.0096281657
 21
4.307783311949976
 31
0.0
  0
LINE
  5
2D6
330
1F
100
AcDbEntity
  8
0
  6
CONTINUOUS
 62
     7
100
AcDbLine
 10
115.0096281657
 20
2.187783467349988
 30
0.0
 11
115.0096281657
 21
-3.312216502850021
 31
0.0
  0
LINE
  5
2D7
330
1F
100
AcDbEntity
  8
0
  6
CONTINUOUS
 62
     7
100
AcDbLine
 10
115.0096281657
 20
25.04778337734999
 30
0.0
 11
115.0096281657
 21
19.54778340714998
 31
0.0
  0
LINE
  5
2D8
330
1F
100
AcDbEntity
  8
0
  6
CONTINUOUS
 62
     7
100
AcDbLine
 10
115.0096281657
 20
47.90778235604995
 30
0.0
 11
115.0096281657
 21
42.40778238584997
 31
0.0
  0
LINE
  5
2D9
330
1F
100
AcDbEntity
  8
0
  6
CONTINUOUS
 62
     7
100
AcDbLine
 10
115.5096254536
 20
42.40778238584997
 30
0.0
 11
115.5096254536
 21
47.90778235604995
 31
0.0
  0
LINE
  5
2DA
330
1F
100
AcDbEntity
  8
0
  6
CONTINUOUS
 62
     7
100
AcDbLine
 10
115.5096254536
 20
27.16778368764997
 30
0.0
 11
115.5096254536
 21
32.66778365784998
 31
0.0
  0
LINE
  5
2DB
330
1F
100
AcDbEntity
  8
0
  6
CONTINUOUS
 62
     7
100
AcDbLine
 10
115.5096254536
 20
34.78778303674997
 30
0.0
 11
115.5096254536
 21
40.28778300694998
 31
0.0
  0
LINE
  5
2DC
330
1F
100
AcDbEntity
  8
0
  6
CONTINUOUS
 62
     7
100
AcDbLine
 10
115.5096254536
 20
-10.93221678325003
 30
0.0
 11
115.5096254536
 21
-5.432216813050019
 31
0.0
  0
LINE
  5
2DD
330
1F
100
AcDbEntity
  8
0
  6
CONTINUOUS
 62
     7
100
AcDbLine
 10
115.5096254536
 20
-3.312216502850021
 30
0.0
 11
115.5096254536
 21
2.187783467349988
 31
0.0
  0
LINE
  5
2DE
330
1F
100
AcDbEntity
  8
0
  6
CONTINUOUS
 62
     7
100
AcDbLine
 10
115.5096254536
 20
19.54778340714998
 30
0.0
 11
115.5096254536
 21
25.04778337734999
 31
0.0
  0
LINE
  5
2DF
330
1F
100
AcDbEntity
  8
0
  6
CONTINUOUS
 62
     7
100
AcDbLine
 10
115.5096254536
 20
11.92778347594998
 30
0.0
 11
115.5096254536
 21
17.42778356264998
 31
0.0
  0
LINE
  5
2E0
330
1F
100
AcDbEntity
  8
0
  6
CONTINUOUS
 62
     7
100
AcDbLine
 10
115.5096254536
 20
-18.55221613235003
 30
0.0
 11
115.5096254536
 21
-13.05221616215002
 31
0.0
  0
LINE
  5
2E1
330
1F
100
AcDbEntity
  8
0
  6
CONTINUOUS
 62
     7
100
AcDbLine
 10
115.5096254536
 20
4.307783311949976
 30
0.0
 11
115.5096254536
 21
9.807783398549986
 31
0.0
  0
LINE
  5
2E2
330
1F
100
AcDbEntity
  8
0
  6
CONTINUOUS
 62
     7
100
AcDbLine
 10
115.5096254536
 20
-26.17221548145002
 30
0.0
 11
115.5096254536
 21
-20.67221551125002
 31
0.0
  0
LINE
  5
2E3
330
1F
100
AcDbEntity
  8
0
  6
CONTINUOUS
 62
     7
100
AcDbLine
 10
123.3096271047
 20
47.95778320244995
 30
0.0
 11
123.3096271047
 21
-26.22221632785002
 31
0.0
  0
LINE
  5
2E4
330
1F
100
AcDbEntity
  8
0
  6
CONTINUOUS
 62
     7
100
AcDbLine
 10
115.5096254536
 20
-25.47221480795002
 30
0.0
 11
116.3096278199
 21
-25.47221480795002
 31
0.0
  0
LINE
  5
2E5
330
1F
100
AcDbEntity
  8
0
  6
CONTINUOUS
 62
     7
100
AcDbLine
 10
115.5096254536
 20
47.20778168254998
 30
0.0
 11
116.3096278199
 21
47.20778168254998
 31
0.0
  0
LINE
  5
2E6
330
1F
100
AcDbEntity
  8
0
  6
CONTINUOUS
 62
     7
100
AcDbLine
 10
115.5096254536
 20
38.98778335264998
 30
0.0
 11
116.3096278199
 21
38.98778335264998
 31
0.0
  0
LINE
  5
2E7
330
1F
100
AcDbEntity
  8
0
  6
CONTINUOUS
 62
     7
100
AcDbLine
 10
115.5096254536
 20
36.08778269104997
 30
0.0
 11
116.3096278199
 21
36.08778269104997
 31
0.0
  0
LINE
  5
2E8
330
1F
100
AcDbEntity
  8
0
  6
CONTINUOUS
 62
     7
100
AcDbLine
 10
115.5096254536
 20
28.46778334194997
 30
0.0
 11
116.3096278199
 21
28.46778334194997
 31
0.0
  0
LINE
  5
2E9
330
1F
100
AcDbEntity
  8
0
  6
CONTINUOUS
 62
     7
100
AcDbLine
 10
115.5096254536
 20
20.84778306144997
 30
0.0
 11
116.3096278199
 21
20.84778306144997
 31
0.0
  0
LINE
  5
2EA
330
1F
100
AcDbEntity
  8
0
  6
CONTINUOUS
 62
     7
100
AcDbLine
 10
115.5096254536
 20
16.12778344264999
 30
0.0
 11
116.3096278199
 21
16.12778344264999
 31
0.0
  0
LINE
  5
2EB
330
1F
100
AcDbEntity
  8
0
  6
CONTINUOUS
 62
     7
100
AcDbLine
 10
115.5096254536
 20
-17.25221647805003
 30
0.0
 11
116.3096278199
 21
-17.25221647805003
 31
0.0
  0
LINE
  5
2EC
330
1F
100
AcDbEntity
  8
0
  6
CONTINUOUS
 62
     7
100
AcDbLine
 10
115.5096254536
 20
-6.732216467350014
 30
0.0
 11
116.3096278199
 21
-6.732216467350014
 31
0.0
  0
LINE
  5
2ED
330
1F
100
AcDbEntity
  8
0
  6
CONTINUOUS
 62
     7
100
AcDbLine
 10
115.5096254536
 20
8.507783395049984
 30
0.0
 11
116.3096278199
 21
8.507783395049984
 31
0.0
  0
LINE
  5
2EE
330
1F
100
AcDbEntity
  8
0
  6
CONTINUOUS
 62
     7
100
AcDbLine
 10
115.5096254536
 20
-2.012216848550025
 30
0.0
 11
116.3096278199
 21
-2.012216848550025
 31
0.0
  0
LINE
  5
2EF
330
1F
100
AcDbEntity
  8
0
  6
CONTINUOUS
 62
     7
100
AcDbLine
 10
115.5096254536
 20
-14.35221581645001
 30
0.0
 11
116.3096278199
 21
-14.35221581645001
 31
0.0
  0
LINE
  5
2F0
330
1F
100
AcDbEntity
  8
0
  6
CONTINUOUS
 62
     7
100
AcDbLine
 10
115.5096254536
 20
-9.632217128950032
 30
0.0
 11
116.3096278199
 21
-9.632217128950032
 31
0.0
  0
LINE
  5
2F1
330
1F
100
AcDbEntity
  8
0
  6
CONTINUOUS
 62
     7
100
AcDbLine
 10
115.5096254536
 20
5.607783431949969
 30
0.0
 11
116.3096278199
 21
5.607783431949969
 31
0.0
  0
LINE
  5
2F2
330
1F
100
AcDbEntity
  8
0
  6
CONTINUOUS
 62
     7
100
AcDbLine
 10
115.5096254536
 20
13.22778347954997
 30
0.0
 11
116.3096278199
 21
13.22778347954997
 31
0.0
  0
LINE
  5
2F3
330
1F
100
AcDbEntity
  8
0
  6
CONTINUOUS
 62
     7
100
AcDbLine
 10
115.5096254536
 20
31.36778400354999
 30
0.0
 11
116.3096278199
 21
31.36778400354999
 31
0.0
  0
LINE
  5
2F4
330
1F
100
AcDbEntity
  8
0
  6
CONTINUOUS
 62
     7
100
AcDbLine
 10
115.5096254536
 20
0.887783813049964
 30
0.0
 11
116.3096278199
 21
0.887783813049964
 31
0.0
  0
LINE
  5
2F5
330
1F
100
AcDbEntity
  8
0
  6
CONTINUOUS
 62
     7
100
AcDbLine
 10
115.5096254536
 20
23.74778372304996
 30
0.0
 11
116.3096278199
 21
23.74778372304996
 31
0.0
  0
LINE
  5
2F6
330
1F
100
AcDbEntity
  8
0
  6
CONTINUOUS
 62
     7
100
AcDbLine
 10
115.5096254536
 20
43.70778204014997
 30
0.0
 11
116.3096278199
 21
43.70778204014997
 31
0.0
  0
LINE
  5
2F7
330
1F
100
AcDbEntity
  8
0
  6
CONTINUOUS
 62
     7
100
AcDbLine
 10
115.5096254536
 20
-21.97221516555004
 30
0.0
 11
116.3096278199
 21
-21.97221516555004
 31
0.0
  0
LINE
  5
2F8
330
1F
100
AcDbEntity
  8
0
  6
CONTINUOUS
 62
     7
100
AcDbLine
 10
115.5096254536
 20
46.60778270174995
 30
0.0
 11
116.3096278199
 21
46.60778270174995
 31
0.0
  0
LINE
  5
2F9
330
1F
100
AcDbEntity
  8
0
  6
CONTINUOUS
 62
     7
100
AcDbLine
 10
115.5096254536
 20
-24.87221582715003
 30
0.0
 11
116.3096278199
 21
-24.87221582715003
 31
0.0
  0
LINE
  5
2FA
330
1F
100
AcDbEntity
  8
0
  6
CONTINUOUS
 62
     7
100
AcDbLine
 10
184.2096260974
 20
48.45778421575
 30
0.0
 11
193.809628416
 21
48.45778421575
 31
0.0
  0
LINE
  5
2FB
330
1F
100
AcDbEntity
  8
0
  6
CONTINUOUS
 62
     7
100
AcDbLine
 10
194.90962841
 20
49.66778458174997
 30
0.0
 11
184.2096260974
 21
49.66778458174997
 31
0.0
  0
LINE
  5
2FC
330
1F
100
AcDbEntity
  8
0
  6
CONTINUOUS
 62
     7
100
AcDbLine
 10
194.90962841
 20
-27.93221770715002
 30
0.0
 11
194.90962841
 21
49.66778458174997
 31
0.0
  0
LINE
  5
2FD
330
1F
100
AcDbEntity
  8
0
  6
CONTINUOUS
 62
     7
100
AcDbLine
 10
194.90962841
 20
-27.93221770715002
 30
0.0
 11
184.2096260974
 21
-27.93221770715002
 31
0.0
  0
LINE
  5
2FE
330
1F
100
AcDbEntity
  8
0
  6
CONTINUOUS
 62
     7
100
AcDbLine
 10
193.809628416
 20
-26.72221734115001
 30
0.0
 11
184.2096260974
 21
-26.72221734115001
 31
0.0
  0
LINE
  5
2FF
330
1F
100
AcDbEntity
  8
0
  6
CONTINUOUS
 62
     7
100
AcDbLine
 10
193.809628416
 20
-20.12221737695003
 30
0.0
 11
193.809628416
 21
-26.72221734115001
 31
0.0
  0
LINE
  5
300
330
1F
100
AcDbEntity
  8
0
  6
CONTINUOUS
 62
     7
100
AcDbLine
 10
184.2096260974
 20
-20.12221737695003
 30
0.0
 11
193.809628416
 21
-20.12221737695003
 31
0.0
  0
LINE
  5
301
330
1F
100
AcDbEntity
  8
0
  6
CONTINUOUS
 62
     7
100
AcDbLine
 10
193.809628416
 20
-19.10221612935004
 30
0.0
 11
184.2096260974
 21
-19.10221612935004
 31
0.0
  0
LINE
  5
302
330
1F
100
AcDbEntity
  8
0
  6
CONTINUOUS
 62
     7
100
AcDbLine
 10
193.809628416
 20
-12.50221616515003
 30
0.0
 11
193.809628416
 21
-19.10221612935004
 31
0.0
  0
LINE
  5
303
330
1F
100
AcDbEntity
  8
0
  6
CONTINUOUS
 62
     7
100
AcDbLine
 10
184.2096260974
 20
-12.50221616515003
 30
0.0
 11
193.809628416
 21
-12.50221616515003
 31
0.0
  0
LINE
  5
304
330
1F
100
AcDbEntity
  8
0
  6
CONTINUOUS
 62
     7
100
AcDbLine
 10
193.809628416
 20
-11.48221678025001
 30
0.0
 11
184.2096260974
 21
-11.48221678025001
 31
0.0
  0
LINE
  5
305
330
1F
100
AcDbEntity
  8
0
  6
CONTINUOUS
 62
     7
100
AcDbLine
 10
193.809628416
 20
-4.882216816050033
 30
0.0
 11
193.809628416
 21
-11.48221678025001
 31
0.0
  0
LINE
  5
306
330
1F
100
AcDbEntity
  8
0
  6
CONTINUOUS
 62
     7
100
AcDbLine
 10
184.2096260974
 20
-4.882216816050033
 30
0.0
 11
193.809628416
 21
-4.882216816050033
 31
0.0
  0
LINE
  5
307
330
1F
100
AcDbEntity
  8
0
  6
CONTINUOUS
 62
     7
100
AcDbLine
 10
193.809628416
 20
-3.862216499850035
 30
0.0
 11
184.2096260974
 21
-3.862216499850035
 31
0.0
  0
LINE
  5
308
330
1F
100
AcDbEntity
  8
0
  6
CONTINUOUS
 62
     7
100
AcDbLine
 10
193.809628416
 20
2.737783464449961
 30
0.0
 11
193.809628416
 21
-3.862216499850035
 31
0.0
  0
LINE
  5
309
330
1F
100
AcDbEntity
  8
0
  6
CONTINUOUS
 62
     7
100
AcDbLine
 10
184.2096260974
 20
2.737783464449961
 30
0.0
 11
193.809628416
 21
2.737783464449961
 31
0.0
  0
LINE
  5
30A
330
1F
100
AcDbEntity
  8
0
  6
CONTINUOUS
 62
     7
100
AcDbLine
 10
193.809628416
 20
3.757783314949961
 30
0.0
 11
184.2096260974
 21
3.757783314949961
 31
0.0
  0
LINE
  5
30B
330
1F
100
AcDbEntity
  8
0
  6
CONTINUOUS
 62
     7
100
AcDbLine
 10
193.809628416
 20
10.35778345384998
 30
0.0
 11
193.809628416
 21
3.757783314949961
 31
0.0
  0
LINE
  5
30C
330
1F
100
AcDbEntity
  8
0
  6
CONTINUOUS
 62
     7
100
AcDbLine
 10
184.2096260974
 20
10.35778345384998
 30
0.0
 11
193.809628416
 21
10.35778345384998
 31
0.0
  0
LINE
  5
30D
330
1F
100
AcDbEntity
  8
0
  6
CONTINUOUS
 62
     7
100
AcDbLine
 10
193.809628416
 20
11.37778342074998
 30
0.0
 11
184.2096260974
 21
11.37778342074998
 31
0.0
  0
LINE
  5
30E
330
1F
100
AcDbEntity
  8
0
  6
CONTINUOUS
 62
     7
100
AcDbLine
 10
193.809628416
 20
17.97778355964996
 30
0.0
 11
193.809628416
 21
11.37778342074998
 31
0.0
  0
LINE
  5
30F
330
1F
100
AcDbEntity
  8
0
  6
CONTINUOUS
 62
     7
100
AcDbLine
 10
184.2096260974
 20
17.97778355964996
 30
0.0
 11
193.809628416
 21
17.97778355964996
 31
0.0
  0
LINE
  5
310
330
1F
100
AcDbEntity
  8
0
  6
CONTINUOUS
 62
     7
100
AcDbLine
 10
193.809628416
 20
18.99778341014996
 30
0.0
 11
184.2096260974
 21
18.99778341014996
 31
0.0
  0
LINE
  5
311
330
1F
100
AcDbEntity
  8
0
  6
CONTINUOUS
 62
     7
100
AcDbLine
 10
193.809628416
 20
25.59778337444996
 30
0.0
 11
193.809628416
 21
18.99778341014996
 31
0.0
  0
LINE
  5
312
330
1F
100
AcDbEntity
  8
0
  6
CONTINUOUS
 62
     7
100
AcDbLine
 10
184.2096260974
 20
25.59778337444996
 30
0.0
 11
193.809628416
 21
25.59778337444996
 31
0.0
  0
LINE
  5
313
330
1F
100
AcDbEntity
  8
0
  6
CONTINUOUS
 62
     7
100
AcDbLine
 10
193.809628416
 20
26.61778369064999
 30
0.0
 11
184.2096260974
 21
26.61778369064999
 31
0.0
  0
LINE
  5
314
330
1F
100
AcDbEntity
  8
0
  6
CONTINUOUS
 62
     7
100
AcDbLine
 10
193.809628416
 20
33.21778365484997
 30
0.0
 11
193.809628416
 21
26.61778369064999
 31
0.0
  0
LINE
  5
315
330
1F
100
AcDbEntity
  8
0
  6
CONTINUOUS
 62
     7
100
AcDbLine
 10
184.2096260974
 20
33.21778365484997
 30
0.0
 11
193.809628416
 21
33.21778365484997
 31
0.0
  0
LINE
  5
316
330
1F
100
AcDbEntity
  8
0
  6
CONTINUOUS
 62
     7
100
AcDbLine
 10
193.809628416
 20
34.23778303974998
 30
0.0
 11
184.2096260974
 21
34.23778303974998
 31
0.0
  0
LINE
  5
317
330
1F
100
AcDbEntity
  8
0
  6
CONTINUOUS
 62
     7
100
AcDbLine
 10
193.809628416
 20
40.83778300394997
 30
0.0
 11
193.809628416
 21
34.23778303974998
 31
0.0
  0
LINE
  5
318
330
1F
100
AcDbEntity
  8
0
  6
CONTINUOUS
 62
     7
100
AcDbLine
 10
184.2096260974
 20
40.83778300394997
 30
0.0
 11
193.809628416
 21
40.83778300394997
 31
0.0
  0
LINE
  5
319
330
1F
100
AcDbEntity
  8
0
  6
CONTINUOUS
 62
     7
100
AcDbLine
 10
193.809628416
 20
41.85778425144997
 30
0.0
 11
184.2096260974
 21
41.85778425144997
 31
0.0
  0
LINE
  5
31A
330
1F
100
AcDbEntity
  8
0
  6
CONTINUOUS
 62
     7
100
AcDbLine
 10
193.809628416
 20
48.45778421575
 30
0.0
 11
193.809628416
 21
41.85778425144997
 31
0.0
  0
LINE
  5
31B
330
1F
100
AcDbEntity
  8
0
  6
CONTINUOUS
 62
     7
100
AcDbLine
 10
183.2096277961
 20
-27.93221770715002
 30
0.0
 11
183.2096277961
 21
-26.72221734115001
 31
0.0
  0
LINE
  5
31C
330
1F
100
AcDbEntity
  8
0
  6
CONTINUOUS
 62
     7
100
AcDbLine
 10
184.2096260974
 20
-27.93221770715002
 30
0.0
 11
183.2096277961
 21
-27.93221770715002
 31
0.0
  0
LINE
  5
31D
330
1F
100
AcDbEntity
  8
0
  6
CONTINUOUS
 62
     7
100
AcDbLine
 10
183.2096277961
 20
-26.72221734115001
 30
0.0
 11
184.2096260974
 21
-26.72221734115001
 31
0.0
  0
LINE
  5
31E
330
1F
100
AcDbEntity
  8
0
  6
CONTINUOUS
 62
     7
100
AcDbLine
 10
183.2096277961
 20
-20.12221737695003
 30
0.0
 11
183.2096277961
 21
-19.10221612935004
 31
0.0
  0
LINE
  5
31F
330
1F
100
AcDbEntity
  8
0
  6
CONTINUOUS
 62
     7
100
AcDbLine
 10
183.2096277961
 20
-20.12221737695003
 30
0.0
 11
184.2096260974
 21
-20.12221737695003
 31
0.0
  0
LINE
  5
320
330
1F
100
AcDbEntity
  8
0
  6
CONTINUOUS
 62
     7
100
AcDbLine
 10
183.2096277961
 20
-19.10221612935004
 30
0.0
 11
184.2096260974
 21
-19.10221612935004
 31
0.0
  0
LINE
  5
321
330
1F
100
AcDbEntity
  8
0
  6
CONTINUOUS
 62
     7
100
AcDbLine
 10
183.2096277961
 20
48.45778421575
 30
0.0
 11
183.2096277961
 21
49.66778458174997
 31
0.0
  0
LINE
  5
322
330
1F
100
AcDbEntity
  8
0
  6
CONTINUOUS
 62
     7
100
AcDbLine
 10
183.2096277961
 20
49.66778458174997
 30
0.0
 11
184.2096260974
 21
49.66778458174997
 31
0.0
  0
LINE
  5
323
330
1F
100
AcDbEntity
  8
0
  6
CONTINUOUS
 62
     7
100
AcDbLine
 10
183.2096277961
 20
48.45778421575
 30
0.0
 11
184.2096260974
 21
48.45778421575
 31
0.0
  0
LINE
  5
324
330
1F
100
AcDbEntity
  8
0
  6
CONTINUOUS
 62
     7
100
AcDbLine
 10
183.2096277961
 20
40.83778300394997
 30
0.0
 11
183.2096277961
 21
41.85778425144997
 31
0.0
  0
LINE
  5
325
330
1F
100
AcDbEntity
  8
0
  6
CONTINUOUS
 62
     7
100
AcDbLine
 10
183.2096277961
 20
41.85778425144997
 30
0.0
 11
184.2096260974
 21
41.85778425144997
 31
0.0
  0
LINE
  5
326
330
1F
100
AcDbEntity
  8
0
  6
CONTINUOUS
 62
     7
100
AcDbLine
 10
184.2096260974
 20
40.83778300394997
 30
0.0
 11
183.2096277961
 21
40.83778300394997
 31
0.0
  0
LINE
  5
327
330
1F
100
AcDbEntity
  8
0
  6
CONTINUOUS
 62
     7
100
AcDbLine
 10
183.2096277961
 20
25.59778337444996
 30
0.0
 11
183.2096277961
 21
26.61778369064999
 31
0.0
  0
LINE
  5
328
330
1F
100
AcDbEntity
  8
0
  6
CONTINUOUS
 62
     7
100
AcDbLine
 10
183.2096277961
 20
25.59778337444996
 30
0.0
 11
184.2096260974
 21
25.59778337444996
 31
0.0
  0
LINE
  5
329
330
1F
100
AcDbEntity
  8
0
  6
CONTINUOUS
 62
     7
100
AcDbLine
 10
183.2096277961
 20
26.61778369064999
 30
0.0
 11
184.2096260974
 21
26.61778369064999
 31
0.0
  0
LINE
  5
32A
330
1F
100
AcDbEntity
  8
0
  6
CONTINUOUS
 62
     7
100
AcDbLine
 10
183.2096277961
 20
17.97778355964996
 30
0.0
 11
183.2096277961
 21
18.99778341014996
 31
0.0
  0
LINE
  5
32B
330
1F
100
AcDbEntity
  8
0
  6
CONTINUOUS
 62
     7
100
AcDbLine
 10
183.2096277961
 20
18.99778341014996
 30
0.0
 11
184.2096260974
 21
18.99778341014996
 31
0.0
  0
LINE
  5
32C
330
1F
100
AcDbEntity
  8
0
  6
CONTINUOUS
 62
     7
100
AcDbLine
 10
183.2096277961
 20
17.97778355964996
 30
0.0
 11
184.2096260974
 21
17.97778355964996
 31
0.0
  0
LINE
  5
32D
330
1F
100
AcDbEntity
  8
0
  6
CONTINUOUS
 62
     7
100
AcDbLine
 10
183.2096277961
 20
10.35778345384998
 30
0.0
 11
183.2096277961
 21
11.37778342074998
 31
0.0
  0
LINE
  5
32E
330
1F
100
AcDbEntity
  8
0
  6
CONTINUOUS
 62
     7
100
AcDbLine
 10
183.2096277961
 20
11.37778342074998
 30
0.0
 11
184.2096260974
 21
11.37778342074998
 31
0.0
  0
LINE
  5
32F
330
1F
100
AcDbEntity
  8
0
  6
CONTINUOUS
 62
     7
100
AcDbLine
 10
183.2096277961
 20
10.35778345384998
 30
0.0
 11
184.2096260974
 21
10.35778345384998
 31
0.0
  0
LINE
  5
330
330
1F
100
AcDbEntity
  8
0
  6
CONTINUOUS
 62
     7
100
AcDbLine
 10
183.2096277961
 20
-4.882216816050033
 30
0.0
 11
183.2096277961
 21
-3.862216499850035
 31
0.0
  0
LINE
  5
331
330
1F
100
AcDbEntity
  8
0
  6
CONTINUOUS
 62
     7
100
AcDbLine
 10
183.2096277961
 20
-3.862216499850035
 30
0.0
 11
184.2096260974
 21
-3.862216499850035
 31
0.0
  0
LINE
  5
332
330
1F
100
AcDbEntity
  8
0
  6
CONTINUOUS
 62
     7
100
AcDbLine
 10
183.2096277961
 20
-4.882216816050033
 30
0.0
 11
184.2096260974
 21
-4.882216816050033
 31
0.0
  0
LINE
  5
333
330
1F
100
AcDbEntity
  8
0
  6
CONTINUOUS
 62
     7
100
AcDbLine
 10
183.2096277961
 20
-12.50221616515003
 30
0.0
 11
183.2096277961
 21
-11.48221678025001
 31
0.0
  0
LINE
  5
334
330
1F
100
AcDbEntity
  8
0
  6
CONTINUOUS
 62
     7
100
AcDbLine
 10
183.2096277961
 20
-11.48221678025001
 30
0.0
 11
184.2096260974
 21
-11.48221678025001
 31
0.0
  0
LINE
  5
335
330
1F
100
AcDbEntity
  8
0
  6
CONTINUOUS
 62
     7
100
AcDbLine
 10
183.2096277961
 20
-12.50221616515003
 30
0.0
 11
184.2096260974
 21
-12.50221616515003
 31
0.0
  0
LINE
  5
336
330
1F
100
AcDbEntity
  8
0
  6
CONTINUOUS
 62
     7
100
AcDbLine
 10
183.2096277961
 20
33.21778365484997
 30
0.0
 11
183.2096277961
 21
34.23778303974998
 31
0.0
  0
LINE
  5
337
330
1F
100
AcDbEntity
  8
0
  6
CONTINUOUS
 62
     7
100
AcDbLine
 10
183.2096277961
 20
33.21778365484997
 30
0.0
 11
184.2096260974
 21
33.21778365484997
 31
0.0
  0
LINE
  5
338
330
1F
100
AcDbEntity
  8
0
  6
CONTINUOUS
 62
     7
100
AcDbLine
 10
183.2096277961
 20
34.23778303974998
 30
0.0
 11
184.2096260974
 21
34.23778303974998
 31
0.0
  0
LINE
  5
339
330
1F
100
AcDbEntity
  8
0
  6
CONTINUOUS
 62
     7
100
AcDbLine
 10
183.2096277961
 20
2.737783464449961
 30
0.0
 11
183.2096277961
 21
3.757783314949961
 31
0.0
  0
LINE
  5
33A
330
1F
100
AcDbEntity
  8
0
  6
CONTINUOUS
 62
     7
100
AcDbLine
 10
183.2096277961
 20
2.737783464449961
 30
0.0
 11
184.2096260974
 21
2.737783464449961
 31
0.0
  0
LINE
  5
33B
330
1F
100
AcDbEntity
  8
0
  6
CONTINUOUS
 62
     7
100
AcDbLine
 10
183.2096277961
 20
3.757783314949961
 30
0.0
 11
184.2096260974
 21
3.757783314949961
 31
0.0
  0
LINE
  5
33C
330
1F
100
AcDbEntity
  8
0
  6
CONTINUOUS
 62
     7
100
AcDbLine
 10
177.9096274862
 20
48.45778421575
 30
0.0
 11
177.9096274862
 21
49.66778458174997
 31
0.0
  0
LINE
  5
33D
330
1F
100
AcDbEntity
  8
0
  6
CONTINUOUS
 62
     7
100
AcDbLine
 10
179.1096273103
 20
49.66778458174997
 30
0.0
 11
177.9096274862
 21
49.66778458174997
 31
0.0
  0
LINE
  5
33E
330
1F
100
AcDbEntity
  8
0
  6
CONTINUOUS
 62
     7
100
AcDbLine
 10
179.1096273103
 20
49.66778458174997
 30
0.0
 11
183.2096277961
 21
49.66778458174997
 31
0.0
  0
LINE
  5
33F
330
1F
100
AcDbEntity
  8
0
  6
CONTINUOUS
 62
     7
100
AcDbLine
 10
177.9096274862
 20
48.45778421575
 30
0.0
 11
183.2096277961
 21
48.45778421575
 31
0.0
  0
LINE
  5
340
330
1F
100
AcDbEntity
  8
0
  6
CONTINUOUS
 62
     7
100
AcDbLine
 10
179.1096273103
 20
-27.93221770715002
 30
0.0
 11
177.9096274862
 21
-27.93221770715002
 31
0.0
  0
LINE
  5
341
330
1F
100
AcDbEntity
  8
0
  6
CONTINUOUS
 62
     7
100
AcDbLine
 10
177.9096274862
 20
-26.72221734115001
 30
0.0
 11
177.9096274862
 21
-27.93221770715002
 31
0.0
  0
LINE
  5
342
330
1F
100
AcDbEntity
  8
0
  6
CONTINUOUS
 62
     7
100
AcDbLine
 10
183.2096277961
 20
-27.93221770715002
 30
0.0
 11
179.1096273103
 21
-27.93221770715002
 31
0.0
  0
LINE
  5
343
330
1F
100
AcDbEntity
  8
0
  6
CONTINUOUS
 62
     7
100
AcDbLine
 10
183.2096277961
 20
-26.72221734115001
 30
0.0
 11
177.9096274862
 21
-26.72221734115001
 31
0.0
  0
LINE
  5
344
330
1F
100
AcDbEntity
  8
0
  6
CONTINUOUS
 62
     7
100
AcDbLine
 10
179.1096273103
 20
55.62200919794998
 30
0.0
 11
179.1096273103
 21
49.66778458174997
 31
0.0
  0
LINE
  5
345
330
1F
100
AcDbEntity
  8
0
  6
CONTINUOUS
 62
     7
100
AcDbLine
 10
177.9096274862
 20
49.66778458174997
 30
0.0
 11
177.9096274862
 21
55.62200919794998
 31
0.0
  0
LINE
  5
346
330
1F
100
AcDbEntity
  8
0
  6
CONTINUOUS
 62
     7
100
AcDbLine
 10
179.1096273103
 20
-27.93221770715002
 30
0.0
 11
179.1096273103
 21
-33.88644232345001
 31
0.0
  0
LINE
  5
347
330
1F
100
AcDbEntity
  8
0
  6
CONTINUOUS
 62
     7
100
AcDbLine
 10
177.9096274862
 20
-27.93221770715002
 30
0.0
 11
177.9096274862
 21
-33.88644232345001
 31
0.0
  0
LINE
  5
348
330
1F
100
AcDbEntity
  8
0
  6
CONTINUOUS
 62
     7
100
AcDbLine
 10
190.5096284339
 20
-33.88644232345001
 30
0.0
 11
190.5096284339
 21
-27.93221770715002
 31
0.0
  0
LINE
  5
349
330
1F
100
AcDbEntity
  8
0
  6
CONTINUOUS
 62
     7
100
AcDbLine
 10
191.7096263954
 20
-27.93221770715002
 30
0.0
 11
191.7096263954
 21
-33.88644232345001
 31
0.0
  0
LINE
  5
34A
330
1F
100
AcDbEntity
  8
0
  6
CONTINUOUS
 62
     7
100
AcDbLine
 10
191.7096263954
 20
49.66778458174997
 30
0.0
 11
191.7096263954
 21
55.62200919794998
 31
0.0
  0
LINE
  5
34B
330
1F
100
AcDbEntity
  8
0
  6
CONTINUOUS
 62
     7
100
AcDbLine
 10
190.5096284339
 20
55.62200919794998
 30
0.0
 11
190.5096284339
 21
49.66778458174997
 31
0.0
  0
LINE
  5
34C
330
1F
100
AcDbEntity
  8
0
  6
CONTINUOUS
 62
     7
100
AcDbLine
 10
183.7096288094
 20
-20.12221737695003
 30
0.0
 11
183.7096288094
 21
-26.72221734115001
 31
0.0
  0
LINE
  5
34D
330
1F
100
AcDbEntity
  8
0
  6
CONTINUOUS
 62
     7
100
AcDbLine
 10
192.4096270689
 20
-26.17221548145002
 30
0.0
 11
192.4096270689
 21
-20.67221551125002
 31
0.0
  0
LINE
  5
34E
330
1F
100
AcDbEntity
  8
0
  6
CONTINUOUS
 62
     7
100
AcDbLine
 10
192.4096270689
 20
-20.67221551125002
 30
0.0
 11
184.9096267709
 21
-20.67221551125002
 31
0.0
  0
LINE
  5
34F
330
1F
100
AcDbEntity
  8
0
  6
CONTINUOUS
 62
     7
100
AcDbLine
 10
184.9096267709
 20
-20.67221551125002
 30
0.0
 11
184.9096267709
 21
-26.17221548145002
 31
0.0
  0
LINE
  5
350
330
1F
100
AcDbEntity
  8
0
  6
CONTINUOUS
 62
     7
100
AcDbLine
 10
184.9096267709
 20
-26.17221548145002
 30
0.0
 11
192.4096270689
 21
-26.17221548145002
 31
0.0
  0
LINE
  5
351
330
1F
100
AcDbEntity
  8
0
  6
CONTINUOUS
 62
     7
100
AcDbLine
 10
183.7096288094
 20
40.83778300394997
 30
0.0
 11
183.7096288094
 21
34.23778303974998
 31
0.0
  0
LINE
  5
352
330
1F
100
AcDbEntity
  8
0
  6
CONTINUOUS
 62
     7
100
AcDbLine
 10
192.4096270689
 20
34.78778303674997
 30
0.0
 11
192.4096270689
 21
40.28778300694998
 31
0.0
  0
LINE
  5
353
330
1F
100
AcDbEntity
  8
0
  6
CONTINUOUS
 62
     7
100
AcDbLine
 10
192.4096270689
 20
40.28778300694998
 30
0.0
 11
184.9096267709
 21
40.28778300694998
 31
0.0
  0
LINE
  5
354
330
1F
100
AcDbEntity
  8
0
  6
CONTINUOUS
 62
     7
100
AcDbLine
 10
184.9096267709
 20
40.28778300694998
 30
0.0
 11
184.9096267709
 21
34.78778303674997
 31
0.0
  0
LINE
  5
355
330
1F
100
AcDbEntity
  8
0
  6
CONTINUOUS
 62
     7
100
AcDbLine
 10
184.9096267709
 20
34.78778303674997
 30
0.0
 11
192.4096270689
 21
34.78778303674997
 31
0.0
  0
LINE
  5
356
330
1F
100
AcDbEntity
  8
0
  6
CONTINUOUS
 62
     7
100
AcDbLine
 10
183.7096288094
 20
2.737783464449961
 30
0.0
 11
183.7096288094
 21
-3.862216499850035
 31
0.0
  0
LINE
  5
357
330
1F
100
AcDbEntity
  8
0
  6
CONTINUOUS
 62
     7
100
AcDbLine
 10
192.4096270689
 20
-3.312216502850021
 30
0.0
 11
192.4096270689
 21
2.187783467349988
 31
0.0
  0
LINE
  5
358
330
1F
100
AcDbEntity
  8
0
  6
CONTINUOUS
 62
     7
100
AcDbLine
 10
192.4096270689
 20
2.187783467349988
 30
0.0
 11
184.9096267709
 21
2.187783467349988
 31
0.0
  0
LINE
  5
359
330
1F
100
AcDbEntity
  8
0
  6
CONTINUOUS
 62
     7
100
AcDbLine
 10
184.9096267709
 20
2.187783467349988
 30
0.0
 11
184.9096267709
 21
-3.312216502850021
 31
0.0
  0
LINE
  5
35A
330
1F
100
AcDbEntity
  8
0
  6
CONTINUOUS
 62
     7
100
AcDbLine
 10
184.9096267709
 20
-3.312216502850021
 30
0.0
 11
192.4096270689
 21
-3.312216502850021
 31
0.0
  0
LINE
  5
35B
330
1F
100
AcDbEntity
  8
0
  6
CONTINUOUS
 62
     7
100
AcDbLine
 10
183.7096288094
 20
-12.50221616515003
 30
0.0
 11
183.7096288094
 21
-19.10221612935004
 31
0.0
  0
LINE
  5
35C
330
1F
100
AcDbEntity
  8
0
  6
CONTINUOUS
 62
     7
100
AcDbLine
 10
192.4096270689
 20
-18.55221613235003
 30
0.0
 11
192.4096270689
 21
-13.05221616215002
 31
0.0
  0
LINE
  5
35D
330
1F
100
AcDbEntity
  8
0
  6
CONTINUOUS
 62
     7
100
AcDbLine
 10
192.4096270689
 20
-13.05221616215002
 30
0.0
 11
184.9096267709
 21
-13.05221616215002
 31
0.0
  0
LINE
  5
35E
330
1F
100
AcDbEntity
  8
0
  6
CONTINUOUS
 62
     7
100
AcDbLine
 10
184.9096267709
 20
-13.05221616215002
 30
0.0
 11
184.9096267709
 21
-18.55221613235003
 31
0.0
  0
LINE
  5
35F
330
1F
100
AcDbEntity
  8
0
  6
CONTINUOUS
 62
     7
100
AcDbLine
 10
184.9096267709
 20
-18.55221613235003
 30
0.0
 11
192.4096270689
 21
-18.55221613235003
 31
0.0
  0
LINE
  5
360
330
1F
100
AcDbEntity
  8
0
  6
CONTINUOUS
 62
     7
100
AcDbLine
 10
183.7096288094
 20
-4.882216816050033
 30
0.0
 11
183.7096288094
 21
-11.48221678025001
 31
0.0
  0
LINE
  5
361
330
1F
100
AcDbEntity
  8
0
  6
CONTINUOUS
 62
     7
100
AcDbLine
 10
192.4096270689
 20
-10.93221678325003
 30
0.0
 11
192.4096270689
 21
-5.432216813050019
 31
0.0
  0
LINE
  5
362
330
1F
100
AcDbEntity
  8
0
  6
CONTINUOUS
 62
     7
100
AcDbLine
 10
192.4096270689
 20
-5.432216813050019
 30
0.0
 11
184.9096267709
 21
-5.432216813050019
 31
0.0
  0
LINE
  5
363
330
1F
100
AcDbEntity
  8
0
  6
CONTINUOUS
 62
     7
100
AcDbLine
 10
184.9096267709
 20
-5.432216813050019
 30
0.0
 11
184.9096267709
 21
-10.93221678325003
 31
0.0
  0
LINE
  5
364
330
1F
100
AcDbEntity
  8
0
  6
CONTINUOUS
 62
     7
100
AcDbLine
 10
184.9096267709
 20
-10.93221678325003
 30
0.0
 11
192.4096270689
 21
-10.93221678325003
 31
0.0
  0
LINE
  5
365
330
1F
100
AcDbEntity
  8
0
  6
CONTINUOUS
 62
     7
100
AcDbLine
 10
183.7096288094
 20
33.21778365484997
 30
0.0
 11
183.7096288094
 21
26.61778369064999
 31
0.0
  0
LINE
  5
366
330
1F
100
AcDbEntity
  8
0
  6
CONTINUOUS
 62
     7
100
AcDbLine
 10
192.4096270689
 20
27.16778368764997
 30
0.0
 11
192.4096270689
 21
32.66778365784998
 31
0.0
  0
LINE
  5
367
330
1F
100
AcDbEntity
  8
0
  6
CONTINUOUS
 62
     7
100
AcDbLine
 10
192.4096270689
 20
32.66778365784998
 30
0.0
 11
184.9096267709
 21
32.66778365784998
 31
0.0
  0
LINE
  5
368
330
1F
100
AcDbEntity
  8
0
  6
CONTINUOUS
 62
     7
100
AcDbLine
 10
184.9096267709
 20
32.66778365784998
 30
0.0
 11
184.9096267709
 21
27.16778368764997
 31
0.0
  0
LINE
  5
369
330
1F
100
AcDbEntity
  8
0
  6
CONTINUOUS
 62
     7
100
AcDbLine
 10
184.9096267709
 20
27.16778368764997
 30
0.0
 11
192.4096270689
 21
27.16778368764997
 31
0.0
  0
LINE
  5
36A
330
1F
100
AcDbEntity
  8
0
  6
CONTINUOUS
 62
     7
100
AcDbLine
 10
183.7096288094
 20
17.97778355964996
 30
0.0
 11
183.7096288094
 21
11.37778342074998
 31
0.0
  0
LINE
  5
36B
330
1F
100
AcDbEntity
  8
0
  6
CONTINUOUS
 62
     7
100
AcDbLine
 10
192.4096270689
 20
11.92778347594998
 30
0.0
 11
192.4096270689
 21
17.42778356264998
 31
0.0
  0
LINE
  5
36C
330
1F
100
AcDbEntity
  8
0
  6
CONTINUOUS
 62
     7
100
AcDbLine
 10
192.4096270689
 20
17.42778356264998
 30
0.0
 11
184.9096267709
 21
17.42778356264998
 31
0.0
  0
LINE
  5
36D
330
1F
100
AcDbEntity
  8
0
  6
CONTINUOUS
 62
     7
100
AcDbLine
 10
184.9096267709
 20
17.42778356264998
 30
0.0
 11
184.9096267709
 21
11.92778347594998
 31
0.0
  0
LINE
  5
36E
330
1F
100
AcDbEntity
  8
0
  6
CONTINUOUS
 62
     7
100
AcDbLine
 10
184.9096267709
 20
11.92778347594998
 30
0.0
 11
192.4096270689
 21
11.92778347594998
 31
0.0
  0
LINE
  5
36F
330
1F
100
AcDbEntity
  8
0
  6
CONTINUOUS
 62
     7
100
AcDbLine
 10
183.7096288094
 20
48.45778421575
 30
0.0
 11
183.7096288094
 21
41.85778425144997
 31
0.0
  0
LINE
  5
370
330
1F
100
AcDbEntity
  8
0
  6
CONTINUOUS
 62
     7
100
AcDbLine
 10
192.4096270689
 20
42.40778238584997
 30
0.0
 11
192.4096270689
 21
47.90778235604995
 31
0.0
  0
LINE
  5
371
330
1F
100
AcDbEntity
  8
0
  6
CONTINUOUS
 62
     7
100
AcDbLine
 10
192.4096270689
 20
47.90778235604995
 30
0.0
 11
184.9096267709
 21
47.90778235604995
 31
0.0
  0
LINE
  5
372
330
1F
100
AcDbEntity
  8
0
  6
CONTINUOUS
 62
     7
100
AcDbLine
 10
184.9096267709
 20
47.90778235604995
 30
0.0
 11
184.9096267709
 21
42.40778238584997
 31
0.0
  0
LINE
  5
373
330
1F
100
AcDbEntity
  8
0
  6
CONTINUOUS
 62
     7
100
AcDbLine
 10
184.9096267709
 20
42.40778238584997
 30
0.0
 11
192.4096270689
 21
42.40778238584997
 31
0.0
  0
LINE
  5
374
330
1F
100
AcDbEntity
  8
0
  6
CONTINUOUS
 62
     7
100
AcDbLine
 10
183.7096288094
 20
10.35778345384998
 30
0.0
 11
183.7096288094
 21
3.757783314949961
 31
0.0
  0
LINE
  5
375
330
1F
100
AcDbEntity
  8
0
  6
CONTINUOUS
 62
     7
100
AcDbLine
 10
192.4096270689
 20
4.307783311949976
 30
0.0
 11
192.4096270689
 21
9.807783398549986
 31
0.0
  0
LINE
  5
376
330
1F
100
AcDbEntity
  8
0
  6
CONTINUOUS
 62
     7
100
AcDbLine
 10
192.4096270689
 20
9.807783398549986
 30
0.0
 11
184.9096267709
 21
9.807783398549986
 31
0.0
  0
LINE
  5
377
330
1F
100
AcDbEntity
  8
0
  6
CONTINUOUS
 62
     7
100
AcDbLine
 10
184.9096267709
 20
9.807783398549986
 30
0.0
 11
184.9096267709
 21
4.307783311949976
 31
0.0
  0
LINE
  5
378
330
1F
100
AcDbEntity
  8
0
  6
CONTINUOUS
 62
     7
100
AcDbLine
 10
184.9096267709
 20
4.307783311949976
 30
0.0
 11
192.4096270689
 21
4.307783311949976
 31
0.0
  0
LINE
  5
379
330
1F
100
AcDbEntity
  8
0
  6
CONTINUOUS
 62
     7
100
AcDbLine
 10
183.7096288094
 20
25.59778337444996
 30
0.0
 11
183.7096288094
 21
18.99778341014996
 31
0.0
  0
LINE
  5
37A
330
1F
100
AcDbEntity
  8
0
  6
CONTINUOUS
 62
     7
100
AcDbLine
 10
192.4096270689
 20
19.54778340714998
 30
0.0
 11
192.4096270689
 21
25.04778337734999
 31
0.0
  0
LINE
  5
37B
330
1F
100
AcDbEntity
  8
0
  6
CONTINUOUS
 62
     7
100
AcDbLine
 10
192.4096270689
 20
25.04778337734999
 30
0.0
 11
184.9096267709
 21
25.04778337734999
 31
0.0
  0
LINE
  5
37C
330
1F
100
AcDbEntity
  8
0
  6
CONTINUOUS
 62
     7
100
AcDbLine
 10
184.9096267709
 20
25.04778337734999
 30
0.0
 11
184.9096267709
 21
19.54778340714998
 31
0.0
  0
LINE
  5
37D
330
1F
100
AcDbEntity
  8
0
  6
CONTINUOUS
 62
     7
100
AcDbLine
 10
184.9096267709
 20
19.54778340714998
 30
0.0
 11
192.4096270689
 21
19.54778340714998
 31
0.0
  0
LINE
  5
37E
330
1F
100
AcDbEntity
  8
0
  6
CONTINUOUS
 62
     7
100
AcDbLine
 10
191.7096263954
 20
-34.53221767135003
 30
0.0
 11
190.5096284339
 21
-34.53221767135003
 31
0.0
  0
LINE
  5
37F
330
1F
100
AcDbEntity
  8
0
  6
CONTINUOUS
 62
     7
100
AcDbLine
 10
190.5096284339
 20
-34.53221767135003
 30
0.0
 11
190.5096284339
 21
-33.88644232345001
 31
0.0
  0
LINE
  5
380
330
1F
100
AcDbEntity
  8
0
  6
CONTINUOUS
 62
     7
100
AcDbLine
 10
191.7096263954
 20
-33.88644232345001
 30
0.0
 11
191.7096263954
 21
-34.53221767135003
 31
0.0
  0
LINE
  5
381
330
1F
100
AcDbEntity
  8
0
  6
CONTINUOUS
 62
     7
100
AcDbLine
 10
179.1096273103
 20
-34.53221767135003
 30
0.0
 11
177.9096274862
 21
-34.53221767135003
 31
0.0
  0
LINE
  5
382
330
1F
100
AcDbEntity
  8
0
  6
CONTINUOUS
 62
     7
100
AcDbLine
 10
179.1096273103
 20
-33.88644232345001
 30
0.0
 11
179.1096273103
 21
-34.53221767135003
 31
0.0
  0
LINE
  5
383
330
1F
100
AcDbEntity
  8
0
  6
CONTINUOUS
 62
     7
100
AcDbLine
 10
177.9096274862
 20
-34.53221767135003
 30
0.0
 11
177.9096274862
 21
-33.88644232345001
 31
0.0
  0
LINE
  5
384
330
1F
100
AcDbEntity
  8
0
  6
CONTINUOUS
 62
     7
100
AcDbLine
 10
190.5096284339
 20
56.26778454594995
 30
0.0
 11
191.7096263954
 21
56.26778454594995
 31
0.0
  0
LINE
  5
385
330
1F
100
AcDbEntity
  8
0
  6
CONTINUOUS
 62
     7
100
AcDbLine
 10
191.7096263954
 20
55.62200919794998
 30
0.0
 11
191.7096263954
 21
56.26778454594995
 31
0.0
  0
LINE
  5
386
330
1F
100
AcDbEntity
  8
0
  6
CONTINUOUS
 62
     7
100
AcDbLine
 10
190.5096284339
 20
56.26778454594995
 30
0.0
 11
190.5096284339
 21
55.62200919794998
 31
0.0
  0
LINE
  5
387
330
1F
100
AcDbEntity
  8
0
  6
CONTINUOUS
 62
     7
100
AcDbLine
 10
177.9096274862
 20
56.26778454594995
 30
0.0
 11
179.1096273103
 21
56.26778454594995
 31
0.0
  0
LINE
  5
388
330
1F
100
AcDbEntity
  8
0
  6
CONTINUOUS
 62
     7
100
AcDbLine
 10
179.1096273103
 20
56.26778454594995
 30
0.0
 11
179.1096273103
 21
55.62200919794998
 31
0.0
  0
LINE
  5
389
330
1F
100
AcDbEntity
  8
0
  6
CONTINUOUS
 62
     7
100
AcDbLine
 10
177.9096274862
 20
55.62200919794998
 30
0.0
 11
177.9096274862
 21
56.26778454594995
 31
0.0
  0
LINE
  5
38A
330
1F
100
AcDbEntity
  8
0
  6
CONTINUOUS
 62
     7
100
AcDbLine
 10
179.1096273103
 20
56.26778454594995
 30
0.0
 11
190.5096284339
 21
56.26778454594995
 31
0.0
  0
LINE
  5
38B
330
1F
100
AcDbEntity
  8
0
  6
CONTINUOUS
 62
     7
100
AcDbLine
 10
179.1096273103
 20
-34.53221767135003
 30
0.0
 11
190.5096284339
 21
-34.53221767135003
 31
0.0
  0
LINE
  5
38C
330
1F
100
AcDbEntity
  8
0
  6
CONTINUOUS
 62
     7
100
AcDbLine
 10
177.9096274862
 20
-26.22221632785002
 30
0.0
 11
177.9096274862
 21
-26.72221734115001
 31
0.0
  0
LINE
  5
38D
330
1F
100
AcDbEntity
  8
0
  6
CONTINUOUS
 62
     7
100
AcDbLine
 10
177.9096274862
 20
48.45778421575
 30
0.0
 11
177.9096274862
 21
47.95778320244995
 31
0.0
  0
LINE
  5
38E
330
1F
100
AcDbEntity
  8
0
  6
CONTINUOUS
 62
     7
100
AcDbLine
 10
186.2096264252
 20
19.54778340714998
 30
0.0
 11
186.2096264252
 21
25.04778337734999
 31
0.0
  0
LINE
  5
38F
330
1F
100
AcDbEntity
  8
0
  6
CONTINUOUS
 62
     7
100
AcDbLine
 10
186.2096264252
 20
34.78778303674997
 30
0.0
 11
186.2096264252
 21
40.28778300694998
 31
0.0
  0
LINE
  5
390
330
1F
100
AcDbEntity
  8
0
  6
CONTINUOUS
 62
     7
100
AcDbLine
 10
186.2096264252
 20
11.92778347594998
 30
0.0
 11
186.2096264252
 21
17.42778356264998
 31
0.0
  0
LINE
  5
391
330
1F
100
AcDbEntity
  8
0
  6
CONTINUOUS
 62
     7
100
AcDbLine
 10
186.2096264252
 20
42.40778238584997
 30
0.0
 11
186.2096264252
 21
47.90778235604995
 31
0.0
  0
LINE
  5
392
330
1F
100
AcDbEntity
  8
0
  6
CONTINUOUS
 62
     7
100
AcDbLine
 10
186.2096264252
 20
-10.93221678325003
 30
0.0
 11
186.2096264252
 21
-5.432216813050019
 31
0.0
  0
LINE
  5
393
330
1F
100
AcDbEntity
  8
0
  6
CONTINUOUS
 62
     7
100
AcDbLine
 10
186.2096264252
 20
4.307783311949976
 30
0.0
 11
186.2096264252
 21
9.807783398549986
 31
0.0
  0
LINE
  5
394
330
1F
100
AcDbEntity
  8
0
  6
CONTINUOUS
 62
     7
100
AcDbLine
 10
186.2096264252
 20
-3.312216502850021
 30
0.0
 11
186.2096264252
 21
2.187783467349988
 31
0.0
  0
LINE
  5
395
330
1F
100
AcDbEntity
  8
0
  6
CONTINUOUS
 62
     7
100
AcDbLine
 10
186.2096264252
 20
27.16778368764997
 30
0.0
 11
186.2096264252
 21
32.66778365784998
 31
0.0
  0
LINE
  5
396
330
1F
100
AcDbEntity
  8
0
  6
CONTINUOUS
 62
     7
100
AcDbLine
 10
186.2096264252
 20
-18.55221613235003
 30
0.0
 11
186.2096264252
 21
-13.05221616215002
 31
0.0
  0
LINE
  5
397
330
1F
100
AcDbEntity
  8
0
  6
CONTINUOUS
 62
     7
100
AcDbLine
 10
186.2096264252
 20
-26.17221548145002
 30
0.0
 11
186.2096264252
 21
-20.67221551125002
 31
0.0
  0
LINE
  5
398
330
1F
100
AcDbEntity
  8
0
  6
CONTINUOUS
 62
     7
100
AcDbLine
 10
185.7096291372
 20
47.90778235604995
 30
0.0
 11
185.7096291372
 21
42.40778238584997
 31
0.0
  0
LINE
  5
399
330
1F
100
AcDbEntity
  8
0
  6
CONTINUOUS
 62
     7
100
AcDbLine
 10
185.7096291372
 20
-20.67221551125002
 30
0.0
 11
185.7096291372
 21
-26.17221548145002
 31
0.0
  0
LINE
  5
39A
330
1F
100
AcDbEntity
  8
0
  6
CONTINUOUS
 62
     7
100
AcDbLine
 10
185.7096291372
 20
2.187783467349988
 30
0.0
 11
185.7096291372
 21
-3.312216502850021
 31
0.0
  0
LINE
  5
39B
330
1F
100
AcDbEntity
  8
0
  6
CONTINUOUS
 62
     7
100
AcDbLine
 10
185.7096291372
 20
32.66778365784998
 30
0.0
 11
185.7096291372
 21
27.16778368764997
 31
0.0
  0
LINE
  5
39C
330
1F
100
AcDbEntity
  8
0
  6
CONTINUOUS
 62
     7
100
AcDbLine
 10
185.7096291372
 20
-13.05221616215002
 30
0.0
 11
185.7096291372
 21
-18.55221613235003
 31
0.0
  0
LINE
  5
39D
330
1F
100
AcDbEntity
  8
0
  6
CONTINUOUS
 62
     7
100
AcDbLine
 10
185.7096291372
 20
9.807783398549986
 30
0.0
 11
185.7096291372
 21
4.307783311949976
 31
0.0
  0
LINE
  5
39E
330
1F
100
AcDbEntity
  8
0
  6
CONTINUOUS
 62
     7
100
AcDbLine
 10
185.7096291372
 20
25.04778337734999
 30
0.0
 11
185.7096291372
 21
19.54778340714998
 31
0.0
  0
LINE
  5
39F
330
1F
100
AcDbEntity
  8
0
  6
CONTINUOUS
 62
     7
100
AcDbLine
 10
185.7096291372
 20
17.42778356264998
 30
0.0
 11
185.7096291372
 21
11.92778347594998
 31
0.0
  0
LINE
  5
3A0
330
1F
100
AcDbEntity
  8
0
  6
CONTINUOUS
 62
     7
100
AcDbLine
 10
185.7096291372
 20
40.28778300694998
 30
0.0
 11
185.7096291372
 21
34.78778303674997
 31
0.0
  0
LINE
  5
3A1
330
1F
100
AcDbEntity
  8
0
  6
CONTINUOUS
 62
     7
100
AcDbLine
 10
185.7096291372
 20
-5.432216813050019
 30
0.0
 11
185.7096291372
 21
-10.93221678325003
 31
0.0
  0
LINE
  5
3A2
330
1F
100
AcDbEntity
  8
0
  6
CONTINUOUS
 62
     7
100
AcDbLine
 10
177.9096274862
 20
-26.22221632785002
 30
0.0
 11
177.9096274862
 21
47.95778320244995
 31
0.0
  0
LINE
  5
3A3
330
1F
100
AcDbEntity
  8
0
  6
CONTINUOUS
 62
     7
100
AcDbLine
 10
185.7096291372
 20
47.20778168254998
 30
0.0
 11
184.9096267709
 21
47.20778168254998
 31
0.0
  0
LINE
  5
3A4
330
1F
100
AcDbEntity
  8
0
  6
CONTINUOUS
 62
     7
100
AcDbLine
 10
185.7096291372
 20
-25.47221480795002
 30
0.0
 11
184.9096267709
 21
-25.47221480795002
 31
0.0
  0
LINE
  5
3A5
330
1F
100
AcDbEntity
  8
0
  6
CONTINUOUS
 62
     7
100
AcDbLine
 10
185.7096291372
 20
5.607783431949969
 30
0.0
 11
184.9096267709
 21
5.607783431949969
 31
0.0
  0
LINE
  5
3A6
330
1F
100
AcDbEntity
  8
0
  6
CONTINUOUS
 62
     7
100
AcDbLine
 10
185.7096291372
 20
-6.732216467350014
 30
0.0
 11
184.9096267709
 21
-6.732216467350014
 31
0.0
  0
LINE
  5
3A7
330
1F
100
AcDbEntity
  8
0
  6
CONTINUOUS
 62
     7
100
AcDbLine
 10
185.7096291372
 20
-9.632217128950032
 30
0.0
 11
184.9096267709
 21
-9.632217128950032
 31
0.0
  0
LINE
  5
3A8
330
1F
100
AcDbEntity
  8
0
  6
CONTINUOUS
 62
     7
100
AcDbLine
 10
185.7096291372
 20
23.74778372304996
 30
0.0
 11
184.9096267709
 21
23.74778372304996
 31
0.0
  0
LINE
  5
3A9
330
1F
100
AcDbEntity
  8
0
  6
CONTINUOUS
 62
     7
100
AcDbLine
 10
185.7096291372
 20
36.08778269104997
 30
0.0
 11
184.9096267709
 21
36.08778269104997
 31
0.0
  0
LINE
  5
3AA
330
1F
100
AcDbEntity
  8
0
  6
CONTINUOUS
 62
     7
100
AcDbLine
 10
185.7096291372
 20
20.84778306144997
 30
0.0
 11
184.9096267709
 21
20.84778306144997
 31
0.0
  0
LINE
  5
3AB
330
1F
100
AcDbEntity
  8
0
  6
CONTINUOUS
 62
     7
100
AcDbLine
 10
185.7096291372
 20
16.12778344264999
 30
0.0
 11
184.9096267709
 21
16.12778344264999
 31
0.0
  0
LINE
  5
3AC
330
1F
100
AcDbEntity
  8
0
  6
CONTINUOUS
 62
     7
100
AcDbLine
 10
185.7096291372
 20
28.46778334194997
 30
0.0
 11
184.9096267709
 21
28.46778334194997
 31
0.0
  0
LINE
  5
3AD
330
1F
100
AcDbEntity
  8
0
  6
CONTINUOUS
 62
     7
100
AcDbLine
 10
185.7096291372
 20
0.887783813049964
 30
0.0
 11
184.9096267709
 21
0.887783813049964
 31
0.0
  0
LINE
  5
3AE
330
1F
100
AcDbEntity
  8
0
  6
CONTINUOUS
 62
     7
100
AcDbLine
 10
185.7096291372
 20
13.22778347954997
 30
0.0
 11
184.9096267709
 21
13.22778347954997
 31
0.0
  0
LINE
  5
3AF
330
1F
100
AcDbEntity
  8
0
  6
CONTINUOUS
 62
     7
100
AcDbLine
 10
185.7096291372
 20
-14.35221581645001
 30
0.0
 11
184.9096267709
 21
-14.35221581645001
 31
0.0
  0
LINE
  5
3B0
330
1F
100
AcDbEntity
  8
0
  6
CONTINUOUS
 62
     7
100
AcDbLine
 10
185.7096291372
 20
38.98778335264998
 30
0.0
 11
184.9096267709
 21
38.98778335264998
 31
0.0
  0
LINE
  5
3B1
330
1F
100
AcDbEntity
  8
0
  6
CONTINUOUS
 62
     7
100
AcDbLine
 10
185.7096291372
 20
8.507783395049984
 30
0.0
 11
184.9096267709
 21
8.507783395049984
 31
0.0
  0
LINE
  5
3B2
330
1F
100
AcDbEntity
  8
0
  6
CONTINUOUS
 62
     7
100
AcDbLine
 10
185.7096291372
 20
31.36778400354999
 30
0.0
 11
184.9096267709
 21
31.36778400354999
 31
0.0
  0
LINE
  5
3B3
330
1F
100
AcDbEntity
  8
0
  6
CONTINUOUS
 62
     7
100
AcDbLine
 10
185.7096291372
 20
-17.25221647805003
 30
0.0
 11
184.9096267709
 21
-17.25221647805003
 31
0.0
  0
LINE
  5
3B4
330
1F
100
AcDbEntity
  8
0
  6
CONTINUOUS
 62
     7
100
AcDbLine
 10
185.7096291372
 20
-2.012216848550025
 30
0.0
 11
184.9096267709
 21
-2.012216848550025
 31
0.0
  0
LINE
  5
3B5
330
1F
100
AcDbEntity
  8
0
  6
CONTINUOUS
 62
     7
100
AcDbLine
 10
185.7096291372
 20
43.70778204014997
 30
0.0
 11
184.9096267709
 21
43.70778204014997
 31
0.0
  0
LINE
  5
3B6
330
1F
100
AcDbEntity
  8
0
  6
CONTINUOUS
 62
     7
100
AcDbLine
 10
185.7096291372
 20
-21.97221516555004
 30
0.0
 11
184.9096267709
 21
-21.97221516555004
 31
0.0
  0
LINE
  5
3B7
330
1F
100
AcDbEntity
  8
0
  6
CONTINUOUS
 62
     7
100
AcDbLine
 10
185.7096291372
 20
46.60778270174995
 30
0.0
 11
184.9096267709
 21
46.60778270174995
 31
0.0
  0
LINE
  5
3B8
330
1F
100
AcDbEntity
  8
0
  6
CONTINUOUS
 62
     7
100
AcDbLine
 10
185.7096291372
 20
-24.87221582715003
 30
0.0
 11
184.9096267709
 21
-24.87221582715003
 31
0.0
  0
LINE
  5
3B9
330
1F
100
AcDbEntity
  8
0
  6
CONTINUOUS
 62
     7
100
AcDbLine
 10
115.5096254536
 20
23.24778364114997
 30
0.0
 11
116.3096278199
 21
23.24778364114997
 31
0.0
  0
LINE
  5
3BA
330
1F
100
AcDbEntity
  8
0
  6
CONTINUOUS
 62
     7
100
AcDbLine
 10
116.3096278199
 20
44.20778305344999
 30
0.0
 11
115.5096254536
 21
44.20778305344999
 31
0.0
  0
LINE
  5
3BB
330
1F
100
AcDbEntity
  8
0
  6
CONTINUOUS
 62
     7
100
AcDbLine
 10
116.3096278199
 20
-16.75221732745004
 30
0.0
 11
115.5096254536
 21
-16.75221732745004
 31
0.0
  0
LINE
  5
3BC
330
1F
100
AcDbEntity
  8
0
  6
CONTINUOUS
 62
     7
100
AcDbLine
 10
116.3096278199
 20
6.107783513849967
 30
0.0
 11
115.5096254536
 21
6.107783513849967
 31
0.0
  0
LINE
  5
3BD
330
1F
100
AcDbEntity
  8
0
  6
CONTINUOUS
 62
     7
100
AcDbLine
 10
116.3096278199
 20
13.72778356144997
 30
0.0
 11
115.5096254536
 21
13.72778356144997
 31
0.0
  0
LINE
  5
3BE
330
1F
100
AcDbEntity
  8
0
  6
CONTINUOUS
 62
     7
100
AcDbLine
 10
115.5096254536
 20
15.62778336064997
 30
0.0
 11
116.3096278199
 21
15.62778336064997
 31
0.0
  0
LINE
  5
3BF
330
1F
100
AcDbEntity
  8
0
  6
CONTINUOUS
 62
     7
100
AcDbLine
 10
116.3096278199
 20
21.34778314344999
 30
0.0
 11
115.5096254536
 21
21.34778314344999
 31
0.0
  0
LINE
  5
3C0
330
1F
100
AcDbEntity
  8
0
  6
CONTINUOUS
 62
     7
100
AcDbLine
 10
115.5096254536
 20
8.00778331304997
 30
0.0
 11
116.3096278199
 21
8.00778331304997
 31
0.0
  0
LINE
  5
3C1
330
1F
100
AcDbEntity
  8
0
  6
CONTINUOUS
 62
     7
100
AcDbLine
 10
115.5096254536
 20
-22.47221617885003
 30
0.0
 11
116.3096278199
 21
-22.47221617885003
 31
0.0
  0
LINE
  5
3C2
330
1F
100
AcDbEntity
  8
0
  6
CONTINUOUS
 62
     7
100
AcDbLine
 10
116.3096278199
 20
36.58778370434996
 30
0.0
 11
115.5096254536
 21
36.58778370434996
 31
0.0
  0
LINE
  5
3C3
330
1F
100
AcDbEntity
  8
0
  6
CONTINUOUS
 62
     7
100
AcDbLine
 10
116.3096278199
 20
28.96778435524996
 30
0.0
 11
115.5096254536
 21
28.96778435524996
 31
0.0
  0
LINE
  5
3C4
330
1F
100
AcDbEntity
  8
0
  6
CONTINUOUS
 62
     7
100
AcDbLine
 10
115.5096254536
 20
-7.232217480650036
 30
0.0
 11
116.3096278199
 21
-7.232217480650036
 31
0.0
  0
LINE
  5
3C5
330
1F
100
AcDbEntity
  8
0
  6
CONTINUOUS
 62
     7
100
AcDbLine
 10
115.5096254536
 20
38.48778420204997
 30
0.0
 11
116.3096278199
 21
38.48778420204997
 31
0.0
  0
LINE
  5
3C6
330
1F
100
AcDbEntity
  8
0
  6
CONTINUOUS
 62
     7
100
AcDbLine
 10
115.5096254536
 20
30.86778299024996
 30
0.0
 11
116.3096278199
 21
30.86778299024996
 31
0.0
  0
LINE
  5
3C7
330
1F
100
AcDbEntity
  8
0
  6
CONTINUOUS
 62
     7
100
AcDbLine
 10
116.3096278199
 20
-9.132216115650039
 30
0.0
 11
115.5096254536
 21
-9.132216115650039
 31
0.0
  0
LINE
  5
3C8
330
1F
100
AcDbEntity
  8
0
  6
CONTINUOUS
 62
     7
100
AcDbLine
 10
116.3096278199
 20
-1.51221676655004
 30
0.0
 11
115.5096254536
 21
-1.51221676655004
 31
0.0
  0
LINE
  5
3C9
330
1F
100
AcDbEntity
  8
0
  6
CONTINUOUS
 62
     7
100
AcDbLine
 10
115.5096254536
 20
0.3877837311499661
 30
0.0
 11
116.3096278199
 21
0.3877837311499661
 31
0.0
  0
LINE
  5
3CA
330
1F
100
AcDbEntity
  8
0
  6
CONTINUOUS
 62
     7
100
AcDbLine
 10
115.5096254536
 20
-14.85221682975003
 30
0.0
 11
116.3096278199
 21
-14.85221682975003
 31
0.0
  0
LINE
  5
3CB
330
1F
100
AcDbEntity
  8
0
  6
CONTINUOUS
 62
     7
100
AcDbLine
 10
115.5096254536
 20
46.10778168844996
 30
0.0
 11
116.3096278199
 21
46.10778168844996
 31
0.0
  0
LINE
  5
3CC
330
1F
100
AcDbEntity
  8
0
  6
CONTINUOUS
 62
     7
100
AcDbLine
 10
116.3096278199
 20
-24.37221481395002
 30
0.0
 11
115.5096254536
 21
-24.37221481395002
 31
0.0
  0
LINE
  5
3CD
330
1F
100
AcDbEntity
  8
0
  6
CONTINUOUS
 62
     7
100
AcDbLine
 10
185.7096291372
 20
13.72778356144997
 30
0.0
 11
184.9096267709
 21
13.72778356144997
 31
0.0
  0
LINE
  5
3CE
330
1F
100
AcDbEntity
  8
0
  6
CONTINUOUS
 62
     7
100
AcDbLine
 10
184.9096267709
 20
38.48778420204997
 30
0.0
 11
185.7096291372
 21
38.48778420204997
 31
0.0
  0
LINE
  5
3CF
330
1F
100
AcDbEntity
  8
0
  6
CONTINUOUS
 62
     7
100
AcDbLine
 10
185.7096291372
 20
36.58778370434996
 30
0.0
 11
184.9096267709
 21
36.58778370434996
 31
0.0
  0
LINE
  5
3D0
330
1F
100
AcDbEntity
  8
0
  6
CONTINUOUS
 62
     7
100
AcDbLine
 10
184.9096267709
 20
23.24778364114997
 30
0.0
 11
185.7096291372
 21
23.24778364114997
 31
0.0
  0
LINE
  5
3D1
330
1F
100
AcDbEntity
  8
0
  6
CONTINUOUS
 62
     7
100
AcDbLine
 10
184.9096267709
 20
-7.232217480650036
 30
0.0
 11
185.7096291372
 21
-7.232217480650036
 31
0.0
  0
LINE
  5
3D2
330
1F
100
AcDbEntity
  8
0
  6
CONTINUOUS
 62
     7
100
AcDbLine
 10
185.7096291372
 20
6.107783513849967
 30
0.0
 11
184.9096267709
 21
6.107783513849967
 31
0.0
  0
LINE
  5
3D3
330
1F
100
AcDbEntity
  8
0
  6
CONTINUOUS
 62
     7
100
AcDbLine
 10
185.7096291372
 20
-9.132216115650039
 30
0.0
 11
184.9096267709
 21
-9.132216115650039
 31
0.0
  0
LINE
  5
3D4
330
1F
100
AcDbEntity
  8
0
  6
CONTINUOUS
 62
     7
100
AcDbLine
 10
184.9096267709
 20
-22.47221617885003
 30
0.0
 11
185.7096291372
 21
-22.47221617885003
 31
0.0
  0
LINE
  5
3D5
330
1F
100
AcDbEntity
  8
0
  6
CONTINUOUS
 62
     7
100
AcDbLine
 10
184.9096267709
 20
15.62778336064997
 30
0.0
 11
185.7096291372
 21
15.62778336064997
 31
0.0
  0
LINE
  5
3D6
330
1F
100
AcDbEntity
  8
0
  6
CONTINUOUS
 62
     7
100
AcDbLine
 10
185.7096291372
 20
21.34778314344999
 30
0.0
 11
184.9096267709
 21
21.34778314344999
 31
0.0
  0
LINE
  5
3D7
330
1F
100
AcDbEntity
  8
0
  6
CONTINUOUS
 62
     7
100
AcDbLine
 10
185.7096291372
 20
-1.51221676655004
 30
0.0
 11
184.9096267709
 21
-1.51221676655004
 31
0.0
  0
LINE
  5
3D8
330
1F
100
AcDbEntity
  8
0
  6
CONTINUOUS
 62
     7
100
AcDbLine
 10
185.7096291372
 20
28.96778435524996
 30
0.0
 11
184.9096267709
 21
28.96778435524996
 31
0.0
  0
LINE
  5
3D9
330
1F
100
AcDbEntity
  8
0
  6
CONTINUOUS
 62
     7
100
AcDbLine
 10
184.9096267709
 20
-14.85221682975003
 30
0.0
 11
185.7096291372
 21
-14.85221682975003
 31
0.0
  0
LINE
  5
3DA
330
1F
100
AcDbEntity
  8
0
  6
CONTINUOUS
 62
     7
100
AcDbLine
 10
184.9096267709
 20
0.3877837311499661
 30
0.0
 11
185.7096291372
 21
0.3877837311499661
 31
0.0
  0
LINE
  5
3DB
330
1F
100
AcDbEntity
  8
0
  6
CONTINUOUS
 62
     7
100
AcDbLine
 10
185.7096291372
 20
44.20778305344999
 30
0.0
 11
184.9096267709
 21
44.20778305344999
 31
0.0
  0
LINE
  5
3DC
330
1F
100
AcDbEntity
  8
0
  6
CONTINUOUS
 62
     7
100
AcDbLine
 10
184.9096267709
 20
8.00778331304997
 30
0.0
 11
185.7096291372
 21
8.00778331304997
 31
0.0
  0
LINE
  5
3DD
330
1F
100
AcDbEntity
  8
0
  6
CONTINUOUS
 62
     7
100
AcDbLine
 10
185.7096291372
 20
-16.75221732745004
 30
0.0
 11
184.9096267709
 21
-16.75221732745004
 31
0.0
  0
LINE
  5
3DE
330
1F
100
AcDbEntity
  8
0
  6
CONTINUOUS
 62
     7
100
AcDbLine
 10
184.9096267709
 20
30.86778299024996
 30
0.0
 11
185.7096291372
 21
30.86778299024996
 31
0.0
  0
LINE
  5
3DF
330
1F
100
AcDbEntity
  8
0
  6
CONTINUOUS
 62
     7
100
AcDbLine
 10
185.7096291372
 20
-24.37221481395002
 30
0.0
 11
184.9096267709
 21
-24.37221481395002
 31
0.0
  0
LINE
  5
3E0
330
1F
100
AcDbEntity
  8
0
  6
CONTINUOUS
 62
     7
100
AcDbLine
 10
184.9096267709
 20
46.10778168844996
 30
0.0
 11
185.7096291372
 21
46.10778168844996
 31
0.0
  0
LINE
  5
3E1
330
1F
100
AcDbEntity
  8
0
  6
CONTINUOUS
 62
     7
100
AcDbLine
 10
149.7096273109
 20
6.107783513849967
 30
0.0
 11
148.9096272729
 21
6.107783513849967
 31
0.0
  0
LINE
  5
3E2
330
1F
100
AcDbEntity
  8
0
  6
CONTINUOUS
 62
     7
100
AcDbLine
 10
148.9096272729
 20
-7.232217480650036
 30
0.0
 11
149.7096273109
 21
-7.232217480650036
 31
0.0
  0
LINE
  5
3E3
330
1F
100
AcDbEntity
  8
0
  6
CONTINUOUS
 62
     7
100
AcDbLine
 10
148.9096272729
 20
-22.47221617885003
 30
0.0
 11
149.7096273109
 21
-22.47221617885003
 31
0.0
  0
LINE
  5
3E4
330
1F
100
AcDbEntity
  8
0
  6
CONTINUOUS
 62
     7
100
AcDbLine
 10
149.7096273109
 20
13.72778356144997
 30
0.0
 11
148.9096272729
 21
13.72778356144997
 31
0.0
  0
LINE
  5
3E5
330
1F
100
AcDbEntity
  8
0
  6
CONTINUOUS
 62
     7
100
AcDbLine
 10
149.7096273109
 20
21.34778314344999
 30
0.0
 11
148.9096272729
 21
21.34778314344999
 31
0.0
  0
LINE
  5
3E6
330
1F
100
AcDbEntity
  8
0
  6
CONTINUOUS
 62
     7
100
AcDbLine
 10
148.9096272729
 20
23.24778364114997
 30
0.0
 11
149.7096273109
 21
23.24778364114997
 31
0.0
  0
LINE
  5
3E7
330
1F
100
AcDbEntity
  8
0
  6
CONTINUOUS
 62
     7
100
AcDbLine
 10
148.9096272729
 20
8.00778331304997
 30
0.0
 11
149.7096273109
 21
8.00778331304997
 31
0.0
  0
LINE
  5
3E8
330
1F
100
AcDbEntity
  8
0
  6
CONTINUOUS
 62
     7
100
AcDbLine
 10
149.7096273109
 20
-16.75221732745004
 30
0.0
 11
148.9096272729
 21
-16.75221732745004
 31
0.0
  0
LINE
  5
3E9
330
1F
100
AcDbEntity
  8
0
  6
CONTINUOUS
 62
     7
100
AcDbLine
 10
149.7096273109
 20
36.58778370434996
 30
0.0
 11
148.9096272729
 21
36.58778370434996
 31
0.0
  0
LINE
  5
3EA
330
1F
100
AcDbEntity
  8
0
  6
CONTINUOUS
 62
     7
100
AcDbLine
 10
149.7096273109
 20
-1.51221676655004
 30
0.0
 11
148.9096272729
 21
-1.51221676655004
 31
0.0
  0
LINE
  5
3EB
330
1F
100
AcDbEntity
  8
0
  6
CONTINUOUS
 62
     7
100
AcDbLine
 10
149.7096273109
 20
28.96778435524996
 30
0.0
 11
148.9096272729
 21
28.96778435524996
 31
0.0
  0
LINE
  5
3EC
330
1F
100
AcDbEntity
  8
0
  6
CONTINUOUS
 62
     7
100
AcDbLine
 10
148.9096272729
 20
38.48778420204997
 30
0.0
 11
149.7096273109
 21
38.48778420204997
 31
0.0
  0
LINE
  5
3ED
330
1F
100
AcDbEntity
  8
0
  6
CONTINUOUS
 62
     7
100
AcDbLine
 10
148.9096272729
 20
-14.85221682975003
 30
0.0
 11
149.7096273109
 21
-14.85221682975003
 31
0.0
  0
LINE
  5
3EE
330
1F
100
AcDbEntity
  8
0
  6
CONTINUOUS
 62
     7
100
AcDbLine
 10
149.7096273109
 20
44.20778305344999
 30
0.0
 11
148.9096272729
 21
44.20778305344999
 31
0.0
  0
LINE
  5
3EF
330
1F
100
AcDbEntity
  8
0
  6
CONTINUOUS
 62
     7
100
AcDbLine
 10
149.7096273109
 20
-9.132216115650039
 30
0.0
 11
148.9096272729
 21
-9.132216115650039
 31
0.0
  0
LINE
  5
3F0
330
1F
100
AcDbEntity
  8
0
  6
CONTINUOUS
 62
     7
100
AcDbLine
 10
148.9096272729
 20
0.3877837311499661
 30
0.0
 11
149.7096273109
 21
0.3877837311499661
 31
0.0
  0
LINE
  5
3F1
330
1F
100
AcDbEntity
  8
0
  6
CONTINUOUS
 62
     7
100
AcDbLine
 10
148.9096272729
 20
15.62778336064997
 30
0.0
 11
149.7096273109
 21
15.62778336064997
 31
0.0
  0
LINE
  5
3F2
330
1F
100
AcDbEntity
  8
0
  6
CONTINUOUS
 62
     7
100
AcDbLine
 10
148.9096272729
 20
30.86778299024996
 30
0.0
 11
149.7096273109
 21
30.86778299024996
 31
0.0
  0
LINE
  5
3F3
330
1F
100
AcDbEntity
  8
0
  6
CONTINUOUS
 62
     7
100
AcDbLine
 10
149.7096273109
 20
-24.37221481395002
 30
0.0
 11
148.9096272729
 21
-24.37221481395002
 31
0.0
  0
LINE
  5
3F4
330
1F
100
AcDbEntity
  8
0
  6
CONTINUOUS
 62
     7
100
AcDbLine
 10
148.9096272729
 20
46.10778168844996
 30
0.0
 11
149.7096273109
 21
46.10778168844996
 31
0.0
  0
LINE
  5
3F5
330
1F
100
AcDbEntity
  8
0
  6
CONTINUOUS
 62
     7
100
AcDbLine
 10
141.0096268395
 20
56.86778343724995
 30
0.0
 11
141.0096268395
 21
-35.13221651805003
 31
0.0
  0
ARC
  5
3F6
330
1F
100
AcDbEntity
  8
0
  6
CONTINUOUS
 62
     7
100
AcDbCircle
 10
-203.7523985831
 20
-35.34585355985001
 30
0.0
 40
1.999999999975017
100
AcDbArc
 50
180.0
 51
270.0
  0
ARC
  5
3F7
330
1F
100
AcDbEntity
  8
0
  6
CONTINUOUS
 62
     7
100
AcDbCircle
 10
-203.7523985831
 20
56.65414644014999
 30
0.0
 40
1.999999999975017
100
AcDbArc
 50
90.0
 51
180.0
  0
ARC
  5
3F8
330
1F
100
AcDbEntity
  8
0
  6
CONTINUOUS
 62
     7
100
AcDbCircle
 10
-111.7523985832
 20
56.65414652954996
 30
0.0
 40
1.999999910550002
100
AcDbArc
 50
359.9999999985995
 51
89.99999999860034
  0
ARC
  5
3F9
330
1F
100
AcDbEntity
  8
0
  6
CONTINUOUS
 62
     7
100
AcDbCircle
 10
-111.7523985832
 20
-35.34585364925002
 30
0.0
 40
1.999999910550002
100
AcDbArc
 50
270.0000000013997
 51
0.0
  0
ARC
  5
3FA
330
1F
100
AcDbEntity
  8
0
  6
CONTINUOUS
 62
     7
100
AcDbCircle
 10
10.54382111349997
 20
58.86778209874996
 30
0.0
 40
1.300000000000052
100
AcDbArc
 50
270.0
 51
343.398450400999
  0
ARC
  5
3FB
330
1F
100
AcDbEntity
  8
0
  6
CONTINUOUS
 62
     7
100
AcDbCircle
 10
10.54381489140002
 20
63.26778306364997
 30
0.0
 40
1.300000000000107
100
AcDbArc
 50
16.60154959900031
 51
90.00002685590006
  0
ARC
  5
3FC
330
1F
100
AcDbEntity
  8
0
  6
CONTINUOUS
 62
     7
100
AcDbCircle
 10
3.164792058600028
 20
61.06778350874998
 30
0.0
 40
9.000004934892617
100
AcDbArc
 50
343.3984504008
 51
349.7596516730999
  0
ARC
  5
3FD
330
1F
100
AcDbEntity
  8
0
  6
CONTINUOUS
 62
     7
100
AcDbCircle
 10
3.164792058600028
 20
61.06778350874998
 30
0.0
 40
8.999998442163735
100
AcDbArc
 50
10.24034831960016
 51
16.60154959890006
  0
ARC
  5
3FE
330
1F
100
AcDbEntity
  8
0
  6
CONTINUOUS
 62
     7
100
AcDbCircle
 10
10.54382115800001
 20
-41.53221751465003
 30
0.0
 40
1.299999999999998
100
AcDbArc
 50
270.0000000016009
 51
343.3984504009994
  0
ARC
  5
3FF
330
1F
100
AcDbEntity
  8
0
  6
CONTINUOUS
 62
     7
100
AcDbCircle
 10
10.54381797399998
 20
-37.13221656005004
 30
0.0
 40
1.300000000000028
100
AcDbArc
 50
16.60154959899982
 51
90.00001499890118
  0
ARC
  5
400
330
1F
100
AcDbEntity
  8
0
  6
CONTINUOUS
 62
     7
100
AcDbCircle
 10
3.164793639300001
 20
-39.33221656275003
 30
0.0
 40
9.000000009362758
100
AcDbArc
 50
10.24034832150007
 51
16.60154959919997
  0
ARC
  5
401
330
1F
100
AcDbEntity
  8
0
  6
CONTINUOUS
 62
     7
100
AcDbCircle
 10
3.164793639300001
 20
-39.33221656275003
 30
0.0
 40
9.000003331784999
100
AcDbArc
 50
343.3984504013001
 51
349.7596516749999
  0
ARC
  5
402
330
1F
100
AcDbEntity
  8
0
  6
CONTINUOUS
 62
     7
100
AcDbCircle
 10
3.164792058600028
 20
61.06778350874998
 30
0.0
 40
8.99110847274303
100
AcDbArc
 50
7.669888353500036
 51
10.25058871570018
  0
ARC
  5
403
330
1F
100
AcDbEntity
  8
0
  6
CONTINUOUS
 62
     7
100
AcDbCircle
 10
3.164792058600028
 20
61.06778350874998
 30
0.0
 40
8.856637512489707
100
AcDbArc
 50
357.4114200337999
 51
2.588573983799884
  0
ARC
  5
404
330
1F
100
AcDbEntity
  8
0
  6
CONTINUOUS
 62
     7
100
AcDbCircle
 10
3.164792058600028
 20
61.06778350874998
 30
0.0
 40
8.991111652119251
100
AcDbArc
 50
349.7494133332
 51
352.3301121528001
  0
ARC
  5
405
330
1F
100
AcDbEntity
  8
0
  6
CONTINUOUS
 62
     7
100
AcDbCircle
 10
3.164793639300001
 20
-39.33221656275003
 30
0.0
 40
8.85663593015601
100
AcDbArc
 50
357.4114200339999
 51
2.588579965999896
  0
ARC
  5
406
330
1F
100
AcDbEntity
  8
0
  6
CONTINUOUS
 62
     7
100
AcDbCircle
 10
3.164793639300001
 20
-39.33221656275003
 30
0.0
 40
8.991110048947384
100
AcDbArc
 50
349.7494133331999
 51
352.3301125401
  0
ARC
  5
407
330
1F
100
AcDbEntity
  8
0
  6
CONTINUOUS
 62
     7
100
AcDbCircle
 10
3.164793639300001
 20
-39.33221656275003
 30
0.0
 40
8.991110076014191
100
AcDbArc
 50
7.669888740699946
 51
10.25058998690008
  0
ARC
  5
408
330
1F
100
AcDbEntity
  8
0
  6
CONTINUOUS
 62
     7
100
AcDbCircle
 10
-23.83520702530001
 20
64.26778365784998
 30
0.0
 40
1.599999462000028
100
AcDbArc
 50
90.00000333390025
 51
180.0
  0
ARC
  5
409
330
1F
100
AcDbEntity
  8
0
  6
CONTINUOUS
 62
     7
100
AcDbCircle
 10
-2.735205615600023
 20
64.26778365784998
 30
0.0
 40
1.600000689902044
100
AcDbArc
 50
0.000091275700056
 51
90.0
  0
ARC
  5
40A
330
1F
100
AcDbEntity
  8
0
  6
CONTINUOUS
 62
     7
100
AcDbCircle
 10
-23.8352063607
 20
-42.53221656275002
 30
0.0
 40
1.600000000000023
100
AcDbArc
 50
180.0
 51
270.0
  0
ARC
  5
40B
330
1F
100
AcDbEntity
  8
0
  6
CONTINUOUS
 62
     7
100
AcDbCircle
 10
-2.735205615600023
 20
-42.53221678325002
 30
0.0
 40
1.599999779501997
100
AcDbArc
 50
269.9999733181002
 51
359.9999087242002
  0
ARC
  5
40C
330
1F
100
AcDbEntity
  8
0
  6
CONTINUOUS
 62
     7
100
AcDbCircle
 10
-40.73520636069998
 20
61.06778343725
 30
0.0
 40
2.000000000000034
100
AcDbArc
 50
90.0
 51
179.9999957285995
  0
ARC
  5
40D
330
1F
100
AcDbEntity
  8
0
  6
CONTINUOUS
 62
     7
100
AcDbCircle
 10
5.264793639300024
 20
61.06778399454998
 30
0.0
 40
1.999999442700019
100
AcDbArc
 50
359.9999970979997
 51
90.0
  0
ARC
  5
40E
330
1F
100
AcDbEntity
  8
0
  6
CONTINUOUS
 62
     7
100
AcDbCircle
 10
7.264793081999983
 20
58.06778526414996
 30
0.0
 40
1.200001686800022
100
AcDbArc
 50
270.0
 51
0.0
  0
ARC
  5
40F
330
1F
100
AcDbEntity
  8
0
  6
CONTINUOUS
 62
     7
100
AcDbCircle
 10
-40.7352062475
 20
-39.33221656275003
 30
0.0
 40
2.000000113200064
100
AcDbArc
 50
180.0000042671003
 51
270.0000029880007
  0
ARC
  5
410
330
1F
100
AcDbEntity
  8
0
  6
CONTINUOUS
 62
     7
100
AcDbCircle
 10
5.264793752699973
 20
-39.33221723335004
 30
0.0
 40
1.999999442649996
100
AcDbArc
 50
269.9999999985995
 51
0.0000029020003794
  0
ARC
  5
411
330
1F
100
AcDbEntity
  8
0
  6
CONTINUOUS
 62
     7
100
AcDbCircle
 10
7.264793195300001
 20
-36.33221850295001
 30
0.0
 40
1.200001686850044
100
AcDbArc
 50
0.0
 51
90.0
  0
ARC
  5
412
330
1F
100
AcDbEntity
  8
0
  6
CONTINUOUS
 62
     7
100
AcDbCircle
 10
32.17424515530001
 20
55.26778385454998
 30
0.0
 40
1.000000001502267
100
AcDbArc
 50
20.74608024249957
 51
89.9999833497985
  0
ARC
  5
413
330
1F
100
AcDbEntity
  8
0
  6
CONTINUOUS
 62
     7
100
AcDbCircle
 10
32.17424515530001
 20
-33.53221656275002
 30
0.0
 40
0.9999999999753584
100
AcDbArc
 50
270.0000000012995
 51
339.2539229037001
  0
ARC
  5
414
330
1F
100
AcDbEntity
  8
0
  6
CONTINUOUS
 62
     7
100
AcDbCircle
 10
39.17424515530001
 20
-33.53221683605003
 30
0.0
 40
0.9999997266904328
100
AcDbArc
 50
270.0000166730988
 51
339.2539876282001
  0
ARC
  5
415
330
1F
100
AcDbEntity
  8
0
  6
CONTINUOUS
 62
     7
100
AcDbCircle
 10
39.17424515530001
 20
55.26778399164999
 30
0.0
 40
1.000000554303419
100
AcDbArc
 50
20.7460710816012
 51
90.00001545270038
  0
ARC
  5
416
330
1F
100
AcDbEntity
  8
0
  6
CONTINUOUS
 62
     7
100
AcDbCircle
 10
196.109627206
 20
56.36778343724995
 30
0.0
 40
0.5
100
AcDbArc
 50
0.0
 51
90.0
  0
ARC
  5
417
330
1F
100
AcDbEntity
  8
0
  6
CONTINUOUS
 62
     7
100
AcDbCircle
 10
196.109627206
 20
-34.63221651805003
 30
0.0
 40
0.5
100
AcDbArc
 50
270.0
 51
0.0
  0
ARC
  5
418
330
1F
100
AcDbEntity
  8
0
  6
CONTINUOUS
 62
     7
100
AcDbCircle
 10
105.1096272954
 20
-34.63221651805003
 30
0.0
 40
0.5
100
AcDbArc
 50
180.0
 51
270.0
  0
ARC
  5
419
330
1F
100
AcDbEntity
  8
0
  6
CONTINUOUS
 62
     7
100
AcDbCircle
 10
105.1096272954
 20
56.36778343724995
 30
0.0
 40
0.5
100
AcDbArc
 50
90.0
 51
180.0
  0
CIRCLE
  5
41A
330
1F
100
AcDbEntity
  8
0
  6
CONTINUOUS
 62
     7
100
AcDbCircle
 10
166.2096272954
 20
-14.13221656275002
 30
0.0
 40
1.299999999999955
  0
ARC
  5
41B
330
1F
100
AcDbEntity
  8
0
  6
CONTINUOUS
 62
     7
100
AcDbCircle
 10
196.609627206
 20
-35.13221651805003
 30
0.0
 40
2.0
100
AcDbArc
 50
270.0
 51
0.0
  0
ARC
  5
41C
330
1F
100
AcDbEntity
  8
0
  6
CONTINUOUS
 62
     7
100
AcDbCircle
 10
104.6096272954
 20
-35.13221651805003
 30
0.0
 40
2.0
100
AcDbArc
 50
180.0
 51
270.0
  0
CIRCLE
  5
41D
330
1F
100
AcDbEntity
  8
0
  6
CONTINUOUS
 62
     7
100
AcDbCircle
 10
148.9096272954
 20
-31.27221656275003
 30
0.0
 40
2.75
  0
CIRCLE
  5
41E
330
1F
100
AcDbEntity
  8
0
  6
CONTINUOUS
 62
     7
100
AcDbCircle
 10
148.9096272954
 20
53.00778343725
 30
0.0
 40
2.749999999907004
  0
CIRCLE
  5
41F
330
1F
100
AcDbEntity
  8
0
  6
CONTINUOUS
 62
     7
100
AcDbCircle
 10
152.6596272954
 20
22.29778343724996
 30
0.0
 40
1.749999999999829
  0
CIRCLE
  5
420
330
1F
100
AcDbEntity
  8
0
  6
CONTINUOUS
 62
     7
100
AcDbCircle
 10
152.6596272954
 20
-0.5622165627500237
 30
0.0
 40
1.749999999999829
  0
CIRCLE
  5
421
330
1F
100
AcDbEntity
  8
0
  6
CONTINUOUS
 62
     7
100
AcDbCircle
 10
152.6596272954
 20
7.057783437249981
 30
0.0
 40
1.749999999999829
  0
CIRCLE
  5
422
330
1F
100
AcDbEntity
  8
0
  6
CONTINUOUS
 62
     7
100
AcDbCircle
 10
152.6596272954
 20
29.91778343724997
 30
0.0
 40
1.749999999999886
  0
CIRCLE
  5
423
330
1F
100
AcDbEntity
  8
0
  6
CONTINUOUS
 62
     7
100
AcDbCircle
 10
152.6596272954
 20
45.15778343724998
 30
0.0
 40
1.749999999999829
  0
CIRCLE
  5
424
330
1F
100
AcDbEntity
  8
0
  6
CONTINUOUS
 62
     7
100
AcDbCircle
 10
152.6596272954
 20
-15.80221656275003
 30
0.0
 40
1.749999999999829
  0
CIRCLE
  5
425
330
1F
100
AcDbEntity
  8
0
  6
CONTINUOUS
 62
     7
100
AcDbCircle
 10
152.6596272954
 20
-8.182216562750028
 30
0.0
 40
1.749999999999829
  0
CIRCLE
  5
426
330
1F
100
AcDbEntity
  8
0
  6
CONTINUOUS
 62
     7
100
AcDbCircle
 10
152.6596272954
 20
37.53778343724997
 30
0.0
 40
1.749999999999829
  0
CIRCLE
  5
427
330
1F
100
AcDbEntity
  8
0
  6
CONTINUOUS
 62
     7
100
AcDbCircle
 10
152.6596272954
 20
14.67778343724999
 30
0.0
 40
1.749999999999829
  0
CIRCLE
  5
428
330
1F
100
AcDbEntity
  8
0
  6
CONTINUOUS
 62
     7
100
AcDbCircle
 10
152.6596272954
 20
-23.42221656275004
 30
0.0
 40
1.749999999999829
  0
ARC
  5
429
330
1F
100
AcDbEntity
  8
0
  6
CONTINUOUS
 62
     7
100
AcDbCircle
 10
196.609627206
 20
56.86778343724995
 30
0.0
 40
2.0
100
AcDbArc
 50
0.0
 51
90.0
  0
ARC
  5
42A
330
1F
100
AcDbEntity
  8
0
  6
CONTINUOUS
 62
     7
100
AcDbCircle
 10
104.6096272954
 20
56.86778343724995
 30
0.0
 40
2.0
100
AcDbArc
 50
90.0
 51
180.0
  0
CIRCLE
  5
42B
330
1F
100
AcDbEntity
  8
0
  6
CONTINUOUS
 62
     7
100
AcDbCircle
 10
116.3096272954
 20
53.00778343725
 30
0.0
 40
2.750000000000057
  0
CIRCLE
  5
42C
330
1F
100
AcDbEntity
  8
0
  6
CONTINUOUS
 62
     7
100
AcDbCircle
 10
116.3096272954
 20
-31.27221656275003
 30
0.0
 40
2.749999999907118
  0
CIRCLE
  5
42D
330
1F
100
AcDbEntity
  8
0
  6
CONTINUOUS
 62
     7
100
AcDbCircle
 10
112.5596272954
 20
29.91778343724997
 30
0.0
 40
1.749999999999829
  0
CIRCLE
  5
42E
330
1F
100
AcDbEntity
  8
0
  6
CONTINUOUS
 62
     7
100
AcDbCircle
 10
112.5596272954
 20
37.53778343724997
 30
0.0
 40
1.749999999999829
  0
CIRCLE
  5
42F
330
1F
100
AcDbEntity
  8
0
  6
CONTINUOUS
 62
     7
100
AcDbCircle
 10
112.5596272954
 20
-15.80221656275003
 30
0.0
 40
1.749999999999829
  0
CIRCLE
  5
430
330
1F
100
AcDbEntity
  8
0
  6
CONTINUOUS
 62
     7
100
AcDbCircle
 10
112.5596272954
 20
-23.42221656275004
 30
0.0
 40
1.749999999999829
  0
CIRCLE
  5
431
330
1F
100
AcDbEntity
  8
0
  6
CONTINUOUS
 62
     7
100
AcDbCircle
 10
112.5596272954
 20
14.67778343724999
 30
0.0
 40
1.749999999999829
  0
CIRCLE
  5
432
330
1F
100
AcDbEntity
  8
0
  6
CONTINUOUS
 62
     7
100
AcDbCircle
 10
112.5596272954
 20
-8.182216562750028
 30
0.0
 40
1.749999999999829
  0
CIRCLE
  5
433
330
1F
100
AcDbEntity
  8
0
  6
CONTINUOUS
 62
     7
100
AcDbCircle
 10
112.5596272954
 20
7.057783437249981
 30
0.0
 40
1.749999999999829
  0
CIRCLE
  5
434
330
1F
100
AcDbEntity
  8
0
  6
CONTINUOUS
 62
     7
100
AcDbCircle
 10
112.5596272954
 20
-0.5622165627500237
 30
0.0
 40
1.749999999999829
  0
CIRCLE
  5
435
330
1F
100
AcDbEntity
  8
0
  6
CONTINUOUS
 62
     7
100
AcDbCircle
 10
112.5596272954
 20
22.29778343724996
 30
0.0
 40
1.749999999999829
  0
CIRCLE
  5
436
330
1F
100
AcDbEntity
  8
0
  6
CONTINUOUS
 62
     7
100
AcDbCircle
 10
112.5596272954
 20
45.15778343724998
 30
0.0
 40
1.749999999999829
  0
CIRCLE
  5
437
330
1F
100
AcDbEntity
  8
0
  6
CONTINUOUS
 62
     7
100
AcDbCircle
 10
184.9096272954
 20
-31.27221656275003
 30
0.0
 40
2.749999999999829
  0
CIRCLE
  5
438
330
1F
100
AcDbEntity
  8
0
  6
CONTINUOUS
 62
     7
100
AcDbCircle
 10
184.9096272954
 20
53.00778343725
 30
0.0
 40
2.749999999906947
  0
CIRCLE
  5
439
330
1F
100
AcDbEntity
  8
0
  6
CONTINUOUS
 62
     7
100
AcDbCircle
 10
188.6596272954
 20
22.29778343724996
 30
0.0
 40
1.750000000000171
  0
CIRCLE
  5
43A
330
1F
100
AcDbEntity
  8
0
  6
CONTINUOUS
 62
     7
100
AcDbCircle
 10
188.6596272954
 20
37.53778343724997
 30
0.0
 40
1.750000000000171
  0
CIRCLE
  5
43B
330
1F
100
AcDbEntity
  8
0
  6
CONTINUOUS
 62
     7
100
AcDbCircle
 10
188.6596272954
 20
14.67778343724999
 30
0.0
 40
1.750000000000171
  0
CIRCLE
  5
43C
330
1F
100
AcDbEntity
  8
0
  6
CONTINUOUS
 62
     7
100
AcDbCircle
 10
188.6596272954
 20
45.15778343724998
 30
0.0
 40
1.750000000000171
  0
CIRCLE
  5
43D
330
1F
100
AcDbEntity
  8
0
  6
CONTINUOUS
 62
     7
100
AcDbCircle
 10
188.6596272954
 20
-8.182216562750028
 30
0.0
 40
1.750000000000171
  0
CIRCLE
  5
43E
330
1F
100
AcDbEntity
  8
0
  6
CONTINUOUS
 62
     7
100
AcDbCircle
 10
188.6596272954
 20
7.057783437249981
 30
0.0
 40
1.750000000000171
  0
CIRCLE
  5
43F
330
1F
100
AcDbEntity
  8
0
  6
CONTINUOUS
 62
     7
100
AcDbCircle
 10
188.6596272954
 20
-0.5622165627500237
 30
0.0
 40
1.750000000000171
  0
CIRCLE
  5
440
330
1F
100
AcDbEntity
  8
0
  6
CONTINUOUS
 62
     7
100
AcDbCircle
 10
188.6596272954
 20
29.91778343724997
 30
0.0
 40
1.750000000000171
  0
CIRCLE
  5
441
330
1F
100
AcDbEntity
  8
0
  6
CONTINUOUS
 62
     7
100
AcDbCircle
 10
188.6596272954
 20
-15.80221656275003
 30
0.0
 40
1.750000000000171
  0
CIRCLE
  5
442
330
1F
100
AcDbEntity
  8
0
  6
CONTINUOUS
 62
     7
100
AcDbCircle
 10
188.6596272954
 20
-23.42221656275004
 30
0.0
 40
1.750000000000171
  0
CIRCLE
  5
443
330
1F
100
AcDbEntity
  8
0
  6
CONTINUOUS
 62
     7
100
AcDbCircle
 10
166.2096272954
 20
-14.13221656275002
 30
0.0
 40
5.000000000000057
  0
CIRCLE
  5
444
330
1F
100
AcDbEntity
  8
0
  6
CONTINUOUS
 62
     7
100
AcDbCircle
 10
166.2096272954
 20
-14.13221656275002
 30
0.0
 40
2.749999999999943
  0
SPLINE
  5
445
330
1F
100
AcDbEntity
  8
0
  6
CONTINUOUS
 62
     7
100
AcDbSpline
210
0.0
220
0.0
230
1.0
 70
     8
 71
     3
 72
    12
 73
     8
 74
     0
 42
0.000000001
 43
0.0000000001
 40
0.0
 40
0.0
 40
0.0
 40
0.0
 40
0.2132176091975052
 40
0.4265284029758165
 40
0.6377839362972024
 40
0.8481382075599957
 40
1.0
 40
1.0
 40
1.0
 40
1.0
 10
12.07546139009997
 20
61.46778265644838
 30
0.0
 10
12.08626590708928
 20
61.47640375618886
 30
0.0
 10
12.10787966307203
 20
61.49364972343346
 30
0.0
 10
12.12167563134727
 20
61.62934192167609
 30
0.0
 10
12.1190895607113
 20
61.82892156827228
 30
0.0
 10
12.10221534148769
 20
62.05397891612728
 30
0.0
 10
12.08336467352558
 20
62.20462537057409
 30
0.0
 10
12.07546139006507
 20
62.26778502275278
 30
0.0
  0
SPLINE
  5
446
330
1F
100
AcDbEntity
  8
0
  6
CONTINUOUS
 62
     7
100
AcDbSpline
210
0.0
220
0.0
230
1.0
 70
     8
 71
     3
 72
    12
 73
     8
 74
     0
 42
0.000000001
 43
0.0000000001
 40
0.0
 40
0.0
 40
0.0
 40
0.0
 40
0.2132184779657811
 40
0.4265295836819109
 40
0.6377845850856947
 40
0.8481381940822177
 40
1.0
 40
1.0
 40
1.0
 40
1.0
 10
12.07546455160002
 20
59.86778164914557
 30
0.0
 10
12.08626906562228
 20
59.95675331337878
 30
0.0
 10
12.10788278743371
 20
60.13473529349108
 30
0.0
 10
12.12167878212728
 20
60.3733968688199
 30
0.0
 10
12.11909273877808
 20
60.55370245478099
 30
0.0
 10
12.10221845669321
 20
60.65283904205506
 30
0.0
 10
12.08336783184302
 20
60.66336917161499
 30
0.0
 10
12.07546455160002
 20
60.66778401544997
 30
0.0
  0
SPLINE
  5
447
330
1F
100
AcDbEntity
  8
0
  6
CONTINUOUS
 62
     7
100
AcDbSpline
210
0.0
220
0.0
230
1.0
 70
     8
 71
     3
 72
    12
 73
     8
 74
     0
 42
0.000000001
 43
0.0000000001
 40
0.0
 40
0.0
 40
0.0
 40
0.0
 40
0.2132184779657811
 40
0.4265295836819109
 40
0.6377845850856947
 40
0.8481381940822177
 40
1.0
 40
1.0
 40
1.0
 40
1.0
 10
12.07546455160002
 20
-40.53221814815441
 30
0.0
 10
12.08626906562228
 20
-40.44324648392123
 30
0.0
 10
12.10788278743371
 20
-40.26526450380894
 30
0.0
 10
12.12167878212728
 20
-40.02660292848012
 30
0.0
 10
12.11909273877808
 20
-39.84629734251894
 30
0.0
 10
12.10221845669321
 20
-39.74716075524492
 30
0.0
 10
12.08336783184302
 20
-39.73663062568514
 30
0.0
 10
12.07546455160002
 20
-39.73221578185002
 30
0.0
  0
SPLINE
  5
448
330
1F
100
AcDbEntity
  8
0
  6
CONTINUOUS
 62
     7
100
AcDbSpline
210
0.0
220
0.0
230
1.0
 70
     8
 71
     3
 72
    12
 73
     8
 74
     0
 42
0.000000001
 43
0.0000000001
 40
0.0
 40
0.0
 40
0.0
 40
0.0
 40
0.2132176091975052
 40
0.4265284029758165
 40
0.6377839362972024
 40
0.8481382075599957
 40
1.0
 40
1.0
 40
1.0
 40
1.0
 10
12.07546455160002
 20
-38.93221714085001
 30
0.0
 10
12.08626906858967
 20
-38.92359604111002
 30
0.0
 10
12.1078828245731
 20
-38.90635007386643
 30
0.0
 10
12.12167879285431
 20
-38.77065787562424
 30
0.0
 10
12.11909272222709
 20
-38.57107822902813
 30
0.0
 10
12.10221850301321
 20
-38.34602088117234
 30
0.0
 10
12.08336783505803
 20
-38.19537442672473
 30
0.0
 10
12.07546455160002
 20
-38.13221477454562
 30
0.0
  0
LINE
  5
449
330
1F
100
AcDbEntity
  8
0
  6
DIVIDE
 62
     7
100
AcDbLine
 10
-120.752397853
 20
42.15414669344997
 30
0.0
 11
-194.7523988067
 21
42.15414669344997
 31
0.0
  0
LINE
  5
44A
330
1F
100
AcDbEntity
  8
0
  6
DIVIDE
 62
     7
100
AcDbLine
 10
-198.7523985831
 20
38.15414644014999
 30
0.0
 11
-198.7523997156
 21
-5.345854319750032
 31
0.0
  0
LINE
  5
44B
330
1F
100
AcDbEntity
  8
0
  6
DIVIDE
 62
     7
100
AcDbLine
 10
-194.7523991494
 20
-9.345854126050028
 30
0.0
 11
-120.7523986726
 21
-9.345854126050028
 31
0.0
  0
LINE
  5
44C
330
1F
100
AcDbEntity
  8
0
  6
DIVIDE
 62
     7
100
AcDbLine
 10
-116.7523993729
 20
-5.345854349550024
 30
0.0
 11
-116.7523982404
 21
38.15414550134997
 31
0.0
  0
LINE
  5
44D
330
1F
100
AcDbEntity
  8
0
  6
DIVIDE
 62
     7
100
AcDbLine
 10
-168.5523988633
 20
-24.84585472215002
 30
0.0
 11
-176.3523986517
 21
-24.84585472215002
 31
0.0
  0
LINE
  5
44E
330
1F
100
AcDbEntity
  8
0
  6
DIVIDE
 62
     7
100
AcDbLine
 10
-176.3523985831
 20
-28.84585355985001
 30
0.0
 11
-168.5523988633
 21
-28.84585537775001
 31
0.0
  0
LINE
  5
44F
330
1F
100
AcDbEntity
  8
0
  6
DIVIDE
 62
     7
100
AcDbLine
 10
-187.252398762
 20
-24.84585472215002
 30
0.0
 11
-195.052400413
 21
-24.84585472215002
 31
0.0
  0
LINE
  5
450
330
1F
100
AcDbEntity
  8
0
  6
DIVIDE
 62
     7
100
AcDbLine
 10
-195.0523985831
 20
-28.84585355985001
 30
0.0
 11
-187.252398762
 21
-28.84585537775001
 31
0.0
  0
ARC
  5
451
330
1F
100
AcDbEntity
  8
0
  6
DIVIDE
 62
     7
100
AcDbCircle
 10
-194.7523983298
 20
38.15414644014999
 30
0.0
 40
4.000000253300016
100
AcDbArc
 50
90.00000683110005
 51
180.0
  0
ARC
  5
452
330
1F
100
AcDbEntity
  8
0
  6
DIVIDE
 62
     7
100
AcDbCircle
 10
-194.7523991494
 20
-5.345853559850013
 30
0.0
 40
4.000000566200087
100
AcDbArc
 50
180.0000108847998
 51
270.0
  0
ARC
  5
453
330
1F
100
AcDbEntity
  8
0
  6
DIVIDE
 62
     7
100
AcDbCircle
 10
-120.7523991494
 20
-5.345854349550024
 30
0.0
 40
3.999999776500033
100
AcDbArc
 50
270.0000068297002
 51
0.0
  0
ARC
  5
454
330
1F
100
AcDbEntity
  8
0
  6
DIVIDE
 62
     7
100
AcDbCircle
 10
-120.75239906
 20
38.15414587394997
 30
0.0
 40
4.000000819550121
100
AcDbArc
 50
359.9999946635999
 51
89.99998271169993
  0
ARC
  5
455
330
1F
100
AcDbEntity
  8
0
  6
DIVIDE
 62
     7
100
AcDbCircle
 10
-176.3523985831
 20
-26.84585414105004
 30
0.0
 40
1.999999418849997
100
AcDbArc
 50
90.00000196519986
 51
270.0
  0
ARC
  5
456
330
1F
100
AcDbEntity
  8
0
  6
DIVIDE
 62
     7
100
AcDbCircle
 10
-168.5523988633
 20
-26.84585504995002
 30
0.0
 40
2.000000327799995
100
AcDbArc
 50
270.0
 51
90.0
  0
ARC
  5
457
330
1F
100
AcDbEntity
  8
0
  6
DIVIDE
 62
     7
100
AcDbCircle
 10
-195.0523985831
 20
-26.84585414095002
 30
0.0
 40
1.999999418850422
100
AcDbArc
 50
90.00005242280012
 51
270.0
  0
ARC
  5
458
330
1F
100
AcDbEntity
  8
0
  6
DIVIDE
 62
     7
100
AcDbCircle
 10
-187.252398762
 20
-26.84585504995002
 30
0.0
 40
2.000000327799995
100
AcDbArc
 50
270.0
 51
90.0
  0
CIRCLE
  5
459
330
1F
100
AcDbEntity
  8
0
  6
DIVIDE
 62
     7
100
AcDbCircle
 10
-124.3523985831
 20
-24.84585355985001
 30
0.0
 40
4.599999999999966
  0
CIRCLE
  5
45A
330
1F
100
AcDbEntity
  8
0
  6
DIVIDE
 62
     7
100
AcDbCircle
 10
-140.0523985831
 20
-24.84585355985001
 30
0.0
 40
3.799999999999983
  0
CIRCLE
  5
45B
330
1F
100
AcDbEntity
  8
0
  6
DIVIDE
 62
     7
100
AcDbCircle
 10
-153.3523985831
 20
-24.84585355985001
 30
0.0
 40
3.799999999999983
  0
LINE
  5
45C
330
1F
100
AcDbEntity
  8
0
  6
CENTER
 62
     7
100
AcDbLine
 10
-157.7523985831
 20
58.40414644014999
 30
0.0
 11
-157.7523985831
 21
-37.09585355985001
 31
0.0
  0
LINE
  5
45D
330
1F
100
AcDbEntity
  8
0
  6
CENTER
 62
     7
100
AcDbLine
 10
-205.5023985831
 20
10.65414644014999
 30
0.0
 11
-110.0023985831
 21
10.65414644014999
 31
0.0
  0
LINE
  5
45E
330
1F
100
AcDbEntity
  8
0
  6
CENTER
 62
     7
100
AcDbLine
 10
58.09125816509999
 20
10.86778343724998
 30
0.0
 11
-65.3897772675
 21
10.86778343724998
 31
0.0
  0
LINE
  5
45F
330
1F
100
AcDbEntity
  8
0
  6
CENTER
 62
     7
100
AcDbLine
 10
150.6096272954
 20
67.70649738784999
 30
0.0
 11
150.6096272954
 21
-42.85200357295003
 31
0.0
  0
LINE
  5
460
330
1F
100
AcDbEntity
  8
0
  6
CENTER
 62
     7
100
AcDbLine
 10
205.7523985831
 20
10.81778343724997
 30
0.0
 11
95.38484494710002
 21
10.81778343724997
 31
0.0
  0
LINE
  5
461
330
1F
100
AcDbEntity
  8
0
  6
PHANTOM
 62
     7
100
AcDbLine
 10
19.26479363930002
 20
58.30032837234995
 30
0.0
 11
51.96479363930001
 21
57.72954774924995
 31
0.0
  0
LINE
  5
462
330
1F
100
AcDbEntity
  8
0
  6
PHANTOM
 62
     7
100
AcDbLine
 10
19.26479363930002
 20
58.30032837234995
 30
0.0
 11
19.26479363930002
 21
-36.56476149775003
 31
0.0
  0
LINE
  5
463
330
1F
100
AcDbEntity
  8
0
  6
PHANTOM
 62
     7
100
AcDbLine
 10
51.96479363930001
 20
-35.99398087465002
 30
0.0
 11
19.26479363930002
 21
-36.56476149775003
 31
0.0
  0
LINE
  5
464
330
1F
100
AcDbEntity
  8
0
  6
PHANTOM
 62
     7
100
AcDbLine
 10
51.96479363930001
 20
57.72954774924995
 30
0.0
 11
51.96479363930001
 21
-35.99398087465002
 31
0.0
  0
TEXT
  5
466
330
1F
100
AcDbEntity
  8
0
 62
     7
100
AcDbText
 10
190.3660107799
 20
-72.46899738785002
 30
0.0
 40
4.7625
  1
000
 41
0.3315789473684207
  7
DCSTYLE0
 72
     5
 11
194.6522607799
 21
-72.46899738785002
 31
0.0
100
AcDbText
  0
VIEWPORT
  5
AD
330
1B
100
AcDbEntity
 67
     1
  8
0
100
AcDbViewport
 10
0.0
 20
-2.381250000000023
 30
0.0
 40
1234.5143914986
 41
420.5264843271001
 68
     1
 69
     1
1001
ACAD
1000
MVIEW
1002
{
1070
    16
1010
0.0
1020
0.0
1030
0.0
1010
0.0
1020
0.0
1030
1.0
1040
0.0
1040
420.5264843271001
1040
0.0
1040
-2.381250000000023
1040
50.0
1040
0.0
1040
0.0
1070
     0
1070
   100
1070
     0
1070
     3
1070
     0
1070
     0
1070
     0
1070
     0
1040
0.0
1040
0.0
1040
0.0
1040
0.5
1040
0.5
1040
0.0
1040
0.0
1070
     0
1002
{
1002
}
1002
}
  0
ENDSEC
  0
SECTION
  2
OBJECTS
  0
DICTIONARY
  5
C
330
0
100
AcDbDictionary
  3
ACAD_GROUP
350
D
  3
ACAD_LAYOUT
350
1A
  3
ACAD_MATERIAL
350
43
  3
ACAD_MLEADERSTYLE
350
48A
  3
ACAD_MLINESTYLE
350
17
  3
ACAD_PLOTSETTINGS
350
19
  3
ACAD_SCALELIST
350
47
  3
ACAD_VISUALSTYLE
350
2A
  3
ACDBHEADERROUNDTRIPXREC
350
467
  3
ACDBVARIABLEDICTIONARY
350
488
  0
DICTIONARY
  5
48F
330
8
100
AcDbDictionary
280
     1
  3
ACAD_XREC_ROUNDTRIP
360
490
  0
DICTIONARY
  5
D
102
{ACAD_REACTORS
330
C
102
}
330
C
100
AcDbDictionary
  0
DICTIONARY
  5
1A
102
{ACAD_REACTORS
330
C
102
}
330
C
100
AcDbDictionary
  0
DICTIONARY
  5
43
102
{ACAD_REACTORS
330
C
102
}
330
C
100
AcDbDictionary
  3
BYBLOCK
350
45
  3
BYLAYER
350
44
  3
GLOBAL
350
46
  0
DICTIONARY
  5
48A
102
{ACAD_REACTORS
330
C
102
}
330
C
100
AcDbDictionary
  0
DICTIONARY
  5
17
102
{ACAD_REACTORS
330
C
102
}
330
C
100
AcDbDictionary
  3
STANDARD
350
18
  0
DICTIONARY
  5
19
102
{ACAD_REACTORS
330
C
102
}
330
C
100
AcDbDictionary
  0
DICTIONARY
  5
47
102
{ACAD_REACTORS
330
C
102
}
330
C
100
AcDbDictionary
  3
A0
350
48
  3
A1
350
49
  3
A2
350
4A
  3
A3
350
4B
  3
A4
350
4C
  3
A5
350
4D
  3
A6
350
4E
  3
A7
350
4F
  3
A8
350
50
  3
A9
350
51
  3
B0
350
52
  3
B1
350
53
  3
B2
350
54
  3
B3
350
55
  3
B4
350
56
  3
B5
350
57
  3
B6
350
58
  3
B7
350
59
  3
B8
350
5A
  3
B9
350
5B
  3
C0
350
5C
  3
C1
350
5D
  3
C2
350
5E
  3
C3
350
5F
  3
C4
350
60
  3
C5
350
61
  3
C6
350
62
  3
C7
350
63
  3
C8
350
64
  3
C9
350
65
  3
D0
350
66
  3
D1
350
67
  3
D2
350
68
  0
DICTIONARY
  5
2A
102
{ACAD_REACTORS
330
C
102
}
330
C
100
AcDbDictionary
  3
2DWIREFRAME
350
2F
  3
BASIC
350
32
  3
BRIGHTEN
350
36
  3
COLORCHANGE
350
3A
  3
CONCEPTUAL
350
34
  3
DIM
350
35
  3
EDGECOLOROFF
350
3D
  3
FACEPATTERN
350
39
  3
FLAT
350
2B
  3
FLATWITHEDGES
350
2C
  3
GOURAUD
350
2D
  3
GOURAUDWITHEDGES
350
2E
  3
HIDDEN
350
31
  3
JITTEROFF
350
3B
  3
LINEPATTERN
350
38
  3
OVERHANGOFF
350
3C
  3
REALISTIC
350
33
  3
SHADED
350
42
  3
SHADED_WITH_EDGES
350
41
  3
SHADES_OF_GRAY
350
3E
  3
SKETCHY
350
3F
  3
THICKEN
350
37
  3
WIREFRAME
350
30
  3
X-RAY
350
40
  0
DICTIONARY
  5
467
102
{ACAD_REACTORS
330
C
102
}
330
C
100
AcDbDictionary
  3
CEPSNID
350
471
  3
CEPSNTYPE
350
470
  3
DIMSTYLEDATA
350
487
  3
FINGERPRINTGUID
350
472
  3
HYPERLINKBASE
350
46A
  3
INSUNITS
350
46F
  3
LAYOUTDICT
350
46C
  3
LWETCUNION
350
46E
  3
PLOTSETDICT
350
46D
  3
PSVPSCALE
350
474
  3
PUCSBASE
350
477
  3
PUCSORGBACK
350
47D
  3
PUCSORGBOTTOM
350
479
  3
PUCSORGFRONT
350
47C
  3
PUCSORGLEFT
350
47A
  3
PUCSORGRIGHT
350
47B
  3
PUCSORGTOP
350
478
  3
PUCSORTHOREF
350
475
  3
PUCSORTHOVIEW
350
476
  3
STYLESHEET
350
46B
  3
TSTACKALIGN
350
468
  3
TSTACKSIZE
350
469
  3
UCSBASE
350
480
  3
UCSORGBACK
350
486
  3
UCSORGBOTTOM
350
482
  3
UCSORGFRONT
350
485
  3
UCSORGLEFT
350
483
  3
UCSORGRIGHT
350
484
  3
UCSORGTOP
350
481
  3
UCSORTHOREF
350
47E
  3
UCSORTHOVIEW
350
47F
  3
VERSIONGUID
350
473
  0
DICTIONARY
  5
488
102
{ACAD_REACTORS
330
C
102
}
330
C
100
AcDbDictionary
  3
CANNOSCALE
350
491
  3
DIMASSOC
350
48D
  3
HIDETEXT
350
48E
  3
MSLTSCALE
350
492
  0
XRECORD
  5
490
102
{ACAD_REACTORS
330
48F
102
}
330
48F
100
AcDbXrecord
102
VTR_0.000_0.000_1.000_1.000_GRIDDISPLAY
 70
     3
102
VTR_0.000_0.000_1.000_1.000_GRIDMAJOR
 70
     5
102
VTR_0.000_0.000_1.000_1.000_DEFAULTLIGHTING
280
     1
102
VTR_0.000_0.000_1.000_1.000_DEFAULTLIGHTINGTYPE
 70
     1
102
VTR_0.000_0.000_1.000_1.000_BRIGHTNESS
141
0.0
102
VTR_0.000_0.000_1.000_1.000_CONTRAST
142
0.0
  0
MATERIAL
  5
45
102
{ACAD_REACTORS
330
43
102
}
102
{ACAD_XDICTIONARY
360
495
102
}
330
43
100
AcDbMaterial
  1
BYBLOCK
  0
MATERIAL
  5
44
102
{ACAD_REACTORS
330
43
102
}
102
{ACAD_XDICTIONARY
360
493
102
}
330
43
100
AcDbMaterial
  1
BYLAYER
  0
MATERIAL
  5
46
102
{ACAD_REACTORS
330
43
102
}
102
{ACAD_XDICTIONARY
360
497
102
}
330
43
100
AcDbMaterial
  1
GLOBAL
  0
MLINESTYLE
  5
18
102
{ACAD_REACTORS
330
17
102
}
330
17
100
AcDbMlineStyle
  2
Standard
 70
     0
  3

 62
   256
 51
90.0
 52
90.0
 71
     2
 49
0.5
 62
   256
  6
BYLAYER
 49
-0.5
 62
   256
  6
BYLAYER
  0
ACAD_PROXY_OBJECT
  5
48
102
{ACAD_REACTORS
330
47
102
}
330
47
100
AcDbProxyObject
 90
      499
 91
      503
 93
       41
310
903313A31580
  0
ACAD_PROXY_OBJECT
  5
49
102
{ACAD_REACTORS
330
47
102
}
330
47
100
AcDbProxyObject
 90
      499
 91
      503
 93
      105
310
903313A324000000000000004000
  0
ACAD_PROXY_OBJECT
  5
4A
102
{ACAD_REACTORS
330
47
102
}
330
47
100
AcDbProxyObject
 90
      499
 91
      503
 93
      105
310
903313A344000000000000104000
  0
ACAD_PROXY_OBJECT
  5
4B
102
{ACAD_REACTORS
330
47
102
}
330
47
100
AcDbProxyObject
 90
      499
 91
      503
 93
      105
310
903313A354000000000000144000
  0
ACAD_PROXY_OBJECT
  5
4C
102
{ACAD_REACTORS
330
47
102
}
330
47
100
AcDbProxyObject
 90
      499
 91
      503
 93
      105
310
903313A384000000000000204000
  0
ACAD_PROXY_OBJECT
  5
4D
102
{ACAD_REACTORS
330
47
102
}
330
47
100
AcDbProxyObject
 90
      499
 91
      503
 93
      113
310
904313A31304000000000000244000
  0
ACAD_PROXY_OBJECT
  5
4E
102
{ACAD_REACTORS
330
47
102
}
330
47
100
AcDbProxyObject
 90
      499
 91
      503
 93
      113
310
904313A31364000000000000304000
  0
ACAD_PROXY_OBJECT
  5
4F
102
{ACAD_REACTORS
330
47
102
}
330
47
100
AcDbProxyObject
 90
      499
 91
      503
 93
      113
310
904313A32304000000000000344000
  0
ACAD_PROXY_OBJECT
  5
50
102
{ACAD_REACTORS
330
47
102
}
330
47
100
AcDbProxyObject
 90
      499
 91
      503
 93
      113
310
904313A333040000000000003E4000
  0
ACAD_PROXY_OBJECT
  5
51
102
{ACAD_REACTORS
330
47
102
}
330
47
100
AcDbProxyObject
 90
      499
 91
      503
 93
      113
310
904313A34304000000000000444000
  0
ACAD_PROXY_OBJECT
  5
52
102
{ACAD_REACTORS
330
47
102
}
330
47
100
AcDbProxyObject
 90
      499
 91
      503
 93
      113
310
904313A35304000000000000494000
  0
ACAD_PROXY_OBJECT
  5
53
102
{ACAD_REACTORS
330
47
102
}
330
47
100
AcDbProxyObject
 90
      499
 91
      503
 93
      121
310
905313A3130304000000000000594000
  0
ACAD_PROXY_OBJECT
  5
54
102
{ACAD_REACTORS
330
47
102
}
330
47
100
AcDbProxyObject
 90
      499
 91
      503
 93
      105
310
903323A310000000000000010100
  0
ACAD_PROXY_OBJECT
  5
55
102
{ACAD_REACTORS
330
47
102
}
330
47
100
AcDbProxyObject
 90
      499
 91
      503
 93
      105
310
903343A310000000000000410100
  0
ACAD_PROXY_OBJECT
  5
56
102
{ACAD_REACTORS
330
47
102
}
330
47
100
AcDbProxyObject
 90
      499
 91
      503
 93
      105
310
903383A310000000000000810100
  0
ACAD_PROXY_OBJECT
  5
57
102
{ACAD_REACTORS
330
47
102
}
330
47
100
AcDbProxyObject
 90
      499
 91
      503
 93
      113
310
90431303A310000000000000910100
  0
ACAD_PROXY_OBJECT
  5
58
102
{ACAD_REACTORS
330
47
102
}
330
47
100
AcDbProxyObject
 90
      499
 91
      503
 93
      121
310
9053130303A310000000000001650100
  0
ACAD_PROXY_OBJECT
  5
59
102
{ACAD_REACTORS
330
47
102
}
330
47
100
AcDbProxyObject
 90
      499
 91
      503
 93
      257
310
90E312F31323822203D2031272D3022000000000000200FC000000000000284000
  0
ACAD_PROXY_OBJECT
  5
5A
102
{ACAD_REACTORS
330
47
102
}
330
47
100
AcDbProxyObject
 90
      499
 91
      503
 93
      249
310
90D312F363422203D2031272D3022000000000000240FC000000000000284000
  0
ACAD_PROXY_OBJECT
  5
5B
102
{ACAD_REACTORS
330
47
102
}
330
47
100
AcDbProxyObject
 90
      499
 91
      503
 93
      249
310
90D312F333222203D2031272D3022000000000000280FC000000000000284000
  0
ACAD_PROXY_OBJECT
  5
5C
102
{ACAD_REACTORS
330
47
102
}
330
47
100
AcDbProxyObject
 90
      499
 91
      503
 93
      249
310
90D312F313622203D2031272D30220000000000002C0FC000000000000284000
  0
ACAD_PROXY_OBJECT
  5
5D
102
{ACAD_REACTORS
330
47
102
}
330
47
100
AcDbProxyObject
 90
      499
 91
      503
 93
      249
310
90D332F333222203D2031272D30220000000000002E0FC000000000000284000
  0
ACAD_PROXY_OBJECT
  5
5E
102
{ACAD_REACTORS
330
47
102
}
330
47
100
AcDbProxyObject
 90
      499
 91
      503
 93
      241
310
90C312F3822203D2031272D3022000000000000300FC000000000000284000
  0
ACAD_PROXY_OBJECT
  5
5F
102
{ACAD_REACTORS
330
47
102
}
330
47
100
AcDbProxyObject
 90
      499
 91
      503
 93
      249
310
90D332F313622203D2031272D3022000000000000320FC000000000000284000
  0
ACAD_PROXY_OBJECT
  5
60
102
{ACAD_REACTORS
330
47
102
}
330
47
100
AcDbProxyObject
 90
      499
 91
      503
 93
      241
310
90C312F3422203D2031272D3022000000000000340FC000000000000284000
  0
ACAD_PROXY_OBJECT
  5
61
102
{ACAD_REACTORS
330
47
102
}
330
47
100
AcDbProxyObject
 90
      499
 91
      503
 93
      241
310
90C332F3822203D2031272D3022000000000000360FC000000000000284000
  0
ACAD_PROXY_OBJECT
  5
62
102
{ACAD_REACTORS
330
47
102
}
330
47
100
AcDbProxyObject
 90
      499
 91
      503
 93
      241
310
90C312F3222203D2031272D3022000000000000380FC000000000000284000
  0
ACAD_PROXY_OBJECT
  5
63
102
{ACAD_REACTORS
330
47
102
}
330
47
100
AcDbProxyObject
 90
      499
 91
      503
 93
      241
310
90C332F3422203D2031272D30220000000000003A0FC000000000000284000
  0
ACAD_PROXY_OBJECT
  5
64
102
{ACAD_REACTORS
330
47
102
}
330
47
100
AcDbProxyObject
 90
      499
 91
      503
 93
      161
310
90A3122203D2031272D30224000000000000284000
  0
ACAD_PROXY_OBJECT
  5
65
102
{ACAD_REACTORS
330
47
102
}
330
47
100
AcDbProxyObject
 90
      499
 91
      503
 93
      257
310
90E312D312F3222203D2031272D30220000000000003E0FC000000000000284000
  0
ACAD_PROXY_OBJECT
  5
66
102
{ACAD_REACTORS
330
47
102
}
330
47
100
AcDbProxyObject
 90
      499
 91
      503
 93
      225
310
90A3322203D2031272D302200000000000002100000000000000284000
  0
ACAD_PROXY_OBJECT
  5
67
102
{ACAD_REACTORS
330
47
102
}
330
47
100
AcDbProxyObject
 90
      499
 91
      503
 93
      225
310
90A3622203D2031272D302200000000000006100000000000000284000
  0
ACAD_PROXY_OBJECT
  5
68
102
{ACAD_REACTORS
330
47
102
}
330
47
100
AcDbProxyObject
 90
      499
 91
      503
 93
      249
310
90D31272D3022203D2031272D30220000000000000A100000000000000284000
  0
ACAD_PROXY_OBJECT
  5
2F
102
{ACAD_REACTORS
330
2A
102
}
330
2A
100
AcDbProxyObject
 90
      499
 91
      501
 93
      436
310
42CC9915DA5C99599C985B595049028333333333333E33F0000000000000F90107901411070040501600405405064090741402480A0340
1001
ACAD
1000
AcDbSavedByObjectVersion
1070
     0
  0
ACAD_PROXY_OBJECT
  5
32
102
{ACAD_REACTORS
330
2A
102
}
330
2A
100
AcDbProxyObject
 90
      499
 91
      501
 93
      388
310
4150985CDA58D07406404333333333333E33F0000000000000F90107A41107004050150841D405064090741402480A0350
1001
ACAD
1000
AcDbSavedByObjectVersion
1070
     0
  0
ACAD_PROXY_OBJECT
  5
36
102
{ACAD_REACTORS
330
2A
102
}
330
2A
100
AcDbProxyObject
 90
      499
 91
      501
 93
      428
310
42109C9A59DA1D195B90C409028333333333333E33F0000000000000F9010790141107004050150841D405064090741402480A029950
1001
ACAD
1000
AcDbSavedByObjectVersion
1070
     0
  0
ACAD_PROXY_OBJECT
  5
3A
102
{ACAD_REACTORS
330
2A
102
}
330
2A
100
AcDbProxyObject
 90
      499
 91
      501
 93
      452
310
42D0DBDB1BDC90DA185B99D95104090240C333333333333E33F0000000000000F90108901411070040501508421405064090741402480A0350
1001
ACAD
1000
AcDbSavedByObjectVersion
1070
     0
  0
ACAD_PROXY_OBJECT
  5
34
102
{ACAD_REACTORS
330
2A
102
}
330
2A
100
AcDbProxyObject
 90
      499
 91
      501
 93
      500
310
4290DBDB98D95C1D1D585B10940D028333333333333E33F0000000000000F90107902409070040501000000000018199010841D405064090740C02480A0340
1001
ACAD
1000
AcDbSavedByObjectVersion
1070
     0
  0
ACAD_PROXY_OBJECT
  5
35
102
{ACAD_REACTORS
330
2A
102
}
330
2A
100
AcDbProxyObject
 90
      499
 91
      501
 93
      412
310
40D11A5B50B409028333333333333E33F0000000000000F9010790141107004050150841D405064090741402480A02677FFFFFD0
1001
ACAD
1000
AcDbSavedByObjectVersion
1070
     0
  0
ACAD_PROXY_OBJECT
  5
3D
102
{ACAD_REACTORS
330
2A
102
}
330
2A
100
AcDbProxyObject
 90
      499
 91
      501
 93
      452
310
43115919D950DBDB1BDC93D999916409028333333333333E33F0000000000000F9010790141107004050150841D405064090741402480A0350
1001
ACAD
1000
AcDbSavedByObjectVersion
1070
     0
  0
ACAD_PROXY_OBJECT
  5
39
102
{ACAD_REACTORS
330
2A
102
}
330
2A
100
AcDbProxyObject
 90
      499
 91
      501
 93
      444
310
42D19858D95C185D1D195C9B90F409028333333333333E33F0000000000000F9010790141107004050150841D405064090741402480A0350
1001
ACAD
1000
AcDbSavedByObjectVersion
1070
     0
  0
ACAD_PROXY_OBJECT
  5
2B
102
{ACAD_REACTORS
330
2A
102
}
330
2A
100
AcDbProxyObject
 90
      499
 91
      501
 93
      380
310
41119B185D240901404333333333333E33F0000000000000F9010740A907004050150841D405064090741402480A1B50
1001
ACAD
1000
AcDbSavedByObjectVersion
1070
     0
  0
ACAD_PROXY_OBJECT
  5
2C
102
{ACAD_REACTORS
330
2A
102
}
330
2A
100
AcDbProxyObject
 90
      499
 91
      501
 93
      468
310
43519B185D15DA5D1A115919D95CD0140901404333333333333E33F0000000000000F90107409019070040501600405405064090741402480A1B50
1001
ACAD
1000
AcDbSavedByObjectVersion
1070
     0
  0
ACAD_PROXY_OBJECT
  5
2D
102
{ACAD_REACTORS
330
2A
102
}
330
2A
100
AcDbProxyObject
 90
      499
 91
      501
 93
      404
310
41D1DBDD5C985D5910240902404333333333333E33F0000000000000F9010740A9070040501641D405064090741402480A1B50
1001
ACAD
1000
AcDbSavedByObjectVersion
1070
     0
  0
ACAD_PROXY_OBJECT
  5
2E
102
{ACAD_REACTORS
330
2A
102
}
330
2A
100
AcDbProxyObject
 90
      499
 91
      501
 93
      492
310
4411DBDD5C985D5915DA5D1A115919D95CD0340902404333333333333E33F0000000000000F90107409019070040501600405405064090741402480A1B50
1001
ACAD
1000
AcDbSavedByObjectVersion
1070
     0
  0
ACAD_PROXY_OBJECT
  5
31
102
{ACAD_REACTORS
330
2A
102
}
330
2A
100
AcDbProxyObject
 90
      499
 91
      501
 93
      476
310
41921A5919195B90640502408333333333333E33F0000000000000F901079024090700405020000000000001110200405405064090740C02480A0340
1001
ACAD
1000
AcDbSavedByObjectVersion
1070
     0
  0
ACAD_PROXY_OBJECT
  5
3B
102
{ACAD_REACTORS
330
2A
102
}
330
2A
100
AcDbProxyObject
 90
      499
 91
      501
 93
      428
310
42529A5D1D195C93D999914409028333333333333E33F0000000000000F9010790141107004050150A41D405064090741402480A0350
1001
ACAD
1000
AcDbSavedByObjectVersion
1070
     0
  0
ACAD_PROXY_OBJECT
  5
38
102
{ACAD_REACTORS
330
2A
102
}
330
2A
100
AcDbProxyObject
 90
      499
 91
      501
 93
      444
310
42D31A5B995C185D1D195C9B90E409028333333333333E33F0000000000000F9010790141107004050750841D405064090741402483A0350
1001
ACAD
1000
AcDbSavedByObjectVersion
1070
     0
  0
ACAD_PROXY_OBJECT
  5
3C
102
{ACAD_REACTORS
330
2A
102
}
330
2A
100
AcDbProxyObject
 90
      499
 91
      501
 93
      444
310
42D3DD995C9A185B99D3D999915409028333333333333E33F0000000000000F9010790141107004050150941D405064090741402480A0350
1001
ACAD
1000
AcDbSavedByObjectVersion
1070
     0
  0
ACAD_PROXY_OBJECT
  5
33
102
{ACAD_REACTORS
330
2A
102
}
330
2A
100
AcDbProxyObject
 90
      499
 91
      501
 93
      428
310
425499585B1A5CDD1A58D08409038333333333333E33F0000000000000F9010740A907004050150800405405064090740C02480A1B40
1001
ACAD
1000
AcDbSavedByObjectVersion
1070
     0
  0
ACAD_PROXY_OBJECT
  5
42
102
{ACAD_REACTORS
330
2A
102
}
330
2A
100
AcDbProxyObject
 90
      499
 91
      501
 93
      420
310
4194DA1859195911B40902404333333333333E33F0000000000000F9010740A41107004050150800405405064090840C02480A0B40
1001
ACAD
1000
AcDbSavedByObjectVersion
1070
     0
  0
ACAD_PROXY_OBJECT
  5
41
102
{ACAD_REACTORS
330
2A
102
}
330
2A
100
AcDbProxyObject
 90
      499
 91
      501
 93
      516
310
4454DA18591959081DDA5D1A08195919D95CD1A40902404333333333333E33F0000000000000F901074090142907004050250800405405064090740C02480A0B40
1001
ACAD
1000
AcDbSavedByObjectVersion
1070
     0
  0
ACAD_PROXY_OBJECT
  5
3E
102
{ACAD_REACTORS
330
2A
102
}
330
2A
100
AcDbProxyObject
 90
      499
 91
      501
 93
      532
310
4394DA1859195CC81BD98811DC985E5174090240C333333333333E33F0000000000000F901079024090741D01000000000000111010841D405064090740C02480A0340
1001
ACAD
1000
AcDbSavedByObjectVersion
1070
     0
  0
ACAD_PROXY_OBJECT
  5
3F
102
{ACAD_REACTORS
330
2A
102
}
330
2A
100
AcDbProxyObject
 90
      499
 91
      501
 93
      476
310
41D4DAD95D18DA1E51840502408333333333333E33F0000000000000F901079024090741D01000000000000111010B41D405064090741802480A0340
1001
ACAD
1000
AcDbSavedByObjectVersion
1070
     0
  0
ACAD_PROXY_OBJECT
  5
37
102
{ACAD_REACTORS
330
2A
102
}
330
2A
100
AcDbProxyObject
 90
      499
 91
      501
 93
      412
310
41D51A1A58DAD95B90D409028333333333333E33F0000000000000F9010790141107004050150C41D405064090741402480A0350
1001
ACAD
1000
AcDbSavedByObjectVersion
1070
     0
  0
ACAD_PROXY_OBJECT
  5
30
102
{ACAD_REACTORS
330
2A
102
}
330
2A
100
AcDbProxyObject
 90
      499
 91
      501
 93
      420
310
4255DA5C99599C985B595059028333333333333E33F0000000000000F90107901411070040501600405405064090740C02480A0340
1001
ACAD
1000
AcDbSavedByObjectVersion
1070
     0
  0
ACAD_PROXY_OBJECT
  5
40
102
{ACAD_REACTORS
330
2A
102
}
330
2A
100
AcDbProxyObject
 90
      499
 91
      501
 93
      404
310
41560B54985E51940902404000000000000E03F0000000000000F9010740501907004050150841D405064090740C02480A1B40
1001
ACAD
1000
AcDbSavedByObjectVersion
1070
     0
  0
XRECORD
  5
471
102
{ACAD_REACTORS
330
467
102
}
330
467
100
AcDbXrecord
340
0
  0
XRECORD
  5
470
102
{ACAD_REACTORS
330
467
102
}
330
467
100
AcDbXrecord
 90
        0
  0
XRECORD
  5
487
102
{ACAD_REACTORS
330
467
102
}
330
467
100
AcDbXrecord
1000
DSTYLE
1002
{
1070
   179
 70
     2
1070
   171
 70
     2
1070
   143
 40
25.4
1070
   274
 70
     2
1070
    41
 40
1.500000953674316
1070
    79
 70
     2
1070
   141
 40
0.0
1070
    43
 40
10.0
1070
   278
 70
    46
1070
    44
 40
1.0
1070
    42
 40
1.0
1070
   147
 40
0.09
1070
   146
 40
0.65
1070
   172
 70
     0
1070
   340
340
11
1070
   140
 40
1.75
1070
   284
 70
     0
1070
    90
 70
     1
1002
}
  0
XRECORD
  5
472
102
{ACAD_REACTORS
330
467
102
}
330
467
100
AcDbXrecord
  1
{01B07879-CA88-41D4-B4B0-9DF001852C48}
  0
XRECORD
  5
46A
102
{ACAD_REACTORS
330
467
102
}
330
467
100
AcDbXrecord
  1

  0
XRECORD
  5
46F
102
{ACAD_REACTORS
330
467
102
}
330
467
100
AcDbXrecord
 90
        4
  0
XRECORD
  5
46C
102
{ACAD_REACTORS
330
467
102
}
330
467
100
AcDbXrecord
340
1A
  0
XRECORD
  5
46E
102
{ACAD_REACTORS
330
467
102
}
330
467
100
AcDbXrecord
 90
    10781
  0
XRECORD
  5
46D
102
{ACAD_REACTORS
330
467
102
}
330
467
100
AcDbXrecord
340
19
  0
XRECORD
  5
474
102
{ACAD_REACTORS
330
467
102
}
330
467
100
AcDbXrecord
 40
0.0
  0
XRECORD
  5
477
102
{ACAD_REACTORS
330
467
102
}
330
467
100
AcDbXrecord
340
0
  0
XRECORD
  5
47D
102
{ACAD_REACTORS
330
467
102
}
330
467
100
AcDbXrecord
 10
0.0
 20
0.0
 30
0.0
  0
XRECORD
  5
479
102
{ACAD_REACTORS
330
467
102
}
330
467
100
AcDbXrecord
 10
0.0
 20
0.0
 30
0.0
  0
XRECORD
  5
47C
102
{ACAD_REACTORS
330
467
102
}
330
467
100
AcDbXrecord
 10
0.0
 20
0.0
 30
0.0
  0
XRECORD
  5
47A
102
{ACAD_REACTORS
330
467
102
}
330
467
100
AcDbXrecord
 10
0.0
 20
0.0
 30
0.0
  0
XRECORD
  5
47B
102
{ACAD_REACTORS
330
467
102
}
330
467
100
AcDbXrecord
 10
0.0
 20
0.0
 30
0.0
  0
XRECORD
  5
478
102
{ACAD_REACTORS
330
467
102
}
330
467
100
AcDbXrecord
 10
0.0
 20
0.0
 30
0.0
  0
XRECORD
  5
475
102
{ACAD_REACTORS
330
467
102
}
330
467
100
AcDbXrecord
340
0
  0
XRECORD
  5
476
102
{ACAD_REACTORS
330
467
102
}
330
467
100
AcDbXrecord
 70
     0
  0
XRECORD
  5
46B
102
{ACAD_REACTORS
330
467
102
}
330
467
100
AcDbXrecord
  1

  0
XRECORD
  5
468
102
{ACAD_REACTORS
330
467
102
}
330
467
100
AcDbXrecord
 90
        1
  0
XRECORD
  5
469
102
{ACAD_REACTORS
330
467
102
}
330
467
100
AcDbXrecord
 90
       70
  0
XRECORD
  5
480
102
{ACAD_REACTORS
330
467
102
}
330
467
100
AcDbXrecord
340
0
  0
XRECORD
  5
486
102
{ACAD_REACTORS
330
467
102
}
330
467
100
AcDbXrecord
 10
0.0
 20
0.0
 30
0.0
  0
XRECORD
  5
482
102
{ACAD_REACTORS
330
467
102
}
330
467
100
AcDbXrecord
 10
0.0
 20
0.0
 30
0.0
  0
XRECORD
  5
485
102
{ACAD_REACTORS
330
467
102
}
330
467
100
AcDbXrecord
 10
0.0
 20
0.0
 30
0.0
  0
XRECORD
  5
483
102
{ACAD_REACTORS
330
467
102
}
330
467
100
AcDbXrecord
 10
0.0
 20
0.0
 30
0.0
  0
XRECORD
  5
484
102
{ACAD_REACTORS
330
467
102
}
330
467
100
AcDbXrecord
 10
0.0
 20
0.0
 30
0.0
  0
XRECORD
  5
481
102
{ACAD_REACTORS
330
467
102
}
330
467
100
AcDbXrecord
 10
0.0
 20
0.0
 30
0.0
  0
XRECORD
  5
47E
102
{ACAD_REACTORS
330
467
102
}
330
467
100
AcDbXrecord
340
0
  0
XRECORD
  5
47F
102
{ACAD_REACTORS
330
467
102
}
330
467
100
AcDbXrecord
 70
     0
  0
XRECORD
  5
473
102
{ACAD_REACTORS
330
467
102
}
330
467
100
AcDbXrecord
  1
{FAEB1C32-E019-11D5-929B-00C0DF256EC4}
  0
DICTIONARYVAR
  5
491
102
{ACAD_REACTORS
330
488
102
}
330
488
100
DictionaryVariables
280
     0
  1
1:1
  0
DICTIONARYVAR
  5
48D
102
{ACAD_REACTORS
330
488
102
}
330
488
100
DictionaryVariables
280
     0
  1
2
  0
DICTIONARYVAR
  5
48E
102
{ACAD_REACTORS
330
488
102
}
330
488
100
DictionaryVariables
280
     0
  1
1
  0
DICTIONARYVAR
  5
492
102
{ACAD_REACTORS
330
488
102
}
330
488
100
DictionaryVariables
280
     0
  1
1
  0
DICTIONARY
  5
495
330
45
100
AcDbDictionary
280
     1
  3
ACAD_XREC_ROUNDTRIP
360
496
  0
DICTIONARY
  5
493
330
44
100
AcDbDictionary
280
     1
  3
ACAD_XREC_ROUNDTRIP
360
494
  0
DICTIONARY
  5
497
330
46
100
AcDbDictionary
280
     1
  3
ACAD_XREC_ROUNDTRIP
360
498
  0
XRECORD
  5
496
102
{ACAD_REACTORS
330
495
102
}
330
495
100
AcDbXrecord
102
MATERIAL
148
0.0
149
0.0
149
0.0
 93
        0
 94
      127
282
     0
 72
     1
 77
     1
171
     1
175
     1
179
     1
273
     0
  0
XRECORD
  5
494
102
{ACAD_REACTORS
330
493
102
}
330
493
100
AcDbXrecord
102
MATERIAL
148
0.0
149
0.0
149
0.0
 93
        0
 94
      127
282
     0
 72
     1
 77
     1
171
     1
175
     1
179
     1
273
     0
  0
XRECORD
  5
498
102
{ACAD_REACTORS
330
497
102
}
330
497
100
AcDbXrecord
102
MATERIAL
148
0.0
149
0.0
149
0.0
 93
        0
 94
      127
282
     0
 72
     1
 77
     1
171
     1
175
     1
179
     1
273
     0
  0
ENDSEC
  0
EOF

