  0
SECTION
  2
HEADER
  9
$ACADVER
  1
AC1009
  9
$DWGCODEPAGE
  3
ansi_932
  9
$INSBASE
 10
0.0
 20
0.0
 30
0.0
  9
$EXTMIN
 10
-573.5727322732274
 20
-339.8402246820587
 30
0.0
  9
$EXTMAX
 10
571.1877772864395
 20
261.3999615592393
 30
0.0
  9
$LIMMIN
 10
-210.0
 20
-148.5
  9
$LIMMAX
 10
210.0
 20
148.5
  9
$ORTHOMODE
 70
     0
  9
$REGENMODE
 70
     1
  9
$FILLMODE
 70
     1
  9
$QTEXTMODE
 70
     0
  9
$MIRRTEXT
 70
     1
  9
$DRAGMODE
 70
     2
  9
$LTSCALE
 40
0.25
  9
$OSMODE
 70
    37
  9
$ATTMODE
 70
     1
  9
$TEXTSIZE
 40
0.2
  9
$TRACEWID
 40
0.05
  9
$TEXTSTYLE
  7
STANDARD
  9
$CLAYER
  8
0
  9
$CELTYPE
  6
BYLAYER
  9
$CECOLOR
 62
   256
  9
$DIMSCALE
 40
1.0
  9
$DIMASZ
 40
1.800315856933594
  9
$DIMEXO
 40
1.0
  9
$DIMDLI
 40
10.0
  9
$DIMRND
 40
0.0
  9
$DIMDLE
 40
0.0
  9
$DIMEXE
 40
1.0
  9
$DIMTP
 40
0.0
  9
$DIMTM
 40
0.0
  9
$DIMTXT
 40
3.5
  9
$DIMCEN
 40
0.0
  9
$DIMTSZ
 40
0.0
  9
$DIMTOL
 70
     0
  9
$DIMLIM
 70
     0
  9
$DIMTIH
 70
     0
  9
$DIMTOH
 70
     0
  9
$DIMSE1
 70
     0
  9
$DIMSE2
 70
     0
  9
$DIMTAD
 70
     1
  9
$DIMZIN
 70
     8
  9
$DIMBLK
  1

  9
$DIMASO
 70
     1
  9
$DIMSHO
 70
     1
  9
$DIMPOST
  1

  9
$DIMAPOST
  1

  9
$DIMALT
 70
     0
  9
$DIMALTD
 70
     2
  9
$DIMALTF
 40
0.0393700787401575
  9
$DIMLFAC
 40
1.0
  9
$DIMTOFL
 70
     0
  9
$DIMTVP
 40
0.0
  9
$DIMTIX
 70
     0
  9
$DIMSOXD
 70
     0
  9
$DIMSAH
 70
     0
  9
$DIMBLK1
  1

  9
$DIMBLK2
  1

  9
$DIMSTYLE
  2
STANDARD
  9
$DIMCLRD
 70
     0
  9
$DIMCLRE
 70
     0
  9
$DIMCLRT
 70
     0
  9
$DIMTFAC
 40
0.65
  9
$DIMGAP
 40
0.09
  9
$LUNITS
 70
     2
  9
$LUPREC
 70
     4
  9
$SKETCHINC
 40
0.1
  9
$FILLETRAD
 40
0.5
  9
$AUNITS
 70
     0
  9
$AUPREC
 70
     0
  9
$MENU
  1
.
  9
$ELEVATION
 40
0.0
  9
$PELEVATION
 40
0.0
  9
$THICKNESS
 40
0.0
  9
$LIMCHECK
 70
     0
  9
$CHAMFERA
 40
0.0
  9
$CHAMFERB
 40
0.0
  9
$SKPOLY
 70
     0
  9
$TDCREATE
 40
2460454.401173704
  9
$TDUPDATE
 40
2460454.40117397
  9
$TDINDWG
 40
0.0000000116
  9
$TDUSRTIMER
 40
0.0000000116
  9
$USRTIMER
 70
     1
  9
$ANGBASE
 50
0.0
  9
$ANGDIR
 70
     0
  9
$PDMODE
 70
     0
  9
$PDSIZE
 40
1.0
  9
$PLINEWID
 40
0.0
  9
$COORDS
 70
     1
  9
$SPLFRAME
 70
     0
  9
$SPLINETYPE
 70
     6
  9
$SPLINESEGS
 70
     8
  9
$ATTDIA
 70
     0
  9
$ATTREQ
 70
     1
  9
$HANDLING
 70
     1
  9
$HANDSEED
  5
249
  9
$SURFTAB1
 70
     6
  9
$SURFTAB2
 70
     6
  9
$SURFTYPE
 70
     6
  9
$SURFU
 70
     6
  9
$SURFV
 70
     6
  9
$UCSNAME
  2

  9
$UCSORG
 10
0.0
 20
0.0
 30
0.0
  9
$UCSXDIR
 10
1.0
 20
0.0
 30
0.0
  9
$UCSYDIR
 10
0.0
 20
1.0
 30
0.0
  9
$PUCSNAME
  2

  9
$PUCSORG
 10
0.0
 20
0.0
 30
0.0
  9
$PUCSXDIR
 10
1.0
 20
0.0
 30
0.0
  9
$PUCSYDIR
 10
0.0
 20
1.0
 30
0.0
  9
$USERI1
 70
     0
  9
$USERI2
 70
     0
  9
$USERI3
 70
     0
  9
$USERI4
 70
     0
  9
$USERI5
 70
     0
  9
$USERR1
 40
0.0
  9
$USERR2
 40
0.0
  9
$USERR3
 40
0.0
  9
$USERR4
 40
0.0
  9
$USERR5
 40
0.0
  9
$WORLDVIEW
 70
     1
  9
$SHADEDGE
 70
     3
  9
$SHADEDIF
 70
    70
  9
$TILEMODE
 70
     1
  9
$MAXACTVP
 70
    64
  9
$PLIMCHECK
 70
     0
  9
$PEXTMIN
 10
1.000000000000000E+20
 20
1.000000000000000E+20
 30
1.000000000000000E+20
  9
$PEXTMAX
 10
-1.000000000000000E+20
 20
-1.000000000000000E+20
 30
-1.000000000000000E+20
  9
$PLIMMIN
 10
0.0
 20
0.0
  9
$PLIMMAX
 10
12.0
 20
9.0
  9
$UNITMODE
 70
     0
  9
$VISRETAIN
 70
     0
  9
$PLINEGEN
 70
     1
  9
$PSLTSCALE
 70
     0
  0
ENDSEC
  0
SECTION
  2
TABLES
  0
TABLE
  2
VPORT
 70
     1
  0
VPORT
  2
*ACTIVE
 70
     0
 10
0.0
 20
0.0
 11
1.0
 21
1.0
 12
2.152522506606058
 22
-39.76835276936268
 13
0.0
 23
0.0
 14
0.5
 24
0.5
 15
0.5
 25
0.5
 16
0.0
 26
0.0
 36
1.0
 17
0.0
 27
0.0
 37
0.0
 40
205.5400345862654
 41
1.926838117194475
 42
50.0
 43
0.0
 44
0.0
 50
0.0
 51
0.0
 71
     0
 72
  1000
 73
     1
 74
     1
 75
     0
 76
     0
 77
     0
 78
     0
  0
ENDTAB
  0
TABLE
  2
LTYPE
 70
    67
  0
LTYPE
  2
CONTINUOUS
 70
     0
  3
Solid line
 72
    65
 73
     0
 40
0.0
  0
LTYPE
  2
HIDDENX2
 70
     0
  3
Hidden (2x) ____ ____ ____ ____ ____ ____ ____ 
 72
    65
 73
     2
 40
19.05
 49
12.7
 49
-6.35
  0
LTYPE
  2
HIDDEN
 70
     0
  3
Hidden __ __ __ __ __ __ __ __ __ __ __ __ __ __
 72
    65
 73
     2
 40
9.524999999999999
 49
6.35
 49
-3.175
  0
LTYPE
  2
HIDDEN2
 70
     0
  3
Hidden (.5x) _ _ _ _ _ _ _ _ _ _ _ _ _ _ _ _ _ 
 72
    65
 73
     2
 40
4.762499999999999
 49
3.175
 49
-1.5875
  0
LTYPE
  2
DASHED
 70
     0
  3
Dashed __ __ __ __ __ __ __ __ __ __ __ __ __ _
 72
    65
 73
     2
 40
19.05
 49
12.7
 49
-6.35
  0
LTYPE
  2
DASHED2
 70
     0
  3
Dashed (.5x) _ _ _ _ _ _ _ _ _ _ _ _ _ _ _ _ _ 
 72
    65
 73
     2
 40
9.524999999999999
 49
6.35
 49
-3.175
  0
LTYPE
  2
DASHEDX2
 70
     0
  3
Dashed (2x) ____  ____  ____  ____  ____  ___
 72
    65
 73
     2
 40
38.09999999999999
 49
25.4
 49
-12.7
  0
LTYPE
  2
DOTX2
 70
     0
  3
Dot (2x) .  .  .  .  .  .  .  .  .  .  .  .  .  .
 72
    65
 73
     2
 40
12.7
 49
0.0
 49
-12.7
  0
LTYPE
  2
DOT
 70
     0
  3
Dot . . . . . . . . . . . . . . . . . . . . . . . .
 72
    65
 73
     2
 40
6.35
 49
0.0
 49
-6.35
  0
LTYPE
  2
DOT2
 70
     0
  3
Dot (.5x) ........................................
 72
    65
 73
     2
 40
3.175
 49
0.0
 49
-3.175
  0
LTYPE
  2
CENTERX2
 70
     0
  3
Center (2x) ________  __  ________  __  _____
 72
    65
 73
     4
 40
101.6
 49
63.5
 49
-12.7
 49
12.7
 49
-12.7
  0
LTYPE
  2
CENTER
 70
     0
  3
Center ____ _ ____ _ ____ _ ____ _ ____ _ ____
 72
    65
 73
     4
 40
50.8
 49
31.75
 49
-6.35
 49
6.35
 49
-6.35
  0
LTYPE
  2
CENTER2
 70
     0
  3
Center (.5x) ___ _ ___ _ ___ _ ___ _ ___ _ ___
 72
    65
 73
     4
 40
28.575
 49
19.05
 49
-3.175
 49
3.175
 49
-3.175
  0
LTYPE
  2
DASHDOTX2
 70
     0
  3
Dash dot (2x) ____  .  ____  .  ____  .  ___
 72
    65
 73
     4
 40
50.8
 49
25.4
 49
-12.7
 49
0.0
 49
-12.7
  0
LTYPE
  2
DASHDOT
 70
     0
  3
Dash dot __ . __ . __ . __ . __ . __ . __ . __
 72
    65
 73
     4
 40
25.4
 49
12.7
 49
-6.35
 49
0.0
 49
-6.35
  0
LTYPE
  2
DASHDOT2
 70
     0
  3
Dash dot (.5x) _._._._._._._._._._._._._._._.
 72
    65
 73
     4
 40
12.7
 49
6.35
 49
-3.175
 49
0.0
 49
-3.175
  0
LTYPE
  2
DIVIDEX2
 70
     0
  3
Divide (2x) ________  .  .  ________  .  .  _
 72
    65
 73
     6
 40
63.5
 49
25.4
 49
-12.7
 49
0.0
 49
-12.7
 49
0.0
 49
-12.7
  0
LTYPE
  2
DIVIDE
 70
     0
  3
Divide ____ . . ____ . . ____ . . ____ . . ____
 72
    65
 73
     6
 40
31.75
 49
12.7
 49
-6.35
 49
0.0
 49
-6.35
 49
0.0
 49
-6.35
  0
LTYPE
  2
DIVIDE2
 70
     0
  3
Divide (.5x) __..__..__..__..__..__..__..__.._
 72
    65
 73
     6
 40
15.875
 49
6.35
 49
-3.175
 49
0.0
 49
-3.175
 49
0.0
 49
-3.175
  0
LTYPE
  2
BORDERX2
 70
     0
  3
Border (2x) ____  ____  .  ____  ____  .  ___
 72
    65
 73
     6
 40
88.89999999999999
 49
25.4
 49
-12.7
 49
25.4
 49
-12.7
 49
0.0
 49
-12.7
  0
LTYPE
  2
BORDER
 70
     0
  3
Border __ __ . __ __ . __ __ . __ __ . __ __ .
 72
    65
 73
     6
 40
44.45
 49
12.7
 49
-6.35
 49
12.7
 49
-6.35
 49
0.0
 49
-6.35
  0
LTYPE
  2
BORDER2
 70
     0
  3
Border (.5x) __.__.__.__.__.__.__.__.__.__.__.
 72
    65
 73
     6
 40
22.225
 49
6.35
 49
-3.175
 49
6.35
 49
-3.175
 49
0.0
 49
-3.175
  0
LTYPE
  2
PHANTOMX2
 70
     0
  3
Phantom (2x) ____________    ____    ____   _
 72
    65
 73
     6
 40
127.0
 49
63.5
 49
-12.7
 49
12.7
 49
-12.7
 49
12.7
 49
-12.7
  0
LTYPE
  2
PHANTOM
 70
     0
  3
Phantom ______  __  __  ______  __  __  ______ 
 72
    65
 73
     6
 40
63.5
 49
31.75
 49
-6.35
 49
6.35
 49
-6.35
 49
6.35
 49
-6.35
  0
LTYPE
  2
PHANTOM2
 70
     0
  3
Phantom (.5x) ___ _ _ ___ _ _ ___ _ _ ___ _ _
 72
    65
 73
     6
 40
31.75
 49
15.875
 49
-3.175
 49
3.175
 49
-3.175
 49
3.175
 49
-3.175
  0
LTYPE
  2
ACAD_ISO06W100
 70
     0
  3
ISO long-dash triple-dot ____ ... ____ ... ____
 72
    65
 73
     8
 40
36.0
 49
24.0
 49
-3.0
 49
0.0
 49
-3.0
 49
0.0
 49
-3.0
 49
0.0
 49
-3.0
  0
LTYPE
  2
ACAD_ISO13W100
 70
     0
  3
ISO double-dash double-dot __ __ . . __ __ . . _
 72
    65
 73
     8
 40
36.0
 49
12.0
 49
-3.0
 49
12.0
 49
-3.0
 49
0.0
 49
-3.0
 49
0.0
 49
-3.0
  0
LTYPE
  2
ACAD_ISO14W100
 70
     0
  3
ISO dash triple-dot __ . . . __ . . . __ . . . _
 72
    65
 73
     8
 40
24.0
 49
12.0
 49
-3.0
 49
0.0
 49
-3.0
 49
0.0
 49
-3.0
 49
0.0
 49
-3.0
  0
LTYPE
  2
ACAD_ISO02W100
 70
     0
  3
ISO dash __ __ __ __ __ __ __ __ __ __ __ __ __
 72
    65
 73
     2
 40
15.0
 49
12.0
 49
-3.0
  0
LTYPE
  2
ACAD_ISO03W100
 70
     0
  3
ISO dash space __    __    __    __    __    __
 72
    65
 73
     2
 40
30.0
 49
12.0
 49
-18.0
  0
LTYPE
  2
ACAD_ISO04W100
 70
     0
  3
ISO long-dash dot ____ . ____ . ____ . ____ . _
 72
    65
 73
     4
 40
30.0
 49
24.0
 49
-3.0
 49
0.0
 49
-3.0
  0
LTYPE
  2
ACAD_ISO05W100
 70
     0
  3
ISO long-dash double-dot ____ .. ____ .. ____ . 
 72
    65
 73
     6
 40
33.0
 49
24.0
 49
-3.0
 49
0.0
 49
-3.0
 49
0.0
 49
-3.0
  0
LTYPE
  2
ACAD_ISO07W100
 70
     0
  3
ISO dot . . . . . . . . . . . . . . . . . . . . 
 72
    65
 73
     2
 40
3.0
 49
0.0
 49
-3.0
  0
LTYPE
  2
ACAD_ISO08W100
 70
     0
  3
ISO long-dash short-dash ____ __ ____ __ ____ _
 72
    65
 73
     4
 40
36.0
 49
24.0
 49
-3.0
 49
6.0
 49
-3.0
  0
LTYPE
  2
ACAD_ISO09W100
 70
     0
  3
ISO long-dash double-short-dash ____ __ __ ____
 72
    65
 73
     6
 40
45.0
 49
24.0
 49
-3.0
 49
6.0
 49
-3.0
 49
6.0
 49
-3.0
  0
LTYPE
  2
ACAD_ISO10W100
 70
     0
  3
ISO dash dot __ . __ . __ . __ . __ . __ . __ . 
 72
    65
 73
     4
 40
18.0
 49
12.0
 49
-3.0
 49
0.0
 49
-3.0
  0
LTYPE
  2
ACAD_ISO11W100
 70
     0
  3
ISO double-dash dot __ __ . __ __ . __ __ . __ _
 72
    65
 73
     6
 40
33.0
 49
12.0
 49
-3.0
 49
12.0
 49
-3.0
 49
0.0
 49
-3.0
  0
LTYPE
  2
ACAD_ISO12W100
 70
     0
  3
ISO dash double-dot __ . . __ . . __ . . __ . . 
 72
    65
 73
     6
 40
21.0
 49
12.0
 49
-3.0
 49
0.0
 49
-3.0
 49
0.0
 49
-3.0
  0
LTYPE
  2
ACAD_ISO15W100
 70
     0
  3
ISO double-dash triple-dot __ __ . . . __ __ . .
 72
    65
 73
    10
 40
39.0
 49
12.0
 49
-3.0
 49
12.0
 49
-3.0
 49
0.0
 49
-3.0
 49
0.0
 49
-3.0
 49
0.0
 49
-3.0
  0
LTYPE
  2
JIS_02_0_7
 70
     0
  3
HIDDEN0.75 _ _ _ _ _ _ _ _ _ _ _ _ _ _ _ _ _ 
 72
    65
 73
     2
 40
1.35
 49
0.75
 49
-0.6
  0
LTYPE
  2
JIS_02_1_0
 70
     0
  3
HIDDEN01 _ _ _ _ _ _ _ _ _ _ _ _ _ _ _ _ _ 
 72
    65
 73
     2
 40
2.0
 49
1.0
 49
-1.0
  0
LTYPE
  2
JIS_02_1_2
 70
     0
  3
HIDDEN01.25  _ _ _ _ _ _ _ _ _ _ _ _ _ _ _ _ _ 
 72
    65
 73
     2
 40
2.5
 49
1.25
 49
-1.25
  0
LTYPE
  2
JIS_02_2_0
 70
     0
  3
HIDDEN02 __ __ __ __ __ __ __ __ __ __ __ 
 72
    65
 73
     2
 40
3.0
 49
2.0
 49
-1.0
  0
LTYPE
  2
JIS_02_4_0
 70
     0
  3
HIDDEN04 ____ ____ ____ ____ ____ ____ ____ 
 72
    65
 73
     2
 40
5.5
 49
4.0
 49
-1.5
  0
LTYPE
  2
JIS_08_11
 70
     0
  3
1SASEN11 ___ _ ___ _ ___ _ ___ _ ___ _ ___
 72
    65
 73
     4
 40
12.8
 49
11.0
 49
-0.6
 49
0.6
 49
-0.6
  0
LTYPE
  2
JIS_08_15
 70
     0
  3
1SASEN15 ____ _ ____ _ ____ _ ____ _ ____ 
 72
    65
 73
     4
 40
17.25
 49
15.0
 49
-0.75
 49
0.75
 49
-0.75
  0
LTYPE
  2
JIS_08_25
 70
     0
  3
1SASEN25 ________  __  ________  __  _____
 72
    65
 73
     4
 40
28.0
 49
25.0
 49
-1.125
 49
0.75
 49
-1.125
  0
LTYPE
  2
JIS_08_37
 70
     0
  3
1SASEN37 ________  __  ________  __  _____
 72
    65
 73
     4
 40
40.5
 49
37.5
 49
-1.125
 49
0.75
 49
-1.125
  0
LTYPE
  2
JIS_08_50
 70
     0
  3
1SASEN50 _______________  __  ____________
 72
    65
 73
     4
 40
53.0
 49
50.0
 49
-1.125
 49
0.75
 49
-1.125
  0
LTYPE
  2
JIS_09_08
 70
     0
  3
2SASEN8 __ _ _ __ _ _ __ _ _ __ _ _ __ _ _ 
 72
    65
 73
     6
 40
10.75
 49
8.0
 49
-0.55
 49
0.55
 49
-0.55
 49
0.55
 49
-0.55
  0
LTYPE
  2
JIS_09_15
 70
     0
  3
2SASEN15 ___ _ _ ___ _ _ ___ _ _ ___ _ _ ___ 
 72
    65
 73
     6
 40
18.9
 49
15.0
 49
-0.9
 49
0.6
 49
-0.9
 49
0.6
 49
-0.9
  0
LTYPE
  2
JIS_09_29
 70
     0
  3
2SASEN29 ______　__  __  ______　__  __  ___
 72
    65
 73
     6
 40
34.0
 49
29.0
 49
-1.2
 49
0.7
 49
-1.2
 49
0.7
 49
-1.2
  0
LTYPE
  2
JIS_09_50
 70
     0
  3
2SASEN50 ____________　__  __  _____________
 72
    65
 73
     6
 40
55.0
 49
50.0
 49
-1.2
 49
0.7
 49
-1.2
 49
0.7
 49
-1.2
  0
LTYPE
  2
SXF_破線
 70
     0
  3
02 dashed -- -- -- -- -- --
 72
    65
 73
     2
 40
7.5
 49
6.0
 49
-1.5
  0
LTYPE
  2
SXF_跳び破線
 70
     0
  3
03 dashed_spaced --  --  --  --
 72
    65
 73
     2
 40
12.0
 49
6.0
 49
-6.0
  0
LTYPE
  2
SXF_一点長鎖線
 70
     0
  3
04 long_dashed_dotted ---- . ---- . ----
 72
    65
 73
     4
 40
15.25
 49
12.0
 49
-1.5
 49
0.25
 49
-1.5
  0
LTYPE
  2
SXF_二点長鎖線
 70
     0
  3
05 long_dashed_double-dotted ---- . . ---- 
 72
    65
 73
     6
 40
17.0
 49
12.0
 49
-1.5
 49
0.25
 49
-1.5
 49
0.25
 49
-1.5
  0
LTYPE
  2
SXF_三点長鎖線
 70
     0
  3
06 long_dashed_triplicate-dotted ---- ... ---- 
 72
    65
 73
     8
 40
18.75
 49
12.0
 49
-1.5
 49
0.25
 49
-1.5
 49
0.25
 49
-1.5
 49
0.25
 49
-1.5
  0
LTYPE
  2
SXF_点線
 70
     0
  3
07 dotted . . . . . . . . . . . . 
 72
    65
 73
     2
 40
1.75
 49
0.25
 49
-1.5
  0
LTYPE
  2
SXF_一点鎖線
 70
     0
  3
08 chain ---- - --- - --- - ---
 72
    65
 73
     4
 40
18.5
 49
12.0
 49
-1.5
 49
3.5
 49
-1.5
  0
LTYPE
  2
SXF_二点鎖線
 70
     0
  3
09 chain_double_dash ---- - - ---- - - ----
 72
    65
 73
     6
 40
23.5
 49
12.0
 49
-1.5
 49
3.5
 49
-1.5
 49
3.5
 49
-1.5
  0
LTYPE
  2
SXF_一点短鎖線
 70
     0
  3
10 dashed_dotted -- . -- . -- . --
 72
    65
 73
     4
 40
9.25
 49
6.0
 49
-1.5
 49
0.25
 49
-1.5
  0
LTYPE
  2
SXF_一点二短鎖線
 70
     0
  3
11 double-dashed_dotted -- -- . -- --
 72
    65
 73
     6
 40
16.75
 49
6.0
 49
-1.5
 49
6.0
 49
-1.5
 49
0.25
 49
-1.5
  0
LTYPE
  2
SXF_二点短鎖線
 70
     0
  3
12 dashed_double_dotted -- . . -- . . --
 72
    65
 73
     6
 40
11.0
 49
6.0
 49
-1.5
 49
0.25
 49
-1.5
 49
0.25
 49
-1.5
  0
LTYPE
  2
SXF_二点二短鎖線
 70
     0
  3
13 double-dashed_double-dotted -- -- . . -- --
 72
    65
 73
     8
 40
18.5
 49
6.0
 49
-1.5
 49
6.0
 49
-1.5
 49
0.25
 49
-1.5
 49
0.25
 49
-1.5
  0
LTYPE
  2
SXF_三点短鎖線
 70
     0
  3
14 dashed triplicate-dotted -- . . . -- . . . --
 72
    65
 73
     8
 40
12.75
 49
6.0
 49
-1.5
 49
0.25
 49
-1.5
 49
0.25
 49
-1.5
 49
0.25
 49
-1.5
  0
LTYPE
  2
SXF_三点二短鎖線
 70
     0
  3
15 double-dashed triplicate-dotted -- -- . . . -- -- 
 72
    65
 73
    10
 40
20.25
 49
6.0
 49
-1.5
 49
6.0
 49
-1.5
 49
0.25
 49
-1.5
 49
0.25
 49
-1.5
 49
0.25
 49
-1.5
  0
ENDTAB
  0
TABLE
  2
LAYER
 70
     4
  0
LAYER
  2
0
 70
     0
 62
     7
  6
CONTINUOUS
  0
LAYER
  2
Z_OM_OUTLINE
 70
     0
 62
     7
  6
CONTINUOUS
  0
LAYER
  2
Z_OM_CENTER
 70
     0
 62
     7
  6
CONTINUOUS
  0
LAYER
  2
LAYER0240
 70
     0
 62
     7
  6
CONTINUOUS
  0
ENDTAB
  0
TABLE
  2
STYLE
 70
     2
  0
STYLE
  2
STANDARD
 70
     0
 40
0.0
 41
1.0
 50
0.0
 71
     0
 42
0.2
  3
txt.shx
  4
bigfont.shx
  0
STYLE
  2
DCSTYLE0
 70
     0
 40
0.0
 41
1.0
 50
0.0
 71
     0
 42
0.2
  3
ＭＳ ゴシック
  4

  0
ENDTAB
  0
TABLE
  2
VIEW
 70
     0
  0
ENDTAB
  0
TABLE
  2
UCS
 70
     0
  0
ENDTAB
  0
TABLE
  2
APPID
 70
     2
  0
APPID
  2
ACAD
 70
     0
  0
APPID
  2
DAFUSIONOUT
 70
     0
  0
ENDTAB
  0
TABLE
  2
DIMSTYLE
 70
     1
  0
DIMSTYLE
  2
STANDARD
 70
     0
  3

  4

  5

  6

  7

 40
1.0
 41
0.18
 42
0.0625
 43
0.38
 44
0.18
 45
0.0
 46
0.0
 47
0.0
 48
0.0
140
0.18
141
0.09
142
0.0
143
25.4
144
1.0
145
0.0
146
1.0
147
0.09
 71
     0
 72
     0
 73
     1
 74
     1
 75
     0
 76
     0
 77
     0
 78
     0
170
     0
171
     2
172
     0
173
     0
174
     0
175
     0
176
     0
177
     0
178
     0
  0
ENDTAB
  0
ENDSEC
  0
SECTION
  2
BLOCKS
  0
BLOCK
  8
0
  2
$MODEL_SPACE
 70
     0
 10
0.0
 20
0.0
 30
0.0
  3
$MODEL_SPACE
  1

  0
ENDBLK
  5
21
  8
0
  0
BLOCK
 67
     1
  8
0
  2
$PAPER_SPACE
 70
     0
 10
0.0
 20
0.0
 30
0.0
  3
$PAPER_SPACE
  1

  0
ENDBLK
  5
1D
 67
     1
  8
0
  0
ENDSEC
  0
SECTION
  2
ENTITIES
  0
LINE
  5
B5
  8
Z_OM_OUTLINE
  6
CONTINUOUS
 62
     7
 10
69.77943630693446
 20
-34.27633221509143
 30
0.0
 11
73.77943649692436
 21
-34.27633221509143
 31
0.0
  0
LINE
  5
B6
  8
Z_OM_OUTLINE
  6
CONTINUOUS
 62
     7
 10
69.77943630693446
 20
-32.27633188726587
 30
0.0
 11
73.77943649692436
 21
-32.27633188726587
 31
0.0
  0
LINE
  5
B7
  8
Z_OM_OUTLINE
  6
CONTINUOUS
 62
     7
 10
71.82943631699287
 20
-5.526333556195933
 30
0.0
 11
73.77943649692436
 21
-7.476333037635523
 31
0.0
  0
LINE
  5
B8
  8
Z_OM_OUTLINE
  6
CONTINUOUS
 62
     7
 10
70.77943635443206
 20
-5.526333556195933
 30
0.0
 11
71.82943631699287
 21
-5.526333556195933
 31
0.0
  0
LINE
  5
B9
  8
Z_OM_OUTLINE
  6
CONTINUOUS
 62
     7
 10
70.77943635443206
 20
-7.476333037635523
 30
0.0
 11
70.77943635443206
 21
-5.526333556195933
 31
0.0
  0
LINE
  5
BA
  8
Z_OM_OUTLINE
  6
CONTINUOUS
 62
     7
 10
69.77943630693446
 20
-28.27633123161478
 30
0.0
 11
69.77943630693446
 21
-34.27633221509143
 31
0.0
  0
LINE
  5
BB
  8
Z_OM_OUTLINE
  6
CONTINUOUS
 62
     7
 10
44.77943593440558
 20
50.72366867897824
 30
0.0
 11
45.27943694768454
 21
50.22366766569928
 31
0.0
  0
LINE
  5
BC
  8
Z_OM_OUTLINE
  6
CONTINUOUS
 62
     7
 10
33.27943684337642
 20
50.72366867897824
 30
0.0
 11
44.77943593440558
 21
50.72366867897824
 31
0.0
  0
LINE
  5
BD
  8
Z_OM_OUTLINE
  6
CONTINUOUS
 62
     7
 10
33.27943684337642
 20
50.22366690781433
 30
0.0
 11
33.27943684337642
 21
50.72366867897824
 31
0.0
  0
LINE
  5
BE
  8
Z_OM_OUTLINE
  6
CONTINUOUS
 62
     7
 10
44.77943593440558
 20
-30.27633155944033
 30
0.0
 11
45.27943694768454
 21
-29.77633427145166
 31
0.0
  0
LINE
  5
BF
  8
Z_OM_OUTLINE
  6
CONTINUOUS
 62
     7
 10
33.27943684337642
 20
-29.77633309218566
 30
0.0
 11
33.27943684337642
 21
-30.27633155944033
 31
0.0
  0
LINE
  5
C0
  8
Z_OM_OUTLINE
  6
CONTINUOUS
 62
     7
 10
33.27943684337642
 20
-30.27633155944033
 30
0.0
 11
44.77943593440558
 21
-30.27633155944033
 31
0.0
  0
LINE
  5
C1
  8
Z_OM_OUTLINE
  6
CONTINUOUS
 62
     7
 10
45.27943694768454
 20
50.22366867897824
 30
0.0
 11
45.27943694768452
 21
-29.77633155944033
 31
0.0
  0
LINE
  5
C2
  8
Z_OM_OUTLINE
  6
CONTINUOUS
 62
     7
 10
70.77943635443206
 20
27.92366643188314
 30
0.0
 11
70.77943635443206
 21
25.97366695044355
 31
0.0
  0
LINE
  5
C3
  8
Z_OM_OUTLINE
  6
CONTINUOUS
 62
     7
 10
70.77943635443206
 20
25.97366695044355
 30
0.0
 11
71.82943631699287
 21
25.97366695044355
 31
0.0
  0
LINE
  5
C4
  8
Z_OM_OUTLINE
  6
CONTINUOUS
 62
     7
 10
71.82943631699287
 20
25.97366695044355
 30
0.0
 11
73.77943649692436
 21
27.92366643188314
 31
0.0
  0
LINE
  5
C5
  8
Z_OM_OUTLINE
  6
CONTINUOUS
 62
     7
 10
73.77943649692436
 20
48.7236683511527
 30
0.0
 11
55.27943672416713
 21
48.7236683511527
 31
0.0
  0
LINE
  5
C6
  8
Z_OM_OUTLINE
  6
CONTINUOUS
 62
     7
 10
73.77943649692436
 20
27.92366643188314
 30
0.0
 11
73.77943649692436
 21
50.22366867897824
 31
0.0
  0
LINE
  5
C7
  8
Z_OM_OUTLINE
  6
CONTINUOUS
 62
     7
 10
73.77943649692436
 20
-7.476333037635523
 30
0.0
 11
69.77943630693436
 21
-7.476333037635523
 31
0.0
  0
LINE
  5
C8
  8
Z_OM_OUTLINE
  6
CONTINUOUS
 62
     7
 10
55.27943672416713
 20
-28.27633123161478
 30
0.0
 11
73.77943649692436
 21
-28.27633123161478
 31
0.0
  0
LINE
  5
C9
  8
Z_OM_OUTLINE
  6
CONTINUOUS
 62
     7
 10
73.77943649692436
 20
15.22366705102639
 30
0.0
 11
73.77943649692436
 21
19.22366724101619
 31
0.0
  0
LINE
  5
CA
  8
Z_OM_OUTLINE
  6
CONTINUOUS
 62
     7
 10
73.77943649692436
 20
5.223666808882517
 30
0.0
 11
69.77943630693436
 21
5.223666808882517
 31
0.0
  0
LINE
  5
CB
  8
Z_OM_OUTLINE
  6
CONTINUOUS
 62
     7
 10
73.77943649692436
 20
1.223667084553998
 30
0.0
 11
69.77943630693436
 21
1.223667084553998
 31
0.0
  0
LINE
  5
CC
  8
Z_OM_OUTLINE
  6
CONTINUOUS
 62
     7
 10
73.77943649692436
 20
15.22366705102639
 30
0.0
 11
69.77943630693436
 21
15.22366705102639
 31
0.0
  0
LINE
  5
CD
  8
Z_OM_OUTLINE
  6
CONTINUOUS
 62
     7
 10
73.77943649692436
 20
1.223667084553998
 30
0.0
 11
73.77943649692436
 21
5.223666808882517
 31
0.0
  0
LINE
  5
CE
  8
Z_OM_OUTLINE
  6
CONTINUOUS
 62
     7
 10
73.77943649692436
 20
-34.27633221509143
 30
0.0
 11
73.77943649692436
 21
-7.476333037635523
 31
0.0
  0
LINE
  5
CF
  8
Z_OM_OUTLINE
  6
CONTINUOUS
 62
     7
 10
73.77943649692436
 20
19.22366724101619
 30
0.0
 11
69.77943630693436
 21
19.22366724101619
 31
0.0
  0
LINE
  5
D0
  8
Z_OM_OUTLINE
  6
CONTINUOUS
 62
     7
 10
69.77943630693436
 20
27.92366643188314
 30
0.0
 11
73.77943649692436
 21
27.92366643188314
 31
0.0
  0
LINE
  5
D1
  8
Z_OM_OUTLINE
  6
CONTINUOUS
 62
     7
 10
55.27943672416713
 20
48.7236683511527
 30
0.0
 11
55.27943672416713
 21
35.72366622028665
 31
0.0
  0
LINE
  5
D2
  8
Z_OM_OUTLINE
  6
CONTINUOUS
 62
     7
 10
55.27943672416713
 20
35.72366622028665
 30
0.0
 11
47.27943694768454
 21
35.72366622028665
 31
0.0
  0
LINE
  5
D3
  8
Z_OM_OUTLINE
  6
CONTINUOUS
 62
     7
 10
49.27943574069049
 20
14.22366688711361
 30
0.0
 11
45.27943694768454
 21
14.22366688711361
 31
0.0
  0
LINE
  5
D4
  8
Z_OM_OUTLINE
  6
CONTINUOUS
 62
     7
 10
49.27943574069049
 20
6.22366697279529
 30
0.0
 11
49.27943574069049
 21
14.22366688711361
 31
0.0
  0
LINE
  5
D5
  8
Z_OM_OUTLINE
  6
CONTINUOUS
 62
     7
 10
49.27943574069049
 20
6.22366697279529
 30
0.0
 11
45.27943694768454
 21
6.22366697279529
 31
0.0
  0
LINE
  5
D6
  8
Z_OM_OUTLINE
  6
CONTINUOUS
 62
     7
 10
55.27943672416713
 20
-15.27633282603903
 30
0.0
 11
47.27943694768452
 21
-15.27633282603903
 31
0.0
  0
LINE
  5
D7
  8
Z_OM_OUTLINE
  6
CONTINUOUS
 62
     7
 10
55.27943672416713
 20
-28.27633123161478
 30
0.0
 11
55.27943672416713
 21
-15.27633282603903
 31
0.0
  0
LINE
  5
D8
  8
Z_OM_OUTLINE
  6
CONTINUOUS
 62
     7
 10
69.77943630693436
 20
-7.476333037635523
 30
0.0
 11
69.77943630693436
 21
1.223667084553998
 31
0.0
  0
LINE
  5
D9
  8
Z_OM_OUTLINE
  6
CONTINUOUS
 62
     7
 10
69.77943630693436
 20
5.223666808882517
 30
0.0
 11
69.77943630693436
 21
15.22366705102639
 31
0.0
  0
LINE
  5
DA
  8
Z_OM_OUTLINE
  6
CONTINUOUS
 62
     7
 10
69.77943630693436
 20
19.22366724101619
 30
0.0
 11
69.77943630693436
 21
27.92366643188314
 31
0.0
  0
LINE
  5
DB
  8
Z_OM_OUTLINE
  6
CONTINUOUS
 62
     7
 10
156.3610935680003
 20
-28.27633123161478
 30
0.0
 11
154.3610932401747
 21
-30.27633155944033
 31
0.0
  0
LINE
  5
DC
  8
Z_OM_OUTLINE
  6
CONTINUOUS
 62
     7
 10
130.3610930315585
 20
-30.27633155944033
 30
0.0
 11
128.3610929365636
 21
-28.27633123161478
 31
0.0
  0
LINE
  5
DD
  8
Z_OM_OUTLINE
  6
CONTINUOUS
 62
     7
 10
136.8610931656689
 20
-30.27633155944033
 30
0.0
 11
130.3610930315585
 21
-30.27633155944033
 31
0.0
  0
LINE
  5
DE
  8
Z_OM_OUTLINE
  6
CONTINUOUS
 62
     7
 10
136.8610931656689
 20
-32.27633188726587
 30
0.0
 11
136.8610931656689
 21
-30.27633155944033
 31
0.0
  0
LINE
  5
DF
  8
Z_OM_OUTLINE
  6
CONTINUOUS
 62
     7
 10
139.8610927260846
 20
-34.27633221509143
 30
0.0
 11
136.8610931656689
 21
-32.27633188726587
 31
0.0
  0
LINE
  5
E0
  8
Z_OM_OUTLINE
  6
CONTINUOUS
 62
     7
 10
144.8610926143259
 20
-34.27633221509143
 30
0.0
 11
139.8610927260846
 21
-34.27633221509143
 31
0.0
  0
LINE
  5
E1
  8
Z_OM_OUTLINE
  6
CONTINUOUS
 62
     7
 10
147.8610931060643
 20
-32.27633188726587
 30
0.0
 11
144.8610926143259
 21
-34.27633221509143
 31
0.0
  0
LINE
  5
E2
  8
Z_OM_OUTLINE
  6
CONTINUOUS
 62
     7
 10
147.8610931060643
 20
-30.27633155944033
 30
0.0
 11
147.8610931060643
 21
-32.27633188726587
 31
0.0
  0
LINE
  5
E3
  8
Z_OM_OUTLINE
  6
CONTINUOUS
 62
     7
 10
154.3610932401747
 20
-30.27633155944033
 30
0.0
 11
147.8610931060643
 21
-30.27633155944033
 31
0.0
  0
LINE
  5
E4
  8
Z_OM_OUTLINE
  6
CONTINUOUS
 62
     7
 10
106.3610928229422
 20
48.7236683511527
 30
0.0
 11
137.7610925681323
 21
48.7236683511527
 31
0.0
  0
LINE
  5
E5
  8
Z_OM_OUTLINE
  6
CONTINUOUS
 62
     7
 10
137.7610925681323
 20
-28.27633123161478
 30
0.0
 11
106.3610928229422
 21
-28.27633123161478
 31
0.0
  0
LINE
  5
E6
  8
Z_OM_OUTLINE
  6
CONTINUOUS
 62
     7
 10
178.361093448791
 20
-28.27633123161478
 30
0.0
 11
146.9610927722782
 21
-28.27633123161478
 31
0.0
  0
LINE
  5
E7
  8
Z_OM_OUTLINE
  6
CONTINUOUS
 62
     7
 10
146.9610927722782
 20
48.7236683511527
 30
0.0
 11
178.361093448791
 21
48.7236683511527
 31
0.0
  0
LINE
  5
E8
  8
Z_OM_OUTLINE
  6
CONTINUOUS
 62
     7
 10
116.261093103084
 20
-21.07633228661699
 30
0.0
 11
108.4610933146805
 21
-21.07633228661699
 31
0.0
  0
LINE
  5
E9
  8
Z_OM_OUTLINE
  6
CONTINUOUS
 62
     7
 10
108.4610933146805
 20
41.52366568086461
 30
0.0
 11
116.261093103084
 21
41.52366568086461
 31
0.0
  0
LINE
  5
EA
  8
Z_OM_OUTLINE
  6
CONTINUOUS
 62
     7
 10
127.0610929520235
 20
-21.07633228661699
 30
0.0
 11
119.2610930472047
 21
-21.07633228661699
 31
0.0
  0
LINE
  5
EB
  8
Z_OM_OUTLINE
  6
CONTINUOUS
 62
     7
 10
119.2610930472047
 20
41.52366568086461
 30
0.0
 11
127.0610929520235
 21
41.52366568086461
 31
0.0
  0
LINE
  5
EC
  8
Z_OM_OUTLINE
  6
CONTINUOUS
 62
     7
 10
129.9610930125595
 20
41.52366568086461
 30
0.0
 11
137.7610925681323
 21
41.52366568086461
 31
0.0
  0
LINE
  5
ED
  8
Z_OM_OUTLINE
  6
CONTINUOUS
 62
     7
 10
137.7610925681323
 20
-21.07633228661699
 30
0.0
 11
129.9610930125595
 21
-21.07633228661699
 31
0.0
  0
LINE
  5
EE
  8
Z_OM_OUTLINE
  6
CONTINUOUS
 62
     7
 10
154.7610925606818
 20
-21.07633228661699
 30
0.0
 11
146.9610927722782
 21
-21.07633228661699
 31
0.0
  0
LINE
  5
EF
  8
Z_OM_OUTLINE
  6
CONTINUOUS
 62
     7
 10
146.9610927722782
 20
41.52366568086461
 30
0.0
 11
154.7610925606818
 21
41.52366568086461
 31
0.0
  0
LINE
  5
F0
  8
Z_OM_OUTLINE
  6
CONTINUOUS
 62
     7
 10
165.4610918275446
 20
-21.07633228661699
 30
0.0
 11
157.6610920391411
 21
-21.07633228661699
 31
0.0
  0
LINE
  5
F1
  8
Z_OM_OUTLINE
  6
CONTINUOUS
 62
     7
 10
157.6610920391411
 20
41.52366568086461
 30
0.0
 11
165.4610918275446
 21
41.52366568086461
 31
0.0
  0
LINE
  5
F2
  8
Z_OM_OUTLINE
  6
CONTINUOUS
 62
     7
 10
176.2610910944075
 20
-21.07633228661699
 30
0.0
 11
168.4610931686491
 21
-21.07633228661699
 31
0.0
  0
LINE
  5
F3
  8
Z_OM_OUTLINE
  6
CONTINUOUS
 62
     7
 10
168.4610931686491
 20
41.52366568086461
 30
0.0
 11
176.2610910944075
 21
41.52366568086461
 31
0.0
  0
LINE
  5
F4
  8
Z_OM_OUTLINE
  6
CONTINUOUS
 62
     7
 10
108.4610933146805
 20
-20.07633398534937
 30
0.0
 11
116.261093103084
 21
-20.07633398534937
 31
0.0
  0
LINE
  5
F5
  8
Z_OM_OUTLINE
  6
CONTINUOUS
 62
     7
 10
116.261093103084
 20
40.52366737959699
 30
0.0
 11
108.4610933146805
 21
40.52366737959699
 31
0.0
  0
LINE
  5
F6
  8
Z_OM_OUTLINE
  6
CONTINUOUS
 62
     7
 10
127.0610929520235
 20
40.52366737959699
 30
0.0
 11
119.2610930472047
 21
40.52366737959699
 31
0.0
  0
LINE
  5
F7
  8
Z_OM_OUTLINE
  6
CONTINUOUS
 62
     7
 10
119.2610930472047
 20
-20.07633398534937
 30
0.0
 11
127.0610929520235
 21
-20.07633398534937
 31
0.0
  0
LINE
  5
F8
  8
Z_OM_OUTLINE
  6
CONTINUOUS
 62
     7
 10
129.9610930125595
 20
-20.07633398534937
 30
0.0
 11
137.7610925681323
 21
-20.07633398534937
 31
0.0
  0
LINE
  5
F9
  8
Z_OM_OUTLINE
  6
CONTINUOUS
 62
     7
 10
137.7610925681323
 20
40.52366737959699
 30
0.0
 11
129.9610930125595
 21
40.52366737959699
 31
0.0
  0
LINE
  5
FA
  8
Z_OM_OUTLINE
  6
CONTINUOUS
 62
     7
 10
146.9610927722782
 20
-20.07633398534937
 30
0.0
 11
154.7610925606818
 21
-20.07633398534937
 31
0.0
  0
LINE
  5
FB
  8
Z_OM_OUTLINE
  6
CONTINUOUS
 62
     7
 10
154.7610925606818
 20
40.52366737959699
 30
0.0
 11
146.9610927722782
 21
40.52366737959699
 31
0.0
  0
LINE
  5
FC
  8
Z_OM_OUTLINE
  6
CONTINUOUS
 62
     7
 10
157.6610920391411
 20
-20.07633398534937
 30
0.0
 11
165.4610918275446
 21
-20.07633398534937
 31
0.0
  0
LINE
  5
FD
  8
Z_OM_OUTLINE
  6
CONTINUOUS
 62
     7
 10
165.4610918275446
 20
40.52366737959699
 30
0.0
 11
157.6610920391411
 21
40.52366737959699
 31
0.0
  0
LINE
  5
FE
  8
Z_OM_OUTLINE
  6
CONTINUOUS
 62
     7
 10
168.4610931686491
 20
-20.07633398534937
 30
0.0
 11
176.2610910944075
 21
-20.07633398534937
 31
0.0
  0
LINE
  5
FF
  8
Z_OM_OUTLINE
  6
CONTINUOUS
 62
     7
 10
176.2610910944075
 20
40.52366737959699
 30
0.0
 11
168.4610931686491
 21
40.52366737959699
 31
0.0
  0
CIRCLE
  5
100
  8
Z_OM_OUTLINE
  6
CONTINUOUS
 62
     7
 10
112.3610929463
 20
36.62366690781434
 30
0.0
 40
3.499999999999992
  0
CIRCLE
  5
101
  8
Z_OM_OUTLINE
  6
CONTINUOUS
 62
     7
 10
112.3610929463
 20
-16.17633309218569
 30
0.0
 40
3.500000000000007
  0
CIRCLE
  5
102
  8
Z_OM_OUTLINE
  6
CONTINUOUS
 62
     7
 10
123.1610929463
 20
-16.17633309218569
 30
0.0
 40
3.5
  0
CIRCLE
  5
103
  8
Z_OM_OUTLINE
  6
CONTINUOUS
 62
     7
 10
123.1610929462999
 20
36.62366690781434
 30
0.0
 40
3.5
  0
CIRCLE
  5
104
  8
Z_OM_OUTLINE
  6
CONTINUOUS
 62
     7
 10
133.8610929462999
 20
-16.17633309218566
 30
0.0
 40
3.5
  0
CIRCLE
  5
105
  8
Z_OM_OUTLINE
  6
CONTINUOUS
 62
     7
 10
133.8610929463
 20
36.62366690781434
 30
0.0
 40
3.499999999999985
  0
CIRCLE
  5
106
  8
Z_OM_OUTLINE
  6
CONTINUOUS
 62
     7
 10
150.8610929463
 20
36.72366690781433
 30
0.0
 40
3.5
  0
CIRCLE
  5
107
  8
Z_OM_OUTLINE
  6
CONTINUOUS
 62
     7
 10
150.8610929463
 20
-16.17633309218566
 30
0.0
 40
3.499999999999985
  0
CIRCLE
  5
108
  8
Z_OM_OUTLINE
  6
CONTINUOUS
 62
     7
 10
161.5610929463
 20
-16.17633309218569
 30
0.0
 40
3.5
  0
CIRCLE
  5
109
  8
Z_OM_OUTLINE
  6
CONTINUOUS
 62
     7
 10
161.5610929463
 20
36.62366690781434
 30
0.0
 40
3.5
  0
CIRCLE
  5
10A
  8
Z_OM_OUTLINE
  6
CONTINUOUS
 62
     7
 10
172.3610929462999
 20
36.62366690781434
 30
0.0
 40
3.499999999999985
  0
CIRCLE
  5
10B
  8
Z_OM_OUTLINE
  6
CONTINUOUS
 62
     7
 10
172.3610929463
 20
-16.17633309218569
 30
0.0
 40
3.500000000000014
  0
LINE
  5
10C
  8
Z_OM_OUTLINE
  6
CONTINUOUS
 62
     7
 10
106.3610928229422
 20
48.7236683511527
 30
0.0
 11
106.3610928229422
 21
-28.27633123161478
 31
0.0
  0
LINE
  5
10D
  8
Z_OM_OUTLINE
  6
CONTINUOUS
 62
     7
 10
178.361093448791
 20
48.7236683511527
 30
0.0
 11
178.361093448791
 21
-28.27633123161478
 31
0.0
  0
LINE
  5
10E
  8
Z_OM_OUTLINE
  6
CONTINUOUS
 62
     7
 10
108.4610933146805
 20
-12.27633233430071
 30
0.0
 11
116.261093103084
 21
-12.27633233430071
 31
0.0
  0
LINE
  5
10F
  8
Z_OM_OUTLINE
  6
CONTINUOUS
 62
     7
 10
176.2610910944075
 20
32.72366759119348
 30
0.0
 11
168.4610931686491
 21
32.72366759119348
 31
0.0
  0
LINE
  5
110
  8
Z_OM_OUTLINE
  6
CONTINUOUS
 62
     7
 10
116.261093103084
 20
-5.076333389302922
 30
0.0
 11
108.4610933146805
 21
-5.076333389302922
 31
0.0
  0
LINE
  5
111
  8
Z_OM_OUTLINE
  6
CONTINUOUS
 62
     7
 10
168.4610931686491
 20
25.52366678355054
 30
0.0
 11
176.2610910944075
 21
25.52366678355054
 31
0.0
  0
LINE
  5
112
  8
Z_OM_OUTLINE
  6
CONTINUOUS
 62
     7
 10
108.4610933146805
 20
-4.076333225390153
 30
0.0
 11
116.261093103084
 21
-4.076333225390153
 31
0.0
  0
LINE
  5
113
  8
Z_OM_OUTLINE
  6
CONTINUOUS
 62
     7
 10
176.2610910944075
 20
24.52366661963777
 30
0.0
 11
168.4610931686491
 21
24.52366661963777
 31
0.0
  0
CIRCLE
  5
114
  8
Z_OM_OUTLINE
  6
CONTINUOUS
 62
     7
 10
112.3610929463
 20
10.22366690781434
 30
0.0
 40
2.249999999999985
  0
CIRCLE
  5
115
  8
Z_OM_OUTLINE
  6
CONTINUOUS
 62
     7
 10
172.3610929463
 20
10.22366690781434
 30
0.0
 40
2.25
  0
CIRCLE
  5
116
  8
Z_OM_OUTLINE
  6
CONTINUOUS
 62
     7
 10
112.3610929463
 20
-0.1763330921856827
 30
0.0
 40
3.499999999999992
  0
CIRCLE
  5
117
  8
Z_OM_OUTLINE
  6
CONTINUOUS
 62
     7
 10
172.3610929463001
 20
20.62366690781414
 30
0.0
 40
3.5
  0
LINE
  5
118
  8
Z_OM_OUTLINE
  6
CONTINUOUS
 62
     7
 10
129.9610930125595
 20
-15.27633282603903
 30
0.0
 11
127.0610929520235
 21
-15.27633282603903
 31
0.0
  0
LINE
  5
119
  8
Z_OM_OUTLINE
  6
CONTINUOUS
 62
     7
 10
129.9610930125595
 20
-12.27633233430071
 30
0.0
 11
129.9610930125595
 21
-28.27633123161478
 31
0.0
  0
LINE
  5
11A
  8
Z_OM_OUTLINE
  6
CONTINUOUS
 62
     7
 10
137.7610925681323
 20
-12.27633233430071
 30
0.0
 11
129.9610930125595
 21
-12.27633233430071
 31
0.0
  0
LINE
  5
11B
  8
Z_OM_OUTLINE
  6
CONTINUOUS
 62
     7
 10
154.7610925606818
 20
-12.27633233430071
 30
0.0
 11
146.9610927722782
 21
-12.27633233430071
 31
0.0
  0
LINE
  5
11C
  8
Z_OM_OUTLINE
  6
CONTINUOUS
 62
     7
 10
154.7610925606818
 20
-28.27633123161478
 30
0.0
 11
154.7610925606818
 21
-12.27633233430071
 31
0.0
  0
LINE
  5
11D
  8
Z_OM_OUTLINE
  6
CONTINUOUS
 62
     7
 10
154.7610925606818
 20
-15.27633282603903
 30
0.0
 11
157.6610920391411
 21
-15.27633282603903
 31
0.0
  0
LINE
  5
11E
  8
Z_OM_OUTLINE
  6
CONTINUOUS
 62
     7
 10
157.6610920391411
 20
-12.27633233430071
 30
0.0
 11
157.6610920391411
 21
-28.27633123161478
 31
0.0
  0
LINE
  5
11F
  8
Z_OM_OUTLINE
  6
CONTINUOUS
 62
     7
 10
165.4610918275446
 20
-12.27633233430071
 30
0.0
 11
157.6610920391411
 21
-12.27633233430071
 31
0.0
  0
LINE
  5
120
  8
Z_OM_OUTLINE
  6
CONTINUOUS
 62
     7
 10
165.4610918275446
 20
-28.27633123161478
 30
0.0
 11
165.4610918275446
 21
-12.27633233430071
 31
0.0
  0
LINE
  5
121
  8
Z_OM_OUTLINE
  6
CONTINUOUS
 62
     7
 10
165.4610918275446
 20
-15.27633282603903
 30
0.0
 11
168.4610931686491
 21
-15.27633282603903
 31
0.0
  0
LINE
  5
122
  8
Z_OM_OUTLINE
  6
CONTINUOUS
 62
     7
 10
168.4610931686491
 20
-12.27633233430071
 30
0.0
 11
168.4610931686491
 21
-28.27633123161478
 31
0.0
  0
LINE
  5
123
  8
Z_OM_OUTLINE
  6
CONTINUOUS
 62
     7
 10
176.2610910944075
 20
-12.27633233430071
 30
0.0
 11
168.4610931686491
 21
-12.27633233430071
 31
0.0
  0
LINE
  5
124
  8
Z_OM_OUTLINE
  6
CONTINUOUS
 62
     7
 10
176.2610910944075
 20
-28.27633123161478
 30
0.0
 11
176.2610910944075
 21
-12.27633233430071
 31
0.0
  0
LINE
  5
125
  8
Z_OM_OUTLINE
  6
CONTINUOUS
 62
     7
 10
176.2610910944075
 20
-15.27633282603903
 30
0.0
 11
178.361093448791
 21
-15.27633282603903
 31
0.0
  0
LINE
  5
126
  8
Z_OM_OUTLINE
  6
CONTINUOUS
 62
     7
 10
168.8610928229422
 20
6.22366697279529
 30
0.0
 11
178.361093448791
 21
6.22366697279529
 31
0.0
  0
LINE
  5
127
  8
Z_OM_OUTLINE
  6
CONTINUOUS
 62
     7
 10
168.8610928229422
 20
14.22366688711361
 30
0.0
 11
168.8610928229422
 21
6.22366697279529
 31
0.0
  0
LINE
  5
128
  8
Z_OM_OUTLINE
  6
CONTINUOUS
 62
     7
 10
178.361093448791
 20
14.22366688711361
 30
0.0
 11
168.8610928229422
 21
14.22366688711361
 31
0.0
  0
LINE
  5
129
  8
Z_OM_OUTLINE
  6
CONTINUOUS
 62
     7
 10
176.2610910944075
 20
35.72366622028665
 30
0.0
 11
178.361093448791
 21
35.72366622028665
 31
0.0
  0
LINE
  5
12A
  8
Z_OM_OUTLINE
  6
CONTINUOUS
 62
     7
 10
176.2610910944075
 20
16.72366683123426
 30
0.0
 11
176.2610910944075
 21
48.7236683511527
 31
0.0
  0
LINE
  5
12B
  8
Z_OM_OUTLINE
  6
CONTINUOUS
 62
     7
 10
168.4610931686491
 20
16.72366683123426
 30
0.0
 11
176.2610910944075
 21
16.72366683123426
 31
0.0
  0
LINE
  5
12C
  8
Z_OM_OUTLINE
  6
CONTINUOUS
 62
     7
 10
168.4610931686491
 20
48.7236683511527
 30
0.0
 11
168.4610931686491
 21
16.72366683123426
 31
0.0
  0
LINE
  5
12D
  8
Z_OM_OUTLINE
  6
CONTINUOUS
 62
     7
 10
165.4610918275446
 20
35.72366622028665
 30
0.0
 11
168.4610931686491
 21
35.72366622028665
 31
0.0
  0
LINE
  5
12E
  8
Z_OM_OUTLINE
  6
CONTINUOUS
 62
     7
 10
165.4610918275446
 20
32.72366759119348
 30
0.0
 11
165.4610918275446
 21
48.72366835115268
 31
0.0
  0
LINE
  5
12F
  8
Z_OM_OUTLINE
  6
CONTINUOUS
 62
     7
 10
157.6610920391411
 20
32.72366759119348
 30
0.0
 11
165.4610918275446
 21
32.72366759119348
 31
0.0
  0
LINE
  5
130
  8
Z_OM_OUTLINE
  6
CONTINUOUS
 62
     7
 10
157.6610920391411
 20
48.72366835115268
 30
0.0
 11
157.6610920391411
 21
32.72366759119348
 31
0.0
  0
LINE
  5
131
  8
Z_OM_OUTLINE
  6
CONTINUOUS
 62
     7
 10
154.7610925606818
 20
35.72366622028665
 30
0.0
 11
157.6610920391411
 21
35.72366622028665
 31
0.0
  0
LINE
  5
132
  8
Z_OM_OUTLINE
  6
CONTINUOUS
 62
     7
 10
154.7610925606818
 20
32.72366759119348
 30
0.0
 11
154.7610925606818
 21
48.72366835115268
 31
0.0
  0
LINE
  5
133
  8
Z_OM_OUTLINE
  6
CONTINUOUS
 62
     7
 10
146.9610927722782
 20
32.72366759119348
 30
0.0
 11
154.7610925606818
 21
32.72366759119348
 31
0.0
  0
LINE
  5
134
  8
Z_OM_OUTLINE
  6
CONTINUOUS
 62
     7
 10
129.9610930125595
 20
32.72366759119348
 30
0.0
 11
137.7610925681323
 21
32.72366759119348
 31
0.0
  0
LINE
  5
135
  8
Z_OM_OUTLINE
  6
CONTINUOUS
 62
     7
 10
129.9610930125595
 20
48.72366835115268
 30
0.0
 11
129.9610930125595
 21
32.72366759119348
 31
0.0
  0
LINE
  5
136
  8
Z_OM_OUTLINE
  6
CONTINUOUS
 62
     7
 10
129.9610930125595
 20
35.72366622028665
 30
0.0
 11
127.0610929520235
 21
35.72366622028665
 31
0.0
  0
LINE
  5
137
  8
Z_OM_OUTLINE
  6
CONTINUOUS
 62
     7
 10
127.0610929520235
 20
32.72366759119348
 30
0.0
 11
127.0610929520235
 21
48.72366835115268
 31
0.0
  0
LINE
  5
138
  8
Z_OM_OUTLINE
  6
CONTINUOUS
 62
     7
 10
119.2610930472047
 20
32.72366759119348
 30
0.0
 11
127.0610929520235
 21
32.72366759119348
 31
0.0
  0
LINE
  5
139
  8
Z_OM_OUTLINE
  6
CONTINUOUS
 62
     7
 10
119.2610930472047
 20
48.72366835115268
 30
0.0
 11
119.2610930472047
 21
32.72366759119348
 31
0.0
  0
LINE
  5
13A
  8
Z_OM_OUTLINE
  6
CONTINUOUS
 62
     7
 10
119.2610930472047
 20
35.72366622028665
 30
0.0
 11
116.261093103084
 21
35.72366622028665
 31
0.0
  0
LINE
  5
13B
  8
Z_OM_OUTLINE
  6
CONTINUOUS
 62
     7
 10
116.261093103084
 20
32.72366759119348
 30
0.0
 11
116.261093103084
 21
48.72366835115268
 31
0.0
  0
LINE
  5
13C
  8
Z_OM_OUTLINE
  6
CONTINUOUS
 62
     7
 10
108.4610933146805
 20
32.72366759119348
 30
0.0
 11
116.261093103084
 21
32.72366759119348
 31
0.0
  0
LINE
  5
13D
  8
Z_OM_OUTLINE
  6
CONTINUOUS
 62
     7
 10
108.4610933146805
 20
48.72366835115268
 30
0.0
 11
108.4610933146805
 21
32.72366759119348
 31
0.0
  0
LINE
  5
13E
  8
Z_OM_OUTLINE
  6
CONTINUOUS
 62
     7
 10
108.4610933146805
 20
35.72366622028665
 30
0.0
 11
106.3610928229422
 21
35.72366622028665
 31
0.0
  0
LINE
  5
13F
  8
Z_OM_OUTLINE
  6
CONTINUOUS
 62
     7
 10
115.8610925174684
 20
14.22366688711361
 30
0.0
 11
106.3610928229422
 21
14.22366688711361
 31
0.0
  0
LINE
  5
140
  8
Z_OM_OUTLINE
  6
CONTINUOUS
 62
     7
 10
115.8610925174684
 20
6.22366697279529
 30
0.0
 11
115.8610925174684
 21
14.22366688711361
 31
0.0
  0
LINE
  5
141
  8
Z_OM_OUTLINE
  6
CONTINUOUS
 62
     7
 10
106.3610928229422
 20
6.22366697279529
 30
0.0
 11
115.8610925174684
 21
6.22366697279529
 31
0.0
  0
LINE
  5
142
  8
Z_OM_OUTLINE
  6
CONTINUOUS
 62
     7
 10
108.4610933146805
 20
-15.27633282603903
 30
0.0
 11
106.3610928229422
 21
-15.27633282603903
 31
0.0
  0
LINE
  5
143
  8
Z_OM_OUTLINE
  6
CONTINUOUS
 62
     7
 10
108.4610933146805
 20
3.723667028674644
 30
0.0
 11
108.4610933146805
 21
-28.27633123161478
 31
0.0
  0
LINE
  5
144
  8
Z_OM_OUTLINE
  6
CONTINUOUS
 62
     7
 10
116.261093103084
 20
3.723667028674644
 30
0.0
 11
108.4610933146805
 21
3.723667028674644
 31
0.0
  0
LINE
  5
145
  8
Z_OM_OUTLINE
  6
CONTINUOUS
 62
     7
 10
116.261093103084
 20
-28.27633123161478
 30
0.0
 11
116.261093103084
 21
3.723667028674644
 31
0.0
  0
LINE
  5
146
  8
Z_OM_OUTLINE
  6
CONTINUOUS
 62
     7
 10
119.2610930472047
 20
-15.27633282603903
 30
0.0
 11
116.261093103084
 21
-15.27633282603903
 31
0.0
  0
LINE
  5
147
  8
Z_OM_OUTLINE
  6
CONTINUOUS
 62
     7
 10
119.2610930472047
 20
-12.27633233430071
 30
0.0
 11
119.2610930472047
 21
-28.27633123161478
 31
0.0
  0
LINE
  5
148
  8
Z_OM_OUTLINE
  6
CONTINUOUS
 62
     7
 10
127.0610929520235
 20
-12.27633233430071
 30
0.0
 11
119.2610930472047
 21
-12.27633233430071
 31
0.0
  0
LINE
  5
149
  8
Z_OM_OUTLINE
  6
CONTINUOUS
 62
     7
 10
127.0610929520235
 20
-28.27633123161478
 30
0.0
 11
127.0610929520235
 21
-12.27633233430071
 31
0.0
  0
CIRCLE
  5
14A
  8
Z_OM_OUTLINE
  6
CONTINUOUS
 62
     7
 10
150.6352168379741
 20
12.99215003494868
 30
0.0
 40
1.000000000000003
  0
CIRCLE
  5
14B
  8
Z_OM_OUTLINE
  6
CONTINUOUS
 62
     7
 10
142.2849539240767
 20
18.94833468654923
 30
0.0
 40
0.9999999999999905
  0
CIRCLE
  5
14C
  8
Z_OM_OUTLINE
  6
CONTINUOUS
 62
     7
 10
134.0399125510217
 20
12.84732500848914
 30
0.0
 40
0.9999999999999905
  0
CIRCLE
  5
14D
  8
Z_OM_OUTLINE
  6
CONTINUOUS
 62
     7
 10
137.294459657722
 20
3.120509010155449
 30
0.0
 40
1.000000000000003
  0
CIRCLE
  5
14E
  8
Z_OM_OUTLINE
  6
CONTINUOUS
 62
     7
 10
147.5509217607054
 20
3.21001579892911
 30
0.0
 40
1.0
  0
CIRCLE
  5
14F
  8
Z_OM_OUTLINE
  6
CONTINUOUS
 62
     7
 10
154.4963478619241
 20
1.406888123427084
 30
0.0
 40
0.9999999999999905
  0
CIRCLE
  5
150
  8
Z_OM_OUTLINE
  6
CONTINUOUS
 62
     7
 10
157.3610929463
 20
10.22366690781418
 30
0.0
 40
0.9999999999999852
  0
CIRCLE
  5
151
  8
Z_OM_OUTLINE
  6
CONTINUOUS
 62
     7
 10
154.4963478619242
 20
19.04044569220133
 30
0.0
 40
0.9999999999999943
  0
CIRCLE
  5
152
  8
Z_OM_OUTLINE
  6
CONTINUOUS
 62
     7
 10
146.9963478619243
 20
24.48951465224161
 30
0.0
 40
1.000000000000001
  0
CIRCLE
  5
153
  8
Z_OM_OUTLINE
  6
CONTINUOUS
 62
     7
 10
137.7258380306758
 20
24.48951465224164
 30
0.0
 40
1.0
  0
CIRCLE
  5
154
  8
Z_OM_OUTLINE
  6
CONTINUOUS
 62
     7
 10
130.2258380306758
 20
19.04044569220148
 30
0.0
 40
1.000000000000018
  0
CIRCLE
  5
155
  8
Z_OM_OUTLINE
  6
CONTINUOUS
 62
     7
 10
127.3610929463
 20
10.22366690781438
 30
0.0
 40
0.9999999999999984
  0
CIRCLE
  5
156
  8
Z_OM_OUTLINE
  6
CONTINUOUS
 62
     7
 10
130.2258380306757
 20
1.406888123427255
 30
0.0
 40
1.000000000000012
  0
CIRCLE
  5
157
  8
Z_OM_OUTLINE
  6
CONTINUOUS
 62
     7
 10
137.7258380306758
 20
-4.042180836612983
 30
0.0
 40
1.000000000000001
  0
CIRCLE
  5
158
  8
Z_OM_OUTLINE
  6
CONTINUOUS
 62
     7
 10
146.9963478619242
 20
-4.042180836612983
 30
0.0
 40
1.0
  0
LINE
  5
159
  8
Z_OM_OUTLINE
  6
CONTINUOUS
 62
     7
 10
143.3610932997794
 20
5.223666808882517
 30
0.0
 11
143.3610932997794
 21
6.350683539489072
 31
0.0
  0
LINE
  5
15A
  8
Z_OM_OUTLINE
  6
CONTINUOUS
 62
     7
 10
141.3610929719538
 20
5.223666808882517
 30
0.0
 11
143.3610932997794
 21
5.223666808882517
 31
0.0
  0
LINE
  5
15B
  8
Z_OM_OUTLINE
  6
CONTINUOUS
 62
     7
 10
141.3610929719538
 20
6.350683539489072
 30
0.0
 11
141.3610929719538
 21
5.223666808882517
 31
0.0
  0
ARC
  5
15C
  8
Z_OM_OUTLINE
  6
CONTINUOUS
 62
     7
 10
142.3610929463
 20
10.22366690781434
 30
0.0
 40
4.000000000000009
 50
284.4775121859307
 51
255.5224878140713
  0
CIRCLE
  5
15D
  8
Z_OM_OUTLINE
  6
CONTINUOUS
 62
     7
 10
142.3610929463
 20
10.22366690781434
 30
0.0
 40
17.5
  0
LINE
  5
15E
  8
Z_OM_OUTLINE
  6
CONTINUOUS
 62
     7
 10
140.6110933146805
 20
-19.27633348169012
 30
0.0
 11
144.1110929570526
 21
-19.27633348169012
 31
0.0
  0
LINE
  5
15F
  8
Z_OM_OUTLINE
  6
CONTINUOUS
 62
     7
 10
140.6110933146805
 20
39.72366873858289
 30
0.0
 11
144.1110929570526
 21
39.72366873858289
 31
0.0
  0
LINE
  5
160
  8
Z_OM_OUTLINE
  6
CONTINUOUS
 62
     7
 10
140.6110933146805
 20
-23.27633227469606
 30
0.0
 11
144.1110929570526
 21
-23.27633227469606
 31
0.0
  0
LINE
  5
161
  8
Z_OM_OUTLINE
  6
CONTINUOUS
 62
     7
 10
140.6110933146805
 20
43.72366566894368
 30
0.0
 11
144.1110929570526
 21
43.72366566894368
 31
0.0
  0
LINE
  5
162
  8
Z_OM_OUTLINE
  6
CONTINUOUS
 62
     7
 10
140.6110933146805
 20
39.72366873858289
 30
0.0
 11
140.6110933146805
 21
50.72366867897824
 31
0.0
  0
LINE
  5
163
  8
Z_OM_OUTLINE
  6
CONTINUOUS
 62
     7
 10
144.1110929570526
 20
39.72366873858289
 30
0.0
 11
144.1110929570526
 21
50.72366867897824
 31
0.0
  0
LINE
  5
164
  8
Z_OM_OUTLINE
  6
CONTINUOUS
 62
     7
 10
140.6110933146805
 20
48.7236683511527
 30
0.0
 11
144.1110929570526
 21
48.7236683511527
 31
0.0
  0
LINE
  5
165
  8
Z_OM_OUTLINE
  6
CONTINUOUS
 62
     7
 10
140.6110933146805
 20
-19.27633348169012
 30
0.0
 11
140.6110933146805
 21
-30.27633155944033
 31
0.0
  0
LINE
  5
166
  8
Z_OM_OUTLINE
  6
CONTINUOUS
 62
     7
 10
144.1110929570526
 20
-19.27633348169012
 30
0.0
 11
144.1110929570526
 21
-30.27633155944033
 31
0.0
  0
LINE
  5
167
  8
Z_OM_OUTLINE
  6
CONTINUOUS
 62
     7
 10
140.6110933146805
 20
-28.27633123161478
 30
0.0
 11
144.1110929570526
 21
-28.27633123161478
 31
0.0
  0
LINE
  5
168
  8
Z_OM_OUTLINE
  6
CONTINUOUS
 62
     7
 10
111.0505122035761
 20
35.31308616509047
 30
0.0
 11
113.6716736890238
 21
37.93424765053821
 31
0.0
  0
LINE
  5
169
  8
Z_OM_OUTLINE
  6
CONTINUOUS
 62
     7
 10
113.6716736890238
 20
35.31308616509047
 30
0.0
 11
111.0505122035761
 21
37.93424765053821
 31
0.0
  0
LINE
  5
16A
  8
Z_OM_OUTLINE
  6
CONTINUOUS
 62
     7
 10
121.8505122035761
 20
35.31308616509047
 30
0.0
 11
124.4716736890238
 21
37.93424765053821
 31
0.0
  0
LINE
  5
16B
  8
Z_OM_OUTLINE
  6
CONTINUOUS
 62
     7
 10
124.4716736890238
 20
35.31308616509047
 30
0.0
 11
121.8505122035761
 21
37.93424765053821
 31
0.0
  0
LINE
  5
16C
  8
Z_OM_OUTLINE
  6
CONTINUOUS
 62
     7
 10
132.5505122035761
 20
35.31308616509047
 30
0.0
 11
135.1716736890238
 21
37.93424765053821
 31
0.0
  0
LINE
  5
16D
  8
Z_OM_OUTLINE
  6
CONTINUOUS
 62
     7
 10
135.1716736890238
 20
35.31308616509047
 30
0.0
 11
132.5505122035761
 21
37.93424765053821
 31
0.0
  0
LINE
  5
16E
  8
Z_OM_OUTLINE
  6
CONTINUOUS
 62
     7
 10
149.5505122035761
 20
35.41308616509046
 30
0.0
 11
152.1716736890238
 21
38.03424765053821
 31
0.0
  0
LINE
  5
16F
  8
Z_OM_OUTLINE
  6
CONTINUOUS
 62
     7
 10
152.1716736890238
 20
35.41308616509046
 30
0.0
 11
149.5505122035761
 21
38.03424765053821
 31
0.0
  0
LINE
  5
170
  8
Z_OM_OUTLINE
  6
CONTINUOUS
 62
     7
 10
160.2505122035761
 20
35.31308616509047
 30
0.0
 11
162.8716736890238
 21
37.93424765053821
 31
0.0
  0
LINE
  5
171
  8
Z_OM_OUTLINE
  6
CONTINUOUS
 62
     7
 10
162.8716736890238
 20
35.31308616509047
 30
0.0
 11
160.2505122035761
 21
37.93424765053821
 31
0.0
  0
LINE
  5
172
  8
Z_OM_OUTLINE
  6
CONTINUOUS
 62
     7
 10
171.0505122035761
 20
35.31308616509047
 30
0.0
 11
173.6716736890238
 21
37.93424765053821
 31
0.0
  0
LINE
  5
173
  8
Z_OM_OUTLINE
  6
CONTINUOUS
 62
     7
 10
173.6716736890238
 20
35.31308616509047
 30
0.0
 11
171.0505122035761
 21
37.93424765053821
 31
0.0
  0
LINE
  5
174
  8
Z_OM_OUTLINE
  6
CONTINUOUS
 62
     7
 10
171.0505122035762
 20
19.31308616509027
 30
0.0
 11
173.6716736890239
 21
21.934247650538
 31
0.0
  0
LINE
  5
175
  8
Z_OM_OUTLINE
  6
CONTINUOUS
 62
     7
 10
173.6716736890239
 20
19.31308616509027
 30
0.0
 11
171.0505122035762
 21
21.934247650538
 31
0.0
  0
LINE
  5
176
  8
Z_OM_OUTLINE
  6
CONTINUOUS
 62
     7
 10
111.0505122035761
 20
-1.486913834909553
 30
0.0
 11
113.6716736890238
 21
1.134247650538189
 31
0.0
  0
LINE
  5
177
  8
Z_OM_OUTLINE
  6
CONTINUOUS
 62
     7
 10
113.6716736890238
 20
-1.486913834909553
 30
0.0
 11
111.0505122035761
 21
1.134247650538185
 31
0.0
  0
LINE
  5
178
  8
Z_OM_OUTLINE
  6
CONTINUOUS
 62
     7
 10
111.0505122035761
 20
-17.48691383490956
 30
0.0
 11
113.6716736890238
 21
-14.86575234946182
 31
0.0
  0
LINE
  5
179
  8
Z_OM_OUTLINE
  6
CONTINUOUS
 62
     7
 10
113.6716736890238
 20
-17.48691383490956
 30
0.0
 11
111.0505122035761
 21
-14.86575234946182
 31
0.0
  0
LINE
  5
17A
  8
Z_OM_OUTLINE
  6
CONTINUOUS
 62
     7
 10
121.8505122035761
 20
-17.48691383490956
 30
0.0
 11
124.4716736890238
 21
-14.86575234946182
 31
0.0
  0
LINE
  5
17B
  8
Z_OM_OUTLINE
  6
CONTINUOUS
 62
     7
 10
124.4716736890238
 20
-17.48691383490956
 30
0.0
 11
121.8505122035761
 21
-14.86575234946182
 31
0.0
  0
LINE
  5
17C
  8
Z_OM_OUTLINE
  6
CONTINUOUS
 62
     7
 10
132.5505122035761
 20
-17.48691383490953
 30
0.0
 11
135.1716736890238
 21
-14.86575234946179
 31
0.0
  0
LINE
  5
17D
  8
Z_OM_OUTLINE
  6
CONTINUOUS
 62
     7
 10
135.1716736890238
 20
-17.48691383490954
 30
0.0
 11
132.5505122035761
 21
-14.86575234946179
 31
0.0
  0
LINE
  5
17E
  8
Z_OM_OUTLINE
  6
CONTINUOUS
 62
     7
 10
149.5505122035761
 20
-17.48691383490953
 30
0.0
 11
152.1716736890239
 21
-14.86575234946179
 31
0.0
  0
LINE
  5
17F
  8
Z_OM_OUTLINE
  6
CONTINUOUS
 62
     7
 10
152.1716736890239
 20
-17.48691383490954
 30
0.0
 11
149.5505122035761
 21
-14.86575234946179
 31
0.0
  0
LINE
  5
180
  8
Z_OM_OUTLINE
  6
CONTINUOUS
 62
     7
 10
160.2505122035761
 20
-17.48691383490956
 30
0.0
 11
162.8716736890238
 21
-14.86575234946182
 31
0.0
  0
LINE
  5
181
  8
Z_OM_OUTLINE
  6
CONTINUOUS
 62
     7
 10
162.8716736890238
 20
-17.48691383490956
 30
0.0
 11
160.2505122035761
 21
-14.86575234946182
 31
0.0
  0
LINE
  5
182
  8
Z_OM_OUTLINE
  6
CONTINUOUS
 62
     7
 10
171.0505122035761
 20
-17.48691383490956
 30
0.0
 11
173.6716736890239
 21
-14.86575234946182
 31
0.0
  0
LINE
  5
183
  8
Z_OM_OUTLINE
  6
CONTINUOUS
 62
     7
 10
173.6716736890239
 20
-17.48691383490956
 30
0.0
 11
171.0505122035761
 21
-14.86575234946182
 31
0.0
  0
LINE
  5
184
  8
Z_OM_OUTLINE
  6
CONTINUOUS
 62
     7
 10
137.7610925681323
 20
32.72366759119348
 30
0.0
 11
137.7610925681323
 21
50.22366867897824
 31
0.0
  0
LINE
  5
185
  8
Z_OM_OUTLINE
  6
CONTINUOUS
 62
     7
 10
140.6110933146805
 20
50.72366867897824
 30
0.0
 11
144.1110929570526
 21
50.72366867897823
 31
0.0
  0
LINE
  5
186
  8
Z_OM_OUTLINE
  6
CONTINUOUS
 62
     7
 10
146.9610927722782
 20
50.22366867897823
 30
0.0
 11
146.9610927722782
 21
32.72366759119348
 31
0.0
  0
LINE
  5
187
  8
Z_OM_OUTLINE
  6
CONTINUOUS
 62
     7
 10
140.6110933146805
 20
-30.27633155944033
 30
0.0
 11
144.1110929570526
 21
-30.27633155944033
 31
0.0
  0
LINE
  5
188
  8
Z_OM_OUTLINE
  6
CONTINUOUS
 62
     7
 10
137.7610925681323
 20
-29.77633155944033
 30
0.0
 11
137.7610925681323
 21
-12.27633233430071
 31
0.0
  0
LINE
  5
189
  8
Z_OM_OUTLINE
  6
CONTINUOUS
 62
     7
 10
146.9610927722782
 20
-12.27633233430071
 30
0.0
 11
146.9610927722782
 21
-29.77633155944033
 31
0.0
  0
LINE
  5
18A
  8
Z_OM_OUTLINE
  6
CONTINUOUS
 62
     7
 10
47.27943694768452
 20
-15.27633282603903
 30
0.0
 11
45.27943694768452
 21
-13.27633282603903
 31
0.0
  0
LINE
  5
18B
  8
Z_OM_OUTLINE
  6
CONTINUOUS
 62
     7
 10
47.27943694768454
 20
35.72366622028665
 30
0.0
 11
45.27943694768454
 21
33.72366622028665
 31
0.0
  0
LINE
  5
18C
  8
Z_OM_CENTER
  6
CENTER
 62
   222
 10
-74.15098624798934
 20
10.22366690781434
 30
0.0
 11
79.62026476507155
 21
10.22366690781434
 31
0.0
  0
LINE
  5
18D
  8
Z_OM_CENTER
  6
CENTER
 62
   222
 10
112.3610929463
 20
4.024798413079314
 30
0.0
 11
112.3610929463
 21
16.42253540254936
 31
0.0
  0
CIRCLE
  5
18E
  8
Z_OM_CENTER
  6
CENTER
 62
   222
 10
142.3610929463
 20
10.22366690781434
 30
0.0
 40
14.99999999999998
  0
CIRCLE
  5
18F
  8
Z_OM_CENTER
  6
CENTER
 62
   222
 10
142.3610929463
 20
10.22366690781434
 30
0.0
 40
8.72499999999998
  0
LINE
  5
190
  8
Z_OM_CENTER
  6
CENTER
 62
   222
 10
142.3610929463
 20
-39.66180279133896
 30
0.0
 11
142.3610929463
 21
57.22603178980793
 31
0.0
  0
LINE
  5
191
  8
Z_OM_CENTER
  6
CENTER
 62
   222
 10
100.942580367978
 20
10.22366690781434
 30
0.0
 11
185.1365542687073
 21
10.22366690781434
 31
0.0
  0
LINE
  5
192
  8
Z_OM_CENTER
  6
CENTER
 62
   222
 10
172.3610929463
 20
4.024798413079314
 30
0.0
 11
172.3610929463
 21
16.42253540254936
 31
0.0
  0
LINE
  5
193
  8
0
  6
CONTINUOUS
 62
     7
 10
144.1110929570526
 20
50.22366867897824
 30
0.0
 11
146.9610927722782
 21
50.22366867897823
 31
0.0
  0
LINE
  5
194
  8
0
  6
CONTINUOUS
 62
     7
 10
137.7610925681323
 20
50.22366867897824
 30
0.0
 11
140.6110933146805
 21
50.22366867897824
 31
0.0
  0
LINE
  5
195
  8
0
  6
CONTINUOUS
 62
     7
 10
137.7610925681323
 20
-29.77633155944033
 30
0.0
 11
140.6110933146805
 21
-29.77633155944033
 31
0.0
  0
LINE
  5
196
  8
0
  6
CONTINUOUS
 62
     7
 10
144.1110929570526
 20
-29.77633155944033
 30
0.0
 11
146.9610927722782
 21
-29.77633155944033
 31
0.0
  0
LINE
  5
197
  8
0
  6
CONTINUOUS
 62
     7
 10
48.27943694768452
 20
-29.77633155944033
 30
0.0
 11
73.77943649692436
 21
-29.77633155944033
 31
0.0
  0
LINE
  5
198
  8
0
  6
CONTINUOUS
 62
     7
 10
73.77943649692436
 20
50.22366867897824
 30
0.0
 11
48.27943694768454
 21
50.22366867897824
 31
0.0
  0
LINE
  5
199
  8
0
  6
CONTINUOUS
 62
     7
 10
45.27943694768454
 20
50.22366690781433
 30
0.0
 11
-65.22056350307564
 21
50.22366690781433
 31
0.0
  0
LINE
  5
19A
  8
0
  6
CONTINUOUS
 62
     7
 10
45.27943694768452
 20
-29.77633309218566
 30
0.0
 11
-65.22056350307564
 21
-29.77633309218566
 31
0.0
  0
LINE
  5
19B
  8
0
  6
CONTINUOUS
 62
     7
 10
-65.22056350307564
 20
50.22366690781433
 30
0.0
 11
-65.22056350307564
 21
-29.77633309218567
 31
0.0
  0
LINE
  5
19C
  8
0
  6
CONTINUOUS
 62
     7
 10
-181.2229965156795
 20
-29.77633309218567
 30
0.0
 11
-109.2229965156795
 21
-29.77633309218567
 31
0.0
  0
LINE
  5
19D
  8
0
  6
CONTINUOUS
 62
     7
 10
-109.2229965156795
 20
50.22366690781433
 30
0.0
 11
-181.2229965156795
 21
50.22366690781433
 31
0.0
  0
LINE
  5
19E
  8
0
  6
CONTINUOUS
 62
     7
 10
-181.2229965156795
 20
50.22366690781433
 30
0.0
 11
-181.2229965156795
 21
-29.77633309218567
 31
0.0
  0
LINE
  5
19F
  8
0
  6
CONTINUOUS
 62
     7
 10
-109.2229965156795
 20
-29.77633309218567
 30
0.0
 11
-109.2229965156795
 21
50.22366690781433
 31
0.0
  0
LINE
  5
1A0
  8
0
  6
CONTINUOUS
 62
     7
 10
46.27943694768454
 20
48.22366867897824
 30
0.0
 11
46.27943694768454
 21
34.72366622028665
 31
0.0
  0
LINE
  5
1A1
  8
0
  6
CONTINUOUS
 62
     7
 10
46.27943694768452
 20
-14.27633282603903
 30
0.0
 11
46.27943694768452
 21
-27.77633155944033
 31
0.0
  0
LINE
  5
1A2
  8
0
  6
CONTINUOUS
 62
     7
 10
48.27943694768454
 20
50.22366867897824
 30
0.0
 11
46.27943694768454
 21
48.22366867897824
 31
0.0
  0
LINE
  5
1A3
  8
0
  6
CONTINUOUS
 62
     7
 10
48.27943694768452
 20
-29.77633155944033
 30
0.0
 11
46.27943694768452
 21
-27.77633155944033
 31
0.0
  0
LINE
  5
1A4
  8
0
  6
CONTINUOUS
 62
     7
 10
-122.2229965156795
 20
26.72366690781433
 30
0.0
 11
-168.2229965156795
 21
26.72366690781433
 31
0.0
  0
LINE
  5
1A5
  8
0
  6
CONTINUOUS
 62
     7
 10
-168.2229965156795
 20
26.72366690781433
 30
0.0
 11
-168.2229965156795
 21
-6.276333092185666
 31
0.0
  0
LINE
  5
1A6
  8
0
  6
CONTINUOUS
 62
     7
 10
-122.2229965156795
 20
-6.276333092185666
 30
0.0
 11
-122.2229965156795
 21
26.72366690781433
 31
0.0
  0
LINE
  5
1A7
  8
0
  6
CONTINUOUS
 62
     7
 10
-146.2229965156795
 20
-19.27633309218567
 30
0.0
 11
-144.2229965156795
 21
-19.27633309218567
 31
0.0
  0
LINE
  5
1A8
  8
0
  6
CONTINUOUS
 62
     7
 10
-144.2229965156795
 20
-10.27633309218567
 30
0.0
 11
-146.2229965156795
 21
-10.27633309218567
 31
0.0
  0
LINE
  5
1A9
  8
0
  6
CONTINUOUS
 62
     7
 10
-146.2229965156795
 20
-10.27633309218567
 30
0.0
 11
-146.2229965156795
 21
-19.27633309218567
 31
0.0
  0
LINE
  5
1AA
  8
0
  6
CONTINUOUS
 62
     7
 10
-144.2229965156795
 20
-19.27633309218567
 30
0.0
 11
-144.2229965156795
 21
-10.27633309218567
 31
0.0
  0
LINE
  5
1AB
  8
0
  6
CONTINUOUS
 62
     7
 10
-151.2229965156795
 20
-19.27633309218567
 30
0.0
 11
-149.2229965156795
 21
-19.27633309218567
 31
0.0
  0
LINE
  5
1AC
  8
0
  6
CONTINUOUS
 62
     7
 10
-149.2229965156795
 20
-10.27633309218567
 30
0.0
 11
-151.2229965156795
 21
-10.27633309218567
 31
0.0
  0
LINE
  5
1AD
  8
0
  6
CONTINUOUS
 62
     7
 10
-151.2229965156795
 20
-10.27633309218567
 30
0.0
 11
-151.2229965156795
 21
-19.27633309218567
 31
0.0
  0
LINE
  5
1AE
  8
0
  6
CONTINUOUS
 62
     7
 10
-149.2229965156795
 20
-19.27633309218567
 30
0.0
 11
-149.2229965156795
 21
-10.27633309218567
 31
0.0
  0
LINE
  5
1AF
  8
0
  6
CONTINUOUS
 62
     7
 10
-156.2229965156795
 20
-19.27633309218567
 30
0.0
 11
-154.2229965156795
 21
-19.27633309218567
 31
0.0
  0
LINE
  5
1B0
  8
0
  6
CONTINUOUS
 62
     7
 10
-154.2229965156795
 20
-10.27633309218566
 30
0.0
 11
-156.2229965156795
 21
-10.27633309218566
 31
0.0
  0
LINE
  5
1B1
  8
0
  6
CONTINUOUS
 62
     7
 10
-156.2229965156795
 20
-10.27633309218566
 30
0.0
 11
-156.2229965156795
 21
-19.27633309218567
 31
0.0
  0
LINE
  5
1B2
  8
0
  6
CONTINUOUS
 62
     7
 10
-154.2229965156795
 20
-19.27633309218567
 30
0.0
 11
-154.2229965156795
 21
-10.27633309218566
 31
0.0
  0
LINE
  5
1B3
  8
0
  6
CONTINUOUS
 62
     7
 10
-161.2229965156795
 20
-19.27633309218566
 30
0.0
 11
-159.2229965156795
 21
-19.27633309218566
 31
0.0
  0
LINE
  5
1B4
  8
0
  6
CONTINUOUS
 62
     7
 10
-159.2229965156795
 20
-10.27633309218566
 30
0.0
 11
-161.2229965156795
 21
-10.27633309218566
 31
0.0
  0
LINE
  5
1B5
  8
0
  6
CONTINUOUS
 62
     7
 10
-161.2229965156795
 20
-10.27633309218566
 30
0.0
 11
-161.2229965156795
 21
-19.27633309218566
 31
0.0
  0
LINE
  5
1B6
  8
0
  6
CONTINUOUS
 62
     7
 10
-159.2229965156795
 20
-19.27633309218566
 30
0.0
 11
-159.2229965156795
 21
-10.27633309218566
 31
0.0
  0
LINE
  5
1B7
  8
0
  6
CONTINUOUS
 62
     7
 10
-166.2229965156795
 20
-19.27633309218566
 30
0.0
 11
-164.2229965156795
 21
-19.27633309218566
 31
0.0
  0
LINE
  5
1B8
  8
0
  6
CONTINUOUS
 62
     7
 10
-164.2229965156795
 20
-10.27633309218566
 30
0.0
 11
-166.2229965156795
 21
-10.27633309218566
 31
0.0
  0
LINE
  5
1B9
  8
0
  6
CONTINUOUS
 62
     7
 10
-166.2229965156795
 20
-10.27633309218566
 30
0.0
 11
-166.2229965156795
 21
-19.27633309218566
 31
0.0
  0
LINE
  5
1BA
  8
0
  6
CONTINUOUS
 62
     7
 10
-164.2229965156795
 20
-19.27633309218566
 30
0.0
 11
-164.2229965156795
 21
-10.27633309218566
 31
0.0
  0
LINE
  5
1BB
  8
0
  6
CONTINUOUS
 62
     7
 10
-171.2229965156795
 20
-19.27633309218566
 30
0.0
 11
-169.2229965156795
 21
-19.27633309218566
 31
0.0
  0
LINE
  5
1BC
  8
0
  6
CONTINUOUS
 62
     7
 10
-169.2229965156795
 20
-10.27633309218566
 30
0.0
 11
-171.2229965156795
 21
-10.27633309218566
 31
0.0
  0
LINE
  5
1BD
  8
0
  6
CONTINUOUS
 62
     7
 10
-171.2229965156795
 20
-10.27633309218566
 30
0.0
 11
-171.2229965156795
 21
-19.27633309218566
 31
0.0
  0
LINE
  5
1BE
  8
0
  6
CONTINUOUS
 62
     7
 10
-169.2229965156795
 20
-19.27633309218566
 30
0.0
 11
-169.2229965156795
 21
-10.27633309218566
 31
0.0
  0
LINE
  5
1BF
  8
0
  6
CONTINUOUS
 62
     7
 10
-141.2229965156795
 20
-19.27633309218567
 30
0.0
 11
-139.2229965156795
 21
-19.27633309218567
 31
0.0
  0
LINE
  5
1C0
  8
0
  6
CONTINUOUS
 62
     7
 10
-139.2229965156795
 20
-10.27633309218567
 30
0.0
 11
-141.2229965156795
 21
-10.27633309218567
 31
0.0
  0
LINE
  5
1C1
  8
0
  6
CONTINUOUS
 62
     7
 10
-141.2229965156795
 20
-10.27633309218567
 30
0.0
 11
-141.2229965156795
 21
-19.27633309218567
 31
0.0
  0
LINE
  5
1C2
  8
0
  6
CONTINUOUS
 62
     7
 10
-139.2229965156795
 20
-19.27633309218567
 30
0.0
 11
-139.2229965156795
 21
-10.27633309218567
 31
0.0
  0
LINE
  5
1C3
  8
0
  6
CONTINUOUS
 62
     7
 10
-136.2229965156795
 20
-19.27633309218567
 30
0.0
 11
-134.2229965156795
 21
-19.27633309218567
 31
0.0
  0
LINE
  5
1C4
  8
0
  6
CONTINUOUS
 62
     7
 10
-134.2229965156795
 20
-10.27633309218567
 30
0.0
 11
-136.2229965156795
 21
-10.27633309218567
 31
0.0
  0
LINE
  5
1C5
  8
0
  6
CONTINUOUS
 62
     7
 10
-136.2229965156795
 20
-10.27633309218567
 30
0.0
 11
-136.2229965156795
 21
-19.27633309218567
 31
0.0
  0
LINE
  5
1C6
  8
0
  6
CONTINUOUS
 62
     7
 10
-134.2229965156795
 20
-19.27633309218567
 30
0.0
 11
-134.2229965156795
 21
-10.27633309218567
 31
0.0
  0
LINE
  5
1C7
  8
0
  6
CONTINUOUS
 62
     7
 10
-131.2229965156795
 20
-19.27633309218567
 30
0.0
 11
-129.2229965156795
 21
-19.27633309218567
 31
0.0
  0
LINE
  5
1C8
  8
0
  6
CONTINUOUS
 62
     7
 10
-129.2229965156795
 20
-10.27633309218567
 30
0.0
 11
-131.2229965156795
 21
-10.27633309218567
 31
0.0
  0
LINE
  5
1C9
  8
0
  6
CONTINUOUS
 62
     7
 10
-131.2229965156795
 20
-10.27633309218567
 30
0.0
 11
-131.2229965156795
 21
-19.27633309218567
 31
0.0
  0
LINE
  5
1CA
  8
0
  6
CONTINUOUS
 62
     7
 10
-129.2229965156795
 20
-19.27633309218567
 30
0.0
 11
-129.2229965156795
 21
-10.27633309218567
 31
0.0
  0
LINE
  5
1CB
  8
0
  6
CONTINUOUS
 62
     7
 10
-126.2229965156795
 20
-19.27633309218567
 30
0.0
 11
-124.2229965156795
 21
-19.27633309218567
 31
0.0
  0
LINE
  5
1CC
  8
0
  6
CONTINUOUS
 62
     7
 10
-124.2229965156795
 20
-10.27633309218567
 30
0.0
 11
-126.2229965156795
 21
-10.27633309218567
 31
0.0
  0
LINE
  5
1CD
  8
0
  6
CONTINUOUS
 62
     7
 10
-126.2229965156795
 20
-10.27633309218567
 30
0.0
 11
-126.2229965156795
 21
-19.27633309218567
 31
0.0
  0
LINE
  5
1CE
  8
0
  6
CONTINUOUS
 62
     7
 10
-124.2229965156795
 20
-19.27633309218567
 30
0.0
 11
-124.2229965156795
 21
-10.27633309218567
 31
0.0
  0
LINE
  5
1CF
  8
0
  6
CONTINUOUS
 62
     7
 10
-121.2229965156795
 20
-19.27633309218567
 30
0.0
 11
-119.2229965156795
 21
-19.27633309218567
 31
0.0
  0
LINE
  5
1D0
  8
0
  6
CONTINUOUS
 62
     7
 10
-119.2229965156795
 20
-10.27633309218567
 30
0.0
 11
-121.2229965156795
 21
-10.27633309218567
 31
0.0
  0
LINE
  5
1D1
  8
0
  6
CONTINUOUS
 62
     7
 10
-121.2229965156795
 20
-10.27633309218567
 30
0.0
 11
-121.2229965156795
 21
-19.27633309218567
 31
0.0
  0
LINE
  5
1D2
  8
0
  6
CONTINUOUS
 62
     7
 10
-119.2229965156795
 20
-19.27633309218567
 30
0.0
 11
-119.2229965156795
 21
-10.27633309218567
 31
0.0
  0
LINE
  5
1D3
  8
0
  6
CONTINUOUS
 62
     7
 10
-121.2229965156795
 20
-13.07633309218567
 30
0.0
 11
-119.2229965156795
 21
-13.07633309218567
 31
0.0
  0
LINE
  5
1D4
  8
0
  6
CONTINUOUS
 62
     7
 10
-126.2229965156795
 20
-13.07633309218567
 30
0.0
 11
-124.2229965156795
 21
-13.07633309218567
 31
0.0
  0
LINE
  5
1D5
  8
0
  6
CONTINUOUS
 62
     7
 10
-131.2229965156795
 20
-13.07633309218567
 30
0.0
 11
-129.2229965156795
 21
-13.07633309218567
 31
0.0
  0
LINE
  5
1D6
  8
0
  6
CONTINUOUS
 62
     7
 10
-136.2229965156795
 20
-13.07633309218567
 30
0.0
 11
-134.2229965156795
 21
-13.07633309218567
 31
0.0
  0
LINE
  5
1D7
  8
0
  6
CONTINUOUS
 62
     7
 10
-141.2229965156795
 20
-13.07633309218567
 30
0.0
 11
-139.2229965156795
 21
-13.07633309218567
 31
0.0
  0
LINE
  5
1D8
  8
0
  6
CONTINUOUS
 62
     7
 10
-146.2229965156795
 20
-13.07633309218567
 30
0.0
 11
-144.2229965156795
 21
-13.07633309218567
 31
0.0
  0
LINE
  5
1D9
  8
0
  6
CONTINUOUS
 62
     7
 10
-151.2229965156795
 20
-13.07633309218567
 30
0.0
 11
-149.2229965156795
 21
-13.07633309218567
 31
0.0
  0
LINE
  5
1DA
  8
0
  6
CONTINUOUS
 62
     7
 10
-156.2229965156795
 20
-13.07633309218567
 30
0.0
 11
-154.2229965156795
 21
-13.07633309218567
 31
0.0
  0
LINE
  5
1DB
  8
0
  6
CONTINUOUS
 62
     7
 10
-161.2229965156795
 20
-13.07633309218567
 30
0.0
 11
-159.2229965156795
 21
-13.07633309218567
 31
0.0
  0
LINE
  5
1DC
  8
0
  6
CONTINUOUS
 62
     7
 10
-171.2229965156795
 20
-13.07633309218566
 30
0.0
 11
-169.2229965156795
 21
-13.07633309218566
 31
0.0
  0
LINE
  5
1DD
  8
0
  6
CONTINUOUS
 62
     7
 10
-166.2229965156795
 20
-13.07633309218567
 30
0.0
 11
-164.2229965156795
 21
-13.07633309218567
 31
0.0
  0
LINE
  5
1DE
  8
0
  6
CONTINUOUS
 62
     7
 10
-121.2229965156795
 20
-16.47633309218568
 30
0.0
 11
-119.2229965156795
 21
-16.47633309218568
 31
0.0
  0
LINE
  5
1DF
  8
0
  6
CONTINUOUS
 62
     7
 10
-126.2229965156795
 20
-16.47633309218568
 30
0.0
 11
-124.2229965156795
 21
-16.47633309218568
 31
0.0
  0
LINE
  5
1E0
  8
0
  6
CONTINUOUS
 62
     7
 10
-131.2229965156795
 20
-16.47633309218568
 30
0.0
 11
-129.2229965156795
 21
-16.47633309218568
 31
0.0
  0
LINE
  5
1E1
  8
0
  6
CONTINUOUS
 62
     7
 10
-136.2229965156795
 20
-16.47633309218568
 30
0.0
 11
-134.2229965156795
 21
-16.47633309218568
 31
0.0
  0
LINE
  5
1E2
  8
0
  6
CONTINUOUS
 62
     7
 10
-141.2229965156795
 20
-16.47633309218568
 30
0.0
 11
-139.2229965156795
 21
-16.47633309218568
 31
0.0
  0
LINE
  5
1E3
  8
0
  6
CONTINUOUS
 62
     7
 10
-146.2229965156795
 20
-16.47633309218568
 30
0.0
 11
-144.2229965156795
 21
-16.47633309218568
 31
0.0
  0
LINE
  5
1E4
  8
0
  6
CONTINUOUS
 62
     7
 10
-151.2229965156795
 20
-16.47633309218568
 30
0.0
 11
-149.2229965156795
 21
-16.47633309218568
 31
0.0
  0
LINE
  5
1E5
  8
0
  6
CONTINUOUS
 62
     7
 10
-156.2229965156795
 20
-16.47633309218568
 30
0.0
 11
-154.2229965156795
 21
-16.47633309218568
 31
0.0
  0
LINE
  5
1E6
  8
0
  6
CONTINUOUS
 62
     7
 10
-161.2229965156795
 20
-16.47633309218568
 30
0.0
 11
-159.2229965156795
 21
-16.47633309218568
 31
0.0
  0
LINE
  5
1E7
  8
0
  6
CONTINUOUS
 62
     7
 10
-171.2229965156795
 20
-16.47633309218568
 30
0.0
 11
-169.2229965156795
 21
-16.47633309218568
 31
0.0
  0
LINE
  5
1E8
  8
0
  6
CONTINUOUS
 62
     7
 10
-166.2229965156795
 20
-16.47633309218568
 30
0.0
 11
-164.2229965156795
 21
-16.47633309218568
 31
0.0
  0
LINE
  5
1E9
  8
0
  6
CONTINUOUS
 62
     7
 10
-146.2229965156795
 20
39.72366690781433
 30
0.0
 11
-144.2229965156795
 21
39.72366690781433
 31
0.0
  0
LINE
  5
1EA
  8
0
  6
CONTINUOUS
 62
     7
 10
-144.2229965156795
 20
30.72366690781433
 30
0.0
 11
-146.2229965156795
 21
30.72366690781433
 31
0.0
  0
LINE
  5
1EB
  8
0
  6
CONTINUOUS
 62
     7
 10
-146.2229965156795
 20
30.72366690781433
 30
0.0
 11
-146.2229965156795
 21
39.72366690781433
 31
0.0
  0
LINE
  5
1EC
  8
0
  6
CONTINUOUS
 62
     7
 10
-144.2229965156795
 20
39.72366690781433
 30
0.0
 11
-144.2229965156795
 21
30.72366690781433
 31
0.0
  0
LINE
  5
1ED
  8
0
  6
CONTINUOUS
 62
     7
 10
-151.2229965156795
 20
39.72366690781433
 30
0.0
 11
-149.2229965156795
 21
39.72366690781433
 31
0.0
  0
LINE
  5
1EE
  8
0
  6
CONTINUOUS
 62
     7
 10
-149.2229965156795
 20
30.72366690781433
 30
0.0
 11
-151.2229965156795
 21
30.72366690781433
 31
0.0
  0
LINE
  5
1EF
  8
0
  6
CONTINUOUS
 62
     7
 10
-151.2229965156795
 20
30.72366690781433
 30
0.0
 11
-151.2229965156795
 21
39.72366690781433
 31
0.0
  0
LINE
  5
1F0
  8
0
  6
CONTINUOUS
 62
     7
 10
-149.2229965156795
 20
39.72366690781433
 30
0.0
 11
-149.2229965156795
 21
30.72366690781433
 31
0.0
  0
LINE
  5
1F1
  8
0
  6
CONTINUOUS
 62
     7
 10
-156.2229965156795
 20
39.72366690781433
 30
0.0
 11
-154.2229965156795
 21
39.72366690781433
 31
0.0
  0
LINE
  5
1F2
  8
0
  6
CONTINUOUS
 62
     7
 10
-154.2229965156795
 20
30.72366690781433
 30
0.0
 11
-156.2229965156795
 21
30.72366690781433
 31
0.0
  0
LINE
  5
1F3
  8
0
  6
CONTINUOUS
 62
     7
 10
-156.2229965156795
 20
30.72366690781433
 30
0.0
 11
-156.2229965156795
 21
39.72366690781433
 31
0.0
  0
LINE
  5
1F4
  8
0
  6
CONTINUOUS
 62
     7
 10
-154.2229965156795
 20
39.72366690781433
 30
0.0
 11
-154.2229965156795
 21
30.72366690781433
 31
0.0
  0
LINE
  5
1F5
  8
0
  6
CONTINUOUS
 62
     7
 10
-161.2229965156795
 20
39.72366690781433
 30
0.0
 11
-159.2229965156795
 21
39.72366690781433
 31
0.0
  0
LINE
  5
1F6
  8
0
  6
CONTINUOUS
 62
     7
 10
-159.2229965156795
 20
30.72366690781433
 30
0.0
 11
-161.2229965156795
 21
30.72366690781433
 31
0.0
  0
LINE
  5
1F7
  8
0
  6
CONTINUOUS
 62
     7
 10
-161.2229965156795
 20
30.72366690781433
 30
0.0
 11
-161.2229965156795
 21
39.72366690781433
 31
0.0
  0
LINE
  5
1F8
  8
0
  6
CONTINUOUS
 62
     7
 10
-159.2229965156795
 20
39.72366690781433
 30
0.0
 11
-159.2229965156795
 21
30.72366690781433
 31
0.0
  0
LINE
  5
1F9
  8
0
  6
CONTINUOUS
 62
     7
 10
-166.2229965156795
 20
39.72366690781433
 30
0.0
 11
-164.2229965156795
 21
39.72366690781433
 31
0.0
  0
LINE
  5
1FA
  8
0
  6
CONTINUOUS
 62
     7
 10
-164.2229965156795
 20
30.72366690781433
 30
0.0
 11
-166.2229965156795
 21
30.72366690781433
 31
0.0
  0
LINE
  5
1FB
  8
0
  6
CONTINUOUS
 62
     7
 10
-166.2229965156795
 20
30.72366690781433
 30
0.0
 11
-166.2229965156795
 21
39.72366690781433
 31
0.0
  0
LINE
  5
1FC
  8
0
  6
CONTINUOUS
 62
     7
 10
-164.2229965156795
 20
39.72366690781433
 30
0.0
 11
-164.2229965156795
 21
30.72366690781433
 31
0.0
  0
LINE
  5
1FD
  8
0
  6
CONTINUOUS
 62
     7
 10
-171.2229965156795
 20
39.72366690781433
 30
0.0
 11
-169.2229965156795
 21
39.72366690781433
 31
0.0
  0
LINE
  5
1FE
  8
0
  6
CONTINUOUS
 62
     7
 10
-169.2229965156795
 20
30.72366690781433
 30
0.0
 11
-171.2229965156795
 21
30.72366690781433
 31
0.0
  0
LINE
  5
1FF
  8
0
  6
CONTINUOUS
 62
     7
 10
-171.2229965156795
 20
30.72366690781433
 30
0.0
 11
-171.2229965156795
 21
39.72366690781433
 31
0.0
  0
LINE
  5
200
  8
0
  6
CONTINUOUS
 62
     7
 10
-169.2229965156795
 20
39.72366690781433
 30
0.0
 11
-169.2229965156795
 21
30.72366690781433
 31
0.0
  0
LINE
  5
201
  8
0
  6
CONTINUOUS
 62
     7
 10
-141.2229965156795
 20
39.72366690781433
 30
0.0
 11
-139.2229965156795
 21
39.72366690781433
 31
0.0
  0
LINE
  5
202
  8
0
  6
CONTINUOUS
 62
     7
 10
-139.2229965156795
 20
30.72366690781433
 30
0.0
 11
-141.2229965156795
 21
30.72366690781433
 31
0.0
  0
LINE
  5
203
  8
0
  6
CONTINUOUS
 62
     7
 10
-141.2229965156795
 20
30.72366690781433
 30
0.0
 11
-141.2229965156795
 21
39.72366690781433
 31
0.0
  0
LINE
  5
204
  8
0
  6
CONTINUOUS
 62
     7
 10
-139.2229965156795
 20
39.72366690781433
 30
0.0
 11
-139.2229965156795
 21
30.72366690781433
 31
0.0
  0
LINE
  5
205
  8
0
  6
CONTINUOUS
 62
     7
 10
-136.2229965156795
 20
39.72366690781433
 30
0.0
 11
-134.2229965156795
 21
39.72366690781433
 31
0.0
  0
LINE
  5
206
  8
0
  6
CONTINUOUS
 62
     7
 10
-134.2229965156795
 20
30.72366690781433
 30
0.0
 11
-136.2229965156795
 21
30.72366690781433
 31
0.0
  0
LINE
  5
207
  8
0
  6
CONTINUOUS
 62
     7
 10
-136.2229965156795
 20
30.72366690781433
 30
0.0
 11
-136.2229965156795
 21
39.72366690781433
 31
0.0
  0
LINE
  5
208
  8
0
  6
CONTINUOUS
 62
     7
 10
-134.2229965156795
 20
39.72366690781433
 30
0.0
 11
-134.2229965156795
 21
30.72366690781433
 31
0.0
  0
LINE
  5
209
  8
0
  6
CONTINUOUS
 62
     7
 10
-131.2229965156795
 20
39.72366690781433
 30
0.0
 11
-129.2229965156795
 21
39.72366690781433
 31
0.0
  0
LINE
  5
20A
  8
0
  6
CONTINUOUS
 62
     7
 10
-129.2229965156795
 20
30.72366690781434
 30
0.0
 11
-131.2229965156795
 21
30.72366690781434
 31
0.0
  0
LINE
  5
20B
  8
0
  6
CONTINUOUS
 62
     7
 10
-131.2229965156795
 20
30.72366690781434
 30
0.0
 11
-131.2229965156795
 21
39.72366690781433
 31
0.0
  0
LINE
  5
20C
  8
0
  6
CONTINUOUS
 62
     7
 10
-129.2229965156795
 20
39.72366690781433
 30
0.0
 11
-129.2229965156795
 21
30.72366690781434
 31
0.0
  0
LINE
  5
20D
  8
0
  6
CONTINUOUS
 62
     7
 10
-126.2229965156795
 20
39.72366690781433
 30
0.0
 11
-124.2229965156795
 21
39.72366690781433
 31
0.0
  0
LINE
  5
20E
  8
0
  6
CONTINUOUS
 62
     7
 10
-124.2229965156795
 20
30.72366690781434
 30
0.0
 11
-126.2229965156795
 21
30.72366690781434
 31
0.0
  0
LINE
  5
20F
  8
0
  6
CONTINUOUS
 62
     7
 10
-126.2229965156795
 20
30.72366690781434
 30
0.0
 11
-126.2229965156795
 21
39.72366690781433
 31
0.0
  0
LINE
  5
210
  8
0
  6
CONTINUOUS
 62
     7
 10
-124.2229965156795
 20
39.72366690781433
 30
0.0
 11
-124.2229965156795
 21
30.72366690781434
 31
0.0
  0
LINE
  5
211
  8
0
  6
CONTINUOUS
 62
     7
 10
-121.2229965156795
 20
39.72366690781434
 30
0.0
 11
-119.2229965156795
 21
39.72366690781434
 31
0.0
  0
LINE
  5
212
  8
0
  6
CONTINUOUS
 62
     7
 10
-119.2229965156795
 20
30.72366690781434
 30
0.0
 11
-121.2229965156795
 21
30.72366690781434
 31
0.0
  0
LINE
  5
213
  8
0
  6
CONTINUOUS
 62
     7
 10
-121.2229965156795
 20
30.72366690781434
 30
0.0
 11
-121.2229965156795
 21
39.72366690781434
 31
0.0
  0
LINE
  5
214
  8
0
  6
CONTINUOUS
 62
     7
 10
-119.2229965156795
 20
39.72366690781434
 30
0.0
 11
-119.2229965156795
 21
30.72366690781434
 31
0.0
  0
LINE
  5
215
  8
0
  6
CONTINUOUS
 62
     7
 10
-121.2229965156795
 20
33.52366690781434
 30
0.0
 11
-119.2229965156795
 21
33.52366690781434
 31
0.0
  0
LINE
  5
216
  8
0
  6
CONTINUOUS
 62
     7
 10
-126.2229965156795
 20
33.52366690781434
 30
0.0
 11
-124.2229965156795
 21
33.52366690781434
 31
0.0
  0
LINE
  5
217
  8
0
  6
CONTINUOUS
 62
     7
 10
-131.2229965156795
 20
33.52366690781434
 30
0.0
 11
-129.2229965156795
 21
33.52366690781434
 31
0.0
  0
LINE
  5
218
  8
0
  6
CONTINUOUS
 62
     7
 10
-136.2229965156795
 20
33.52366690781434
 30
0.0
 11
-134.2229965156795
 21
33.52366690781434
 31
0.0
  0
LINE
  5
219
  8
0
  6
CONTINUOUS
 62
     7
 10
-141.2229965156795
 20
33.52366690781434
 30
0.0
 11
-139.2229965156795
 21
33.52366690781434
 31
0.0
  0
LINE
  5
21A
  8
0
  6
CONTINUOUS
 62
     7
 10
-146.2229965156795
 20
33.52366690781434
 30
0.0
 11
-144.2229965156795
 21
33.52366690781434
 31
0.0
  0
LINE
  5
21B
  8
0
  6
CONTINUOUS
 62
     7
 10
-151.2229965156795
 20
33.52366690781433
 30
0.0
 11
-149.2229965156795
 21
33.52366690781433
 31
0.0
  0
LINE
  5
21C
  8
0
  6
CONTINUOUS
 62
     7
 10
-156.2229965156795
 20
33.52366690781433
 30
0.0
 11
-154.2229965156795
 21
33.52366690781433
 31
0.0
  0
LINE
  5
21D
  8
0
  6
CONTINUOUS
 62
     7
 10
-161.2229965156795
 20
33.52366690781433
 30
0.0
 11
-159.2229965156795
 21
33.52366690781433
 31
0.0
  0
LINE
  5
21E
  8
0
  6
CONTINUOUS
 62
     7
 10
-171.2229965156795
 20
33.52366690781433
 30
0.0
 11
-169.2229965156795
 21
33.52366690781433
 31
0.0
  0
LINE
  5
21F
  8
0
  6
CONTINUOUS
 62
     7
 10
-166.2229965156795
 20
33.52366690781433
 30
0.0
 11
-164.2229965156795
 21
33.52366690781433
 31
0.0
  0
LINE
  5
220
  8
0
  6
CONTINUOUS
 62
     7
 10
-121.2229965156795
 20
36.92366690781434
 30
0.0
 11
-119.2229965156795
 21
36.92366690781434
 31
0.0
  0
LINE
  5
221
  8
0
  6
CONTINUOUS
 62
     7
 10
-126.2229965156795
 20
36.92366690781434
 30
0.0
 11
-124.2229965156795
 21
36.92366690781434
 31
0.0
  0
LINE
  5
222
  8
0
  6
CONTINUOUS
 62
     7
 10
-131.2229965156795
 20
36.92366690781434
 30
0.0
 11
-129.2229965156795
 21
36.92366690781434
 31
0.0
  0
LINE
  5
223
  8
0
  6
CONTINUOUS
 62
     7
 10
-136.2229965156795
 20
36.92366690781434
 30
0.0
 11
-134.2229965156795
 21
36.92366690781434
 31
0.0
  0
LINE
  5
224
  8
0
  6
CONTINUOUS
 62
     7
 10
-141.2229965156795
 20
36.92366690781434
 30
0.0
 11
-139.2229965156795
 21
36.92366690781434
 31
0.0
  0
LINE
  5
225
  8
0
  6
CONTINUOUS
 62
     7
 10
-146.2229965156795
 20
36.92366690781434
 30
0.0
 11
-144.2229965156795
 21
36.92366690781434
 31
0.0
  0
LINE
  5
226
  8
0
  6
CONTINUOUS
 62
     7
 10
-151.2229965156795
 20
36.92366690781435
 30
0.0
 11
-149.2229965156795
 21
36.92366690781435
 31
0.0
  0
LINE
  5
227
  8
0
  6
CONTINUOUS
 62
     7
 10
-156.2229965156795
 20
36.92366690781435
 30
0.0
 11
-154.2229965156795
 21
36.92366690781435
 31
0.0
  0
LINE
  5
228
  8
0
  6
CONTINUOUS
 62
     7
 10
-161.2229965156795
 20
36.92366690781435
 30
0.0
 11
-159.2229965156795
 21
36.92366690781435
 31
0.0
  0
LINE
  5
229
  8
0
  6
CONTINUOUS
 62
     7
 10
-171.2229965156795
 20
36.92366690781435
 30
0.0
 11
-169.2229965156795
 21
36.92366690781435
 31
0.0
  0
LINE
  5
22A
  8
0
  6
CONTINUOUS
 62
     7
 10
-166.2229965156795
 20
36.92366690781435
 30
0.0
 11
-164.2229965156795
 21
36.92366690781435
 31
0.0
  0
LINE
  5
22B
  8
0
  6
CONTINUOUS
 62
     7
 10
-143.7229965156795
 20
-6.276333092185666
 30
0.0
 11
-122.2229965156795
 21
-6.276333092185666
 31
0.0
  0
LINE
  5
22C
  8
0
  6
CONTINUOUS
 62
     7
 10
-168.2229965156795
 20
-6.276333092185666
 30
0.0
 11
-146.7229965156795
 21
-6.276333092185666
 31
0.0
  0
ARC
  5
22D
  8
0
  6
CONTINUOUS
 62
     7
 10
-145.2229965156795
 20
-6.276333092185666
 30
0.0
 40
1.5
 50
0.0
 51
180.0
  0
LINE
  5
22E
  8
0
  6
CENTER
 62
   222
 10
-145.2229965156795
 20
60.9865661454733
 30
0.0
 11
-145.2229965156795
 21
-40.53923232984464
 31
0.0
  0
LINE
  5
22F
  8
0
  6
CENTER
 62
   222
 10
-191.9858957533384
 20
10.22366690781433
 30
0.0
 11
-98.4600972780205
 21
10.22366690781433
 31
0.0
  0
TEXT
  5
231
  8
LAYER0240
 62
     7
 10
187.2909407665506
 20
-139.4268292682927
 30
0.0
 40
6.0
  1
000
 41
0.7689423076923076
  7
DCSTYLE0
 72
     5
 11
196.2909407665506
 21
-139.4268292682927
 31
0.0
  0
LINE
  5
232
  8
0
  6
DIVIDE
 62
     4
 10
178.4610924980969
 20
-29.77633155944034
 30
0.0
 11
155.4610924980969
 21
-29.77633155944034
 31
0.0
  0
LINE
  5
233
  8
0
  6
DIVIDE
 62
     4
 10
155.4610924980969
 20
-29.77633155944034
 30
0.0
 11
155.4610924980969
 21
-49.77633155944034
 31
0.0
  0
LINE
  5
234
  8
0
  6
DIVIDE
 62
     4
 10
178.4610924980969
 20
-49.77633155944034
 30
0.0
 11
178.4610924980969
 21
-29.77633155944034
 31
0.0
  0
LINE
  5
235
  8
0
  6
DIVIDE
 62
     4
 10
155.4610924980969
 20
-49.77633155944034
 30
0.0
 11
178.4610924980969
 21
-49.77633155944034
 31
0.0
  0
LINE
  5
236
  8
0
  6
DIVIDE
 62
     4
 10
176.2610910944075
 20
-21.07633228661699
 30
0.0
 11
176.2610910944075
 21
-29.77633155944034
 31
0.0
  0
LINE
  5
237
  8
0
  6
DIVIDE
 62
     4
 10
157.6610920391411
 20
-29.77633155944034
 30
0.0
 11
157.6610920391411
 21
-21.07633228661699
 31
0.0
  0
LINE
  5
238
  8
0
  6
DIVIDE
 62
     4
 10
170.7922509479536
 20
-29.77633155944066
 30
0.0
 11
168.4610931686491
 21
-21.07633228661698
 31
0.0
  0
LINE
  5
239
  8
0
  6
DIVIDE
 62
     4
 10
163.1299340482402
 20
-29.77633155944031
 30
0.0
 11
165.4610918275446
 21
-21.07633228661698
 31
0.0
  0
LINE
  5
23A
  8
0
  6
DIVIDE
 62
     4
 10
106.2610930751443
 20
-49.77633155944034
 30
0.0
 11
129.2610930751443
 21
-49.77633155944034
 31
0.0
  0
LINE
  5
23B
  8
0
  6
DIVIDE
 62
     4
 10
106.2610930751443
 20
-29.77633155944034
 30
0.0
 11
106.2610930751443
 21
-49.77633155944034
 31
0.0
  0
LINE
  5
23C
  8
0
  6
DIVIDE
 62
     4
 10
129.2610930751443
 20
-49.77633155944034
 30
0.0
 11
129.2610930751443
 21
-29.77633155944034
 31
0.0
  0
LINE
  5
23D
  8
0
  6
DIVIDE
 62
     4
 10
129.2610930751443
 20
-29.77633155944034
 30
0.0
 11
106.2610930751443
 21
-29.77633155944034
 31
0.0
  0
LINE
  5
23E
  8
0
  6
DIVIDE
 62
     4
 10
121.592251525001
 20
-29.77633155944066
 30
0.0
 11
119.2610937456966
 21
-21.07633228661698
 31
0.0
  0
LINE
  5
23F
  8
0
  6
DIVIDE
 62
     4
 10
127.0610916714549
 20
-21.07633228661699
 30
0.0
 11
127.0610916714549
 21
-29.77633155944034
 31
0.0
  0
LINE
  5
240
  8
0
  6
DIVIDE
 62
     4
 10
113.9299346252877
 20
-29.77633155944031
 30
0.0
 11
116.261092404592
 21
-21.07633228661698
 31
0.0
  0
LINE
  5
241
  8
0
  6
DIVIDE
 62
     4
 10
108.4610926161885
 20
-29.77633155944034
 30
0.0
 11
108.4610926161885
 21
-21.07633228661699
 31
0.0
  0
VIEWPORT
  5
B4
 67
     1
  8
0
 10
-1.192477493393937
 20
-39.22013156140969
 30
0.0
 40
1144.760509559667
 41
601.240186241298
 68
     1
 69
     1
1001
ACAD
1000
MVIEW
1002
{
1070
    16
1010
0.0
1020
0.0
1030
0.0
1010
0.0
1020
0.0
1030
1.0
1040
0.0
1040
601.240186241298
1040
-1.192477493393937
1040
-39.22013156140969
1040
50.0
1040
0.0
1040
0.0
1070
     0
1070
   100
1070
     0
1070
     3
1070
     0
1070
     0
1070
     0
1070
     0
1040
0.0
1040
0.0
1040
0.0
1040
0.5
1040
0.5
1040
0.0
1040
0.0
1070
     0
1002
{
1002
}
1002
}
  0
ENDSEC
  0
EOF
