  0
SECTION
  2
HEADER
  9
$ACADVER
  1
AC1014
  9
$ACADMAINTVER
 70
       0
  9
$DWGCODEPAGE
  3
ANSI_932
  9
$INSBASE
 10
0.0
 20
0.0
 30
0.0
  9
$EXTMIN
 10
-132.138184
 20
-106.82142241
 30
0.0
  9
$EXTMAX
 10
132.138184
 20
51.53960189
 30
0.0
  9
$LIMMIN
 10
-140.3968205
 20
-111.77020442
  9
$LIMMAX
 10
140.3968205
 20
56.4883839
  9
$ORTHOMODE
 70
       0
  9
$REGENMODE
 70
       1
  9
$FILLMODE
 70
       1
  9
$QTEXTMODE
 70
       0
  9
$MIRRTEXT
 70
       1
  9
$DRAGMODE
 70
       2
  9
$LTSCALE
 40
1.0
  9
$OSMODE
 70
       0
  9
$ATTMODE
 70
       1
  9
$TEXTSIZE
 40
0.2
  9
$TRACEWID
 40
0.05
  9
$TEXTSTYLE
  7
STANDARD
  9
$CLAYER
  8
0
  9
$CELTYPE
  6
CONTINUOUS
  9
$CECOLOR
 62
     256
  9
$CELTSCALE
 40
1.0
  9
$DELOBJ
 70
       1
  9
$DISPSILH
 70
       0
  9
$DIMSCALE
 40
1.0
  9
$DIMASZ
 40
0.18
  9
$DIMEXO
 40
0.0625
  9
$DIMDLI
 40
0.38
  9
$DIMRND
 40
0.0
  9
$DIMDLE
 40
0.0
  9
$DIMEXE
 40
0.18
  9
$DIMTP
 40
0.0
  9
$DIMTM
 40
0.0
  9
$DIMTXT
 40
0.18
  9
$DIMCEN
 40
0.09
  9
$DIMTSZ
 40
0.0
  9
$DIMTOL
 70
       0
  9
$DIMLIM
 70
       0
  9
$DIMTIH
 70
       1
  9
$DIMTOH
 70
       1
  9
$DIMSE1
 70
       0
  9
$DIMSE2
 70
       0
  9
$DIMTAD
 70
       0
  9
$DIMZIN
 70
       0
  9
$DIMBLK
  1

  9
$DIMASO
 70
       1
  9
$DIMSHO
 70
       1
  9
$DIMPOST
  1

  9
$DIMAPOST
  1

  9
$DIMALT
 70
       0
  9
$DIMALTD
 70
       2
  9
$DIMALTF
 40
25.4
  9
$DIMLFAC
 40
1.0
  9
$DIMTOFL
 70
       0
  9
$DIMTVP
 40
0.0
  9
$DIMTIX
 70
       0
  9
$DIMSOXD
 70
       0
  9
$DIMSAH
 70
       0
  9
$DIMBLK1
  1

  9
$DIMBLK2
  1

  9
$DIMSTYLE
  2
STANDARD
  9
$DIMCLRD
 70
       0
  9
$DIMCLRE
 70
       0
  9
$DIMCLRT
 70
       0
  9
$DIMTFAC
 40
1.0
  9
$DIMGAP
 40
0.09
  9
$DIMJUST
 70
       0
  9
$DIMSD1
 70
       0
  9
$DIMSD2
 70
       0
  9
$DIMTOLJ
 70
       1
  9
$DIMTZIN
 70
       0
  9
$DIMALTZ
 70
       0
  9
$DIMALTTZ
 70
       0
  9
$DIMFIT
 70
       3
  9
$DIMUPT
 70
       0
  9
$DIMUNIT
 70
       2
  9
$DIMDEC
 70
       4
  9
$DIMTDEC
 70
       4
  9
$DIMALTU
 70
       2
  9
$DIMALTTD
 70
       2
  9
$DIMTXSTY
  7
STANDARD
  9
$DIMAUNIT
 70
       0
  9
$LUNITS
 70
       2
  9
$LUPREC
 70
       4
  9
$SKETCHINC
 40
0.1
  9
$FILLETRAD
 40
0.0
  9
$AUNITS
 70
       0
  9
$AUPREC
 70
       0
  9
$MENU
  1
acad
  9
$ELEVATION
 40
0.0
  9
$PELEVATION
 40
0.0
  9
$THICKNESS
 40
0.0
  9
$LIMCHECK
 70
       0
  9
$BLIPMODE
 70
       1
  9
$CHAMFERA
 40
0.0
  9
$CHAMFERB
 40
0.0
  9
$CHAMFERC
 40
0.0
  9
$CHAMFERD
 40
0.0
  9
$SKPOLY
 70
       0
  9
$TDCREATE
 40
0.000000000
  9
$TDUPDATE
 40
0.000000000
  9
$TDINDWG
 40
0.0000000000
  9
$TDUSRTIMER
 40
0.0000000000
  9
$USRTIMER
 70
       1
  9
$ANGBASE
 50
0.0
  9
$ANGDIR
 70
       0
  9
$PDMODE
 70
       0
  9
$PDSIZE
 40
1.0
  9
$PLINEWID
 40
0.0
  9
$COORDS
 70
       1
  9
$SPLFRAME
 70
       0
  9
$SPLINETYPE
 70
       6
  9
$SPLINESEGS
 70
       8
  9
$ATTDIA
 70
       0
  9
$ATTREQ
 70
       1
  9
$HANDLING
 70
       1
  9
$HANDSEED
  5
247
  9
$SURFTAB1
 70
       6
  9
$SURFTAB2
 70
       6
  9
$SURFTYPE
 70
       6
  9
$SURFU
 70
       6
  9
$SURFV
 70
       6
  9
$UCSNAME
  2

  9
$UCSORG
 10
0.0
 20
0.0
 30
0.0
  9
$UCSXDIR
 10
1.0
 20
0.0
 30
0.0
  9
$UCSYDIR
 10
0.0
 20
1.0
 30
0.0
  9
$PUCSNAME
  2

  9
$PUCSORG
 10
0.0
 20
0.0
 30
0.0
  9
$PUCSXDIR
 10
1.0
 20
0.0
 30
0.0
  9
$PUCSYDIR
 10
0.0
 20
1.0
 30
0.0
  9
$USERI1
 70
       0
  9
$USERI2
 70
       0
  9
$USERI3
 70
       0
  9
$USERI4
 70
       0
  9
$USERI5
 70
       0
  9
$USERR1
 40
0.0
  9
$USERR2
 40
0.0
  9
$USERR3
 40
0.0
  9
$USERR4
 40
0.0
  9
$USERR5
 40
0.0
  9
$WORLDVIEW
 70
       1
  9
$SHADEDGE
 70
       3
  9
$SHADEDIF
 70
      70
  9
$TILEMODE
 70
       1
  9
$MAXACTVP
 70
      16
  9
$PINSBASE
 10
0.0
 20
0.0
 30
0.0
  9
$PLIMCHECK
 70
       0
  9
$PEXTMIN
 10
1.00000000E+20
 20
1.00000000E+20
 30
1.00000000E+20
  9
$PEXTMAX
 10
-1.00000000E+20
 20
-1.00000000E+20
 30
-1.00000000E+20
  9
$PLIMMIN
 10
0.0
 20
0.0
  9
$PLIMMAX
 10
12.0
 20
9.0
  9
$UNITMODE
 70
       0
  9
$VISRETAIN
 70
       0
  9
$PLINEGEN
 70
       1
  9
$PSLTSCALE
 70
       0
  9
$TREEDEPTH
 70
    3020
  9
$PICKSTYLE
 70
       1
  9
$CMLSTYLE
  2
STANDARD
  9
$CMLJUST
 70
       0
  9
$CMLSCALE
 40
1.0
  9
$PROXYGRAPHICS
 70
       0
  9
$MEASUREMENT
 70
       0
  0
ENDSEC
  0
SECTION
  2
CLASSES
  0
CLASS
  1
LWPOLYLINE
  2
AcDbPolyline
  3
"AutoCAD"
 90
        0
280
       0
281
       1
  0
CLASS
  1
IMAGE
  2
AcDbRasterImage
  3
ISM
 90
      127
280
       0
281
       1
  0
CLASS
  1
OLE2FRAME
  2
AcDbOle2Frame
  3
""
 90
        0
280
       0
281
       1
  0
CLASS
  1
HATCH
  2
AcDbHatch
  3
"ACAD_SEDONA"
 90
        0
280
       0
281
       1
  0
CLASS
  1
DICTIONARYVAR
  2
AcDbDictionaryVar
  3
"AutoCAD"
 90
        0
280
       0
281
       0
  0
CLASS
  1
RASTERVARIABLES
  2
AcDbRasterVariables
  3
ISM
 90
        0
280
       0
281
       0
  0
CLASS
  1
IMAGEDEF
  2
AcDbRasterImageDef
  3
ISM
 90
        0
280
       0
281
       0
  0
CLASS
  1
IMAGEDEF_REACTOR
  2
AcDbRasterImageDefReactor
  3
ISM
 90
        1
280
       0
281
       0
  0
CLASS
  1
IDBUFFER
  2
AcDbIdBuffer
  3
"Acad"
 90
        0
280
       0
281
       0
  0
CLASS
  1
SPATIAL_FILTER
  2
AcDbSpatialFilter
  3
"Acad"
 90
        0
280
       0
281
       0
  0
CLASS
  1
XRECORD
  2
AcDbXrecord
  3
"<Built In>"
 90
        0
280
       0
281
       0
  0
CLASS
  1
SORTENTSTABLE
  2
AcDbSortentsTable
  3
"AutoCAD"
 90
        0
280
       0
281
       0
  0
CLASS
  1
LAYER_INDEX
  2
AcDbLayerIndex
  3
"Acad"
 90
        0
280
       0
281
       0
  0
CLASS
  1
SPATIAL_INDEX
  2
AcDbSpatialIndex
  3
"Acad"
 90
        0
280
       0
281
       0
  0
CLASS
  1
OBJECT_PTR
  2
CAseDLPNTableRecord
  3
"ASE-LPNTableRecord"
 90
        1
280
       0
281
       0
  0
CLASS
  1
LAYOUT
  2
AcDbLayout
  3
"AutoCAD 2000"
 90
        1
280
       0
281
       0
  0
CLASS
  1
PLOTSETTINGS
  2
AcDbPlotSettings
  3
"AutoCAD 2000"
 90
        1
280
       0
281
       0
  0
CLASS
  1
ACDBDICTIONARYWDFLT
  2
AcDbDictionaryWithDefault
  3
"AutoCAD 2000"
 90
        1
280
       0
281
       0
  0
CLASS
  1
ACDBPLACEHOLDER
  2
AcDbPlaceHolder
  3
"AutoCAD 2000"
 90
        1
280
       0
281
       0
  0
CLASS
  1
VBA_PROJECT
  2
AcDbVbaProject
  3
"acadvba"
 90
        1
280
       0
281
       0
  0
CLASS
  1
WIPEOUT
  2
AcDbWipeout
  3
WipeOut|AutoCAD Express Tool|expresstools@autodesk.com
 90
      127
280
       0
281
       1
  0
CLASS
  1
WIPEOUTVARIABLES
  2
AcDbWipeoutVariables
  3
WipeOut|AutoCAD Express Tool|expresstools@autodesk.com
 90
        0
280
       0
281
       0
  0
CLASS
  1
RTEXT
  2
RText
  3
RText|AutoCAD Express Tool|expresstools@autodesk.com
 90
        0
280
       0
281
       1
  0
CLASS
  1
ARCALIGNEDTEXT
  2
AcDbArcAlignedText
  3
ATEXT|AutoCAD Express Tool|expresstools@autodesk.com
 90
        0
280
       0
281
       1
  0
ENDSEC
  0
SECTION
  2
TABLES
  0
TABLE
  2
VPORT
  5
7
100
AcDbSymbolTable
 70
       1
  0
VPORT
  5
15
100
AcDbSymbolTableRecord
100
AcDbViewportTableRecord
  2
*ACTIVE
 70
       0
 10
0.0
 20
0.0
 11
1.0
 21
1.0
 12
0.0
 22
-27.64091026
 13
0.0
 23
0.0
 14
1.0
 24
1.0
 15
0.0
 25
0.0
 16
0.0
 26
0.0
 36
1.0
 17
0.0
 27
0.0
 37
0.0
 40
168.25858833
 41
1.66882204
 42
50.0
 43
0.0
 44
0.0
 50
0.0
 51
0.0
 71
       0
 72
     100
 73
       1
 74
       1
 75
       0
 76
       0
 77
       0
 78
       0
  0
ENDTAB
  0
TABLE
  2
LTYPE
  5
4
100
AcDbSymbolTable
 70
      30
  0
LTYPE
  5
11
100
AcDbSymbolTableRecord
100
AcDbLinetypeTableRecord
  2
BYBLOCK
 70
      64
  3

 72
      65
 73
       0
 40
0.0
  0
LTYPE
  5
12
100
AcDbSymbolTableRecord
100
AcDbLinetypeTableRecord
  2
BYLAYER
 70
      64
  3

 72
      65
 73
       0
 40
0.0
  0
LTYPE
  5
13
100
AcDbSymbolTableRecord
100
AcDbLinetypeTableRecord
  2
CONTINUOUS
 70
      64
  3
Solid line
 72
      65
 73
       0
 40
0.0
  0
LTYPE
  5
1D
100
AcDbSymbolTableRecord
100
AcDbLinetypeTableRecord
  2
HIDDENX2
 70
      64
  3
CADPAC LINETYPE
 72
      65
 73
       2
 40
11.88
 49
8.91
 74
       0
 49
-2.97
 74
       0
  0
LTYPE
  5
1E
100
AcDbSymbolTableRecord
100
AcDbLinetypeTableRecord
  2
HIDDEN
 70
      64
  3
CADPAC LINETYPE
 72
      65
 73
       2
 40
8.91
 49
5.94
 74
       0
 49
-2.97
 74
       0
  0
LTYPE
  5
1F
100
AcDbSymbolTableRecord
100
AcDbLinetypeTableRecord
  2
HIDDEN2
 70
      64
  3
CADPAC LINETYPE
 72
      65
 73
       2
 40
7.425
 49
4.455
 74
       0
 49
-2.97
 74
       0
  0
LTYPE
  5
20
100
AcDbSymbolTableRecord
100
AcDbLinetypeTableRecord
  2
DASHED
 70
      64
  3
CADPAC LINETYPE
 72
      65
 73
       2
 40
8.91
 49
5.94
 74
       0
 49
-2.97
 74
       0
  0
LTYPE
  5
21
100
AcDbSymbolTableRecord
100
AcDbLinetypeTableRecord
  2
DASHED2
 70
      64
  3
CADPAC LINETYPE
 72
      65
 73
       2
 40
6.6825
 49
4.455
 74
       0
 49
-2.2275
 74
       0
  0
LTYPE
  5
22
100
AcDbSymbolTableRecord
100
AcDbLinetypeTableRecord
  2
DASHEDX2
 70
      64
  3
CADPAC LINETYPE
 72
      65
 73
       2
 40
13.365
 49
8.91
 74
       0
 49
-4.455
 74
       0
  0
LTYPE
  5
23
100
AcDbSymbolTableRecord
100
AcDbLinetypeTableRecord
  2
DOTX2
 70
      64
  3
CADPAC LINETYPE
 72
      65
 73
       2
 40
3.7125
 49
0.0
 74
       0
 49
-3.7125
 74
       0
  0
LTYPE
  5
24
100
AcDbSymbolTableRecord
100
AcDbLinetypeTableRecord
  2
DOT
 70
      64
  3
CADPAC LINETYPE
 72
      65
 73
       2
 40
2.97
 49
0.0
 74
       0
 49
-2.97
 74
       0
  0
LTYPE
  5
25
100
AcDbSymbolTableRecord
100
AcDbLinetypeTableRecord
  2
DOT2
 70
      64
  3
CADPAC LINETYPE
 72
      65
 73
       2
 40
2.2275
 49
0.0
 74
       0
 49
-2.2275
 74
       0
  0
LTYPE
  5
26
100
AcDbSymbolTableRecord
100
AcDbLinetypeTableRecord
  2
CENTERX2
 70
      64
  3
CADPAC LINETYPE
 72
      65
 73
       4
 40
17.82
 49
7.425
 74
       0
 49
-3.7125
 74
       0
 49
2.97
 74
       0
 49
-3.7125
 74
       0
  0
LTYPE
  5
27
100
AcDbSymbolTableRecord
100
AcDbLinetypeTableRecord
  2
CENTER
 70
      64
  3
CADPAC LINETYPE
 72
      65
 73
       4
 40
13.662
 49
5.94
 74
       0
 49
-2.97
 74
       0
 49
1.782
 74
       0
 49
-2.97
 74
       0
  0
LTYPE
  5
28
100
AcDbSymbolTableRecord
100
AcDbLinetypeTableRecord
  2
CENTER2
 70
      64
  3
CADPAC LINETYPE
 72
      65
 73
       4
 40
9.504
 49
4.455
 74
       0
 49
-2.2275
 74
       0
 49
0.594
 74
       0
 49
-2.2275
 74
       0
  0
LTYPE
  5
29
100
AcDbSymbolTableRecord
100
AcDbLinetypeTableRecord
  2
DASHDOTX2
 70
      64
  3
CADPAC LINETYPE
 72
      65
 73
       4
 40
14.85
 49
7.425
 74
       0
 49
-3.7125
 74
       0
 49
0.0
 74
       0
 49
-3.7125
 74
       0
  0
LTYPE
  5
2A
100
AcDbSymbolTableRecord
100
AcDbLinetypeTableRecord
  2
DASHDOT
 70
      64
  3
CADPAC LINETYPE
 72
      65
 73
       4
 40
11.88
 49
5.94
 74
       0
 49
-2.97
 74
       0
 49
0.0
 74
       0
 49
-2.97
 74
       0
  0
LTYPE
  5
2B
100
AcDbSymbolTableRecord
100
AcDbLinetypeTableRecord
  2
DASHDOT2
 70
      64
  3
CADPAC LINETYPE
 72
      65
 73
       4
 40
8.91
 49
4.455
 74
       0
 49
-2.2275
 74
       0
 49
0.0
 74
       0
 49
-2.2275
 74
       0
  0
LTYPE
  5
2C
100
AcDbSymbolTableRecord
100
AcDbLinetypeTableRecord
  2
DIVIDEX2
 70
      64
  3
CADPAC LINETYPE
 72
      65
 73
       6
 40
18.5625
 49
7.425
 74
       0
 49
-3.7125
 74
       0
 49
0.0
 74
       0
 49
-3.7125
 74
       0
 49
0.0
 74
       0
 49
-3.7125
 74
       0
  0
LTYPE
  5
2D
100
AcDbSymbolTableRecord
100
AcDbLinetypeTableRecord
  2
DIVIDE
 70
      64
  3
CADPAC LINETYPE
 72
      65
 73
       6
 40
14.85
 49
5.94
 74
       0
 49
-2.97
 74
       0
 49
0.0
 74
       0
 49
-2.97
 74
       0
 49
0.0
 74
       0
 49
-2.97
 74
       0
  0
LTYPE
  5
2E
100
AcDbSymbolTableRecord
100
AcDbLinetypeTableRecord
  2
DIVIDE2
 70
      64
  3
CADPAC LINETYPE
 72
      65
 73
       6
 40
11.1375
 49
4.455
 74
       0
 49
-2.2275
 74
       0
 49
0.0
 74
       0
 49
-2.2275
 74
       0
 49
0.0
 74
       0
 49
-2.2275
 74
       0
  0
LTYPE
  5
2F
100
AcDbSymbolTableRecord
100
AcDbLinetypeTableRecord
  2
BORDERX2
 70
      64
  3
CADPAC LINETYPE
 72
      65
 73
       6
 40
25.9875
 49
7.425
 74
       0
 49
-3.7125
 74
       0
 49
7.425
 74
       0
 49
-3.7125
 74
       0
 49
0.0
 74
       0
 49
-3.7125
 74
       0
  0
LTYPE
  5
30
100
AcDbSymbolTableRecord
100
AcDbLinetypeTableRecord
  2
BORDER
 70
      64
  3
CADPAC LINETYPE
 72
      65
 73
       6
 40
20.79
 49
5.94
 74
       0
 49
-2.97
 74
       0
 49
5.94
 74
       0
 49
-2.97
 74
       0
 49
0.0
 74
       0
 49
-2.97
 74
       0
  0
LTYPE
  5
31
100
AcDbSymbolTableRecord
100
AcDbLinetypeTableRecord
  2
BORDER2
 70
      64
  3
CADPAC LINETYPE
 72
      65
 73
       6
 40
15.5925
 49
4.455
 74
       0
 49
-2.2275
 74
       0
 49
4.455
 74
       0
 49
-2.2275
 74
       0
 49
0.0
 74
       0
 49
-2.2275
 74
       0
  0
LTYPE
  5
32
100
AcDbSymbolTableRecord
100
AcDbLinetypeTableRecord
  2
PHANTOMX2
 70
      64
  3
CADPAC LINETYPE
 72
      65
 73
       6
 40
22.275
 49
7.425
 74
       0
 49
-2.97
 74
       0
 49
2.97
 74
       0
 49
-2.97
 74
       0
 49
2.97
 74
       0
 49
-2.97
 74
       0
  0
LTYPE
  5
33
100
AcDbSymbolTableRecord
100
AcDbLinetypeTableRecord
  2
PHANTOM
 70
      64
  3
CADPAC LINETYPE
 72
      65
 73
       6
 40
18.414
 49
5.94
 74
       0
 49
-2.97
 74
       0
 49
1.782
 74
       0
 49
-2.97
 74
       0
 49
1.782
 74
       0
 49
-2.97
 74
       0
  0
LTYPE
  5
34
100
AcDbSymbolTableRecord
100
AcDbLinetypeTableRecord
  2
PHANTOM2
 70
      64
  3
CADPAC LINETYPE
 72
      65
 73
       6
 40
15.741
 49
4.455
 74
       0
 49
-2.97
 74
       0
 49
1.188
 74
       0
 49
-2.97
 74
       0
 49
1.188
 74
       0
 49
-2.97
 74
       0
  0
LTYPE
  5
35
100
AcDbSymbolTableRecord
100
AcDbLinetypeTableRecord
  2
ACAD_ISO06W100
 70
      64
  3
CADPAC LINETYPE
 72
      65
 73
       8
 40
20.0475
 49
7.425
 74
       0
 49
-3.7125
 74
       0
 49
0.0
 74
       0
 49
-2.97
 74
       0
 49
0.0
 74
       0
 49
-2.97
 74
       0
 49
0.0
 74
       0
 49
-2.97
 74
       0
  0
LTYPE
  5
36
100
AcDbSymbolTableRecord
100
AcDbLinetypeTableRecord
  2
ACAD_ISO13W100
 70
      64
  3
CADPAC LINETYPE
 72
      65
 73
       8
 40
23.76
 49
5.94
 74
       0
 49
-2.97
 74
       0
 49
5.94
 74
       0
 49
-2.97
 74
       0
 49
0.0
 74
       0
 49
-2.97
 74
       0
 49
0.0
 74
       0
 49
-2.97
 74
       0
  0
LTYPE
  5
37
100
AcDbSymbolTableRecord
100
AcDbLinetypeTableRecord
  2
ACAD_ISO14W100
 70
      64
  3
CADPAC LINETYPE
 72
      65
 73
       8
 40
17.82
 49
5.94
 74
       0
 49
-2.97
 74
       0
 49
0.0
 74
       0
 49
-2.97
 74
       0
 49
0.0
 74
       0
 49
-2.97
 74
       0
 49
0.0
 74
       0
 49
-2.97
 74
       0
  0
ENDTAB
  0
TABLE
  2
LAYER
  5
2
100
AcDbSymbolTable
 70
       2
  0
LAYER
  5
14
100
AcDbSymbolTableRecord
100
AcDbLayerTableRecord
  2
0
 70
       0
 62
       7
  6
CONTINUOUS
  0
LAYER
  5
38
100
AcDbSymbolTableRecord
100
AcDbLayerTableRecord
  2
レイヤー_1
 70
       0
 62
       7
  6
CONTINUOUS
  0
ENDTAB
  0
TABLE
  2
STYLE
  5
3
100
AcDbSymbolTable
 70
       1
  0
STYLE
  5
17
100
AcDbSymbolTableRecord
100
AcDbTextStyleTableRecord
  2
STANDARD
 70
       0
 40
0.0
 41
0.8
 50
0.0
 71
       0
 42
5.0
  3
txt.shx
  4
bigfont.shx
  0
ENDTAB
  0
TABLE
  2
VIEW
  5
5
100
AcDbSymbolTable
 70
       1
  0
VIEW
  5
39
100
AcDbSymbolTableRecord
100
AcDbViewTableRecord
  2
QQQQ
 70
       0
 40
168.25858833
 10
0.0
 20
-27.64091026
 41
280.79364099
 11
0.0
 21
0.0
 31
1.0
 12
100.0
 22
100.0
 32
0.0
 42
50.0
 43
0.0
 44
0.0
 50
0.0
 71
       0
  0
ENDTAB
  0
TABLE
  2
UCS
  5
6
100
AcDbSymbolTable
 70
       0
  0
ENDTAB
  0
TABLE
  2
APPID
  5
8
100
AcDbSymbolTable
 70
       1
  0
APPID
  5
16
100
AcDbSymbolTableRecord
100
AcDbRegAppTableRecord
  2
ACAD
 70
       0
  0
ENDTAB
  0
TABLE
  2
DIMSTYLE
  5
9
100
AcDbSymbolTable
 70
       1
  0
DIMSTYLE
105
18
100
AcDbSymbolTableRecord
100
AcDbDimStyleTableRecord
  2
STANDARD
 70
       0
  3

  4

  5

  6

  7

 40
1.0
 41
0.18
 42
0.0625
 43
0.38
 44
0.18
 45
0.0
 46
0.0
 47
0.0
 48
0.0
 71
       0
 72
       0
 73
       1
 74
       1
 75
       0
 76
       0
 77
       0
 78
       0
140
0.18
141
0.09
142
0.0
143
25.4
144
1.0
145
0.0
146
1.0
147
0.09
170
       0
171
       2
172
       0
173
       0
174
       0
175
       0
176
       0
177
       0
178
       0
270
       2
271
       4
272
       4
273
       2
274
       2
275
       0
280
       0
281
       0
282
       0
283
       1
284
       0
285
       0
286
       0
287
       0
288
       0
340
17
  0
ENDTAB
  0
TABLE
  2
BLOCK_RECORD
  5
1
100
AcDbSymbolTable
 70
       0
  0
BLOCK_RECORD
  5
A
100
AcDbSymbolTableRecord
100
AcDbBlockTableRecord
  2
*MODEL_SPACE
  0
BLOCK_RECORD
  5
B
100
AcDbSymbolTableRecord
100
AcDbBlockTableRecord
  2
*PAPER_SPACE
  0
ENDTAB
  0
ENDSEC
  0
SECTION
  2
BLOCKS
  0
BLOCK
  5
D
100
AcDbEntity
  8
0
100
AcDbBlockBegin
  2
*MODEL_SPACE
 70
       0
 10
0.0
 20
0.0
 30
0.0
  3
*MODEL_SPACE
  1

  0
ENDBLK
  5
E
100
AcDbEntity
  8
0
100
AcDbBlockEnd
  0
BLOCK
  5
F
100
AcDbEntity
 67
       1
  8
0
100
AcDbBlockBegin
  2
*PAPER_SPACE
 70
       0
 10
0.0
 20
0.0
 30
0.0
  3
*PAPER_SPACE
  1

  0
ENDBLK
  5
10
100
AcDbEntity
 67
       1
  8
0
100
AcDbBlockEnd
  0
ENDSEC
  0
SECTION
  2
ENTITIES
  0
LINE
  5
3A
100
AcDbEntity
  8
レイヤー_1
  6
CONTINUOUS
 62
       3
100
AcDbLine
 10
100.84290362
 20
-28.53055826
 30
0.0
 11
100.84290362
 21
-28.53636958
 31
0.0
  0
LINE
  5
3B
100
AcDbEntity
  8
レイヤー_1
  6
CONTINUOUS
 62
       3
100
AcDbLine
 10
100.84290362
 20
-28.53636958
 30
0.0
 11
100.84290362
 21
-28.55277367
 31
0.0
  0
LINE
  5
3C
100
AcDbEntity
  8
レイヤー_1
  6
CONTINUOUS
 62
       3
100
AcDbLine
 10
100.84290362
 20
-28.55277367
 30
0.0
 11
100.84290362
 21
-28.57822575
 31
0.0
  0
LINE
  5
3D
100
AcDbEntity
  8
レイヤー_1
  6
CONTINUOUS
 62
       3
100
AcDbLine
 10
100.84290362
 20
-28.57822575
 30
0.0
 11
100.84290362
 21
-28.61118106
 31
0.0
  0
LINE
  5
3E
100
AcDbEntity
  8
レイヤー_1
  6
CONTINUOUS
 62
       3
100
AcDbLine
 10
100.84290362
 20
-28.61118106
 30
0.0
 11
100.84290362
 21
-28.6500948
 31
0.0
  0
LINE
  5
3F
100
AcDbEntity
  8
レイヤー_1
  6
CONTINUOUS
 62
       3
100
AcDbLine
 10
100.84290362
 20
-28.6500948
 30
0.0
 11
100.84290362
 21
-28.69342219
 31
0.0
  0
LINE
  5
40
100
AcDbEntity
  8
レイヤー_1
  6
CONTINUOUS
 62
       3
100
AcDbLine
 10
100.84290362
 20
-28.69342219
 30
0.0
 11
100.84290362
 21
-28.73961846
 31
0.0
  0
LINE
  5
41
100
AcDbEntity
  8
レイヤー_1
  6
CONTINUOUS
 62
       3
100
AcDbLine
 10
100.84290362
 20
-28.73961846
 30
0.0
 11
100.84290362
 21
-28.78713884
 31
0.0
  0
LINE
  5
42
100
AcDbEntity
  8
レイヤー_1
  6
CONTINUOUS
 62
       3
100
AcDbLine
 10
100.84290362
 20
-28.78713884
 30
0.0
 11
100.84290362
 21
-28.83443852
 31
0.0
  0
LINE
  5
43
100
AcDbEntity
  8
レイヤー_1
  6
CONTINUOUS
 62
       3
100
AcDbLine
 10
100.84290362
 20
-28.83443852
 30
0.0
 11
100.84290362
 21
-28.87997274
 31
0.0
  0
LINE
  5
44
100
AcDbEntity
  8
レイヤー_1
  6
CONTINUOUS
 62
       3
100
AcDbLine
 10
100.84290362
 20
-28.87997274
 30
0.0
 11
100.84290362
 21
-28.92219672
 31
0.0
  0
LINE
  5
45
100
AcDbEntity
  8
レイヤー_1
  6
CONTINUOUS
 62
       3
100
AcDbLine
 10
100.84290362
 20
-28.92219672
 30
0.0
 11
100.84290362
 21
-28.95956569
 31
0.0
  0
LINE
  5
46
100
AcDbEntity
  8
レイヤー_1
  6
CONTINUOUS
 62
       3
100
AcDbLine
 10
100.84290362
 20
-28.95956569
 30
0.0
 11
100.84290362
 21
-28.99053483
 31
0.0
  0
LINE
  5
47
100
AcDbEntity
  8
レイヤー_1
  6
CONTINUOUS
 62
       3
100
AcDbLine
 10
100.84290362
 20
-28.99053483
 30
0.0
 11
100.84290362
 21
-29.01355941
 31
0.0
  0
LINE
  5
48
100
AcDbEntity
  8
レイヤー_1
  6
CONTINUOUS
 62
       3
100
AcDbLine
 10
100.84290362
 20
-29.01355941
 30
0.0
 11
100.84290362
 21
-29.02709462
 31
0.0
  0
LINE
  5
49
100
AcDbEntity
  8
レイヤー_1
  6
CONTINUOUS
 62
       3
100
AcDbLine
 10
100.84415313
 20
-29.03009711
 30
0.0
 11
100.86711945
 21
-29.03009711
 31
0.0
  0
LINE
  5
4A
100
AcDbEntity
  8
レイヤー_1
  6
CONTINUOUS
 62
       3
100
AcDbLine
 10
100.86711945
 20
-29.03009711
 30
0.0
 11
100.91600337
 21
-29.03009711
 31
0.0
  0
LINE
  5
4B
100
AcDbEntity
  8
レイヤー_1
  6
CONTINUOUS
 62
       3
100
AcDbLine
 10
100.91600337
 20
-29.03009711
 30
0.0
 11
100.9868609
 21
-29.03009711
 31
0.0
  0
LINE
  5
4C
100
AcDbEntity
  8
レイヤー_1
  6
CONTINUOUS
 62
       3
100
AcDbLine
 10
100.9868609
 20
-29.03009711
 30
0.0
 11
101.07574808
 21
-29.03009711
 31
0.0
  0
LINE
  5
4D
100
AcDbEntity
  8
レイヤー_1
  6
CONTINUOUS
 62
       3
100
AcDbLine
 10
101.07574808
 20
-29.03009711
 30
0.0
 11
101.1787209
 21
-29.03009711
 31
0.0
  0
LINE
  5
4E
100
AcDbEntity
  8
レイヤー_1
  6
CONTINUOUS
 62
       3
100
AcDbLine
 10
101.1787209
 20
-29.03009711
 30
0.0
 11
101.29183539
 21
-29.03009711
 31
0.0
  0
LINE
  5
4F
100
AcDbEntity
  8
レイヤー_1
  6
CONTINUOUS
 62
       3
100
AcDbLine
 10
101.29183539
 20
-29.03009711
 30
0.0
 11
101.41114757
 21
-29.03009711
 31
0.0
  0
LINE
  5
50
100
AcDbEntity
  8
レイヤー_1
  6
CONTINUOUS
 62
       3
100
AcDbLine
 10
101.41114757
 20
-29.03009711
 30
0.0
 11
101.53271346
 21
-29.03009711
 31
0.0
  0
LINE
  5
51
100
AcDbEntity
  8
レイヤー_1
  6
CONTINUOUS
 62
       3
100
AcDbLine
 10
101.53271346
 20
-29.03009711
 30
0.0
 11
101.65258907
 21
-29.03009711
 31
0.0
  0
LINE
  5
52
100
AcDbEntity
  8
レイヤー_1
  6
CONTINUOUS
 62
       3
100
AcDbLine
 10
101.65258907
 20
-29.03009711
 30
0.0
 11
101.76683041
 21
-29.03009711
 31
0.0
  0
LINE
  5
53
100
AcDbEntity
  8
レイヤー_1
  6
CONTINUOUS
 62
       3
100
AcDbLine
 10
101.76683041
 20
-29.03009711
 30
0.0
 11
101.87149351
 21
-29.03009711
 31
0.0
  0
LINE
  5
54
100
AcDbEntity
  8
レイヤー_1
  6
CONTINUOUS
 62
       3
100
AcDbLine
 10
101.87149351
 20
-29.03009711
 30
0.0
 11
101.96263439
 21
-29.03009711
 31
0.0
  0
LINE
  5
55
100
AcDbEntity
  8
レイヤー_1
  6
CONTINUOUS
 62
       3
100
AcDbLine
 10
101.96263439
 20
-29.03009711
 30
0.0
 11
102.03630906
 21
-29.03009711
 31
0.0
  0
LINE
  5
56
100
AcDbEntity
  8
レイヤー_1
  6
CONTINUOUS
 62
       3
100
AcDbLine
 10
102.03630906
 20
-29.03009711
 30
0.0
 11
102.08857354
 21
-29.03009711
 31
0.0
  0
LINE
  5
57
100
AcDbEntity
  8
レイヤー_1
  6
CONTINUOUS
 62
       3
100
AcDbLine
 10
102.08857354
 20
-29.03009711
 30
0.0
 11
102.11548384
 21
-29.03009711
 31
0.0
  0
LINE
  5
58
100
AcDbEntity
  8
レイヤー_1
  6
CONTINUOUS
 62
       3
100
AcDbLine
 10
102.11548384
 20
-29.03009711
 30
0.0
 11
102.14684253
 21
-29.12232893
 31
0.0
  0
LINE
  5
59
100
AcDbEntity
  8
レイヤー_1
  6
CONTINUOUS
 62
       3
100
AcDbLine
 10
102.14684253
 20
-29.12232893
 30
0.0
 11
102.21380634
 21
-29.27914927
 31
0.0
  0
LINE
  5
5A
100
AcDbEntity
  8
レイヤー_1
  6
CONTINUOUS
 62
       3
100
AcDbLine
 10
102.21380634
 20
-29.27914927
 30
0.0
 11
102.30079962
 21
-29.42958942
 31
0.0
  0
LINE
  5
5B
100
AcDbEntity
  8
レイヤー_1
  6
CONTINUOUS
 62
       3
100
AcDbLine
 10
102.30079962
 20
-29.42958942
 30
0.0
 11
102.40598356
 21
-29.57301446
 31
0.0
  0
LINE
  5
5C
100
AcDbEntity
  8
レイヤー_1
  6
CONTINUOUS
 62
       3
100
AcDbLine
 10
102.40598356
 20
-29.57301446
 30
0.0
 11
102.52751934
 21
-29.70878941
 31
0.0
  0
LINE
  5
5D
100
AcDbEntity
  8
レイヤー_1
  6
CONTINUOUS
 62
       3
100
AcDbLine
 10
102.52751934
 20
-29.70878941
 30
0.0
 11
102.66356814
 21
-29.83627931
 31
0.0
  0
LINE
  5
5E
100
AcDbEntity
  8
レイヤー_1
  6
CONTINUOUS
 62
       3
100
AcDbLine
 10
102.66356814
 20
-29.83627931
 30
0.0
 11
102.81229113
 21
-29.95484922
 31
0.0
  0
LINE
  5
5F
100
AcDbEntity
  8
レイヤー_1
  6
CONTINUOUS
 62
       3
100
AcDbLine
 10
102.81229113
 20
-29.95484922
 30
0.0
 11
102.97184949
 21
-30.06386417
 31
0.0
  0
LINE
  5
60
100
AcDbEntity
  8
レイヤー_1
  6
CONTINUOUS
 62
       3
100
AcDbLine
 10
102.97184949
 20
-30.06386417
 30
0.0
 11
103.14040441
 21
-30.1626892
 31
0.0
  0
LINE
  5
61
100
AcDbEntity
  8
レイヤー_1
  6
CONTINUOUS
 62
       3
100
AcDbLine
 10
103.14040441
 20
-30.1626892
 30
0.0
 11
103.31611707
 21
-30.25068938
 31
0.0
  0
LINE
  5
62
100
AcDbEntity
  8
レイヤー_1
  6
CONTINUOUS
 62
       3
100
AcDbLine
 10
103.31611707
 20
-30.25068938
 30
0.0
 11
103.49714863
 21
-30.32722971
 31
0.0
  0
LINE
  5
63
100
AcDbEntity
  8
レイヤー_1
  6
CONTINUOUS
 62
       3
100
AcDbLine
 10
103.49714863
 20
-30.32722971
 30
0.0
 11
103.68166029
 21
-30.39167524
 31
0.0
  0
LINE
  5
64
100
AcDbEntity
  8
レイヤー_1
  6
CONTINUOUS
 62
       3
100
AcDbLine
 10
103.68166029
 20
-30.39167524
 30
0.0
 11
103.86781321
 21
-30.44339103
 31
0.0
  0
LINE
  5
65
100
AcDbEntity
  8
レイヤー_1
  6
CONTINUOUS
 62
       3
100
AcDbLine
 10
103.86781321
 20
-30.44339103
 30
0.0
 11
104.05376859
 21
-30.48174212
 31
0.0
  0
LINE
  5
66
100
AcDbEntity
  8
レイヤー_1
  6
CONTINUOUS
 62
       3
100
AcDbLine
 10
104.05376859
 20
-30.48174212
 30
0.0
 11
104.2376876
 21
-30.50609355
 31
0.0
  0
LINE
  5
67
100
AcDbEntity
  8
レイヤー_1
  6
CONTINUOUS
 62
       3
100
AcDbLine
 10
104.2376876
 20
-30.50609355
 30
0.0
 11
104.41773142
 21
-30.51581036
 31
0.0
  0
LINE
  5
68
100
AcDbEntity
  8
レイヤー_1
  6
CONTINUOUS
 62
       3
100
AcDbLine
 10
104.41773142
 20
-30.51581036
 30
0.0
 11
104.59645809
 21
-30.51039088
 31
0.0
  0
LINE
  5
69
100
AcDbEntity
  8
レイヤー_1
  6
CONTINUOUS
 62
       3
100
AcDbLine
 10
104.59645809
 20
-30.51039088
 30
0.0
 11
104.77947718
 21
-30.49015599
 31
0.0
  0
LINE
  5
6A
100
AcDbEntity
  8
レイヤー_1
  6
CONTINUOUS
 62
       3
100
AcDbLine
 10
104.77947718
 20
-30.49015599
 30
0.0
 11
104.96506882
 21
-30.45574
 31
0.0
  0
LINE
  5
6B
100
AcDbEntity
  8
レイヤー_1
  6
CONTINUOUS
 62
       3
100
AcDbLine
 10
104.96506882
 20
-30.45574
 30
0.0
 11
105.151391
 21
-30.4077779
 31
0.0
  0
LINE
  5
6C
100
AcDbEntity
  8
レイヤー_1
  6
CONTINUOUS
 62
       3
100
AcDbLine
 10
105.151391
 20
-30.4077779
 30
0.0
 11
105.3366017
 21
-30.34690464
 31
0.0
  0
LINE
  5
6D
100
AcDbEntity
  8
レイヤー_1
  6
CONTINUOUS
 62
       3
100
AcDbLine
 10
105.3366017
 20
-30.34690464
 30
0.0
 11
105.51885891
 21
-30.27375517
 31
0.0
  0
LINE
  5
6E
100
AcDbEntity
  8
レイヤー_1
  6
CONTINUOUS
 62
       3
100
AcDbLine
 10
105.51885891
 20
-30.27375517
 30
0.0
 11
105.69632059
 21
-30.18896445
 31
0.0
  0
LINE
  5
6F
100
AcDbEntity
  8
レイヤー_1
  6
CONTINUOUS
 62
       3
100
AcDbLine
 10
105.69632059
 20
-30.18896445
 30
0.0
 11
105.86714475
 21
-30.09316745
 31
0.0
  0
LINE
  5
70
100
AcDbEntity
  8
レイヤー_1
  6
CONTINUOUS
 62
       3
100
AcDbLine
 10
105.86714475
 20
-30.09316745
 30
0.0
 11
106.02948936
 21
-29.98699911
 31
0.0
  0
LINE
  5
71
100
AcDbEntity
  8
レイヤー_1
  6
CONTINUOUS
 62
       3
100
AcDbLine
 10
106.02948936
 20
-29.98699911
 30
0.0
 11
106.18151241
 21
-29.87109441
 31
0.0
  0
LINE
  5
72
100
AcDbEntity
  8
レイヤー_1
  6
CONTINUOUS
 62
       3
100
AcDbLine
 10
106.18151241
 20
-29.87109441
 30
0.0
 11
106.32137187
 21
-29.74608827
 31
0.0
  0
LINE
  5
73
100
AcDbEntity
  8
レイヤー_1
  6
CONTINUOUS
 62
       3
100
AcDbLine
 10
106.32137187
 20
-29.74608827
 30
0.0
 11
106.44722574
 21
-29.61261569
 31
0.0
  0
LINE
  5
74
100
AcDbEntity
  8
レイヤー_1
  6
CONTINUOUS
 62
       3
100
AcDbLine
 10
106.44722574
 20
-29.61261569
 30
0.0
 11
106.557232
 21
-29.4713116
 31
0.0
  0
LINE
  5
75
100
AcDbEntity
  8
レイヤー_1
  6
CONTINUOUS
 62
       3
100
AcDbLine
 10
106.557232
 20
-29.4713116
 30
0.0
 11
106.64954862
 21
-29.32281097
 31
0.0
  0
LINE
  5
76
100
AcDbEntity
  8
レイヤー_1
  6
CONTINUOUS
 62
       3
100
AcDbLine
 10
106.64954862
 20
-29.32281097
 30
0.0
 11
106.7223336
 21
-29.16774876
 31
0.0
  0
LINE
  5
77
100
AcDbEntity
  8
レイヤー_1
  6
CONTINUOUS
 62
       3
100
AcDbLine
 10
106.7223336
 20
-29.16774876
 30
0.0
 11
106.76809313
 21
-29.03009711
 31
0.0
  0
LINE
  5
78
100
AcDbEntity
  8
レイヤー_1
  6
CONTINUOUS
 62
       3
100
AcDbLine
 10
106.76809313
 20
-29.03009711
 30
0.0
 11
106.78703498
 21
-29.03009711
 31
0.0
  0
LINE
  5
79
100
AcDbEntity
  8
レイヤー_1
  6
CONTINUOUS
 62
       3
100
AcDbLine
 10
106.78703498
 20
-29.03009711
 30
0.0
 11
106.83245785
 21
-29.03009711
 31
0.0
  0
LINE
  5
7A
100
AcDbEntity
  8
レイヤー_1
  6
CONTINUOUS
 62
       3
100
AcDbLine
 10
106.83245785
 20
-29.03009711
 30
0.0
 11
106.90041777
 21
-29.03009711
 31
0.0
  0
LINE
  5
7B
100
AcDbEntity
  8
レイヤー_1
  6
CONTINUOUS
 62
       3
100
AcDbLine
 10
106.90041777
 20
-29.03009711
 30
0.0
 11
106.98697075
 21
-29.03009711
 31
0.0
  0
LINE
  5
7C
100
AcDbEntity
  8
レイヤー_1
  6
CONTINUOUS
 62
       3
100
AcDbLine
 10
106.98697075
 20
-29.03009711
 30
0.0
 11
107.08817281
 21
-29.03009711
 31
0.0
  0
LINE
  5
7D
100
AcDbEntity
  8
レイヤー_1
  6
CONTINUOUS
 62
       3
100
AcDbLine
 10
107.08817281
 20
-29.03009711
 30
0.0
 11
107.20007996
 21
-29.03009711
 31
0.0
  0
LINE
  5
7E
100
AcDbEntity
  8
レイヤー_1
  6
CONTINUOUS
 62
       3
100
AcDbLine
 10
107.20007996
 20
-29.03009711
 30
0.0
 11
107.31874822
 21
-29.03009711
 31
0.0
  0
LINE
  5
7F
100
AcDbEntity
  8
レイヤー_1
  6
CONTINUOUS
 62
       3
100
AcDbLine
 10
107.31874822
 20
-29.03009711
 30
0.0
 11
107.44023362
 21
-29.03009711
 31
0.0
  0
LINE
  5
80
100
AcDbEntity
  8
レイヤー_1
  6
CONTINUOUS
 62
       3
100
AcDbLine
 10
107.44023362
 20
-29.03009711
 30
0.0
 11
107.56059216
 21
-29.03009711
 31
0.0
  0
LINE
  5
81
100
AcDbEntity
  8
レイヤー_1
  6
CONTINUOUS
 62
       3
100
AcDbLine
 10
107.56059216
 20
-29.03009711
 30
0.0
 11
107.67587987
 21
-29.03009711
 31
0.0
  0
LINE
  5
82
100
AcDbEntity
  8
レイヤー_1
  6
CONTINUOUS
 62
       3
100
AcDbLine
 10
107.67587987
 20
-29.03009711
 30
0.0
 11
107.78215276
 21
-29.03009711
 31
0.0
  0
LINE
  5
83
100
AcDbEntity
  8
レイヤー_1
  6
CONTINUOUS
 62
       3
100
AcDbLine
 10
107.78215276
 20
-29.03009711
 30
0.0
 11
107.87546685
 21
-29.03009711
 31
0.0
  0
LINE
  5
84
100
AcDbEntity
  8
レイヤー_1
  6
CONTINUOUS
 62
       3
100
AcDbLine
 10
107.87546685
 20
-29.03009711
 30
0.0
 11
107.95187816
 21
-29.03009711
 31
0.0
  0
LINE
  5
85
100
AcDbEntity
  8
レイヤー_1
  6
CONTINUOUS
 62
       3
100
AcDbLine
 10
107.95187816
 20
-29.03009711
 30
0.0
 11
108.00744271
 21
-29.03009711
 31
0.0
  0
LINE
  5
86
100
AcDbEntity
  8
レイヤー_1
  6
CONTINUOUS
 62
       3
100
AcDbLine
 10
108.00744271
 20
-29.03009711
 30
0.0
 11
108.0382165
 21
-29.03009711
 31
0.0
  0
LINE
  5
87
100
AcDbEntity
  8
レイヤー_1
  6
CONTINUOUS
 62
       3
100
AcDbLine
 10
108.0382165
 20
-29.03009711
 30
0.0
 11
108.04315319
 21
-29.0290027
 31
0.0
  0
LINE
  5
88
100
AcDbEntity
  8
レイヤー_1
  6
CONTINUOUS
 62
       3
100
AcDbLine
 10
108.04315319
 20
-29.0290027
 30
0.0
 11
108.04315319
 21
-29.01846247
 31
0.0
  0
LINE
  5
89
100
AcDbEntity
  8
レイヤー_1
  6
CONTINUOUS
 62
       3
100
AcDbLine
 10
108.04315319
 20
-29.01846247
 30
0.0
 11
108.04315319
 21
-28.99799151
 31
0.0
  0
LINE
  5
8A
100
AcDbEntity
  8
レイヤー_1
  6
CONTINUOUS
 62
       3
100
AcDbLine
 10
108.04315319
 20
-28.99799151
 30
0.0
 11
108.04315319
 21
-28.96913461
 31
0.0
  0
LINE
  5
8B
100
AcDbEntity
  8
レイヤー_1
  6
CONTINUOUS
 62
       3
100
AcDbLine
 10
108.04315319
 20
-28.96913461
 30
0.0
 11
108.04315319
 21
-28.93343653
 31
0.0
  0
LINE
  5
8C
100
AcDbEntity
  8
レイヤー_1
  6
CONTINUOUS
 62
       3
100
AcDbLine
 10
108.04315319
 20
-28.93343653
 30
0.0
 11
108.04315319
 21
-28.89244207
 31
0.0
  0
LINE
  5
8D
100
AcDbEntity
  8
レイヤー_1
  6
CONTINUOUS
 62
       3
100
AcDbLine
 10
108.04315319
 20
-28.89244207
 30
0.0
 11
108.04315319
 21
-28.847696
 31
0.0
  0
LINE
  5
8E
100
AcDbEntity
  8
レイヤー_1
  6
CONTINUOUS
 62
       3
100
AcDbLine
 10
108.04315319
 20
-28.847696
 30
0.0
 11
108.04315319
 21
-28.8007431
 31
0.0
  0
LINE
  5
8F
100
AcDbEntity
  8
レイヤー_1
  6
CONTINUOUS
 62
       3
100
AcDbLine
 10
108.04315319
 20
-28.8007431
 30
0.0
 11
108.04315319
 21
-28.75312815
 31
0.0
  0
LINE
  5
90
100
AcDbEntity
  8
レイヤー_1
  6
CONTINUOUS
 62
       3
100
AcDbLine
 10
108.04315319
 20
-28.75312815
 30
0.0
 11
108.04315319
 21
-28.70639594
 31
0.0
  0
LINE
  5
91
100
AcDbEntity
  8
レイヤー_1
  6
CONTINUOUS
 62
       3
100
AcDbLine
 10
108.04315319
 20
-28.70639594
 30
0.0
 11
108.04315319
 21
-28.66209123
 31
0.0
  0
LINE
  5
92
100
AcDbEntity
  8
レイヤー_1
  6
CONTINUOUS
 62
       3
100
AcDbLine
 10
108.04315319
 20
-28.66209123
 30
0.0
 11
108.04315319
 21
-28.62175883
 31
0.0
  0
LINE
  5
93
100
AcDbEntity
  8
レイヤー_1
  6
CONTINUOUS
 62
       3
100
AcDbLine
 10
108.04315319
 20
-28.62175883
 30
0.0
 11
108.04315319
 21
-28.58694348
 31
0.0
  0
LINE
  5
94
100
AcDbEntity
  8
レイヤー_1
  6
CONTINUOUS
 62
       3
100
AcDbLine
 10
108.04315319
 20
-28.58694348
 30
0.0
 11
108.04315319
 21
-28.55918998
 31
0.0
  0
LINE
  5
95
100
AcDbEntity
  8
レイヤー_1
  6
CONTINUOUS
 62
       3
100
AcDbLine
 10
108.04315319
 20
-28.55918998
 30
0.0
 11
108.04315319
 21
-28.54004312
 31
0.0
  0
LINE
  5
96
100
AcDbEntity
  8
レイヤー_1
  6
CONTINUOUS
 62
       3
100
AcDbLine
 10
108.04315319
 20
-28.54004312
 30
0.0
 11
108.04315319
 21
-28.53104767
 31
0.0
  0
LINE
  5
97
100
AcDbEntity
  8
レイヤー_1
  6
CONTINUOUS
 62
       3
100
AcDbLine
 10
108.04315319
 20
-28.53104767
 30
0.0
 11
107.99987596
 21
-28.53055826
 31
0.0
  0
LINE
  5
98
100
AcDbEntity
  8
レイヤー_1
  6
CONTINUOUS
 62
       3
100
AcDbLine
 10
107.99987596
 20
-28.53055826
 30
0.0
 11
107.80478219
 21
-28.53055826
 31
0.0
  0
LINE
  5
99
100
AcDbEntity
  8
レイヤー_1
  6
CONTINUOUS
 62
       3
100
AcDbLine
 10
107.80478219
 20
-28.53055826
 30
0.0
 11
107.47291073
 21
-28.53055826
 31
0.0
  0
LINE
  5
9A
100
AcDbEntity
  8
レイヤー_1
  6
CONTINUOUS
 62
       3
100
AcDbLine
 10
107.47291073
 20
-28.53055826
 30
0.0
 11
107.02652772
 21
-28.53055826
 31
0.0
  0
LINE
  5
9B
100
AcDbEntity
  8
レイヤー_1
  6
CONTINUOUS
 62
       3
100
AcDbLine
 10
107.02652772
 20
-28.53055826
 30
0.0
 11
106.48789928
 21
-28.53055826
 31
0.0
  0
LINE
  5
9C
100
AcDbEntity
  8
レイヤー_1
  6
CONTINUOUS
 62
       3
100
AcDbLine
 10
106.48789928
 20
-28.53055826
 30
0.0
 11
105.87929156
 21
-28.53055826
 31
0.0
  0
LINE
  5
9D
100
AcDbEntity
  8
レイヤー_1
  6
CONTINUOUS
 62
       3
100
AcDbLine
 10
105.87929156
 20
-28.53055826
 30
0.0
 11
105.22297069
 21
-28.53055826
 31
0.0
  0
LINE
  5
9E
100
AcDbEntity
  8
レイヤー_1
  6
CONTINUOUS
 62
       3
100
AcDbLine
 10
105.22297069
 20
-28.53055826
 30
0.0
 11
104.54120281
 21
-28.53055826
 31
0.0
  0
LINE
  5
9F
100
AcDbEntity
  8
レイヤー_1
  6
CONTINUOUS
 62
       3
100
AcDbLine
 10
104.54120281
 20
-28.53055826
 30
0.0
 11
103.85625405
 21
-28.53055826
 31
0.0
  0
LINE
  5
A0
100
AcDbEntity
  8
レイヤー_1
  6
CONTINUOUS
 62
       3
100
AcDbLine
 10
103.85625405
 20
-28.53055826
 30
0.0
 11
103.19039055
 21
-28.53055826
 31
0.0
  0
LINE
  5
A1
100
AcDbEntity
  8
レイヤー_1
  6
CONTINUOUS
 62
       3
100
AcDbLine
 10
103.19039055
 20
-28.53055826
 30
0.0
 11
102.56587844
 21
-28.53055826
 31
0.0
  0
LINE
  5
A2
100
AcDbEntity
  8
レイヤー_1
  6
CONTINUOUS
 62
       3
100
AcDbLine
 10
102.56587844
 20
-28.53055826
 30
0.0
 11
102.00498387
 21
-28.53055826
 31
0.0
  0
LINE
  5
A3
100
AcDbEntity
  8
レイヤー_1
  6
CONTINUOUS
 62
       3
100
AcDbLine
 10
102.00498387
 20
-28.53055826
 30
0.0
 11
101.52997297
 21
-28.53055826
 31
0.0
  0
LINE
  5
A4
100
AcDbEntity
  8
レイヤー_1
  6
CONTINUOUS
 62
       3
100
AcDbLine
 10
101.52997297
 20
-28.53055826
 30
0.0
 11
101.16311187
 21
-28.53055826
 31
0.0
  0
LINE
  5
A5
100
AcDbEntity
  8
レイヤー_1
  6
CONTINUOUS
 62
       3
100
AcDbLine
 10
101.16311187
 20
-28.53055826
 30
0.0
 11
100.92666671
 21
-28.53055826
 31
0.0
  0
LINE
  5
A6
100
AcDbEntity
  8
レイヤー_1
  6
CONTINUOUS
 62
       3
100
AcDbLine
 10
100.92666671
 20
-28.53055826
 30
0.0
 11
100.84290362
 21
-28.53055826
 31
0.0
  0
LINE
  5
A7
100
AcDbEntity
  8
レイヤー_1
  6
CONTINUOUS
 62
       3
100
AcDbLine
 10
8.96771918
 20
-44.48958063
 30
0.0
 11
8.96771918
 21
44.51041937
 31
0.0
  0
LINE
  5
A8
100
AcDbEntity
  8
レイヤー_1
  6
CONTINUOUS
 62
       3
100
AcDbLine
 10
-115.56180281
 20
-1.47381185
 30
0.0
 11
-115.15899243
 21
-1.45379065
 31
0.0
  0
LINE
  5
A9
100
AcDbEntity
  8
レイヤー_1
  6
CONTINUOUS
 62
       3
100
AcDbLine
 10
-115.15899243
 20
-1.45379065
 30
0.0
 11
-114.76759792
 21
-1.39500552
 31
0.0
  0
LINE
  5
AA
100
AcDbEntity
  8
レイヤー_1
  6
CONTINUOUS
 62
       3
100
AcDbLine
 10
-114.76759792
 20
-1.39500552
 30
0.0
 11
-114.38953987
 21
-1.29937418
 31
0.0
  0
LINE
  5
AB
100
AcDbEntity
  8
レイヤー_1
  6
CONTINUOUS
 62
       3
100
AcDbLine
 10
-114.38953987
 20
-1.29937418
 30
0.0
 11
-114.0267389
 21
-1.16881435
 31
0.0
  0
LINE
  5
AC
100
AcDbEntity
  8
レイヤー_1
  6
CONTINUOUS
 62
       3
100
AcDbLine
 10
-114.0267389
 20
-1.16881435
 30
0.0
 11
-113.68111562
 21
-1.00524374
 31
0.0
  0
LINE
  5
AD
100
AcDbEntity
  8
レイヤー_1
  6
CONTINUOUS
 62
       3
100
AcDbLine
 10
-113.68111562
 20
-1.00524374
 30
0.0
 11
-113.35459063
 21
-0.81058008
 31
0.0
  0
LINE
  5
AE
100
AcDbEntity
  8
レイヤー_1
  6
CONTINUOUS
 62
       3
100
AcDbLine
 10
-113.35459063
 20
-0.81058008
 30
0.0
 11
-113.04908454
 21
-0.58674107
 31
0.0
  0
LINE
  5
AF
100
AcDbEntity
  8
レイヤー_1
  6
CONTINUOUS
 62
       3
100
AcDbLine
 10
-113.04908454
 20
-0.58674107
 30
0.0
 11
-112.76651795
 21
-0.33564444
 31
0.0
  0
LINE
  5
B0
100
AcDbEntity
  8
レイヤー_1
  6
CONTINUOUS
 62
       3
100
AcDbLine
 10
-112.76651795
 20
-0.33564444
 30
0.0
 11
-112.50881148
 21
-0.05920791
 31
0.0
  0
LINE
  5
B1
100
AcDbEntity
  8
レイヤー_1
  6
CONTINUOUS
 62
       3
100
AcDbLine
 10
-112.50881148
 20
-0.05920791
 30
0.0
 11
-112.27788573
 21
0.24065081
 31
0.0
  0
LINE
  5
B2
100
AcDbEntity
  8
レイヤー_1
  6
CONTINUOUS
 62
       3
100
AcDbLine
 10
-112.27788573
 20
0.24065081
 30
0.0
 11
-112.07566132
 21
0.56201401
 31
0.0
  0
LINE
  5
B3
100
AcDbEntity
  8
レイヤー_1
  6
CONTINUOUS
 62
       3
100
AcDbLine
 10
-112.07566132
 20
0.56201401
 30
0.0
 11
-111.90405884
 21
0.90296396
 31
0.0
  0
LINE
  5
B4
100
AcDbEntity
  8
レイヤー_1
  6
CONTINUOUS
 62
       3
100
AcDbLine
 10
-111.90405884
 20
0.90296396
 30
0.0
 11
-111.76499891
 21
1.26158294
 31
0.0
  0
LINE
  5
B5
100
AcDbEntity
  8
レイヤー_1
  6
CONTINUOUS
 62
       3
100
AcDbLine
 10
-111.76499891
 20
1.26158294
 30
0.0
 11
-111.66040213
 21
1.63595324
 31
0.0
  0
LINE
  5
B6
100
AcDbEntity
  8
レイヤー_1
  6
CONTINUOUS
 62
       3
100
AcDbLine
 10
-111.66040213
 20
1.63595324
 30
0.0
 11
-111.59218911
 21
2.02415715
 31
0.0
  0
LINE
  5
B7
100
AcDbEntity
  8
レイヤー_1
  6
CONTINUOUS
 62
       3
100
AcDbLine
 10
-111.59218911
 20
2.02415715
 30
0.0
 11
-111.56228046
 21
2.42427694
 31
0.0
  0
LINE
  5
B8
100
AcDbEntity
  8
レイヤー_1
  6
CONTINUOUS
 62
       3
100
AcDbLine
 10
-111.56228046
 20
2.42427694
 30
0.0
 11
-111.5723267
 21
2.829084
 31
0.0
  0
LINE
  5
B9
100
AcDbEntity
  8
レイヤー_1
  6
CONTINUOUS
 62
       3
100
AcDbLine
 10
-111.5723267
 20
2.829084
 30
0.0
 11
-111.62162761
 21
3.22353078
 31
0.0
  0
LINE
  5
BA
100
AcDbEntity
  8
レイヤー_1
  6
CONTINUOUS
 62
       3
100
AcDbLine
 10
-111.62162761
 20
3.22353078
 30
0.0
 11
-111.70827258
 21
3.6050897
 31
0.0
  0
LINE
  5
BB
100
AcDbEntity
  8
レイヤー_1
  6
CONTINUOUS
 62
       3
100
AcDbLine
 10
-111.70827258
 20
3.6050897
 30
0.0
 11
-111.83034102
 21
3.97184447
 31
0.0
  0
LINE
  5
BC
100
AcDbEntity
  8
レイヤー_1
  6
CONTINUOUS
 62
       3
100
AcDbLine
 10
-111.83034102
 20
3.97184447
 30
0.0
 11
-111.9859123
 21
4.32187882
 31
0.0
  0
LINE
  5
BD
100
AcDbEntity
  8
レイヤー_1
  6
CONTINUOUS
 62
       3
100
AcDbLine
 10
-111.9859123
 20
4.32187882
 30
0.0
 11
-112.17306582
 21
4.65327649
 31
0.0
  0
LINE
  5
BE
100
AcDbEntity
  8
レイヤー_1
  6
CONTINUOUS
 62
       3
100
AcDbLine
 10
-112.17306582
 20
4.65327649
 30
0.0
 11
-112.38988098
 21
4.9641212
 31
0.0
  0
LINE
  5
BF
100
AcDbEntity
  8
レイヤー_1
  6
CONTINUOUS
 62
       3
100
AcDbLine
 10
-112.38988098
 20
4.9641212
 30
0.0
 11
-112.63443716
 21
5.25249669
 31
0.0
  0
LINE
  5
C0
100
AcDbEntity
  8
レイヤー_1
  6
CONTINUOUS
 62
       3
100
AcDbLine
 10
-112.63443716
 20
5.25249669
 30
0.0
 11
-112.90481377
 21
5.51648666
 31
0.0
  0
LINE
  5
C1
100
AcDbEntity
  8
レイヤー_1
  6
CONTINUOUS
 62
       3
100
AcDbLine
 10
-112.90481377
 20
5.51648666
 30
0.0
 11
-113.19909018
 21
5.75417487
 31
0.0
  0
LINE
  5
C2
100
AcDbEntity
  8
レイヤー_1
  6
CONTINUOUS
 62
       3
100
AcDbLine
 10
-113.19909018
 20
5.75417487
 30
0.0
 11
-113.5153458
 21
5.96364502
 31
0.0
  0
LINE
  5
C3
100
AcDbEntity
  8
レイヤー_1
  6
CONTINUOUS
 62
       3
100
AcDbLine
 10
-113.5153458
 20
5.96364502
 30
0.0
 11
-113.85166001
 21
6.14298086
 31
0.0
  0
LINE
  5
C4
100
AcDbEntity
  8
レイヤー_1
  6
CONTINUOUS
 62
       3
100
AcDbLine
 10
-113.85166001
 20
6.14298086
 30
0.0
 11
-114.20611222
 21
6.2902661
 31
0.0
  0
LINE
  5
C5
100
AcDbEntity
  8
レイヤー_1
  6
CONTINUOUS
 62
       3
100
AcDbLine
 10
-114.20611222
 20
6.2902661
 30
0.0
 11
-114.5767818
 21
6.40358448
 31
0.0
  0
LINE
  5
C6
100
AcDbEntity
  8
レイヤー_1
  6
CONTINUOUS
 62
       3
100
AcDbLine
 10
-114.5767818
 20
6.40358448
 30
0.0
 11
-114.96174816
 21
6.48101972
 31
0.0
  0
LINE
  5
C7
100
AcDbEntity
  8
レイヤー_1
  6
CONTINUOUS
 62
       3
100
AcDbLine
 10
-114.96174816
 20
6.48101972
 30
0.0
 11
-115.35909068
 21
6.52065556
 31
0.0
  0
LINE
  5
C8
100
AcDbEntity
  8
レイヤー_1
  6
CONTINUOUS
 62
       3
100
AcDbLine
 10
-115.35909068
 20
6.52065556
 30
0.0
 11
-115.76442245
 21
6.52065556
 31
0.0
  0
LINE
  5
C9
100
AcDbEntity
  8
レイヤー_1
  6
CONTINUOUS
 62
       3
100
AcDbLine
 10
-115.76442245
 20
6.52065556
 30
0.0
 11
-116.16159686
 21
6.48101972
 31
0.0
  0
LINE
  5
CA
100
AcDbEntity
  8
レイヤー_1
  6
CONTINUOUS
 62
       3
100
AcDbLine
 10
-116.16159686
 20
6.48101972
 30
0.0
 11
-116.54641643
 21
6.40358448
 31
0.0
  0
LINE
  5
CB
100
AcDbEntity
  8
レイヤー_1
  6
CONTINUOUS
 62
       3
100
AcDbLine
 10
-116.54641643
 20
6.40358448
 30
0.0
 11
-116.9169591
 21
6.2902661
 31
0.0
  0
LINE
  5
CC
100
AcDbEntity
  8
レイヤー_1
  6
CONTINUOUS
 62
       3
100
AcDbLine
 10
-116.9169591
 20
6.2902661
 30
0.0
 11
-117.27130281
 21
6.14298086
 31
0.0
  0
LINE
  5
CD
100
AcDbEntity
  8
レイヤー_1
  6
CONTINUOUS
 62
       3
100
AcDbLine
 10
-117.27130281
 20
6.14298086
 30
0.0
 11
-117.60752551
 21
5.96364502
 31
0.0
  0
LINE
  5
CE
100
AcDbEntity
  8
レイヤー_1
  6
CONTINUOUS
 62
       3
100
AcDbLine
 10
-117.60752551
 20
5.96364502
 30
0.0
 11
-117.92370515
 21
5.75417487
 31
0.0
  0
LINE
  5
CF
100
AcDbEntity
  8
レイヤー_1
  6
CONTINUOUS
 62
       3
100
AcDbLine
 10
-117.92370515
 20
5.75417487
 30
0.0
 11
-118.21791968
 21
5.51648666
 31
0.0
  0
LINE
  5
D0
100
AcDbEntity
  8
レイヤー_1
  6
CONTINUOUS
 62
       3
100
AcDbLine
 10
-118.21791968
 20
5.51648666
 30
0.0
 11
-118.48824705
 21
5.25249669
 31
0.0
  0
LINE
  5
D1
100
AcDbEntity
  8
レイヤー_1
  6
CONTINUOUS
 62
       3
100
AcDbLine
 10
-118.48824705
 20
5.25249669
 30
0.0
 11
-118.73276519
 21
4.9641212
 31
0.0
  0
LINE
  5
D2
100
AcDbEntity
  8
レイヤー_1
  6
CONTINUOUS
 62
       3
100
AcDbLine
 10
-118.73276519
 20
4.9641212
 30
0.0
 11
-118.94955206
 21
4.65327649
 31
0.0
  0
LINE
  5
D3
100
AcDbEntity
  8
レイヤー_1
  6
CONTINUOUS
 62
       3
100
AcDbLine
 10
-118.94955206
 20
4.65327649
 30
0.0
 11
-119.13668561
 21
4.32187882
 31
0.0
  0
LINE
  5
D4
100
AcDbEntity
  8
レイヤー_1
  6
CONTINUOUS
 62
       3
100
AcDbLine
 10
-119.13668561
 20
4.32187882
 30
0.0
 11
-119.29224378
 21
3.97184447
 31
0.0
  0
LINE
  5
D5
100
AcDbEntity
  8
レイヤー_1
  6
CONTINUOUS
 62
       3
100
AcDbLine
 10
-119.29224378
 20
3.97184447
 30
0.0
 11
-119.41430452
 21
3.6050897
 31
0.0
  0
LINE
  5
D6
100
AcDbEntity
  8
レイヤー_1
  6
CONTINUOUS
 62
       3
100
AcDbLine
 10
-119.41430452
 20
3.6050897
 30
0.0
 11
-119.50094578
 21
3.22353078
 31
0.0
  0
LINE
  5
D7
100
AcDbEntity
  8
レイヤー_1
  6
CONTINUOUS
 62
       3
100
AcDbLine
 10
-119.50094578
 20
3.22353078
 30
0.0
 11
-119.5502455
 21
2.829084
 31
0.0
  0
LINE
  5
D8
100
AcDbEntity
  8
レイヤー_1
  6
CONTINUOUS
 62
       3
100
AcDbLine
 10
-119.5502455
 20
2.829084
 30
0.0
 11
-119.56029164
 21
2.42427694
 31
0.0
  0
LINE
  5
D9
100
AcDbEntity
  8
レイヤー_1
  6
CONTINUOUS
 62
       3
100
AcDbLine
 10
-119.56029164
 20
2.42427694
 30
0.0
 11
-119.53038346
 21
2.02415715
 31
0.0
  0
LINE
  5
DA
100
AcDbEntity
  8
レイヤー_1
  6
CONTINUOUS
 62
       3
100
AcDbLine
 10
-119.53038346
 20
2.02415715
 30
0.0
 11
-119.46217271
 21
1.63595324
 31
0.0
  0
LINE
  5
DB
100
AcDbEntity
  8
レイヤー_1
  6
CONTINUOUS
 62
       3
100
AcDbLine
 10
-119.46217271
 20
1.63595324
 30
0.0
 11
-119.35758146
 21
1.26158294
 31
0.0
  0
LINE
  5
DC
100
AcDbEntity
  8
レイヤー_1
  6
CONTINUOUS
 62
       3
100
AcDbLine
 10
-119.35758146
 20
1.26158294
 30
0.0
 11
-119.21853174
 21
0.90296396
 31
0.0
  0
LINE
  5
DD
100
AcDbEntity
  8
レイヤー_1
  6
CONTINUOUS
 62
       3
100
AcDbLine
 10
-119.21853174
 20
0.90296396
 30
0.0
 11
-119.04694563
 21
0.56201401
 31
0.0
  0
LINE
  5
DE
100
AcDbEntity
  8
レイヤー_1
  6
CONTINUOUS
 62
       3
100
AcDbLine
 10
-119.04694563
 20
0.56201401
 30
0.0
 11
-118.84474516
 21
0.24065081
 31
0.0
  0
LINE
  5
DF
100
AcDbEntity
  8
レイヤー_1
  6
CONTINUOUS
 62
       3
100
AcDbLine
 10
-118.84474516
 20
0.24065081
 30
0.0
 11
-118.6138524
 21
-0.05920791
 31
0.0
  0
LINE
  5
E0
100
AcDbEntity
  8
レイヤー_1
  6
CONTINUOUS
 62
       3
100
AcDbLine
 10
-118.6138524
 20
-0.05920791
 30
0.0
 11
-118.35618939
 21
-0.33564444
 31
0.0
  0
LINE
  5
E1
100
AcDbEntity
  8
レイヤー_1
  6
CONTINUOUS
 62
       3
100
AcDbLine
 10
-118.35618939
 20
-0.33564444
 30
0.0
 11
-118.07367819
 21
-0.58674107
 31
0.0
  0
LINE
  5
E2
100
AcDbEntity
  8
レイヤー_1
  6
CONTINUOUS
 62
       3
100
AcDbLine
 10
-118.07367819
 20
-0.58674107
 30
0.0
 11
-117.76824084
 21
-0.81058008
 31
0.0
  0
LINE
  5
E3
100
AcDbEntity
  8
レイヤー_1
  6
CONTINUOUS
 62
       3
100
AcDbLine
 10
-117.76824084
 20
-0.81058008
 30
0.0
 11
-117.44179941
 21
-1.00524374
 31
0.0
  0
LINE
  5
E4
100
AcDbEntity
  8
レイヤー_1
  6
CONTINUOUS
 62
       3
100
AcDbLine
 10
-117.44179941
 20
-1.00524374
 30
0.0
 11
-117.09627595
 21
-1.16881435
 31
0.0
  0
LINE
  5
E5
100
AcDbEntity
  8
レイヤー_1
  6
CONTINUOUS
 62
       3
100
AcDbLine
 10
-117.09627595
 20
-1.16881435
 30
0.0
 11
-116.73359251
 21
-1.29937418
 31
0.0
  0
LINE
  5
E6
100
AcDbEntity
  8
レイヤー_1
  6
CONTINUOUS
 62
       3
100
AcDbLine
 10
-116.73359251
 20
-1.29937418
 30
0.0
 11
-116.35567113
 21
-1.39500552
 31
0.0
  0
LINE
  5
E7
100
AcDbEntity
  8
レイヤー_1
  6
CONTINUOUS
 62
       3
100
AcDbLine
 10
-116.35567113
 20
-1.39500552
 30
0.0
 11
-115.96443388
 21
-1.45379065
 31
0.0
  0
LINE
  5
E8
100
AcDbEntity
  8
レイヤー_1
  6
CONTINUOUS
 62
       3
100
AcDbLine
 10
-115.96443388
 20
-1.45379065
 30
0.0
 11
-115.56180281
 21
-1.47381185
 31
0.0
  0
LINE
  5
E9
100
AcDbEntity
  8
レイヤー_1
  6
CONTINUOUS
 62
       3
100
AcDbLine
 10
108.05900063
 20
0.25734863
 30
0.0
 11
108.2856188
 21
0.26862413
 31
0.0
  0
LINE
  5
EA
100
AcDbEntity
  8
レイヤー_1
  6
CONTINUOUS
 62
       3
100
AcDbLine
 10
108.2856188
 20
0.26862413
 30
0.0
 11
108.50580364
 21
0.30172806
 31
0.0
  0
LINE
  5
EB
100
AcDbEntity
  8
レイヤー_1
  6
CONTINUOUS
 62
       3
100
AcDbLine
 10
108.50580364
 20
0.30172806
 30
0.0
 11
108.71847609
 21
0.35557655
 31
0.0
  0
LINE
  5
EC
100
AcDbEntity
  8
レイヤー_1
  6
CONTINUOUS
 62
       3
100
AcDbLine
 10
108.71847609
 20
0.35557655
 30
0.0
 11
108.92255711
 21
0.42908573
 31
0.0
  0
LINE
  5
ED
100
AcDbEntity
  8
レイヤー_1
  6
CONTINUOUS
 62
       3
100
AcDbLine
 10
108.92255711
 20
0.42908573
 30
0.0
 11
109.11696765
 21
0.52117175
 31
0.0
  0
LINE
  5
EE
100
AcDbEntity
  8
レイヤー_1
  6
CONTINUOUS
 62
       3
100
AcDbLine
 10
109.11696765
 20
0.52117175
 30
0.0
 11
109.30062867
 21
0.63075074
 31
0.0
  0
LINE
  5
EF
100
AcDbEntity
  8
レイヤー_1
  6
CONTINUOUS
 62
       3
100
AcDbLine
 10
109.30062867
 20
0.63075074
 30
0.0
 11
109.47246111
 21
0.75673883
 31
0.0
  0
LINE
  5
F0
100
AcDbEntity
  8
レイヤー_1
  6
CONTINUOUS
 62
       3
100
AcDbLine
 10
109.47246111
 20
0.75673883
 30
0.0
 11
109.63138594
 21
0.89805216
 31
0.0
  0
LINE
  5
F1
100
AcDbEntity
  8
レイヤー_1
  6
CONTINUOUS
 62
       3
100
AcDbLine
 10
109.63138594
 20
0.89805216
 30
0.0
 11
109.77632409
 21
1.05360687
 31
0.0
  0
LINE
  5
F2
100
AcDbEntity
  8
レイヤー_1
  6
CONTINUOUS
 62
       3
100
AcDbLine
 10
109.77632409
 20
1.05360687
 30
0.0
 11
109.90619653
 21
1.22231909
 31
0.0
  0
LINE
  5
F3
100
AcDbEntity
  8
レイヤー_1
  6
CONTINUOUS
 62
       3
100
AcDbLine
 10
109.90619653
 20
1.22231909
 30
0.0
 11
110.01992421
 21
1.40310496
 31
0.0
  0
LINE
  5
F4
100
AcDbEntity
  8
レイヤー_1
  6
CONTINUOUS
 62
       3
100
AcDbLine
 10
110.01992421
 20
1.40310496
 30
0.0
 11
110.11642808
 21
1.5948806
 31
0.0
  0
LINE
  5
F5
100
AcDbEntity
  8
レイヤー_1
  6
CONTINUOUS
 62
       3
100
AcDbLine
 10
110.11642808
 20
1.5948806
 30
0.0
 11
110.1946291
 21
1.79656217
 31
0.0
  0
LINE
  5
F6
100
AcDbEntity
  8
レイヤー_1
  6
CONTINUOUS
 62
       3
100
AcDbLine
 10
110.1946291
 20
1.79656217
 30
0.0
 11
110.25344821
 21
2.00706579
 31
0.0
  0
LINE
  5
F7
100
AcDbEntity
  8
レイヤー_1
  6
CONTINUOUS
 62
       3
100
AcDbLine
 10
110.25344821
 20
2.00706579
 30
0.0
 11
110.29180637
 21
2.2253076
 31
0.0
  0
LINE
  5
F8
100
AcDbEntity
  8
レイヤー_1
  6
CONTINUOUS
 62
       3
100
AcDbLine
 10
110.29180637
 20
2.2253076
 30
0.0
 11
110.30862453
 21
2.45020373
 31
0.0
  0
LINE
  5
F9
100
AcDbEntity
  8
レイヤー_1
  6
CONTINUOUS
 62
       3
100
AcDbLine
 10
110.30862453
 20
2.45020373
 30
0.0
 11
110.30297539
 21
2.6779085
 31
0.0
  0
LINE
  5
FA
100
AcDbEntity
  8
レイヤー_1
  6
CONTINUOUS
 62
       3
100
AcDbLine
 10
110.30297539
 20
2.6779085
 30
0.0
 11
110.27525235
 21
2.89984805
 31
0.0
  0
LINE
  5
FB
100
AcDbEntity
  8
レイヤー_1
  6
CONTINUOUS
 62
       3
100
AcDbLine
 10
110.27525235
 20
2.89984805
 30
0.0
 11
110.22652883
 21
3.11453185
 31
0.0
  0
LINE
  5
FC
100
AcDbEntity
  8
レイヤー_1
  6
CONTINUOUS
 62
       3
100
AcDbLine
 10
110.22652883
 20
3.11453185
 30
0.0
 11
110.15788389
 21
3.32088231
 31
0.0
  0
LINE
  5
FD
100
AcDbEntity
  8
レイヤー_1
  6
CONTINUOUS
 62
       3
100
AcDbLine
 10
110.15788389
 20
3.32088231
 30
0.0
 11
110.07039657
 21
3.5178218
 31
0.0
  0
LINE
  5
FE
100
AcDbEntity
  8
レイヤー_1
  6
CONTINUOUS
 62
       3
100
AcDbLine
 10
110.07039657
 20
3.5178218
 30
0.0
 11
109.96514591
 21
3.70427275
 31
0.0
  0
LINE
  5
FF
100
AcDbEntity
  8
レイヤー_1
  6
CONTINUOUS
 62
       3
100
AcDbLine
 10
109.96514591
 20
3.70427275
 30
0.0
 11
109.84321097
 21
3.87915753
 31
0.0
  0
LINE
  5
100
100
AcDbEntity
  8
レイヤー_1
  6
CONTINUOUS
 62
       3
100
AcDbLine
 10
109.84321097
 20
3.87915753
 30
0.0
 11
109.70567079
 21
4.04139856
 31
0.0
  0
LINE
  5
101
100
AcDbEntity
  8
レイヤー_1
  6
CONTINUOUS
 62
       3
100
AcDbLine
 10
109.70567079
 20
4.04139856
 30
0.0
 11
109.55360442
 21
4.18991823
 31
0.0
  0
LINE
  5
102
100
AcDbEntity
  8
レイヤー_1
  6
CONTINUOUS
 62
       3
100
AcDbLine
 10
109.55360442
 20
4.18991823
 30
0.0
 11
109.3880909
 21
4.32363893
 31
0.0
  0
LINE
  5
103
100
AcDbEntity
  8
レイヤー_1
  6
CONTINUOUS
 62
       3
100
AcDbLine
 10
109.3880909
 20
4.32363893
 30
0.0
 11
109.21020929
 21
4.44148306
 31
0.0
  0
LINE
  5
104
100
AcDbEntity
  8
レイヤー_1
  6
CONTINUOUS
 62
       3
100
AcDbLine
 10
109.21020929
 20
4.44148306
 30
0.0
 11
109.02103863
 21
4.54237303
 31
0.0
  0
LINE
  5
105
100
AcDbEntity
  8
レイヤー_1
  6
CONTINUOUS
 62
       3
100
AcDbLine
 10
109.02103863
 20
4.54237303
 30
0.0
 11
108.82165797
 21
4.62523123
 31
0.0
  0
LINE
  5
106
100
AcDbEntity
  8
レイヤー_1
  6
CONTINUOUS
 62
       3
100
AcDbLine
 10
108.82165797
 20
4.62523123
 30
0.0
 11
108.61314635
 21
4.68898006
 31
0.0
  0
LINE
  5
107
100
AcDbEntity
  8
レイヤー_1
  6
CONTINUOUS
 62
       3
100
AcDbLine
 10
108.61314635
 20
4.68898006
 30
0.0
 11
108.39658283
 21
4.73254191
 31
0.0
  0
LINE
  5
108
100
AcDbEntity
  8
レイヤー_1
  6
CONTINUOUS
 62
       3
100
AcDbLine
 10
108.39658283
 20
4.73254191
 30
0.0
 11
108.17304644
 21
4.75483919
 31
0.0
  0
LINE
  5
109
100
AcDbEntity
  8
レイヤー_1
  6
CONTINUOUS
 62
       3
100
AcDbLine
 10
108.17304644
 20
4.75483919
 30
0.0
 11
107.94501456
 21
4.75483919
 31
0.0
  0
LINE
  5
10A
100
AcDbEntity
  8
レイヤー_1
  6
CONTINUOUS
 62
       3
100
AcDbLine
 10
107.94501456
 20
4.75483919
 30
0.0
 11
107.72157563
 21
4.73254191
 31
0.0
  0
LINE
  5
10B
100
AcDbEntity
  8
レイヤー_1
  6
CONTINUOUS
 62
       3
100
AcDbLine
 10
107.72157563
 20
4.73254191
 30
0.0
 11
107.50508259
 21
4.68898006
 31
0.0
  0
LINE
  5
10C
100
AcDbEntity
  8
レイヤー_1
  6
CONTINUOUS
 62
       3
100
AcDbLine
 10
107.50508259
 20
4.68898006
 30
0.0
 11
107.29661737
 21
4.62523123
 31
0.0
  0
LINE
  5
10D
100
AcDbEntity
  8
レイヤー_1
  6
CONTINUOUS
 62
       3
100
AcDbLine
 10
107.29661737
 20
4.62523123
 30
0.0
 11
107.0972619
 21
4.54237303
 31
0.0
  0
LINE
  5
10E
100
AcDbEntity
  8
レイヤー_1
  6
CONTINUOUS
 62
       3
100
AcDbLine
 10
107.0972619
 20
4.54237303
 30
0.0
 11
106.90809814
 21
4.44148306
 31
0.0
  0
LINE
  5
10F
100
AcDbEntity
  8
レイヤー_1
  6
CONTINUOUS
 62
       3
100
AcDbLine
 10
106.90809814
 20
4.44148306
 30
0.0
 11
106.73020801
 21
4.32363893
 31
0.0
  0
LINE
  5
110
100
AcDbEntity
  8
レイヤー_1
  6
CONTINUOUS
 62
       3
100
AcDbLine
 10
106.73020801
 20
4.32363893
 30
0.0
 11
106.56467345
 21
4.18991823
 31
0.0
  0
LINE
  5
111
100
AcDbEntity
  8
レイヤー_1
  6
CONTINUOUS
 62
       3
100
AcDbLine
 10
106.56467345
 20
4.18991823
 30
0.0
 11
106.4125764
 21
4.04139856
 31
0.0
  0
LINE
  5
112
100
AcDbEntity
  8
レイヤー_1
  6
CONTINUOUS
 62
       3
100
AcDbLine
 10
106.4125764
 20
4.04139856
 30
0.0
 11
106.27499879
 21
3.87915753
 31
0.0
  0
LINE
  5
113
100
AcDbEntity
  8
レイヤー_1
  6
CONTINUOUS
 62
       3
100
AcDbLine
 10
106.27499879
 20
3.87915753
 30
0.0
 11
106.15302258
 21
3.70427275
 31
0.0
  0
LINE
  5
114
100
AcDbEntity
  8
レイヤー_1
  6
CONTINUOUS
 62
       3
100
AcDbLine
 10
106.15302258
 20
3.70427275
 30
0.0
 11
106.04772968
 21
3.5178218
 31
0.0
  0
LINE
  5
115
100
AcDbEntity
  8
レイヤー_1
  6
CONTINUOUS
 62
       3
100
AcDbLine
 10
106.04772968
 20
3.5178218
 30
0.0
 11
105.96020204
 21
3.32088231
 31
0.0
  0
LINE
  5
116
100
AcDbEntity
  8
レイヤー_1
  6
CONTINUOUS
 62
       3
100
AcDbLine
 10
105.96020204
 20
3.32088231
 30
0.0
 11
105.8915216
 21
3.11453185
 31
0.0
  0
LINE
  5
117
100
AcDbEntity
  8
レイヤー_1
  6
CONTINUOUS
 62
       3
100
AcDbLine
 10
105.8915216
 20
3.11453185
 30
0.0
 11
105.8427703
 21
2.89984805
 31
0.0
  0
LINE
  5
118
100
AcDbEntity
  8
レイヤー_1
  6
CONTINUOUS
 62
       3
100
AcDbLine
 10
105.8427703
 20
2.89984805
 30
0.0
 11
105.81503006
 21
2.6779085
 31
0.0
  0
LINE
  5
119
100
AcDbEntity
  8
レイヤー_1
  6
CONTINUOUS
 62
       3
100
AcDbLine
 10
105.81503006
 20
2.6779085
 30
0.0
 11
105.8093772
 21
2.45020373
 31
0.0
  0
LINE
  5
11A
100
AcDbEntity
  8
レイヤー_1
  6
CONTINUOUS
 62
       3
100
AcDbLine
 10
105.8093772
 20
2.45020373
 30
0.0
 11
105.82620617
 21
2.2253076
 31
0.0
  0
LINE
  5
11B
100
AcDbEntity
  8
レイヤー_1
  6
CONTINUOUS
 62
       3
100
AcDbLine
 10
105.82620617
 20
2.2253076
 30
0.0
 11
105.86458719
 21
2.00706579
 31
0.0
  0
LINE
  5
11C
100
AcDbEntity
  8
レイヤー_1
  6
CONTINUOUS
 62
       3
100
AcDbLine
 10
105.86458719
 20
2.00706579
 30
0.0
 11
105.9234383
 21
1.79656217
 31
0.0
  0
LINE
  5
11D
100
AcDbEntity
  8
レイヤー_1
  6
CONTINUOUS
 62
       3
100
AcDbLine
 10
105.9234383
 20
1.79656217
 30
0.0
 11
106.00167758
 21
1.5948806
 31
0.0
  0
LINE
  5
11E
100
AcDbEntity
  8
レイヤー_1
  6
CONTINUOUS
 62
       3
100
AcDbLine
 10
106.00167758
 20
1.5948806
 30
0.0
 11
106.09822309
 21
1.40310496
 31
0.0
  0
LINE
  5
11F
100
AcDbEntity
  8
レイヤー_1
  6
CONTINUOUS
 62
       3
100
AcDbLine
 10
106.09822309
 20
1.40310496
 30
0.0
 11
106.21199289
 21
1.22231909
 31
0.0
  0
LINE
  5
120
100
AcDbEntity
  8
レイヤー_1
  6
CONTINUOUS
 62
       3
100
AcDbLine
 10
106.21199289
 20
1.22231909
 30
0.0
 11
106.34190504
 21
1.05360687
 31
0.0
  0
LINE
  5
121
100
AcDbEntity
  8
レイヤー_1
  6
CONTINUOUS
 62
       3
100
AcDbLine
 10
106.34190504
 20
1.05360687
 30
0.0
 11
106.48687761
 21
0.89805216
 31
0.0
  0
LINE
  5
122
100
AcDbEntity
  8
レイヤー_1
  6
CONTINUOUS
 62
       3
100
AcDbLine
 10
106.48687761
 20
0.89805216
 30
0.0
 11
106.64582866
 21
0.75673883
 31
0.0
  0
LINE
  5
123
100
AcDbEntity
  8
レイヤー_1
  6
CONTINUOUS
 62
       3
100
AcDbLine
 10
106.64582866
 20
0.75673883
 30
0.0
 11
106.81767625
 21
0.63075074
 31
0.0
  0
LINE
  5
124
100
AcDbEntity
  8
レイヤー_1
  6
CONTINUOUS
 62
       3
100
AcDbLine
 10
106.81767625
 20
0.63075074
 30
0.0
 11
107.00133844
 21
0.52117175
 31
0.0
  0
LINE
  5
125
100
AcDbEntity
  8
レイヤー_1
  6
CONTINUOUS
 62
       3
100
AcDbLine
 10
107.00133844
 20
0.52117175
 30
0.0
 11
107.19573329
 21
0.42908573
 31
0.0
  0
LINE
  5
126
100
AcDbEntity
  8
レイヤー_1
  6
CONTINUOUS
 62
       3
100
AcDbLine
 10
107.19573329
 20
0.42908573
 30
0.0
 11
107.39977888
 21
0.35557655
 31
0.0
  0
LINE
  5
127
100
AcDbEntity
  8
レイヤー_1
  6
CONTINUOUS
 62
       3
100
AcDbLine
 10
107.39977888
 20
0.35557655
 30
0.0
 11
107.61239325
 21
0.30172806
 31
0.0
  0
LINE
  5
128
100
AcDbEntity
  8
レイヤー_1
  6
CONTINUOUS
 62
       3
100
AcDbLine
 10
107.61239325
 20
0.30172806
 30
0.0
 11
107.83249448
 21
0.26862413
 31
0.0
  0
LINE
  5
129
100
AcDbEntity
  8
レイヤー_1
  6
CONTINUOUS
 62
       3
100
AcDbLine
 10
107.83249448
 20
0.26862413
 30
0.0
 11
108.05900063
 21
0.25734863
 31
0.0
  0
LINE
  5
12A
100
AcDbEntity
  8
レイヤー_1
  6
CONTINUOUS
 62
       3
100
AcDbLine
 10
108.05900063
 20
1.50757378
 30
0.0
 11
108.15962851
 21
1.51257812
 31
0.0
  0
LINE
  5
12B
100
AcDbEntity
  8
レイヤー_1
  6
CONTINUOUS
 62
       3
100
AcDbLine
 10
108.15962851
 20
1.51257812
 30
0.0
 11
108.25741161
 21
1.52727161
 31
0.0
  0
LINE
  5
12C
100
AcDbEntity
  8
レイヤー_1
  6
CONTINUOUS
 62
       3
100
AcDbLine
 10
108.25741161
 20
1.52727161
 30
0.0
 11
108.35186918
 21
1.55117494
 31
0.0
  0
LINE
  5
12D
100
AcDbEntity
  8
レイヤー_1
  6
CONTINUOUS
 62
       3
100
AcDbLine
 10
108.35186918
 20
1.55117494
 30
0.0
 11
108.44252045
 21
1.58380879
 31
0.0
  0
LINE
  5
12E
100
AcDbEntity
  8
レイヤー_1
  6
CONTINUOUS
 62
       3
100
AcDbLine
 10
108.44252045
 20
1.58380879
 30
0.0
 11
108.52888468
 21
1.62469386
 31
0.0
  0
LINE
  5
12F
100
AcDbEntity
  8
レイヤー_1
  6
CONTINUOUS
 62
       3
100
AcDbLine
 10
108.52888468
 20
1.62469386
 30
0.0
 11
108.61048111
 21
1.67335084
 31
0.0
  0
LINE
  5
130
100
AcDbEntity
  8
レイヤー_1
  6
CONTINUOUS
 62
       3
100
AcDbLine
 10
108.61048111
 20
1.67335084
 30
0.0
 11
108.68682899
 21
1.72930042
 31
0.0
  0
LINE
  5
131
100
AcDbEntity
  8
レイヤー_1
  6
CONTINUOUS
 62
       3
100
AcDbLine
 10
108.68682899
 20
1.72930042
 30
0.0
 11
108.75744756
 21
1.79206329
 31
0.0
  0
LINE
  5
132
100
AcDbEntity
  8
レイヤー_1
  6
CONTINUOUS
 62
       3
100
AcDbLine
 10
108.75744756
 20
1.79206329
 30
0.0
 11
108.82185607
 21
1.86116014
 31
0.0
  0
LINE
  5
133
100
AcDbEntity
  8
レイヤー_1
  6
CONTINUOUS
 62
       3
100
AcDbLine
 10
108.82185607
 20
1.86116014
 30
0.0
 11
108.87957376
 21
1.93611167
 31
0.0
  0
LINE
  5
134
100
AcDbEntity
  8
レイヤー_1
  6
CONTINUOUS
 62
       3
100
AcDbLine
 10
108.87957376
 20
1.93611167
 30
0.0
 11
108.93011989
 21
2.01643856
 31
0.0
  0
LINE
  5
135
100
AcDbEntity
  8
レイヤー_1
  6
CONTINUOUS
 62
       3
100
AcDbLine
 10
108.93011989
 20
2.01643856
 30
0.0
 11
108.97301369
 21
2.10166151
 31
0.0
  0
LINE
  5
136
100
AcDbEntity
  8
レイヤー_1
  6
CONTINUOUS
 62
       3
100
AcDbLine
 10
108.97301369
 20
2.10166151
 30
0.0
 11
109.00777441
 21
2.19130121
 31
0.0
  0
LINE
  5
137
100
AcDbEntity
  8
レイヤー_1
  6
CONTINUOUS
 62
       3
100
AcDbLine
 10
109.00777441
 20
2.19130121
 30
0.0
 11
109.0339213
 21
2.28487835
 31
0.0
  0
LINE
  5
138
100
AcDbEntity
  8
レイヤー_1
  6
CONTINUOUS
 62
       3
100
AcDbLine
 10
109.0339213
 20
2.28487835
 30
0.0
 11
109.05097361
 21
2.38191361
 31
0.0
  0
LINE
  5
139
100
AcDbEntity
  8
レイヤー_1
  6
CONTINUOUS
 62
       3
100
AcDbLine
 10
109.05097361
 20
2.38191361
 30
0.0
 11
109.05845058
 21
2.4819277
 31
0.0
  0
LINE
  5
13A
100
AcDbEntity
  8
レイヤー_1
  6
CONTINUOUS
 62
       3
100
AcDbLine
 10
109.05845058
 20
2.4819277
 30
0.0
 11
109.05593906
 21
2.58315039
 31
0.0
  0
LINE
  5
13B
100
AcDbEntity
  8
レイヤー_1
  6
CONTINUOUS
 62
       3
100
AcDbLine
 10
109.05593906
 20
2.58315039
 30
0.0
 11
109.04361433
 21
2.68179818
 31
0.0
  0
LINE
  5
13C
100
AcDbEntity
  8
レイヤー_1
  6
CONTINUOUS
 62
       3
100
AcDbLine
 10
109.04361433
 20
2.68179818
 30
0.0
 11
109.02195463
 21
2.77722666
 31
0.0
  0
LINE
  5
13D
100
AcDbEntity
  8
レイヤー_1
  6
CONTINUOUS
 62
       3
100
AcDbLine
 10
109.02195463
 20
2.77722666
 30
0.0
 11
108.99144073
 21
2.86895603
 31
0.0
  0
LINE
  5
13E
100
AcDbEntity
  8
レイヤー_1
  6
CONTINUOUS
 62
       3
100
AcDbLine
 10
108.99144073
 20
2.86895603
 30
0.0
 11
108.95255337
 21
2.9565065
 31
0.0
  0
LINE
  5
13F
100
AcDbEntity
  8
レイヤー_1
  6
CONTINUOUS
 62
       3
100
AcDbLine
 10
108.95255337
 20
2.9565065
 30
0.0
 11
108.90577332
 21
3.03939828
 31
0.0
  0
LINE
  5
140
100
AcDbEntity
  8
レイヤー_1
  6
CONTINUOUS
 62
       3
100
AcDbLine
 10
108.90577332
 20
3.03939828
 30
0.0
 11
108.85158131
 21
3.11715157
 31
0.0
  0
LINE
  5
141
100
AcDbEntity
  8
レイヤー_1
  6
CONTINUOUS
 62
       3
100
AcDbLine
 10
108.85158131
 20
3.11715157
 30
0.0
 11
108.79045812
 21
3.1892866
 31
0.0
  0
LINE
  5
142
100
AcDbEntity
  8
レイヤー_1
  6
CONTINUOUS
 62
       3
100
AcDbLine
 10
108.79045812
 20
3.1892866
 30
0.0
 11
108.72288448
 21
3.25532357
 31
0.0
  0
LINE
  5
143
100
AcDbEntity
  8
レイヤー_1
  6
CONTINUOUS
 62
       3
100
AcDbLine
 10
108.72288448
 20
3.25532357
 30
0.0
 11
108.64934117
 21
3.31478268
 31
0.0
  0
LINE
  5
144
100
AcDbEntity
  8
レイヤー_1
  6
CONTINUOUS
 62
       3
100
AcDbLine
 10
108.64934117
 20
3.31478268
 30
0.0
 11
108.57030892
 21
3.36718415
 31
0.0
  0
LINE
  5
145
100
AcDbEntity
  8
レイヤー_1
  6
CONTINUOUS
 62
       3
100
AcDbLine
 10
108.57030892
 20
3.36718415
 30
0.0
 11
108.48626849
 21
3.41204818
 31
0.0
  0
LINE
  5
146
100
AcDbEntity
  8
レイヤー_1
  6
CONTINUOUS
 62
       3
100
AcDbLine
 10
108.48626849
 20
3.41204818
 30
0.0
 11
108.39770065
 21
3.448895
 31
0.0
  0
LINE
  5
147
100
AcDbEntity
  8
レイヤー_1
  6
CONTINUOUS
 62
       3
100
AcDbLine
 10
108.39770065
 20
3.448895
 30
0.0
 11
108.30508613
 21
3.47724479
 31
0.0
  0
LINE
  5
148
100
AcDbEntity
  8
レイヤー_1
  6
CONTINUOUS
 62
       3
100
AcDbLine
 10
108.30508613
 20
3.47724479
 30
0.0
 11
108.20890571
 21
3.49661779
 31
0.0
  0
LINE
  5
149
100
AcDbEntity
  8
レイヤー_1
  6
CONTINUOUS
 62
       3
100
AcDbLine
 10
108.20890571
 20
3.49661779
 30
0.0
 11
108.10964012
 21
3.50653418
 31
0.0
  0
LINE
  5
14A
100
AcDbEntity
  8
レイヤー_1
  6
CONTINUOUS
 62
       3
100
AcDbLine
 10
108.10964012
 20
3.50653418
 30
0.0
 11
108.00841897
 21
3.50653418
 31
0.0
  0
LINE
  5
14B
100
AcDbEntity
  8
レイヤー_1
  6
CONTINUOUS
 62
       3
100
AcDbLine
 10
108.00841897
 20
3.50653418
 30
0.0
 11
107.90923622
 21
3.49661779
 31
0.0
  0
LINE
  5
14C
100
AcDbEntity
  8
レイヤー_1
  6
CONTINUOUS
 62
       3
100
AcDbLine
 10
107.90923622
 20
3.49661779
 30
0.0
 11
107.8130989
 21
3.47724479
 31
0.0
  0
LINE
  5
14D
100
AcDbEntity
  8
レイヤー_1
  6
CONTINUOUS
 62
       3
100
AcDbLine
 10
107.8130989
 20
3.47724479
 30
0.0
 11
107.72049257
 21
3.448895
 31
0.0
  0
LINE
  5
14E
100
AcDbEntity
  8
レイヤー_1
  6
CONTINUOUS
 62
       3
100
AcDbLine
 10
107.72049257
 20
3.448895
 30
0.0
 11
107.63190279
 21
3.41204818
 31
0.0
  0
LINE
  5
14F
100
AcDbEntity
  8
レイヤー_1
  6
CONTINUOUS
 62
       3
100
AcDbLine
 10
107.63190279
 20
3.41204818
 30
0.0
 11
107.54781515
 21
3.36718415
 31
0.0
  0
LINE
  5
150
100
AcDbEntity
  8
レイヤー_1
  6
CONTINUOUS
 62
       3
100
AcDbLine
 10
107.54781515
 20
3.36718415
 30
0.0
 11
107.46871521
 21
3.31478268
 31
0.0
  0
LINE
  5
151
100
AcDbEntity
  8
レイヤー_1
  6
CONTINUOUS
 62
       3
100
AcDbLine
 10
107.46871521
 20
3.31478268
 30
0.0
 11
107.39508855
 21
3.25532357
 31
0.0
  0
LINE
  5
152
100
AcDbEntity
  8
レイヤー_1
  6
CONTINUOUS
 62
       3
100
AcDbLine
 10
107.39508855
 20
3.25532357
 30
0.0
 11
107.32742073
 21
3.1892866
 31
0.0
  0
LINE
  5
153
100
AcDbEntity
  8
レイヤー_1
  6
CONTINUOUS
 62
       3
100
AcDbLine
 10
107.32742073
 20
3.1892866
 30
0.0
 11
107.26619732
 21
3.11715157
 31
0.0
  0
LINE
  5
154
100
AcDbEntity
  8
レイヤー_1
  6
CONTINUOUS
 62
       3
100
AcDbLine
 10
107.26619732
 20
3.11715157
 30
0.0
 11
107.21190391
 21
3.03939828
 31
0.0
  0
LINE
  5
155
100
AcDbEntity
  8
レイヤー_1
  6
CONTINUOUS
 62
       3
100
AcDbLine
 10
107.21190391
 20
3.03939828
 30
0.0
 11
107.16502605
 21
2.9565065
 31
0.0
  0
LINE
  5
156
100
AcDbEntity
  8
レイヤー_1
  6
CONTINUOUS
 62
       3
100
AcDbLine
 10
107.16502605
 20
2.9565065
 30
0.0
 11
107.12604933
 21
2.86895603
 31
0.0
  0
LINE
  5
157
100
AcDbEntity
  8
レイヤー_1
  6
CONTINUOUS
 62
       3
100
AcDbLine
 10
107.12604933
 20
2.86895603
 30
0.0
 11
107.0954593
 21
2.77722666
 31
0.0
  0
LINE
  5
158
100
AcDbEntity
  8
レイヤー_1
  6
CONTINUOUS
 62
       3
100
AcDbLine
 10
107.0954593
 20
2.77722666
 30
0.0
 11
107.07374155
 21
2.68179818
 31
0.0
  0
LINE
  5
159
100
AcDbEntity
  8
レイヤー_1
  6
CONTINUOUS
 62
       3
100
AcDbLine
 10
107.07374155
 20
2.68179818
 30
0.0
 11
107.06138164
 21
2.58315039
 31
0.0
  0
LINE
  5
15A
100
AcDbEntity
  8
レイヤー_1
  6
CONTINUOUS
 62
       3
100
AcDbLine
 10
107.06138164
 20
2.58315039
 30
0.0
 11
107.05886262
 21
2.4819277
 31
0.0
  0
LINE
  5
15B
100
AcDbEntity
  8
レイヤー_1
  6
CONTINUOUS
 62
       3
100
AcDbLine
 10
107.05886262
 20
2.4819277
 30
0.0
 11
107.06636152
 21
2.38191361
 31
0.0
  0
LINE
  5
15C
100
AcDbEntity
  8
レイヤー_1
  6
CONTINUOUS
 62
       3
100
AcDbLine
 10
107.06636152
 20
2.38191361
 30
0.0
 11
107.08346104
 21
2.28487835
 31
0.0
  0
LINE
  5
15D
100
AcDbEntity
  8
レイヤー_1
  6
CONTINUOUS
 62
       3
100
AcDbLine
 10
107.08346104
 20
2.28487835
 30
0.0
 11
107.10967563
 21
2.19130121
 31
0.0
  0
LINE
  5
15E
100
AcDbEntity
  8
レイヤー_1
  6
CONTINUOUS
 62
       3
100
AcDbLine
 10
107.10967563
 20
2.19130121
 30
0.0
 11
107.1445197
 21
2.10166151
 31
0.0
  0
LINE
  5
15F
100
AcDbEntity
  8
レイヤー_1
  6
CONTINUOUS
 62
       3
100
AcDbLine
 10
107.1445197
 20
2.10166151
 30
0.0
 11
107.18750769
 21
2.01643856
 31
0.0
  0
LINE
  5
160
100
AcDbEntity
  8
レイヤー_1
  6
CONTINUOUS
 62
       3
100
AcDbLine
 10
107.18750769
 20
2.01643856
 30
0.0
 11
107.23815402
 21
1.93611167
 31
0.0
  0
LINE
  5
161
100
AcDbEntity
  8
レイヤー_1
  6
CONTINUOUS
 62
       3
100
AcDbLine
 10
107.23815402
 20
1.93611167
 30
0.0
 11
107.29597312
 21
1.86116014
 31
0.0
  0
LINE
  5
162
100
AcDbEntity
  8
レイヤー_1
  6
CONTINUOUS
 62
       3
100
AcDbLine
 10
107.29597312
 20
1.86116014
 30
0.0
 11
107.36047943
 21
1.79206329
 31
0.0
  0
LINE
  5
163
100
AcDbEntity
  8
レイヤー_1
  6
CONTINUOUS
 62
       3
100
AcDbLine
 10
107.36047943
 20
1.79206329
 30
0.0
 11
107.43118737
 21
1.72930042
 31
0.0
  0
LINE
  5
164
100
AcDbEntity
  8
レイヤー_1
  6
CONTINUOUS
 62
       3
100
AcDbLine
 10
107.43118737
 20
1.72930042
 30
0.0
 11
107.50761137
 21
1.67335084
 31
0.0
  0
LINE
  5
165
100
AcDbEntity
  8
レイヤー_1
  6
CONTINUOUS
 62
       3
100
AcDbLine
 10
107.50761137
 20
1.67335084
 30
0.0
 11
107.58926586
 21
1.62469386
 31
0.0
  0
LINE
  5
166
100
AcDbEntity
  8
レイヤー_1
  6
CONTINUOUS
 62
       3
100
AcDbLine
 10
107.58926586
 20
1.62469386
 30
0.0
 11
107.67566526
 21
1.58380879
 31
0.0
  0
LINE
  5
167
100
AcDbEntity
  8
レイヤー_1
  6
CONTINUOUS
 62
       3
100
AcDbLine
 10
107.67566526
 20
1.58380879
 30
0.0
 11
107.76632401
 21
1.55117494
 31
0.0
  0
LINE
  5
168
100
AcDbEntity
  8
レイヤー_1
  6
CONTINUOUS
 62
       3
100
AcDbLine
 10
107.76632401
 20
1.55117494
 30
0.0
 11
107.86075654
 21
1.52727161
 31
0.0
  0
LINE
  5
169
100
AcDbEntity
  8
レイヤー_1
  6
CONTINUOUS
 62
       3
100
AcDbLine
 10
107.86075654
 20
1.52727161
 30
0.0
 11
107.95847727
 21
1.51257812
 31
0.0
  0
LINE
  5
16A
100
AcDbEntity
  8
レイヤー_1
  6
CONTINUOUS
 62
       3
100
AcDbLine
 10
107.95847727
 20
1.51257812
 30
0.0
 11
108.05900063
 21
1.50757378
 31
0.0
  0
LINE
  5
16B
100
AcDbEntity
  8
レイヤー_1
  6
CONTINUOUS
 62
       3
100
AcDbLine
 10
107.43612736
 20
44.4937527
 30
0.0
 11
107.43612736
 21
25.52333441
 31
0.0
  0
LINE
  5
16C
100
AcDbEntity
  8
レイヤー_1
  6
CONTINUOUS
 62
       3
100
AcDbLine
 10
107.43612736
 20
25.52333441
 30
0.0
 11
101.43546005
 21
25.52333441
 31
0.0
  0
LINE
  5
16D
100
AcDbEntity
  8
レイヤー_1
  6
CONTINUOUS
 62
       3
100
AcDbLine
 10
101.43546005
 20
25.52333441
 30
0.0
 11
101.43546005
 21
44.4937527
 31
0.0
  0
LINE
  5
16E
100
AcDbEntity
  8
レイヤー_1
  6
CONTINUOUS
 62
       3
100
AcDbLine
 10
112.90418292
 20
-27.51735568
 30
0.0
 11
112.90418292
 21
-29.39148763
 31
0.0
  0
LINE
  5
16F
100
AcDbEntity
  8
レイヤー_1
  6
CONTINUOUS
 62
       3
100
AcDbLine
 10
112.90418292
 20
-29.39148763
 30
0.0
 11
110.85366208
 21
-31.44166395
 31
0.0
  0
LINE
  5
170
100
AcDbEntity
  8
レイヤー_1
  6
CONTINUOUS
 62
       3
100
AcDbLine
 10
110.85366208
 20
-31.44166395
 30
0.0
 11
97.96211478
 21
-31.44166395
 31
0.0
  0
LINE
  5
171
100
AcDbEntity
  8
レイヤー_1
  6
CONTINUOUS
 62
       3
100
AcDbLine
 10
97.96211478
 20
-31.44166395
 30
0.0
 11
95.91228297
 21
-29.39148763
 31
0.0
  0
LINE
  5
172
100
AcDbEntity
  8
レイヤー_1
  6
CONTINUOUS
 62
       3
100
AcDbLine
 10
95.91228297
 20
-29.39148763
 30
0.0
 11
95.91228297
 21
-27.51735568
 31
0.0
  0
LINE
  5
173
100
AcDbEntity
  8
レイヤー_1
  6
CONTINUOUS
 62
       3
100
AcDbLine
 10
8.96771918
 20
22.50990939
 30
0.0
 11
10.95691732
 21
22.50990939
 31
0.0
  0
LINE
  5
174
100
AcDbEntity
  8
レイヤー_1
  6
CONTINUOUS
 62
       3
100
AcDbLine
 10
36.96738823
 20
-9.50605198
 30
0.0
 11
36.96738823
 21
-7.50651856
 31
0.0
  0
LINE
  5
175
100
AcDbEntity
  8
レイヤー_1
  6
CONTINUOUS
 62
       3
100
AcDbLine
 10
36.96738823
 20
-7.50651856
 30
0.0
 11
37.96715494
 21
-7.50651856
 31
0.0
  0
LINE
  5
176
100
AcDbEntity
  8
レイヤー_1
  6
CONTINUOUS
 62
       3
100
AcDbLine
 10
37.96715494
 20
-7.50651856
 30
0.0
 11
38.96692165
 21
-9.50605198
 31
0.0
  0
LINE
  5
177
100
AcDbEntity
  8
レイヤー_1
  6
CONTINUOUS
 62
       3
100
AcDbLine
 10
32.46740451
 20
-27.5070204
 30
0.0
 11
32.46740451
 21
-17.50625271
 31
0.0
  0
LINE
  5
178
100
AcDbEntity
  8
レイヤー_1
  6
CONTINUOUS
 62
       3
100
AcDbLine
 10
32.46740451
 20
-17.50625271
 30
0.0
 11
12.46724718
 21
-17.50625271
 31
0.0
  0
LINE
  5
179
100
AcDbEntity
  8
レイヤー_1
  6
CONTINUOUS
 62
       3
100
AcDbLine
 10
12.46724718
 20
-17.50625271
 30
0.0
 11
10.9672526
 21
-16.00625813
 31
0.0
  0
LINE
  5
17A
100
AcDbEntity
  8
レイヤー_1
  6
CONTINUOUS
 62
       3
100
AcDbLine
 10
36.96738823
 20
26.4934733
 30
0.0
 11
36.96738823
 21
24.49393988
 31
0.0
  0
LINE
  5
17B
100
AcDbEntity
  8
レイヤー_1
  6
CONTINUOUS
 62
       3
100
AcDbLine
 10
36.96738823
 20
24.49393988
 30
0.0
 11
37.96715494
 21
24.49393988
 31
0.0
  0
LINE
  5
17C
100
AcDbEntity
  8
レイヤー_1
  6
CONTINUOUS
 62
       3
100
AcDbLine
 10
37.96715494
 20
24.49393988
 30
0.0
 11
38.96692165
 21
26.4934733
 31
0.0
  0
LINE
  5
17D
100
AcDbEntity
  8
レイヤー_1
  6
CONTINUOUS
 62
       3
100
AcDbLine
 10
8.96771918
 20
-7.48963759
 30
0.0
 11
10.95691732
 21
-7.48963759
 31
0.0
  0
LINE
  5
17E
100
AcDbEntity
  8
レイヤー_1
  6
CONTINUOUS
 62
       3
100
AcDbLine
 10
8.96771918
 20
24.51013183
 30
0.0
 11
10.95691732
 21
24.51013183
 31
0.0
  0
LINE
  5
17F
100
AcDbEntity
  8
レイヤー_1
  6
CONTINUOUS
 62
       3
100
AcDbLine
 10
8.96771918
 20
-5.48941515
 30
0.0
 11
10.95691732
 21
-5.48941515
 31
0.0
  0
LINE
  5
180
100
AcDbEntity
  8
レイヤー_1
  6
CONTINUOUS
 62
       3
100
AcDbLine
 10
38.96692165
 20
-31.50608723
 30
0.0
 11
38.96692165
 21
-27.5070204
 31
0.0
  0
LINE
  5
181
100
AcDbEntity
  8
レイヤー_1
  6
CONTINUOUS
 62
       3
100
AcDbLine
 10
38.96692165
 20
-27.5070204
 30
0.0
 11
35.96762152
 21
-27.5070204
 31
0.0
  0
LINE
  5
182
100
AcDbEntity
  8
レイヤー_1
  6
CONTINUOUS
 62
       3
100
AcDbLine
 10
35.96762152
 20
-27.5070204
 30
0.0
 11
35.96762152
 21
-31.50608723
 31
0.0
  0
LINE
  5
183
100
AcDbEntity
  8
レイヤー_1
  6
CONTINUOUS
 62
       3
100
AcDbLine
 10
35.96762152
 20
-31.50608723
 30
0.0
 11
38.96692165
 21
-31.50608723
 31
0.0
  0
LINE
  5
184
100
AcDbEntity
  8
レイヤー_1
  6
CONTINUOUS
 62
       3
100
AcDbLine
 10
35.96762152
 20
-29.50586481
 30
0.0
 11
38.96692165
 21
-29.50586481
 31
0.0
  0
LINE
  5
185
100
AcDbEntity
  8
レイヤー_1
  6
CONTINUOUS
 62
       3
100
AcDbLine
 10
35.98277994
 20
19.51129828
 30
0.0
 11
36.62150064
 21
21.50394151
 31
0.0
  0
LINE
  5
186
100
AcDbEntity
  8
レイヤー_1
  6
CONTINUOUS
 62
       3
100
AcDbLine
 10
36.62150064
 20
21.50394151
 30
0.0
 11
35.98277994
 21
23.49555121
 31
0.0
  0
LINE
  5
187
100
AcDbEntity
  8
レイヤー_1
  6
CONTINUOUS
 62
       3
100
AcDbLine
 10
-75.03232148
 20
6.51088595
 30
0.0
 11
-85.03308917
 21
6.51088595
 31
0.0
  0
LINE
  5
188
100
AcDbEntity
  8
レイヤー_1
  6
CONTINUOUS
 62
       3
100
AcDbLine
 10
-85.03308917
 20
6.51088595
 30
0.0
 11
-85.03308917
 21
-1.48965929
 31
0.0
  0
LINE
  5
189
100
AcDbEntity
  8
レイヤー_1
  6
CONTINUOUS
 62
       3
100
AcDbLine
 10
-85.03308917
 20
-1.48965929
 30
0.0
 11
-75.03232148
 21
-1.48965929
 31
0.0
  0
LINE
  5
18A
100
AcDbEntity
  8
レイヤー_1
  6
CONTINUOUS
 62
       3
100
AcDbLine
 10
35.96762152
 20
-9.50605198
 30
0.0
 11
38.96771918
 21
-9.50605198
 31
0.0
  0
LINE
  5
18B
100
AcDbEntity
  8
レイヤー_1
  6
CONTINUOUS
 62
       3
100
AcDbLine
 10
38.96771918
 20
-27.5070204
 30
0.0
 11
23.96697591
 21
-27.5070204
 31
0.0
  0
LINE
  5
18C
100
AcDbEntity
  8
レイヤー_1
  6
CONTINUOUS
 62
       3
100
AcDbLine
 10
23.96697591
 20
-27.5070204
 30
0.0
 11
22.46767035
 21
-26.00702582
 31
0.0
  0
LINE
  5
18D
100
AcDbEntity
  8
レイヤー_1
  6
CONTINUOUS
 62
       3
100
AcDbLine
 10
22.46767035
 20
-26.00702582
 30
0.0
 11
22.46767035
 21
-19.50647515
 31
0.0
  0
LINE
  5
18E
100
AcDbEntity
  8
レイヤー_1
  6
CONTINUOUS
 62
       3
100
AcDbLine
 10
22.46767035
 20
-19.50647515
 30
0.0
 11
12.46724718
 21
-19.50647515
 31
0.0
  0
LINE
  5
18F
100
AcDbEntity
  8
レイヤー_1
  6
CONTINUOUS
 62
       3
100
AcDbLine
 10
12.46724718
 20
-19.50647515
 30
0.0
 11
10.9672526
 21
-18.00648057
 31
0.0
  0
LINE
  5
190
100
AcDbEntity
  8
レイヤー_1
  6
CONTINUOUS
 62
       3
100
AcDbLine
 10
10.9672526
 20
-18.00648057
 30
0.0
 11
10.9672526
 21
34.9939019
 31
0.0
  0
LINE
  5
191
100
AcDbEntity
  8
レイヤー_1
  6
CONTINUOUS
 62
       3
100
AcDbLine
 10
10.9672526
 20
34.9939019
 30
0.0
 11
12.46724718
 21
36.49389648
 31
0.0
  0
LINE
  5
192
100
AcDbEntity
  8
レイヤー_1
  6
CONTINUOUS
 62
       3
100
AcDbLine
 10
12.46724718
 20
36.49389648
 30
0.0
 11
22.46767035
 21
36.49389648
 31
0.0
  0
LINE
  5
193
100
AcDbEntity
  8
レイヤー_1
  6
CONTINUOUS
 62
       3
100
AcDbLine
 10
22.46767035
 20
36.49389648
 30
0.0
 11
22.46767035
 21
42.99375812
 31
0.0
  0
LINE
  5
194
100
AcDbEntity
  8
レイヤー_1
  6
CONTINUOUS
 62
       3
100
AcDbLine
 10
22.46767035
 20
42.99375812
 30
0.0
 11
23.96697591
 21
44.49375271
 31
0.0
  0
LINE
  5
195
100
AcDbEntity
  8
レイヤー_1
  6
CONTINUOUS
 62
       3
100
AcDbLine
 10
23.96697591
 20
44.49375271
 30
0.0
 11
38.96771918
 21
44.49375271
 31
0.0
  0
LINE
  5
196
100
AcDbEntity
  8
レイヤー_1
  6
CONTINUOUS
 62
       3
100
AcDbLine
 10
38.96771918
 20
26.4934733
 30
0.0
 11
35.96762152
 21
26.4934733
 31
0.0
  0
LINE
  5
197
100
AcDbEntity
  8
レイヤー_1
  6
CONTINUOUS
 62
       3
100
AcDbLine
 10
35.96762152
 20
26.4934733
 30
0.0
 11
35.96762152
 21
-9.50605198
 31
0.0
  0
LINE
  5
198
100
AcDbEntity
  8
レイヤー_1
  6
CONTINUOUS
 62
       3
100
AcDbLine
 10
94.1490831
 20
33.4932183
 30
0.0
 11
92.91436087
 21
33.4932183
 31
0.0
  0
LINE
  5
199
100
AcDbEntity
  8
レイヤー_1
  6
CONTINUOUS
 62
       3
100
AcDbLine
 10
121.93584524
 20
41.74353297
 30
0.0
 11
115.93586694
 21
41.74353297
 31
0.0
  0
LINE
  5
19A
100
AcDbEntity
  8
レイヤー_1
  6
CONTINUOUS
 62
       3
100
AcDbLine
 10
121.93584524
 20
42.74398869
 30
0.0
 11
115.93586694
 21
42.74398869
 31
0.0
  0
LINE
  5
19B
100
AcDbEntity
  8
レイヤー_1
  6
CONTINUOUS
 62
       3
100
AcDbLine
 10
115.93586694
 20
34.74447697
 30
0.0
 11
121.93584524
 21
34.74447697
 31
0.0
  0
LINE
  5
19C
100
AcDbEntity
  8
レイヤー_1
  6
CONTINUOUS
 62
       3
100
AcDbLine
 10
115.93586694
 20
33.74471028
 30
0.0
 11
121.93584524
 21
33.74471028
 31
0.0
  0
LINE
  5
19D
100
AcDbEntity
  8
レイヤー_1
  6
CONTINUOUS
 62
       3
100
AcDbLine
 10
115.93586694
 20
44.4937527
 30
0.0
 11
115.93586694
 21
25.49370659
 31
0.0
  0
LINE
  5
19E
100
AcDbEntity
  8
レイヤー_1
  6
CONTINUOUS
 62
       3
100
AcDbLine
 10
115.93586694
 20
25.49370659
 30
0.0
 11
121.93584524
 21
25.49370659
 31
0.0
  0
LINE
  5
19F
100
AcDbEntity
  8
レイヤー_1
  6
CONTINUOUS
 62
       3
100
AcDbLine
 10
121.93584524
 20
25.49370659
 30
0.0
 11
121.93584524
 21
44.4937527
 31
0.0
  0
LINE
  5
1A0
100
AcDbEntity
  8
レイヤー_1
  6
CONTINUOUS
 62
       3
100
AcDbLine
 10
114.6859863
 20
41.74353297
 30
0.0
 11
108.68669702
 21
41.74353297
 31
0.0
  0
LINE
  5
1A1
100
AcDbEntity
  8
レイヤー_1
  6
CONTINUOUS
 62
       3
100
AcDbLine
 10
107.43612736
 20
42.74398869
 30
0.0
 11
101.43546005
 21
42.74398869
 31
0.0
  0
LINE
  5
1A2
100
AcDbEntity
  8
レイヤー_1
  6
CONTINUOUS
 62
       3
100
AcDbLine
 10
114.6859863
 20
42.74398869
 30
0.0
 11
108.68669702
 21
42.74398869
 31
0.0
  0
LINE
  5
1A3
100
AcDbEntity
  8
レイヤー_1
  6
CONTINUOUS
 62
       3
100
AcDbLine
 10
108.68669702
 20
34.74447697
 30
0.0
 11
114.6859863
 21
34.74447697
 31
0.0
  0
LINE
  5
1A4
100
AcDbEntity
  8
レイヤー_1
  6
CONTINUOUS
 62
       3
100
AcDbLine
 10
114.6859863
 20
44.4937527
 30
0.0
 11
114.6859863
 21
25.52333441
 31
0.0
  0
LINE
  5
1A5
100
AcDbEntity
  8
レイヤー_1
  6
CONTINUOUS
 62
       3
100
AcDbLine
 10
114.6859863
 20
25.52333441
 30
0.0
 11
108.68669702
 21
25.52333441
 31
0.0
  0
LINE
  5
1A6
100
AcDbEntity
  8
レイヤー_1
  6
CONTINUOUS
 62
       3
100
AcDbLine
 10
108.68669702
 20
25.52333441
 30
0.0
 11
108.68669702
 21
44.4937527
 31
0.0
  0
LINE
  5
1A7
100
AcDbEntity
  8
レイヤー_1
  6
CONTINUOUS
 62
       3
100
AcDbLine
 10
121.94824759
 20
-16.47272407
 30
0.0
 11
123.18296981
 21
-16.47272407
 31
0.0
  0
LINE
  5
1A8
100
AcDbEntity
  8
レイヤー_1
  6
CONTINUOUS
 62
       3
100
AcDbLine
 10
92.91436087
 20
34.74447697
 30
0.0
 11
100.18557941
 21
34.74447697
 31
0.0
  0
LINE
  5
1A9
100
AcDbEntity
  8
レイヤー_1
  6
CONTINUOUS
 62
       3
100
AcDbLine
 10
94.18560111
 20
33.74471028
 30
0.0
 11
100.18557941
 21
33.74471028
 31
0.0
  0
LINE
  5
1AA
100
AcDbEntity
  8
レイヤー_1
  6
CONTINUOUS
 62
       3
100
AcDbLine
 10
94.18560111
 20
34.74792208
 30
0.0
 11
94.18560111
 21
25.49370659
 31
0.0
  0
LINE
  5
1AB
100
AcDbEntity
  8
レイヤー_1
  6
CONTINUOUS
 62
       3
100
AcDbLine
 10
94.18560111
 20
25.49370659
 30
0.0
 11
100.18557941
 21
25.49370659
 31
0.0
  0
LINE
  5
1AC
100
AcDbEntity
  8
レイヤー_1
  6
CONTINUOUS
 62
       3
100
AcDbLine
 10
100.18557941
 20
25.49370659
 30
0.0
 11
100.18557941
 21
44.4937527
 31
0.0
  0
LINE
  5
1AD
100
AcDbEntity
  8
レイヤー_1
  6
CONTINUOUS
 62
       3
100
AcDbLine
 10
94.20489364
 20
-25.72314995
 30
0.0
 11
100.20556096
 21
-25.72314995
 31
0.0
  0
LINE
  5
1AE
100
AcDbEntity
  8
レイヤー_1
  6
CONTINUOUS
 62
       3
100
AcDbLine
 10
100.20556096
 20
-17.72363824
 30
0.0
 11
94.20489364
 21
-17.72363824
 31
0.0
  0
LINE
  5
1AF
100
AcDbEntity
  8
レイヤー_1
  6
CONTINUOUS
 62
       3
100
AcDbLine
 10
100.20556096
 20
-16.72387153
 30
0.0
 11
94.20489364
 21
-16.72387153
 31
0.0
  0
LINE
  5
1B0
100
AcDbEntity
  8
レイヤー_1
  6
CONTINUOUS
 62
       3
100
AcDbLine
 10
100.20556096
 20
-27.47291395
 30
0.0
 11
100.20556096
 21
-8.47321235
 31
0.0
  0
LINE
  5
1B1
100
AcDbEntity
  8
レイヤー_1
  6
CONTINUOUS
 62
       3
100
AcDbLine
 10
100.20556096
 20
-8.47321235
 30
0.0
 11
94.20489364
 21
-8.47321235
 31
0.0
  0
LINE
  5
1B2
100
AcDbEntity
  8
レイヤー_1
  6
CONTINUOUS
 62
       3
100
AcDbLine
 10
94.20489364
 20
-8.47321235
 30
0.0
 11
94.20489364
 21
-27.47291395
 31
0.0
  0
LINE
  5
1B3
100
AcDbEntity
  8
レイヤー_1
  6
CONTINUOUS
 62
       3
100
AcDbLine
 10
108.70530054
 20
-24.72338324
 30
0.0
 11
114.70527884
 21
-24.72338324
 31
0.0
  0
LINE
  5
1B4
100
AcDbEntity
  8
レイヤー_1
  6
CONTINUOUS
 62
       3
100
AcDbLine
 10
108.70530054
 20
-25.72314995
 30
0.0
 11
114.70527884
 21
-25.72314995
 31
0.0
  0
LINE
  5
1B5
100
AcDbEntity
  8
レイヤー_1
  6
CONTINUOUS
 62
       3
100
AcDbLine
 10
114.70527884
 20
-17.72363824
 30
0.0
 11
108.70530054
 21
-17.72363824
 31
0.0
  0
LINE
  5
1B6
100
AcDbEntity
  8
レイヤー_1
  6
CONTINUOUS
 62
       3
100
AcDbLine
 10
108.70530054
 20
-27.47291395
 30
0.0
 11
108.70530054
 21
-8.45908746
 31
0.0
  0
LINE
  5
1B7
100
AcDbEntity
  8
レイヤー_1
  6
CONTINUOUS
 62
       3
100
AcDbLine
 10
108.70530054
 20
-8.45908746
 30
0.0
 11
114.70527884
 21
-8.45908746
 31
0.0
  0
LINE
  5
1B8
100
AcDbEntity
  8
レイヤー_1
  6
CONTINUOUS
 62
       3
100
AcDbLine
 10
114.70527884
 20
-8.45908746
 30
0.0
 11
114.70527884
 21
-27.47291395
 31
0.0
  0
LINE
  5
1B9
100
AcDbEntity
  8
レイヤー_1
  6
CONTINUOUS
 62
       3
100
AcDbLine
 10
123.18296981
 20
-17.72363824
 30
0.0
 11
115.9558485
 21
-17.72363824
 31
0.0
  0
LINE
  5
1BA
100
AcDbEntity
  8
レイヤー_1
  6
CONTINUOUS
 62
       3
100
AcDbLine
 10
107.4554199
 20
-16.72387153
 30
0.0
 11
101.4554416
 21
-16.72387153
 31
0.0
  0
LINE
  5
1BB
100
AcDbEntity
  8
レイヤー_1
  6
CONTINUOUS
 62
       3
100
AcDbLine
 10
114.70527884
 20
-16.72387153
 30
0.0
 11
108.70530054
 21
-16.72387153
 31
0.0
  0
LINE
  5
1BC
100
AcDbEntity
  8
レイヤー_1
  6
CONTINUOUS
 62
       3
100
AcDbLine
 10
121.95513778
 20
-16.72387153
 30
0.0
 11
115.9558485
 21
-16.72387153
 31
0.0
  0
LINE
  5
1BD
100
AcDbEntity
  8
レイヤー_1
  6
CONTINUOUS
 62
       3
100
AcDbLine
 10
121.95513778
 20
-17.72777235
 30
0.0
 11
121.95513778
 21
-8.47321235
 31
0.0
  0
LINE
  5
1BE
100
AcDbEntity
  8
レイヤー_1
  6
CONTINUOUS
 62
       3
100
AcDbLine
 10
121.95513778
 20
-8.47321235
 30
0.0
 11
115.9558485
 21
-8.47321235
 31
0.0
  0
LINE
  5
1BF
100
AcDbEntity
  8
レイヤー_1
  6
CONTINUOUS
 62
       3
100
AcDbLine
 10
115.9558485
 20
-8.47321235
 30
0.0
 11
115.9558485
 21
-27.47291395
 31
0.0
  0
LINE
  5
1C0
100
AcDbEntity
  8
レイヤー_1
  6
CONTINUOUS
 62
       3
100
AcDbLine
 10
109.79050562
 20
17.50831976
 30
0.0
 11
109.79050562
 21
19.00831434
 31
0.0
  0
LINE
  5
1C1
100
AcDbEntity
  8
レイヤー_1
  6
CONTINUOUS
 62
       3
100
AcDbLine
 10
109.79050562
 20
19.00831434
 30
0.0
 11
106.2902886
 21
19.00831434
 31
0.0
  0
LINE
  5
1C2
100
AcDbEntity
  8
レイヤー_1
  6
CONTINUOUS
 62
       3
100
AcDbLine
 10
106.2902886
 20
19.00831434
 30
0.0
 11
106.2902886
 21
17.50831976
 31
0.0
  0
LINE
  5
1C3
100
AcDbEntity
  8
レイヤー_1
  6
CONTINUOUS
 62
       3
100
AcDbLine
 10
106.2902886
 20
17.50831976
 30
0.0
 11
109.79050562
 21
17.50831976
 31
0.0
  0
LINE
  5
1C4
100
AcDbEntity
  8
レイヤー_1
  6
CONTINUOUS
 62
       3
100
AcDbLine
 10
109.79050562
 20
13.50787489
 30
0.0
 11
109.79050562
 21
15.00786946
 31
0.0
  0
LINE
  5
1C5
100
AcDbEntity
  8
レイヤー_1
  6
CONTINUOUS
 62
       3
100
AcDbLine
 10
109.79050562
 20
15.00786946
 30
0.0
 11
106.2902886
 21
15.00786946
 31
0.0
  0
LINE
  5
1C6
100
AcDbEntity
  8
レイヤー_1
  6
CONTINUOUS
 62
       3
100
AcDbLine
 10
106.2902886
 20
15.00786946
 30
0.0
 11
106.2902886
 21
13.50787489
 31
0.0
  0
LINE
  5
1C7
100
AcDbEntity
  8
レイヤー_1
  6
CONTINUOUS
 62
       3
100
AcDbLine
 10
106.2902886
 20
13.50787489
 30
0.0
 11
109.79050562
 21
13.50787489
 31
0.0
  0
LINE
  5
1C8
100
AcDbEntity
  8
レイヤー_1
  6
CONTINUOUS
 62
       3
100
AcDbLine
 10
109.79050562
 20
7.50755208
 30
0.0
 11
109.79050562
 21
9.00789116
 31
0.0
  0
LINE
  5
1C9
100
AcDbEntity
  8
レイヤー_1
  6
CONTINUOUS
 62
       3
100
AcDbLine
 10
109.79050562
 20
9.00789116
 30
0.0
 11
106.2902886
 21
9.00789116
 31
0.0
  0
LINE
  5
1CA
100
AcDbEntity
  8
レイヤー_1
  6
CONTINUOUS
 62
       3
100
AcDbLine
 10
106.2902886
 20
9.00789116
 30
0.0
 11
106.2902886
 21
7.50755208
 31
0.0
  0
LINE
  5
1CB
100
AcDbEntity
  8
レイヤー_1
  6
CONTINUOUS
 62
       3
100
AcDbLine
 10
106.2902886
 20
7.50755208
 30
0.0
 11
109.79050562
 21
7.50755208
 31
0.0
  0
LINE
  5
1CC
100
AcDbEntity
  8
レイヤー_1
  6
CONTINUOUS
 62
       3
100
AcDbLine
 10
107.43612736
 20
41.74353297
 30
0.0
 11
101.43546005
 21
41.74353297
 31
0.0
  0
LINE
  5
1CD
100
AcDbEntity
  8
レイヤー_1
  6
CONTINUOUS
 62
       3
100
AcDbLine
 10
101.43546005
 20
34.74447697
 30
0.0
 11
107.43612736
 21
34.74447697
 31
0.0
  0
LINE
  5
1CE
100
AcDbEntity
  8
レイヤー_1
  6
CONTINUOUS
 62
       3
100
AcDbLine
 10
101.4554416
 20
-24.72338324
 30
0.0
 11
107.4554199
 21
-24.72338324
 31
0.0
  0
LINE
  5
1CF
100
AcDbEntity
  8
レイヤー_1
  6
CONTINUOUS
 62
       3
100
AcDbLine
 10
101.4554416
 20
-25.72314995
 30
0.0
 11
107.4554199
 21
-25.72314995
 31
0.0
  0
LINE
  5
1D0
100
AcDbEntity
  8
レイヤー_1
  6
CONTINUOUS
 62
       3
100
AcDbLine
 10
107.4554199
 20
-17.72363824
 30
0.0
 11
101.4554416
 21
-17.72363824
 31
0.0
  0
LINE
  5
1D1
100
AcDbEntity
  8
レイヤー_1
  6
CONTINUOUS
 62
       3
100
AcDbLine
 10
101.4554416
 20
-27.47291395
 30
0.0
 11
101.4554416
 21
-8.45908746
 31
0.0
  0
LINE
  5
1D2
100
AcDbEntity
  8
レイヤー_1
  6
CONTINUOUS
 62
       3
100
AcDbLine
 10
101.4554416
 20
-8.45908746
 30
0.0
 11
107.4554199
 21
-8.45908746
 31
0.0
  0
LINE
  5
1D3
100
AcDbEntity
  8
レイヤー_1
  6
CONTINUOUS
 62
       3
100
AcDbLine
 10
107.4554199
 20
-8.45908746
 30
0.0
 11
107.4554199
 21
-27.47291395
 31
0.0
  0
LINE
  5
1D4
100
AcDbEntity
  8
レイヤー_1
  6
CONTINUOUS
 62
       3
100
AcDbLine
 10
108.68669702
 20
33.74471028
 30
0.0
 11
114.6859863
 21
33.74471028
 31
0.0
  0
LINE
  5
1D5
100
AcDbEntity
  8
レイヤー_1
  6
CONTINUOUS
 62
       3
100
AcDbLine
 10
121.20617402
 20
-2.97242839
 30
0.0
 11
121.20617402
 21
2.02709418
 31
0.0
  0
LINE
  5
1D6
100
AcDbEntity
  8
レイヤー_1
  6
CONTINUOUS
 62
       3
100
AcDbLine
 10
121.20617402
 20
2.02709418
 30
0.0
 11
120.20571829
 21
2.02709418
 31
0.0
  0
LINE
  5
1D7
100
AcDbEntity
  8
レイヤー_1
  6
CONTINUOUS
 62
       3
100
AcDbLine
 10
120.20571829
 20
2.02709418
 30
0.0
 11
120.20571829
 21
-2.97242839
 31
0.0
  0
LINE
  5
1D8
100
AcDbEntity
  8
レイヤー_1
  6
CONTINUOUS
 62
       3
100
AcDbLine
 10
120.20571829
 20
-2.97242839
 30
0.0
 11
121.20617402
 21
-2.97242839
 31
0.0
  0
LINE
  5
1D9
100
AcDbEntity
  8
レイヤー_1
  6
CONTINUOUS
 62
       3
100
AcDbLine
 10
95.90608179
 20
14.99374457
 30
0.0
 11
95.90608179
 21
19.99326714
 31
0.0
  0
LINE
  5
1DA
100
AcDbEntity
  8
レイヤー_1
  6
CONTINUOUS
 62
       3
100
AcDbLine
 10
95.90608179
 20
19.99326714
 30
0.0
 11
94.90562606
 21
19.99326714
 31
0.0
  0
LINE
  5
1DB
100
AcDbEntity
  8
レイヤー_1
  6
CONTINUOUS
 62
       3
100
AcDbLine
 10
94.90562606
 20
19.99326714
 30
0.0
 11
94.90562606
 21
14.99374457
 31
0.0
  0
LINE
  5
1DC
100
AcDbEntity
  8
レイヤー_1
  6
CONTINUOUS
 62
       3
100
AcDbLine
 10
94.90562606
 20
14.99374457
 30
0.0
 11
95.90608179
 21
14.99374457
 31
0.0
  0
LINE
  5
1DD
100
AcDbEntity
  8
レイヤー_1
  6
CONTINUOUS
 62
       3
100
AcDbLine
 10
99.03285046
 20
17.50831976
 30
0.0
 11
99.03285046
 21
19.00831434
 31
0.0
  0
LINE
  5
1DE
100
AcDbEntity
  8
レイヤー_1
  6
CONTINUOUS
 62
       3
100
AcDbLine
 10
99.03285046
 20
19.00831434
 30
0.0
 11
102.53306747
 21
19.00831434
 31
0.0
  0
LINE
  5
1DF
100
AcDbEntity
  8
レイヤー_1
  6
CONTINUOUS
 62
       3
100
AcDbLine
 10
102.53306747
 20
19.00831434
 30
0.0
 11
102.53306747
 21
17.50831976
 31
0.0
  0
LINE
  5
1E0
100
AcDbEntity
  8
レイヤー_1
  6
CONTINUOUS
 62
       3
100
AcDbLine
 10
102.53306747
 20
17.50831976
 30
0.0
 11
99.03285046
 21
17.50831976
 31
0.0
  0
LINE
  5
1E1
100
AcDbEntity
  8
レイヤー_1
  6
CONTINUOUS
 62
       3
100
AcDbLine
 10
99.03285046
 20
13.50787489
 30
0.0
 11
99.03285046
 21
15.00786946
 31
0.0
  0
LINE
  5
1E2
100
AcDbEntity
  8
レイヤー_1
  6
CONTINUOUS
 62
       3
100
AcDbLine
 10
99.03285046
 20
15.00786946
 30
0.0
 11
102.53306747
 21
15.00786946
 31
0.0
  0
LINE
  5
1E3
100
AcDbEntity
  8
レイヤー_1
  6
CONTINUOUS
 62
       3
100
AcDbLine
 10
102.53306747
 20
15.00786946
 30
0.0
 11
102.53306747
 21
13.50787489
 31
0.0
  0
LINE
  5
1E4
100
AcDbEntity
  8
レイヤー_1
  6
CONTINUOUS
 62
       3
100
AcDbLine
 10
102.53306747
 20
13.50787489
 30
0.0
 11
99.03285046
 21
13.50787489
 31
0.0
  0
LINE
  5
1E5
100
AcDbEntity
  8
レイヤー_1
  6
CONTINUOUS
 62
       3
100
AcDbLine
 10
99.03285046
 20
7.50755208
 30
0.0
 11
99.03285046
 21
9.00789116
 31
0.0
  0
LINE
  5
1E6
100
AcDbEntity
  8
レイヤー_1
  6
CONTINUOUS
 62
       3
100
AcDbLine
 10
99.03285046
 20
9.00789116
 30
0.0
 11
102.53306747
 21
9.00789116
 31
0.0
  0
LINE
  5
1E7
100
AcDbEntity
  8
レイヤー_1
  6
CONTINUOUS
 62
       3
100
AcDbLine
 10
102.53306747
 20
9.00789116
 30
0.0
 11
102.53306747
 21
7.50755208
 31
0.0
  0
LINE
  5
1E8
100
AcDbEntity
  8
レイヤー_1
  6
CONTINUOUS
 62
       3
100
AcDbLine
 10
102.53306747
 20
7.50755208
 30
0.0
 11
99.03285046
 21
7.50755208
 31
0.0
  0
LINE
  5
1E9
100
AcDbEntity
  8
レイヤー_1
  6
CONTINUOUS
 62
       3
100
AcDbLine
 10
99.03285046
 20
1.50757378
 30
0.0
 11
99.03285046
 21
3.00756836
 31
0.0
  0
LINE
  5
1EA
100
AcDbEntity
  8
レイヤー_1
  6
CONTINUOUS
 62
       3
100
AcDbLine
 10
99.03285046
 20
3.00756836
 30
0.0
 11
102.53306747
 21
3.00756836
 31
0.0
  0
LINE
  5
1EB
100
AcDbEntity
  8
レイヤー_1
  6
CONTINUOUS
 62
       3
100
AcDbLine
 10
102.53306747
 20
3.00756836
 30
0.0
 11
102.53306747
 21
1.50757378
 31
0.0
  0
LINE
  5
1EC
100
AcDbEntity
  8
レイヤー_1
  6
CONTINUOUS
 62
       3
100
AcDbLine
 10
102.53306747
 20
1.50757378
 30
0.0
 11
99.03285046
 21
1.50757378
 31
0.0
  0
LINE
  5
1ED
100
AcDbEntity
  8
レイヤー_1
  6
CONTINUOUS
 62
       3
100
AcDbLine
 10
117.04036456
 20
17.50831976
 30
0.0
 11
117.04036456
 21
19.00831434
 31
0.0
  0
LINE
  5
1EE
100
AcDbEntity
  8
レイヤー_1
  6
CONTINUOUS
 62
       3
100
AcDbLine
 10
117.04036456
 20
19.00831434
 30
0.0
 11
113.54014754
 21
19.00831434
 31
0.0
  0
LINE
  5
1EF
100
AcDbEntity
  8
レイヤー_1
  6
CONTINUOUS
 62
       3
100
AcDbLine
 10
113.54014754
 20
19.00831434
 30
0.0
 11
113.54014754
 21
17.50831976
 31
0.0
  0
LINE
  5
1F0
100
AcDbEntity
  8
レイヤー_1
  6
CONTINUOUS
 62
       3
100
AcDbLine
 10
113.54014754
 20
17.50831976
 30
0.0
 11
117.04036456
 21
17.50831976
 31
0.0
  0
LINE
  5
1F1
100
AcDbEntity
  8
レイヤー_1
  6
CONTINUOUS
 62
       3
100
AcDbLine
 10
117.04036456
 20
13.50787489
 30
0.0
 11
117.04036456
 21
15.00786946
 31
0.0
  0
LINE
  5
1F2
100
AcDbEntity
  8
レイヤー_1
  6
CONTINUOUS
 62
       3
100
AcDbLine
 10
117.04036456
 20
15.00786946
 30
0.0
 11
113.54014754
 21
15.00786946
 31
0.0
  0
LINE
  5
1F3
100
AcDbEntity
  8
レイヤー_1
  6
CONTINUOUS
 62
       3
100
AcDbLine
 10
113.54014754
 20
15.00786946
 30
0.0
 11
113.54014754
 21
13.50787489
 31
0.0
  0
LINE
  5
1F4
100
AcDbEntity
  8
レイヤー_1
  6
CONTINUOUS
 62
       3
100
AcDbLine
 10
113.54014754
 20
13.50787489
 30
0.0
 11
117.04036456
 21
13.50787489
 31
0.0
  0
LINE
  5
1F5
100
AcDbEntity
  8
レイヤー_1
  6
CONTINUOUS
 62
       3
100
AcDbLine
 10
117.04036456
 20
7.50755208
 30
0.0
 11
117.04036456
 21
9.00789116
 31
0.0
  0
LINE
  5
1F6
100
AcDbEntity
  8
レイヤー_1
  6
CONTINUOUS
 62
       3
100
AcDbLine
 10
117.04036456
 20
9.00789116
 30
0.0
 11
113.54014754
 21
9.00789116
 31
0.0
  0
LINE
  5
1F7
100
AcDbEntity
  8
レイヤー_1
  6
CONTINUOUS
 62
       3
100
AcDbLine
 10
113.54014754
 20
9.00789116
 30
0.0
 11
113.54014754
 21
7.50755208
 31
0.0
  0
LINE
  5
1F8
100
AcDbEntity
  8
レイヤー_1
  6
CONTINUOUS
 62
       3
100
AcDbLine
 10
113.54014754
 20
7.50755208
 30
0.0
 11
117.04036456
 21
7.50755208
 31
0.0
  0
LINE
  5
1F9
100
AcDbEntity
  8
レイヤー_1
  6
CONTINUOUS
 62
       3
100
AcDbLine
 10
117.04036456
 20
1.50757378
 30
0.0
 11
117.04036456
 21
3.00756836
 31
0.0
  0
LINE
  5
1FA
100
AcDbEntity
  8
レイヤー_1
  6
CONTINUOUS
 62
       3
100
AcDbLine
 10
117.04036456
 20
3.00756836
 30
0.0
 11
113.54014754
 21
3.00756836
 31
0.0
  0
LINE
  5
1FB
100
AcDbEntity
  8
レイヤー_1
  6
CONTINUOUS
 62
       3
100
AcDbLine
 10
113.54014754
 20
3.00756836
 30
0.0
 11
113.54014754
 21
1.50757378
 31
0.0
  0
LINE
  5
1FC
100
AcDbEntity
  8
レイヤー_1
  6
CONTINUOUS
 62
       3
100
AcDbLine
 10
113.54014754
 20
1.50757378
 30
0.0
 11
117.04036456
 21
1.50757378
 31
0.0
  0
LINE
  5
1FD
100
AcDbEntity
  8
レイヤー_1
  6
CONTINUOUS
 62
       3
100
AcDbLine
 10
122.20662975
 20
-2.97242839
 30
0.0
 11
122.20662975
 21
2.02709418
 31
0.0
  0
LINE
  5
1FE
100
AcDbEntity
  8
レイヤー_1
  6
CONTINUOUS
 62
       3
100
AcDbLine
 10
122.20662975
 20
2.02709418
 30
0.0
 11
123.20639646
 21
2.02709418
 31
0.0
  0
LINE
  5
1FF
100
AcDbEntity
  8
レイヤー_1
  6
CONTINUOUS
 62
       3
100
AcDbLine
 10
123.20639646
 20
2.02709418
 30
0.0
 11
123.20639646
 21
3.02754991
 31
0.0
  0
LINE
  5
200
100
AcDbEntity
  8
レイヤー_1
  6
CONTINUOUS
 62
       3
100
AcDbLine
 10
123.20639646
 20
3.02754991
 30
0.0
 11
119.17081161
 21
3.02754991
 31
0.0
  0
LINE
  5
201
100
AcDbEntity
  8
レイヤー_1
  6
CONTINUOUS
 62
       3
100
AcDbLine
 10
119.17081161
 20
3.02754991
 30
0.0
 11
119.17081161
 21
23.49348415
 31
0.0
  0
LINE
  5
202
100
AcDbEntity
  8
レイヤー_1
  6
CONTINUOUS
 62
       3
100
AcDbLine
 10
119.17081161
 20
23.49348415
 30
0.0
 11
96.88862303
 21
23.49348415
 31
0.0
  0
LINE
  5
203
100
AcDbEntity
  8
レイヤー_1
  6
CONTINUOUS
 62
       3
100
AcDbLine
 10
96.88862303
 20
23.49348415
 30
0.0
 11
96.88862303
 21
20.99372287
 31
0.0
  0
LINE
  5
204
100
AcDbEntity
  8
レイヤー_1
  6
CONTINUOUS
 62
       3
100
AcDbLine
 10
96.88862303
 20
20.99372287
 30
0.0
 11
92.90540363
 21
20.99372287
 31
0.0
  0
LINE
  5
205
100
AcDbEntity
  8
レイヤー_1
  6
CONTINUOUS
 62
       3
100
AcDbLine
 10
92.90540363
 20
20.99372287
 30
0.0
 11
92.90540363
 21
19.99326714
 31
0.0
  0
LINE
  5
206
100
AcDbEntity
  8
レイヤー_1
  6
CONTINUOUS
 62
       3
100
AcDbLine
 10
92.90540363
 20
19.99326714
 30
0.0
 11
93.90517034
 21
19.99326714
 31
0.0
  0
LINE
  5
207
100
AcDbEntity
  8
レイヤー_1
  6
CONTINUOUS
 62
       3
100
AcDbLine
 10
93.90517034
 20
19.99326714
 30
0.0
 11
93.90517034
 21
14.99374457
 31
0.0
  0
LINE
  5
208
100
AcDbEntity
  8
レイヤー_1
  6
CONTINUOUS
 62
       3
100
AcDbLine
 10
93.90517034
 20
14.99374457
 30
0.0
 11
92.90540363
 21
14.99374457
 31
0.0
  0
LINE
  5
209
100
AcDbEntity
  8
レイヤー_1
  6
CONTINUOUS
 62
       3
100
AcDbLine
 10
92.90540363
 20
14.99374457
 30
0.0
 11
92.90540363
 21
13.99328884
 31
0.0
  0
LINE
  5
20A
100
AcDbEntity
  8
レイヤー_1
  6
CONTINUOUS
 62
       3
100
AcDbLine
 10
92.90540363
 20
13.99328884
 30
0.0
 11
96.88862303
 21
13.99328884
 31
0.0
  0
LINE
  5
20B
100
AcDbEntity
  8
レイヤー_1
  6
CONTINUOUS
 62
       3
100
AcDbLine
 10
96.88862303
 20
13.99328884
 30
0.0
 11
96.88862303
 21
-6.47298991
 31
0.0
  0
LINE
  5
20C
100
AcDbEntity
  8
レイヤー_1
  6
CONTINUOUS
 62
       3
100
AcDbLine
 10
96.88862303
 20
-6.47298991
 30
0.0
 11
119.17081161
 21
-6.47298991
 31
0.0
  0
LINE
  5
20D
100
AcDbEntity
  8
レイヤー_1
  6
CONTINUOUS
 62
       3
100
AcDbLine
 10
119.17081161
 20
-6.47298991
 30
0.0
 11
119.17081161
 21
-3.97288412
 31
0.0
  0
LINE
  5
20E
100
AcDbEntity
  8
レイヤー_1
  6
CONTINUOUS
 62
       3
100
AcDbLine
 10
119.17081161
 20
-3.97288412
 30
0.0
 11
123.20639646
 21
-3.97288412
 31
0.0
  0
LINE
  5
20F
100
AcDbEntity
  8
レイヤー_1
  6
CONTINUOUS
 62
       3
100
AcDbLine
 10
123.20639646
 20
-3.97288412
 30
0.0
 11
123.20639646
 21
-2.97242839
 31
0.0
  0
LINE
  5
210
100
AcDbEntity
  8
レイヤー_1
  6
CONTINUOUS
 62
       3
100
AcDbLine
 10
123.20639646
 20
-2.97242839
 30
0.0
 11
122.20662975
 21
-2.97242839
 31
0.0
  0
LINE
  5
211
100
AcDbEntity
  8
レイヤー_1
  6
CONTINUOUS
 62
       3
100
AcDbLine
 10
107.43612736
 20
44.4937527
 30
0.0
 11
107.43612736
 21
25.52333441
 31
0.0
  0
LINE
  5
212
100
AcDbEntity
  8
レイヤー_1
  6
CONTINUOUS
 62
       3
100
AcDbLine
 10
107.43612736
 20
25.52333441
 30
0.0
 11
101.43546005
 21
25.52333441
 31
0.0
  0
LINE
  5
213
100
AcDbEntity
  8
レイヤー_1
  6
CONTINUOUS
 62
       3
100
AcDbLine
 10
101.43546005
 20
25.52333441
 30
0.0
 11
101.43546005
 21
44.4937527
 31
0.0
  0
LINE
  5
214
100
AcDbEntity
  8
レイヤー_1
  6
CONTINUOUS
 62
       3
100
AcDbLine
 10
35.98277994
 20
19.51129828
 30
0.0
 11
36.62150064
 21
21.50394151
 31
0.0
  0
LINE
  5
215
100
AcDbEntity
  8
レイヤー_1
  6
CONTINUOUS
 62
       3
100
AcDbLine
 10
36.62150064
 20
21.50394151
 30
0.0
 11
35.98277994
 21
23.49555121
 31
0.0
  0
LINE
  5
216
100
AcDbEntity
  8
レイヤー_1
  6
CONTINUOUS
 62
       3
100
AcDbLine
 10
115.93586694
 20
44.4937527
 30
0.0
 11
115.93586694
 21
25.49370659
 31
0.0
  0
LINE
  5
217
100
AcDbEntity
  8
レイヤー_1
  6
CONTINUOUS
 62
       3
100
AcDbLine
 10
115.93586694
 20
25.49370659
 30
0.0
 11
121.93584524
 21
25.49370659
 31
0.0
  0
LINE
  5
218
100
AcDbEntity
  8
レイヤー_1
  6
CONTINUOUS
 62
       3
100
AcDbLine
 10
121.93584524
 20
25.49370659
 30
0.0
 11
121.93584524
 21
44.4937527
 31
0.0
  0
LINE
  5
219
100
AcDbEntity
  8
レイヤー_1
  6
CONTINUOUS
 62
       3
100
AcDbLine
 10
114.6859863
 20
44.4937527
 30
0.0
 11
114.6859863
 21
25.52333441
 31
0.0
  0
LINE
  5
21A
100
AcDbEntity
  8
レイヤー_1
  6
CONTINUOUS
 62
       3
100
AcDbLine
 10
114.6859863
 20
25.52333441
 30
0.0
 11
108.68669702
 21
25.52333441
 31
0.0
  0
LINE
  5
21B
100
AcDbEntity
  8
レイヤー_1
  6
CONTINUOUS
 62
       3
100
AcDbLine
 10
108.68669702
 20
25.52333441
 30
0.0
 11
108.68669702
 21
44.4937527
 31
0.0
  0
LINE
  5
21C
100
AcDbEntity
  8
レイヤー_1
  6
CONTINUOUS
 62
       3
100
AcDbLine
 10
94.18560111
 20
34.74792208
 30
0.0
 11
94.18560111
 21
25.49370659
 31
0.0
  0
LINE
  5
21D
100
AcDbEntity
  8
レイヤー_1
  6
CONTINUOUS
 62
       3
100
AcDbLine
 10
94.18560111
 20
25.49370659
 30
0.0
 11
100.18557941
 21
25.49370659
 31
0.0
  0
LINE
  5
21E
100
AcDbEntity
  8
レイヤー_1
  6
CONTINUOUS
 62
       3
100
AcDbLine
 10
100.18557941
 20
25.49370659
 30
0.0
 11
100.18557941
 21
44.4937527
 31
0.0
  0
LINE
  5
21F
100
AcDbEntity
  8
レイヤー_1
  6
CONTINUOUS
 62
       3
100
AcDbLine
 10
100.20556096
 20
-27.47291395
 30
0.0
 11
100.20556096
 21
-8.47321235
 31
0.0
  0
LINE
  5
220
100
AcDbEntity
  8
レイヤー_1
  6
CONTINUOUS
 62
       3
100
AcDbLine
 10
100.20556096
 20
-8.47321235
 30
0.0
 11
94.20489364
 21
-8.47321235
 31
0.0
  0
LINE
  5
221
100
AcDbEntity
  8
レイヤー_1
  6
CONTINUOUS
 62
       3
100
AcDbLine
 10
94.20489364
 20
-8.47321235
 30
0.0
 11
94.20489364
 21
-27.47291395
 31
0.0
  0
LINE
  5
222
100
AcDbEntity
  8
レイヤー_1
  6
CONTINUOUS
 62
       3
100
AcDbLine
 10
108.70530054
 20
-27.47291395
 30
0.0
 11
108.70530054
 21
-8.45908746
 31
0.0
  0
LINE
  5
223
100
AcDbEntity
  8
レイヤー_1
  6
CONTINUOUS
 62
       3
100
AcDbLine
 10
108.70530054
 20
-8.45908746
 30
0.0
 11
114.70527884
 21
-8.45908746
 31
0.0
  0
LINE
  5
224
100
AcDbEntity
  8
レイヤー_1
  6
CONTINUOUS
 62
       3
100
AcDbLine
 10
114.70527884
 20
-8.45908746
 30
0.0
 11
114.70527884
 21
-27.47291395
 31
0.0
  0
LINE
  5
225
100
AcDbEntity
  8
レイヤー_1
  6
CONTINUOUS
 62
       3
100
AcDbLine
 10
121.95513778
 20
-17.72777235
 30
0.0
 11
121.95513778
 21
-8.47321235
 31
0.0
  0
LINE
  5
226
100
AcDbEntity
  8
レイヤー_1
  6
CONTINUOUS
 62
       3
100
AcDbLine
 10
121.95513778
 20
-8.47321235
 30
0.0
 11
115.9558485
 21
-8.47321235
 31
0.0
  0
LINE
  5
227
100
AcDbEntity
  8
レイヤー_1
  6
CONTINUOUS
 62
       3
100
AcDbLine
 10
115.9558485
 20
-8.47321235
 30
0.0
 11
115.9558485
 21
-27.47291395
 31
0.0
  0
LINE
  5
228
100
AcDbEntity
  8
レイヤー_1
  6
CONTINUOUS
 62
       3
100
AcDbLine
 10
101.4554416
 20
-27.47291395
 30
0.0
 11
101.4554416
 21
-8.45908746
 31
0.0
  0
LINE
  5
229
100
AcDbEntity
  8
レイヤー_1
  6
CONTINUOUS
 62
       3
100
AcDbLine
 10
101.4554416
 20
-8.45908746
 30
0.0
 11
107.4554199
 21
-8.45908746
 31
0.0
  0
LINE
  5
22A
100
AcDbEntity
  8
レイヤー_1
  6
CONTINUOUS
 62
       3
100
AcDbLine
 10
107.4554199
 20
-8.45908746
 30
0.0
 11
107.4554199
 21
-27.47291395
 31
0.0
  0
LINE
  5
22B
100
AcDbEntity
  8
レイヤー_1
  6
CONTINUOUS
 62
       3
100
AcDbLine
 10
-75.03228082
 20
-44.48958063
 30
0.0
 11
-75.03228082
 21
44.51041937
 31
0.0
  0
LINE
  5
22C
100
AcDbEntity
  8
レイヤー_1
  6
CONTINUOUS
 62
       3
100
AcDbLine
 10
-104.05594615
 20
-44.48958063
 30
0.0
 11
-104.05594615
 21
44.51041937
 31
0.0
  0
LINE
  5
22D
100
AcDbEntity
  8
レイヤー_1
  6
CONTINUOUS
 62
       3
100
AcDbLine
 10
-127.05594615
 20
-44.48958063
 30
0.0
 11
-127.05594615
 21
44.51041937
 31
0.0
  0
LINE
  5
22E
100
AcDbEntity
  8
レイヤー_1
  6
CONTINUOUS
 62
       3
100
AcDbLine
 10
8.96771918
 20
-44.48958063
 30
0.0
 11
-75.03228082
 21
-44.48958063
 31
0.0
  0
LINE
  5
22F
100
AcDbEntity
  8
レイヤー_1
  6
CONTINUOUS
 62
       3
100
AcDbLine
 10
8.96771918
 20
44.51041937
 30
0.0
 11
-75.03228082
 21
44.51041937
 31
0.0
  0
LINE
  5
230
100
AcDbEntity
  8
レイヤー_1
  6
CONTINUOUS
 62
       3
100
AcDbLine
 10
-104.05594615
 20
44.51041937
 30
0.0
 11
-127.05594615
 21
44.51041937
 31
0.0
  0
LINE
  5
231
100
AcDbEntity
  8
レイヤー_1
  6
CONTINUOUS
 62
       3
100
AcDbLine
 10
-104.05594615
 20
-44.48958063
 30
0.0
 11
-127.05594615
 21
-44.48958063
 31
0.0
  0
LINE
  5
232
100
AcDbEntity
  8
レイヤー_1
  6
CONTINUOUS
 62
       3
100
AcDbLine
 10
38.96771918
 20
-27.5070204
 30
0.0
 11
38.96771918
 21
-9.50605198
 31
0.0
  0
LINE
  5
233
100
AcDbEntity
  8
レイヤー_1
  6
CONTINUOUS
 62
       3
100
AcDbLine
 10
38.96771918
 20
26.4934733
 30
0.0
 11
38.96771918
 21
44.49375271
 31
0.0
  0
LINE
  5
234
100
AcDbEntity
  8
レイヤー_1
  6
CONTINUOUS
 62
       3
100
AcDbLine
 10
122.83656139
 20
-26.98958063
 30
0.0
 11
122.83656139
 21
44.51041937
 31
0.0
  0
LINE
  5
235
100
AcDbEntity
  8
レイヤー_1
  6
CONTINUOUS
 62
       3
100
AcDbLine
 10
93.33656139
 20
-27.48958063
 30
0.0
 11
93.33656139
 21
44.01041937
 31
0.0
  0
LINE
  5
236
100
AcDbEntity
  8
レイヤー_1
  6
CONTINUOUS
 62
       3
100
AcDbLine
 10
93.33656139
 20
-27.48958063
 30
0.0
 11
122.33656139
 21
-27.48958063
 31
0.0
  0
LINE
  5
237
100
AcDbEntity
  8
レイヤー_1
  6
CONTINUOUS
 62
       3
100
AcDbLine
 10
93.83656139
 20
44.51041937
 30
0.0
 11
122.83656139
 21
44.51041937
 31
0.0
  0
LINE
  5
238
100
AcDbEntity
  8
レイヤー_1
  6
CONTINUOUS
 62
       3
100
AcDbLine
 10
122.33656139
 20
-27.48958063
 30
0.0
 11
122.83656139
 21
-26.98958063
 31
0.0
  0
LINE
  5
239
100
AcDbEntity
  8
レイヤー_1
  6
CONTINUOUS
 62
       3
100
AcDbLine
 10
93.33656139
 20
44.01041937
 30
0.0
 11
93.83656139
 21
44.51041937
 31
0.0
  0
LINE
  5
23A
100
AcDbEntity
  8
レイヤー_1
  6
CONTINUOUS
 62
       3
100
AcDbLine
 10
121.18656139
 20
-19.63311463
 30
0.0
 11
121.18656139
 21
-22.34604663
 31
0.0
  0
LINE
  5
23B
100
AcDbEntity
  8
レイヤー_1
  6
CONTINUOUS
 62
       3
100
AcDbLine
 10
116.98656139
 20
-19.63311463
 30
0.0
 11
116.98656139
 21
-22.34604663
 31
0.0
  0
LINE
  5
23C
100
AcDbEntity
  8
レイヤー_1
  6
CONTINUOUS
 62
       3
100
AcDbLine
 10
94.98656139
 20
36.65395337
 30
0.0
 11
94.98656139
 21
39.36688537
 31
0.0
  0
LINE
  5
23D
100
AcDbEntity
  8
レイヤー_1
  6
CONTINUOUS
 62
       3
100
AcDbLine
 10
99.18656139
 20
36.65395337
 30
0.0
 11
99.18656139
 21
39.36688537
 31
0.0
  0
ARC
  5
23E
100
AcDbEntity
  8
レイヤー_1
  6
CONTINUOUS
 62
       3
100
AcDbCircle
 10
119.08656139
 20
-20.98958063
 30
0.0
 40
2.5
100
AcDbArc
 50
32.85988038
 51
147.14011962
  0
ARC
  5
23F
100
AcDbEntity
  8
レイヤー_1
  6
CONTINUOUS
 62
       3
100
AcDbCircle
 10
119.08656139
 20
-20.98958063
 30
0.0
 40
2.5
100
AcDbArc
 50
212.85988038
 51
327.14011962
  0
ARC
  5
240
100
AcDbEntity
  8
レイヤー_1
  6
CONTINUOUS
 62
       3
100
AcDbCircle
 10
97.08656139
 20
38.01041937
 30
0.0
 40
2.5
100
AcDbArc
 50
212.85988038
 51
327.14011962
  0
ARC
  5
241
100
AcDbEntity
  8
レイヤー_1
  6
CONTINUOUS
 62
       3
100
AcDbCircle
 10
97.08656139
 20
38.01041937
 30
0.0
 40
2.5
100
AcDbArc
 50
32.85988038
 51
147.14011962
  0
LINE
  5
242
100
AcDbEntity
  8
レイヤー_1
  6
CENTERX2
 62
       3
100
AcDbLine
 10
-115.55594615
 20
-48.49419758
 30
0.0
 11
-115.55594615
 21
48.49419758
 31
0.0
  0
LINE
  5
243
100
AcDbEntity
  8
レイヤー_1
  6
CENTERX2
 62
       3
100
AcDbLine
 10
88.87464191
 20
8.51041937
 30
0.0
 11
127.05594615
 21
8.51041937
 31
0.0
  0
LINE
  5
244
100
AcDbEntity
  8
レイヤー_1
  6
CENTERX2
 62
       3
100
AcDbLine
 10
-88.91502276
 20
8.51041937
 30
0.0
 11
39.91638997
 21
8.51041937
 31
0.0
  0
LINE
  5
245
100
AcDbEntity
  8
レイヤー_1
  6
CENTERX2
 62
       3
100
AcDbLine
 10
108.08656139
 20
-31.47266981
 30
0.0
 11
108.08656139
 21
48.49419758
 31
0.0
  0
TEXT
  5
246
100
AcDbEntity
  8
0
 62
       7
100
AcDbText
 10
108.72081448
 20
-103.7760181
 30
0.0
 40
5.0
  1
000
 41
0.8
 72
       5
 11
120.72081448
 21
-103.7760181
 31
0.0
100
AcDbText
  0
ENDSEC
  0
SECTION
  2
OBJECTS
  0
DICTIONARY
  5
19
100
AcDbDictionary
  3
ACAD_GROUP
350
1A
  3
ACAD_MLINESTYLE
350
1B
  0
DICTIONARY
  5
1A
102
{ACAD_REACTORS
330
19
102
}
100
AcDbDictionary
  0
DICTIONARY
  5
1B
102
{ACAD_REACTORS
330
19
102
}
100
AcDbDictionary
  3
STANDARD
350
1C
  0
MLINESTYLE
  5
1C
102
{ACAD_REACTORS
330
1B
102
}
100
AcDbMlineStyle
  2
STANDARD
 70
       0
  3

 62
       0
 51
90.0
 52
90.0
 71
       2
 49
0.5
 62
     256
  6
BYLAYER
 49
-0.5
 62
     256
  6
BYLAYER
  0
ENDSEC
  0
EOF
