  0
SECTION
  2
HEADER
  9
$ACADVER
  1
AC1014
  9
$ACADMAINTVER
 70
       0
  9
$DWGCODEPAGE
  3
ANSI_932
  9
$INSBASE
 10
0.0
 20
0.0
 30
0.0
  9
$EXTMIN
 10
-77.54131912
 20
-100.28441484
 30
0.0
  9
$EXTMAX
 10
118.6567502
 20
53.5875097
 30
0.0
  9
$LIMMIN
 10
-83.67250879
 20
-105.09291248
  9
$LIMMAX
 10
124.78793987
 20
58.39600734
  9
$ORTHOMODE
 70
       0
  9
$REGENMODE
 70
       1
  9
$FILLMODE
 70
       1
  9
$QTEXTMODE
 70
       0
  9
$MIRRTEXT
 70
       1
  9
$DRAGMODE
 70
       2
  9
$LTSCALE
 40
1.0
  9
$OSMODE
 70
       0
  9
$ATTMODE
 70
       1
  9
$TEXTSIZE
 40
0.2
  9
$TRACEWID
 40
0.05
  9
$TEXTSTYLE
  7
STANDARD
  9
$CLAYER
  8
0
  9
$CELTYPE
  6
CONTINUOUS
  9
$CECOLOR
 62
     256
  9
$CELTSCALE
 40
1.0
  9
$DELOBJ
 70
       1
  9
$DISPSILH
 70
       0
  9
$DIMSCALE
 40
1.0
  9
$DIMASZ
 40
0.18
  9
$DIMEXO
 40
0.0625
  9
$DIMDLI
 40
0.38
  9
$DIMRND
 40
0.0
  9
$DIMDLE
 40
0.0
  9
$DIMEXE
 40
0.18
  9
$DIMTP
 40
0.0
  9
$DIMTM
 40
0.0
  9
$DIMTXT
 40
0.18
  9
$DIMCEN
 40
0.09
  9
$DIMTSZ
 40
0.0
  9
$DIMTOL
 70
       0
  9
$DIMLIM
 70
       0
  9
$DIMTIH
 70
       1
  9
$DIMTOH
 70
       1
  9
$DIMSE1
 70
       0
  9
$DIMSE2
 70
       0
  9
$DIMTAD
 70
       0
  9
$DIMZIN
 70
       0
  9
$DIMBLK
  1

  9
$DIMASO
 70
       1
  9
$DIMSHO
 70
       1
  9
$DIMPOST
  1

  9
$DIMAPOST
  1

  9
$DIMALT
 70
       0
  9
$DIMALTD
 70
       2
  9
$DIMALTF
 40
25.4
  9
$DIMLFAC
 40
1.0
  9
$DIMTOFL
 70
       0
  9
$DIMTVP
 40
0.0
  9
$DIMTIX
 70
       0
  9
$DIMSOXD
 70
       0
  9
$DIMSAH
 70
       0
  9
$DIMBLK1
  1

  9
$DIMBLK2
  1

  9
$DIMSTYLE
  2
STANDARD
  9
$DIMCLRD
 70
       0
  9
$DIMCLRE
 70
       0
  9
$DIMCLRT
 70
       0
  9
$DIMTFAC
 40
1.0
  9
$DIMGAP
 40
0.09
  9
$DIMJUST
 70
       0
  9
$DIMSD1
 70
       0
  9
$DIMSD2
 70
       0
  9
$DIMTOLJ
 70
       1
  9
$DIMTZIN
 70
       0
  9
$DIMALTZ
 70
       0
  9
$DIMALTTZ
 70
       0
  9
$DIMFIT
 70
       3
  9
$DIMUPT
 70
       0
  9
$DIMUNIT
 70
       2
  9
$DIMDEC
 70
       4
  9
$DIMTDEC
 70
       4
  9
$DIMALTU
 70
       2
  9
$DIMALTTD
 70
       2
  9
$DIMTXSTY
  7
STANDARD
  9
$DIMAUNIT
 70
       0
  9
$LUNITS
 70
       2
  9
$LUPREC
 70
       4
  9
$SKETCHINC
 40
0.1
  9
$FILLETRAD
 40
0.0
  9
$AUNITS
 70
       0
  9
$AUPREC
 70
       0
  9
$MENU
  1
acad
  9
$ELEVATION
 40
0.0
  9
$PELEVATION
 40
0.0
  9
$THICKNESS
 40
0.0
  9
$LIMCHECK
 70
       0
  9
$BLIPMODE
 70
       1
  9
$CHAMFERA
 40
0.0
  9
$CHAMFERB
 40
0.0
  9
$CHAMFERC
 40
0.0
  9
$CHAMFERD
 40
0.0
  9
$SKPOLY
 70
       0
  9
$TDCREATE
 40
0.000000000
  9
$TDUPDATE
 40
0.000000000
  9
$TDINDWG
 40
0.0000000000
  9
$TDUSRTIMER
 40
0.0000000000
  9
$USRTIMER
 70
       1
  9
$ANGBASE
 50
0.0
  9
$ANGDIR
 70
       0
  9
$PDMODE
 70
       0
  9
$PDSIZE
 40
1.0
  9
$PLINEWID
 40
0.0
  9
$COORDS
 70
       1
  9
$SPLFRAME
 70
       0
  9
$SPLINETYPE
 70
       6
  9
$SPLINESEGS
 70
       8
  9
$ATTDIA
 70
       0
  9
$ATTREQ
 70
       1
  9
$HANDLING
 70
       1
  9
$HANDSEED
  5
401
  9
$SURFTAB1
 70
       6
  9
$SURFTAB2
 70
       6
  9
$SURFTYPE
 70
       6
  9
$SURFU
 70
       6
  9
$SURFV
 70
       6
  9
$UCSNAME
  2

  9
$UCSORG
 10
0.0
 20
0.0
 30
0.0
  9
$UCSXDIR
 10
1.0
 20
0.0
 30
0.0
  9
$UCSYDIR
 10
0.0
 20
1.0
 30
0.0
  9
$PUCSNAME
  2

  9
$PUCSORG
 10
0.0
 20
0.0
 30
0.0
  9
$PUCSXDIR
 10
1.0
 20
0.0
 30
0.0
  9
$PUCSYDIR
 10
0.0
 20
1.0
 30
0.0
  9
$USERI1
 70
       0
  9
$USERI2
 70
       0
  9
$USERI3
 70
       0
  9
$USERI4
 70
       0
  9
$USERI5
 70
       0
  9
$USERR1
 40
0.0
  9
$USERR2
 40
0.0
  9
$USERR3
 40
0.0
  9
$USERR4
 40
0.0
  9
$USERR5
 40
0.0
  9
$WORLDVIEW
 70
       1
  9
$SHADEDGE
 70
       3
  9
$SHADEDIF
 70
      70
  9
$TILEMODE
 70
       1
  9
$MAXACTVP
 70
      16
  9
$PINSBASE
 10
0.0
 20
0.0
 30
0.0
  9
$PLIMCHECK
 70
       0
  9
$PEXTMIN
 10
1.00000000E+20
 20
1.00000000E+20
 30
1.00000000E+20
  9
$PEXTMAX
 10
-1.00000000E+20
 20
-1.00000000E+20
 30
-1.00000000E+20
  9
$PLIMMIN
 10
0.0
 20
0.0
  9
$PLIMMAX
 10
12.0
 20
9.0
  9
$UNITMODE
 70
       0
  9
$VISRETAIN
 70
       0
  9
$PLINEGEN
 70
       1
  9
$PSLTSCALE
 70
       0
  9
$TREEDEPTH
 70
    3020
  9
$PICKSTYLE
 70
       1
  9
$CMLSTYLE
  2
STANDARD
  9
$CMLJUST
 70
       0
  9
$CMLSCALE
 40
1.0
  9
$PROXYGRAPHICS
 70
       0
  9
$MEASUREMENT
 70
       0
  0
ENDSEC
  0
SECTION
  2
CLASSES
  0
CLASS
  1
LWPOLYLINE
  2
AcDbPolyline
  3
"AutoCAD"
 90
        0
280
       0
281
       1
  0
CLASS
  1
IMAGE
  2
AcDbRasterImage
  3
ISM
 90
      127
280
       0
281
       1
  0
CLASS
  1
OLE2FRAME
  2
AcDbOle2Frame
  3
""
 90
        0
280
       0
281
       1
  0
CLASS
  1
HATCH
  2
AcDbHatch
  3
"ACAD_SEDONA"
 90
        0
280
       0
281
       1
  0
CLASS
  1
DICTIONARYVAR
  2
AcDbDictionaryVar
  3
"AutoCAD"
 90
        0
280
       0
281
       0
  0
CLASS
  1
RASTERVARIABLES
  2
AcDbRasterVariables
  3
ISM
 90
        0
280
       0
281
       0
  0
CLASS
  1
IMAGEDEF
  2
AcDbRasterImageDef
  3
ISM
 90
        0
280
       0
281
       0
  0
CLASS
  1
IMAGEDEF_REACTOR
  2
AcDbRasterImageDefReactor
  3
ISM
 90
        1
280
       0
281
       0
  0
CLASS
  1
IDBUFFER
  2
AcDbIdBuffer
  3
"Acad"
 90
        0
280
       0
281
       0
  0
CLASS
  1
SPATIAL_FILTER
  2
AcDbSpatialFilter
  3
"Acad"
 90
        0
280
       0
281
       0
  0
CLASS
  1
XRECORD
  2
AcDbXrecord
  3
"<Built In>"
 90
        0
280
       0
281
       0
  0
CLASS
  1
SORTENTSTABLE
  2
AcDbSortentsTable
  3
"AutoCAD"
 90
        0
280
       0
281
       0
  0
CLASS
  1
LAYER_INDEX
  2
AcDbLayerIndex
  3
"Acad"
 90
        0
280
       0
281
       0
  0
CLASS
  1
SPATIAL_INDEX
  2
AcDbSpatialIndex
  3
"Acad"
 90
        0
280
       0
281
       0
  0
CLASS
  1
OBJECT_PTR
  2
CAseDLPNTableRecord
  3
"ASE-LPNTableRecord"
 90
        1
280
       0
281
       0
  0
CLASS
  1
LAYOUT
  2
AcDbLayout
  3
"AutoCAD 2000"
 90
        1
280
       0
281
       0
  0
CLASS
  1
PLOTSETTINGS
  2
AcDbPlotSettings
  3
"AutoCAD 2000"
 90
        1
280
       0
281
       0
  0
CLASS
  1
ACDBDICTIONARYWDFLT
  2
AcDbDictionaryWithDefault
  3
"AutoCAD 2000"
 90
        1
280
       0
281
       0
  0
CLASS
  1
ACDBPLACEHOLDER
  2
AcDbPlaceHolder
  3
"AutoCAD 2000"
 90
        1
280
       0
281
       0
  0
CLASS
  1
VBA_PROJECT
  2
AcDbVbaProject
  3
"acadvba"
 90
        1
280
       0
281
       0
  0
CLASS
  1
WIPEOUT
  2
AcDbWipeout
  3
WipeOut|AutoCAD Express Tool|expresstools@autodesk.com
 90
      127
280
       0
281
       1
  0
CLASS
  1
WIPEOUTVARIABLES
  2
AcDbWipeoutVariables
  3
WipeOut|AutoCAD Express Tool|expresstools@autodesk.com
 90
        0
280
       0
281
       0
  0
CLASS
  1
RTEXT
  2
RText
  3
RText|AutoCAD Express Tool|expresstools@autodesk.com
 90
        0
280
       0
281
       1
  0
CLASS
  1
ARCALIGNEDTEXT
  2
AcDbArcAlignedText
  3
ATEXT|AutoCAD Express Tool|expresstools@autodesk.com
 90
        0
280
       0
281
       1
  0
ENDSEC
  0
SECTION
  2
TABLES
  0
TABLE
  2
VPORT
  5
7
100
AcDbSymbolTable
 70
       1
  0
VPORT
  5
15
100
AcDbSymbolTableRecord
100
AcDbViewportTableRecord
  2
*ACTIVE
 70
       0
 10
0.0
 20
0.0
 11
1.0
 21
1.0
 12
20.55771554
 22
-23.34845257
 13
0.0
 23
0.0
 14
1.0
 24
1.0
 15
0.0
 25
0.0
 16
0.0
 26
0.0
 36
1.0
 17
0.0
 27
0.0
 37
0.0
 40
163.48891982
 41
1.27507386
 42
50.0
 43
0.0
 44
0.0
 50
0.0
 51
0.0
 71
       0
 72
     100
 73
       1
 74
       1
 75
       0
 76
       0
 77
       0
 78
       0
  0
ENDTAB
  0
TABLE
  2
LTYPE
  5
4
100
AcDbSymbolTable
 70
      30
  0
LTYPE
  5
11
100
AcDbSymbolTableRecord
100
AcDbLinetypeTableRecord
  2
BYBLOCK
 70
      64
  3

 72
      65
 73
       0
 40
0.0
  0
LTYPE
  5
12
100
AcDbSymbolTableRecord
100
AcDbLinetypeTableRecord
  2
BYLAYER
 70
      64
  3

 72
      65
 73
       0
 40
0.0
  0
LTYPE
  5
13
100
AcDbSymbolTableRecord
100
AcDbLinetypeTableRecord
  2
CONTINUOUS
 70
      64
  3
Solid line
 72
      65
 73
       0
 40
0.0
  0
LTYPE
  5
1D
100
AcDbSymbolTableRecord
100
AcDbLinetypeTableRecord
  2
HIDDENX2
 70
      64
  3
CADPAC LINETYPE
 72
      65
 73
       2
 40
11.88
 49
8.91
 74
       0
 49
-2.97
 74
       0
  0
LTYPE
  5
1E
100
AcDbSymbolTableRecord
100
AcDbLinetypeTableRecord
  2
HIDDEN
 70
      64
  3
CADPAC LINETYPE
 72
      65
 73
       2
 40
8.91
 49
5.94
 74
       0
 49
-2.97
 74
       0
  0
LTYPE
  5
1F
100
AcDbSymbolTableRecord
100
AcDbLinetypeTableRecord
  2
HIDDEN2
 70
      64
  3
CADPAC LINETYPE
 72
      65
 73
       2
 40
7.425
 49
4.455
 74
       0
 49
-2.97
 74
       0
  0
LTYPE
  5
20
100
AcDbSymbolTableRecord
100
AcDbLinetypeTableRecord
  2
DASHED
 70
      64
  3
CADPAC LINETYPE
 72
      65
 73
       2
 40
8.91
 49
5.94
 74
       0
 49
-2.97
 74
       0
  0
LTYPE
  5
21
100
AcDbSymbolTableRecord
100
AcDbLinetypeTableRecord
  2
DASHED2
 70
      64
  3
CADPAC LINETYPE
 72
      65
 73
       2
 40
6.6825
 49
4.455
 74
       0
 49
-2.2275
 74
       0
  0
LTYPE
  5
22
100
AcDbSymbolTableRecord
100
AcDbLinetypeTableRecord
  2
DASHEDX2
 70
      64
  3
CADPAC LINETYPE
 72
      65
 73
       2
 40
13.365
 49
8.91
 74
       0
 49
-4.455
 74
       0
  0
LTYPE
  5
23
100
AcDbSymbolTableRecord
100
AcDbLinetypeTableRecord
  2
DOTX2
 70
      64
  3
CADPAC LINETYPE
 72
      65
 73
       2
 40
3.7125
 49
0.0
 74
       0
 49
-3.7125
 74
       0
  0
LTYPE
  5
24
100
AcDbSymbolTableRecord
100
AcDbLinetypeTableRecord
  2
DOT
 70
      64
  3
CADPAC LINETYPE
 72
      65
 73
       2
 40
2.97
 49
0.0
 74
       0
 49
-2.97
 74
       0
  0
LTYPE
  5
25
100
AcDbSymbolTableRecord
100
AcDbLinetypeTableRecord
  2
DOT2
 70
      64
  3
CADPAC LINETYPE
 72
      65
 73
       2
 40
2.2275
 49
0.0
 74
       0
 49
-2.2275
 74
       0
  0
LTYPE
  5
26
100
AcDbSymbolTableRecord
100
AcDbLinetypeTableRecord
  2
CENTERX2
 70
      64
  3
CADPAC LINETYPE
 72
      65
 73
       4
 40
17.82
 49
7.425
 74
       0
 49
-3.7125
 74
       0
 49
2.97
 74
       0
 49
-3.7125
 74
       0
  0
LTYPE
  5
27
100
AcDbSymbolTableRecord
100
AcDbLinetypeTableRecord
  2
CENTER
 70
      64
  3
CADPAC LINETYPE
 72
      65
 73
       4
 40
13.662
 49
5.94
 74
       0
 49
-2.97
 74
       0
 49
1.782
 74
       0
 49
-2.97
 74
       0
  0
LTYPE
  5
28
100
AcDbSymbolTableRecord
100
AcDbLinetypeTableRecord
  2
CENTER2
 70
      64
  3
CADPAC LINETYPE
 72
      65
 73
       4
 40
9.504
 49
4.455
 74
       0
 49
-2.2275
 74
       0
 49
0.594
 74
       0
 49
-2.2275
 74
       0
  0
LTYPE
  5
29
100
AcDbSymbolTableRecord
100
AcDbLinetypeTableRecord
  2
DASHDOTX2
 70
      64
  3
CADPAC LINETYPE
 72
      65
 73
       4
 40
14.85
 49
7.425
 74
       0
 49
-3.7125
 74
       0
 49
0.0
 74
       0
 49
-3.7125
 74
       0
  0
LTYPE
  5
2A
100
AcDbSymbolTableRecord
100
AcDbLinetypeTableRecord
  2
DASHDOT
 70
      64
  3
CADPAC LINETYPE
 72
      65
 73
       4
 40
11.88
 49
5.94
 74
       0
 49
-2.97
 74
       0
 49
0.0
 74
       0
 49
-2.97
 74
       0
  0
LTYPE
  5
2B
100
AcDbSymbolTableRecord
100
AcDbLinetypeTableRecord
  2
DASHDOT2
 70
      64
  3
CADPAC LINETYPE
 72
      65
 73
       4
 40
8.91
 49
4.455
 74
       0
 49
-2.2275
 74
       0
 49
0.0
 74
       0
 49
-2.2275
 74
       0
  0
LTYPE
  5
2C
100
AcDbSymbolTableRecord
100
AcDbLinetypeTableRecord
  2
DIVIDEX2
 70
      64
  3
CADPAC LINETYPE
 72
      65
 73
       6
 40
18.5625
 49
7.425
 74
       0
 49
-3.7125
 74
       0
 49
0.0
 74
       0
 49
-3.7125
 74
       0
 49
0.0
 74
       0
 49
-3.7125
 74
       0
  0
LTYPE
  5
2D
100
AcDbSymbolTableRecord
100
AcDbLinetypeTableRecord
  2
DIVIDE
 70
      64
  3
CADPAC LINETYPE
 72
      65
 73
       6
 40
14.85
 49
5.94
 74
       0
 49
-2.97
 74
       0
 49
0.0
 74
       0
 49
-2.97
 74
       0
 49
0.0
 74
       0
 49
-2.97
 74
       0
  0
LTYPE
  5
2E
100
AcDbSymbolTableRecord
100
AcDbLinetypeTableRecord
  2
DIVIDE2
 70
      64
  3
CADPAC LINETYPE
 72
      65
 73
       6
 40
11.1375
 49
4.455
 74
       0
 49
-2.2275
 74
       0
 49
0.0
 74
       0
 49
-2.2275
 74
       0
 49
0.0
 74
       0
 49
-2.2275
 74
       0
  0
LTYPE
  5
2F
100
AcDbSymbolTableRecord
100
AcDbLinetypeTableRecord
  2
BORDERX2
 70
      64
  3
CADPAC LINETYPE
 72
      65
 73
       6
 40
25.9875
 49
7.425
 74
       0
 49
-3.7125
 74
       0
 49
7.425
 74
       0
 49
-3.7125
 74
       0
 49
0.0
 74
       0
 49
-3.7125
 74
       0
  0
LTYPE
  5
30
100
AcDbSymbolTableRecord
100
AcDbLinetypeTableRecord
  2
BORDER
 70
      64
  3
CADPAC LINETYPE
 72
      65
 73
       6
 40
20.79
 49
5.94
 74
       0
 49
-2.97
 74
       0
 49
5.94
 74
       0
 49
-2.97
 74
       0
 49
0.0
 74
       0
 49
-2.97
 74
       0
  0
LTYPE
  5
31
100
AcDbSymbolTableRecord
100
AcDbLinetypeTableRecord
  2
BORDER2
 70
      64
  3
CADPAC LINETYPE
 72
      65
 73
       6
 40
15.5925
 49
4.455
 74
       0
 49
-2.2275
 74
       0
 49
4.455
 74
       0
 49
-2.2275
 74
       0
 49
0.0
 74
       0
 49
-2.2275
 74
       0
  0
LTYPE
  5
32
100
AcDbSymbolTableRecord
100
AcDbLinetypeTableRecord
  2
PHANTOMX2
 70
      64
  3
CADPAC LINETYPE
 72
      65
 73
       6
 40
22.275
 49
7.425
 74
       0
 49
-2.97
 74
       0
 49
2.97
 74
       0
 49
-2.97
 74
       0
 49
2.97
 74
       0
 49
-2.97
 74
       0
  0
LTYPE
  5
33
100
AcDbSymbolTableRecord
100
AcDbLinetypeTableRecord
  2
PHANTOM
 70
      64
  3
CADPAC LINETYPE
 72
      65
 73
       6
 40
18.414
 49
5.94
 74
       0
 49
-2.97
 74
       0
 49
1.782
 74
       0
 49
-2.97
 74
       0
 49
1.782
 74
       0
 49
-2.97
 74
       0
  0
LTYPE
  5
34
100
AcDbSymbolTableRecord
100
AcDbLinetypeTableRecord
  2
PHANTOM2
 70
      64
  3
CADPAC LINETYPE
 72
      65
 73
       6
 40
15.741
 49
4.455
 74
       0
 49
-2.97
 74
       0
 49
1.188
 74
       0
 49
-2.97
 74
       0
 49
1.188
 74
       0
 49
-2.97
 74
       0
  0
LTYPE
  5
35
100
AcDbSymbolTableRecord
100
AcDbLinetypeTableRecord
  2
ACAD_ISO06W100
 70
      64
  3
CADPAC LINETYPE
 72
      65
 73
       8
 40
20.0475
 49
7.425
 74
       0
 49
-3.7125
 74
       0
 49
0.0
 74
       0
 49
-2.97
 74
       0
 49
0.0
 74
       0
 49
-2.97
 74
       0
 49
0.0
 74
       0
 49
-2.97
 74
       0
  0
LTYPE
  5
36
100
AcDbSymbolTableRecord
100
AcDbLinetypeTableRecord
  2
ACAD_ISO13W100
 70
      64
  3
CADPAC LINETYPE
 72
      65
 73
       8
 40
23.76
 49
5.94
 74
       0
 49
-2.97
 74
       0
 49
5.94
 74
       0
 49
-2.97
 74
       0
 49
0.0
 74
       0
 49
-2.97
 74
       0
 49
0.0
 74
       0
 49
-2.97
 74
       0
  0
LTYPE
  5
37
100
AcDbSymbolTableRecord
100
AcDbLinetypeTableRecord
  2
ACAD_ISO14W100
 70
      64
  3
CADPAC LINETYPE
 72
      65
 73
       8
 40
17.82
 49
5.94
 74
       0
 49
-2.97
 74
       0
 49
0.0
 74
       0
 49
-2.97
 74
       0
 49
0.0
 74
       0
 49
-2.97
 74
       0
 49
0.0
 74
       0
 49
-2.97
 74
       0
  0
ENDTAB
  0
TABLE
  2
LAYER
  5
2
100
AcDbSymbolTable
 70
       2
  0
LAYER
  5
14
100
AcDbSymbolTableRecord
100
AcDbLayerTableRecord
  2
0
 70
       0
 62
       7
  6
CONTINUOUS
  0
LAYER
  5
38
100
AcDbSymbolTableRecord
100
AcDbLayerTableRecord
  2
レイヤー_1
 70
       0
 62
       7
  6
CONTINUOUS
  0
ENDTAB
  0
TABLE
  2
STYLE
  5
3
100
AcDbSymbolTable
 70
       1
  0
STYLE
  5
17
100
AcDbSymbolTableRecord
100
AcDbTextStyleTableRecord
  2
STANDARD
 70
       0
 40
0.0
 41
0.8
 50
0.0
 71
       0
 42
5.0
  3
txt.shx
  4
bigfont.shx
  0
ENDTAB
  0
TABLE
  2
VIEW
  5
5
100
AcDbSymbolTable
 70
       1
  0
VIEW
  5
39
100
AcDbSymbolTableRecord
100
AcDbViewTableRecord
  2
QQQQ
 70
       0
 40
163.48891982
 10
20.55771554
 20
-23.34845257
 41
208.46044866
 11
0.0
 21
0.0
 31
1.0
 12
100.0
 22
100.0
 32
0.0
 42
50.0
 43
0.0
 44
0.0
 50
0.0
 71
       0
  0
ENDTAB
  0
TABLE
  2
UCS
  5
6
100
AcDbSymbolTable
 70
       0
  0
ENDTAB
  0
TABLE
  2
APPID
  5
8
100
AcDbSymbolTable
 70
       1
  0
APPID
  5
16
100
AcDbSymbolTableRecord
100
AcDbRegAppTableRecord
  2
ACAD
 70
       0
  0
ENDTAB
  0
TABLE
  2
DIMSTYLE
  5
9
100
AcDbSymbolTable
 70
       1
  0
DIMSTYLE
105
18
100
AcDbSymbolTableRecord
100
AcDbDimStyleTableRecord
  2
STANDARD
 70
       0
  3

  4

  5

  6

  7

 40
1.0
 41
0.18
 42
0.0625
 43
0.38
 44
0.18
 45
0.0
 46
0.0
 47
0.0
 48
0.0
 71
       0
 72
       0
 73
       1
 74
       1
 75
       0
 76
       0
 77
       0
 78
       0
140
0.18
141
0.09
142
0.0
143
25.4
144
1.0
145
0.0
146
1.0
147
0.09
170
       0
171
       2
172
       0
173
       0
174
       0
175
       0
176
       0
177
       0
178
       0
270
       2
271
       4
272
       4
273
       2
274
       2
275
       0
280
       0
281
       0
282
       0
283
       1
284
       0
285
       0
286
       0
287
       0
288
       0
340
17
  0
ENDTAB
  0
TABLE
  2
BLOCK_RECORD
  5
1
100
AcDbSymbolTable
 70
       0
  0
BLOCK_RECORD
  5
A
100
AcDbSymbolTableRecord
100
AcDbBlockTableRecord
  2
*MODEL_SPACE
  0
BLOCK_RECORD
  5
B
100
AcDbSymbolTableRecord
100
AcDbBlockTableRecord
  2
*PAPER_SPACE
  0
ENDTAB
  0
ENDSEC
  0
SECTION
  2
BLOCKS
  0
BLOCK
  5
D
100
AcDbEntity
  8
0
100
AcDbBlockBegin
  2
*MODEL_SPACE
 70
       0
 10
0.0
 20
0.0
 30
0.0
  3
*MODEL_SPACE
  1

  0
ENDBLK
  5
E
100
AcDbEntity
  8
0
100
AcDbBlockEnd
  0
BLOCK
  5
F
100
AcDbEntity
 67
       1
  8
0
100
AcDbBlockBegin
  2
*PAPER_SPACE
 70
       0
 10
0.0
 20
0.0
 30
0.0
  3
*PAPER_SPACE
  1

  0
ENDBLK
  5
10
100
AcDbEntity
 67
       1
  8
0
100
AcDbBlockEnd
  0
ENDSEC
  0
SECTION
  2
ENTITIES
  0
LINE
  5
3A
100
AcDbEntity
  8
レイヤー_1
  6
CONTINUOUS
 62
       3
100
AcDbLine
 10
69.97454018
 20
-18.23385687
 30
0.0
 11
69.97454018
 21
-16.63361002
 31
0.0
  0
LINE
  5
3B
100
AcDbEntity
  8
レイヤー_1
  6
CONTINUOUS
 62
       3
100
AcDbLine
 10
69.97454018
 20
-16.63361002
 30
0.0
 11
70.36865911
 21
-16.63361002
 31
0.0
  0
LINE
  5
3C
100
AcDbEntity
  8
レイヤー_1
  6
CONTINUOUS
 62
       3
100
AcDbLine
 10
70.36865911
 20
-16.63361002
 30
0.0
 11
71.97338458
 21
-18.23385687
 31
0.0
  0
LINE
  5
3D
100
AcDbEntity
  8
レイヤー_1
  6
CONTINUOUS
 62
       3
100
AcDbLine
 10
69.97454018
 20
19.00107964
 30
0.0
 11
69.97454018
 21
17.4011773
 31
0.0
  0
LINE
  5
3E
100
AcDbEntity
  8
レイヤー_1
  6
CONTINUOUS
 62
       3
100
AcDbLine
 10
69.97454018
 20
17.4011773
 30
0.0
 11
70.36865911
 21
17.4011773
 31
0.0
  0
LINE
  5
3F
100
AcDbEntity
  8
レイヤー_1
  6
CONTINUOUS
 62
       3
100
AcDbLine
 10
70.36865911
 20
17.4011773
 30
0.0
 11
71.97338458
 21
19.00107964
 31
0.0
  0
LINE
  5
40
100
AcDbEntity
  8
レイヤー_1
  6
CONTINUOUS
 62
       3
100
AcDbLine
 10
-35.48672281
 20
38.54028319
 30
0.0
 11
-29.68724907
 21
38.54028319
 31
0.0
  0
LINE
  5
41
100
AcDbEntity
  8
レイヤー_1
  6
CONTINUOUS
 62
       3
100
AcDbLine
 10
-29.68724907
 20
38.54028319
 30
0.0
 11
-29.68724907
 21
46.04025606
 31
0.0
  0
LINE
  5
42
100
AcDbEntity
  8
レイヤー_1
  6
CONTINUOUS
 62
       3
100
AcDbLine
 10
-29.68724907
 20
46.04025606
 30
0.0
 11
-35.48672281
 21
46.04025606
 31
0.0
  0
LINE
  5
43
100
AcDbEntity
  8
レイヤー_1
  6
CONTINUOUS
 62
       3
100
AcDbLine
 10
-35.48672281
 20
46.04025606
 30
0.0
 11
-35.48672281
 21
38.54028319
 31
0.0
  0
LINE
  5
44
100
AcDbEntity
  8
レイヤー_1
  6
CONTINUOUS
 62
       3
100
AcDbLine
 10
-43.98577337
 20
38.54028319
 30
0.0
 11
-38.18629963
 21
38.54028319
 31
0.0
  0
LINE
  5
45
100
AcDbEntity
  8
レイヤー_1
  6
CONTINUOUS
 62
       3
100
AcDbLine
 10
-38.18629963
 20
38.54028319
 30
0.0
 11
-38.18629963
 21
46.04025606
 31
0.0
  0
LINE
  5
46
100
AcDbEntity
  8
レイヤー_1
  6
CONTINUOUS
 62
       3
100
AcDbLine
 10
-38.18629963
 20
46.04025606
 30
0.0
 11
-43.98577337
 21
46.04025606
 31
0.0
  0
LINE
  5
47
100
AcDbEntity
  8
レイヤー_1
  6
CONTINUOUS
 62
       3
100
AcDbLine
 10
-43.98577337
 20
46.04025606
 30
0.0
 11
-43.98577337
 21
38.54028319
 31
0.0
  0
LINE
  5
48
100
AcDbEntity
  8
レイヤー_1
  6
CONTINUOUS
 62
       3
100
AcDbLine
 10
-52.48654648
 20
38.54028319
 30
0.0
 11
-46.68603921
 21
38.54028319
 31
0.0
  0
LINE
  5
49
100
AcDbEntity
  8
レイヤー_1
  6
CONTINUOUS
 62
       3
100
AcDbLine
 10
-46.68603921
 20
38.54028319
 30
0.0
 11
-46.68603921
 21
46.04025606
 31
0.0
  0
LINE
  5
4A
100
AcDbEntity
  8
レイヤー_1
  6
CONTINUOUS
 62
       3
100
AcDbLine
 10
-46.68603921
 20
46.04025606
 30
0.0
 11
-52.48654648
 21
46.04025606
 31
0.0
  0
LINE
  5
4B
100
AcDbEntity
  8
レイヤー_1
  6
CONTINUOUS
 62
       3
100
AcDbLine
 10
-52.48654648
 20
46.04025606
 30
0.0
 11
-52.48654648
 21
38.54028319
 31
0.0
  0
LINE
  5
4C
100
AcDbEntity
  8
レイヤー_1
  6
CONTINUOUS
 62
       3
100
AcDbLine
 10
-60.98559704
 20
38.54028319
 30
0.0
 11
-55.18508978
 21
38.54028319
 31
0.0
  0
LINE
  5
4D
100
AcDbEntity
  8
レイヤー_1
  6
CONTINUOUS
 62
       3
100
AcDbLine
 10
-55.18508978
 20
38.54028319
 30
0.0
 11
-55.18508978
 21
46.04025606
 31
0.0
  0
LINE
  5
4E
100
AcDbEntity
  8
レイヤー_1
  6
CONTINUOUS
 62
       3
100
AcDbLine
 10
-55.18508978
 20
46.04025606
 30
0.0
 11
-60.98559704
 21
46.04025606
 31
0.0
  0
LINE
  5
4F
100
AcDbEntity
  8
レイヤー_1
  6
CONTINUOUS
 62
       3
100
AcDbLine
 10
-60.98559704
 20
46.04025606
 30
0.0
 11
-60.98559704
 21
38.54028319
 31
0.0
  0
LINE
  5
50
100
AcDbEntity
  8
レイヤー_1
  6
CONTINUOUS
 62
       3
100
AcDbLine
 10
-69.48533663
 20
38.54028319
 30
0.0
 11
-63.68586289
 21
38.54028319
 31
0.0
  0
LINE
  5
51
100
AcDbEntity
  8
レイヤー_1
  6
CONTINUOUS
 62
       3
100
AcDbLine
 10
-63.68586289
 20
38.54028319
 30
0.0
 11
-63.68586289
 21
46.04025606
 31
0.0
  0
LINE
  5
52
100
AcDbEntity
  8
レイヤー_1
  6
CONTINUOUS
 62
       3
100
AcDbLine
 10
-63.68586289
 20
46.04025606
 30
0.0
 11
-69.48533663
 21
46.04025606
 31
0.0
  0
LINE
  5
53
100
AcDbEntity
  8
レイヤー_1
  6
CONTINUOUS
 62
       3
100
AcDbLine
 10
-69.48533663
 20
46.04025606
 30
0.0
 11
-69.48533663
 21
38.54028319
 31
0.0
  0
LINE
  5
54
100
AcDbEntity
  8
レイヤー_1
  6
CONTINUOUS
 62
       3
100
AcDbLine
 10
-67.48304713
 20
32.84278428
 30
0.0
 11
-67.48304713
 21
31.34278971
 31
0.0
  0
LINE
  5
55
100
AcDbEntity
  8
レイヤー_1
  6
CONTINUOUS
 62
       3
100
AcDbLine
 10
-67.48304713
 20
31.34278971
 30
0.0
 11
-65.48282469
 21
31.34278971
 31
0.0
  0
LINE
  5
56
100
AcDbEntity
  8
レイヤー_1
  6
CONTINUOUS
 62
       3
100
AcDbLine
 10
-65.48282469
 20
31.34278971
 30
0.0
 11
-65.48282469
 21
32.84278428
 31
0.0
  0
LINE
  5
57
100
AcDbEntity
  8
レイヤー_1
  6
CONTINUOUS
 62
       3
100
AcDbLine
 10
-64.08308239
 20
32.84278428
 30
0.0
 11
-64.08308239
 21
31.34278971
 31
0.0
  0
LINE
  5
58
100
AcDbEntity
  8
レイヤー_1
  6
CONTINUOUS
 62
       3
100
AcDbLine
 10
-64.08308239
 20
31.34278971
 30
0.0
 11
-62.08285996
 21
31.34278971
 31
0.0
  0
LINE
  5
59
100
AcDbEntity
  8
レイヤー_1
  6
CONTINUOUS
 62
       3
100
AcDbLine
 10
-62.08285996
 20
31.34278971
 30
0.0
 11
-62.08285996
 21
32.84278428
 31
0.0
  0
LINE
  5
5A
100
AcDbEntity
  8
レイヤー_1
  6
CONTINUOUS
 62
       3
100
AcDbLine
 10
-60.68277315
 20
32.84278428
 30
0.0
 11
-60.68277315
 21
31.34278971
 31
0.0
  0
LINE
  5
5B
100
AcDbEntity
  8
レイヤー_1
  6
CONTINUOUS
 62
       3
100
AcDbLine
 10
-60.68277315
 20
31.34278971
 30
0.0
 11
-58.68255071
 21
31.34278971
 31
0.0
  0
LINE
  5
5C
100
AcDbEntity
  8
レイヤー_1
  6
CONTINUOUS
 62
       3
100
AcDbLine
 10
-58.68255071
 20
31.34278971
 30
0.0
 11
-58.68255071
 21
32.84278428
 31
0.0
  0
LINE
  5
5D
100
AcDbEntity
  8
レイヤー_1
  6
CONTINUOUS
 62
       3
100
AcDbLine
 10
-57.28349744
 20
32.84278428
 30
0.0
 11
-57.28349744
 21
31.34278971
 31
0.0
  0
LINE
  5
5E
100
AcDbEntity
  8
レイヤー_1
  6
CONTINUOUS
 62
       3
100
AcDbLine
 10
-57.28349744
 20
31.34278971
 30
0.0
 11
-55.28396402
 21
31.34278971
 31
0.0
  0
LINE
  5
5F
100
AcDbEntity
  8
レイヤー_1
  6
CONTINUOUS
 62
       3
100
AcDbLine
 10
-55.28396402
 20
31.34278971
 30
0.0
 11
-55.28396402
 21
32.84278428
 31
0.0
  0
LINE
  5
60
100
AcDbEntity
  8
レイヤー_1
  6
CONTINUOUS
 62
       3
100
AcDbLine
 10
-53.8835327
 20
32.84278428
 30
0.0
 11
-53.8835327
 21
31.34278971
 31
0.0
  0
LINE
  5
61
100
AcDbEntity
  8
レイヤー_1
  6
CONTINUOUS
 62
       3
100
AcDbLine
 10
-53.8835327
 20
31.34278971
 30
0.0
 11
-51.88399928
 21
31.34278971
 31
0.0
  0
LINE
  5
62
100
AcDbEntity
  8
レイヤー_1
  6
CONTINUOUS
 62
       3
100
AcDbLine
 10
-51.88399928
 20
31.34278971
 30
0.0
 11
-51.88399928
 21
32.84278428
 31
0.0
  0
LINE
  5
63
100
AcDbEntity
  8
レイヤー_1
  6
CONTINUOUS
 62
       3
100
AcDbLine
 10
-48.48369004
 20
32.84278428
 30
0.0
 11
-48.48369004
 21
31.34278971
 31
0.0
  0
LINE
  5
64
100
AcDbEntity
  8
レイヤー_1
  6
CONTINUOUS
 62
       3
100
AcDbLine
 10
-48.48369004
 20
31.34278971
 30
0.0
 11
-50.48322346
 21
31.34278971
 31
0.0
  0
LINE
  5
65
100
AcDbEntity
  8
レイヤー_1
  6
CONTINUOUS
 62
       3
100
AcDbLine
 10
-50.48322346
 20
31.34278971
 30
0.0
 11
-50.48322346
 21
32.84278428
 31
0.0
  0
LINE
  5
66
100
AcDbEntity
  8
レイヤー_1
  6
CONTINUOUS
 62
       3
100
AcDbLine
 10
-47.08325872
 20
32.84278428
 30
0.0
 11
-47.08325872
 21
31.34278971
 31
0.0
  0
LINE
  5
67
100
AcDbEntity
  8
レイヤー_1
  6
CONTINUOUS
 62
       3
100
AcDbLine
 10
-47.08325872
 20
31.34278971
 30
0.0
 11
-45.0837253
 21
31.34278971
 31
0.0
  0
LINE
  5
68
100
AcDbEntity
  8
レイヤー_1
  6
CONTINUOUS
 62
       3
100
AcDbLine
 10
-45.0837253
 20
31.34278971
 30
0.0
 11
-45.0837253
 21
32.84278428
 31
0.0
  0
LINE
  5
69
100
AcDbEntity
  8
レイヤー_1
  6
CONTINUOUS
 62
       3
100
AcDbLine
 10
-43.68398301
 20
32.84278428
 30
0.0
 11
-43.68398301
 21
31.34278971
 31
0.0
  0
LINE
  5
6A
100
AcDbEntity
  8
レイヤー_1
  6
CONTINUOUS
 62
       3
100
AcDbLine
 10
-43.68398301
 20
31.34278971
 30
0.0
 11
-41.68376057
 21
31.34278971
 31
0.0
  0
LINE
  5
6B
100
AcDbEntity
  8
レイヤー_1
  6
CONTINUOUS
 62
       3
100
AcDbLine
 10
-41.68376057
 20
31.34278971
 30
0.0
 11
-41.68376057
 21
32.84278428
 31
0.0
  0
LINE
  5
6C
100
AcDbEntity
  8
レイヤー_1
  6
CONTINUOUS
 62
       3
100
AcDbLine
 10
-40.28470729
 20
32.84278428
 30
0.0
 11
-40.28470729
 21
31.34278971
 31
0.0
  0
LINE
  5
6D
100
AcDbEntity
  8
レイヤー_1
  6
CONTINUOUS
 62
       3
100
AcDbLine
 10
-40.28470729
 20
31.34278971
 30
0.0
 11
-38.28448485
 21
31.34278971
 31
0.0
  0
LINE
  5
6E
100
AcDbEntity
  8
レイヤー_1
  6
CONTINUOUS
 62
       3
100
AcDbLine
 10
-38.28448485
 20
31.34278971
 30
0.0
 11
-38.28448485
 21
32.84278428
 31
0.0
  0
LINE
  5
6F
100
AcDbEntity
  8
レイヤー_1
  6
CONTINUOUS
 62
       3
100
AcDbLine
 10
-31.48421088
 20
32.84278428
 30
0.0
 11
-31.48421088
 21
31.34278971
 31
0.0
  0
LINE
  5
70
100
AcDbEntity
  8
レイヤー_1
  6
CONTINUOUS
 62
       3
100
AcDbLine
 10
-31.48421088
 20
31.34278971
 30
0.0
 11
-33.48443331
 21
31.34278971
 31
0.0
  0
LINE
  5
71
100
AcDbEntity
  8
レイヤー_1
  6
CONTINUOUS
 62
       3
100
AcDbLine
 10
-33.48443331
 20
31.34278971
 30
0.0
 11
-33.48443331
 21
32.84278428
 31
0.0
  0
LINE
  5
72
100
AcDbEntity
  8
レイヤー_1
  6
CONTINUOUS
 62
       3
100
AcDbLine
 10
-34.88417561
 20
32.84278428
 30
0.0
 11
-34.88417561
 21
31.34278971
 31
0.0
  0
LINE
  5
73
100
AcDbEntity
  8
レイヤー_1
  6
CONTINUOUS
 62
       3
100
AcDbLine
 10
-34.88417561
 20
31.34278971
 30
0.0
 11
-36.88439805
 21
31.34278971
 31
0.0
  0
LINE
  5
74
100
AcDbEntity
  8
レイヤー_1
  6
CONTINUOUS
 62
       3
100
AcDbLine
 10
-36.88439805
 20
31.34278971
 30
0.0
 11
-36.88439805
 21
32.84278428
 31
0.0
  0
LINE
  5
75
100
AcDbEntity
  8
レイヤー_1
  6
CONTINUOUS
 62
       3
100
AcDbLine
 10
-67.48304713
 20
-32.15238714
 30
0.0
 11
-67.48304713
 21
-30.65308159
 31
0.0
  0
LINE
  5
76
100
AcDbEntity
  8
レイヤー_1
  6
CONTINUOUS
 62
       3
100
AcDbLine
 10
-67.48304713
 20
-30.65308159
 30
0.0
 11
-65.48282469
 21
-30.65308159
 31
0.0
  0
LINE
  5
77
100
AcDbEntity
  8
レイヤー_1
  6
CONTINUOUS
 62
       3
100
AcDbLine
 10
-65.48282469
 20
-30.65308159
 30
0.0
 11
-65.48282469
 21
-32.15238714
 31
0.0
  0
LINE
  5
78
100
AcDbEntity
  8
レイヤー_1
  6
CONTINUOUS
 62
       3
100
AcDbLine
 10
-64.08308239
 20
-32.15238714
 30
0.0
 11
-64.08308239
 21
-30.65308159
 31
0.0
  0
LINE
  5
79
100
AcDbEntity
  8
レイヤー_1
  6
CONTINUOUS
 62
       3
100
AcDbLine
 10
-64.08308239
 20
-30.65308159
 30
0.0
 11
-62.08285996
 21
-30.65308159
 31
0.0
  0
LINE
  5
7A
100
AcDbEntity
  8
レイヤー_1
  6
CONTINUOUS
 62
       3
100
AcDbLine
 10
-62.08285996
 20
-30.65308159
 30
0.0
 11
-62.08285996
 21
-32.15238714
 31
0.0
  0
LINE
  5
7B
100
AcDbEntity
  8
レイヤー_1
  6
CONTINUOUS
 62
       3
100
AcDbLine
 10
-60.68277315
 20
-32.15238714
 30
0.0
 11
-60.68277315
 21
-30.65308159
 31
0.0
  0
LINE
  5
7C
100
AcDbEntity
  8
レイヤー_1
  6
CONTINUOUS
 62
       3
100
AcDbLine
 10
-60.68277315
 20
-30.65308159
 30
0.0
 11
-58.68255071
 21
-30.65308159
 31
0.0
  0
LINE
  5
7D
100
AcDbEntity
  8
レイヤー_1
  6
CONTINUOUS
 62
       3
100
AcDbLine
 10
-58.68255071
 20
-30.65308159
 30
0.0
 11
-58.68255071
 21
-32.15238714
 31
0.0
  0
LINE
  5
7E
100
AcDbEntity
  8
レイヤー_1
  6
CONTINUOUS
 62
       3
100
AcDbLine
 10
-57.28349744
 20
-32.15238714
 30
0.0
 11
-57.28349744
 21
-30.65308159
 31
0.0
  0
LINE
  5
7F
100
AcDbEntity
  8
レイヤー_1
  6
CONTINUOUS
 62
       3
100
AcDbLine
 10
-57.28349744
 20
-30.65308159
 30
0.0
 11
-55.28396402
 21
-30.65308159
 31
0.0
  0
LINE
  5
80
100
AcDbEntity
  8
レイヤー_1
  6
CONTINUOUS
 62
       3
100
AcDbLine
 10
-55.28396402
 20
-30.65308159
 30
0.0
 11
-55.28396402
 21
-32.15238714
 31
0.0
  0
LINE
  5
81
100
AcDbEntity
  8
レイヤー_1
  6
CONTINUOUS
 62
       3
100
AcDbLine
 10
-53.8835327
 20
-32.15238714
 30
0.0
 11
-53.8835327
 21
-30.65308159
 31
0.0
  0
LINE
  5
82
100
AcDbEntity
  8
レイヤー_1
  6
CONTINUOUS
 62
       3
100
AcDbLine
 10
-53.8835327
 20
-30.65308159
 30
0.0
 11
-51.88399928
 21
-30.65308159
 31
0.0
  0
LINE
  5
83
100
AcDbEntity
  8
レイヤー_1
  6
CONTINUOUS
 62
       3
100
AcDbLine
 10
-51.88399928
 20
-30.65308159
 30
0.0
 11
-51.88399928
 21
-32.15238714
 31
0.0
  0
LINE
  5
84
100
AcDbEntity
  8
レイヤー_1
  6
CONTINUOUS
 62
       3
100
AcDbLine
 10
-48.48369004
 20
-32.15238714
 30
0.0
 11
-48.48369004
 21
-30.65308159
 31
0.0
  0
LINE
  5
85
100
AcDbEntity
  8
レイヤー_1
  6
CONTINUOUS
 62
       3
100
AcDbLine
 10
-48.48369004
 20
-30.65308159
 30
0.0
 11
-50.48322346
 21
-30.65308159
 31
0.0
  0
LINE
  5
86
100
AcDbEntity
  8
レイヤー_1
  6
CONTINUOUS
 62
       3
100
AcDbLine
 10
-50.48322346
 20
-30.65308159
 30
0.0
 11
-50.48322346
 21
-32.15238714
 31
0.0
  0
LINE
  5
87
100
AcDbEntity
  8
レイヤー_1
  6
CONTINUOUS
 62
       3
100
AcDbLine
 10
-47.08325872
 20
-32.15238714
 30
0.0
 11
-47.08325872
 21
-30.65308159
 31
0.0
  0
LINE
  5
88
100
AcDbEntity
  8
レイヤー_1
  6
CONTINUOUS
 62
       3
100
AcDbLine
 10
-47.08325872
 20
-30.65308159
 30
0.0
 11
-45.0837253
 21
-30.65308159
 31
0.0
  0
LINE
  5
89
100
AcDbEntity
  8
レイヤー_1
  6
CONTINUOUS
 62
       3
100
AcDbLine
 10
-45.0837253
 20
-30.65308159
 30
0.0
 11
-45.0837253
 21
-32.15238714
 31
0.0
  0
LINE
  5
8A
100
AcDbEntity
  8
レイヤー_1
  6
CONTINUOUS
 62
       3
100
AcDbLine
 10
-43.68398301
 20
-32.15238714
 30
0.0
 11
-43.68398301
 21
-30.65308159
 31
0.0
  0
LINE
  5
8B
100
AcDbEntity
  8
レイヤー_1
  6
CONTINUOUS
 62
       3
100
AcDbLine
 10
-43.68398301
 20
-30.65308159
 30
0.0
 11
-41.68376057
 21
-30.65308159
 31
0.0
  0
LINE
  5
8C
100
AcDbEntity
  8
レイヤー_1
  6
CONTINUOUS
 62
       3
100
AcDbLine
 10
-41.68376057
 20
-30.65308159
 30
0.0
 11
-41.68376057
 21
-32.15238714
 31
0.0
  0
LINE
  5
8D
100
AcDbEntity
  8
レイヤー_1
  6
CONTINUOUS
 62
       3
100
AcDbLine
 10
-40.28470729
 20
-32.15238714
 30
0.0
 11
-40.28470729
 21
-30.65308159
 31
0.0
  0
LINE
  5
8E
100
AcDbEntity
  8
レイヤー_1
  6
CONTINUOUS
 62
       3
100
AcDbLine
 10
-40.28470729
 20
-30.65308159
 30
0.0
 11
-38.28448485
 21
-30.65308159
 31
0.0
  0
LINE
  5
8F
100
AcDbEntity
  8
レイヤー_1
  6
CONTINUOUS
 62
       3
100
AcDbLine
 10
-38.28448485
 20
-30.65308159
 30
0.0
 11
-38.28448485
 21
-32.15238714
 31
0.0
  0
LINE
  5
90
100
AcDbEntity
  8
レイヤー_1
  6
CONTINUOUS
 62
       3
100
AcDbLine
 10
-31.48421088
 20
-32.15238714
 30
0.0
 11
-31.48421088
 21
-30.65308159
 31
0.0
  0
LINE
  5
91
100
AcDbEntity
  8
レイヤー_1
  6
CONTINUOUS
 62
       3
100
AcDbLine
 10
-31.48421088
 20
-30.65308159
 30
0.0
 11
-33.48443331
 21
-30.65308159
 31
0.0
  0
LINE
  5
92
100
AcDbEntity
  8
レイヤー_1
  6
CONTINUOUS
 62
       3
100
AcDbLine
 10
-33.48443331
 20
-30.65308159
 30
0.0
 11
-33.48443331
 21
-32.15238714
 31
0.0
  0
LINE
  5
93
100
AcDbEntity
  8
レイヤー_1
  6
CONTINUOUS
 62
       3
100
AcDbLine
 10
-34.88417561
 20
-32.15238714
 30
0.0
 11
-34.88417561
 21
-30.65308159
 31
0.0
  0
LINE
  5
94
100
AcDbEntity
  8
レイヤー_1
  6
CONTINUOUS
 62
       3
100
AcDbLine
 10
-34.88417561
 20
-30.65308159
 30
0.0
 11
-36.88439805
 21
-30.65308159
 31
0.0
  0
LINE
  5
95
100
AcDbEntity
  8
レイヤー_1
  6
CONTINUOUS
 62
       3
100
AcDbLine
 10
-36.88439805
 20
-30.65308159
 30
0.0
 11
-36.88439805
 21
-32.15238714
 31
0.0
  0
LINE
  5
96
100
AcDbEntity
  8
レイヤー_1
  6
CONTINUOUS
 62
       3
100
AcDbLine
 10
-28.94930962
 20
-28.15228678
 30
0.0
 11
-31.24925536
 21
-30.15285373
 31
0.0
  0
LINE
  5
97
100
AcDbEntity
  8
レイヤー_1
  6
CONTINUOUS
 62
       3
100
AcDbLine
 10
-31.24925536
 20
-30.15285373
 30
0.0
 11
-70.14713947
 21
-30.15285373
 31
0.0
  0
LINE
  5
98
100
AcDbEntity
  8
レイヤー_1
  6
CONTINUOUS
 62
       3
100
AcDbLine
 10
-70.14713947
 20
-30.15285373
 30
0.0
 11
-70.14713947
 21
30.84256184
 31
0.0
  0
LINE
  5
99
100
AcDbEntity
  8
レイヤー_1
  6
CONTINUOUS
 62
       3
100
AcDbLine
 10
-70.14713947
 20
30.84256184
 30
0.0
 11
-28.94930962
 21
30.84256184
 31
0.0
  0
LINE
  5
9A
100
AcDbEntity
  8
レイヤー_1
  6
CONTINUOUS
 62
       3
100
AcDbLine
 10
-28.94930962
 20
30.84256184
 30
0.0
 11
-28.94930962
 21
-28.15228678
 31
0.0
  0
LINE
  5
9B
100
AcDbEntity
  8
レイヤー_1
  6
CONTINUOUS
 62
       3
100
AcDbLine
 10
-27.04899495
 20
-32.15238714
 30
0.0
 11
-72.04745414
 21
-32.15238714
 31
0.0
  0
LINE
  5
9C
100
AcDbEntity
  8
レイヤー_1
  6
CONTINUOUS
 62
       3
100
AcDbLine
 10
-27.04899495
 20
32.84278428
 30
0.0
 11
-72.04745414
 21
32.84278428
 31
0.0
  0
LINE
  5
9D
100
AcDbEntity
  8
レイヤー_1
  6
CONTINUOUS
 62
       3
100
AcDbLine
 10
33.74071857
 20
-32.15238714
 30
0.0
 11
45.9422431
 21
-32.15238714
 31
0.0
  0
LINE
  5
9E
100
AcDbEntity
  8
レイヤー_1
  6
CONTINUOUS
 62
       3
100
AcDbLine
 10
45.9422431
 20
-32.15238714
 30
0.0
 11
45.9422431
 21
-45.65514594
 31
0.0
  0
LINE
  5
9F
100
AcDbEntity
  8
レイヤー_1
  6
CONTINUOUS
 62
       3
100
AcDbLine
 10
73.74071857
 20
-46.65514594
 30
0.0
 11
73.74071857
 21
-18.19630533
 31
0.0
  0
LINE
  5
A0
100
AcDbEntity
  8
レイヤー_1
  6
CONTINUOUS
 62
       3
100
AcDbLine
 10
73.74071857
 20
-18.19630533
 30
0.0
 11
68.76944578
 21
-18.19630533
 31
0.0
  0
LINE
  5
A1
100
AcDbEntity
  8
レイヤー_1
  6
CONTINUOUS
 62
       3
100
AcDbLine
 10
68.76944578
 20
-18.19630533
 30
0.0
 11
68.76944578
 21
19.00107964
 31
0.0
  0
LINE
  5
A2
100
AcDbEntity
  8
レイヤー_1
  6
CONTINUOUS
 62
       3
100
AcDbLine
 10
68.76944578
 20
19.00107964
 30
0.0
 11
73.76827933
 21
19.00107964
 31
0.0
  0
LINE
  5
A3
100
AcDbEntity
  8
レイヤー_1
  6
CONTINUOUS
 62
       3
100
AcDbLine
 10
73.76827933
 20
19.00107964
 30
0.0
 11
73.76827933
 21
47.34485406
 31
0.0
  0
LINE
  5
A4
100
AcDbEntity
  8
レイヤー_1
  6
CONTINUOUS
 62
       3
100
AcDbLine
 10
45.9422431
 20
46.34485406
 30
0.0
 11
45.9422431
 21
32.84278428
 31
0.0
  0
LINE
  5
A5
100
AcDbEntity
  8
レイヤー_1
  6
CONTINUOUS
 62
       3
100
AcDbLine
 10
45.9422431
 20
32.84278428
 30
0.0
 11
33.74071857
 21
32.84278428
 31
0.0
  0
LINE
  5
A6
100
AcDbEntity
  8
レイヤー_1
  6
CONTINUOUS
 62
       3
100
AcDbLine
 10
69.2138631
 20
26.62989908
 30
0.0
 11
71.71362439
 21
26.62989908
 31
0.0
  0
LINE
  5
A7
100
AcDbEntity
  8
レイヤー_1
  6
CONTINUOUS
 62
       3
100
AcDbLine
 10
71.71362439
 20
26.62989908
 30
0.0
 11
71.71362439
 21
31.62942165
 31
0.0
  0
LINE
  5
A8
100
AcDbEntity
  8
レイヤー_1
  6
CONTINUOUS
 62
       3
100
AcDbLine
 10
71.71362439
 20
31.62942165
 30
0.0
 11
69.2138631
 21
31.62942165
 31
0.0
  0
LINE
  5
A9
100
AcDbEntity
  8
レイヤー_1
  6
CONTINUOUS
 62
       3
100
AcDbLine
 10
69.2138631
 20
31.62942165
 30
0.0
 11
69.2138631
 21
26.62989908
 31
0.0
  0
LINE
  5
AA
100
AcDbEntity
  8
レイヤー_1
  6
CONTINUOUS
 62
       3
100
AcDbLine
 10
69.0912177
 20
-30.86598849
 30
0.0
 11
71.59166801
 21
-30.86598849
 31
0.0
  0
LINE
  5
AB
100
AcDbEntity
  8
レイヤー_1
  6
CONTINUOUS
 62
       3
100
AcDbLine
 10
71.59166801
 20
-30.86598849
 30
0.0
 11
71.59166801
 21
-25.86715494
 31
0.0
  0
LINE
  5
AC
100
AcDbEntity
  8
レイヤー_1
  6
CONTINUOUS
 62
       3
100
AcDbLine
 10
71.59166801
 20
-25.86715494
 30
0.0
 11
69.0912177
 21
-25.86715494
 31
0.0
  0
LINE
  5
AD
100
AcDbEntity
  8
レイヤー_1
  6
CONTINUOUS
 62
       3
100
AcDbLine
 10
69.0912177
 20
-25.86715494
 30
0.0
 11
69.0912177
 21
-30.86598849
 31
0.0
  0
LINE
  5
AE
100
AcDbEntity
  8
レイヤー_1
  6
CONTINUOUS
 62
       3
100
AcDbLine
 10
-34.15898301
 20
-45.57826876
 30
0.0
 11
-28.93931884
 21
-45.57826876
 31
0.0
  0
LINE
  5
AF
100
AcDbEntity
  8
レイヤー_1
  6
CONTINUOUS
 62
       3
100
AcDbLine
 10
-28.93931884
 20
-45.57826876
 30
0.0
 11
-28.93931884
 21
-38.8289822
 31
0.0
  0
LINE
  5
B0
100
AcDbEntity
  8
レイヤー_1
  6
CONTINUOUS
 62
       3
100
AcDbLine
 10
-28.93931884
 20
-38.8289822
 30
0.0
 11
-34.15898301
 21
-38.8289822
 31
0.0
  0
LINE
  5
B1
100
AcDbEntity
  8
レイヤー_1
  6
CONTINUOUS
 62
       3
100
AcDbLine
 10
-34.15898301
 20
-38.8289822
 30
0.0
 11
-34.15898301
 21
-45.57826876
 31
0.0
  0
LINE
  5
B2
100
AcDbEntity
  8
レイヤー_1
  6
CONTINUOUS
 62
       3
100
AcDbLine
 10
-41.35854356
 20
-45.57826876
 30
0.0
 11
-36.13819037
 21
-45.57826876
 31
0.0
  0
LINE
  5
B3
100
AcDbEntity
  8
レイヤー_1
  6
CONTINUOUS
 62
       3
100
AcDbLine
 10
-36.13819037
 20
-45.57826876
 30
0.0
 11
-36.13819037
 21
-38.8289822
 31
0.0
  0
LINE
  5
B4
100
AcDbEntity
  8
レイヤー_1
  6
CONTINUOUS
 62
       3
100
AcDbLine
 10
-36.13819037
 20
-38.8289822
 30
0.0
 11
-41.35854356
 21
-38.8289822
 31
0.0
  0
LINE
  5
B5
100
AcDbEntity
  8
レイヤー_1
  6
CONTINUOUS
 62
       3
100
AcDbLine
 10
-41.35854356
 20
-38.8289822
 30
0.0
 11
-41.35854356
 21
-45.57826876
 31
0.0
  0
LINE
  5
B6
100
AcDbEntity
  8
レイヤー_1
  6
CONTINUOUS
 62
       3
100
AcDbLine
 10
-48.55879312
 20
-45.57826876
 30
0.0
 11
-43.33809542
 21
-45.57826876
 31
0.0
  0
LINE
  5
B7
100
AcDbEntity
  8
レイヤー_1
  6
CONTINUOUS
 62
       3
100
AcDbLine
 10
-43.33809542
 20
-45.57826876
 30
0.0
 11
-43.33809542
 21
-38.8289822
 31
0.0
  0
LINE
  5
B8
100
AcDbEntity
  8
レイヤー_1
  6
CONTINUOUS
 62
       3
100
AcDbLine
 10
-43.33809542
 20
-38.8289822
 30
0.0
 11
-48.55879312
 21
-38.8289822
 31
0.0
  0
LINE
  5
B9
100
AcDbEntity
  8
レイヤー_1
  6
CONTINUOUS
 62
       3
100
AcDbLine
 10
-48.55879312
 20
-38.8289822
 30
0.0
 11
-48.55879312
 21
-45.57826876
 31
0.0
  0
LINE
  5
BA
100
AcDbEntity
  8
レイヤー_1
  6
CONTINUOUS
 62
       3
100
AcDbLine
 10
-55.75800915
 20
-45.57826876
 30
0.0
 11
-50.53834499
 21
-45.57826876
 31
0.0
  0
LINE
  5
BB
100
AcDbEntity
  8
レイヤー_1
  6
CONTINUOUS
 62
       3
100
AcDbLine
 10
-50.53834499
 20
-45.57826876
 30
0.0
 11
-50.53834499
 21
-38.8289822
 31
0.0
  0
LINE
  5
BC
100
AcDbEntity
  8
レイヤー_1
  6
CONTINUOUS
 62
       3
100
AcDbLine
 10
-50.53834499
 20
-38.8289822
 30
0.0
 11
-55.75800915
 21
-38.8289822
 31
0.0
  0
LINE
  5
BD
100
AcDbEntity
  8
レイヤー_1
  6
CONTINUOUS
 62
       3
100
AcDbLine
 10
-55.75800915
 20
-38.8289822
 30
0.0
 11
-55.75800915
 21
-45.57826876
 31
0.0
  0
LINE
  5
BE
100
AcDbEntity
  8
レイヤー_1
  6
CONTINUOUS
 62
       3
100
AcDbLine
 10
-62.9575697
 20
-45.57826876
 30
0.0
 11
-57.73790553
 21
-45.57826876
 31
0.0
  0
LINE
  5
BF
100
AcDbEntity
  8
レイヤー_1
  6
CONTINUOUS
 62
       3
100
AcDbLine
 10
-57.73790553
 20
-45.57826876
 30
0.0
 11
-57.73790553
 21
-38.8289822
 31
0.0
  0
LINE
  5
C0
100
AcDbEntity
  8
レイヤー_1
  6
CONTINUOUS
 62
       3
100
AcDbLine
 10
-57.73790553
 20
-38.8289822
 30
0.0
 11
-62.9575697
 21
-38.8289822
 31
0.0
  0
LINE
  5
C1
100
AcDbEntity
  8
レイヤー_1
  6
CONTINUOUS
 62
       3
100
AcDbLine
 10
-62.9575697
 20
-38.8289822
 30
0.0
 11
-62.9575697
 21
-45.57826876
 31
0.0
  0
LINE
  5
C2
100
AcDbEntity
  8
レイヤー_1
  6
CONTINUOUS
 62
       3
100
AcDbLine
 10
-70.15781926
 20
-45.57826876
 30
0.0
 11
-64.93815509
 21
-45.57826876
 31
0.0
  0
LINE
  5
C3
100
AcDbEntity
  8
レイヤー_1
  6
CONTINUOUS
 62
       3
100
AcDbLine
 10
-64.93815509
 20
-45.57826876
 30
0.0
 11
-64.93815509
 21
-38.8289822
 31
0.0
  0
LINE
  5
C4
100
AcDbEntity
  8
レイヤー_1
  6
CONTINUOUS
 62
       3
100
AcDbLine
 10
-64.93815509
 20
-38.8289822
 30
0.0
 11
-70.15781926
 21
-38.8289822
 31
0.0
  0
LINE
  5
C5
100
AcDbEntity
  8
レイヤー_1
  6
CONTINUOUS
 62
       3
100
AcDbLine
 10
-70.15781926
 20
-38.8289822
 30
0.0
 11
-70.15781926
 21
-45.57826876
 31
0.0
  0
LINE
  5
C6
100
AcDbEntity
  8
レイヤー_1
  6
CONTINUOUS
 62
       3
100
AcDbLine
 10
-70.54745956
 20
-46.61455348
 30
0.0
 11
-70.54745956
 21
-37.61527506
 31
0.0
  0
LINE
  5
C7
100
AcDbEntity
  8
レイヤー_1
  6
CONTINUOUS
 62
       3
100
AcDbLine
 10
-70.54745956
 20
-37.61527506
 30
0.0
 11
-64.54713676
 21
-37.61527506
 31
0.0
  0
LINE
  5
C8
100
AcDbEntity
  8
レイヤー_1
  6
CONTINUOUS
 62
       3
100
AcDbLine
 10
-64.54713676
 20
-37.61527506
 30
0.0
 11
-64.54713676
 21
-46.61455348
 31
0.0
  0
LINE
  5
C9
100
AcDbEntity
  8
レイヤー_1
  6
CONTINUOUS
 62
       3
100
AcDbLine
 10
-63.34789902
 20
-46.61455348
 30
0.0
 11
-63.34789902
 21
-37.61527506
 31
0.0
  0
LINE
  5
CA
100
AcDbEntity
  8
レイヤー_1
  6
CONTINUOUS
 62
       3
100
AcDbLine
 10
-63.34789902
 20
-37.61527506
 30
0.0
 11
-57.34860974
 21
-37.61527506
 31
0.0
  0
LINE
  5
CB
100
AcDbEntity
  8
レイヤー_1
  6
CONTINUOUS
 62
       3
100
AcDbLine
 10
-57.34860974
 20
-37.61527506
 30
0.0
 11
-57.34860974
 21
-46.61455348
 31
0.0
  0
LINE
  5
CC
100
AcDbEntity
  8
レイヤー_1
  6
CONTINUOUS
 62
       3
100
AcDbLine
 10
-56.14833847
 20
-46.61455348
 30
0.0
 11
-56.14833847
 21
-37.61527506
 31
0.0
  0
LINE
  5
CD
100
AcDbEntity
  8
レイヤー_1
  6
CONTINUOUS
 62
       3
100
AcDbLine
 10
-56.14833847
 20
-37.61527506
 30
0.0
 11
-50.14836018
 21
-37.61527506
 31
0.0
  0
LINE
  5
CE
100
AcDbEntity
  8
レイヤー_1
  6
CONTINUOUS
 62
       3
100
AcDbLine
 10
-50.14836018
 20
-37.61527506
 30
0.0
 11
-50.14836018
 21
-46.61455348
 31
0.0
  0
LINE
  5
CF
100
AcDbEntity
  8
レイヤー_1
  6
CONTINUOUS
 62
       3
100
AcDbLine
 10
-48.94877793
 20
-46.61455348
 30
0.0
 11
-48.94877793
 21
-37.61527506
 31
0.0
  0
LINE
  5
D0
100
AcDbEntity
  8
レイヤー_1
  6
CONTINUOUS
 62
       3
100
AcDbLine
 10
-48.94877793
 20
-37.61527506
 30
0.0
 11
-42.94879963
 21
-37.61527506
 31
0.0
  0
LINE
  5
D1
100
AcDbEntity
  8
レイヤー_1
  6
CONTINUOUS
 62
       3
100
AcDbLine
 10
-42.94879963
 20
-37.61527506
 30
0.0
 11
-42.94879963
 21
-46.61455348
 31
0.0
  0
LINE
  5
D2
100
AcDbEntity
  8
レイヤー_1
  6
CONTINUOUS
 62
       3
100
AcDbLine
 10
-41.74783935
 20
-46.61455348
 30
0.0
 11
-41.74783935
 21
-37.61527506
 31
0.0
  0
LINE
  5
D3
100
AcDbEntity
  8
レイヤー_1
  6
CONTINUOUS
 62
       3
100
AcDbLine
 10
-41.74783935
 20
-37.61527506
 30
0.0
 11
-35.74923909
 21
-37.61527506
 31
0.0
  0
LINE
  5
D4
100
AcDbEntity
  8
レイヤー_1
  6
CONTINUOUS
 62
       3
100
AcDbLine
 10
-35.74923909
 20
-37.61527506
 30
0.0
 11
-35.74923909
 21
-46.61455348
 31
0.0
  0
LINE
  5
D5
100
AcDbEntity
  8
レイヤー_1
  6
CONTINUOUS
 62
       3
100
AcDbLine
 10
-34.54896782
 20
-46.61455348
 30
0.0
 11
-34.54896782
 21
-37.61527506
 31
0.0
  0
LINE
  5
D6
100
AcDbEntity
  8
レイヤー_1
  6
CONTINUOUS
 62
       3
100
AcDbLine
 10
-34.54896782
 20
-37.61527506
 30
0.0
 11
-28.54898952
 21
-37.61527506
 31
0.0
  0
LINE
  5
D7
100
AcDbEntity
  8
レイヤー_1
  6
CONTINUOUS
 62
       3
100
AcDbLine
 10
-28.54898952
 20
-37.61527506
 30
0.0
 11
-28.54898952
 21
-46.61455348
 31
0.0
  0
LINE
  5
D8
100
AcDbEntity
  8
レイヤー_1
  6
CONTINUOUS
 62
       3
100
AcDbLine
 10
-59.53934596
 20
-46.61455348
 30
0.0
 11
-59.53934596
 21
-49.65514594
 31
0.0
  0
LINE
  5
D9
100
AcDbEntity
  8
レイヤー_1
  6
CONTINUOUS
 62
       3
100
AcDbLine
 10
-39.54091118
 20
-49.65514594
 30
0.0
 11
-39.54091118
 21
-46.61455348
 31
0.0
  0
LINE
  5
DA
100
AcDbEntity
  8
レイヤー_1
  6
CONTINUOUS
 62
       3
100
AcDbLine
 10
69.34202065
 20
-46.61455348
 30
0.0
 11
69.34202065
 21
-49.65514594
 31
0.0
  0
LINE
  5
DB
100
AcDbEntity
  8
レイヤー_1
  6
CONTINUOUS
 62
       3
100
AcDbLine
 10
73.74071857
 20
-49.65514594
 30
0.0
 11
73.74071857
 21
-46.61455348
 31
0.0
  0
LINE
  5
DC
100
AcDbEntity
  8
レイヤー_1
  6
CONTINUOUS
 62
       3
100
AcDbLine
 10
-57.93909911
 20
-46.61455348
 30
0.0
 11
-57.93909911
 21
-47.25809732
 31
0.0
  0
LINE
  5
DD
100
AcDbEntity
  8
レイヤー_1
  6
CONTINUOUS
 62
       3
100
AcDbLine
 10
-57.93909911
 20
-47.25809732
 30
0.0
 11
-41.13977999
 21
-47.25809732
 31
0.0
  0
LINE
  5
DE
100
AcDbEntity
  8
レイヤー_1
  6
CONTINUOUS
 62
       3
100
AcDbLine
 10
-41.13977999
 20
-47.25809732
 30
0.0
 11
-41.13977999
 21
-46.61455348
 31
0.0
  0
LINE
  5
DF
100
AcDbEntity
  8
レイヤー_1
  6
CONTINUOUS
 62
       3
100
AcDbLine
 10
-44.78606905
 20
47.37729762
 30
0.0
 11
-44.78606905
 21
37.37894151
 31
0.0
  0
LINE
  5
E0
100
AcDbEntity
  8
レイヤー_1
  6
CONTINUOUS
 62
       3
100
AcDbLine
 10
-44.78606905
 20
37.37894151
 30
0.0
 11
-37.38703748
 21
37.37894151
 31
0.0
  0
LINE
  5
E1
100
AcDbEntity
  8
レイヤー_1
  6
CONTINUOUS
 62
       3
100
AcDbLine
 10
-37.38703748
 20
37.37894151
 30
0.0
 11
-37.38703748
 21
47.37729762
 31
0.0
  0
LINE
  5
E2
100
AcDbEntity
  8
レイヤー_1
  6
CONTINUOUS
 62
       3
100
AcDbLine
 10
-36.28701849
 20
47.37729762
 30
0.0
 11
-36.28701849
 21
37.37894151
 31
0.0
  0
LINE
  5
E3
100
AcDbEntity
  8
レイヤー_1
  6
CONTINUOUS
 62
       3
100
AcDbLine
 10
-36.28701849
 20
37.37894151
 30
0.0
 11
-28.88695339
 21
37.37894151
 31
0.0
  0
LINE
  5
E4
100
AcDbEntity
  8
レイヤー_1
  6
CONTINUOUS
 62
       3
100
AcDbLine
 10
-28.88695339
 20
37.37894151
 30
0.0
 11
-28.88695339
 21
47.37729762
 31
0.0
  0
LINE
  5
E5
100
AcDbEntity
  8
レイヤー_1
  6
CONTINUOUS
 62
       3
100
AcDbLine
 10
-70.28563231
 20
47.37729762
 30
0.0
 11
-70.28563231
 21
37.37894151
 31
0.0
  0
LINE
  5
E6
100
AcDbEntity
  8
レイヤー_1
  6
CONTINUOUS
 62
       3
100
AcDbLine
 10
-70.28563231
 20
37.37894151
 30
0.0
 11
-62.8855672
 21
37.37894151
 31
0.0
  0
LINE
  5
E7
100
AcDbEntity
  8
レイヤー_1
  6
CONTINUOUS
 62
       3
100
AcDbLine
 10
-62.8855672
 20
37.37894151
 30
0.0
 11
-62.8855672
 21
47.37729762
 31
0.0
  0
LINE
  5
E8
100
AcDbEntity
  8
レイヤー_1
  6
CONTINUOUS
 62
       3
100
AcDbLine
 10
-61.78554822
 20
47.37729762
 30
0.0
 11
-61.78554822
 21
37.37894151
 31
0.0
  0
LINE
  5
E9
100
AcDbEntity
  8
レイヤー_1
  6
CONTINUOUS
 62
       3
100
AcDbLine
 10
-61.78554822
 20
37.37894151
 30
0.0
 11
-54.38651664
 21
37.37894151
 31
0.0
  0
LINE
  5
EA
100
AcDbEntity
  8
レイヤー_1
  6
CONTINUOUS
 62
       3
100
AcDbLine
 10
-54.38651664
 20
37.37894151
 30
0.0
 11
-54.38651664
 21
47.37729762
 31
0.0
  0
LINE
  5
EB
100
AcDbEntity
  8
レイヤー_1
  6
CONTINUOUS
 62
       3
100
AcDbLine
 10
-53.28580863
 20
47.37729762
 30
0.0
 11
-53.28580863
 21
37.37894151
 31
0.0
  0
LINE
  5
EC
100
AcDbEntity
  8
レイヤー_1
  6
CONTINUOUS
 62
       3
100
AcDbLine
 10
-53.28580863
 20
37.37894151
 30
0.0
 11
-45.88608804
 21
37.37894151
 31
0.0
  0
LINE
  5
ED
100
AcDbEntity
  8
レイヤー_1
  6
CONTINUOUS
 62
       3
100
AcDbLine
 10
-45.88608804
 20
37.37894151
 30
0.0
 11
-45.88608804
 21
47.37729762
 31
0.0
  0
LINE
  5
EE
100
AcDbEntity
  8
レイヤー_1
  6
CONTINUOUS
 62
       3
100
AcDbLine
 10
-72.03995631
 20
-46.65514594
 30
0.0
 11
-27.03995631
 21
-46.65514594
 31
0.0
  0
LINE
  5
EF
100
AcDbEntity
  8
レイヤー_1
  6
CONTINUOUS
 62
       3
100
AcDbLine
 10
-72.03995631
 20
47.34485406
 30
0.0
 11
-27.03995631
 21
47.34485406
 31
0.0
  0
LINE
  5
F0
100
AcDbEntity
  8
レイヤー_1
  6
CONTINUOUS
 62
       3
100
AcDbLine
 10
-72.03995631
 20
47.34485406
 30
0.0
 11
-72.03995631
 21
-46.65514594
 31
0.0
  0
LINE
  5
F1
100
AcDbEntity
  8
レイヤー_1
  6
CONTINUOUS
 62
       3
100
AcDbLine
 10
-27.03995631
 20
47.34485406
 30
0.0
 11
-27.03995631
 21
-46.65514594
 31
0.0
  0
LINE
  5
F2
100
AcDbEntity
  8
レイヤー_1
  6
CONTINUOUS
 62
       3
100
AcDbLine
 10
32.74071857
 20
-31.15238714
 30
0.0
 11
32.74071857
 21
31.84278428
 31
0.0
  0
LINE
  5
F3
100
AcDbEntity
  8
レイヤー_1
  6
CONTINUOUS
 62
       3
100
AcDbLine
 10
46.9422431
 20
47.34485406
 30
0.0
 11
73.76827933
 21
47.34485406
 31
0.0
  0
LINE
  5
F4
100
AcDbEntity
  8
レイヤー_1
  6
CONTINUOUS
 62
       3
100
AcDbLine
 10
-59.53934596
 20
-49.65514594
 30
0.0
 11
-39.54091118
 21
-49.65514594
 31
0.0
  0
LINE
  5
F5
100
AcDbEntity
  8
レイヤー_1
  6
CONTINUOUS
 62
       3
100
AcDbLine
 10
46.9422431
 20
-46.65514594
 30
0.0
 11
73.74071857
 21
-46.65514594
 31
0.0
  0
LINE
  5
F6
100
AcDbEntity
  8
レイヤー_1
  6
CONTINUOUS
 62
       3
100
AcDbLine
 10
69.34202065
 20
-49.65514594
 30
0.0
 11
73.74071857
 21
-49.65514594
 31
0.0
  0
ARC
  5
F7
100
AcDbEntity
  8
レイヤー_1
  6
CONTINUOUS
 62
       3
100
AcDbCircle
 10
33.74071857
 20
-31.15238714
 30
0.0
 40
1.0
100
AcDbArc
 50
180.0
 51
270.0
  0
ARC
  5
F8
100
AcDbEntity
  8
レイヤー_1
  6
CONTINUOUS
 62
       3
100
AcDbCircle
 10
33.74071857
 20
31.84278428
 30
0.0
 40
1.0
100
AcDbArc
 50
90.0
 51
180.0
  0
ARC
  5
F9
100
AcDbEntity
  8
レイヤー_1
  6
CONTINUOUS
 62
       3
100
AcDbCircle
 10
46.9422431
 20
46.34485406
 30
0.0
 40
1.0
100
AcDbArc
 50
90.0
 51
180.0
  0
ARC
  5
FA
100
AcDbEntity
  8
レイヤー_1
  6
CONTINUOUS
 62
       3
100
AcDbCircle
 10
46.9422431
 20
-45.65514594
 30
0.0
 40
1.0
100
AcDbArc
 50
180.0
 51
270.0
  0
LINE
  5
FB
100
AcDbEntity
  8
レイヤー_1
  6
CONTINUOUS
 62
       3
100
AcDbLine
 10
-32.54874538
 20
45.04186739
 30
0.0
 11
-32.81086814
 21
45.02976595
 31
0.0
  0
LINE
  5
FC
100
AcDbEntity
  8
レイヤー_1
  6
CONTINUOUS
 62
       3
100
AcDbLine
 10
-32.81086814
 20
45.02976595
 30
0.0
 11
-33.06617171
 21
44.99417927
 31
0.0
  0
LINE
  5
FD
100
AcDbEntity
  8
レイヤー_1
  6
CONTINUOUS
 62
       3
100
AcDbLine
 10
-33.06617171
 20
44.99417927
 30
0.0
 11
-33.31358078
 21
44.9361838
 31
0.0
  0
LINE
  5
FE
100
AcDbEntity
  8
レイヤー_1
  6
CONTINUOUS
 62
       3
100
AcDbLine
 10
-33.31358078
 20
44.9361838
 30
0.0
 11
-33.55202005
 21
44.85685602
 31
0.0
  0
LINE
  5
FF
100
AcDbEntity
  8
レイヤー_1
  6
CONTINUOUS
 62
       3
100
AcDbLine
 10
-33.55202005
 20
44.85685602
 30
0.0
 11
-33.78041422
 21
44.75727237
 31
0.0
  0
LINE
  5
100
100
AcDbEntity
  8
レイヤー_1
  6
CONTINUOUS
 62
       3
100
AcDbLine
 10
-33.78041422
 20
44.75727237
 30
0.0
 11
-33.99768799
 21
44.63850933
 31
0.0
  0
LINE
  5
101
100
AcDbEntity
  8
レイヤー_1
  6
CONTINUOUS
 62
       3
100
AcDbLine
 10
-33.99768799
 20
44.63850933
 30
0.0
 11
-34.20276604
 21
44.50164335
 31
0.0
  0
LINE
  5
102
100
AcDbEntity
  8
レイヤー_1
  6
CONTINUOUS
 62
       3
100
AcDbLine
 10
-34.20276604
 20
44.50164335
 30
0.0
 11
-34.39457308
 21
44.34775089
 31
0.0
  0
LINE
  5
103
100
AcDbEntity
  8
レイヤー_1
  6
CONTINUOUS
 62
       3
100
AcDbLine
 10
-34.39457308
 20
44.34775089
 30
0.0
 11
-34.5720338
 21
44.17790841
 31
0.0
  0
LINE
  5
104
100
AcDbEntity
  8
レイヤー_1
  6
CONTINUOUS
 62
       3
100
AcDbLine
 10
-34.5720338
 20
44.17790841
 30
0.0
 11
-34.7340729
 21
43.99319238
 31
0.0
  0
LINE
  5
105
100
AcDbEntity
  8
レイヤー_1
  6
CONTINUOUS
 62
       3
100
AcDbLine
 10
-34.7340729
 20
43.99319238
 30
0.0
 11
-34.87961507
 21
43.79467925
 31
0.0
  0
LINE
  5
106
100
AcDbEntity
  8
レイヤー_1
  6
CONTINUOUS
 62
       3
100
AcDbLine
 10
-34.87961507
 20
43.79467925
 30
0.0
 11
-35.00758502
 21
43.58344549
 31
0.0
  0
LINE
  5
107
100
AcDbEntity
  8
レイヤー_1
  6
CONTINUOUS
 62
       3
100
AcDbLine
 10
-35.00758502
 20
43.58344549
 30
0.0
 11
-35.11690743
 21
43.36056756
 31
0.0
  0
LINE
  5
108
100
AcDbEntity
  8
レイヤー_1
  6
CONTINUOUS
 62
       3
100
AcDbLine
 10
-35.11690743
 20
43.36056756
 30
0.0
 11
-35.20650701
 21
43.12712191
 31
0.0
  0
LINE
  5
109
100
AcDbEntity
  8
レイヤー_1
  6
CONTINUOUS
 62
       3
100
AcDbLine
 10
-35.20650701
 20
43.12712191
 30
0.0
 11
-35.27530845
 21
42.88418501
 31
0.0
  0
LINE
  5
10A
100
AcDbEntity
  8
レイヤー_1
  6
CONTINUOUS
 62
       3
100
AcDbLine
 10
-35.27530845
 20
42.88418501
 30
0.0
 11
-35.32223644
 21
42.63283332
 31
0.0
  0
LINE
  5
10B
100
AcDbEntity
  8
レイヤー_1
  6
CONTINUOUS
 62
       3
100
AcDbLine
 10
-35.32223644
 20
42.63283332
 30
0.0
 11
-35.34621569
 21
42.37414329
 31
0.0
  0
LINE
  5
10C
100
AcDbEntity
  8
レイヤー_1
  6
CONTINUOUS
 62
       3
100
AcDbLine
 10
-35.34621569
 20
42.37414329
 30
0.0
 11
-35.34621569
 21
42.11053623
 31
0.0
  0
LINE
  5
10D
100
AcDbEntity
  8
レイヤー_1
  6
CONTINUOUS
 62
       3
100
AcDbLine
 10
-35.34621569
 20
42.11053623
 30
0.0
 11
-35.32223644
 21
41.85168865
 31
0.0
  0
LINE
  5
10E
100
AcDbEntity
  8
レイヤー_1
  6
CONTINUOUS
 62
       3
100
AcDbLine
 10
-35.32223644
 20
41.85168865
 30
0.0
 11
-35.27530845
 21
41.60019792
 31
0.0
  0
LINE
  5
10F
100
AcDbEntity
  8
レイヤー_1
  6
CONTINUOUS
 62
       3
100
AcDbLine
 10
-35.27530845
 20
41.60019792
 30
0.0
 11
-35.20650701
 21
41.35713933
 31
0.0
  0
LINE
  5
110
100
AcDbEntity
  8
レイヤー_1
  6
CONTINUOUS
 62
       3
100
AcDbLine
 10
-35.20650701
 20
41.35713933
 30
0.0
 11
-35.11690743
 21
41.1235882
 31
0.0
  0
LINE
  5
111
100
AcDbEntity
  8
レイヤー_1
  6
CONTINUOUS
 62
       3
100
AcDbLine
 10
-35.11690743
 20
41.1235882
 30
0.0
 11
-35.00758502
 21
40.90061982
 31
0.0
  0
LINE
  5
112
100
AcDbEntity
  8
レイヤー_1
  6
CONTINUOUS
 62
       3
100
AcDbLine
 10
-35.00758502
 20
40.90061982
 30
0.0
 11
-34.87961507
 21
40.6893095
 31
0.0
  0
LINE
  5
113
100
AcDbEntity
  8
レイヤー_1
  6
CONTINUOUS
 62
       3
100
AcDbLine
 10
-34.87961507
 20
40.6893095
 30
0.0
 11
-34.7340729
 21
40.49073254
 31
0.0
  0
LINE
  5
114
100
AcDbEntity
  8
レイヤー_1
  6
CONTINUOUS
 62
       3
100
AcDbLine
 10
-34.7340729
 20
40.49073254
 30
0.0
 11
-34.5720338
 21
40.30596425
 31
0.0
  0
LINE
  5
115
100
AcDbEntity
  8
レイヤー_1
  6
CONTINUOUS
 62
       3
100
AcDbLine
 10
-34.5720338
 20
40.30596425
 30
0.0
 11
-34.39457308
 21
40.13607992
 31
0.0
  0
LINE
  5
116
100
AcDbEntity
  8
レイヤー_1
  6
CONTINUOUS
 62
       3
100
AcDbLine
 10
-34.39457308
 20
40.13607992
 30
0.0
 11
-34.20276604
 21
39.98215487
 31
0.0
  0
LINE
  5
117
100
AcDbEntity
  8
レイヤー_1
  6
CONTINUOUS
 62
       3
100
AcDbLine
 10
-34.20276604
 20
39.98215487
 30
0.0
 11
-33.99768799
 21
39.8452644
 31
0.0
  0
LINE
  5
118
100
AcDbEntity
  8
レイヤー_1
  6
CONTINUOUS
 62
       3
100
AcDbLine
 10
-33.99768799
 20
39.8452644
 30
0.0
 11
-33.78041422
 21
39.72648381
 31
0.0
  0
LINE
  5
119
100
AcDbEntity
  8
レイヤー_1
  6
CONTINUOUS
 62
       3
100
AcDbLine
 10
-33.78041422
 20
39.72648381
 30
0.0
 11
-33.55202005
 21
39.6268884
 31
0.0
  0
LINE
  5
11A
100
AcDbEntity
  8
レイヤー_1
  6
CONTINUOUS
 62
       3
100
AcDbLine
 10
-33.55202005
 20
39.6268884
 30
0.0
 11
-33.31358078
 21
39.54755348
 31
0.0
  0
LINE
  5
11B
100
AcDbEntity
  8
レイヤー_1
  6
CONTINUOUS
 62
       3
100
AcDbLine
 10
-33.31358078
 20
39.54755348
 30
0.0
 11
-33.06617171
 21
39.48955435
 31
0.0
  0
LINE
  5
11C
100
AcDbEntity
  8
レイヤー_1
  6
CONTINUOUS
 62
       3
100
AcDbLine
 10
-33.06617171
 20
39.48955435
 30
0.0
 11
-32.81086814
 21
39.45396632
 31
0.0
  0
LINE
  5
11D
100
AcDbEntity
  8
レイヤー_1
  6
CONTINUOUS
 62
       3
100
AcDbLine
 10
-32.81086814
 20
39.45396632
 30
0.0
 11
-32.54874538
 21
39.44186468
 31
0.0
  0
LINE
  5
11E
100
AcDbEntity
  8
レイヤー_1
  6
CONTINUOUS
 62
       3
100
AcDbLine
 10
-32.54874538
 20
39.44186468
 30
0.0
 11
-32.28678987
 21
39.45396632
 31
0.0
  0
LINE
  5
11F
100
AcDbEntity
  8
レイヤー_1
  6
CONTINUOUS
 62
       3
100
AcDbLine
 10
-32.28678987
 20
39.45396632
 30
0.0
 11
-32.03163445
 21
39.48955435
 31
0.0
  0
LINE
  5
120
100
AcDbEntity
  8
レイヤー_1
  6
CONTINUOUS
 62
       3
100
AcDbLine
 10
-32.03163445
 20
39.48955435
 30
0.0
 11
-31.7843556
 21
39.54755348
 31
0.0
  0
LINE
  5
121
100
AcDbEntity
  8
レイヤー_1
  6
CONTINUOUS
 62
       3
100
AcDbLine
 10
-31.7843556
 20
39.54755348
 30
0.0
 11
-31.54602977
 21
39.6268884
 31
0.0
  0
LINE
  5
122
100
AcDbEntity
  8
レイヤー_1
  6
CONTINUOUS
 62
       3
100
AcDbLine
 10
-31.54602977
 20
39.6268884
 30
0.0
 11
-31.31773342
 21
39.72648381
 31
0.0
  0
LINE
  5
123
100
AcDbEntity
  8
レイヤー_1
  6
CONTINUOUS
 62
       3
100
AcDbLine
 10
-31.31773342
 20
39.72648381
 30
0.0
 11
-31.10054301
 21
39.8452644
 31
0.0
  0
LINE
  5
124
100
AcDbEntity
  8
レイヤー_1
  6
CONTINUOUS
 62
       3
100
AcDbLine
 10
-31.10054301
 20
39.8452644
 30
0.0
 11
-30.89553501
 21
39.98215487
 31
0.0
  0
LINE
  5
125
100
AcDbEntity
  8
レイヤー_1
  6
CONTINUOUS
 62
       3
100
AcDbLine
 10
-30.89553501
 20
39.98215487
 30
0.0
 11
-30.70378587
 21
40.13607992
 31
0.0
  0
LINE
  5
126
100
AcDbEntity
  8
レイヤー_1
  6
CONTINUOUS
 62
       3
100
AcDbLine
 10
-30.70378587
 20
40.13607992
 30
0.0
 11
-30.52637206
 21
40.30596425
 31
0.0
  0
LINE
  5
127
100
AcDbEntity
  8
レイヤー_1
  6
CONTINUOUS
 62
       3
100
AcDbLine
 10
-30.52637206
 20
40.30596425
 30
0.0
 11
-30.36437003
 21
40.49073254
 31
0.0
  0
LINE
  5
128
100
AcDbEntity
  8
レイヤー_1
  6
CONTINUOUS
 62
       3
100
AcDbLine
 10
-30.36437003
 20
40.49073254
 30
0.0
 11
-30.21885625
 21
40.6893095
 31
0.0
  0
LINE
  5
129
100
AcDbEntity
  8
レイヤー_1
  6
CONTINUOUS
 62
       3
100
AcDbLine
 10
-30.21885625
 20
40.6893095
 30
0.0
 11
-30.09090718
 21
40.90061982
 31
0.0
  0
LINE
  5
12A
100
AcDbEntity
  8
レイヤー_1
  6
CONTINUOUS
 62
       3
100
AcDbLine
 10
-30.09090718
 20
40.90061982
 30
0.0
 11
-29.98159928
 21
41.1235882
 31
0.0
  0
LINE
  5
12B
100
AcDbEntity
  8
レイヤー_1
  6
CONTINUOUS
 62
       3
100
AcDbLine
 10
-29.98159928
 20
41.1235882
 30
0.0
 11
-29.89200901
 21
41.35713933
 31
0.0
  0
LINE
  5
12C
100
AcDbEntity
  8
レイヤー_1
  6
CONTINUOUS
 62
       3
100
AcDbLine
 10
-29.89200901
 20
41.35713933
 30
0.0
 11
-29.82321283
 21
41.60019792
 31
0.0
  0
LINE
  5
12D
100
AcDbEntity
  8
レイヤー_1
  6
CONTINUOUS
 62
       3
100
AcDbLine
 10
-29.82321283
 20
41.60019792
 30
0.0
 11
-29.7762872
 21
41.85168865
 31
0.0
  0
LINE
  5
12E
100
AcDbEntity
  8
レイヤー_1
  6
CONTINUOUS
 62
       3
100
AcDbLine
 10
-29.7762872
 20
41.85168865
 30
0.0
 11
-29.75230858
 21
42.11053623
 31
0.0
  0
LINE
  5
12F
100
AcDbEntity
  8
レイヤー_1
  6
CONTINUOUS
 62
       3
100
AcDbLine
 10
-29.75230858
 20
42.11053623
 30
0.0
 11
-29.75230858
 21
42.37414329
 31
0.0
  0
LINE
  5
130
100
AcDbEntity
  8
レイヤー_1
  6
CONTINUOUS
 62
       3
100
AcDbLine
 10
-29.75230858
 20
42.37414329
 30
0.0
 11
-29.7762872
 21
42.63283332
 31
0.0
  0
LINE
  5
131
100
AcDbEntity
  8
レイヤー_1
  6
CONTINUOUS
 62
       3
100
AcDbLine
 10
-29.7762872
 20
42.63283332
 30
0.0
 11
-29.82321283
 21
42.88418501
 31
0.0
  0
LINE
  5
132
100
AcDbEntity
  8
レイヤー_1
  6
CONTINUOUS
 62
       3
100
AcDbLine
 10
-29.82321283
 20
42.88418501
 30
0.0
 11
-29.89200901
 21
43.12712191
 31
0.0
  0
LINE
  5
133
100
AcDbEntity
  8
レイヤー_1
  6
CONTINUOUS
 62
       3
100
AcDbLine
 10
-29.89200901
 20
43.12712191
 30
0.0
 11
-29.98159928
 21
43.36056756
 31
0.0
  0
LINE
  5
134
100
AcDbEntity
  8
レイヤー_1
  6
CONTINUOUS
 62
       3
100
AcDbLine
 10
-29.98159928
 20
43.36056756
 30
0.0
 11
-30.09090718
 21
43.58344549
 31
0.0
  0
LINE
  5
135
100
AcDbEntity
  8
レイヤー_1
  6
CONTINUOUS
 62
       3
100
AcDbLine
 10
-30.09090718
 20
43.58344549
 30
0.0
 11
-30.21885625
 21
43.79467925
 31
0.0
  0
LINE
  5
136
100
AcDbEntity
  8
レイヤー_1
  6
CONTINUOUS
 62
       3
100
AcDbLine
 10
-30.21885625
 20
43.79467925
 30
0.0
 11
-30.36437003
 21
43.99319238
 31
0.0
  0
LINE
  5
137
100
AcDbEntity
  8
レイヤー_1
  6
CONTINUOUS
 62
       3
100
AcDbLine
 10
-30.36437003
 20
43.99319238
 30
0.0
 11
-30.52637206
 21
44.17790841
 31
0.0
  0
LINE
  5
138
100
AcDbEntity
  8
レイヤー_1
  6
CONTINUOUS
 62
       3
100
AcDbLine
 10
-30.52637206
 20
44.17790841
 30
0.0
 11
-30.70378587
 21
44.34775089
 31
0.0
  0
LINE
  5
139
100
AcDbEntity
  8
レイヤー_1
  6
CONTINUOUS
 62
       3
100
AcDbLine
 10
-30.70378587
 20
44.34775089
 30
0.0
 11
-30.89553501
 21
44.50164335
 31
0.0
  0
LINE
  5
13A
100
AcDbEntity
  8
レイヤー_1
  6
CONTINUOUS
 62
       3
100
AcDbLine
 10
-30.89553501
 20
44.50164335
 30
0.0
 11
-31.10054301
 21
44.63850933
 31
0.0
  0
LINE
  5
13B
100
AcDbEntity
  8
レイヤー_1
  6
CONTINUOUS
 62
       3
100
AcDbLine
 10
-31.10054301
 20
44.63850933
 30
0.0
 11
-31.31773342
 21
44.75727237
 31
0.0
  0
LINE
  5
13C
100
AcDbEntity
  8
レイヤー_1
  6
CONTINUOUS
 62
       3
100
AcDbLine
 10
-31.31773342
 20
44.75727237
 30
0.0
 11
-31.54602977
 21
44.85685602
 31
0.0
  0
LINE
  5
13D
100
AcDbEntity
  8
レイヤー_1
  6
CONTINUOUS
 62
       3
100
AcDbLine
 10
-31.54602977
 20
44.85685602
 30
0.0
 11
-31.7843556
 21
44.9361838
 31
0.0
  0
LINE
  5
13E
100
AcDbEntity
  8
レイヤー_1
  6
CONTINUOUS
 62
       3
100
AcDbLine
 10
-31.7843556
 20
44.9361838
 30
0.0
 11
-32.03163445
 21
44.99417927
 31
0.0
  0
LINE
  5
13F
100
AcDbEntity
  8
レイヤー_1
  6
CONTINUOUS
 62
       3
100
AcDbLine
 10
-32.03163445
 20
44.99417927
 30
0.0
 11
-32.28678987
 21
45.02976595
 31
0.0
  0
LINE
  5
140
100
AcDbEntity
  8
レイヤー_1
  6
CONTINUOUS
 62
       3
100
AcDbLine
 10
-32.28678987
 20
45.02976595
 30
0.0
 11
-32.54874538
 21
45.04186739
 31
0.0
  0
LINE
  5
141
100
AcDbEntity
  8
レイヤー_1
  6
CONTINUOUS
 62
       3
100
AcDbLine
 10
-41.04882947
 20
45.04186739
 30
0.0
 11
-41.31078499
 21
45.02976595
 31
0.0
  0
LINE
  5
142
100
AcDbEntity
  8
レイヤー_1
  6
CONTINUOUS
 62
       3
100
AcDbLine
 10
-41.31078499
 20
45.02976595
 30
0.0
 11
-41.5659404
 21
44.99417927
 31
0.0
  0
LINE
  5
143
100
AcDbEntity
  8
レイヤー_1
  6
CONTINUOUS
 62
       3
100
AcDbLine
 10
-41.5659404
 20
44.99417927
 30
0.0
 11
-41.81321925
 21
44.9361838
 31
0.0
  0
LINE
  5
144
100
AcDbEntity
  8
レイヤー_1
  6
CONTINUOUS
 62
       3
100
AcDbLine
 10
-41.81321925
 20
44.9361838
 30
0.0
 11
-42.05154509
 21
44.85685602
 31
0.0
  0
LINE
  5
145
100
AcDbEntity
  8
レイヤー_1
  6
CONTINUOUS
 62
       3
100
AcDbLine
 10
-42.05154509
 20
44.85685602
 30
0.0
 11
-42.27984144
 21
44.75727237
 31
0.0
  0
LINE
  5
146
100
AcDbEntity
  8
レイヤー_1
  6
CONTINUOUS
 62
       3
100
AcDbLine
 10
-42.27984144
 20
44.75727237
 30
0.0
 11
-42.49703184
 21
44.63850933
 31
0.0
  0
LINE
  5
147
100
AcDbEntity
  8
レイヤー_1
  6
CONTINUOUS
 62
       3
100
AcDbLine
 10
-42.49703184
 20
44.63850933
 30
0.0
 11
-42.70203984
 21
44.50164335
 31
0.0
  0
LINE
  5
148
100
AcDbEntity
  8
レイヤー_1
  6
CONTINUOUS
 62
       3
100
AcDbLine
 10
-42.70203984
 20
44.50164335
 30
0.0
 11
-42.89378898
 21
44.34775089
 31
0.0
  0
LINE
  5
149
100
AcDbEntity
  8
レイヤー_1
  6
CONTINUOUS
 62
       3
100
AcDbLine
 10
-42.89378898
 20
44.34775089
 30
0.0
 11
-43.07120279
 21
44.17790841
 31
0.0
  0
LINE
  5
14A
100
AcDbEntity
  8
レイヤー_1
  6
CONTINUOUS
 62
       3
100
AcDbLine
 10
-43.07120279
 20
44.17790841
 30
0.0
 11
-43.23320482
 21
43.99319238
 31
0.0
  0
LINE
  5
14B
100
AcDbEntity
  8
レイヤー_1
  6
CONTINUOUS
 62
       3
100
AcDbLine
 10
-43.23320482
 20
43.99319238
 30
0.0
 11
-43.3787186
 21
43.79467925
 31
0.0
  0
LINE
  5
14C
100
AcDbEntity
  8
レイヤー_1
  6
CONTINUOUS
 62
       3
100
AcDbLine
 10
-43.3787186
 20
43.79467925
 30
0.0
 11
-43.50666767
 21
43.58344549
 31
0.0
  0
LINE
  5
14D
100
AcDbEntity
  8
レイヤー_1
  6
CONTINUOUS
 62
       3
100
AcDbLine
 10
-43.50666767
 20
43.58344549
 30
0.0
 11
-43.61597557
 21
43.36056756
 31
0.0
  0
LINE
  5
14E
100
AcDbEntity
  8
レイヤー_1
  6
CONTINUOUS
 62
       3
100
AcDbLine
 10
-43.61597557
 20
43.36056756
 30
0.0
 11
-43.70556584
 21
43.12712191
 31
0.0
  0
LINE
  5
14F
100
AcDbEntity
  8
レイヤー_1
  6
CONTINUOUS
 62
       3
100
AcDbLine
 10
-43.70556584
 20
43.12712191
 30
0.0
 11
-43.77436202
 21
42.88418501
 31
0.0
  0
LINE
  5
150
100
AcDbEntity
  8
レイヤー_1
  6
CONTINUOUS
 62
       3
100
AcDbLine
 10
-43.77436202
 20
42.88418501
 30
0.0
 11
-43.82128766
 21
42.63283332
 31
0.0
  0
LINE
  5
151
100
AcDbEntity
  8
レイヤー_1
  6
CONTINUOUS
 62
       3
100
AcDbLine
 10
-43.82128766
 20
42.63283332
 30
0.0
 11
-43.84526628
 21
42.37414329
 31
0.0
  0
LINE
  5
152
100
AcDbEntity
  8
レイヤー_1
  6
CONTINUOUS
 62
       3
100
AcDbLine
 10
-43.84526628
 20
42.37414329
 30
0.0
 11
-43.84526628
 21
42.11053623
 31
0.0
  0
LINE
  5
153
100
AcDbEntity
  8
レイヤー_1
  6
CONTINUOUS
 62
       3
100
AcDbLine
 10
-43.84526628
 20
42.11053623
 30
0.0
 11
-43.82128766
 21
41.85168865
 31
0.0
  0
LINE
  5
154
100
AcDbEntity
  8
レイヤー_1
  6
CONTINUOUS
 62
       3
100
AcDbLine
 10
-43.82128766
 20
41.85168865
 30
0.0
 11
-43.77436202
 21
41.60019792
 31
0.0
  0
LINE
  5
155
100
AcDbEntity
  8
レイヤー_1
  6
CONTINUOUS
 62
       3
100
AcDbLine
 10
-43.77436202
 20
41.60019792
 30
0.0
 11
-43.70556584
 21
41.35713933
 31
0.0
  0
LINE
  5
156
100
AcDbEntity
  8
レイヤー_1
  6
CONTINUOUS
 62
       3
100
AcDbLine
 10
-43.70556584
 20
41.35713933
 30
0.0
 11
-43.61597557
 21
41.1235882
 31
0.0
  0
LINE
  5
157
100
AcDbEntity
  8
レイヤー_1
  6
CONTINUOUS
 62
       3
100
AcDbLine
 10
-43.61597557
 20
41.1235882
 30
0.0
 11
-43.50666767
 21
40.90061982
 31
0.0
  0
LINE
  5
158
100
AcDbEntity
  8
レイヤー_1
  6
CONTINUOUS
 62
       3
100
AcDbLine
 10
-43.50666767
 20
40.90061982
 30
0.0
 11
-43.3787186
 21
40.6893095
 31
0.0
  0
LINE
  5
159
100
AcDbEntity
  8
レイヤー_1
  6
CONTINUOUS
 62
       3
100
AcDbLine
 10
-43.3787186
 20
40.6893095
 30
0.0
 11
-43.23320482
 21
40.49073254
 31
0.0
  0
LINE
  5
15A
100
AcDbEntity
  8
レイヤー_1
  6
CONTINUOUS
 62
       3
100
AcDbLine
 10
-43.23320482
 20
40.49073254
 30
0.0
 11
-43.07120279
 21
40.30596425
 31
0.0
  0
LINE
  5
15B
100
AcDbEntity
  8
レイヤー_1
  6
CONTINUOUS
 62
       3
100
AcDbLine
 10
-43.07120279
 20
40.30596425
 30
0.0
 11
-42.89378898
 21
40.13607992
 31
0.0
  0
LINE
  5
15C
100
AcDbEntity
  8
レイヤー_1
  6
CONTINUOUS
 62
       3
100
AcDbLine
 10
-42.89378898
 20
40.13607992
 30
0.0
 11
-42.70203984
 21
39.98215487
 31
0.0
  0
LINE
  5
15D
100
AcDbEntity
  8
レイヤー_1
  6
CONTINUOUS
 62
       3
100
AcDbLine
 10
-42.70203984
 20
39.98215487
 30
0.0
 11
-42.49703184
 21
39.8452644
 31
0.0
  0
LINE
  5
15E
100
AcDbEntity
  8
レイヤー_1
  6
CONTINUOUS
 62
       3
100
AcDbLine
 10
-42.49703184
 20
39.8452644
 30
0.0
 11
-42.27984144
 21
39.72648381
 31
0.0
  0
LINE
  5
15F
100
AcDbEntity
  8
レイヤー_1
  6
CONTINUOUS
 62
       3
100
AcDbLine
 10
-42.27984144
 20
39.72648381
 30
0.0
 11
-42.05154509
 21
39.6268884
 31
0.0
  0
LINE
  5
160
100
AcDbEntity
  8
レイヤー_1
  6
CONTINUOUS
 62
       3
100
AcDbLine
 10
-42.05154509
 20
39.6268884
 30
0.0
 11
-41.81321925
 21
39.54755348
 31
0.0
  0
LINE
  5
161
100
AcDbEntity
  8
レイヤー_1
  6
CONTINUOUS
 62
       3
100
AcDbLine
 10
-41.81321925
 20
39.54755348
 30
0.0
 11
-41.5659404
 21
39.48955435
 31
0.0
  0
LINE
  5
162
100
AcDbEntity
  8
レイヤー_1
  6
CONTINUOUS
 62
       3
100
AcDbLine
 10
-41.5659404
 20
39.48955435
 30
0.0
 11
-41.31078499
 21
39.45396632
 31
0.0
  0
LINE
  5
163
100
AcDbEntity
  8
レイヤー_1
  6
CONTINUOUS
 62
       3
100
AcDbLine
 10
-41.31078499
 20
39.45396632
 30
0.0
 11
-41.04882947
 21
39.44186468
 31
0.0
  0
LINE
  5
164
100
AcDbEntity
  8
レイヤー_1
  6
CONTINUOUS
 62
       3
100
AcDbLine
 10
-41.04882947
 20
39.44186468
 30
0.0
 11
-40.78687071
 21
39.45396632
 31
0.0
  0
LINE
  5
165
100
AcDbEntity
  8
レイヤー_1
  6
CONTINUOUS
 62
       3
100
AcDbLine
 10
-40.78687071
 20
39.45396632
 30
0.0
 11
-40.53170607
 21
39.48955435
 31
0.0
  0
LINE
  5
166
100
AcDbEntity
  8
レイヤー_1
  6
CONTINUOUS
 62
       3
100
AcDbLine
 10
-40.53170607
 20
39.48955435
 30
0.0
 11
-40.28441279
 21
39.54755348
 31
0.0
  0
LINE
  5
167
100
AcDbEntity
  8
レイヤー_1
  6
CONTINUOUS
 62
       3
100
AcDbLine
 10
-40.28441279
 20
39.54755348
 30
0.0
 11
-40.04606809
 21
39.6268884
 31
0.0
  0
LINE
  5
168
100
AcDbEntity
  8
レイヤー_1
  6
CONTINUOUS
 62
       3
100
AcDbLine
 10
-40.04606809
 20
39.6268884
 30
0.0
 11
-39.81774921
 21
39.72648381
 31
0.0
  0
LINE
  5
169
100
AcDbEntity
  8
レイヤー_1
  6
CONTINUOUS
 62
       3
100
AcDbLine
 10
-39.81774921
 20
39.72648381
 30
0.0
 11
-39.60053338
 21
39.8452644
 31
0.0
  0
LINE
  5
16A
100
AcDbEntity
  8
レイヤー_1
  6
CONTINUOUS
 62
       3
100
AcDbLine
 10
-39.60053338
 20
39.8452644
 30
0.0
 11
-39.39549783
 21
39.98215487
 31
0.0
  0
LINE
  5
16B
100
AcDbEntity
  8
レイヤー_1
  6
CONTINUOUS
 62
       3
100
AcDbLine
 10
-39.39549783
 20
39.98215487
 30
0.0
 11
-39.2037198
 21
40.13607992
 31
0.0
  0
LINE
  5
16C
100
AcDbEntity
  8
レイヤー_1
  6
CONTINUOUS
 62
       3
100
AcDbLine
 10
-39.2037198
 20
40.13607992
 30
0.0
 11
-39.02627651
 21
40.30596425
 31
0.0
  0
LINE
  5
16D
100
AcDbEntity
  8
レイヤー_1
  6
CONTINUOUS
 62
       3
100
AcDbLine
 10
-39.02627651
 20
40.30596425
 30
0.0
 11
-38.86424521
 21
40.49073254
 31
0.0
  0
LINE
  5
16E
100
AcDbEntity
  8
レイヤー_1
  6
CONTINUOUS
 62
       3
100
AcDbLine
 10
-38.86424521
 20
40.49073254
 30
0.0
 11
-38.71870311
 21
40.6893095
 31
0.0
  0
LINE
  5
16F
100
AcDbEntity
  8
レイヤー_1
  6
CONTINUOUS
 62
       3
100
AcDbLine
 10
-38.71870311
 20
40.6893095
 30
0.0
 11
-38.59072746
 21
40.90061982
 31
0.0
  0
LINE
  5
170
100
AcDbEntity
  8
レイヤー_1
  6
CONTINUOUS
 62
       3
100
AcDbLine
 10
-38.59072746
 20
40.90061982
 30
0.0
 11
-38.48139549
 21
41.1235882
 31
0.0
  0
LINE
  5
171
100
AcDbEntity
  8
レイヤー_1
  6
CONTINUOUS
 62
       3
100
AcDbLine
 10
-38.48139549
 20
41.1235882
 30
0.0
 11
-38.39178442
 21
41.35713933
 31
0.0
  0
LINE
  5
172
100
AcDbEntity
  8
レイヤー_1
  6
CONTINUOUS
 62
       3
100
AcDbLine
 10
-38.39178442
 20
41.35713933
 30
0.0
 11
-38.32297149
 21
41.60019792
 31
0.0
  0
LINE
  5
173
100
AcDbEntity
  8
レイヤー_1
  6
CONTINUOUS
 62
       3
100
AcDbLine
 10
-38.32297149
 20
41.60019792
 30
0.0
 11
-38.27603394
 21
41.85168865
 31
0.0
  0
LINE
  5
174
100
AcDbEntity
  8
レイヤー_1
  6
CONTINUOUS
 62
       3
100
AcDbLine
 10
-38.27603394
 20
41.85168865
 30
0.0
 11
-38.25204898
 21
42.11053623
 31
0.0
  0
LINE
  5
175
100
AcDbEntity
  8
レイヤー_1
  6
CONTINUOUS
 62
       3
100
AcDbLine
 10
-38.25204898
 20
42.11053623
 30
0.0
 11
-38.25204898
 21
42.37414329
 31
0.0
  0
LINE
  5
176
100
AcDbEntity
  8
レイヤー_1
  6
CONTINUOUS
 62
       3
100
AcDbLine
 10
-38.25204898
 20
42.37414329
 30
0.0
 11
-38.27603394
 21
42.63283332
 31
0.0
  0
LINE
  5
177
100
AcDbEntity
  8
レイヤー_1
  6
CONTINUOUS
 62
       3
100
AcDbLine
 10
-38.27603394
 20
42.63283332
 30
0.0
 11
-38.32297149
 21
42.88418501
 31
0.0
  0
LINE
  5
178
100
AcDbEntity
  8
レイヤー_1
  6
CONTINUOUS
 62
       3
100
AcDbLine
 10
-38.32297149
 20
42.88418501
 30
0.0
 11
-38.39178442
 21
43.12712191
 31
0.0
  0
LINE
  5
179
100
AcDbEntity
  8
レイヤー_1
  6
CONTINUOUS
 62
       3
100
AcDbLine
 10
-38.39178442
 20
43.12712191
 30
0.0
 11
-38.48139549
 21
43.36056756
 31
0.0
  0
LINE
  5
17A
100
AcDbEntity
  8
レイヤー_1
  6
CONTINUOUS
 62
       3
100
AcDbLine
 10
-38.48139549
 20
43.36056756
 30
0.0
 11
-38.59072746
 21
43.58344549
 31
0.0
  0
LINE
  5
17B
100
AcDbEntity
  8
レイヤー_1
  6
CONTINUOUS
 62
       3
100
AcDbLine
 10
-38.59072746
 20
43.58344549
 30
0.0
 11
-38.71870311
 21
43.79467925
 31
0.0
  0
LINE
  5
17C
100
AcDbEntity
  8
レイヤー_1
  6
CONTINUOUS
 62
       3
100
AcDbLine
 10
-38.71870311
 20
43.79467925
 30
0.0
 11
-38.86424521
 21
43.99319238
 31
0.0
  0
LINE
  5
17D
100
AcDbEntity
  8
レイヤー_1
  6
CONTINUOUS
 62
       3
100
AcDbLine
 10
-38.86424521
 20
43.99319238
 30
0.0
 11
-39.02627651
 21
44.17790841
 31
0.0
  0
LINE
  5
17E
100
AcDbEntity
  8
レイヤー_1
  6
CONTINUOUS
 62
       3
100
AcDbLine
 10
-39.02627651
 20
44.17790841
 30
0.0
 11
-39.2037198
 21
44.34775089
 31
0.0
  0
LINE
  5
17F
100
AcDbEntity
  8
レイヤー_1
  6
CONTINUOUS
 62
       3
100
AcDbLine
 10
-39.2037198
 20
44.34775089
 30
0.0
 11
-39.39549783
 21
44.50164335
 31
0.0
  0
LINE
  5
180
100
AcDbEntity
  8
レイヤー_1
  6
CONTINUOUS
 62
       3
100
AcDbLine
 10
-39.39549783
 20
44.50164335
 30
0.0
 11
-39.60053338
 21
44.63850933
 31
0.0
  0
LINE
  5
181
100
AcDbEntity
  8
レイヤー_1
  6
CONTINUOUS
 62
       3
100
AcDbLine
 10
-39.60053338
 20
44.63850933
 30
0.0
 11
-39.81774921
 21
44.75727237
 31
0.0
  0
LINE
  5
182
100
AcDbEntity
  8
レイヤー_1
  6
CONTINUOUS
 62
       3
100
AcDbLine
 10
-39.81774921
 20
44.75727237
 30
0.0
 11
-40.04606809
 21
44.85685602
 31
0.0
  0
LINE
  5
183
100
AcDbEntity
  8
レイヤー_1
  6
CONTINUOUS
 62
       3
100
AcDbLine
 10
-40.04606809
 20
44.85685602
 30
0.0
 11
-40.28441279
 21
44.9361838
 31
0.0
  0
LINE
  5
184
100
AcDbEntity
  8
レイヤー_1
  6
CONTINUOUS
 62
       3
100
AcDbLine
 10
-40.28441279
 20
44.9361838
 30
0.0
 11
-40.53170607
 21
44.99417927
 31
0.0
  0
LINE
  5
185
100
AcDbEntity
  8
レイヤー_1
  6
CONTINUOUS
 62
       3
100
AcDbLine
 10
-40.53170607
 20
44.99417927
 30
0.0
 11
-40.78687071
 21
45.02976595
 31
0.0
  0
LINE
  5
186
100
AcDbEntity
  8
レイヤー_1
  6
CONTINUOUS
 62
       3
100
AcDbLine
 10
-40.78687071
 20
45.02976595
 30
0.0
 11
-41.04882947
 21
45.04186739
 31
0.0
  0
LINE
  5
187
100
AcDbEntity
  8
レイヤー_1
  6
CONTINUOUS
 62
       3
100
AcDbLine
 10
-49.54856905
 20
45.04186739
 30
0.0
 11
-49.81062957
 21
45.02976595
 31
0.0
  0
LINE
  5
188
100
AcDbEntity
  8
レイヤー_1
  6
CONTINUOUS
 62
       3
100
AcDbLine
 10
-49.81062957
 20
45.02976595
 30
0.0
 11
-50.06586531
 21
44.99417927
 31
0.0
  0
LINE
  5
189
100
AcDbEntity
  8
レイヤー_1
  6
CONTINUOUS
 62
       3
100
AcDbLine
 10
-50.06586531
 20
44.99417927
 30
0.0
 11
-50.31320211
 21
44.9361838
 31
0.0
  0
LINE
  5
18A
100
AcDbEntity
  8
レイヤー_1
  6
CONTINUOUS
 62
       3
100
AcDbLine
 10
-50.31320211
 20
44.9361838
 30
0.0
 11
-50.55156584
 21
44.85685602
 31
0.0
  0
LINE
  5
18B
100
AcDbEntity
  8
レイヤー_1
  6
CONTINUOUS
 62
       3
100
AcDbLine
 10
-50.55156584
 20
44.85685602
 30
0.0
 11
-50.77988234
 21
44.75727237
 31
0.0
  0
LINE
  5
18C
100
AcDbEntity
  8
レイヤー_1
  6
CONTINUOUS
 62
       3
100
AcDbLine
 10
-50.77988234
 20
44.75727237
 30
0.0
 11
-50.99707747
 21
44.63850933
 31
0.0
  0
LINE
  5
18D
100
AcDbEntity
  8
レイヤー_1
  6
CONTINUOUS
 62
       3
100
AcDbLine
 10
-50.99707747
 20
44.63850933
 30
0.0
 11
-51.20207708
 21
44.50164335
 31
0.0
  0
LINE
  5
18E
100
AcDbEntity
  8
レイヤー_1
  6
CONTINUOUS
 62
       3
100
AcDbLine
 10
-51.20207708
 20
44.50164335
 30
0.0
 11
-51.39380703
 21
44.34775089
 31
0.0
  0
LINE
  5
18F
100
AcDbEntity
  8
レイヤー_1
  6
CONTINUOUS
 62
       3
100
AcDbLine
 10
-51.39380703
 20
44.34775089
 30
0.0
 11
-51.57119317
 21
44.17790841
 31
0.0
  0
LINE
  5
190
100
AcDbEntity
  8
レイヤー_1
  6
CONTINUOUS
 62
       3
100
AcDbLine
 10
-51.57119317
 20
44.17790841
 30
0.0
 11
-51.73316135
 21
43.99319238
 31
0.0
  0
LINE
  5
191
100
AcDbEntity
  8
レイヤー_1
  6
CONTINUOUS
 62
       3
100
AcDbLine
 10
-51.73316135
 20
43.99319238
 30
0.0
 11
-51.87863743
 21
43.79467925
 31
0.0
  0
LINE
  5
192
100
AcDbEntity
  8
レイヤー_1
  6
CONTINUOUS
 62
       3
100
AcDbLine
 10
-51.87863743
 20
43.79467925
 30
0.0
 11
-52.00654725
 21
43.58344549
 31
0.0
  0
LINE
  5
193
100
AcDbEntity
  8
レイヤー_1
  6
CONTINUOUS
 62
       3
100
AcDbLine
 10
-52.00654725
 20
43.58344549
 30
0.0
 11
-52.11581668
 21
43.36056756
 31
0.0
  0
LINE
  5
194
100
AcDbEntity
  8
レイヤー_1
  6
CONTINUOUS
 62
       3
100
AcDbLine
 10
-52.11581668
 20
43.36056756
 30
0.0
 11
-52.20537157
 21
43.12712191
 31
0.0
  0
LINE
  5
195
100
AcDbEntity
  8
レイヤー_1
  6
CONTINUOUS
 62
       3
100
AcDbLine
 10
-52.20537157
 20
43.12712191
 30
0.0
 11
-52.27413776
 21
42.88418501
 31
0.0
  0
LINE
  5
196
100
AcDbEntity
  8
レイヤー_1
  6
CONTINUOUS
 62
       3
100
AcDbLine
 10
-52.27413776
 20
42.88418501
 30
0.0
 11
-52.32104112
 21
42.63283332
 31
0.0
  0
LINE
  5
197
100
AcDbEntity
  8
レイヤー_1
  6
CONTINUOUS
 62
       3
100
AcDbLine
 10
-52.32104112
 20
42.63283332
 30
0.0
 11
-52.3450075
 21
42.37414329
 31
0.0
  0
LINE
  5
198
100
AcDbEntity
  8
レイヤー_1
  6
CONTINUOUS
 62
       3
100
AcDbLine
 10
-52.3450075
 20
42.37414329
 30
0.0
 11
-52.3450075
 21
42.11053623
 31
0.0
  0
LINE
  5
199
100
AcDbEntity
  8
レイヤー_1
  6
CONTINUOUS
 62
       3
100
AcDbLine
 10
-52.3450075
 20
42.11053623
 30
0.0
 11
-52.32104112
 21
41.85168865
 31
0.0
  0
LINE
  5
19A
100
AcDbEntity
  8
レイヤー_1
  6
CONTINUOUS
 62
       3
100
AcDbLine
 10
-52.32104112
 20
41.85168865
 30
0.0
 11
-52.27413776
 21
41.60019792
 31
0.0
  0
LINE
  5
19B
100
AcDbEntity
  8
レイヤー_1
  6
CONTINUOUS
 62
       3
100
AcDbLine
 10
-52.27413776
 20
41.60019792
 30
0.0
 11
-52.20537157
 21
41.35713933
 31
0.0
  0
LINE
  5
19C
100
AcDbEntity
  8
レイヤー_1
  6
CONTINUOUS
 62
       3
100
AcDbLine
 10
-52.20537157
 20
41.35713933
 30
0.0
 11
-52.11581668
 21
41.1235882
 31
0.0
  0
LINE
  5
19D
100
AcDbEntity
  8
レイヤー_1
  6
CONTINUOUS
 62
       3
100
AcDbLine
 10
-52.11581668
 20
41.1235882
 30
0.0
 11
-52.00654725
 21
40.90061982
 31
0.0
  0
LINE
  5
19E
100
AcDbEntity
  8
レイヤー_1
  6
CONTINUOUS
 62
       3
100
AcDbLine
 10
-52.00654725
 20
40.90061982
 30
0.0
 11
-51.87863743
 21
40.6893095
 31
0.0
  0
LINE
  5
19F
100
AcDbEntity
  8
レイヤー_1
  6
CONTINUOUS
 62
       3
100
AcDbLine
 10
-51.87863743
 20
40.6893095
 30
0.0
 11
-51.73316135
 21
40.49073254
 31
0.0
  0
LINE
  5
1A0
100
AcDbEntity
  8
レイヤー_1
  6
CONTINUOUS
 62
       3
100
AcDbLine
 10
-51.73316135
 20
40.49073254
 30
0.0
 11
-51.57119317
 21
40.30596425
 31
0.0
  0
LINE
  5
1A1
100
AcDbEntity
  8
レイヤー_1
  6
CONTINUOUS
 62
       3
100
AcDbLine
 10
-51.57119317
 20
40.30596425
 30
0.0
 11
-51.39380703
 21
40.13607992
 31
0.0
  0
LINE
  5
1A2
100
AcDbEntity
  8
レイヤー_1
  6
CONTINUOUS
 62
       3
100
AcDbLine
 10
-51.39380703
 20
40.13607992
 30
0.0
 11
-51.20207708
 21
39.98215487
 31
0.0
  0
LINE
  5
1A3
100
AcDbEntity
  8
レイヤー_1
  6
CONTINUOUS
 62
       3
100
AcDbLine
 10
-51.20207708
 20
39.98215487
 30
0.0
 11
-50.99707747
 21
39.8452644
 31
0.0
  0
LINE
  5
1A4
100
AcDbEntity
  8
レイヤー_1
  6
CONTINUOUS
 62
       3
100
AcDbLine
 10
-50.99707747
 20
39.8452644
 30
0.0
 11
-50.77988234
 21
39.72648381
 31
0.0
  0
LINE
  5
1A5
100
AcDbEntity
  8
レイヤー_1
  6
CONTINUOUS
 62
       3
100
AcDbLine
 10
-50.77988234
 20
39.72648381
 30
0.0
 11
-50.55156584
 21
39.6268884
 31
0.0
  0
LINE
  5
1A6
100
AcDbEntity
  8
レイヤー_1
  6
CONTINUOUS
 62
       3
100
AcDbLine
 10
-50.55156584
 20
39.6268884
 30
0.0
 11
-50.31320211
 21
39.54755348
 31
0.0
  0
LINE
  5
1A7
100
AcDbEntity
  8
レイヤー_1
  6
CONTINUOUS
 62
       3
100
AcDbLine
 10
-50.31320211
 20
39.54755348
 30
0.0
 11
-50.06586531
 21
39.48955435
 31
0.0
  0
LINE
  5
1A8
100
AcDbEntity
  8
レイヤー_1
  6
CONTINUOUS
 62
       3
100
AcDbLine
 10
-50.06586531
 20
39.48955435
 30
0.0
 11
-49.81062957
 21
39.45396632
 31
0.0
  0
LINE
  5
1A9
100
AcDbEntity
  8
レイヤー_1
  6
CONTINUOUS
 62
       3
100
AcDbLine
 10
-49.81062957
 20
39.45396632
 30
0.0
 11
-49.54856905
 21
39.44186468
 31
0.0
  0
LINE
  5
1AA
100
AcDbEntity
  8
レイヤー_1
  6
CONTINUOUS
 62
       3
100
AcDbLine
 10
-49.54856905
 20
39.44186468
 30
0.0
 11
-49.28649879
 21
39.45396632
 31
0.0
  0
LINE
  5
1AB
100
AcDbEntity
  8
レイヤー_1
  6
CONTINUOUS
 62
       3
100
AcDbLine
 10
-49.28649879
 20
39.45396632
 30
0.0
 11
-49.03123539
 21
39.48955435
 31
0.0
  0
LINE
  5
1AC
100
AcDbEntity
  8
レイヤー_1
  6
CONTINUOUS
 62
       3
100
AcDbLine
 10
-49.03123539
 20
39.48955435
 30
0.0
 11
-48.78385529
 21
39.54755348
 31
0.0
  0
LINE
  5
1AD
100
AcDbEntity
  8
レイヤー_1
  6
CONTINUOUS
 62
       3
100
AcDbLine
 10
-48.78385529
 20
39.54755348
 30
0.0
 11
-48.54543496
 21
39.6268884
 31
0.0
  0
LINE
  5
1AE
100
AcDbEntity
  8
レイヤー_1
  6
CONTINUOUS
 62
       3
100
AcDbLine
 10
-48.54543496
 20
39.6268884
 30
0.0
 11
-48.31705087
 21
39.72648381
 31
0.0
  0
LINE
  5
1AF
100
AcDbEntity
  8
レイヤー_1
  6
CONTINUOUS
 62
       3
100
AcDbLine
 10
-48.31705087
 20
39.72648381
 30
0.0
 11
-48.09977947
 21
39.8452644
 31
0.0
  0
LINE
  5
1B0
100
AcDbEntity
  8
レイヤー_1
  6
CONTINUOUS
 62
       3
100
AcDbLine
 10
-48.09977947
 20
39.8452644
 30
0.0
 11
-47.89469722
 21
39.98215487
 31
0.0
  0
LINE
  5
1B1
100
AcDbEntity
  8
レイヤー_1
  6
CONTINUOUS
 62
       3
100
AcDbLine
 10
-47.89469722
 20
39.98215487
 30
0.0
 11
-47.70288059
 21
40.13607992
 31
0.0
  0
LINE
  5
1B2
100
AcDbEntity
  8
レイヤー_1
  6
CONTINUOUS
 62
       3
100
AcDbLine
 10
-47.70288059
 20
40.13607992
 30
0.0
 11
-47.52540603
 21
40.30596425
 31
0.0
  0
LINE
  5
1B3
100
AcDbEntity
  8
レイヤー_1
  6
CONTINUOUS
 62
       3
100
AcDbLine
 10
-47.52540603
 20
40.30596425
 30
0.0
 11
-47.36335001
 21
40.49073254
 31
0.0
  0
LINE
  5
1B4
100
AcDbEntity
  8
レイヤー_1
  6
CONTINUOUS
 62
       3
100
AcDbLine
 10
-47.36335001
 20
40.49073254
 30
0.0
 11
-47.21778898
 21
40.6893095
 31
0.0
  0
LINE
  5
1B5
100
AcDbEntity
  8
レイヤー_1
  6
CONTINUOUS
 62
       3
100
AcDbLine
 10
-47.21778898
 20
40.6893095
 30
0.0
 11
-47.08979941
 21
40.90061982
 31
0.0
  0
LINE
  5
1B6
100
AcDbEntity
  8
レイヤー_1
  6
CONTINUOUS
 62
       3
100
AcDbLine
 10
-47.08979941
 20
40.90061982
 30
0.0
 11
-46.98045776
 21
41.1235882
 31
0.0
  0
LINE
  5
1B7
100
AcDbEntity
  8
レイヤー_1
  6
CONTINUOUS
 62
       3
100
AcDbLine
 10
-46.98045776
 20
41.1235882
 30
0.0
 11
-46.89084049
 21
41.35713933
 31
0.0
  0
LINE
  5
1B8
100
AcDbEntity
  8
レイヤー_1
  6
CONTINUOUS
 62
       3
100
AcDbLine
 10
-46.89084049
 20
41.35713933
 30
0.0
 11
-46.82202406
 21
41.60019792
 31
0.0
  0
LINE
  5
1B9
100
AcDbEntity
  8
レイヤー_1
  6
CONTINUOUS
 62
       3
100
AcDbLine
 10
-46.82202406
 20
41.60019792
 30
0.0
 11
-46.77508493
 21
41.85168865
 31
0.0
  0
LINE
  5
1BA
100
AcDbEntity
  8
レイヤー_1
  6
CONTINUOUS
 62
       3
100
AcDbLine
 10
-46.77508493
 20
41.85168865
 30
0.0
 11
-46.75109956
 21
42.11053623
 31
0.0
  0
LINE
  5
1BB
100
AcDbEntity
  8
レイヤー_1
  6
CONTINUOUS
 62
       3
100
AcDbLine
 10
-46.75109956
 20
42.11053623
 30
0.0
 11
-46.75109956
 21
42.37414329
 31
0.0
  0
LINE
  5
1BC
100
AcDbEntity
  8
レイヤー_1
  6
CONTINUOUS
 62
       3
100
AcDbLine
 10
-46.75109956
 20
42.37414329
 30
0.0
 11
-46.77508493
 21
42.63283332
 31
0.0
  0
LINE
  5
1BD
100
AcDbEntity
  8
レイヤー_1
  6
CONTINUOUS
 62
       3
100
AcDbLine
 10
-46.77508493
 20
42.63283332
 30
0.0
 11
-46.82202406
 21
42.88418501
 31
0.0
  0
LINE
  5
1BE
100
AcDbEntity
  8
レイヤー_1
  6
CONTINUOUS
 62
       3
100
AcDbLine
 10
-46.82202406
 20
42.88418501
 30
0.0
 11
-46.89084049
 21
43.12712191
 31
0.0
  0
LINE
  5
1BF
100
AcDbEntity
  8
レイヤー_1
  6
CONTINUOUS
 62
       3
100
AcDbLine
 10
-46.89084049
 20
43.12712191
 30
0.0
 11
-46.98045776
 21
43.36056756
 31
0.0
  0
LINE
  5
1C0
100
AcDbEntity
  8
レイヤー_1
  6
CONTINUOUS
 62
       3
100
AcDbLine
 10
-46.98045776
 20
43.36056756
 30
0.0
 11
-47.08979941
 21
43.58344549
 31
0.0
  0
LINE
  5
1C1
100
AcDbEntity
  8
レイヤー_1
  6
CONTINUOUS
 62
       3
100
AcDbLine
 10
-47.08979941
 20
43.58344549
 30
0.0
 11
-47.21778898
 21
43.79467925
 31
0.0
  0
LINE
  5
1C2
100
AcDbEntity
  8
レイヤー_1
  6
CONTINUOUS
 62
       3
100
AcDbLine
 10
-47.21778898
 20
43.79467925
 30
0.0
 11
-47.36335001
 21
43.99319238
 31
0.0
  0
LINE
  5
1C3
100
AcDbEntity
  8
レイヤー_1
  6
CONTINUOUS
 62
       3
100
AcDbLine
 10
-47.36335001
 20
43.99319238
 30
0.0
 11
-47.52540603
 21
44.17790841
 31
0.0
  0
LINE
  5
1C4
100
AcDbEntity
  8
レイヤー_1
  6
CONTINUOUS
 62
       3
100
AcDbLine
 10
-47.52540603
 20
44.17790841
 30
0.0
 11
-47.70288059
 21
44.34775089
 31
0.0
  0
LINE
  5
1C5
100
AcDbEntity
  8
レイヤー_1
  6
CONTINUOUS
 62
       3
100
AcDbLine
 10
-47.70288059
 20
44.34775089
 30
0.0
 11
-47.89469722
 21
44.50164335
 31
0.0
  0
LINE
  5
1C6
100
AcDbEntity
  8
レイヤー_1
  6
CONTINUOUS
 62
       3
100
AcDbLine
 10
-47.89469722
 20
44.50164335
 30
0.0
 11
-48.09977947
 21
44.63850933
 31
0.0
  0
LINE
  5
1C7
100
AcDbEntity
  8
レイヤー_1
  6
CONTINUOUS
 62
       3
100
AcDbLine
 10
-48.09977947
 20
44.63850933
 30
0.0
 11
-48.31705087
 21
44.75727237
 31
0.0
  0
LINE
  5
1C8
100
AcDbEntity
  8
レイヤー_1
  6
CONTINUOUS
 62
       3
100
AcDbLine
 10
-48.31705087
 20
44.75727237
 30
0.0
 11
-48.54543496
 21
44.85685602
 31
0.0
  0
LINE
  5
1C9
100
AcDbEntity
  8
レイヤー_1
  6
CONTINUOUS
 62
       3
100
AcDbLine
 10
-48.54543496
 20
44.85685602
 30
0.0
 11
-48.78385529
 21
44.9361838
 31
0.0
  0
LINE
  5
1CA
100
AcDbEntity
  8
レイヤー_1
  6
CONTINUOUS
 62
       3
100
AcDbLine
 10
-48.78385529
 20
44.9361838
 30
0.0
 11
-49.03123539
 21
44.99417927
 31
0.0
  0
LINE
  5
1CB
100
AcDbEntity
  8
レイヤー_1
  6
CONTINUOUS
 62
       3
100
AcDbLine
 10
-49.03123539
 20
44.99417927
 30
0.0
 11
-49.28649879
 21
45.02976595
 31
0.0
  0
LINE
  5
1CC
100
AcDbEntity
  8
レイヤー_1
  6
CONTINUOUS
 62
       3
100
AcDbLine
 10
-49.28649879
 20
45.02976595
 30
0.0
 11
-49.54856905
 21
45.04186739
 31
0.0
  0
LINE
  5
1CD
100
AcDbEntity
  8
レイヤー_1
  6
CONTINUOUS
 62
       3
100
AcDbLine
 10
-58.04761961
 20
45.04186739
 30
0.0
 11
-58.30957838
 21
45.02976595
 31
0.0
  0
LINE
  5
1CE
100
AcDbEntity
  8
レイヤー_1
  6
CONTINUOUS
 62
       3
100
AcDbLine
 10
-58.30957838
 20
45.02976595
 30
0.0
 11
-58.56474301
 21
44.99417927
 31
0.0
  0
LINE
  5
1CF
100
AcDbEntity
  8
レイヤー_1
  6
CONTINUOUS
 62
       3
100
AcDbLine
 10
-58.56474301
 20
44.99417927
 30
0.0
 11
-58.8120363
 21
44.9361838
 31
0.0
  0
LINE
  5
1D0
100
AcDbEntity
  8
レイヤー_1
  6
CONTINUOUS
 62
       3
100
AcDbLine
 10
-58.8120363
 20
44.9361838
 30
0.0
 11
-59.050381
 21
44.85685602
 31
0.0
  0
LINE
  5
1D1
100
AcDbEntity
  8
レイヤー_1
  6
CONTINUOUS
 62
       3
100
AcDbLine
 10
-59.050381
 20
44.85685602
 30
0.0
 11
-59.27869988
 21
44.75727237
 31
0.0
  0
LINE
  5
1D2
100
AcDbEntity
  8
レイヤー_1
  6
CONTINUOUS
 62
       3
100
AcDbLine
 10
-59.27869988
 20
44.75727237
 30
0.0
 11
-59.49591571
 21
44.63850933
 31
0.0
  0
LINE
  5
1D3
100
AcDbEntity
  8
レイヤー_1
  6
CONTINUOUS
 62
       3
100
AcDbLine
 10
-59.49591571
 20
44.63850933
 30
0.0
 11
-59.70095125
 21
44.50164335
 31
0.0
  0
LINE
  5
1D4
100
AcDbEntity
  8
レイヤー_1
  6
CONTINUOUS
 62
       3
100
AcDbLine
 10
-59.70095125
 20
44.50164335
 30
0.0
 11
-59.89272929
 21
44.34775089
 31
0.0
  0
LINE
  5
1D5
100
AcDbEntity
  8
レイヤー_1
  6
CONTINUOUS
 62
       3
100
AcDbLine
 10
-59.89272929
 20
44.34775089
 30
0.0
 11
-60.07017257
 21
44.17790841
 31
0.0
  0
LINE
  5
1D6
100
AcDbEntity
  8
レイヤー_1
  6
CONTINUOUS
 62
       3
100
AcDbLine
 10
-60.07017257
 20
44.17790841
 30
0.0
 11
-60.23220388
 21
43.99319238
 31
0.0
  0
LINE
  5
1D7
100
AcDbEntity
  8
レイヤー_1
  6
CONTINUOUS
 62
       3
100
AcDbLine
 10
-60.23220388
 20
43.99319238
 30
0.0
 11
-60.37774597
 21
43.79467925
 31
0.0
  0
LINE
  5
1D8
100
AcDbEntity
  8
レイヤー_1
  6
CONTINUOUS
 62
       3
100
AcDbLine
 10
-60.37774597
 20
43.79467925
 30
0.0
 11
-60.50572162
 21
43.58344549
 31
0.0
  0
LINE
  5
1D9
100
AcDbEntity
  8
レイヤー_1
  6
CONTINUOUS
 62
       3
100
AcDbLine
 10
-60.50572162
 20
43.58344549
 30
0.0
 11
-60.6150536
 21
43.36056756
 31
0.0
  0
LINE
  5
1DA
100
AcDbEntity
  8
レイヤー_1
  6
CONTINUOUS
 62
       3
100
AcDbLine
 10
-60.6150536
 20
43.36056756
 30
0.0
 11
-60.70466467
 21
43.12712191
 31
0.0
  0
LINE
  5
1DB
100
AcDbEntity
  8
レイヤー_1
  6
CONTINUOUS
 62
       3
100
AcDbLine
 10
-60.70466467
 20
43.12712191
 30
0.0
 11
-60.77347759
 21
42.88418501
 31
0.0
  0
LINE
  5
1DC
100
AcDbEntity
  8
レイヤー_1
  6
CONTINUOUS
 62
       3
100
AcDbLine
 10
-60.77347759
 20
42.88418501
 30
0.0
 11
-60.82041515
 21
42.63283332
 31
0.0
  0
LINE
  5
1DD
100
AcDbEntity
  8
レイヤー_1
  6
CONTINUOUS
 62
       3
100
AcDbLine
 10
-60.82041515
 20
42.63283332
 30
0.0
 11
-60.8444001
 21
42.37414329
 31
0.0
  0
LINE
  5
1DE
100
AcDbEntity
  8
レイヤー_1
  6
CONTINUOUS
 62
       3
100
AcDbLine
 10
-60.8444001
 20
42.37414329
 30
0.0
 11
-60.8444001
 21
42.11053623
 31
0.0
  0
LINE
  5
1DF
100
AcDbEntity
  8
レイヤー_1
  6
CONTINUOUS
 62
       3
100
AcDbLine
 10
-60.8444001
 20
42.11053623
 30
0.0
 11
-60.82041515
 21
41.85168865
 31
0.0
  0
LINE
  5
1E0
100
AcDbEntity
  8
レイヤー_1
  6
CONTINUOUS
 62
       3
100
AcDbLine
 10
-60.82041515
 20
41.85168865
 30
0.0
 11
-60.77347759
 21
41.60019792
 31
0.0
  0
LINE
  5
1E1
100
AcDbEntity
  8
レイヤー_1
  6
CONTINUOUS
 62
       3
100
AcDbLine
 10
-60.77347759
 20
41.60019792
 30
0.0
 11
-60.70466467
 21
41.35713933
 31
0.0
  0
LINE
  5
1E2
100
AcDbEntity
  8
レイヤー_1
  6
CONTINUOUS
 62
       3
100
AcDbLine
 10
-60.70466467
 20
41.35713933
 30
0.0
 11
-60.6150536
 21
41.1235882
 31
0.0
  0
LINE
  5
1E3
100
AcDbEntity
  8
レイヤー_1
  6
CONTINUOUS
 62
       3
100
AcDbLine
 10
-60.6150536
 20
41.1235882
 30
0.0
 11
-60.50572162
 21
40.90061982
 31
0.0
  0
LINE
  5
1E4
100
AcDbEntity
  8
レイヤー_1
  6
CONTINUOUS
 62
       3
100
AcDbLine
 10
-60.50572162
 20
40.90061982
 30
0.0
 11
-60.37774597
 21
40.6893095
 31
0.0
  0
LINE
  5
1E5
100
AcDbEntity
  8
レイヤー_1
  6
CONTINUOUS
 62
       3
100
AcDbLine
 10
-60.37774597
 20
40.6893095
 30
0.0
 11
-60.23220388
 21
40.49073254
 31
0.0
  0
LINE
  5
1E6
100
AcDbEntity
  8
レイヤー_1
  6
CONTINUOUS
 62
       3
100
AcDbLine
 10
-60.23220388
 20
40.49073254
 30
0.0
 11
-60.07017257
 21
40.30596425
 31
0.0
  0
LINE
  5
1E7
100
AcDbEntity
  8
レイヤー_1
  6
CONTINUOUS
 62
       3
100
AcDbLine
 10
-60.07017257
 20
40.30596425
 30
0.0
 11
-59.89272929
 21
40.13607992
 31
0.0
  0
LINE
  5
1E8
100
AcDbEntity
  8
レイヤー_1
  6
CONTINUOUS
 62
       3
100
AcDbLine
 10
-59.89272929
 20
40.13607992
 30
0.0
 11
-59.70095125
 21
39.98215487
 31
0.0
  0
LINE
  5
1E9
100
AcDbEntity
  8
レイヤー_1
  6
CONTINUOUS
 62
       3
100
AcDbLine
 10
-59.70095125
 20
39.98215487
 30
0.0
 11
-59.49591571
 21
39.8452644
 31
0.0
  0
LINE
  5
1EA
100
AcDbEntity
  8
レイヤー_1
  6
CONTINUOUS
 62
       3
100
AcDbLine
 10
-59.49591571
 20
39.8452644
 30
0.0
 11
-59.27869988
 21
39.72648381
 31
0.0
  0
LINE
  5
1EB
100
AcDbEntity
  8
レイヤー_1
  6
CONTINUOUS
 62
       3
100
AcDbLine
 10
-59.27869988
 20
39.72648381
 30
0.0
 11
-59.050381
 21
39.6268884
 31
0.0
  0
LINE
  5
1EC
100
AcDbEntity
  8
レイヤー_1
  6
CONTINUOUS
 62
       3
100
AcDbLine
 10
-59.050381
 20
39.6268884
 30
0.0
 11
-58.8120363
 21
39.54755348
 31
0.0
  0
LINE
  5
1ED
100
AcDbEntity
  8
レイヤー_1
  6
CONTINUOUS
 62
       3
100
AcDbLine
 10
-58.8120363
 20
39.54755348
 30
0.0
 11
-58.56474301
 21
39.48955435
 31
0.0
  0
LINE
  5
1EE
100
AcDbEntity
  8
レイヤー_1
  6
CONTINUOUS
 62
       3
100
AcDbLine
 10
-58.56474301
 20
39.48955435
 30
0.0
 11
-58.30957838
 21
39.45396632
 31
0.0
  0
LINE
  5
1EF
100
AcDbEntity
  8
レイヤー_1
  6
CONTINUOUS
 62
       3
100
AcDbLine
 10
-58.30957838
 20
39.45396632
 30
0.0
 11
-58.04761961
 21
39.44186468
 31
0.0
  0
LINE
  5
1F0
100
AcDbEntity
  8
レイヤー_1
  6
CONTINUOUS
 62
       3
100
AcDbLine
 10
-58.04761961
 20
39.44186468
 30
0.0
 11
-57.78567059
 21
39.45396632
 31
0.0
  0
LINE
  5
1F1
100
AcDbEntity
  8
レイヤー_1
  6
CONTINUOUS
 62
       3
100
AcDbLine
 10
-57.78567059
 20
39.45396632
 30
0.0
 11
-57.53053363
 21
39.48955435
 31
0.0
  0
LINE
  5
1F2
100
AcDbEntity
  8
レイヤー_1
  6
CONTINUOUS
 62
       3
100
AcDbLine
 10
-57.53053363
 20
39.48955435
 30
0.0
 11
-57.28328363
 21
39.54755348
 31
0.0
  0
LINE
  5
1F3
100
AcDbEntity
  8
レイヤー_1
  6
CONTINUOUS
 62
       3
100
AcDbLine
 10
-57.28328363
 20
39.54755348
 30
0.0
 11
-57.04499554
 21
39.6268884
 31
0.0
  0
LINE
  5
1F4
100
AcDbEntity
  8
レイヤー_1
  6
CONTINUOUS
 62
       3
100
AcDbLine
 10
-57.04499554
 20
39.6268884
 30
0.0
 11
-56.81674425
 21
39.72648381
 31
0.0
  0
LINE
  5
1F5
100
AcDbEntity
  8
レイヤー_1
  6
CONTINUOUS
 62
       3
100
AcDbLine
 10
-56.81674425
 20
39.72648381
 30
0.0
 11
-56.59960469
 21
39.8452644
 31
0.0
  0
LINE
  5
1F6
100
AcDbEntity
  8
レイヤー_1
  6
CONTINUOUS
 62
       3
100
AcDbLine
 10
-56.59960469
 20
39.8452644
 30
0.0
 11
-56.39465178
 21
39.98215487
 31
0.0
  0
LINE
  5
1F7
100
AcDbEntity
  8
レイヤー_1
  6
CONTINUOUS
 62
       3
100
AcDbLine
 10
-56.39465178
 20
39.98215487
 30
0.0
 11
-56.20296043
 21
40.13607992
 31
0.0
  0
LINE
  5
1F8
100
AcDbEntity
  8
レイヤー_1
  6
CONTINUOUS
 62
       3
100
AcDbLine
 10
-56.20296043
 20
40.13607992
 30
0.0
 11
-56.02560556
 21
40.30596425
 31
0.0
  0
LINE
  5
1F9
100
AcDbEntity
  8
レイヤー_1
  6
CONTINUOUS
 62
       3
100
AcDbLine
 10
-56.02560556
 20
40.30596425
 30
0.0
 11
-55.8636621
 21
40.49073254
 31
0.0
  0
LINE
  5
1FA
100
AcDbEntity
  8
レイヤー_1
  6
CONTINUOUS
 62
       3
100
AcDbLine
 10
-55.8636621
 20
40.49073254
 30
0.0
 11
-55.71820495
 21
40.6893095
 31
0.0
  0
LINE
  5
1FB
100
AcDbEntity
  8
レイヤー_1
  6
CONTINUOUS
 62
       3
100
AcDbLine
 10
-55.71820495
 20
40.6893095
 30
0.0
 11
-55.59030904
 21
40.90061982
 31
0.0
  0
LINE
  5
1FC
100
AcDbEntity
  8
レイヤー_1
  6
CONTINUOUS
 62
       3
100
AcDbLine
 10
-55.59030904
 20
40.90061982
 30
0.0
 11
-55.48104929
 21
41.1235882
 31
0.0
  0
LINE
  5
1FD
100
AcDbEntity
  8
レイヤー_1
  6
CONTINUOUS
 62
       3
100
AcDbLine
 10
-55.48104929
 20
41.1235882
 30
0.0
 11
-55.3915006
 21
41.35713933
 31
0.0
  0
LINE
  5
1FE
100
AcDbEntity
  8
レイヤー_1
  6
CONTINUOUS
 62
       3
100
AcDbLine
 10
-55.3915006
 20
41.35713933
 30
0.0
 11
-55.32273791
 21
41.60019792
 31
0.0
  0
LINE
  5
1FF
100
AcDbEntity
  8
レイヤー_1
  6
CONTINUOUS
 62
       3
100
AcDbLine
 10
-55.32273791
 20
41.60019792
 30
0.0
 11
-55.27583613
 21
41.85168865
 31
0.0
  0
LINE
  5
200
100
AcDbEntity
  8
レイヤー_1
  6
CONTINUOUS
 62
       3
100
AcDbLine
 10
-55.27583613
 20
41.85168865
 30
0.0
 11
-55.25187017
 21
42.11053623
 31
0.0
  0
LINE
  5
201
100
AcDbEntity
  8
レイヤー_1
  6
CONTINUOUS
 62
       3
100
AcDbLine
 10
-55.25187017
 20
42.11053623
 30
0.0
 11
-55.25187017
 21
42.37414329
 31
0.0
  0
LINE
  5
202
100
AcDbEntity
  8
レイヤー_1
  6
CONTINUOUS
 62
       3
100
AcDbLine
 10
-55.25187017
 20
42.37414329
 30
0.0
 11
-55.27583613
 21
42.63283332
 31
0.0
  0
LINE
  5
203
100
AcDbEntity
  8
レイヤー_1
  6
CONTINUOUS
 62
       3
100
AcDbLine
 10
-55.27583613
 20
42.63283332
 30
0.0
 11
-55.32273791
 21
42.88418501
 31
0.0
  0
LINE
  5
204
100
AcDbEntity
  8
レイヤー_1
  6
CONTINUOUS
 62
       3
100
AcDbLine
 10
-55.32273791
 20
42.88418501
 30
0.0
 11
-55.3915006
 21
43.12712191
 31
0.0
  0
LINE
  5
205
100
AcDbEntity
  8
レイヤー_1
  6
CONTINUOUS
 62
       3
100
AcDbLine
 10
-55.3915006
 20
43.12712191
 30
0.0
 11
-55.48104929
 21
43.36056756
 31
0.0
  0
LINE
  5
206
100
AcDbEntity
  8
レイヤー_1
  6
CONTINUOUS
 62
       3
100
AcDbLine
 10
-55.48104929
 20
43.36056756
 30
0.0
 11
-55.59030904
 21
43.58344549
 31
0.0
  0
LINE
  5
207
100
AcDbEntity
  8
レイヤー_1
  6
CONTINUOUS
 62
       3
100
AcDbLine
 10
-55.59030904
 20
43.58344549
 30
0.0
 11
-55.71820495
 21
43.79467925
 31
0.0
  0
LINE
  5
208
100
AcDbEntity
  8
レイヤー_1
  6
CONTINUOUS
 62
       3
100
AcDbLine
 10
-55.71820495
 20
43.79467925
 30
0.0
 11
-55.8636621
 21
43.99319238
 31
0.0
  0
LINE
  5
209
100
AcDbEntity
  8
レイヤー_1
  6
CONTINUOUS
 62
       3
100
AcDbLine
 10
-55.8636621
 20
43.99319238
 30
0.0
 11
-56.02560556
 21
44.17790841
 31
0.0
  0
LINE
  5
20A
100
AcDbEntity
  8
レイヤー_1
  6
CONTINUOUS
 62
       3
100
AcDbLine
 10
-56.02560556
 20
44.17790841
 30
0.0
 11
-56.20296043
 21
44.34775089
 31
0.0
  0
LINE
  5
20B
100
AcDbEntity
  8
レイヤー_1
  6
CONTINUOUS
 62
       3
100
AcDbLine
 10
-56.20296043
 20
44.34775089
 30
0.0
 11
-56.39465178
 21
44.50164335
 31
0.0
  0
LINE
  5
20C
100
AcDbEntity
  8
レイヤー_1
  6
CONTINUOUS
 62
       3
100
AcDbLine
 10
-56.39465178
 20
44.50164335
 30
0.0
 11
-56.59960469
 21
44.63850933
 31
0.0
  0
LINE
  5
20D
100
AcDbEntity
  8
レイヤー_1
  6
CONTINUOUS
 62
       3
100
AcDbLine
 10
-56.59960469
 20
44.63850933
 30
0.0
 11
-56.81674425
 21
44.75727237
 31
0.0
  0
LINE
  5
20E
100
AcDbEntity
  8
レイヤー_1
  6
CONTINUOUS
 62
       3
100
AcDbLine
 10
-56.81674425
 20
44.75727237
 30
0.0
 11
-57.04499554
 21
44.85685602
 31
0.0
  0
LINE
  5
20F
100
AcDbEntity
  8
レイヤー_1
  6
CONTINUOUS
 62
       3
100
AcDbLine
 10
-57.04499554
 20
44.85685602
 30
0.0
 11
-57.28328363
 21
44.9361838
 31
0.0
  0
LINE
  5
210
100
AcDbEntity
  8
レイヤー_1
  6
CONTINUOUS
 62
       3
100
AcDbLine
 10
-57.28328363
 20
44.9361838
 30
0.0
 11
-57.53053363
 21
44.99417927
 31
0.0
  0
LINE
  5
211
100
AcDbEntity
  8
レイヤー_1
  6
CONTINUOUS
 62
       3
100
AcDbLine
 10
-57.53053363
 20
44.99417927
 30
0.0
 11
-57.78567059
 21
45.02976595
 31
0.0
  0
LINE
  5
212
100
AcDbEntity
  8
レイヤー_1
  6
CONTINUOUS
 62
       3
100
AcDbLine
 10
-57.78567059
 20
45.02976595
 30
0.0
 11
-58.04761961
 21
45.04186739
 31
0.0
  0
LINE
  5
213
100
AcDbEntity
  8
レイヤー_1
  6
CONTINUOUS
 62
       3
100
AcDbLine
 10
-66.5473592
 20
45.04186739
 30
0.0
 11
-66.80948196
 21
45.02976595
 31
0.0
  0
LINE
  5
214
100
AcDbEntity
  8
レイヤー_1
  6
CONTINUOUS
 62
       3
100
AcDbLine
 10
-66.80948196
 20
45.02976595
 30
0.0
 11
-67.06478552
 21
44.99417927
 31
0.0
  0
LINE
  5
215
100
AcDbEntity
  8
レイヤー_1
  6
CONTINUOUS
 62
       3
100
AcDbLine
 10
-67.06478552
 20
44.99417927
 30
0.0
 11
-67.3121946
 21
44.9361838
 31
0.0
  0
LINE
  5
216
100
AcDbEntity
  8
レイヤー_1
  6
CONTINUOUS
 62
       3
100
AcDbLine
 10
-67.3121946
 20
44.9361838
 30
0.0
 11
-67.55063387
 21
44.85685602
 31
0.0
  0
LINE
  5
217
100
AcDbEntity
  8
レイヤー_1
  6
CONTINUOUS
 62
       3
100
AcDbLine
 10
-67.55063387
 20
44.85685602
 30
0.0
 11
-67.77902804
 21
44.75727237
 31
0.0
  0
LINE
  5
218
100
AcDbEntity
  8
レイヤー_1
  6
CONTINUOUS
 62
       3
100
AcDbLine
 10
-67.77902804
 20
44.75727237
 30
0.0
 11
-67.9963018
 21
44.63850933
 31
0.0
  0
LINE
  5
219
100
AcDbEntity
  8
レイヤー_1
  6
CONTINUOUS
 62
       3
100
AcDbLine
 10
-67.9963018
 20
44.63850933
 30
0.0
 11
-68.20137985
 21
44.50164335
 31
0.0
  0
LINE
  5
21A
100
AcDbEntity
  8
レイヤー_1
  6
CONTINUOUS
 62
       3
100
AcDbLine
 10
-68.20137985
 20
44.50164335
 30
0.0
 11
-68.39318689
 21
44.34775089
 31
0.0
  0
LINE
  5
21B
100
AcDbEntity
  8
レイヤー_1
  6
CONTINUOUS
 62
       3
100
AcDbLine
 10
-68.39318689
 20
44.34775089
 30
0.0
 11
-68.57064762
 21
44.17790841
 31
0.0
  0
LINE
  5
21C
100
AcDbEntity
  8
レイヤー_1
  6
CONTINUOUS
 62
       3
100
AcDbLine
 10
-68.57064762
 20
44.17790841
 30
0.0
 11
-68.73268672
 21
43.99319238
 31
0.0
  0
LINE
  5
21D
100
AcDbEntity
  8
レイヤー_1
  6
CONTINUOUS
 62
       3
100
AcDbLine
 10
-68.73268672
 20
43.99319238
 30
0.0
 11
-68.87822889
 21
43.79467925
 31
0.0
  0
LINE
  5
21E
100
AcDbEntity
  8
レイヤー_1
  6
CONTINUOUS
 62
       3
100
AcDbLine
 10
-68.87822889
 20
43.79467925
 30
0.0
 11
-69.00619884
 21
43.58344549
 31
0.0
  0
LINE
  5
21F
100
AcDbEntity
  8
レイヤー_1
  6
CONTINUOUS
 62
       3
100
AcDbLine
 10
-69.00619884
 20
43.58344549
 30
0.0
 11
-69.11552125
 21
43.36056756
 31
0.0
  0
LINE
  5
220
100
AcDbEntity
  8
レイヤー_1
  6
CONTINUOUS
 62
       3
100
AcDbLine
 10
-69.11552125
 20
43.36056756
 30
0.0
 11
-69.20512083
 21
43.12712191
 31
0.0
  0
LINE
  5
221
100
AcDbEntity
  8
レイヤー_1
  6
CONTINUOUS
 62
       3
100
AcDbLine
 10
-69.20512083
 20
43.12712191
 30
0.0
 11
-69.27392226
 21
42.88418501
 31
0.0
  0
LINE
  5
222
100
AcDbEntity
  8
レイヤー_1
  6
CONTINUOUS
 62
       3
100
AcDbLine
 10
-69.27392226
 20
42.88418501
 30
0.0
 11
-69.32085026
 21
42.63283332
 31
0.0
  0
LINE
  5
223
100
AcDbEntity
  8
レイヤー_1
  6
CONTINUOUS
 62
       3
100
AcDbLine
 10
-69.32085026
 20
42.63283332
 30
0.0
 11
-69.3448295
 21
42.37414329
 31
0.0
  0
LINE
  5
224
100
AcDbEntity
  8
レイヤー_1
  6
CONTINUOUS
 62
       3
100
AcDbLine
 10
-69.3448295
 20
42.37414329
 30
0.0
 11
-69.3448295
 21
42.11053623
 31
0.0
  0
LINE
  5
225
100
AcDbEntity
  8
レイヤー_1
  6
CONTINUOUS
 62
       3
100
AcDbLine
 10
-69.3448295
 20
42.11053623
 30
0.0
 11
-69.32085026
 21
41.85168865
 31
0.0
  0
LINE
  5
226
100
AcDbEntity
  8
レイヤー_1
  6
CONTINUOUS
 62
       3
100
AcDbLine
 10
-69.32085026
 20
41.85168865
 30
0.0
 11
-69.27392226
 21
41.60019792
 31
0.0
  0
LINE
  5
227
100
AcDbEntity
  8
レイヤー_1
  6
CONTINUOUS
 62
       3
100
AcDbLine
 10
-69.27392226
 20
41.60019792
 30
0.0
 11
-69.20512083
 21
41.35713933
 31
0.0
  0
LINE
  5
228
100
AcDbEntity
  8
レイヤー_1
  6
CONTINUOUS
 62
       3
100
AcDbLine
 10
-69.20512083
 20
41.35713933
 30
0.0
 11
-69.11552125
 21
41.1235882
 31
0.0
  0
LINE
  5
229
100
AcDbEntity
  8
レイヤー_1
  6
CONTINUOUS
 62
       3
100
AcDbLine
 10
-69.11552125
 20
41.1235882
 30
0.0
 11
-69.00619884
 21
40.90061982
 31
0.0
  0
LINE
  5
22A
100
AcDbEntity
  8
レイヤー_1
  6
CONTINUOUS
 62
       3
100
AcDbLine
 10
-69.00619884
 20
40.90061982
 30
0.0
 11
-68.87822889
 21
40.6893095
 31
0.0
  0
LINE
  5
22B
100
AcDbEntity
  8
レイヤー_1
  6
CONTINUOUS
 62
       3
100
AcDbLine
 10
-68.87822889
 20
40.6893095
 30
0.0
 11
-68.73268672
 21
40.49073254
 31
0.0
  0
LINE
  5
22C
100
AcDbEntity
  8
レイヤー_1
  6
CONTINUOUS
 62
       3
100
AcDbLine
 10
-68.73268672
 20
40.49073254
 30
0.0
 11
-68.57064762
 21
40.30596425
 31
0.0
  0
LINE
  5
22D
100
AcDbEntity
  8
レイヤー_1
  6
CONTINUOUS
 62
       3
100
AcDbLine
 10
-68.57064762
 20
40.30596425
 30
0.0
 11
-68.39318689
 21
40.13607992
 31
0.0
  0
LINE
  5
22E
100
AcDbEntity
  8
レイヤー_1
  6
CONTINUOUS
 62
       3
100
AcDbLine
 10
-68.39318689
 20
40.13607992
 30
0.0
 11
-68.20137985
 21
39.98215487
 31
0.0
  0
LINE
  5
22F
100
AcDbEntity
  8
レイヤー_1
  6
CONTINUOUS
 62
       3
100
AcDbLine
 10
-68.20137985
 20
39.98215487
 30
0.0
 11
-67.9963018
 21
39.8452644
 31
0.0
  0
LINE
  5
230
100
AcDbEntity
  8
レイヤー_1
  6
CONTINUOUS
 62
       3
100
AcDbLine
 10
-67.9963018
 20
39.8452644
 30
0.0
 11
-67.77902804
 21
39.72648381
 31
0.0
  0
LINE
  5
231
100
AcDbEntity
  8
レイヤー_1
  6
CONTINUOUS
 62
       3
100
AcDbLine
 10
-67.77902804
 20
39.72648381
 30
0.0
 11
-67.55063387
 21
39.6268884
 31
0.0
  0
LINE
  5
232
100
AcDbEntity
  8
レイヤー_1
  6
CONTINUOUS
 62
       3
100
AcDbLine
 10
-67.55063387
 20
39.6268884
 30
0.0
 11
-67.3121946
 21
39.54755348
 31
0.0
  0
LINE
  5
233
100
AcDbEntity
  8
レイヤー_1
  6
CONTINUOUS
 62
       3
100
AcDbLine
 10
-67.3121946
 20
39.54755348
 30
0.0
 11
-67.06478552
 21
39.48955435
 31
0.0
  0
LINE
  5
234
100
AcDbEntity
  8
レイヤー_1
  6
CONTINUOUS
 62
       3
100
AcDbLine
 10
-67.06478552
 20
39.48955435
 30
0.0
 11
-66.80948196
 21
39.45396632
 31
0.0
  0
LINE
  5
235
100
AcDbEntity
  8
レイヤー_1
  6
CONTINUOUS
 62
       3
100
AcDbLine
 10
-66.80948196
 20
39.45396632
 30
0.0
 11
-66.5473592
 21
39.44186468
 31
0.0
  0
LINE
  5
236
100
AcDbEntity
  8
レイヤー_1
  6
CONTINUOUS
 62
       3
100
AcDbLine
 10
-66.5473592
 20
39.44186468
 30
0.0
 11
-66.28529868
 21
39.45396632
 31
0.0
  0
LINE
  5
237
100
AcDbEntity
  8
レイヤー_1
  6
CONTINUOUS
 62
       3
100
AcDbLine
 10
-66.28529868
 20
39.45396632
 30
0.0
 11
-66.03006294
 21
39.48955435
 31
0.0
  0
LINE
  5
238
100
AcDbEntity
  8
レイヤー_1
  6
CONTINUOUS
 62
       3
100
AcDbLine
 10
-66.03006294
 20
39.48955435
 30
0.0
 11
-65.78272614
 21
39.54755348
 31
0.0
  0
LINE
  5
239
100
AcDbEntity
  8
レイヤー_1
  6
CONTINUOUS
 62
       3
100
AcDbLine
 10
-65.78272614
 20
39.54755348
 30
0.0
 11
-65.54436241
 21
39.6268884
 31
0.0
  0
LINE
  5
23A
100
AcDbEntity
  8
レイヤー_1
  6
CONTINUOUS
 62
       3
100
AcDbLine
 10
-65.54436241
 20
39.6268884
 30
0.0
 11
-65.31604591
 21
39.72648381
 31
0.0
  0
LINE
  5
23B
100
AcDbEntity
  8
レイヤー_1
  6
CONTINUOUS
 62
       3
100
AcDbLine
 10
-65.31604591
 20
39.72648381
 30
0.0
 11
-65.09885078
 21
39.8452644
 31
0.0
  0
LINE
  5
23C
100
AcDbEntity
  8
レイヤー_1
  6
CONTINUOUS
 62
       3
100
AcDbLine
 10
-65.09885078
 20
39.8452644
 30
0.0
 11
-64.89385117
 21
39.98215487
 31
0.0
  0
LINE
  5
23D
100
AcDbEntity
  8
レイヤー_1
  6
CONTINUOUS
 62
       3
100
AcDbLine
 10
-64.89385117
 20
39.98215487
 30
0.0
 11
-64.70212122
 21
40.13607992
 31
0.0
  0
LINE
  5
23E
100
AcDbEntity
  8
レイヤー_1
  6
CONTINUOUS
 62
       3
100
AcDbLine
 10
-64.70212122
 20
40.13607992
 30
0.0
 11
-64.52473508
 21
40.30596425
 31
0.0
  0
LINE
  5
23F
100
AcDbEntity
  8
レイヤー_1
  6
CONTINUOUS
 62
       3
100
AcDbLine
 10
-64.52473508
 20
40.30596425
 30
0.0
 11
-64.3627669
 21
40.49073254
 31
0.0
  0
LINE
  5
240
100
AcDbEntity
  8
レイヤー_1
  6
CONTINUOUS
 62
       3
100
AcDbLine
 10
-64.3627669
 20
40.49073254
 30
0.0
 11
-64.21729082
 21
40.6893095
 31
0.0
  0
LINE
  5
241
100
AcDbEntity
  8
レイヤー_1
  6
CONTINUOUS
 62
       3
100
AcDbLine
 10
-64.21729082
 20
40.6893095
 30
0.0
 11
-64.08938099
 21
40.90061982
 31
0.0
  0
LINE
  5
242
100
AcDbEntity
  8
レイヤー_1
  6
CONTINUOUS
 62
       3
100
AcDbLine
 10
-64.08938099
 20
40.90061982
 30
0.0
 11
-63.98011156
 21
41.1235882
 31
0.0
  0
LINE
  5
243
100
AcDbEntity
  8
レイヤー_1
  6
CONTINUOUS
 62
       3
100
AcDbLine
 10
-63.98011156
 20
41.1235882
 30
0.0
 11
-63.89055668
 21
41.35713933
 31
0.0
  0
LINE
  5
244
100
AcDbEntity
  8
レイヤー_1
  6
CONTINUOUS
 62
       3
100
AcDbLine
 10
-63.89055668
 20
41.35713933
 30
0.0
 11
-63.82179048
 21
41.60019792
 31
0.0
  0
LINE
  5
245
100
AcDbEntity
  8
レイヤー_1
  6
CONTINUOUS
 62
       3
100
AcDbLine
 10
-63.82179048
 20
41.60019792
 30
0.0
 11
-63.77488713
 21
41.85168865
 31
0.0
  0
LINE
  5
246
100
AcDbEntity
  8
レイヤー_1
  6
CONTINUOUS
 62
       3
100
AcDbLine
 10
-63.77488713
 20
41.85168865
 30
0.0
 11
-63.75092075
 21
42.11053623
 31
0.0
  0
LINE
  5
247
100
AcDbEntity
  8
レイヤー_1
  6
CONTINUOUS
 62
       3
100
AcDbLine
 10
-63.75092075
 20
42.11053623
 30
0.0
 11
-63.75092075
 21
42.37414329
 31
0.0
  0
LINE
  5
248
100
AcDbEntity
  8
レイヤー_1
  6
CONTINUOUS
 62
       3
100
AcDbLine
 10
-63.75092075
 20
42.37414329
 30
0.0
 11
-63.77488713
 21
42.63283332
 31
0.0
  0
LINE
  5
249
100
AcDbEntity
  8
レイヤー_1
  6
CONTINUOUS
 62
       3
100
AcDbLine
 10
-63.77488713
 20
42.63283332
 30
0.0
 11
-63.82179048
 21
42.88418501
 31
0.0
  0
LINE
  5
24A
100
AcDbEntity
  8
レイヤー_1
  6
CONTINUOUS
 62
       3
100
AcDbLine
 10
-63.82179048
 20
42.88418501
 30
0.0
 11
-63.89055668
 21
43.12712191
 31
0.0
  0
LINE
  5
24B
100
AcDbEntity
  8
レイヤー_1
  6
CONTINUOUS
 62
       3
100
AcDbLine
 10
-63.89055668
 20
43.12712191
 30
0.0
 11
-63.98011156
 21
43.36056756
 31
0.0
  0
LINE
  5
24C
100
AcDbEntity
  8
レイヤー_1
  6
CONTINUOUS
 62
       3
100
AcDbLine
 10
-63.98011156
 20
43.36056756
 30
0.0
 11
-64.08938099
 21
43.58344549
 31
0.0
  0
LINE
  5
24D
100
AcDbEntity
  8
レイヤー_1
  6
CONTINUOUS
 62
       3
100
AcDbLine
 10
-64.08938099
 20
43.58344549
 30
0.0
 11
-64.21729082
 21
43.79467925
 31
0.0
  0
LINE
  5
24E
100
AcDbEntity
  8
レイヤー_1
  6
CONTINUOUS
 62
       3
100
AcDbLine
 10
-64.21729082
 20
43.79467925
 30
0.0
 11
-64.3627669
 21
43.99319238
 31
0.0
  0
LINE
  5
24F
100
AcDbEntity
  8
レイヤー_1
  6
CONTINUOUS
 62
       3
100
AcDbLine
 10
-64.3627669
 20
43.99319238
 30
0.0
 11
-64.52473508
 21
44.17790841
 31
0.0
  0
LINE
  5
250
100
AcDbEntity
  8
レイヤー_1
  6
CONTINUOUS
 62
       3
100
AcDbLine
 10
-64.52473508
 20
44.17790841
 30
0.0
 11
-64.70212122
 21
44.34775089
 31
0.0
  0
LINE
  5
251
100
AcDbEntity
  8
レイヤー_1
  6
CONTINUOUS
 62
       3
100
AcDbLine
 10
-64.70212122
 20
44.34775089
 30
0.0
 11
-64.89385117
 21
44.50164335
 31
0.0
  0
LINE
  5
252
100
AcDbEntity
  8
レイヤー_1
  6
CONTINUOUS
 62
       3
100
AcDbLine
 10
-64.89385117
 20
44.50164335
 30
0.0
 11
-65.09885078
 21
44.63850933
 31
0.0
  0
LINE
  5
253
100
AcDbEntity
  8
レイヤー_1
  6
CONTINUOUS
 62
       3
100
AcDbLine
 10
-65.09885078
 20
44.63850933
 30
0.0
 11
-65.31604591
 21
44.75727237
 31
0.0
  0
LINE
  5
254
100
AcDbEntity
  8
レイヤー_1
  6
CONTINUOUS
 62
       3
100
AcDbLine
 10
-65.31604591
 20
44.75727237
 30
0.0
 11
-65.54436241
 21
44.85685602
 31
0.0
  0
LINE
  5
255
100
AcDbEntity
  8
レイヤー_1
  6
CONTINUOUS
 62
       3
100
AcDbLine
 10
-65.54436241
 20
44.85685602
 30
0.0
 11
-65.78272614
 21
44.9361838
 31
0.0
  0
LINE
  5
256
100
AcDbEntity
  8
レイヤー_1
  6
CONTINUOUS
 62
       3
100
AcDbLine
 10
-65.78272614
 20
44.9361838
 30
0.0
 11
-66.03006294
 21
44.99417927
 31
0.0
  0
LINE
  5
257
100
AcDbEntity
  8
レイヤー_1
  6
CONTINUOUS
 62
       3
100
AcDbLine
 10
-66.03006294
 20
44.99417927
 30
0.0
 11
-66.28529868
 21
45.02976595
 31
0.0
  0
LINE
  5
258
100
AcDbEntity
  8
レイヤー_1
  6
CONTINUOUS
 62
       3
100
AcDbLine
 10
-66.28529868
 20
45.02976595
 30
0.0
 11
-66.5473592
 21
45.04186739
 31
0.0
  0
LINE
  5
259
100
AcDbEntity
  8
レイヤー_1
  6
CONTINUOUS
 62
       3
100
AcDbLine
 10
-31.51521673
 20
-39.72780761
 30
0.0
 11
-31.7510154
 21
-39.7386857
 31
0.0
  0
LINE
  5
25A
100
AcDbEntity
  8
レイヤー_1
  6
CONTINUOUS
 62
       3
100
AcDbLine
 10
-31.7510154
 20
-39.7386857
 30
0.0
 11
-31.98068892
 21
-39.77067666
 31
0.0
  0
LINE
  5
25B
100
AcDbEntity
  8
レイヤー_1
  6
CONTINUOUS
 62
       3
100
AcDbLine
 10
-31.98068892
 20
-39.77067666
 30
0.0
 11
-32.20326883
 21
-39.82281549
 31
0.0
  0
LINE
  5
25C
100
AcDbEntity
  8
レイヤー_1
  6
CONTINUOUS
 62
       3
100
AcDbLine
 10
-32.20326883
 20
-39.82281549
 30
0.0
 11
-32.41778666
 21
-39.89413719
 31
0.0
  0
LINE
  5
25D
100
AcDbEntity
  8
レイヤー_1
  6
CONTINUOUS
 62
       3
100
AcDbLine
 10
-32.41778666
 20
-39.89413719
 30
0.0
 11
-32.62327394
 21
-39.98367676
 31
0.0
  0
LINE
  5
25E
100
AcDbEntity
  8
レイヤー_1
  6
CONTINUOUS
 62
       3
100
AcDbLine
 10
-32.62327394
 20
-39.98367676
 30
0.0
 11
-32.81876222
 21
-40.09046921
 31
0.0
  0
LINE
  5
25F
100
AcDbEntity
  8
レイヤー_1
  6
CONTINUOUS
 62
       3
100
AcDbLine
 10
-32.81876222
 20
-40.09046921
 30
0.0
 11
-33.00328301
 21
-40.21354953
 31
0.0
  0
LINE
  5
260
100
AcDbEntity
  8
レイヤー_1
  6
CONTINUOUS
 62
       3
100
AcDbLine
 10
-33.00328301
 20
-40.21354953
 30
0.0
 11
-33.17586785
 21
-40.35195275
 31
0.0
  0
LINE
  5
261
100
AcDbEntity
  8
レイヤー_1
  6
CONTINUOUS
 62
       3
100
AcDbLine
 10
-33.17586785
 20
-40.35195275
 30
0.0
 11
-33.33554828
 21
-40.50471385
 31
0.0
  0
LINE
  5
262
100
AcDbEntity
  8
レイヤー_1
  6
CONTINUOUS
 62
       3
100
AcDbLine
 10
-33.33554828
 20
-40.50471385
 30
0.0
 11
-33.48135583
 21
-40.67086784
 31
0.0
  0
LINE
  5
263
100
AcDbEntity
  8
レイヤー_1
  6
CONTINUOUS
 62
       3
100
AcDbLine
 10
-33.48135583
 20
-40.67086784
 30
0.0
 11
-33.61232202
 21
-40.84944973
 31
0.0
  0
LINE
  5
264
100
AcDbEntity
  8
レイヤー_1
  6
CONTINUOUS
 62
       3
100
AcDbLine
 10
-33.61232202
 20
-40.84944973
 30
0.0
 11
-33.7274784
 21
-41.03949452
 31
0.0
  0
LINE
  5
265
100
AcDbEntity
  8
レイヤー_1
  6
CONTINUOUS
 62
       3
100
AcDbLine
 10
-33.7274784
 20
-41.03949452
 30
0.0
 11
-33.82585649
 21
-41.24003722
 31
0.0
  0
LINE
  5
266
100
AcDbEntity
  8
レイヤー_1
  6
CONTINUOUS
 62
       3
100
AcDbLine
 10
-33.82585649
 20
-41.24003722
 30
0.0
 11
-33.90648783
 21
-41.45011282
 31
0.0
  0
LINE
  5
267
100
AcDbEntity
  8
レイヤー_1
  6
CONTINUOUS
 62
       3
100
AcDbLine
 10
-33.90648783
 20
-41.45011282
 30
0.0
 11
-33.96840394
 21
-41.66875632
 31
0.0
  0
LINE
  5
268
100
AcDbEntity
  8
レイヤー_1
  6
CONTINUOUS
 62
       3
100
AcDbLine
 10
-33.96840394
 20
-41.66875632
 30
0.0
 11
-34.01063637
 21
-41.89500275
 31
0.0
  0
LINE
  5
269
100
AcDbEntity
  8
レイヤー_1
  6
CONTINUOUS
 62
       3
100
AcDbLine
 10
-34.01063637
 20
-41.89500275
 30
0.0
 11
-34.03221664
 21
-42.12788709
 31
0.0
  0
LINE
  5
26A
100
AcDbEntity
  8
レイヤー_1
  6
CONTINUOUS
 62
       3
100
AcDbLine
 10
-34.03221664
 20
-42.12788709
 30
0.0
 11
-34.03221664
 21
-42.36512302
 31
0.0
  0
LINE
  5
26B
100
AcDbEntity
  8
レイヤー_1
  6
CONTINUOUS
 62
       3
100
AcDbLine
 10
-34.03221664
 20
-42.36512302
 30
0.0
 11
-34.01063637
 21
-42.59799283
 31
0.0
  0
LINE
  5
26C
100
AcDbEntity
  8
レイヤー_1
  6
CONTINUOUS
 62
       3
100
AcDbLine
 10
-34.01063637
 20
-42.59799283
 30
0.0
 11
-33.96840394
 21
-42.82426445
 31
0.0
  0
LINE
  5
26D
100
AcDbEntity
  8
レイヤー_1
  6
CONTINUOUS
 62
       3
100
AcDbLine
 10
-33.96840394
 20
-42.82426445
 30
0.0
 11
-33.90648783
 21
-43.04296787
 31
0.0
  0
LINE
  5
26E
100
AcDbEntity
  8
レイヤー_1
  6
CONTINUOUS
 62
       3
100
AcDbLine
 10
-33.90648783
 20
-43.04296787
 30
0.0
 11
-33.82585649
 21
-43.25313308
 31
0.0
  0
LINE
  5
26F
100
AcDbEntity
  8
レイヤー_1
  6
CONTINUOUS
 62
       3
100
AcDbLine
 10
-33.82585649
 20
-43.25313308
 30
0.0
 11
-33.7274784
 21
-43.45379006
 31
0.0
  0
LINE
  5
270
100
AcDbEntity
  8
レイヤー_1
  6
CONTINUOUS
 62
       3
100
AcDbLine
 10
-33.7274784
 20
-43.45379006
 30
0.0
 11
-33.61232202
 21
-43.64396882
 31
0.0
  0
LINE
  5
271
100
AcDbEntity
  8
レイヤー_1
  6
CONTINUOUS
 62
       3
100
AcDbLine
 10
-33.61232202
 20
-43.64396882
 30
0.0
 11
-33.48135583
 21
-43.82269933
 31
0.0
  0
LINE
  5
272
100
AcDbEntity
  8
レイヤー_1
  6
CONTINUOUS
 62
       3
100
AcDbLine
 10
-33.48135583
 20
-43.82269933
 30
0.0
 11
-33.33554828
 21
-43.98901158
 31
0.0
  0
LINE
  5
273
100
AcDbEntity
  8
レイヤー_1
  6
CONTINUOUS
 62
       3
100
AcDbLine
 10
-33.33554828
 20
-43.98901158
 30
0.0
 11
-33.17586785
 21
-44.14193557
 31
0.0
  0
LINE
  5
274
100
AcDbEntity
  8
レイヤー_1
  6
CONTINUOUS
 62
       3
100
AcDbLine
 10
-33.17586785
 20
-44.14193557
 30
0.0
 11
-33.00328301
 21
-44.28050129
 31
0.0
  0
LINE
  5
275
100
AcDbEntity
  8
レイヤー_1
  6
CONTINUOUS
 62
       3
100
AcDbLine
 10
-33.00328301
 20
-44.28050129
 30
0.0
 11
-32.81876222
 21
-44.40373872
 31
0.0
  0
LINE
  5
276
100
AcDbEntity
  8
レイヤー_1
  6
CONTINUOUS
 62
       3
100
AcDbLine
 10
-32.81876222
 20
-44.40373872
 30
0.0
 11
-32.62327394
 21
-44.51067786
 31
0.0
  0
LINE
  5
277
100
AcDbEntity
  8
レイヤー_1
  6
CONTINUOUS
 62
       3
100
AcDbLine
 10
-32.62327394
 20
-44.51067786
 30
0.0
 11
-32.41778666
 21
-44.6003487
 31
0.0
  0
LINE
  5
278
100
AcDbEntity
  8
レイヤー_1
  6
CONTINUOUS
 62
       3
100
AcDbLine
 10
-32.41778666
 20
-44.6003487
 30
0.0
 11
-32.20326883
 21
-44.67178121
 31
0.0
  0
LINE
  5
279
100
AcDbEntity
  8
レイヤー_1
  6
CONTINUOUS
 62
       3
100
AcDbLine
 10
-32.20326883
 20
-44.67178121
 30
0.0
 11
-31.98068892
 21
-44.72400541
 31
0.0
  0
LINE
  5
27A
100
AcDbEntity
  8
レイヤー_1
  6
CONTINUOUS
 62
       3
100
AcDbLine
 10
-31.98068892
 20
-44.72400541
 30
0.0
 11
-31.7510154
 21
-44.75605126
 31
0.0
  0
LINE
  5
27B
100
AcDbEntity
  8
レイヤー_1
  6
CONTINUOUS
 62
       3
100
AcDbLine
 10
-31.7510154
 20
-44.75605126
 30
0.0
 11
-31.51521673
 21
-44.76694877
 31
0.0
  0
LINE
  5
27C
100
AcDbEntity
  8
レイヤー_1
  6
CONTINUOUS
 62
       3
100
AcDbLine
 10
-31.51521673
 20
-44.76694877
 30
0.0
 11
-31.27930982
 21
-44.75605126
 31
0.0
  0
LINE
  5
27D
100
AcDbEntity
  8
レイヤー_1
  6
CONTINUOUS
 62
       3
100
AcDbLine
 10
-31.27930982
 20
-44.75605126
 30
0.0
 11
-31.04954676
 21
-44.72400541
 31
0.0
  0
LINE
  5
27E
100
AcDbEntity
  8
レイヤー_1
  6
CONTINUOUS
 62
       3
100
AcDbLine
 10
-31.04954676
 20
-44.72400541
 30
0.0
 11
-30.82689447
 21
-44.67178121
 31
0.0
  0
LINE
  5
27F
100
AcDbEntity
  8
レイヤー_1
  6
CONTINUOUS
 62
       3
100
AcDbLine
 10
-30.82689447
 20
-44.67178121
 30
0.0
 11
-30.61231987
 21
-44.6003487
 31
0.0
  0
LINE
  5
280
100
AcDbEntity
  8
レイヤー_1
  6
CONTINUOUS
 62
       3
100
AcDbLine
 10
-30.61231987
 20
-44.6003487
 30
0.0
 11
-30.40678991
 21
-44.51067786
 31
0.0
  0
LINE
  5
281
100
AcDbEntity
  8
レイヤー_1
  6
CONTINUOUS
 62
       3
100
AcDbLine
 10
-30.40678991
 20
-44.51067786
 30
0.0
 11
-30.21127148
 21
-44.40373872
 31
0.0
  0
LINE
  5
282
100
AcDbEntity
  8
レイヤー_1
  6
CONTINUOUS
 62
       3
100
AcDbLine
 10
-30.21127148
 20
-44.40373872
 30
0.0
 11
-30.02673154
 21
-44.28050129
 31
0.0
  0
LINE
  5
283
100
AcDbEntity
  8
レイヤー_1
  6
CONTINUOUS
 62
       3
100
AcDbLine
 10
-30.02673154
 20
-44.28050129
 30
0.0
 11
-29.85413698
 21
-44.14193557
 31
0.0
  0
LINE
  5
284
100
AcDbEntity
  8
レイヤー_1
  6
CONTINUOUS
 62
       3
100
AcDbLine
 10
-29.85413698
 20
-44.14193557
 30
0.0
 11
-29.69445476
 21
-43.98901158
 31
0.0
  0
LINE
  5
285
100
AcDbEntity
  8
レイヤー_1
  6
CONTINUOUS
 62
       3
100
AcDbLine
 10
-29.69445476
 20
-43.98901158
 30
0.0
 11
-29.54865177
 21
-43.82269933
 31
0.0
  0
LINE
  5
286
100
AcDbEntity
  8
レイヤー_1
  6
CONTINUOUS
 62
       3
100
AcDbLine
 10
-29.54865177
 20
-43.82269933
 30
0.0
 11
-29.41769496
 21
-43.64396882
 31
0.0
  0
LINE
  5
287
100
AcDbEntity
  8
レイヤー_1
  6
CONTINUOUS
 62
       3
100
AcDbLine
 10
-29.41769496
 20
-43.64396882
 30
0.0
 11
-29.30255125
 21
-43.45379006
 31
0.0
  0
LINE
  5
288
100
AcDbEntity
  8
レイヤー_1
  6
CONTINUOUS
 62
       3
100
AcDbLine
 10
-29.30255125
 20
-43.45379006
 30
0.0
 11
-29.20418756
 21
-43.25313308
 31
0.0
  0
LINE
  5
289
100
AcDbEntity
  8
レイヤー_1
  6
CONTINUOUS
 62
       3
100
AcDbLine
 10
-29.20418756
 20
-43.25313308
 30
0.0
 11
-29.12357082
 21
-43.04296787
 31
0.0
  0
LINE
  5
28A
100
AcDbEntity
  8
レイヤー_1
  6
CONTINUOUS
 62
       3
100
AcDbLine
 10
-29.12357082
 20
-43.04296787
 30
0.0
 11
-29.06166794
 21
-42.82426445
 31
0.0
  0
LINE
  5
28B
100
AcDbEntity
  8
レイヤー_1
  6
CONTINUOUS
 62
       3
100
AcDbLine
 10
-29.06166794
 20
-42.82426445
 30
0.0
 11
-29.01944586
 21
-42.59799283
 31
0.0
  0
LINE
  5
28C
100
AcDbEntity
  8
レイヤー_1
  6
CONTINUOUS
 62
       3
100
AcDbLine
 10
-29.01944586
 20
-42.59799283
 30
0.0
 11
-28.99787151
 21
-42.36512302
 31
0.0
  0
LINE
  5
28D
100
AcDbEntity
  8
レイヤー_1
  6
CONTINUOUS
 62
       3
100
AcDbLine
 10
-28.99787151
 20
-42.36512302
 30
0.0
 11
-28.99787151
 21
-42.12788709
 31
0.0
  0
LINE
  5
28E
100
AcDbEntity
  8
レイヤー_1
  6
CONTINUOUS
 62
       3
100
AcDbLine
 10
-28.99787151
 20
-42.12788709
 30
0.0
 11
-29.01944586
 21
-41.89500275
 31
0.0
  0
LINE
  5
28F
100
AcDbEntity
  8
レイヤー_1
  6
CONTINUOUS
 62
       3
100
AcDbLine
 10
-29.01944586
 20
-41.89500275
 30
0.0
 11
-29.06166794
 21
-41.66875632
 31
0.0
  0
LINE
  5
290
100
AcDbEntity
  8
レイヤー_1
  6
CONTINUOUS
 62
       3
100
AcDbLine
 10
-29.06166794
 20
-41.66875632
 30
0.0
 11
-29.12357082
 21
-41.45011282
 31
0.0
  0
LINE
  5
291
100
AcDbEntity
  8
レイヤー_1
  6
CONTINUOUS
 62
       3
100
AcDbLine
 10
-29.12357082
 20
-41.45011282
 30
0.0
 11
-29.20418756
 21
-41.24003722
 31
0.0
  0
LINE
  5
292
100
AcDbEntity
  8
レイヤー_1
  6
CONTINUOUS
 62
       3
100
AcDbLine
 10
-29.20418756
 20
-41.24003722
 30
0.0
 11
-29.30255125
 21
-41.03949452
 31
0.0
  0
LINE
  5
293
100
AcDbEntity
  8
レイヤー_1
  6
CONTINUOUS
 62
       3
100
AcDbLine
 10
-29.30255125
 20
-41.03949452
 30
0.0
 11
-29.41769496
 21
-40.84944973
 31
0.0
  0
LINE
  5
294
100
AcDbEntity
  8
レイヤー_1
  6
CONTINUOUS
 62
       3
100
AcDbLine
 10
-29.41769496
 20
-40.84944973
 30
0.0
 11
-29.54865177
 21
-40.67086784
 31
0.0
  0
LINE
  5
295
100
AcDbEntity
  8
レイヤー_1
  6
CONTINUOUS
 62
       3
100
AcDbLine
 10
-29.54865177
 20
-40.67086784
 30
0.0
 11
-29.69445476
 21
-40.50471385
 31
0.0
  0
LINE
  5
296
100
AcDbEntity
  8
レイヤー_1
  6
CONTINUOUS
 62
       3
100
AcDbLine
 10
-29.69445476
 20
-40.50471385
 30
0.0
 11
-29.85413698
 21
-40.35195275
 31
0.0
  0
LINE
  5
297
100
AcDbEntity
  8
レイヤー_1
  6
CONTINUOUS
 62
       3
100
AcDbLine
 10
-29.85413698
 20
-40.35195275
 30
0.0
 11
-30.02673154
 21
-40.21354953
 31
0.0
  0
LINE
  5
298
100
AcDbEntity
  8
レイヤー_1
  6
CONTINUOUS
 62
       3
100
AcDbLine
 10
-30.02673154
 20
-40.21354953
 30
0.0
 11
-30.21127148
 21
-40.09046921
 31
0.0
  0
LINE
  5
299
100
AcDbEntity
  8
レイヤー_1
  6
CONTINUOUS
 62
       3
100
AcDbLine
 10
-30.21127148
 20
-40.09046921
 30
0.0
 11
-30.40678991
 21
-39.98367676
 31
0.0
  0
LINE
  5
29A
100
AcDbEntity
  8
レイヤー_1
  6
CONTINUOUS
 62
       3
100
AcDbLine
 10
-30.40678991
 20
-39.98367676
 30
0.0
 11
-30.61231987
 21
-39.89413719
 31
0.0
  0
LINE
  5
29B
100
AcDbEntity
  8
レイヤー_1
  6
CONTINUOUS
 62
       3
100
AcDbLine
 10
-30.61231987
 20
-39.89413719
 30
0.0
 11
-30.82689447
 21
-39.82281549
 31
0.0
  0
LINE
  5
29C
100
AcDbEntity
  8
レイヤー_1
  6
CONTINUOUS
 62
       3
100
AcDbLine
 10
-30.82689447
 20
-39.82281549
 30
0.0
 11
-31.04954676
 21
-39.77067666
 31
0.0
  0
LINE
  5
29D
100
AcDbEntity
  8
レイヤー_1
  6
CONTINUOUS
 62
       3
100
AcDbLine
 10
-31.04954676
 20
-39.77067666
 30
0.0
 11
-31.27930982
 21
-39.7386857
 31
0.0
  0
LINE
  5
29E
100
AcDbEntity
  8
レイヤー_1
  6
CONTINUOUS
 62
       3
100
AcDbLine
 10
-31.27930982
 20
-39.7386857
 30
0.0
 11
-31.51521673
 21
-39.72780761
 31
0.0
  0
LINE
  5
29F
100
AcDbEntity
  8
レイヤー_1
  6
CONTINUOUS
 62
       3
100
AcDbLine
 10
-38.71477728
 20
-39.72780761
 30
0.0
 11
-38.9506777
 21
-39.7386857
 31
0.0
  0
LINE
  5
2A0
100
AcDbEntity
  8
レイヤー_1
  6
CONTINUOUS
 62
       3
100
AcDbLine
 10
-38.9506777
 20
-39.7386857
 30
0.0
 11
-39.18042232
 21
-39.77067666
 31
0.0
  0
LINE
  5
2A1
100
AcDbEntity
  8
レイヤー_1
  6
CONTINUOUS
 62
       3
100
AcDbLine
 10
-39.18042232
 20
-39.77067666
 30
0.0
 11
-39.40304574
 21
-39.82281549
 31
0.0
  0
LINE
  5
2A2
100
AcDbEntity
  8
レイヤー_1
  6
CONTINUOUS
 62
       3
100
AcDbLine
 10
-39.40304574
 20
-39.82281549
 30
0.0
 11
-39.6175826
 21
-39.89413719
 31
0.0
  0
LINE
  5
2A3
100
AcDbEntity
  8
レイヤー_1
  6
CONTINUOUS
 62
       3
100
AcDbLine
 10
-39.6175826
 20
-39.89413719
 30
0.0
 11
-39.82306751
 21
-39.98367676
 31
0.0
  0
LINE
  5
2A4
100
AcDbEntity
  8
レイヤー_1
  6
CONTINUOUS
 62
       3
100
AcDbLine
 10
-39.82306751
 20
-39.98367676
 30
0.0
 11
-40.01853509
 21
-40.09046921
 31
0.0
  0
LINE
  5
2A5
100
AcDbEntity
  8
レイヤー_1
  6
CONTINUOUS
 62
       3
100
AcDbLine
 10
-40.01853509
 20
-40.09046921
 30
0.0
 11
-40.20301994
 21
-40.21354953
 31
0.0
  0
LINE
  5
2A6
100
AcDbEntity
  8
レイヤー_1
  6
CONTINUOUS
 62
       3
100
AcDbLine
 10
-40.20301994
 20
-40.21354953
 30
0.0
 11
-40.37555671
 21
-40.35195275
 31
0.0
  0
LINE
  5
2A7
100
AcDbEntity
  8
レイヤー_1
  6
CONTINUOUS
 62
       3
100
AcDbLine
 10
-40.37555671
 20
-40.35195275
 30
0.0
 11
-40.53517999
 21
-40.50471385
 31
0.0
  0
LINE
  5
2A8
100
AcDbEntity
  8
レイヤー_1
  6
CONTINUOUS
 62
       3
100
AcDbLine
 10
-40.53517999
 20
-40.50471385
 30
0.0
 11
-40.68092441
 21
-40.67086784
 31
0.0
  0
LINE
  5
2A9
100
AcDbEntity
  8
レイヤー_1
  6
CONTINUOUS
 62
       3
100
AcDbLine
 10
-40.68092441
 20
-40.67086784
 30
0.0
 11
-40.81182459
 21
-40.84944973
 31
0.0
  0
LINE
  5
2AA
100
AcDbEntity
  8
レイヤー_1
  6
CONTINUOUS
 62
       3
100
AcDbLine
 10
-40.81182459
 20
-40.84944973
 30
0.0
 11
-40.92691514
 21
-41.03949452
 31
0.0
  0
LINE
  5
2AB
100
AcDbEntity
  8
レイヤー_1
  6
CONTINUOUS
 62
       3
100
AcDbLine
 10
-40.92691514
 20
-41.03949452
 30
0.0
 11
-41.02523068
 21
-41.24003722
 31
0.0
  0
LINE
  5
2AC
100
AcDbEntity
  8
レイヤー_1
  6
CONTINUOUS
 62
       3
100
AcDbLine
 10
-41.02523068
 20
-41.24003722
 30
0.0
 11
-41.10580584
 21
-41.45011282
 31
0.0
  0
LINE
  5
2AD
100
AcDbEntity
  8
レイヤー_1
  6
CONTINUOUS
 62
       3
100
AcDbLine
 10
-41.10580584
 20
-41.45011282
 30
0.0
 11
-41.16767522
 21
-41.66875632
 31
0.0
  0
LINE
  5
2AE
100
AcDbEntity
  8
レイヤー_1
  6
CONTINUOUS
 62
       3
100
AcDbLine
 10
-41.16767522
 20
-41.66875632
 30
0.0
 11
-41.20987345
 21
-41.89500275
 31
0.0
  0
LINE
  5
2AF
100
AcDbEntity
  8
レイヤー_1
  6
CONTINUOUS
 62
       3
100
AcDbLine
 10
-41.20987345
 20
-41.89500275
 30
0.0
 11
-41.23143514
 21
-42.12788709
 31
0.0
  0
LINE
  5
2B0
100
AcDbEntity
  8
レイヤー_1
  6
CONTINUOUS
 62
       3
100
AcDbLine
 10
-41.23143514
 20
-42.12788709
 30
0.0
 11
-41.23143514
 21
-42.36512302
 31
0.0
  0
LINE
  5
2B1
100
AcDbEntity
  8
レイヤー_1
  6
CONTINUOUS
 62
       3
100
AcDbLine
 10
-41.23143514
 20
-42.36512302
 30
0.0
 11
-41.20987345
 21
-42.59799283
 31
0.0
  0
LINE
  5
2B2
100
AcDbEntity
  8
レイヤー_1
  6
CONTINUOUS
 62
       3
100
AcDbLine
 10
-41.20987345
 20
-42.59799283
 30
0.0
 11
-41.16767522
 21
-42.82426445
 31
0.0
  0
LINE
  5
2B3
100
AcDbEntity
  8
レイヤー_1
  6
CONTINUOUS
 62
       3
100
AcDbLine
 10
-41.16767522
 20
-42.82426445
 30
0.0
 11
-41.10580584
 21
-43.04296787
 31
0.0
  0
LINE
  5
2B4
100
AcDbEntity
  8
レイヤー_1
  6
CONTINUOUS
 62
       3
100
AcDbLine
 10
-41.10580584
 20
-43.04296787
 30
0.0
 11
-41.02523068
 21
-43.25313308
 31
0.0
  0
LINE
  5
2B5
100
AcDbEntity
  8
レイヤー_1
  6
CONTINUOUS
 62
       3
100
AcDbLine
 10
-41.02523068
 20
-43.25313308
 30
0.0
 11
-40.92691514
 21
-43.45379006
 31
0.0
  0
LINE
  5
2B6
100
AcDbEntity
  8
レイヤー_1
  6
CONTINUOUS
 62
       3
100
AcDbLine
 10
-40.92691514
 20
-43.45379006
 30
0.0
 11
-40.81182459
 21
-43.64396882
 31
0.0
  0
LINE
  5
2B7
100
AcDbEntity
  8
レイヤー_1
  6
CONTINUOUS
 62
       3
100
AcDbLine
 10
-40.81182459
 20
-43.64396882
 30
0.0
 11
-40.68092441
 21
-43.82269933
 31
0.0
  0
LINE
  5
2B8
100
AcDbEntity
  8
レイヤー_1
  6
CONTINUOUS
 62
       3
100
AcDbLine
 10
-40.68092441
 20
-43.82269933
 30
0.0
 11
-40.53517999
 21
-43.98901158
 31
0.0
  0
LINE
  5
2B9
100
AcDbEntity
  8
レイヤー_1
  6
CONTINUOUS
 62
       3
100
AcDbLine
 10
-40.53517999
 20
-43.98901158
 30
0.0
 11
-40.37555671
 21
-44.14193557
 31
0.0
  0
LINE
  5
2BA
100
AcDbEntity
  8
レイヤー_1
  6
CONTINUOUS
 62
       3
100
AcDbLine
 10
-40.37555671
 20
-44.14193557
 30
0.0
 11
-40.20301994
 21
-44.28050129
 31
0.0
  0
LINE
  5
2BB
100
AcDbEntity
  8
レイヤー_1
  6
CONTINUOUS
 62
       3
100
AcDbLine
 10
-40.20301994
 20
-44.28050129
 30
0.0
 11
-40.01853509
 21
-44.40373872
 31
0.0
  0
LINE
  5
2BC
100
AcDbEntity
  8
レイヤー_1
  6
CONTINUOUS
 62
       3
100
AcDbLine
 10
-40.01853509
 20
-44.40373872
 30
0.0
 11
-39.82306751
 21
-44.51067786
 31
0.0
  0
LINE
  5
2BD
100
AcDbEntity
  8
レイヤー_1
  6
CONTINUOUS
 62
       3
100
AcDbLine
 10
-39.82306751
 20
-44.51067786
 30
0.0
 11
-39.6175826
 21
-44.6003487
 31
0.0
  0
LINE
  5
2BE
100
AcDbEntity
  8
レイヤー_1
  6
CONTINUOUS
 62
       3
100
AcDbLine
 10
-39.6175826
 20
-44.6003487
 30
0.0
 11
-39.40304574
 21
-44.67178121
 31
0.0
  0
LINE
  5
2BF
100
AcDbEntity
  8
レイヤー_1
  6
CONTINUOUS
 62
       3
100
AcDbLine
 10
-39.40304574
 20
-44.67178121
 30
0.0
 11
-39.18042232
 21
-44.72400541
 31
0.0
  0
LINE
  5
2C0
100
AcDbEntity
  8
レイヤー_1
  6
CONTINUOUS
 62
       3
100
AcDbLine
 10
-39.18042232
 20
-44.72400541
 30
0.0
 11
-38.9506777
 21
-44.75605126
 31
0.0
  0
LINE
  5
2C1
100
AcDbEntity
  8
レイヤー_1
  6
CONTINUOUS
 62
       3
100
AcDbLine
 10
-38.9506777
 20
-44.75605126
 30
0.0
 11
-38.71477728
 21
-44.76694877
 31
0.0
  0
LINE
  5
2C2
100
AcDbEntity
  8
レイヤー_1
  6
CONTINUOUS
 62
       3
100
AcDbLine
 10
-38.71477728
 20
-44.76694877
 30
0.0
 11
-38.47897862
 21
-44.75605126
 31
0.0
  0
LINE
  5
2C3
100
AcDbEntity
  8
レイヤー_1
  6
CONTINUOUS
 62
       3
100
AcDbLine
 10
-38.47897862
 20
-44.75605126
 30
0.0
 11
-38.2493051
 21
-44.72400541
 31
0.0
  0
LINE
  5
2C4
100
AcDbEntity
  8
レイヤー_1
  6
CONTINUOUS
 62
       3
100
AcDbLine
 10
-38.2493051
 20
-44.72400541
 30
0.0
 11
-38.02672519
 21
-44.67178121
 31
0.0
  0
LINE
  5
2C5
100
AcDbEntity
  8
レイヤー_1
  6
CONTINUOUS
 62
       3
100
AcDbLine
 10
-38.02672519
 20
-44.67178121
 30
0.0
 11
-37.81220736
 21
-44.6003487
 31
0.0
  0
LINE
  5
2C6
100
AcDbEntity
  8
レイヤー_1
  6
CONTINUOUS
 62
       3
100
AcDbLine
 10
-37.81220736
 20
-44.6003487
 30
0.0
 11
-37.60672007
 21
-44.51067786
 31
0.0
  0
LINE
  5
2C7
100
AcDbEntity
  8
レイヤー_1
  6
CONTINUOUS
 62
       3
100
AcDbLine
 10
-37.60672007
 20
-44.51067786
 30
0.0
 11
-37.4112318
 21
-44.40373872
 31
0.0
  0
LINE
  5
2C8
100
AcDbEntity
  8
レイヤー_1
  6
CONTINUOUS
 62
       3
100
AcDbLine
 10
-37.4112318
 20
-44.40373872
 30
0.0
 11
-37.226711
 21
-44.28050129
 31
0.0
  0
LINE
  5
2C9
100
AcDbEntity
  8
レイヤー_1
  6
CONTINUOUS
 62
       3
100
AcDbLine
 10
-37.226711
 20
-44.28050129
 30
0.0
 11
-37.05412616
 21
-44.14193557
 31
0.0
  0
LINE
  5
2CA
100
AcDbEntity
  8
レイヤー_1
  6
CONTINUOUS
 62
       3
100
AcDbLine
 10
-37.05412616
 20
-44.14193557
 30
0.0
 11
-36.89444573
 21
-43.98901158
 31
0.0
  0
LINE
  5
2CB
100
AcDbEntity
  8
レイヤー_1
  6
CONTINUOUS
 62
       3
100
AcDbLine
 10
-36.89444573
 20
-43.98901158
 30
0.0
 11
-36.74863819
 21
-43.82269933
 31
0.0
  0
LINE
  5
2CC
100
AcDbEntity
  8
レイヤー_1
  6
CONTINUOUS
 62
       3
100
AcDbLine
 10
-36.74863819
 20
-43.82269933
 30
0.0
 11
-36.61767199
 21
-43.64396882
 31
0.0
  0
LINE
  5
2CD
100
AcDbEntity
  8
レイヤー_1
  6
CONTINUOUS
 62
       3
100
AcDbLine
 10
-36.61767199
 20
-43.64396882
 30
0.0
 11
-36.50251561
 21
-43.45379006
 31
0.0
  0
LINE
  5
2CE
100
AcDbEntity
  8
レイヤー_1
  6
CONTINUOUS
 62
       3
100
AcDbLine
 10
-36.50251561
 20
-43.45379006
 30
0.0
 11
-36.40413752
 21
-43.25313308
 31
0.0
  0
LINE
  5
2CF
100
AcDbEntity
  8
レイヤー_1
  6
CONTINUOUS
 62
       3
100
AcDbLine
 10
-36.40413752
 20
-43.25313308
 30
0.0
 11
-36.32350619
 21
-43.04296787
 31
0.0
  0
LINE
  5
2D0
100
AcDbEntity
  8
レイヤー_1
  6
CONTINUOUS
 62
       3
100
AcDbLine
 10
-36.32350619
 20
-43.04296787
 30
0.0
 11
-36.26159007
 21
-42.82426445
 31
0.0
  0
LINE
  5
2D1
100
AcDbEntity
  8
レイヤー_1
  6
CONTINUOUS
 62
       3
100
AcDbLine
 10
-36.26159007
 20
-42.82426445
 30
0.0
 11
-36.21935764
 21
-42.59799283
 31
0.0
  0
LINE
  5
2D2
100
AcDbEntity
  8
レイヤー_1
  6
CONTINUOUS
 62
       3
100
AcDbLine
 10
-36.21935764
 20
-42.59799283
 30
0.0
 11
-36.19777737
 21
-42.36512302
 31
0.0
  0
LINE
  5
2D3
100
AcDbEntity
  8
レイヤー_1
  6
CONTINUOUS
 62
       3
100
AcDbLine
 10
-36.19777737
 20
-42.36512302
 30
0.0
 11
-36.19777737
 21
-42.12788709
 31
0.0
  0
LINE
  5
2D4
100
AcDbEntity
  8
レイヤー_1
  6
CONTINUOUS
 62
       3
100
AcDbLine
 10
-36.19777737
 20
-42.12788709
 30
0.0
 11
-36.21935764
 21
-41.89500275
 31
0.0
  0
LINE
  5
2D5
100
AcDbEntity
  8
レイヤー_1
  6
CONTINUOUS
 62
       3
100
AcDbLine
 10
-36.21935764
 20
-41.89500275
 30
0.0
 11
-36.26159007
 21
-41.66875632
 31
0.0
  0
LINE
  5
2D6
100
AcDbEntity
  8
レイヤー_1
  6
CONTINUOUS
 62
       3
100
AcDbLine
 10
-36.26159007
 20
-41.66875632
 30
0.0
 11
-36.32350619
 21
-41.45011282
 31
0.0
  0
LINE
  5
2D7
100
AcDbEntity
  8
レイヤー_1
  6
CONTINUOUS
 62
       3
100
AcDbLine
 10
-36.32350619
 20
-41.45011282
 30
0.0
 11
-36.40413752
 21
-41.24003722
 31
0.0
  0
LINE
  5
2D8
100
AcDbEntity
  8
レイヤー_1
  6
CONTINUOUS
 62
       3
100
AcDbLine
 10
-36.40413752
 20
-41.24003722
 30
0.0
 11
-36.50251561
 21
-41.03949452
 31
0.0
  0
LINE
  5
2D9
100
AcDbEntity
  8
レイヤー_1
  6
CONTINUOUS
 62
       3
100
AcDbLine
 10
-36.50251561
 20
-41.03949452
 30
0.0
 11
-36.61767199
 21
-40.84944973
 31
0.0
  0
LINE
  5
2DA
100
AcDbEntity
  8
レイヤー_1
  6
CONTINUOUS
 62
       3
100
AcDbLine
 10
-36.61767199
 20
-40.84944973
 30
0.0
 11
-36.74863819
 21
-40.67086784
 31
0.0
  0
LINE
  5
2DB
100
AcDbEntity
  8
レイヤー_1
  6
CONTINUOUS
 62
       3
100
AcDbLine
 10
-36.74863819
 20
-40.67086784
 30
0.0
 11
-36.89444573
 21
-40.50471385
 31
0.0
  0
LINE
  5
2DC
100
AcDbEntity
  8
レイヤー_1
  6
CONTINUOUS
 62
       3
100
AcDbLine
 10
-36.89444573
 20
-40.50471385
 30
0.0
 11
-37.05412616
 21
-40.35195275
 31
0.0
  0
LINE
  5
2DD
100
AcDbEntity
  8
レイヤー_1
  6
CONTINUOUS
 62
       3
100
AcDbLine
 10
-37.05412616
 20
-40.35195275
 30
0.0
 11
-37.226711
 21
-40.21354953
 31
0.0
  0
LINE
  5
2DE
100
AcDbEntity
  8
レイヤー_1
  6
CONTINUOUS
 62
       3
100
AcDbLine
 10
-37.226711
 20
-40.21354953
 30
0.0
 11
-37.4112318
 21
-40.09046921
 31
0.0
  0
LINE
  5
2DF
100
AcDbEntity
  8
レイヤー_1
  6
CONTINUOUS
 62
       3
100
AcDbLine
 10
-37.4112318
 20
-40.09046921
 30
0.0
 11
-37.60672007
 21
-39.98367676
 31
0.0
  0
LINE
  5
2E0
100
AcDbEntity
  8
レイヤー_1
  6
CONTINUOUS
 62
       3
100
AcDbLine
 10
-37.60672007
 20
-39.98367676
 30
0.0
 11
-37.81220736
 21
-39.89413719
 31
0.0
  0
LINE
  5
2E1
100
AcDbEntity
  8
レイヤー_1
  6
CONTINUOUS
 62
       3
100
AcDbLine
 10
-37.81220736
 20
-39.89413719
 30
0.0
 11
-38.02672519
 21
-39.82281549
 31
0.0
  0
LINE
  5
2E2
100
AcDbEntity
  8
レイヤー_1
  6
CONTINUOUS
 62
       3
100
AcDbLine
 10
-38.02672519
 20
-39.82281549
 30
0.0
 11
-38.2493051
 21
-39.77067666
 31
0.0
  0
LINE
  5
2E3
100
AcDbEntity
  8
レイヤー_1
  6
CONTINUOUS
 62
       3
100
AcDbLine
 10
-38.2493051
 20
-39.77067666
 30
0.0
 11
-38.47897862
 21
-39.7386857
 31
0.0
  0
LINE
  5
2E4
100
AcDbEntity
  8
レイヤー_1
  6
CONTINUOUS
 62
       3
100
AcDbLine
 10
-38.47897862
 20
-39.7386857
 30
0.0
 11
-38.71477728
 21
-39.72780761
 31
0.0
  0
LINE
  5
2E5
100
AcDbEntity
  8
レイヤー_1
  6
CONTINUOUS
 62
       3
100
AcDbLine
 10
-45.91433782
 20
-39.72780761
 30
0.0
 11
-46.15008723
 21
-39.7386857
 31
0.0
  0
LINE
  5
2E6
100
AcDbEntity
  8
レイヤー_1
  6
CONTINUOUS
 62
       3
100
AcDbLine
 10
-46.15008723
 20
-39.7386857
 30
0.0
 11
-46.37972982
 21
-39.77067666
 31
0.0
  0
LINE
  5
2E7
100
AcDbEntity
  8
レイヤー_1
  6
CONTINUOUS
 62
       3
100
AcDbLine
 10
-46.37972982
 20
-39.77067666
 30
0.0
 11
-46.60229518
 21
-39.82281549
 31
0.0
  0
LINE
  5
2E8
100
AcDbEntity
  8
レイヤー_1
  6
CONTINUOUS
 62
       3
100
AcDbLine
 10
-46.60229518
 20
-39.82281549
 30
0.0
 11
-46.81681293
 21
-39.89413719
 31
0.0
  0
LINE
  5
2E9
100
AcDbEntity
  8
レイヤー_1
  6
CONTINUOUS
 62
       3
100
AcDbLine
 10
-46.81681293
 20
-39.89413719
 30
0.0
 11
-47.02231267
 21
-39.98367676
 31
0.0
  0
LINE
  5
2EA
100
AcDbEntity
  8
レイヤー_1
  6
CONTINUOUS
 62
       3
100
AcDbLine
 10
-47.02231267
 20
-39.98367676
 30
0.0
 11
-47.21782401
 21
-40.09046921
 31
0.0
  0
LINE
  5
2EB
100
AcDbEntity
  8
レイヤー_1
  6
CONTINUOUS
 62
       3
100
AcDbLine
 10
-47.21782401
 20
-40.09046921
 30
0.0
 11
-47.40237654
 21
-40.21354953
 31
0.0
  0
LINE
  5
2EC
100
AcDbEntity
  8
レイヤー_1
  6
CONTINUOUS
 62
       3
100
AcDbLine
 10
-47.40237654
 20
-40.21354953
 30
0.0
 11
-47.57499987
 21
-40.35195275
 31
0.0
  0
LINE
  5
2ED
100
AcDbEntity
  8
レイヤー_1
  6
CONTINUOUS
 62
       3
100
AcDbLine
 10
-47.57499987
 20
-40.35195275
 30
0.0
 11
-47.73472361
 21
-40.50471385
 31
0.0
  0
LINE
  5
2EE
100
AcDbEntity
  8
レイヤー_1
  6
CONTINUOUS
 62
       3
100
AcDbLine
 10
-47.73472361
 20
-40.50471385
 30
0.0
 11
-47.88057736
 21
-40.67086784
 31
0.0
  0
LINE
  5
2EF
100
AcDbEntity
  8
レイヤー_1
  6
CONTINUOUS
 62
       3
100
AcDbLine
 10
-47.88057736
 20
-40.67086784
 30
0.0
 11
-48.01159072
 21
-40.84944973
 31
0.0
  0
LINE
  5
2F0
100
AcDbEntity
  8
レイヤー_1
  6
CONTINUOUS
 62
       3
100
AcDbLine
 10
-48.01159072
 20
-40.84944973
 30
0.0
 11
-48.1267933
 21
-41.03949452
 31
0.0
  0
LINE
  5
2F1
100
AcDbEntity
  8
レイヤー_1
  6
CONTINUOUS
 62
       3
100
AcDbLine
 10
-48.1267933
 20
-41.03949452
 30
0.0
 11
-48.2252147
 21
-41.24003722
 31
0.0
  0
LINE
  5
2F2
100
AcDbEntity
  8
レイヤー_1
  6
CONTINUOUS
 62
       3
100
AcDbLine
 10
-48.2252147
 20
-41.24003722
 30
0.0
 11
-48.30588453
 21
-41.45011282
 31
0.0
  0
LINE
  5
2F3
100
AcDbEntity
  8
レイヤー_1
  6
CONTINUOUS
 62
       3
100
AcDbLine
 10
-48.30588453
 20
-41.45011282
 30
0.0
 11
-48.36783238
 21
-41.66875632
 31
0.0
  0
LINE
  5
2F4
100
AcDbEntity
  8
レイヤー_1
  6
CONTINUOUS
 62
       3
100
AcDbLine
 10
-48.36783238
 20
-41.66875632
 30
0.0
 11
-48.41008787
 21
-41.89500275
 31
0.0
  0
LINE
  5
2F5
100
AcDbEntity
  8
レイヤー_1
  6
CONTINUOUS
 62
       3
100
AcDbLine
 10
-48.41008787
 20
-41.89500275
 30
0.0
 11
-48.43168059
 21
-42.12788709
 31
0.0
  0
LINE
  5
2F6
100
AcDbEntity
  8
レイヤー_1
  6
CONTINUOUS
 62
       3
100
AcDbLine
 10
-48.43168059
 20
-42.12788709
 30
0.0
 11
-48.43168059
 21
-42.36512302
 31
0.0
  0
LINE
  5
2F7
100
AcDbEntity
  8
レイヤー_1
  6
CONTINUOUS
 62
       3
100
AcDbLine
 10
-48.43168059
 20
-42.36512302
 30
0.0
 11
-48.41008787
 21
-42.59799283
 31
0.0
  0
LINE
  5
2F8
100
AcDbEntity
  8
レイヤー_1
  6
CONTINUOUS
 62
       3
100
AcDbLine
 10
-48.41008787
 20
-42.59799283
 30
0.0
 11
-48.36783238
 21
-42.82426445
 31
0.0
  0
LINE
  5
2F9
100
AcDbEntity
  8
レイヤー_1
  6
CONTINUOUS
 62
       3
100
AcDbLine
 10
-48.36783238
 20
-42.82426445
 30
0.0
 11
-48.30588453
 21
-43.04296787
 31
0.0
  0
LINE
  5
2FA
100
AcDbEntity
  8
レイヤー_1
  6
CONTINUOUS
 62
       3
100
AcDbLine
 10
-48.30588453
 20
-43.04296787
 30
0.0
 11
-48.2252147
 21
-43.25313308
 31
0.0
  0
LINE
  5
2FB
100
AcDbEntity
  8
レイヤー_1
  6
CONTINUOUS
 62
       3
100
AcDbLine
 10
-48.2252147
 20
-43.25313308
 30
0.0
 11
-48.1267933
 21
-43.45379006
 31
0.0
  0
LINE
  5
2FC
100
AcDbEntity
  8
レイヤー_1
  6
CONTINUOUS
 62
       3
100
AcDbLine
 10
-48.1267933
 20
-43.45379006
 30
0.0
 11
-48.01159072
 21
-43.64396882
 31
0.0
  0
LINE
  5
2FD
100
AcDbEntity
  8
レイヤー_1
  6
CONTINUOUS
 62
       3
100
AcDbLine
 10
-48.01159072
 20
-43.64396882
 30
0.0
 11
-47.88057736
 21
-43.82269933
 31
0.0
  0
LINE
  5
2FE
100
AcDbEntity
  8
レイヤー_1
  6
CONTINUOUS
 62
       3
100
AcDbLine
 10
-47.88057736
 20
-43.82269933
 30
0.0
 11
-47.73472361
 21
-43.98901158
 31
0.0
  0
LINE
  5
2FF
100
AcDbEntity
  8
レイヤー_1
  6
CONTINUOUS
 62
       3
100
AcDbLine
 10
-47.73472361
 20
-43.98901158
 30
0.0
 11
-47.57499987
 21
-44.14193557
 31
0.0
  0
LINE
  5
300
100
AcDbEntity
  8
レイヤー_1
  6
CONTINUOUS
 62
       3
100
AcDbLine
 10
-47.57499987
 20
-44.14193557
 30
0.0
 11
-47.40237654
 21
-44.28050129
 31
0.0
  0
LINE
  5
301
100
AcDbEntity
  8
レイヤー_1
  6
CONTINUOUS
 62
       3
100
AcDbLine
 10
-47.40237654
 20
-44.28050129
 30
0.0
 11
-47.21782401
 21
-44.40373872
 31
0.0
  0
LINE
  5
302
100
AcDbEntity
  8
レイヤー_1
  6
CONTINUOUS
 62
       3
100
AcDbLine
 10
-47.21782401
 20
-44.40373872
 30
0.0
 11
-47.02231267
 21
-44.51067786
 31
0.0
  0
LINE
  5
303
100
AcDbEntity
  8
レイヤー_1
  6
CONTINUOUS
 62
       3
100
AcDbLine
 10
-47.02231267
 20
-44.51067786
 30
0.0
 11
-46.81681293
 21
-44.6003487
 31
0.0
  0
LINE
  5
304
100
AcDbEntity
  8
レイヤー_1
  6
CONTINUOUS
 62
       3
100
AcDbLine
 10
-46.81681293
 20
-44.6003487
 30
0.0
 11
-46.60229518
 21
-44.67178121
 31
0.0
  0
LINE
  5
305
100
AcDbEntity
  8
レイヤー_1
  6
CONTINUOUS
 62
       3
100
AcDbLine
 10
-46.60229518
 20
-44.67178121
 30
0.0
 11
-46.37972982
 21
-44.72400541
 31
0.0
  0
LINE
  5
306
100
AcDbEntity
  8
レイヤー_1
  6
CONTINUOUS
 62
       3
100
AcDbLine
 10
-46.37972982
 20
-44.72400541
 30
0.0
 11
-46.15008723
 21
-44.75605126
 31
0.0
  0
LINE
  5
307
100
AcDbEntity
  8
レイヤー_1
  6
CONTINUOUS
 62
       3
100
AcDbLine
 10
-46.15008723
 20
-44.75605126
 30
0.0
 11
-45.91433782
 21
-44.76694877
 31
0.0
  0
LINE
  5
308
100
AcDbEntity
  8
レイヤー_1
  6
CONTINUOUS
 62
       3
100
AcDbLine
 10
-45.91433782
 20
-44.76694877
 30
0.0
 11
-45.67853267
 21
-44.75605126
 31
0.0
  0
LINE
  5
309
100
AcDbEntity
  8
レイヤー_1
  6
CONTINUOUS
 62
       3
100
AcDbLine
 10
-45.67853267
 20
-44.75605126
 30
0.0
 11
-45.4488407
 21
-44.72400541
 31
0.0
  0
LINE
  5
30A
100
AcDbEntity
  8
レイヤー_1
  6
CONTINUOUS
 62
       3
100
AcDbLine
 10
-45.4488407
 20
-44.72400541
 30
0.0
 11
-45.22623193
 21
-44.67178121
 31
0.0
  0
LINE
  5
30B
100
AcDbEntity
  8
レイヤー_1
  6
CONTINUOUS
 62
       3
100
AcDbLine
 10
-45.22623193
 20
-44.67178121
 30
0.0
 11
-45.01167636
 21
-44.6003487
 31
0.0
  0
LINE
  5
30C
100
AcDbEntity
  8
レイヤー_1
  6
CONTINUOUS
 62
       3
100
AcDbLine
 10
-45.01167636
 20
-44.6003487
 30
0.0
 11
-44.80614402
 21
-44.51067786
 31
0.0
  0
LINE
  5
30D
100
AcDbEntity
  8
レイヤー_1
  6
CONTINUOUS
 62
       3
100
AcDbLine
 10
-44.80614402
 20
-44.51067786
 30
0.0
 11
-44.6106049
 21
-44.40373872
 31
0.0
  0
LINE
  5
30E
100
AcDbEntity
  8
レイヤー_1
  6
CONTINUOUS
 62
       3
100
AcDbLine
 10
-44.6106049
 20
-44.40373872
 30
0.0
 11
-44.42602901
 21
-44.28050129
 31
0.0
  0
LINE
  5
30F
100
AcDbEntity
  8
レイヤー_1
  6
CONTINUOUS
 62
       3
100
AcDbLine
 10
-44.42602901
 20
-44.28050129
 30
0.0
 11
-44.25338638
 21
-44.14193557
 31
0.0
  0
LINE
  5
310
100
AcDbEntity
  8
レイヤー_1
  6
CONTINUOUS
 62
       3
100
AcDbLine
 10
-44.25338638
 20
-44.14193557
 30
0.0
 11
-44.09364701
 21
-43.98901158
 31
0.0
  0
LINE
  5
311
100
AcDbEntity
  8
レイヤー_1
  6
CONTINUOUS
 62
       3
100
AcDbLine
 10
-44.09364701
 20
-43.98901158
 30
0.0
 11
-43.9477809
 21
-43.82269933
 31
0.0
  0
LINE
  5
312
100
AcDbEntity
  8
レイヤー_1
  6
CONTINUOUS
 62
       3
100
AcDbLine
 10
-43.9477809
 20
-43.82269933
 30
0.0
 11
-43.81675807
 21
-43.64396882
 31
0.0
  0
LINE
  5
313
100
AcDbEntity
  8
レイヤー_1
  6
CONTINUOUS
 62
       3
100
AcDbLine
 10
-43.81675807
 20
-43.64396882
 30
0.0
 11
-43.70154854
 21
-43.45379006
 31
0.0
  0
LINE
  5
314
100
AcDbEntity
  8
レイヤー_1
  6
CONTINUOUS
 62
       3
100
AcDbLine
 10
-43.70154854
 20
-43.45379006
 30
0.0
 11
-43.6031223
 21
-43.25313308
 31
0.0
  0
LINE
  5
315
100
AcDbEntity
  8
レイヤー_1
  6
CONTINUOUS
 62
       3
100
AcDbLine
 10
-43.6031223
 20
-43.25313308
 30
0.0
 11
-43.52244937
 21
-43.04296787
 31
0.0
  0
LINE
  5
316
100
AcDbEntity
  8
レイヤー_1
  6
CONTINUOUS
 62
       3
100
AcDbLine
 10
-43.52244937
 20
-43.04296787
 30
0.0
 11
-43.46049976
 21
-42.82426445
 31
0.0
  0
LINE
  5
317
100
AcDbEntity
  8
レイヤー_1
  6
CONTINUOUS
 62
       3
100
AcDbLine
 10
-43.46049976
 20
-42.82426445
 30
0.0
 11
-43.41824349
 21
-42.59799283
 31
0.0
  0
LINE
  5
318
100
AcDbEntity
  8
レイヤー_1
  6
CONTINUOUS
 62
       3
100
AcDbLine
 10
-43.41824349
 20
-42.59799283
 30
0.0
 11
-43.39665055
 21
-42.36512302
 31
0.0
  0
LINE
  5
319
100
AcDbEntity
  8
レイヤー_1
  6
CONTINUOUS
 62
       3
100
AcDbLine
 10
-43.39665055
 20
-42.36512302
 30
0.0
 11
-43.39665055
 21
-42.12788709
 31
0.0
  0
LINE
  5
31A
100
AcDbEntity
  8
レイヤー_1
  6
CONTINUOUS
 62
       3
100
AcDbLine
 10
-43.39665055
 20
-42.12788709
 30
0.0
 11
-43.41824349
 21
-41.89500275
 31
0.0
  0
LINE
  5
31B
100
AcDbEntity
  8
レイヤー_1
  6
CONTINUOUS
 62
       3
100
AcDbLine
 10
-43.41824349
 20
-41.89500275
 30
0.0
 11
-43.46049976
 21
-41.66875632
 31
0.0
  0
LINE
  5
31C
100
AcDbEntity
  8
レイヤー_1
  6
CONTINUOUS
 62
       3
100
AcDbLine
 10
-43.46049976
 20
-41.66875632
 30
0.0
 11
-43.52244937
 21
-41.45011282
 31
0.0
  0
LINE
  5
31D
100
AcDbEntity
  8
レイヤー_1
  6
CONTINUOUS
 62
       3
100
AcDbLine
 10
-43.52244937
 20
-41.45011282
 30
0.0
 11
-43.6031223
 21
-41.24003722
 31
0.0
  0
LINE
  5
31E
100
AcDbEntity
  8
レイヤー_1
  6
CONTINUOUS
 62
       3
100
AcDbLine
 10
-43.6031223
 20
-41.24003722
 30
0.0
 11
-43.70154854
 21
-41.03949452
 31
0.0
  0
LINE
  5
31F
100
AcDbEntity
  8
レイヤー_1
  6
CONTINUOUS
 62
       3
100
AcDbLine
 10
-43.70154854
 20
-41.03949452
 30
0.0
 11
-43.81675807
 21
-40.84944973
 31
0.0
  0
LINE
  5
320
100
AcDbEntity
  8
レイヤー_1
  6
CONTINUOUS
 62
       3
100
AcDbLine
 10
-43.81675807
 20
-40.84944973
 30
0.0
 11
-43.9477809
 21
-40.67086784
 31
0.0
  0
LINE
  5
321
100
AcDbEntity
  8
レイヤー_1
  6
CONTINUOUS
 62
       3
100
AcDbLine
 10
-43.9477809
 20
-40.67086784
 30
0.0
 11
-44.09364701
 21
-40.50471385
 31
0.0
  0
LINE
  5
322
100
AcDbEntity
  8
レイヤー_1
  6
CONTINUOUS
 62
       3
100
AcDbLine
 10
-44.09364701
 20
-40.50471385
 30
0.0
 11
-44.25338638
 21
-40.35195275
 31
0.0
  0
LINE
  5
323
100
AcDbEntity
  8
レイヤー_1
  6
CONTINUOUS
 62
       3
100
AcDbLine
 10
-44.25338638
 20
-40.35195275
 30
0.0
 11
-44.42602901
 21
-40.21354953
 31
0.0
  0
LINE
  5
324
100
AcDbEntity
  8
レイヤー_1
  6
CONTINUOUS
 62
       3
100
AcDbLine
 10
-44.42602901
 20
-40.21354953
 30
0.0
 11
-44.6106049
 21
-40.09046921
 31
0.0
  0
LINE
  5
325
100
AcDbEntity
  8
レイヤー_1
  6
CONTINUOUS
 62
       3
100
AcDbLine
 10
-44.6106049
 20
-40.09046921
 30
0.0
 11
-44.80614402
 21
-39.98367676
 31
0.0
  0
LINE
  5
326
100
AcDbEntity
  8
レイヤー_1
  6
CONTINUOUS
 62
       3
100
AcDbLine
 10
-44.80614402
 20
-39.98367676
 30
0.0
 11
-45.01167636
 21
-39.89413719
 31
0.0
  0
LINE
  5
327
100
AcDbEntity
  8
レイヤー_1
  6
CONTINUOUS
 62
       3
100
AcDbLine
 10
-45.01167636
 20
-39.89413719
 30
0.0
 11
-45.22623193
 21
-39.82281549
 31
0.0
  0
LINE
  5
328
100
AcDbEntity
  8
レイヤー_1
  6
CONTINUOUS
 62
       3
100
AcDbLine
 10
-45.22623193
 20
-39.82281549
 30
0.0
 11
-45.4488407
 21
-39.77067666
 31
0.0
  0
LINE
  5
329
100
AcDbEntity
  8
レイヤー_1
  6
CONTINUOUS
 62
       3
100
AcDbLine
 10
-45.4488407
 20
-39.77067666
 30
0.0
 11
-45.67853267
 21
-39.7386857
 31
0.0
  0
LINE
  5
32A
100
AcDbEntity
  8
レイヤー_1
  6
CONTINUOUS
 62
       3
100
AcDbLine
 10
-45.67853267
 20
-39.7386857
 30
0.0
 11
-45.91433782
 21
-39.72780761
 31
0.0
  0
LINE
  5
32B
100
AcDbEntity
  8
レイヤー_1
  6
CONTINUOUS
 62
       3
100
AcDbLine
 10
-53.11458739
 20
-39.72780761
 30
0.0
 11
-53.3503303
 21
-39.7386857
 31
0.0
  0
LINE
  5
32C
100
AcDbEntity
  8
レイヤー_1
  6
CONTINUOUS
 62
       3
100
AcDbLine
 10
-53.3503303
 20
-39.7386857
 30
0.0
 11
-53.57995444
 21
-39.77067666
 31
0.0
  0
LINE
  5
32D
100
AcDbEntity
  8
レイヤー_1
  6
CONTINUOUS
 62
       3
100
AcDbLine
 10
-53.57995444
 20
-39.77067666
 30
0.0
 11
-53.80249094
 21
-39.82281549
 31
0.0
  0
LINE
  5
32E
100
AcDbEntity
  8
レイヤー_1
  6
CONTINUOUS
 62
       3
100
AcDbLine
 10
-53.80249094
 20
-39.82281549
 30
0.0
 11
-54.01697096
 21
-39.89413719
 31
0.0
  0
LINE
  5
32F
100
AcDbEntity
  8
レイヤー_1
  6
CONTINUOUS
 62
       3
100
AcDbLine
 10
-54.01697096
 20
-39.89413719
 30
0.0
 11
-54.22242564
 21
-39.98367676
 31
0.0
  0
LINE
  5
330
100
AcDbEntity
  8
レイヤー_1
  6
CONTINUOUS
 62
       3
100
AcDbLine
 10
-54.22242564
 20
-39.98367676
 30
0.0
 11
-54.41788613
 21
-40.09046921
 31
0.0
  0
LINE
  5
331
100
AcDbEntity
  8
レイヤー_1
  6
CONTINUOUS
 62
       3
100
AcDbLine
 10
-54.41788613
 20
-40.09046921
 30
0.0
 11
-54.60238357
 21
-40.21354953
 31
0.0
  0
LINE
  5
332
100
AcDbEntity
  8
レイヤー_1
  6
CONTINUOUS
 62
       3
100
AcDbLine
 10
-54.60238357
 20
-40.21354953
 30
0.0
 11
-54.77494911
 21
-40.35195275
 31
0.0
  0
LINE
  5
333
100
AcDbEntity
  8
レイヤー_1
  6
CONTINUOUS
 62
       3
100
AcDbLine
 10
-54.77494911
 20
-40.35195275
 30
0.0
 11
-54.93461391
 21
-40.50471385
 31
0.0
  0
LINE
  5
334
100
AcDbEntity
  8
レイヤー_1
  6
CONTINUOUS
 62
       3
100
AcDbLine
 10
-54.93461391
 20
-40.50471385
 30
0.0
 11
-55.08040909
 21
-40.67086784
 31
0.0
  0
LINE
  5
335
100
AcDbEntity
  8
レイヤー_1
  6
CONTINUOUS
 62
       3
100
AcDbLine
 10
-55.08040909
 20
-40.67086784
 30
0.0
 11
-55.21136582
 21
-40.84944973
 31
0.0
  0
LINE
  5
336
100
AcDbEntity
  8
レイヤー_1
  6
CONTINUOUS
 62
       3
100
AcDbLine
 10
-55.21136582
 20
-40.84944973
 30
0.0
 11
-55.32651524
 21
-41.03949452
 31
0.0
  0
LINE
  5
337
100
AcDbEntity
  8
レイヤー_1
  6
CONTINUOUS
 62
       3
100
AcDbLine
 10
-55.32651524
 20
-41.03949452
 30
0.0
 11
-55.42488849
 21
-41.24003722
 31
0.0
  0
LINE
  5
338
100
AcDbEntity
  8
レイヤー_1
  6
CONTINUOUS
 62
       3
100
AcDbLine
 10
-55.42488849
 20
-41.24003722
 30
0.0
 11
-55.50551673
 21
-41.45011282
 31
0.0
  0
LINE
  5
339
100
AcDbEntity
  8
レイヤー_1
  6
CONTINUOUS
 62
       3
100
AcDbLine
 10
-55.50551673
 20
-41.45011282
 30
0.0
 11
-55.56743109
 21
-41.66875632
 31
0.0
  0
LINE
  5
33A
100
AcDbEntity
  8
レイヤー_1
  6
CONTINUOUS
 62
       3
100
AcDbLine
 10
-55.56743109
 20
-41.66875632
 30
0.0
 11
-55.60966273
 21
-41.89500275
 31
0.0
  0
LINE
  5
33B
100
AcDbEntity
  8
レイヤー_1
  6
CONTINUOUS
 62
       3
100
AcDbLine
 10
-55.60966273
 20
-41.89500275
 30
0.0
 11
-55.63124279
 21
-42.12788709
 31
0.0
  0
LINE
  5
33C
100
AcDbEntity
  8
レイヤー_1
  6
CONTINUOUS
 62
       3
100
AcDbLine
 10
-55.63124279
 20
-42.12788709
 30
0.0
 11
-55.63124279
 21
-42.36512302
 31
0.0
  0
LINE
  5
33D
100
AcDbEntity
  8
レイヤー_1
  6
CONTINUOUS
 62
       3
100
AcDbLine
 10
-55.63124279
 20
-42.36512302
 30
0.0
 11
-55.60966273
 21
-42.59799283
 31
0.0
  0
LINE
  5
33E
100
AcDbEntity
  8
レイヤー_1
  6
CONTINUOUS
 62
       3
100
AcDbLine
 10
-55.60966273
 20
-42.59799283
 30
0.0
 11
-55.56743109
 21
-42.82426445
 31
0.0
  0
LINE
  5
33F
100
AcDbEntity
  8
レイヤー_1
  6
CONTINUOUS
 62
       3
100
AcDbLine
 10
-55.56743109
 20
-42.82426445
 30
0.0
 11
-55.50551673
 21
-43.04296787
 31
0.0
  0
LINE
  5
340
100
AcDbEntity
  8
レイヤー_1
  6
CONTINUOUS
 62
       3
100
AcDbLine
 10
-55.50551673
 20
-43.04296787
 30
0.0
 11
-55.42488849
 21
-43.25313308
 31
0.0
  0
LINE
  5
341
100
AcDbEntity
  8
レイヤー_1
  6
CONTINUOUS
 62
       3
100
AcDbLine
 10
-55.42488849
 20
-43.25313308
 30
0.0
 11
-55.32651524
 21
-43.45379006
 31
0.0
  0
LINE
  5
342
100
AcDbEntity
  8
レイヤー_1
  6
CONTINUOUS
 62
       3
100
AcDbLine
 10
-55.32651524
 20
-43.45379006
 30
0.0
 11
-55.21136582
 21
-43.64396882
 31
0.0
  0
LINE
  5
343
100
AcDbEntity
  8
レイヤー_1
  6
CONTINUOUS
 62
       3
100
AcDbLine
 10
-55.21136582
 20
-43.64396882
 30
0.0
 11
-55.08040909
 21
-43.82269933
 31
0.0
  0
LINE
  5
344
100
AcDbEntity
  8
レイヤー_1
  6
CONTINUOUS
 62
       3
100
AcDbLine
 10
-55.08040909
 20
-43.82269933
 30
0.0
 11
-54.93461391
 21
-43.98901158
 31
0.0
  0
LINE
  5
345
100
AcDbEntity
  8
レイヤー_1
  6
CONTINUOUS
 62
       3
100
AcDbLine
 10
-54.93461391
 20
-43.98901158
 30
0.0
 11
-54.77494911
 21
-44.14193557
 31
0.0
  0
LINE
  5
346
100
AcDbEntity
  8
レイヤー_1
  6
CONTINUOUS
 62
       3
100
AcDbLine
 10
-54.77494911
 20
-44.14193557
 30
0.0
 11
-54.60238357
 21
-44.28050129
 31
0.0
  0
LINE
  5
347
100
AcDbEntity
  8
レイヤー_1
  6
CONTINUOUS
 62
       3
100
AcDbLine
 10
-54.60238357
 20
-44.28050129
 30
0.0
 11
-54.41788613
 21
-44.40373872
 31
0.0
  0
LINE
  5
348
100
AcDbEntity
  8
レイヤー_1
  6
CONTINUOUS
 62
       3
100
AcDbLine
 10
-54.41788613
 20
-44.40373872
 30
0.0
 11
-54.22242564
 21
-44.51067786
 31
0.0
  0
LINE
  5
349
100
AcDbEntity
  8
レイヤー_1
  6
CONTINUOUS
 62
       3
100
AcDbLine
 10
-54.22242564
 20
-44.51067786
 30
0.0
 11
-54.01697096
 21
-44.6003487
 31
0.0
  0
LINE
  5
34A
100
AcDbEntity
  8
レイヤー_1
  6
CONTINUOUS
 62
       3
100
AcDbLine
 10
-54.01697096
 20
-44.6003487
 30
0.0
 11
-53.80249094
 21
-44.67178121
 31
0.0
  0
LINE
  5
34B
100
AcDbEntity
  8
レイヤー_1
  6
CONTINUOUS
 62
       3
100
AcDbLine
 10
-53.80249094
 20
-44.67178121
 30
0.0
 11
-53.57995444
 21
-44.72400541
 31
0.0
  0
LINE
  5
34C
100
AcDbEntity
  8
レイヤー_1
  6
CONTINUOUS
 62
       3
100
AcDbLine
 10
-53.57995444
 20
-44.72400541
 30
0.0
 11
-53.3503303
 21
-44.75605126
 31
0.0
  0
LINE
  5
34D
100
AcDbEntity
  8
レイヤー_1
  6
CONTINUOUS
 62
       3
100
AcDbLine
 10
-53.3503303
 20
-44.75605126
 30
0.0
 11
-53.11458739
 21
-44.76694877
 31
0.0
  0
LINE
  5
34E
100
AcDbEntity
  8
レイヤー_1
  6
CONTINUOUS
 62
       3
100
AcDbLine
 10
-53.11458739
 20
-44.76694877
 30
0.0
 11
-52.87867723
 21
-44.75605126
 31
0.0
  0
LINE
  5
34F
100
AcDbEntity
  8
レイヤー_1
  6
CONTINUOUS
 62
       3
100
AcDbLine
 10
-52.87867723
 20
-44.75605126
 30
0.0
 11
-52.64890494
 21
-44.72400541
 31
0.0
  0
LINE
  5
350
100
AcDbEntity
  8
レイヤー_1
  6
CONTINUOUS
 62
       3
100
AcDbLine
 10
-52.64890494
 20
-44.72400541
 30
0.0
 11
-52.42623822
 21
-44.67178121
 31
0.0
  0
LINE
  5
351
100
AcDbEntity
  8
レイヤー_1
  6
CONTINUOUS
 62
       3
100
AcDbLine
 10
-52.42623822
 20
-44.67178121
 30
0.0
 11
-52.21164476
 21
-44.6003487
 31
0.0
  0
LINE
  5
352
100
AcDbEntity
  8
レイヤー_1
  6
CONTINUOUS
 62
       3
100
AcDbLine
 10
-52.21164476
 20
-44.6003487
 30
0.0
 11
-52.00609226
 21
-44.51067786
 31
0.0
  0
LINE
  5
353
100
AcDbEntity
  8
レイヤー_1
  6
CONTINUOUS
 62
       3
100
AcDbLine
 10
-52.00609226
 20
-44.51067786
 30
0.0
 11
-51.81054842
 21
-44.40373872
 31
0.0
  0
LINE
  5
354
100
AcDbEntity
  8
レイヤー_1
  6
CONTINUOUS
 62
       3
100
AcDbLine
 10
-51.81054842
 20
-44.40373872
 30
0.0
 11
-51.62598092
 21
-44.28050129
 31
0.0
  0
LINE
  5
355
100
AcDbEntity
  8
レイヤー_1
  6
CONTINUOUS
 62
       3
100
AcDbLine
 10
-51.62598092
 20
-44.28050129
 30
0.0
 11
-51.45335748
 21
-44.14193557
 31
0.0
  0
LINE
  5
356
100
AcDbEntity
  8
レイヤー_1
  6
CONTINUOUS
 62
       3
100
AcDbLine
 10
-51.45335748
 20
-44.14193557
 30
0.0
 11
-51.29364577
 21
-43.98901158
 31
0.0
  0
LINE
  5
357
100
AcDbEntity
  8
レイヤー_1
  6
CONTINUOUS
 62
       3
100
AcDbLine
 10
-51.29364577
 20
-43.98901158
 30
0.0
 11
-51.14781351
 21
-43.82269933
 31
0.0
  0
LINE
  5
358
100
AcDbEntity
  8
レイヤー_1
  6
CONTINUOUS
 62
       3
100
AcDbLine
 10
-51.14781351
 20
-43.82269933
 30
0.0
 11
-51.01682839
 21
-43.64396882
 31
0.0
  0
LINE
  5
359
100
AcDbEntity
  8
レイヤー_1
  6
CONTINUOUS
 62
       3
100
AcDbLine
 10
-51.01682839
 20
-43.64396882
 30
0.0
 11
-50.90165809
 21
-43.45379006
 31
0.0
  0
LINE
  5
35A
100
AcDbEntity
  8
レイヤー_1
  6
CONTINUOUS
 62
       3
100
AcDbLine
 10
-50.90165809
 20
-43.45379006
 30
0.0
 11
-50.80327033
 21
-43.25313308
 31
0.0
  0
LINE
  5
35B
100
AcDbEntity
  8
レイヤー_1
  6
CONTINUOUS
 62
       3
100
AcDbLine
 10
-50.80327033
 20
-43.25313308
 30
0.0
 11
-50.72263279
 21
-43.04296787
 31
0.0
  0
LINE
  5
35C
100
AcDbEntity
  8
レイヤー_1
  6
CONTINUOUS
 62
       3
100
AcDbLine
 10
-50.72263279
 20
-43.04296787
 30
0.0
 11
-50.66071317
 21
-42.82426445
 31
0.0
  0
LINE
  5
35D
100
AcDbEntity
  8
レイヤー_1
  6
CONTINUOUS
 62
       3
100
AcDbLine
 10
-50.66071317
 20
-42.82426445
 30
0.0
 11
-50.61847917
 21
-42.59799283
 31
0.0
  0
LINE
  5
35E
100
AcDbEntity
  8
レイヤー_1
  6
CONTINUOUS
 62
       3
100
AcDbLine
 10
-50.61847917
 20
-42.59799283
 30
0.0
 11
-50.59689848
 21
-42.36512302
 31
0.0
  0
LINE
  5
35F
100
AcDbEntity
  8
レイヤー_1
  6
CONTINUOUS
 62
       3
100
AcDbLine
 10
-50.59689848
 20
-42.36512302
 30
0.0
 11
-50.59689848
 21
-42.12788709
 31
0.0
  0
LINE
  5
360
100
AcDbEntity
  8
レイヤー_1
  6
CONTINUOUS
 62
       3
100
AcDbLine
 10
-50.59689848
 20
-42.12788709
 30
0.0
 11
-50.61847917
 21
-41.89500275
 31
0.0
  0
LINE
  5
361
100
AcDbEntity
  8
レイヤー_1
  6
CONTINUOUS
 62
       3
100
AcDbLine
 10
-50.61847917
 20
-41.89500275
 30
0.0
 11
-50.66071317
 21
-41.66875632
 31
0.0
  0
LINE
  5
362
100
AcDbEntity
  8
レイヤー_1
  6
CONTINUOUS
 62
       3
100
AcDbLine
 10
-50.66071317
 20
-41.66875632
 30
0.0
 11
-50.72263279
 21
-41.45011282
 31
0.0
  0
LINE
  5
363
100
AcDbEntity
  8
レイヤー_1
  6
CONTINUOUS
 62
       3
100
AcDbLine
 10
-50.72263279
 20
-41.45011282
 30
0.0
 11
-50.80327033
 21
-41.24003722
 31
0.0
  0
LINE
  5
364
100
AcDbEntity
  8
レイヤー_1
  6
CONTINUOUS
 62
       3
100
AcDbLine
 10
-50.80327033
 20
-41.24003722
 30
0.0
 11
-50.90165809
 21
-41.03949452
 31
0.0
  0
LINE
  5
365
100
AcDbEntity
  8
レイヤー_1
  6
CONTINUOUS
 62
       3
100
AcDbLine
 10
-50.90165809
 20
-41.03949452
 30
0.0
 11
-51.01682839
 21
-40.84944973
 31
0.0
  0
LINE
  5
366
100
AcDbEntity
  8
レイヤー_1
  6
CONTINUOUS
 62
       3
100
AcDbLine
 10
-51.01682839
 20
-40.84944973
 30
0.0
 11
-51.14781351
 21
-40.67086784
 31
0.0
  0
LINE
  5
367
100
AcDbEntity
  8
レイヤー_1
  6
CONTINUOUS
 62
       3
100
AcDbLine
 10
-51.14781351
 20
-40.67086784
 30
0.0
 11
-51.29364577
 21
-40.50471385
 31
0.0
  0
LINE
  5
368
100
AcDbEntity
  8
レイヤー_1
  6
CONTINUOUS
 62
       3
100
AcDbLine
 10
-51.29364577
 20
-40.50471385
 30
0.0
 11
-51.45335748
 21
-40.35195275
 31
0.0
  0
LINE
  5
369
100
AcDbEntity
  8
レイヤー_1
  6
CONTINUOUS
 62
       3
100
AcDbLine
 10
-51.45335748
 20
-40.35195275
 30
0.0
 11
-51.62598092
 21
-40.21354953
 31
0.0
  0
LINE
  5
36A
100
AcDbEntity
  8
レイヤー_1
  6
CONTINUOUS
 62
       3
100
AcDbLine
 10
-51.62598092
 20
-40.21354953
 30
0.0
 11
-51.81054842
 21
-40.09046921
 31
0.0
  0
LINE
  5
36B
100
AcDbEntity
  8
レイヤー_1
  6
CONTINUOUS
 62
       3
100
AcDbLine
 10
-51.81054842
 20
-40.09046921
 30
0.0
 11
-52.00609226
 21
-39.98367676
 31
0.0
  0
LINE
  5
36C
100
AcDbEntity
  8
レイヤー_1
  6
CONTINUOUS
 62
       3
100
AcDbLine
 10
-52.00609226
 20
-39.98367676
 30
0.0
 11
-52.21164476
 21
-39.89413719
 31
0.0
  0
LINE
  5
36D
100
AcDbEntity
  8
レイヤー_1
  6
CONTINUOUS
 62
       3
100
AcDbLine
 10
-52.21164476
 20
-39.89413719
 30
0.0
 11
-52.42623822
 21
-39.82281549
 31
0.0
  0
LINE
  5
36E
100
AcDbEntity
  8
レイヤー_1
  6
CONTINUOUS
 62
       3
100
AcDbLine
 10
-52.42623822
 20
-39.82281549
 30
0.0
 11
-52.64890494
 21
-39.77067666
 31
0.0
  0
LINE
  5
36F
100
AcDbEntity
  8
レイヤー_1
  6
CONTINUOUS
 62
       3
100
AcDbLine
 10
-52.64890494
 20
-39.77067666
 30
0.0
 11
-52.87867723
 21
-39.7386857
 31
0.0
  0
LINE
  5
370
100
AcDbEntity
  8
レイヤー_1
  6
CONTINUOUS
 62
       3
100
AcDbLine
 10
-52.87867723
 20
-39.7386857
 30
0.0
 11
-53.11458739
 21
-39.72780761
 31
0.0
  0
LINE
  5
371
100
AcDbEntity
  8
レイヤー_1
  6
CONTINUOUS
 62
       3
100
AcDbLine
 10
-60.31311441
 20
-39.72780761
 30
0.0
 11
-60.54902456
 21
-39.7386857
 31
0.0
  0
LINE
  5
372
100
AcDbEntity
  8
レイヤー_1
  6
CONTINUOUS
 62
       3
100
AcDbLine
 10
-60.54902456
 20
-39.7386857
 30
0.0
 11
-60.77879685
 21
-39.77067666
 31
0.0
  0
LINE
  5
373
100
AcDbEntity
  8
レイヤー_1
  6
CONTINUOUS
 62
       3
100
AcDbLine
 10
-60.77879685
 20
-39.77067666
 30
0.0
 11
-61.00146358
 21
-39.82281549
 31
0.0
  0
LINE
  5
374
100
AcDbEntity
  8
レイヤー_1
  6
CONTINUOUS
 62
       3
100
AcDbLine
 10
-61.00146358
 20
-39.82281549
 30
0.0
 11
-61.21605703
 21
-39.89413719
 31
0.0
  0
LINE
  5
375
100
AcDbEntity
  8
レイヤー_1
  6
CONTINUOUS
 62
       3
100
AcDbLine
 10
-61.21605703
 20
-39.89413719
 30
0.0
 11
-61.42160953
 21
-39.98367676
 31
0.0
  0
LINE
  5
376
100
AcDbEntity
  8
レイヤー_1
  6
CONTINUOUS
 62
       3
100
AcDbLine
 10
-61.42160953
 20
-39.98367676
 30
0.0
 11
-61.61715338
 21
-40.09046921
 31
0.0
  0
LINE
  5
377
100
AcDbEntity
  8
レイヤー_1
  6
CONTINUOUS
 62
       3
100
AcDbLine
 10
-61.61715338
 20
-40.09046921
 30
0.0
 11
-61.80172087
 21
-40.21354953
 31
0.0
  0
LINE
  5
378
100
AcDbEntity
  8
レイヤー_1
  6
CONTINUOUS
 62
       3
100
AcDbLine
 10
-61.80172087
 20
-40.21354953
 30
0.0
 11
-61.97434432
 21
-40.35195275
 31
0.0
  0
LINE
  5
379
100
AcDbEntity
  8
レイヤー_1
  6
CONTINUOUS
 62
       3
100
AcDbLine
 10
-61.97434432
 20
-40.35195275
 30
0.0
 11
-62.13405602
 21
-40.50471385
 31
0.0
  0
LINE
  5
37A
100
AcDbEntity
  8
レイヤー_1
  6
CONTINUOUS
 62
       3
100
AcDbLine
 10
-62.13405602
 20
-40.50471385
 30
0.0
 11
-62.27988828
 21
-40.67086784
 31
0.0
  0
LINE
  5
37B
100
AcDbEntity
  8
レイヤー_1
  6
CONTINUOUS
 62
       3
100
AcDbLine
 10
-62.27988828
 20
-40.67086784
 30
0.0
 11
-62.41087341
 21
-40.84944973
 31
0.0
  0
LINE
  5
37C
100
AcDbEntity
  8
レイヤー_1
  6
CONTINUOUS
 62
       3
100
AcDbLine
 10
-62.41087341
 20
-40.84944973
 30
0.0
 11
-62.5260437
 21
-41.03949452
 31
0.0
  0
LINE
  5
37D
100
AcDbEntity
  8
レイヤー_1
  6
CONTINUOUS
 62
       3
100
AcDbLine
 10
-62.5260437
 20
-41.03949452
 30
0.0
 11
-62.62443147
 21
-41.24003722
 31
0.0
  0
LINE
  5
37E
100
AcDbEntity
  8
レイヤー_1
  6
CONTINUOUS
 62
       3
100
AcDbLine
 10
-62.62443147
 20
-41.24003722
 30
0.0
 11
-62.70506901
 21
-41.45011282
 31
0.0
  0
LINE
  5
37F
100
AcDbEntity
  8
レイヤー_1
  6
CONTINUOUS
 62
       3
100
AcDbLine
 10
-62.70506901
 20
-41.45011282
 30
0.0
 11
-62.76698862
 21
-41.66875632
 31
0.0
  0
LINE
  5
380
100
AcDbEntity
  8
レイヤー_1
  6
CONTINUOUS
 62
       3
100
AcDbLine
 10
-62.76698862
 20
-41.66875632
 30
0.0
 11
-62.80922263
 21
-41.89500275
 31
0.0
  0
LINE
  5
381
100
AcDbEntity
  8
レイヤー_1
  6
CONTINUOUS
 62
       3
100
AcDbLine
 10
-62.80922263
 20
-41.89500275
 30
0.0
 11
-62.83080332
 21
-42.12788709
 31
0.0
  0
LINE
  5
382
100
AcDbEntity
  8
レイヤー_1
  6
CONTINUOUS
 62
       3
100
AcDbLine
 10
-62.83080332
 20
-42.12788709
 30
0.0
 11
-62.83080332
 21
-42.36512302
 31
0.0
  0
LINE
  5
383
100
AcDbEntity
  8
レイヤー_1
  6
CONTINUOUS
 62
       3
100
AcDbLine
 10
-62.83080332
 20
-42.36512302
 30
0.0
 11
-62.80922263
 21
-42.59799283
 31
0.0
  0
LINE
  5
384
100
AcDbEntity
  8
レイヤー_1
  6
CONTINUOUS
 62
       3
100
AcDbLine
 10
-62.80922263
 20
-42.59799283
 30
0.0
 11
-62.76698862
 21
-42.82426445
 31
0.0
  0
LINE
  5
385
100
AcDbEntity
  8
レイヤー_1
  6
CONTINUOUS
 62
       3
100
AcDbLine
 10
-62.76698862
 20
-42.82426445
 30
0.0
 11
-62.70506901
 21
-43.04296787
 31
0.0
  0
LINE
  5
386
100
AcDbEntity
  8
レイヤー_1
  6
CONTINUOUS
 62
       3
100
AcDbLine
 10
-62.70506901
 20
-43.04296787
 30
0.0
 11
-62.62443147
 21
-43.25313308
 31
0.0
  0
LINE
  5
387
100
AcDbEntity
  8
レイヤー_1
  6
CONTINUOUS
 62
       3
100
AcDbLine
 10
-62.62443147
 20
-43.25313308
 30
0.0
 11
-62.5260437
 21
-43.45379006
 31
0.0
  0
LINE
  5
388
100
AcDbEntity
  8
レイヤー_1
  6
CONTINUOUS
 62
       3
100
AcDbLine
 10
-62.5260437
 20
-43.45379006
 30
0.0
 11
-62.41087341
 21
-43.64396882
 31
0.0
  0
LINE
  5
389
100
AcDbEntity
  8
レイヤー_1
  6
CONTINUOUS
 62
       3
100
AcDbLine
 10
-62.41087341
 20
-43.64396882
 30
0.0
 11
-62.27988828
 21
-43.82269933
 31
0.0
  0
LINE
  5
38A
100
AcDbEntity
  8
レイヤー_1
  6
CONTINUOUS
 62
       3
100
AcDbLine
 10
-62.27988828
 20
-43.82269933
 30
0.0
 11
-62.13405602
 21
-43.98901158
 31
0.0
  0
LINE
  5
38B
100
AcDbEntity
  8
レイヤー_1
  6
CONTINUOUS
 62
       3
100
AcDbLine
 10
-62.13405602
 20
-43.98901158
 30
0.0
 11
-61.97434432
 21
-44.14193557
 31
0.0
  0
LINE
  5
38C
100
AcDbEntity
  8
レイヤー_1
  6
CONTINUOUS
 62
       3
100
AcDbLine
 10
-61.97434432
 20
-44.14193557
 30
0.0
 11
-61.80172087
 21
-44.28050129
 31
0.0
  0
LINE
  5
38D
100
AcDbEntity
  8
レイヤー_1
  6
CONTINUOUS
 62
       3
100
AcDbLine
 10
-61.80172087
 20
-44.28050129
 30
0.0
 11
-61.61715338
 21
-44.40373872
 31
0.0
  0
LINE
  5
38E
100
AcDbEntity
  8
レイヤー_1
  6
CONTINUOUS
 62
       3
100
AcDbLine
 10
-61.61715338
 20
-44.40373872
 30
0.0
 11
-61.42160953
 21
-44.51067786
 31
0.0
  0
LINE
  5
38F
100
AcDbEntity
  8
レイヤー_1
  6
CONTINUOUS
 62
       3
100
AcDbLine
 10
-61.42160953
 20
-44.51067786
 30
0.0
 11
-61.21605703
 21
-44.6003487
 31
0.0
  0
LINE
  5
390
100
AcDbEntity
  8
レイヤー_1
  6
CONTINUOUS
 62
       3
100
AcDbLine
 10
-61.21605703
 20
-44.6003487
 30
0.0
 11
-61.00146358
 21
-44.67178121
 31
0.0
  0
LINE
  5
391
100
AcDbEntity
  8
レイヤー_1
  6
CONTINUOUS
 62
       3
100
AcDbLine
 10
-61.00146358
 20
-44.67178121
 30
0.0
 11
-60.77879685
 21
-44.72400541
 31
0.0
  0
LINE
  5
392
100
AcDbEntity
  8
レイヤー_1
  6
CONTINUOUS
 62
       3
100
AcDbLine
 10
-60.77879685
 20
-44.72400541
 30
0.0
 11
-60.54902456
 21
-44.75605126
 31
0.0
  0
LINE
  5
393
100
AcDbEntity
  8
レイヤー_1
  6
CONTINUOUS
 62
       3
100
AcDbLine
 10
-60.54902456
 20
-44.75605126
 30
0.0
 11
-60.31311441
 21
-44.76694877
 31
0.0
  0
LINE
  5
394
100
AcDbEntity
  8
レイヤー_1
  6
CONTINUOUS
 62
       3
100
AcDbLine
 10
-60.31311441
 20
-44.76694877
 30
0.0
 11
-60.07737798
 21
-44.75605126
 31
0.0
  0
LINE
  5
395
100
AcDbEntity
  8
レイヤー_1
  6
CONTINUOUS
 62
       3
100
AcDbLine
 10
-60.07737798
 20
-44.75605126
 30
0.0
 11
-59.8477723
 21
-44.72400541
 31
0.0
  0
LINE
  5
396
100
AcDbEntity
  8
レイヤー_1
  6
CONTINUOUS
 62
       3
100
AcDbLine
 10
-59.8477723
 20
-44.72400541
 30
0.0
 11
-59.62526466
 21
-44.67178121
 31
0.0
  0
LINE
  5
397
100
AcDbEntity
  8
レイヤー_1
  6
CONTINUOUS
 62
       3
100
AcDbLine
 10
-59.62526466
 20
-44.67178121
 30
0.0
 11
-59.41082237
 21
-44.6003487
 31
0.0
  0
LINE
  5
398
100
AcDbEntity
  8
レイヤー_1
  6
CONTINUOUS
 62
       3
100
AcDbLine
 10
-59.41082237
 20
-44.6003487
 30
0.0
 11
-59.20541275
 21
-44.51067786
 31
0.0
  0
LINE
  5
399
100
AcDbEntity
  8
レイヤー_1
  6
CONTINUOUS
 62
       3
100
AcDbLine
 10
-59.20541275
 20
-44.51067786
 30
0.0
 11
-59.01000311
 21
-44.40373872
 31
0.0
  0
LINE
  5
39A
100
AcDbEntity
  8
レイヤー_1
  6
CONTINUOUS
 62
       3
100
AcDbLine
 10
-59.01000311
 20
-44.40373872
 30
0.0
 11
-58.82556076
 21
-44.28050129
 31
0.0
  0
LINE
  5
39B
100
AcDbEntity
  8
レイヤー_1
  6
CONTINUOUS
 62
       3
100
AcDbLine
 10
-58.82556076
 20
-44.28050129
 30
0.0
 11
-58.65305301
 21
-44.14193557
 31
0.0
  0
LINE
  5
39C
100
AcDbEntity
  8
レイヤー_1
  6
CONTINUOUS
 62
       3
100
AcDbLine
 10
-58.65305301
 20
-44.14193557
 30
0.0
 11
-58.49344716
 21
-43.98901158
 31
0.0
  0
LINE
  5
39D
100
AcDbEntity
  8
レイヤー_1
  6
CONTINUOUS
 62
       3
100
AcDbLine
 10
-58.49344716
 20
-43.98901158
 30
0.0
 11
-58.34771053
 21
-43.82269933
 31
0.0
  0
LINE
  5
39E
100
AcDbEntity
  8
レイヤー_1
  6
CONTINUOUS
 62
       3
100
AcDbLine
 10
-58.34771053
 20
-43.82269933
 30
0.0
 11
-58.21681044
 21
-43.64396882
 31
0.0
  0
LINE
  5
39F
100
AcDbEntity
  8
レイヤー_1
  6
CONTINUOUS
 62
       3
100
AcDbLine
 10
-58.21681044
 20
-43.64396882
 30
0.0
 11
-58.10171418
 21
-43.45379006
 31
0.0
  0
LINE
  5
3A0
100
AcDbEntity
  8
レイヤー_1
  6
CONTINUOUS
 62
       3
100
AcDbLine
 10
-58.10171418
 20
-43.45379006
 30
0.0
 11
-58.00338907
 21
-43.25313308
 31
0.0
  0
LINE
  5
3A1
100
AcDbEntity
  8
レイヤー_1
  6
CONTINUOUS
 62
       3
100
AcDbLine
 10
-58.00338907
 20
-43.25313308
 30
0.0
 11
-57.92280243
 21
-43.04296787
 31
0.0
  0
LINE
  5
3A2
100
AcDbEntity
  8
レイヤー_1
  6
CONTINUOUS
 62
       3
100
AcDbLine
 10
-57.92280243
 20
-43.04296787
 30
0.0
 11
-57.86092155
 21
-42.82426445
 31
0.0
  0
LINE
  5
3A3
100
AcDbEntity
  8
レイヤー_1
  6
CONTINUOUS
 62
       3
100
AcDbLine
 10
-57.86092155
 20
-42.82426445
 30
0.0
 11
-57.81871376
 21
-42.59799283
 31
0.0
  0
LINE
  5
3A4
100
AcDbEntity
  8
レイヤー_1
  6
CONTINUOUS
 62
       3
100
AcDbLine
 10
-57.81871376
 20
-42.59799283
 30
0.0
 11
-57.79714636
 21
-42.36512302
 31
0.0
  0
LINE
  5
3A5
100
AcDbEntity
  8
レイヤー_1
  6
CONTINUOUS
 62
       3
100
AcDbLine
 10
-57.79714636
 20
-42.36512302
 30
0.0
 11
-57.79714636
 21
-42.12788709
 31
0.0
  0
LINE
  5
3A6
100
AcDbEntity
  8
レイヤー_1
  6
CONTINUOUS
 62
       3
100
AcDbLine
 10
-57.79714636
 20
-42.12788709
 30
0.0
 11
-57.81871376
 21
-41.89500275
 31
0.0
  0
LINE
  5
3A7
100
AcDbEntity
  8
レイヤー_1
  6
CONTINUOUS
 62
       3
100
AcDbLine
 10
-57.81871376
 20
-41.89500275
 30
0.0
 11
-57.86092155
 21
-41.66875632
 31
0.0
  0
LINE
  5
3A8
100
AcDbEntity
  8
レイヤー_1
  6
CONTINUOUS
 62
       3
100
AcDbLine
 10
-57.86092155
 20
-41.66875632
 30
0.0
 11
-57.92280243
 21
-41.45011282
 31
0.0
  0
LINE
  5
3A9
100
AcDbEntity
  8
レイヤー_1
  6
CONTINUOUS
 62
       3
100
AcDbLine
 10
-57.92280243
 20
-41.45011282
 30
0.0
 11
-58.00338907
 21
-41.24003722
 31
0.0
  0
LINE
  5
3AA
100
AcDbEntity
  8
レイヤー_1
  6
CONTINUOUS
 62
       3
100
AcDbLine
 10
-58.00338907
 20
-41.24003722
 30
0.0
 11
-58.10171418
 21
-41.03949452
 31
0.0
  0
LINE
  5
3AB
100
AcDbEntity
  8
レイヤー_1
  6
CONTINUOUS
 62
       3
100
AcDbLine
 10
-58.10171418
 20
-41.03949452
 30
0.0
 11
-58.21681044
 21
-40.84944973
 31
0.0
  0
LINE
  5
3AC
100
AcDbEntity
  8
レイヤー_1
  6
CONTINUOUS
 62
       3
100
AcDbLine
 10
-58.21681044
 20
-40.84944973
 30
0.0
 11
-58.34771053
 21
-40.67086784
 31
0.0
  0
LINE
  5
3AD
100
AcDbEntity
  8
レイヤー_1
  6
CONTINUOUS
 62
       3
100
AcDbLine
 10
-58.34771053
 20
-40.67086784
 30
0.0
 11
-58.49344716
 21
-40.50471385
 31
0.0
  0
LINE
  5
3AE
100
AcDbEntity
  8
レイヤー_1
  6
CONTINUOUS
 62
       3
100
AcDbLine
 10
-58.49344716
 20
-40.50471385
 30
0.0
 11
-58.65305301
 21
-40.35195275
 31
0.0
  0
LINE
  5
3AF
100
AcDbEntity
  8
レイヤー_1
  6
CONTINUOUS
 62
       3
100
AcDbLine
 10
-58.65305301
 20
-40.35195275
 30
0.0
 11
-58.82556076
 21
-40.21354953
 31
0.0
  0
LINE
  5
3B0
100
AcDbEntity
  8
レイヤー_1
  6
CONTINUOUS
 62
       3
100
AcDbLine
 10
-58.82556076
 20
-40.21354953
 30
0.0
 11
-59.01000311
 21
-40.09046921
 31
0.0
  0
LINE
  5
3B1
100
AcDbEntity
  8
レイヤー_1
  6
CONTINUOUS
 62
       3
100
AcDbLine
 10
-59.01000311
 20
-40.09046921
 30
0.0
 11
-59.20541275
 21
-39.98367676
 31
0.0
  0
LINE
  5
3B2
100
AcDbEntity
  8
レイヤー_1
  6
CONTINUOUS
 62
       3
100
AcDbLine
 10
-59.20541275
 20
-39.98367676
 30
0.0
 11
-59.41082237
 21
-39.89413719
 31
0.0
  0
LINE
  5
3B3
100
AcDbEntity
  8
レイヤー_1
  6
CONTINUOUS
 62
       3
100
AcDbLine
 10
-59.41082237
 20
-39.89413719
 30
0.0
 11
-59.62526466
 21
-39.82281549
 31
0.0
  0
LINE
  5
3B4
100
AcDbEntity
  8
レイヤー_1
  6
CONTINUOUS
 62
       3
100
AcDbLine
 10
-59.62526466
 20
-39.82281549
 30
0.0
 11
-59.8477723
 21
-39.77067666
 31
0.0
  0
LINE
  5
3B5
100
AcDbEntity
  8
レイヤー_1
  6
CONTINUOUS
 62
       3
100
AcDbLine
 10
-59.8477723
 20
-39.77067666
 30
0.0
 11
-60.07737798
 21
-39.7386857
 31
0.0
  0
LINE
  5
3B6
100
AcDbEntity
  8
レイヤー_1
  6
CONTINUOUS
 62
       3
100
AcDbLine
 10
-60.07737798
 20
-39.7386857
 30
0.0
 11
-60.31311441
 21
-39.72780761
 31
0.0
  0
LINE
  5
3B7
100
AcDbEntity
  8
レイヤー_1
  6
CONTINUOUS
 62
       3
100
AcDbLine
 10
-67.51336397
 20
-39.72780761
 30
0.0
 11
-67.74927413
 21
-39.7386857
 31
0.0
  0
LINE
  5
3B8
100
AcDbEntity
  8
レイヤー_1
  6
CONTINUOUS
 62
       3
100
AcDbLine
 10
-67.74927413
 20
-39.7386857
 30
0.0
 11
-67.97904642
 21
-39.77067666
 31
0.0
  0
LINE
  5
3B9
100
AcDbEntity
  8
レイヤー_1
  6
CONTINUOUS
 62
       3
100
AcDbLine
 10
-67.97904642
 20
-39.77067666
 30
0.0
 11
-68.20171314
 21
-39.82281549
 31
0.0
  0
LINE
  5
3BA
100
AcDbEntity
  8
レイヤー_1
  6
CONTINUOUS
 62
       3
100
AcDbLine
 10
-68.20171314
 20
-39.82281549
 30
0.0
 11
-68.4163066
 21
-39.89413719
 31
0.0
  0
LINE
  5
3BB
100
AcDbEntity
  8
レイヤー_1
  6
CONTINUOUS
 62
       3
100
AcDbLine
 10
-68.4163066
 20
-39.89413719
 30
0.0
 11
-68.6218591
 21
-39.98367676
 31
0.0
  0
LINE
  5
3BC
100
AcDbEntity
  8
レイヤー_1
  6
CONTINUOUS
 62
       3
100
AcDbLine
 10
-68.6218591
 20
-39.98367676
 30
0.0
 11
-68.81740294
 21
-40.09046921
 31
0.0
  0
LINE
  5
3BD
100
AcDbEntity
  8
レイヤー_1
  6
CONTINUOUS
 62
       3
100
AcDbLine
 10
-68.81740294
 20
-40.09046921
 30
0.0
 11
-69.00197044
 21
-40.21354953
 31
0.0
  0
LINE
  5
3BE
100
AcDbEntity
  8
レイヤー_1
  6
CONTINUOUS
 62
       3
100
AcDbLine
 10
-69.00197044
 20
-40.21354953
 30
0.0
 11
-69.17459388
 21
-40.35195275
 31
0.0
  0
LINE
  5
3BF
100
AcDbEntity
  8
レイヤー_1
  6
CONTINUOUS
 62
       3
100
AcDbLine
 10
-69.17459388
 20
-40.35195275
 30
0.0
 11
-69.33430558
 21
-40.50471385
 31
0.0
  0
LINE
  5
3C0
100
AcDbEntity
  8
レイヤー_1
  6
CONTINUOUS
 62
       3
100
AcDbLine
 10
-69.33430558
 20
-40.50471385
 30
0.0
 11
-69.48013785
 21
-40.67086784
 31
0.0
  0
LINE
  5
3C1
100
AcDbEntity
  8
レイヤー_1
  6
CONTINUOUS
 62
       3
100
AcDbLine
 10
-69.48013785
 20
-40.67086784
 30
0.0
 11
-69.61112297
 21
-40.84944973
 31
0.0
  0
LINE
  5
3C2
100
AcDbEntity
  8
レイヤー_1
  6
CONTINUOUS
 62
       3
100
AcDbLine
 10
-69.61112297
 20
-40.84944973
 30
0.0
 11
-69.72629326
 21
-41.03949452
 31
0.0
  0
LINE
  5
3C3
100
AcDbEntity
  8
レイヤー_1
  6
CONTINUOUS
 62
       3
100
AcDbLine
 10
-69.72629326
 20
-41.03949452
 30
0.0
 11
-69.82468103
 21
-41.24003722
 31
0.0
  0
LINE
  5
3C4
100
AcDbEntity
  8
レイヤー_1
  6
CONTINUOUS
 62
       3
100
AcDbLine
 10
-69.82468103
 20
-41.24003722
 30
0.0
 11
-69.90531857
 21
-41.45011282
 31
0.0
  0
LINE
  5
3C5
100
AcDbEntity
  8
レイヤー_1
  6
CONTINUOUS
 62
       3
100
AcDbLine
 10
-69.90531857
 20
-41.45011282
 30
0.0
 11
-69.96723819
 21
-41.66875632
 31
0.0
  0
LINE
  5
3C6
100
AcDbEntity
  8
レイヤー_1
  6
CONTINUOUS
 62
       3
100
AcDbLine
 10
-69.96723819
 20
-41.66875632
 30
0.0
 11
-70.00947219
 21
-41.89500275
 31
0.0
  0
LINE
  5
3C7
100
AcDbEntity
  8
レイヤー_1
  6
CONTINUOUS
 62
       3
100
AcDbLine
 10
-70.00947219
 20
-41.89500275
 30
0.0
 11
-70.03105288
 21
-42.12788709
 31
0.0
  0
LINE
  5
3C8
100
AcDbEntity
  8
レイヤー_1
  6
CONTINUOUS
 62
       3
100
AcDbLine
 10
-70.03105288
 20
-42.12788709
 30
0.0
 11
-70.03105288
 21
-42.36512302
 31
0.0
  0
LINE
  5
3C9
100
AcDbEntity
  8
レイヤー_1
  6
CONTINUOUS
 62
       3
100
AcDbLine
 10
-70.03105288
 20
-42.36512302
 30
0.0
 11
-70.00947219
 21
-42.59799283
 31
0.0
  0
LINE
  5
3CA
100
AcDbEntity
  8
レイヤー_1
  6
CONTINUOUS
 62
       3
100
AcDbLine
 10
-70.00947219
 20
-42.59799283
 30
0.0
 11
-69.96723819
 21
-42.82426445
 31
0.0
  0
LINE
  5
3CB
100
AcDbEntity
  8
レイヤー_1
  6
CONTINUOUS
 62
       3
100
AcDbLine
 10
-69.96723819
 20
-42.82426445
 30
0.0
 11
-69.90531857
 21
-43.04296787
 31
0.0
  0
LINE
  5
3CC
100
AcDbEntity
  8
レイヤー_1
  6
CONTINUOUS
 62
       3
100
AcDbLine
 10
-69.90531857
 20
-43.04296787
 30
0.0
 11
-69.82468103
 21
-43.25313308
 31
0.0
  0
LINE
  5
3CD
100
AcDbEntity
  8
レイヤー_1
  6
CONTINUOUS
 62
       3
100
AcDbLine
 10
-69.82468103
 20
-43.25313308
 30
0.0
 11
-69.72629326
 21
-43.45379006
 31
0.0
  0
LINE
  5
3CE
100
AcDbEntity
  8
レイヤー_1
  6
CONTINUOUS
 62
       3
100
AcDbLine
 10
-69.72629326
 20
-43.45379006
 30
0.0
 11
-69.61112297
 21
-43.64396882
 31
0.0
  0
LINE
  5
3CF
100
AcDbEntity
  8
レイヤー_1
  6
CONTINUOUS
 62
       3
100
AcDbLine
 10
-69.61112297
 20
-43.64396882
 30
0.0
 11
-69.48013785
 21
-43.82269933
 31
0.0
  0
LINE
  5
3D0
100
AcDbEntity
  8
レイヤー_1
  6
CONTINUOUS
 62
       3
100
AcDbLine
 10
-69.48013785
 20
-43.82269933
 30
0.0
 11
-69.33430558
 21
-43.98901158
 31
0.0
  0
LINE
  5
3D1
100
AcDbEntity
  8
レイヤー_1
  6
CONTINUOUS
 62
       3
100
AcDbLine
 10
-69.33430558
 20
-43.98901158
 30
0.0
 11
-69.17459388
 21
-44.14193557
 31
0.0
  0
LINE
  5
3D2
100
AcDbEntity
  8
レイヤー_1
  6
CONTINUOUS
 62
       3
100
AcDbLine
 10
-69.17459388
 20
-44.14193557
 30
0.0
 11
-69.00197044
 21
-44.28050129
 31
0.0
  0
LINE
  5
3D3
100
AcDbEntity
  8
レイヤー_1
  6
CONTINUOUS
 62
       3
100
AcDbLine
 10
-69.00197044
 20
-44.28050129
 30
0.0
 11
-68.81740294
 21
-44.40373872
 31
0.0
  0
LINE
  5
3D4
100
AcDbEntity
  8
レイヤー_1
  6
CONTINUOUS
 62
       3
100
AcDbLine
 10
-68.81740294
 20
-44.40373872
 30
0.0
 11
-68.6218591
 21
-44.51067786
 31
0.0
  0
LINE
  5
3D5
100
AcDbEntity
  8
レイヤー_1
  6
CONTINUOUS
 62
       3
100
AcDbLine
 10
-68.6218591
 20
-44.51067786
 30
0.0
 11
-68.4163066
 21
-44.6003487
 31
0.0
  0
LINE
  5
3D6
100
AcDbEntity
  8
レイヤー_1
  6
CONTINUOUS
 62
       3
100
AcDbLine
 10
-68.4163066
 20
-44.6003487
 30
0.0
 11
-68.20171314
 21
-44.67178121
 31
0.0
  0
LINE
  5
3D7
100
AcDbEntity
  8
レイヤー_1
  6
CONTINUOUS
 62
       3
100
AcDbLine
 10
-68.20171314
 20
-44.67178121
 30
0.0
 11
-67.97904642
 21
-44.72400541
 31
0.0
  0
LINE
  5
3D8
100
AcDbEntity
  8
レイヤー_1
  6
CONTINUOUS
 62
       3
100
AcDbLine
 10
-67.97904642
 20
-44.72400541
 30
0.0
 11
-67.74927413
 21
-44.75605126
 31
0.0
  0
LINE
  5
3D9
100
AcDbEntity
  8
レイヤー_1
  6
CONTINUOUS
 62
       3
100
AcDbLine
 10
-67.74927413
 20
-44.75605126
 30
0.0
 11
-67.51336397
 21
-44.76694877
 31
0.0
  0
LINE
  5
3DA
100
AcDbEntity
  8
レイヤー_1
  6
CONTINUOUS
 62
       3
100
AcDbLine
 10
-67.51336397
 20
-44.76694877
 30
0.0
 11
-67.27756855
 21
-44.75605126
 31
0.0
  0
LINE
  5
3DB
100
AcDbEntity
  8
レイヤー_1
  6
CONTINUOUS
 62
       3
100
AcDbLine
 10
-67.27756855
 20
-44.75605126
 30
0.0
 11
-67.04790426
 21
-44.72400541
 31
0.0
  0
LINE
  5
3DC
100
AcDbEntity
  8
レイヤー_1
  6
CONTINUOUS
 62
       3
100
AcDbLine
 10
-67.04790426
 20
-44.72400541
 30
0.0
 11
-66.82533878
 21
-44.67178121
 31
0.0
  0
LINE
  5
3DD
100
AcDbEntity
  8
レイヤー_1
  6
CONTINUOUS
 62
       3
100
AcDbLine
 10
-66.82533878
 20
-44.67178121
 30
0.0
 11
-66.61083981
 21
-44.6003487
 31
0.0
  0
LINE
  5
3DE
100
AcDbEntity
  8
レイヤー_1
  6
CONTINUOUS
 62
       3
100
AcDbLine
 10
-66.61083981
 20
-44.6003487
 30
0.0
 11
-66.40537506
 21
-44.51067786
 31
0.0
  0
LINE
  5
3DF
100
AcDbEntity
  8
レイヤー_1
  6
CONTINUOUS
 62
       3
100
AcDbLine
 10
-66.40537506
 20
-44.51067786
 30
0.0
 11
-66.20991221
 21
-44.40373872
 31
0.0
  0
LINE
  5
3E0
100
AcDbEntity
  8
レイヤー_1
  6
CONTINUOUS
 62
       3
100
AcDbLine
 10
-66.20991221
 20
-44.40373872
 30
0.0
 11
-66.02541896
 21
-44.28050129
 31
0.0
  0
LINE
  5
3E1
100
AcDbEntity
  8
レイヤー_1
  6
CONTINUOUS
 62
       3
100
AcDbLine
 10
-66.02541896
 20
-44.28050129
 30
0.0
 11
-65.85286301
 21
-44.14193557
 31
0.0
  0
LINE
  5
3E2
100
AcDbEntity
  8
レイヤー_1
  6
CONTINUOUS
 62
       3
100
AcDbLine
 10
-65.85286301
 20
-44.14193557
 30
0.0
 11
-65.69321206
 21
-43.98901158
 31
0.0
  0
LINE
  5
3E3
100
AcDbEntity
  8
レイヤー_1
  6
CONTINUOUS
 62
       3
100
AcDbLine
 10
-65.69321206
 20
-43.98901158
 30
0.0
 11
-65.54743379
 21
-43.82269933
 31
0.0
  0
LINE
  5
3E4
100
AcDbEntity
  8
レイヤー_1
  6
CONTINUOUS
 62
       3
100
AcDbLine
 10
-65.54743379
 20
-43.82269933
 30
0.0
 11
-65.41649591
 21
-43.64396882
 31
0.0
  0
LINE
  5
3E5
100
AcDbEntity
  8
レイヤー_1
  6
CONTINUOUS
 62
       3
100
AcDbLine
 10
-65.41649591
 20
-43.64396882
 30
0.0
 11
-65.30136612
 21
-43.45379006
 31
0.0
  0
LINE
  5
3E6
100
AcDbEntity
  8
レイヤー_1
  6
CONTINUOUS
 62
       3
100
AcDbLine
 10
-65.30136612
 20
-43.45379006
 30
0.0
 11
-65.2030121
 21
-43.25313308
 31
0.0
  0
LINE
  5
3E7
100
AcDbEntity
  8
レイヤー_1
  6
CONTINUOUS
 62
       3
100
AcDbLine
 10
-65.2030121
 20
-43.25313308
 30
0.0
 11
-65.12240156
 21
-43.04296787
 31
0.0
  0
LINE
  5
3E8
100
AcDbEntity
  8
レイヤー_1
  6
CONTINUOUS
 62
       3
100
AcDbLine
 10
-65.12240156
 20
-43.04296787
 30
0.0
 11
-65.06050219
 21
-42.82426445
 31
0.0
  0
LINE
  5
3E9
100
AcDbEntity
  8
レイヤー_1
  6
CONTINUOUS
 62
       3
100
AcDbLine
 10
-65.06050219
 20
-42.82426445
 30
0.0
 11
-65.01828168
 21
-42.59799283
 31
0.0
  0
LINE
  5
3EA
100
AcDbEntity
  8
レイヤー_1
  6
CONTINUOUS
 62
       3
100
AcDbLine
 10
-65.01828168
 20
-42.59799283
 30
0.0
 11
-64.99670774
 21
-42.36512302
 31
0.0
  0
LINE
  5
3EB
100
AcDbEntity
  8
レイヤー_1
  6
CONTINUOUS
 62
       3
100
AcDbLine
 10
-64.99670774
 20
-42.36512302
 30
0.0
 11
-64.99670774
 21
-42.12788709
 31
0.0
  0
LINE
  5
3EC
100
AcDbEntity
  8
レイヤー_1
  6
CONTINUOUS
 62
       3
100
AcDbLine
 10
-64.99670774
 20
-42.12788709
 30
0.0
 11
-65.01828168
 21
-41.89500275
 31
0.0
  0
LINE
  5
3ED
100
AcDbEntity
  8
レイヤー_1
  6
CONTINUOUS
 62
       3
100
AcDbLine
 10
-65.01828168
 20
-41.89500275
 30
0.0
 11
-65.06050219
 21
-41.66875632
 31
0.0
  0
LINE
  5
3EE
100
AcDbEntity
  8
レイヤー_1
  6
CONTINUOUS
 62
       3
100
AcDbLine
 10
-65.06050219
 20
-41.66875632
 30
0.0
 11
-65.12240156
 21
-41.45011282
 31
0.0
  0
LINE
  5
3EF
100
AcDbEntity
  8
レイヤー_1
  6
CONTINUOUS
 62
       3
100
AcDbLine
 10
-65.12240156
 20
-41.45011282
 30
0.0
 11
-65.2030121
 21
-41.24003722
 31
0.0
  0
LINE
  5
3F0
100
AcDbEntity
  8
レイヤー_1
  6
CONTINUOUS
 62
       3
100
AcDbLine
 10
-65.2030121
 20
-41.24003722
 30
0.0
 11
-65.30136612
 21
-41.03949452
 31
0.0
  0
LINE
  5
3F1
100
AcDbEntity
  8
レイヤー_1
  6
CONTINUOUS
 62
       3
100
AcDbLine
 10
-65.30136612
 20
-41.03949452
 30
0.0
 11
-65.41649591
 21
-40.84944973
 31
0.0
  0
LINE
  5
3F2
100
AcDbEntity
  8
レイヤー_1
  6
CONTINUOUS
 62
       3
100
AcDbLine
 10
-65.41649591
 20
-40.84944973
 30
0.0
 11
-65.54743379
 21
-40.67086784
 31
0.0
  0
LINE
  5
3F3
100
AcDbEntity
  8
レイヤー_1
  6
CONTINUOUS
 62
       3
100
AcDbLine
 10
-65.54743379
 20
-40.67086784
 30
0.0
 11
-65.69321206
 21
-40.50471385
 31
0.0
  0
LINE
  5
3F4
100
AcDbEntity
  8
レイヤー_1
  6
CONTINUOUS
 62
       3
100
AcDbLine
 10
-65.69321206
 20
-40.50471385
 30
0.0
 11
-65.85286301
 21
-40.35195275
 31
0.0
  0
LINE
  5
3F5
100
AcDbEntity
  8
レイヤー_1
  6
CONTINUOUS
 62
       3
100
AcDbLine
 10
-65.85286301
 20
-40.35195275
 30
0.0
 11
-66.02541896
 21
-40.21354953
 31
0.0
  0
LINE
  5
3F6
100
AcDbEntity
  8
レイヤー_1
  6
CONTINUOUS
 62
       3
100
AcDbLine
 10
-66.02541896
 20
-40.21354953
 30
0.0
 11
-66.20991221
 21
-40.09046921
 31
0.0
  0
LINE
  5
3F7
100
AcDbEntity
  8
レイヤー_1
  6
CONTINUOUS
 62
       3
100
AcDbLine
 10
-66.20991221
 20
-40.09046921
 30
0.0
 11
-66.40537506
 21
-39.98367676
 31
0.0
  0
LINE
  5
3F8
100
AcDbEntity
  8
レイヤー_1
  6
CONTINUOUS
 62
       3
100
AcDbLine
 10
-66.40537506
 20
-39.98367676
 30
0.0
 11
-66.61083981
 21
-39.89413719
 31
0.0
  0
LINE
  5
3F9
100
AcDbEntity
  8
レイヤー_1
  6
CONTINUOUS
 62
       3
100
AcDbLine
 10
-66.61083981
 20
-39.89413719
 30
0.0
 11
-66.82533878
 21
-39.82281549
 31
0.0
  0
LINE
  5
3FA
100
AcDbEntity
  8
レイヤー_1
  6
CONTINUOUS
 62
       3
100
AcDbLine
 10
-66.82533878
 20
-39.82281549
 30
0.0
 11
-67.04790426
 21
-39.77067666
 31
0.0
  0
LINE
  5
3FB
100
AcDbEntity
  8
レイヤー_1
  6
CONTINUOUS
 62
       3
100
AcDbLine
 10
-67.04790426
 20
-39.77067666
 30
0.0
 11
-67.27756855
 21
-39.7386857
 31
0.0
  0
LINE
  5
3FC
100
AcDbEntity
  8
レイヤー_1
  6
CONTINUOUS
 62
       3
100
AcDbLine
 10
-67.27756855
 20
-39.7386857
 30
0.0
 11
-67.51336397
 21
-39.72780761
 31
0.0
  0
LINE
  5
3FD
100
AcDbEntity
  8
レイヤー_1
  6
CENTERX2
 62
       3
100
AcDbLine
 10
-49.53995631
 20
50.62843423
 30
0.0
 11
-49.53995631
 21
-50.62843423
 31
0.0
  0
LINE
  5
3FE
100
AcDbEntity
  8
レイヤー_1
  6
CENTERX2
 62
       3
100
AcDbLine
 10
30.49512396
 20
0.34485406
 30
0.0
 11
70.54298094
 21
0.34485406
 31
0.0
  0
LINE
  5
3FF
100
AcDbEntity
  8
レイヤー_1
  6
CENTERX2
 62
       3
100
AcDbLine
 10
-73.76827933
 20
0.34485406
 30
0.0
 11
-24.72148844
 21
0.34485406
 31
0.0
  0
TEXT
  5
400
100
AcDbEntity
  8
0
 62
       7
100
AcDbText
 10
112.48371041
 20
-97.32533937
 30
0.0
 40
5.0
  1
000
 41
0.8
 72
       5
 11
124.48371041
 21
-97.32533937
 31
0.0
100
AcDbText
  0
ENDSEC
  0
SECTION
  2
OBJECTS
  0
DICTIONARY
  5
19
100
AcDbDictionary
  3
ACAD_GROUP
350
1A
  3
ACAD_MLINESTYLE
350
1B
  0
DICTIONARY
  5
1A
102
{ACAD_REACTORS
330
19
102
}
100
AcDbDictionary
  0
DICTIONARY
  5
1B
102
{ACAD_REACTORS
330
19
102
}
100
AcDbDictionary
  3
STANDARD
350
1C
  0
MLINESTYLE
  5
1C
102
{ACAD_REACTORS
330
1B
102
}
100
AcDbMlineStyle
  2
STANDARD
 70
       0
  3

 62
       0
 51
90.0
 52
90.0
 71
       2
 49
0.5
 62
     256
  6
BYLAYER
 49
-0.5
 62
     256
  6
BYLAYER
  0
ENDSEC
  0
EOF
