  0
SECTION
  2
HEADER
  9
$ACADVER
  1
AC1009
  9
$DWGCODEPAGE
  3
ansi_932
  9
$INSBASE
 10
0.0
 20
0.0
 30
0.0
  9
$EXTMIN
 10
-234.6888210176667
 20
-243.2615850325319
 30
0.0
  9
$EXTMAX
 10
314.4759585330588
 20
189.6557925162659
 30
0.0
  9
$LIMMIN
 10
-148.5
 20
-105.0
  9
$LIMMAX
 10
148.5
 20
105.0
  9
$ORTHOMODE
 70
     0
  9
$REGENMODE
 70
     1
  9
$FILLMODE
 70
     1
  9
$QTEXTMODE
 70
     0
  9
$MIRRTEXT
 70
     1
  9
$DRAGMODE
 70
     2
  9
$LTSCALE
 40
0.25
  9
$OSMODE
 70
    37
  9
$ATTMODE
 70
     1
  9
$TEXTSIZE
 40
0.2
  9
$TRACEWID
 40
0.05
  9
$TEXTSTYLE
  7
STANDARD
  9
$CLAYER
  8
0
  9
$CELTYPE
  6
BYLAYER
  9
$CECOLOR
 62
   256
  9
$DIMSCALE
 40
1.0
  9
$DIMASZ
 40
1.800315856933594
  9
$DIMEXO
 40
1.0
  9
$DIMDLI
 40
10.0
  9
$DIMRND
 40
0.0
  9
$DIMDLE
 40
0.0
  9
$DIMEXE
 40
1.0
  9
$DIMTP
 40
0.0
  9
$DIMTM
 40
0.0
  9
$DIMTXT
 40
3.5
  9
$DIMCEN
 40
0.0
  9
$DIMTSZ
 40
0.0
  9
$DIMTOL
 70
     0
  9
$DIMLIM
 70
     0
  9
$DIMTIH
 70
     0
  9
$DIMTOH
 70
     0
  9
$DIMSE1
 70
     0
  9
$DIMSE2
 70
     0
  9
$DIMTAD
 70
     1
  9
$DIMZIN
 70
     8
  9
$DIMBLK
  1

  9
$DIMASO
 70
     1
  9
$DIMSHO
 70
     1
  9
$DIMPOST
  1

  9
$DIMAPOST
  1

  9
$DIMALT
 70
     0
  9
$DIMALTD
 70
     2
  9
$DIMALTF
 40
0.0393700787401575
  9
$DIMLFAC
 40
1.0
  9
$DIMTOFL
 70
     0
  9
$DIMTVP
 40
0.0
  9
$DIMTIX
 70
     0
  9
$DIMSOXD
 70
     0
  9
$DIMSAH
 70
     0
  9
$DIMBLK1
  1

  9
$DIMBLK2
  1

  9
$DIMSTYLE
  2
STANDARD
  9
$DIMCLRD
 70
     0
  9
$DIMCLRE
 70
     0
  9
$DIMCLRT
 70
     0
  9
$DIMTFAC
 40
0.65
  9
$DIMGAP
 40
0.09
  9
$LUNITS
 70
     2
  9
$LUPREC
 70
     4
  9
$SKETCHINC
 40
0.1
  9
$FILLETRAD
 40
0.5
  9
$AUNITS
 70
     0
  9
$AUPREC
 70
     0
  9
$MENU
  1
.
  9
$ELEVATION
 40
0.0
  9
$PELEVATION
 40
0.0
  9
$THICKNESS
 40
0.0
  9
$LIMCHECK
 70
     0
  9
$CHAMFERA
 40
0.0
  9
$CHAMFERB
 40
0.0
  9
$SKPOLY
 70
     0
  9
$TDCREATE
 40
2460469.383779618
  9
$TDUPDATE
 40
2460469.383779618
  9
$TDINDWG
 40
0.0000000116
  9
$TDUSRTIMER
 40
0.0000000116
  9
$USRTIMER
 70
     1
  9
$ANGBASE
 50
0.0
  9
$ANGDIR
 70
     0
  9
$PDMODE
 70
     0
  9
$PDSIZE
 40
1.0
  9
$PLINEWID
 40
0.0
  9
$COORDS
 70
     1
  9
$SPLFRAME
 70
     0
  9
$SPLINETYPE
 70
     6
  9
$SPLINESEGS
 70
     8
  9
$ATTDIA
 70
     0
  9
$ATTREQ
 70
     1
  9
$HANDLING
 70
     1
  9
$HANDSEED
  5
1B6
  9
$SURFTAB1
 70
     6
  9
$SURFTAB2
 70
     6
  9
$SURFTYPE
 70
     6
  9
$SURFU
 70
     6
  9
$SURFV
 70
     6
  9
$UCSNAME
  2

  9
$UCSORG
 10
0.0
 20
0.0
 30
0.0
  9
$UCSXDIR
 10
1.0
 20
0.0
 30
0.0
  9
$UCSYDIR
 10
0.0
 20
1.0
 30
0.0
  9
$PUCSNAME
  2

  9
$PUCSORG
 10
0.0
 20
0.0
 30
0.0
  9
$PUCSXDIR
 10
1.0
 20
0.0
 30
0.0
  9
$PUCSYDIR
 10
0.0
 20
1.0
 30
0.0
  9
$USERI1
 70
     0
  9
$USERI2
 70
     0
  9
$USERI3
 70
     0
  9
$USERI4
 70
     0
  9
$USERI5
 70
     0
  9
$USERR1
 40
0.0
  9
$USERR2
 40
0.0
  9
$USERR3
 40
0.0
  9
$USERR4
 40
0.0
  9
$USERR5
 40
0.0
  9
$WORLDVIEW
 70
     1
  9
$SHADEDGE
 70
     3
  9
$SHADEDIF
 70
    70
  9
$TILEMODE
 70
     1
  9
$MAXACTVP
 70
    64
  9
$PLIMCHECK
 70
     0
  9
$PEXTMIN
 10
1.000000000000000E+20
 20
1.000000000000000E+20
 30
1.000000000000000E+20
  9
$PEXTMAX
 10
-1.000000000000000E+20
 20
-1.000000000000000E+20
 30
-1.000000000000000E+20
  9
$PLIMMIN
 10
0.0
 20
0.0
  9
$PLIMMAX
 10
12.0
 20
9.0
  9
$UNITMODE
 70
     0
  9
$VISRETAIN
 70
     0
  9
$PLINEGEN
 70
     1
  9
$PSLTSCALE
 70
     0
  0
ENDSEC
  0
SECTION
  2
TABLES
  0
TABLE
  2
VPORT
 70
     1
  0
VPORT
  2
*ACTIVE
 70
     0
 10
0.0
 20
0.0
 11
1.0
 21
1.0
 12
43.64356875769603
 22
-26.80289625813298
 13
0.0
 23
0.0
 14
0.5
 24
0.5
 15
0.5
 25
0.5
 16
0.0
 26
0.0
 36
1.0
 17
0.0
 27
0.0
 37
0.0
 40
147.1919083665912
 41
1.320493953805974
 42
50.0
 43
0.0
 44
0.0
 50
0.0
 51
0.0
 71
     0
 72
  1000
 73
     1
 74
     1
 75
     0
 76
     0
 77
     0
 78
     0
  0
ENDTAB
  0
TABLE
  2
LTYPE
 70
    67
  0
LTYPE
  2
CONTINUOUS
 70
     0
  3
Solid line
 72
    65
 73
     0
 40
0.0
  0
LTYPE
  2
HIDDENX2
 70
     0
  3
Hidden (2x) ____ ____ ____ ____ ____ ____ ____ 
 72
    65
 73
     2
 40
19.05
 49
12.7
 49
-6.35
  0
LTYPE
  2
HIDDEN
 70
     0
  3
Hidden __ __ __ __ __ __ __ __ __ __ __ __ __ __
 72
    65
 73
     2
 40
9.524999999999999
 49
6.35
 49
-3.175
  0
LTYPE
  2
HIDDEN2
 70
     0
  3
Hidden (.5x) _ _ _ _ _ _ _ _ _ _ _ _ _ _ _ _ _ 
 72
    65
 73
     2
 40
4.762499999999999
 49
3.175
 49
-1.5875
  0
LTYPE
  2
DASHED
 70
     0
  3
Dashed __ __ __ __ __ __ __ __ __ __ __ __ __ _
 72
    65
 73
     2
 40
19.05
 49
12.7
 49
-6.35
  0
LTYPE
  2
DASHED2
 70
     0
  3
Dashed (.5x) _ _ _ _ _ _ _ _ _ _ _ _ _ _ _ _ _ 
 72
    65
 73
     2
 40
9.524999999999999
 49
6.35
 49
-3.175
  0
LTYPE
  2
DASHEDX2
 70
     0
  3
Dashed (2x) ____  ____  ____  ____  ____  ___
 72
    65
 73
     2
 40
38.09999999999999
 49
25.4
 49
-12.7
  0
LTYPE
  2
DOTX2
 70
     0
  3
Dot (2x) .  .  .  .  .  .  .  .  .  .  .  .  .  .
 72
    65
 73
     2
 40
12.7
 49
0.0
 49
-12.7
  0
LTYPE
  2
DOT
 70
     0
  3
Dot . . . . . . . . . . . . . . . . . . . . . . . .
 72
    65
 73
     2
 40
6.35
 49
0.0
 49
-6.35
  0
LTYPE
  2
DOT2
 70
     0
  3
Dot (.5x) ........................................
 72
    65
 73
     2
 40
3.175
 49
0.0
 49
-3.175
  0
LTYPE
  2
CENTERX2
 70
     0
  3
Center (2x) ________  __  ________  __  _____
 72
    65
 73
     4
 40
101.6
 49
63.5
 49
-12.7
 49
12.7
 49
-12.7
  0
LTYPE
  2
CENTER
 70
     0
  3
Center ____ _ ____ _ ____ _ ____ _ ____ _ ____
 72
    65
 73
     4
 40
50.8
 49
31.75
 49
-6.35
 49
6.35
 49
-6.35
  0
LTYPE
  2
CENTER2
 70
     0
  3
Center (.5x) ___ _ ___ _ ___ _ ___ _ ___ _ ___
 72
    65
 73
     4
 40
28.575
 49
19.05
 49
-3.175
 49
3.175
 49
-3.175
  0
LTYPE
  2
DASHDOTX2
 70
     0
  3
Dash dot (2x) ____  .  ____  .  ____  .  ___
 72
    65
 73
     4
 40
50.8
 49
25.4
 49
-12.7
 49
0.0
 49
-12.7
  0
LTYPE
  2
DASHDOT
 70
     0
  3
Dash dot __ . __ . __ . __ . __ . __ . __ . __
 72
    65
 73
     4
 40
25.4
 49
12.7
 49
-6.35
 49
0.0
 49
-6.35
  0
LTYPE
  2
DASHDOT2
 70
     0
  3
Dash dot (.5x) _._._._._._._._._._._._._._._.
 72
    65
 73
     4
 40
12.7
 49
6.35
 49
-3.175
 49
0.0
 49
-3.175
  0
LTYPE
  2
DIVIDEX2
 70
     0
  3
Divide (2x) ________  .  .  ________  .  .  _
 72
    65
 73
     6
 40
63.5
 49
25.4
 49
-12.7
 49
0.0
 49
-12.7
 49
0.0
 49
-12.7
  0
LTYPE
  2
DIVIDE
 70
     0
  3
Divide ____ . . ____ . . ____ . . ____ . . ____
 72
    65
 73
     6
 40
31.75
 49
12.7
 49
-6.35
 49
0.0
 49
-6.35
 49
0.0
 49
-6.35
  0
LTYPE
  2
DIVIDE2
 70
     0
  3
Divide (.5x) __..__..__..__..__..__..__..__.._
 72
    65
 73
     6
 40
15.875
 49
6.35
 49
-3.175
 49
0.0
 49
-3.175
 49
0.0
 49
-3.175
  0
LTYPE
  2
BORDERX2
 70
     0
  3
Border (2x) ____  ____  .  ____  ____  .  ___
 72
    65
 73
     6
 40
88.89999999999999
 49
25.4
 49
-12.7
 49
25.4
 49
-12.7
 49
0.0
 49
-12.7
  0
LTYPE
  2
BORDER
 70
     0
  3
Border __ __ . __ __ . __ __ . __ __ . __ __ .
 72
    65
 73
     6
 40
44.45
 49
12.7
 49
-6.35
 49
12.7
 49
-6.35
 49
0.0
 49
-6.35
  0
LTYPE
  2
BORDER2
 70
     0
  3
Border (.5x) __.__.__.__.__.__.__.__.__.__.__.
 72
    65
 73
     6
 40
22.225
 49
6.35
 49
-3.175
 49
6.35
 49
-3.175
 49
0.0
 49
-3.175
  0
LTYPE
  2
PHANTOMX2
 70
     0
  3
Phantom (2x) ____________    ____    ____   _
 72
    65
 73
     6
 40
127.0
 49
63.5
 49
-12.7
 49
12.7
 49
-12.7
 49
12.7
 49
-12.7
  0
LTYPE
  2
PHANTOM
 70
     0
  3
Phantom ______  __  __  ______  __  __  ______ 
 72
    65
 73
     6
 40
63.5
 49
31.75
 49
-6.35
 49
6.35
 49
-6.35
 49
6.35
 49
-6.35
  0
LTYPE
  2
PHANTOM2
 70
     0
  3
Phantom (.5x) ___ _ _ ___ _ _ ___ _ _ ___ _ _
 72
    65
 73
     6
 40
31.75
 49
15.875
 49
-3.175
 49
3.175
 49
-3.175
 49
3.175
 49
-3.175
  0
LTYPE
  2
ACAD_ISO06W100
 70
     0
  3
ISO long-dash triple-dot ____ ... ____ ... ____
 72
    65
 73
     8
 40
36.0
 49
24.0
 49
-3.0
 49
0.0
 49
-3.0
 49
0.0
 49
-3.0
 49
0.0
 49
-3.0
  0
LTYPE
  2
ACAD_ISO13W100
 70
     0
  3
ISO double-dash double-dot __ __ . . __ __ . . _
 72
    65
 73
     8
 40
36.0
 49
12.0
 49
-3.0
 49
12.0
 49
-3.0
 49
0.0
 49
-3.0
 49
0.0
 49
-3.0
  0
LTYPE
  2
ACAD_ISO14W100
 70
     0
  3
ISO dash triple-dot __ . . . __ . . . __ . . . _
 72
    65
 73
     8
 40
24.0
 49
12.0
 49
-3.0
 49
0.0
 49
-3.0
 49
0.0
 49
-3.0
 49
0.0
 49
-3.0
  0
LTYPE
  2
ACAD_ISO02W100
 70
     0
  3
ISO dash __ __ __ __ __ __ __ __ __ __ __ __ __
 72
    65
 73
     2
 40
15.0
 49
12.0
 49
-3.0
  0
LTYPE
  2
ACAD_ISO03W100
 70
     0
  3
ISO dash space __    __    __    __    __    __
 72
    65
 73
     2
 40
30.0
 49
12.0
 49
-18.0
  0
LTYPE
  2
ACAD_ISO04W100
 70
     0
  3
ISO long-dash dot ____ . ____ . ____ . ____ . _
 72
    65
 73
     4
 40
30.0
 49
24.0
 49
-3.0
 49
0.0
 49
-3.0
  0
LTYPE
  2
ACAD_ISO05W100
 70
     0
  3
ISO long-dash double-dot ____ .. ____ .. ____ . 
 72
    65
 73
     6
 40
33.0
 49
24.0
 49
-3.0
 49
0.0
 49
-3.0
 49
0.0
 49
-3.0
  0
LTYPE
  2
ACAD_ISO07W100
 70
     0
  3
ISO dot . . . . . . . . . . . . . . . . . . . . 
 72
    65
 73
     2
 40
3.0
 49
0.0
 49
-3.0
  0
LTYPE
  2
ACAD_ISO08W100
 70
     0
  3
ISO long-dash short-dash ____ __ ____ __ ____ _
 72
    65
 73
     4
 40
36.0
 49
24.0
 49
-3.0
 49
6.0
 49
-3.0
  0
LTYPE
  2
ACAD_ISO09W100
 70
     0
  3
ISO long-dash double-short-dash ____ __ __ ____
 72
    65
 73
     6
 40
45.0
 49
24.0
 49
-3.0
 49
6.0
 49
-3.0
 49
6.0
 49
-3.0
  0
LTYPE
  2
ACAD_ISO10W100
 70
     0
  3
ISO dash dot __ . __ . __ . __ . __ . __ . __ . 
 72
    65
 73
     4
 40
18.0
 49
12.0
 49
-3.0
 49
0.0
 49
-3.0
  0
LTYPE
  2
ACAD_ISO11W100
 70
     0
  3
ISO double-dash dot __ __ . __ __ . __ __ . __ _
 72
    65
 73
     6
 40
33.0
 49
12.0
 49
-3.0
 49
12.0
 49
-3.0
 49
0.0
 49
-3.0
  0
LTYPE
  2
ACAD_ISO12W100
 70
     0
  3
ISO dash double-dot __ . . __ . . __ . . __ . . 
 72
    65
 73
     6
 40
21.0
 49
12.0
 49
-3.0
 49
0.0
 49
-3.0
 49
0.0
 49
-3.0
  0
LTYPE
  2
ACAD_ISO15W100
 70
     0
  3
ISO double-dash triple-dot __ __ . . . __ __ . .
 72
    65
 73
    10
 40
39.0
 49
12.0
 49
-3.0
 49
12.0
 49
-3.0
 49
0.0
 49
-3.0
 49
0.0
 49
-3.0
 49
0.0
 49
-3.0
  0
LTYPE
  2
JIS_02_0_7
 70
     0
  3
HIDDEN0.75 _ _ _ _ _ _ _ _ _ _ _ _ _ _ _ _ _ 
 72
    65
 73
     2
 40
1.35
 49
0.75
 49
-0.6
  0
LTYPE
  2
JIS_02_1_0
 70
     0
  3
HIDDEN01 _ _ _ _ _ _ _ _ _ _ _ _ _ _ _ _ _ 
 72
    65
 73
     2
 40
2.0
 49
1.0
 49
-1.0
  0
LTYPE
  2
JIS_02_1_2
 70
     0
  3
HIDDEN01.25  _ _ _ _ _ _ _ _ _ _ _ _ _ _ _ _ _ 
 72
    65
 73
     2
 40
2.5
 49
1.25
 49
-1.25
  0
LTYPE
  2
JIS_02_2_0
 70
     0
  3
HIDDEN02 __ __ __ __ __ __ __ __ __ __ __ 
 72
    65
 73
     2
 40
3.0
 49
2.0
 49
-1.0
  0
LTYPE
  2
JIS_02_4_0
 70
     0
  3
HIDDEN04 ____ ____ ____ ____ ____ ____ ____ 
 72
    65
 73
     2
 40
5.5
 49
4.0
 49
-1.5
  0
LTYPE
  2
JIS_08_11
 70
     0
  3
1SASEN11 ___ _ ___ _ ___ _ ___ _ ___ _ ___
 72
    65
 73
     4
 40
12.8
 49
11.0
 49
-0.6
 49
0.6
 49
-0.6
  0
LTYPE
  2
JIS_08_15
 70
     0
  3
1SASEN15 ____ _ ____ _ ____ _ ____ _ ____ 
 72
    65
 73
     4
 40
17.25
 49
15.0
 49
-0.75
 49
0.75
 49
-0.75
  0
LTYPE
  2
JIS_08_25
 70
     0
  3
1SASEN25 ________  __  ________  __  _____
 72
    65
 73
     4
 40
28.0
 49
25.0
 49
-1.125
 49
0.75
 49
-1.125
  0
LTYPE
  2
JIS_08_37
 70
     0
  3
1SASEN37 ________  __  ________  __  _____
 72
    65
 73
     4
 40
40.5
 49
37.5
 49
-1.125
 49
0.75
 49
-1.125
  0
LTYPE
  2
JIS_08_50
 70
     0
  3
1SASEN50 _______________  __  ____________
 72
    65
 73
     4
 40
53.0
 49
50.0
 49
-1.125
 49
0.75
 49
-1.125
  0
LTYPE
  2
JIS_09_08
 70
     0
  3
2SASEN8 __ _ _ __ _ _ __ _ _ __ _ _ __ _ _ 
 72
    65
 73
     6
 40
10.75
 49
8.0
 49
-0.55
 49
0.55
 49
-0.55
 49
0.55
 49
-0.55
  0
LTYPE
  2
JIS_09_15
 70
     0
  3
2SASEN15 ___ _ _ ___ _ _ ___ _ _ ___ _ _ ___ 
 72
    65
 73
     6
 40
18.9
 49
15.0
 49
-0.9
 49
0.6
 49
-0.9
 49
0.6
 49
-0.9
  0
LTYPE
  2
JIS_09_29
 70
     0
  3
2SASEN29 ______　__  __  ______　__  __  ___
 72
    65
 73
     6
 40
34.0
 49
29.0
 49
-1.2
 49
0.7
 49
-1.2
 49
0.7
 49
-1.2
  0
LTYPE
  2
JIS_09_50
 70
     0
  3
2SASEN50 ____________　__  __  _____________
 72
    65
 73
     6
 40
55.0
 49
50.0
 49
-1.2
 49
0.7
 49
-1.2
 49
0.7
 49
-1.2
  0
LTYPE
  2
SXF_破線
 70
     0
  3
02 dashed -- -- -- -- -- --
 72
    65
 73
     2
 40
7.5
 49
6.0
 49
-1.5
  0
LTYPE
  2
SXF_跳び破線
 70
     0
  3
03 dashed_spaced --  --  --  --
 72
    65
 73
     2
 40
12.0
 49
6.0
 49
-6.0
  0
LTYPE
  2
SXF_一点長鎖線
 70
     0
  3
04 long_dashed_dotted ---- . ---- . ----
 72
    65
 73
     4
 40
15.25
 49
12.0
 49
-1.5
 49
0.25
 49
-1.5
  0
LTYPE
  2
SXF_二点長鎖線
 70
     0
  3
05 long_dashed_double-dotted ---- . . ---- 
 72
    65
 73
     6
 40
17.0
 49
12.0
 49
-1.5
 49
0.25
 49
-1.5
 49
0.25
 49
-1.5
  0
LTYPE
  2
SXF_三点長鎖線
 70
     0
  3
06 long_dashed_triplicate-dotted ---- ... ---- 
 72
    65
 73
     8
 40
18.75
 49
12.0
 49
-1.5
 49
0.25
 49
-1.5
 49
0.25
 49
-1.5
 49
0.25
 49
-1.5
  0
LTYPE
  2
SXF_点線
 70
     0
  3
07 dotted . . . . . . . . . . . . 
 72
    65
 73
     2
 40
1.75
 49
0.25
 49
-1.5
  0
LTYPE
  2
SXF_一点鎖線
 70
     0
  3
08 chain ---- - --- - --- - ---
 72
    65
 73
     4
 40
18.5
 49
12.0
 49
-1.5
 49
3.5
 49
-1.5
  0
LTYPE
  2
SXF_二点鎖線
 70
     0
  3
09 chain_double_dash ---- - - ---- - - ----
 72
    65
 73
     6
 40
23.5
 49
12.0
 49
-1.5
 49
3.5
 49
-1.5
 49
3.5
 49
-1.5
  0
LTYPE
  2
SXF_一点短鎖線
 70
     0
  3
10 dashed_dotted -- . -- . -- . --
 72
    65
 73
     4
 40
9.25
 49
6.0
 49
-1.5
 49
0.25
 49
-1.5
  0
LTYPE
  2
SXF_一点二短鎖線
 70
     0
  3
11 double-dashed_dotted -- -- . -- --
 72
    65
 73
     6
 40
16.75
 49
6.0
 49
-1.5
 49
6.0
 49
-1.5
 49
0.25
 49
-1.5
  0
LTYPE
  2
SXF_二点短鎖線
 70
     0
  3
12 dashed_double_dotted -- . . -- . . --
 72
    65
 73
     6
 40
11.0
 49
6.0
 49
-1.5
 49
0.25
 49
-1.5
 49
0.25
 49
-1.5
  0
LTYPE
  2
SXF_二点二短鎖線
 70
     0
  3
13 double-dashed_double-dotted -- -- . . -- --
 72
    65
 73
     8
 40
18.5
 49
6.0
 49
-1.5
 49
6.0
 49
-1.5
 49
0.25
 49
-1.5
 49
0.25
 49
-1.5
  0
LTYPE
  2
SXF_三点短鎖線
 70
     0
  3
14 dashed triplicate-dotted -- . . . -- . . . --
 72
    65
 73
     8
 40
12.75
 49
6.0
 49
-1.5
 49
0.25
 49
-1.5
 49
0.25
 49
-1.5
 49
0.25
 49
-1.5
  0
LTYPE
  2
SXF_三点二短鎖線
 70
     0
  3
15 double-dashed triplicate-dotted -- -- . . . -- -- 
 72
    65
 73
    10
 40
20.25
 49
6.0
 49
-1.5
 49
6.0
 49
-1.5
 49
0.25
 49
-1.5
 49
0.25
 49
-1.5
 49
0.25
 49
-1.5
  0
ENDTAB
  0
TABLE
  2
LAYER
 70
     2
  0
LAYER
  2
0
 70
     0
 62
     7
  6
CONTINUOUS
  0
LAYER
  2
LAYER0240
 70
     0
 62
     7
  6
CONTINUOUS
  0
ENDTAB
  0
TABLE
  2
STYLE
 70
     2
  0
STYLE
  2
STANDARD
 70
     0
 40
0.0
 41
1.0
 50
0.0
 71
     0
 42
0.2
  3
txt.shx
  4
bigfont.shx
  0
STYLE
  2
DCSTYLE0
 70
     0
 40
0.0
 41
1.0
 50
0.0
 71
     0
 42
0.2
  3
txt.shx
  4
bigfont
  0
ENDTAB
  0
TABLE
  2
VIEW
 70
     0
  0
ENDTAB
  0
TABLE
  2
UCS
 70
     0
  0
ENDTAB
  0
TABLE
  2
APPID
 70
     2
  0
APPID
  2
ACAD
 70
     0
  0
APPID
  2
DAFUSIONOUT
 70
     0
  0
ENDTAB
  0
TABLE
  2
DIMSTYLE
 70
     1
  0
DIMSTYLE
  2
STANDARD
 70
     0
  3

  4

  5

  6

  7

 40
1.0
 41
0.18
 42
0.0625
 43
0.38
 44
0.18
 45
0.0
 46
0.0
 47
0.0
 48
0.0
140
0.18
141
0.09
142
0.0
143
25.4
144
1.0
145
0.0
146
1.0
147
0.09
 71
     0
 72
     0
 73
     1
 74
     1
 75
     0
 76
     0
 77
     0
 78
     0
170
     0
171
     2
172
     0
173
     0
174
     0
175
     0
176
     0
177
     0
178
     0
  0
ENDTAB
  0
ENDSEC
  0
SECTION
  2
BLOCKS
  0
BLOCK
  8
0
  2
$MODEL_SPACE
 70
     0
 10
0.0
 20
0.0
 30
0.0
  3
$MODEL_SPACE
  1

  0
ENDBLK
  5
21
  8
0
  0
BLOCK
 67
     1
  8
0
  2
$PAPER_SPACE
 70
     0
 10
0.0
 20
0.0
 30
0.0
  3
$PAPER_SPACE
  1

  0
ENDBLK
  5
1D
 67
     1
  8
0
  0
ENDSEC
  0
SECTION
  2
ENTITIES
  0
LINE
  5
B3
  8
0
  6
CONTINUOUS
 62
     7
 10
-42.21914137568624
 20
22.29999999999996
 30
0.0
 11
-40.71914137568624
 21
22.29999999999996
 31
0.0
  0
LINE
  5
B4
  8
0
  6
CONTINUOUS
 62
     7
 10
-40.71914137568624
 20
22.29999999999996
 30
0.0
 11
-40.71914137568624
 21
21.29999999999996
 31
0.0
  0
LINE
  5
B5
  8
0
  6
CONTINUOUS
 62
     7
 10
-42.21914137568624
 20
21.29999999999996
 30
0.0
 11
-42.21914137568624
 21
22.29999999999996
 31
0.0
  0
LINE
  5
B6
  8
0
  6
CONTINUOUS
 62
     7
 10
-48.71914137568624
 20
22.29999999999996
 30
0.0
 11
-48.71914137568624
 21
22.16602540379997
 31
0.0
  0
LINE
  5
B7
  8
0
  6
CONTINUOUS
 62
     7
 10
-48.71914137568624
 20
22.29999999999996
 30
0.0
 11
-44.21914137568624
 21
22.29999999999996
 31
0.0
  0
LINE
  5
B8
  8
0
  6
CONTINUOUS
 62
     7
 10
-44.21914137568624
 20
22.29999999999996
 30
0.0
 11
-44.21914137568624
 21
21.29999999999996
 31
0.0
  0
LINE
  5
B9
  8
0
  6
CONTINUOUS
 62
     7
 10
-31.71914137568624
 20
19.69999999999997
 30
0.0
 11
-31.71914137568624
 21
21.29999999999996
 31
0.0
  0
LINE
  5
BA
  8
0
  6
CONTINUOUS
 62
     7
 10
-30.21914137568624
 20
21.29999999999996
 30
0.0
 11
-30.21914137568624
 21
19.69999999999997
 31
0.0
  0
LINE
  5
BB
  8
0
  6
CONTINUOUS
 62
     7
 10
-30.21914137568624
 20
19.69999999999997
 30
0.0
 11
-31.71914137568624
 21
19.69999999999997
 31
0.0
  0
LINE
  5
BC
  8
0
  6
CONTINUOUS
 62
     7
 10
-48.71914137568624
 20
-31.46602540380002
 30
0.0
 11
-48.71914137568624
 21
22.16602540379997
 31
0.0
  0
LINE
  5
BD
  8
0
  6
CONTINUOUS
 62
     7
 10
-38.71914137568624
 20
-29.00000000000003
 30
0.0
 11
-37.21914137568624
 21
-29.00000000000003
 31
0.0
  0
LINE
  5
BE
  8
0
  6
CONTINUOUS
 62
     7
 10
-37.21914137568624
 20
-29.00000000000003
 30
0.0
 11
-37.21914137568624
 21
-30.60000000000003
 31
0.0
  0
LINE
  5
BF
  8
0
  6
CONTINUOUS
 62
     7
 10
-38.71914137568624
 20
-30.60000000000003
 30
0.0
 11
-38.71914137568624
 21
-29.00000000000003
 31
0.0
  0
LINE
  5
C0
  8
0
  6
CONTINUOUS
 62
     7
 10
-35.21914137568624
 20
-29.00000000000003
 30
0.0
 11
-33.71914137568624
 21
-29.00000000000003
 31
0.0
  0
LINE
  5
C1
  8
0
  6
CONTINUOUS
 62
     7
 10
-33.71914137568624
 20
-29.00000000000003
 30
0.0
 11
-33.71914137568624
 21
-30.60000000000003
 31
0.0
  0
LINE
  5
C2
  8
0
  6
CONTINUOUS
 62
     7
 10
-35.21914137568624
 20
-30.60000000000003
 30
0.0
 11
-35.21914137568624
 21
-29.00000000000003
 31
0.0
  0
LINE
  5
C3
  8
0
  6
CONTINUOUS
 62
     7
 10
-31.71914137568624
 20
-30.60000000000003
 30
0.0
 11
-31.71914137568624
 21
-29.00000000000003
 31
0.0
  0
LINE
  5
C4
  8
0
  6
CONTINUOUS
 62
     7
 10
-31.71914137568624
 20
-29.00000000000003
 30
0.0
 11
-30.21914137568624
 21
-29.00000000000003
 31
0.0
  0
LINE
  5
C5
  8
0
  6
CONTINUOUS
 62
     7
 10
-30.21914137568624
 20
-29.00000000000003
 30
0.0
 11
-30.21914137568624
 21
-30.60000000000003
 31
0.0
  0
LINE
  5
C6
  8
0
  6
CONTINUOUS
 62
     7
 10
-33.71914137568624
 20
19.69999999999997
 30
0.0
 11
-35.21914137568624
 21
19.69999999999997
 31
0.0
  0
LINE
  5
C7
  8
0
  6
CONTINUOUS
 62
     7
 10
-35.21914137568624
 20
19.69999999999997
 30
0.0
 11
-35.21914137568624
 21
21.29999999999996
 31
0.0
  0
LINE
  5
C8
  8
0
  6
CONTINUOUS
 62
     7
 10
-33.71914137568624
 20
21.29999999999996
 30
0.0
 11
-33.71914137568624
 21
19.69999999999997
 31
0.0
  0
LINE
  5
C9
  8
0
  6
CONTINUOUS
 62
     7
 10
-23.71914137568624
 20
22.16602540379997
 30
0.0
 11
-23.71914137568624
 21
-31.46602540380002
 31
0.0
  0
LINE
  5
CA
  8
0
  6
CONTINUOUS
 62
     7
 10
-40.71914137568624
 20
-29.00000000000003
 30
0.0
 11
-40.71914137568624
 21
-30.60000000000003
 31
0.0
  0
LINE
  5
CB
  8
0
  6
CONTINUOUS
 62
     7
 10
-42.21914137568624
 20
-30.60000000000003
 30
0.0
 11
-42.21914137568624
 21
-29.00000000000003
 31
0.0
  0
LINE
  5
CC
  8
0
  6
CONTINUOUS
 62
     7
 10
-42.21914137568624
 20
-29.00000000000003
 30
0.0
 11
-40.71914137568624
 21
-29.00000000000003
 31
0.0
  0
LINE
  5
CD
  8
0
  6
CONTINUOUS
 62
     7
 10
-40.71914137568624
 20
-30.60000000000003
 30
0.0
 11
-40.71914137568624
 21
-31.60000000000003
 31
0.0
  0
LINE
  5
CE
  8
0
  6
CONTINUOUS
 62
     7
 10
-40.71914137568624
 20
-31.60000000000003
 30
0.0
 11
-42.21914137568624
 21
-31.60000000000003
 31
0.0
  0
LINE
  5
CF
  8
0
  6
CONTINUOUS
 62
     7
 10
-42.21914137568624
 20
-31.60000000000003
 30
0.0
 11
-42.21914137568624
 21
-30.60000000000003
 31
0.0
  0
LINE
  5
D0
  8
0
  6
CONTINUOUS
 62
     7
 10
-28.21914137568624
 20
-30.60000000000003
 30
0.0
 11
-28.21914137568624
 21
-29.00000000000003
 31
0.0
  0
LINE
  5
D1
  8
0
  6
CONTINUOUS
 62
     7
 10
-26.21914137568624
 20
-27.00000000000003
 30
0.0
 11
-28.21914137568624
 21
-29.00000000000003
 31
0.0
  0
LINE
  5
D2
  8
0
  6
CONTINUOUS
 62
     7
 10
-26.21914137568624
 20
-27.00000000000003
 30
0.0
 11
-26.21914137568624
 21
19.69999999999997
 31
0.0
  0
LINE
  5
D3
  8
0
  6
CONTINUOUS
 62
     7
 10
-26.21914137568624
 20
19.69999999999997
 30
0.0
 11
-28.21914137568624
 21
19.69999999999997
 31
0.0
  0
LINE
  5
D4
  8
0
  6
CONTINUOUS
 62
     7
 10
-28.21914137568624
 20
19.69999999999997
 30
0.0
 11
-28.21914137568624
 21
21.29999999999996
 31
0.0
  0
LINE
  5
D5
  8
0
  6
CONTINUOUS
 62
     7
 10
-23.71914137568624
 20
-31.46602540380002
 30
0.0
 11
-23.71914137568624
 21
-31.60000000000002
 31
0.0
  0
LINE
  5
D6
  8
0
  6
CONTINUOUS
 62
     7
 10
-23.71914137568624
 20
-31.60000000000002
 30
0.0
 11
-28.21914137568624
 21
-31.60000000000003
 31
0.0
  0
LINE
  5
D7
  8
0
  6
CONTINUOUS
 62
     7
 10
-28.21914137568624
 20
-31.60000000000003
 30
0.0
 11
-28.21914137568624
 21
-30.60000000000003
 31
0.0
  0
LINE
  5
D8
  8
0
  6
CONTINUOUS
 62
     7
 10
-44.21914137568624
 20
21.29999999999996
 30
0.0
 11
-44.21914137568624
 21
19.69999999999997
 31
0.0
  0
LINE
  5
D9
  8
0
  6
CONTINUOUS
 62
     7
 10
-46.21914137568624
 20
19.69999999999997
 30
0.0
 11
-46.21914137568624
 21
-29.00000000000003
 31
0.0
  0
LINE
  5
DA
  8
0
  6
CONTINUOUS
 62
     7
 10
-46.21914137568624
 20
-29.00000000000003
 30
0.0
 11
-44.21914137568624
 21
-29.00000000000003
 31
0.0
  0
LINE
  5
DB
  8
0
  6
CONTINUOUS
 62
     7
 10
-44.21914137568624
 20
-29.00000000000003
 30
0.0
 11
-44.21914137568624
 21
-30.60000000000003
 31
0.0
  0
LINE
  5
DC
  8
0
  6
CONTINUOUS
 62
     7
 10
-44.21914137568624
 20
19.69999999999997
 30
0.0
 11
-46.21914137568624
 21
19.69999999999997
 31
0.0
  0
LINE
  5
DD
  8
0
  6
CONTINUOUS
 62
     7
 10
-37.21914137568624
 20
-31.60000000000003
 30
0.0
 11
-38.71914137568624
 21
-31.60000000000003
 31
0.0
  0
LINE
  5
DE
  8
0
  6
CONTINUOUS
 62
     7
 10
-38.71914137568624
 20
-31.60000000000003
 30
0.0
 11
-38.71914137568624
 21
-30.60000000000003
 31
0.0
  0
LINE
  5
DF
  8
0
  6
CONTINUOUS
 62
     7
 10
-37.21914137568624
 20
-30.60000000000003
 30
0.0
 11
-37.21914137568624
 21
-31.60000000000003
 31
0.0
  0
LINE
  5
E0
  8
0
  6
CONTINUOUS
 62
     7
 10
-37.21914137568624
 20
19.69999999999997
 30
0.0
 11
-38.71914137568624
 21
19.69999999999997
 31
0.0
  0
LINE
  5
E1
  8
0
  6
CONTINUOUS
 62
     7
 10
-37.21914137568624
 20
21.29999999999996
 30
0.0
 11
-37.21914137568624
 21
19.69999999999997
 31
0.0
  0
LINE
  5
E2
  8
0
  6
CONTINUOUS
 62
     7
 10
-38.71914137568624
 20
19.69999999999997
 30
0.0
 11
-38.71914137568624
 21
21.29999999999996
 31
0.0
  0
LINE
  5
E3
  8
0
  6
CONTINUOUS
 62
     7
 10
-44.21914137568624
 20
-31.60000000000003
 30
0.0
 11
-48.71914137568624
 21
-31.60000000000003
 31
0.0
  0
LINE
  5
E4
  8
0
  6
CONTINUOUS
 62
     7
 10
-48.71914137568624
 20
-31.60000000000003
 30
0.0
 11
-48.71914137568624
 21
-31.46602540380002
 31
0.0
  0
LINE
  5
E5
  8
0
  6
CONTINUOUS
 62
     7
 10
-44.21914137568624
 20
-30.60000000000003
 30
0.0
 11
-44.21914137568624
 21
-31.60000000000003
 31
0.0
  0
LINE
  5
E6
  8
0
  6
CONTINUOUS
 62
     7
 10
-33.71914137568624
 20
-31.60000000000003
 30
0.0
 11
-35.21914137568624
 21
-31.60000000000003
 31
0.0
  0
LINE
  5
E7
  8
0
  6
CONTINUOUS
 62
     7
 10
-33.71914137568624
 20
-30.60000000000003
 30
0.0
 11
-33.71914137568624
 21
-31.60000000000003
 31
0.0
  0
LINE
  5
E8
  8
0
  6
CONTINUOUS
 62
     7
 10
-35.21914137568624
 20
-31.60000000000003
 30
0.0
 11
-35.21914137568624
 21
-30.60000000000003
 31
0.0
  0
LINE
  5
E9
  8
0
  6
CONTINUOUS
 62
     7
 10
-30.21914137568624
 20
-31.60000000000003
 30
0.0
 11
-31.71914137568624
 21
-31.60000000000003
 31
0.0
  0
LINE
  5
EA
  8
0
  6
CONTINUOUS
 62
     7
 10
-31.71914137568624
 20
-31.60000000000003
 30
0.0
 11
-31.71914137568624
 21
-30.60000000000003
 31
0.0
  0
LINE
  5
EB
  8
0
  6
CONTINUOUS
 62
     7
 10
-30.21914137568624
 20
-30.60000000000003
 30
0.0
 11
-30.21914137568624
 21
-31.60000000000003
 31
0.0
  0
LINE
  5
EC
  8
0
  6
CONTINUOUS
 62
     7
 10
-28.21914137568624
 20
22.29999999999996
 30
0.0
 11
-23.71914137568624
 21
22.29999999999997
 31
0.0
  0
LINE
  5
ED
  8
0
  6
CONTINUOUS
 62
     7
 10
-23.71914137568624
 20
22.16602540379997
 30
0.0
 11
-23.71914137568624
 21
22.29999999999997
 31
0.0
  0
LINE
  5
EE
  8
0
  6
CONTINUOUS
 62
     7
 10
-28.21914137568624
 20
21.29999999999996
 30
0.0
 11
-28.21914137568624
 21
22.29999999999996
 31
0.0
  0
LINE
  5
EF
  8
0
  6
CONTINUOUS
 62
     7
 10
-42.21914137568624
 20
19.69999999999997
 30
0.0
 11
-42.21914137568624
 21
21.29999999999996
 31
0.0
  0
LINE
  5
F0
  8
0
  6
CONTINUOUS
 62
     7
 10
-40.71914137568624
 20
21.29999999999996
 30
0.0
 11
-40.71914137568624
 21
19.69999999999997
 31
0.0
  0
LINE
  5
F1
  8
0
  6
CONTINUOUS
 62
     7
 10
-40.71914137568624
 20
19.69999999999997
 30
0.0
 11
-42.21914137568624
 21
19.69999999999997
 31
0.0
  0
LINE
  5
F2
  8
0
  6
CONTINUOUS
 62
     7
 10
-38.71914137568624
 20
22.29999999999996
 30
0.0
 11
-37.21914137568624
 21
22.29999999999996
 31
0.0
  0
LINE
  5
F3
  8
0
  6
CONTINUOUS
 62
     7
 10
-37.21914137568624
 20
22.29999999999996
 30
0.0
 11
-37.21914137568624
 21
21.29999999999996
 31
0.0
  0
LINE
  5
F4
  8
0
  6
CONTINUOUS
 62
     7
 10
-38.71914137568624
 20
21.29999999999996
 30
0.0
 11
-38.71914137568624
 21
22.29999999999996
 31
0.0
  0
LINE
  5
F5
  8
0
  6
CONTINUOUS
 62
     7
 10
-31.71914137568624
 20
22.29999999999996
 30
0.0
 11
-30.21914137568624
 21
22.29999999999996
 31
0.0
  0
LINE
  5
F6
  8
0
  6
CONTINUOUS
 62
     7
 10
-30.21914137568624
 20
22.29999999999996
 30
0.0
 11
-30.21914137568624
 21
21.29999999999996
 31
0.0
  0
LINE
  5
F7
  8
0
  6
CONTINUOUS
 62
     7
 10
-31.71914137568624
 20
21.29999999999996
 30
0.0
 11
-31.71914137568624
 21
22.29999999999996
 31
0.0
  0
LINE
  5
F8
  8
0
  6
CONTINUOUS
 62
     7
 10
-35.21914137568624
 20
22.29999999999996
 30
0.0
 11
-33.71914137568624
 21
22.29999999999996
 31
0.0
  0
LINE
  5
F9
  8
0
  6
CONTINUOUS
 62
     7
 10
-35.21914137568624
 20
21.29999999999996
 30
0.0
 11
-35.21914137568624
 21
22.29999999999996
 31
0.0
  0
LINE
  5
FA
  8
0
  6
CONTINUOUS
 62
     7
 10
-33.71914137568624
 20
22.29999999999996
 30
0.0
 11
-33.71914137568624
 21
21.29999999999996
 31
0.0
  0
LINE
  5
FB
  8
0
  6
CONTINUOUS
 62
     7
 10
-42.21914137568624
 20
19.69999999999997
 30
0.0
 11
-44.21914137568624
 21
19.69999999999997
 31
0.0
  0
LINE
  5
FC
  8
0
  6
CONTINUOUS
 62
     7
 10
-38.71914137568624
 20
19.69999999999997
 30
0.0
 11
-40.71914137568624
 21
19.69999999999997
 31
0.0
  0
LINE
  5
FD
  8
0
  6
CONTINUOUS
 62
     7
 10
-35.21914137568624
 20
19.69999999999997
 30
0.0
 11
-37.21914137568624
 21
19.69999999999997
 31
0.0
  0
LINE
  5
FE
  8
0
  6
CONTINUOUS
 62
     7
 10
-31.71914137568624
 20
19.69999999999997
 30
0.0
 11
-33.71914137568624
 21
19.69999999999997
 31
0.0
  0
LINE
  5
FF
  8
0
  6
CONTINUOUS
 62
     7
 10
-28.21914137568624
 20
19.69999999999997
 30
0.0
 11
-30.21914137568624
 21
19.69999999999997
 31
0.0
  0
LINE
  5
100
  8
0
  6
CONTINUOUS
 62
     7
 10
-30.21914137568624
 20
-29.00000000000003
 30
0.0
 11
-28.21914137568624
 21
-29.00000000000003
 31
0.0
  0
LINE
  5
101
  8
0
  6
CONTINUOUS
 62
     7
 10
-33.71914137568624
 20
-29.00000000000003
 30
0.0
 11
-31.71914137568624
 21
-29.00000000000003
 31
0.0
  0
LINE
  5
102
  8
0
  6
CONTINUOUS
 62
     7
 10
-37.21914137568624
 20
-29.00000000000003
 30
0.0
 11
-35.21914137568624
 21
-29.00000000000003
 31
0.0
  0
LINE
  5
103
  8
0
  6
CONTINUOUS
 62
     7
 10
-40.71914137568624
 20
-29.00000000000003
 30
0.0
 11
-38.71914137568624
 21
-29.00000000000003
 31
0.0
  0
LINE
  5
104
  8
0
  6
CONTINUOUS
 62
     7
 10
-44.21914137568624
 20
-29.00000000000003
 30
0.0
 11
-42.21914137568624
 21
-29.00000000000003
 31
0.0
  0
LINE
  5
105
  8
0
  6
CONTINUOUS
 62
     7
 10
-44.21914137568624
 20
20.23861003859997
 30
0.0
 11
-42.21914137568624
 21
20.23861003859997
 31
0.0
  0
LINE
  5
106
  8
0
  6
CONTINUOUS
 62
     7
 10
-42.21914137568624
 20
22.29999999999996
 30
0.0
 11
-44.21914137568624
 21
22.29999999999996
 31
0.0
  0
LINE
  5
107
  8
0
  6
CONTINUOUS
 62
     7
 10
-38.71914137568624
 20
-29.53861003860004
 30
0.0
 11
-40.71914137568624
 21
-29.53861003860004
 31
0.0
  0
LINE
  5
108
  8
0
  6
CONTINUOUS
 62
     7
 10
-38.71914137568624
 20
-31.60000000000003
 30
0.0
 11
-40.71914137568624
 21
-31.60000000000003
 31
0.0
  0
LINE
  5
109
  8
0
  6
CONTINUOUS
 62
     7
 10
-28.21914137568624
 20
-29.53861003860004
 30
0.0
 11
-30.21914137568624
 21
-29.53861003860004
 31
0.0
  0
LINE
  5
10A
  8
0
  6
CONTINUOUS
 62
     7
 10
-30.21914137568624
 20
-31.60000000000003
 30
0.0
 11
-28.21914137568624
 21
-31.60000000000003
 31
0.0
  0
LINE
  5
10B
  8
0
  6
CONTINUOUS
 62
     7
 10
-35.21914137568624
 20
20.23861003859997
 30
0.0
 11
-37.21914137568624
 21
20.23861003859997
 31
0.0
  0
LINE
  5
10C
  8
0
  6
CONTINUOUS
 62
     7
 10
-37.21914137568624
 20
22.29999999999996
 30
0.0
 11
-35.21914137568624
 21
22.29999999999996
 31
0.0
  0
LINE
  5
10D
  8
0
  6
CONTINUOUS
 62
     7
 10
-31.71914137568624
 20
-29.53861003860004
 30
0.0
 11
-33.71914137568624
 21
-29.53861003860004
 31
0.0
  0
LINE
  5
10E
  8
0
  6
CONTINUOUS
 62
     7
 10
-31.71914137568624
 20
-31.60000000000003
 30
0.0
 11
-33.71914137568624
 21
-31.60000000000003
 31
0.0
  0
LINE
  5
10F
  8
0
  6
CONTINUOUS
 62
     7
 10
-38.71914137568624
 20
20.23861003859997
 30
0.0
 11
-40.71914137568624
 21
20.23861003859997
 31
0.0
  0
LINE
  5
110
  8
0
  6
CONTINUOUS
 62
     7
 10
-40.71914137568624
 20
22.29999999999996
 30
0.0
 11
-38.71914137568624
 21
22.29999999999996
 31
0.0
  0
LINE
  5
111
  8
0
  6
CONTINUOUS
 62
     7
 10
-28.21914137568624
 20
20.23861003859997
 30
0.0
 11
-30.21914137568624
 21
20.23861003859997
 31
0.0
  0
LINE
  5
112
  8
0
  6
CONTINUOUS
 62
     7
 10
-28.21914137568624
 20
22.29999999999996
 30
0.0
 11
-30.21914137568624
 21
22.29999999999996
 31
0.0
  0
LINE
  5
113
  8
0
  6
CONTINUOUS
 62
     7
 10
-35.21914137568624
 20
-29.53861003860004
 30
0.0
 11
-37.21914137568624
 21
-29.53861003860004
 31
0.0
  0
LINE
  5
114
  8
0
  6
CONTINUOUS
 62
     7
 10
-35.21914137568624
 20
-31.60000000000003
 30
0.0
 11
-37.21914137568624
 21
-31.60000000000003
 31
0.0
  0
LINE
  5
115
  8
0
  6
CONTINUOUS
 62
     7
 10
-31.71914137568624
 20
20.23861003859997
 30
0.0
 11
-33.71914137568624
 21
20.23861003859997
 31
0.0
  0
LINE
  5
116
  8
0
  6
CONTINUOUS
 62
     7
 10
-33.71914137568624
 20
22.29999999999996
 30
0.0
 11
-31.71914137568624
 21
22.29999999999996
 31
0.0
  0
LINE
  5
117
  8
0
  6
CONTINUOUS
 62
     7
 10
-44.21914137568624
 20
-29.53861003860004
 30
0.0
 11
-42.21914137568624
 21
-29.53861003860004
 31
0.0
  0
LINE
  5
118
  8
0
  6
CONTINUOUS
 62
     7
 10
-44.21914137568624
 20
-31.60000000000003
 30
0.0
 11
-42.21914137568624
 21
-31.60000000000003
 31
0.0
  0
LINE
  5
119
  8
0
  6
CONTINUOUS
 62
     7
 10
-30.46914137568624
 20
-31.60000000000003
 30
0.0
 11
-30.46914137568624
 21
-40.60000000000002
 31
0.0
  0
LINE
  5
11A
  8
0
  6
CONTINUOUS
 62
     7
 10
-23.71914137568624
 20
-31.60000000000002
 30
0.0
 11
-23.71914137568623
 21
-40.60000000000002
 31
0.0
  0
LINE
  5
11B
  8
0
  6
CONTINUOUS
 62
     7
 10
-33.46914137568624
 20
22.29999999999996
 30
0.0
 11
-33.46914137568624
 21
31.29999999999997
 31
0.0
  0
LINE
  5
11C
  8
0
  6
CONTINUOUS
 62
     7
 10
-34.66914137568623
 20
31.29999999999997
 30
0.0
 11
-34.66914137568623
 21
22.29999999999996
 31
0.0
  0
LINE
  5
11D
  8
0
  6
CONTINUOUS
 62
     7
 10
-30.46914137568624
 20
-41.60000000000002
 30
0.0
 11
-30.46914137568624
 21
-40.60000000000002
 31
0.0
  0
LINE
  5
11E
  8
0
  6
CONTINUOUS
 62
     7
 10
-23.71914137568623
 20
-41.60000000000002
 30
0.0
 11
-30.46914137568624
 21
-41.60000000000002
 31
0.0
  0
LINE
  5
11F
  8
0
  6
CONTINUOUS
 62
     7
 10
-23.71914137568623
 20
-40.60000000000002
 30
0.0
 11
-23.71914137568623
 21
-41.60000000000002
 31
0.0
  0
LINE
  5
120
  8
0
  6
CONTINUOUS
 62
     7
 10
-26.16914137568623
 20
22.29999999999997
 30
0.0
 11
-26.16914137568623
 21
31.29999999999997
 31
0.0
  0
LINE
  5
121
  8
0
  6
CONTINUOUS
 62
     7
 10
-23.71914137568624
 20
22.29999999999997
 30
0.0
 11
-23.71914137568624
 21
31.29999999999997
 31
0.0
  0
LINE
  5
122
  8
0
  6
CONTINUOUS
 62
     7
 10
-41.96914137568624
 20
22.29999999999996
 30
0.0
 11
-41.96914137568624
 21
31.29999999999997
 31
0.0
  0
LINE
  5
123
  8
0
  6
CONTINUOUS
 62
     7
 10
-48.71914137568624
 20
31.29999999999997
 30
0.0
 11
-48.71914137568624
 21
22.29999999999996
 31
0.0
  0
LINE
  5
124
  8
0
  6
CONTINUOUS
 62
     7
 10
-46.26914137568624
 20
-31.60000000000003
 30
0.0
 11
-46.26914137568624
 21
-40.60000000000002
 31
0.0
  0
LINE
  5
125
  8
0
  6
CONTINUOUS
 62
     7
 10
-48.71914137568624
 20
-40.60000000000002
 30
0.0
 11
-48.71914137568624
 21
-31.60000000000003
 31
0.0
  0
LINE
  5
126
  8
0
  6
CONTINUOUS
 62
     7
 10
-37.76914137568624
 20
-40.60000000000002
 30
0.0
 11
-37.76914137568624
 21
-41.60000000000002
 31
0.0
  0
LINE
  5
127
  8
0
  6
CONTINUOUS
 62
     7
 10
-37.76914137568624
 20
-41.60000000000002
 30
0.0
 11
-38.96914137568624
 21
-41.60000000000002
 31
0.0
  0
LINE
  5
128
  8
0
  6
CONTINUOUS
 62
     7
 10
-38.96914137568624
 20
-41.60000000000002
 30
0.0
 11
-38.96914137568624
 21
-40.60000000000002
 31
0.0
  0
LINE
  5
129
  8
0
  6
CONTINUOUS
 62
     7
 10
-37.76914137568624
 20
-40.60000000000002
 30
0.0
 11
-37.76914137568624
 21
-31.60000000000003
 31
0.0
  0
LINE
  5
12A
  8
0
  6
CONTINUOUS
 62
     7
 10
-38.96914137568624
 20
-31.60000000000003
 30
0.0
 11
-38.96914137568624
 21
-40.60000000000002
 31
0.0
  0
LINE
  5
12B
  8
0
  6
CONTINUOUS
 62
     7
 10
-48.71914137568624
 20
32.29999999999997
 30
0.0
 11
-41.96914137568624
 21
32.29999999999997
 31
0.0
  0
LINE
  5
12C
  8
0
  6
CONTINUOUS
 62
     7
 10
-41.96914137568624
 20
32.29999999999997
 30
0.0
 11
-41.96914137568624
 21
31.29999999999997
 31
0.0
  0
LINE
  5
12D
  8
0
  6
CONTINUOUS
 62
     7
 10
-48.71914137568624
 20
32.29999999999997
 30
0.0
 11
-48.71914137568624
 21
31.29999999999997
 31
0.0
  0
LINE
  5
12E
  8
0
  6
CONTINUOUS
 62
     7
 10
-48.71914137568624
 20
-41.60000000000002
 30
0.0
 11
-46.26914137568624
 21
-41.60000000000002
 31
0.0
  0
LINE
  5
12F
  8
0
  6
CONTINUOUS
 62
     7
 10
-46.26914137568624
 20
-40.60000000000002
 30
0.0
 11
-46.26914137568624
 21
-41.60000000000002
 31
0.0
  0
LINE
  5
130
  8
0
  6
CONTINUOUS
 62
     7
 10
-48.71914137568624
 20
-41.60000000000002
 30
0.0
 11
-48.71914137568624
 21
-40.60000000000002
 31
0.0
  0
LINE
  5
131
  8
0
  6
CONTINUOUS
 62
     7
 10
-23.71914137568624
 20
32.29999999999997
 30
0.0
 11
-26.16914137568623
 21
32.29999999999997
 31
0.0
  0
LINE
  5
132
  8
0
  6
CONTINUOUS
 62
     7
 10
-26.16914137568623
 20
31.29999999999997
 30
0.0
 11
-26.16914137568623
 21
32.29999999999997
 31
0.0
  0
LINE
  5
133
  8
0
  6
CONTINUOUS
 62
     7
 10
-23.71914137568624
 20
31.29999999999997
 30
0.0
 11
-23.71914137568624
 21
32.29999999999997
 31
0.0
  0
LINE
  5
134
  8
0
  6
CONTINUOUS
 62
     7
 10
-34.66914137568623
 20
32.29999999999997
 30
0.0
 11
-33.46914137568624
 21
32.29999999999997
 31
0.0
  0
LINE
  5
135
  8
0
  6
CONTINUOUS
 62
     7
 10
-33.46914137568624
 20
32.29999999999997
 30
0.0
 11
-33.46914137568624
 21
31.29999999999997
 31
0.0
  0
LINE
  5
136
  8
0
  6
CONTINUOUS
 62
     7
 10
-34.66914137568623
 20
31.29999999999997
 30
0.0
 11
-34.66914137568623
 21
32.29999999999997
 31
0.0
  0
LINE
  5
137
  8
0
  6
CONTINUOUS
 62
     7
 10
-40.66914137568623
 20
22.29999999999996
 30
0.0
 11
-40.66914137568623
 21
30.69999999999997
 31
0.0
  0
LINE
  5
138
  8
0
  6
CONTINUOUS
 62
     7
 10
-35.96914137568624
 20
30.69999999999997
 30
0.0
 11
-35.96914137568624
 21
22.29999999999996
 31
0.0
  0
LINE
  5
139
  8
0
  6
CONTINUOUS
 62
     7
 10
-40.66914137568623
 20
30.69999999999997
 30
0.0
 11
-35.96914137568624
 21
30.69999999999997
 31
0.0
  0
LINE
  5
13A
  8
0
  6
CONTINUOUS
 62
     7
 10
-34.66914137568623
 20
32.29999999999997
 30
0.0
 11
-41.96914137568624
 21
32.29999999999997
 31
0.0
  0
LINE
  5
13B
  8
0
  6
CONTINUOUS
 62
     7
 10
-44.96914137568624
 20
-40.00000000000003
 30
0.0
 11
-44.96914137568624
 21
-31.60000000000003
 31
0.0
  0
LINE
  5
13C
  8
0
  6
CONTINUOUS
 62
     7
 10
-40.26914137568624
 20
-40.00000000000003
 30
0.0
 11
-44.96914137568624
 21
-40.00000000000003
 31
0.0
  0
LINE
  5
13D
  8
0
  6
CONTINUOUS
 62
     7
 10
-40.26914137568624
 20
-31.60000000000003
 30
0.0
 11
-40.26914137568624
 21
-40.00000000000003
 31
0.0
  0
LINE
  5
13E
  8
0
  6
CONTINUOUS
 62
     7
 10
-46.26914137568624
 20
-41.60000000000002
 30
0.0
 11
-38.96914137568624
 21
-41.60000000000002
 31
0.0
  0
LINE
  5
13F
  8
0
  6
CONTINUOUS
 62
     7
 10
-27.46914137568624
 20
22.29999999999996
 30
0.0
 11
-27.46914137568624
 21
30.69999999999997
 31
0.0
  0
LINE
  5
140
  8
0
  6
CONTINUOUS
 62
     7
 10
-32.16914137568623
 20
30.69999999999997
 30
0.0
 11
-32.16914137568623
 21
22.29999999999996
 31
0.0
  0
LINE
  5
141
  8
0
  6
CONTINUOUS
 62
     7
 10
-27.46914137568624
 20
30.69999999999997
 30
0.0
 11
-32.16914137568623
 21
30.69999999999997
 31
0.0
  0
LINE
  5
142
  8
0
  6
CONTINUOUS
 62
     7
 10
-26.16914137568623
 20
32.29999999999997
 30
0.0
 11
-33.46914137568624
 21
32.29999999999997
 31
0.0
  0
LINE
  5
143
  8
0
  6
CONTINUOUS
 62
     7
 10
-31.76914137568624
 20
-31.60000000000003
 30
0.0
 11
-31.76914137568624
 21
-40.00000000000003
 31
0.0
  0
LINE
  5
144
  8
0
  6
CONTINUOUS
 62
     7
 10
-36.46914137568624
 20
-40.00000000000003
 30
0.0
 11
-36.46914137568624
 21
-31.60000000000003
 31
0.0
  0
LINE
  5
145
  8
0
  6
CONTINUOUS
 62
     7
 10
-31.76914137568624
 20
-40.00000000000003
 30
0.0
 11
-36.46914137568624
 21
-40.00000000000003
 31
0.0
  0
LINE
  5
146
  8
0
  6
CONTINUOUS
 62
     7
 10
-37.76914137568624
 20
-41.60000000000002
 30
0.0
 11
-30.46914137568624
 21
-41.60000000000002
 31
0.0
  0
LINE
  5
147
  8
0
  6
CONTINUOUS
 62
     7
 10
-26.16914137568622
 20
-41.60000000000002
 30
0.0
 11
-26.16914137568622
 21
-50.22219858120002
 31
0.0
  0
LINE
  5
148
  8
0
  6
CONTINUOUS
 62
     7
 10
-23.71914137568623
 20
-41.60000000000002
 30
0.0
 11
-23.71914137568623
 21
-50.22219858120002
 31
0.0
  0
LINE
  5
149
  8
0
  6
CONTINUOUS
 62
     7
 10
-26.16914137568622
 20
-50.22219858120002
 30
0.0
 11
-26.16914137568622
 21
-51.22204627630003
 31
0.0
  0
LINE
  5
14A
  8
0
  6
CONTINUOUS
 62
     7
 10
-23.71914137568623
 20
-50.22219858120002
 30
0.0
 11
-23.71914137568623
 21
-50.70700820140001
 31
0.0
  0
LINE
  5
14B
  8
0
  6
CONTINUOUS
 62
     7
 10
-33.46914137568624
 20
-41.60000000000002
 30
0.0
 11
-33.46914137568624
 21
-50.22219858120002
 31
0.0
  0
LINE
  5
14C
  8
0
  6
CONTINUOUS
 62
     7
 10
-34.66914137568623
 20
-50.22219858120002
 30
0.0
 11
-34.66914137568623
 21
-41.60000000000002
 31
0.0
  0
LINE
  5
14D
  8
0
  6
CONTINUOUS
 62
     7
 10
-30.46914137568624
 20
40.92219858119998
 30
0.0
 11
-30.46914137568624
 21
41.92204627639998
 31
0.0
  0
LINE
  5
14E
  8
0
  6
CONTINUOUS
 62
     7
 10
-23.71914137568624
 20
40.92219858119998
 30
0.0
 11
-23.71914137568624
 21
41.40700820149998
 31
0.0
  0
LINE
  5
14F
  8
0
  6
CONTINUOUS
 62
     7
 10
-37.76914137568624
 20
32.29999999999997
 30
0.0
 11
-37.76914137568624
 21
40.92219858119998
 31
0.0
  0
LINE
  5
150
  8
0
  6
CONTINUOUS
 62
     7
 10
-38.96914137568624
 20
32.29999999999997
 30
0.0
 11
-38.96914137568624
 21
40.92219858119998
 31
0.0
  0
LINE
  5
151
  8
0
  6
CONTINUOUS
 62
     7
 10
-41.96914137568624
 20
-50.22219858120002
 30
0.0
 11
-41.96914137568624
 21
-51.22204627630003
 31
0.0
  0
LINE
  5
152
  8
0
  6
CONTINUOUS
 62
     7
 10
-48.71914137568624
 20
-50.70700820140001
 30
0.0
 11
-48.71914137568624
 21
-50.22219858120002
 31
0.0
  0
LINE
  5
153
  8
0
  6
CONTINUOUS
 62
     7
 10
-33.46914137568624
 20
-50.22219858120002
 30
0.0
 11
-33.46914137568624
 21
-51.22204627630003
 31
0.0
  0
LINE
  5
154
  8
0
  6
CONTINUOUS
 62
     7
 10
-34.66914137568623
 20
-51.22204627630003
 30
0.0
 11
-34.66914137568623
 21
-50.22219858120002
 31
0.0
  0
LINE
  5
155
  8
0
  6
CONTINUOUS
 62
     7
 10
-37.76914137568624
 20
41.92204627639998
 30
0.0
 11
-37.76914137568624
 21
40.92219858119998
 31
0.0
  0
LINE
  5
156
  8
0
  6
CONTINUOUS
 62
     7
 10
-38.96914137568624
 20
40.92219858119998
 30
0.0
 11
-38.96914137568624
 21
41.92204627639998
 31
0.0
  0
LINE
  5
157
  8
0
  6
CONTINUOUS
 62
     7
 10
-30.46914137568624
 20
32.29999999999997
 30
0.0
 11
-30.46914137568624
 21
40.92219858119998
 31
0.0
  0
LINE
  5
158
  8
0
  6
CONTINUOUS
 62
     7
 10
-23.71914137568624
 20
32.29999999999997
 30
0.0
 11
-23.71914137568624
 21
40.92219858119998
 31
0.0
  0
LINE
  5
159
  8
0
  6
CONTINUOUS
 62
     7
 10
-46.26914137568624
 20
40.92219858119998
 30
0.0
 11
-46.26914137568624
 21
41.92204627639998
 31
0.0
  0
LINE
  5
15A
  8
0
  6
CONTINUOUS
 62
     7
 10
-48.71914137568624
 20
41.40700820149998
 30
0.0
 11
-48.71914137568624
 21
40.92219858119998
 31
0.0
  0
LINE
  5
15B
  8
0
  6
CONTINUOUS
 62
     7
 10
-46.26914137568624
 20
32.29999999999997
 30
0.0
 11
-46.26914137568624
 21
40.92219858119998
 31
0.0
  0
LINE
  5
15C
  8
0
  6
CONTINUOUS
 62
     7
 10
-48.71914137568624
 20
40.92219858119998
 30
0.0
 11
-48.71914137568624
 21
32.29999999999997
 31
0.0
  0
LINE
  5
15D
  8
0
  6
CONTINUOUS
 62
     7
 10
-41.96914137568624
 20
-41.60000000000002
 30
0.0
 11
-41.96914137568624
 21
-50.22219858120002
 31
0.0
  0
LINE
  5
15E
  8
0
  6
CONTINUOUS
 62
     7
 10
-48.71914137568624
 20
-50.22219858120002
 30
0.0
 11
-48.71914137568624
 21
-41.60000000000002
 31
0.0
  0
ARC
  5
15F
  8
0
  6
CONTINUOUS
 62
     7
 10
-24.21918102528624
 20
41.84996035059997
 30
0.0
 40
0.5000396509865421
 50
359.9958160659995
 51
89.99545684469939
  0
LINE
  5
160
  8
0
  6
CONTINUOUS
 62
     7
 10
-23.71914137568624
 20
41.84992383599997
 30
0.0
 11
-23.71914137568624
 21
41.40700820149998
 31
0.0
  0
ARC
  5
161
  8
0
  6
CONTINUOUS
 62
     7
 10
-48.21910329068624
 20
41.84996191509998
 30
0.0
 40
0.5000380863613604
 50
90.00436387700056
 51
180.0043632123008
  0
LINE
  5
162
  8
0
  6
CONTINUOUS
 62
     7
 10
-48.71914137568624
 20
41.40700820149998
 30
0.0
 11
-48.71914137568624
 21
41.84992383599997
 31
0.0
  0
ARC
  5
163
  8
0
  6
CONTINUOUS
 62
     7
 10
-24.21917946058623
 20
-51.14996191510002
 30
0.0
 40
0.500038086361403
 50
270.0043638770005
 51
0.0043632122991498
  0
LINE
  5
164
  8
0
  6
CONTINUOUS
 62
     7
 10
-23.71914137568623
 20
-50.70700820140001
 30
0.0
 11
-23.71914137568623
 21
-51.14992383600003
 31
0.0
  0
ARC
  5
165
  8
0
  6
CONTINUOUS
 62
     7
 10
-48.21910172598624
 20
-51.14996035060003
 30
0.0
 40
0.5000396509865024
 50
179.9958160659995
 51
269.9954568446994
  0
LINE
  5
166
  8
0
  6
CONTINUOUS
 62
     7
 10
-48.71914137568624
 20
-51.14992383600003
 30
0.0
 11
-48.71914137568624
 21
-50.70700820140001
 31
0.0
  0
LINE
  5
167
  8
0
  6
CONTINUOUS
 62
     7
 10
-34.66914137568623
 20
-51.32184477930002
 30
0.0
 11
-41.96914137568624
 21
-51.32184477930002
 31
0.0
  0
LINE
  5
168
  8
0
  6
CONTINUOUS
 62
     7
 10
-26.16914137568622
 20
-51.32184477930002
 30
0.0
 11
-33.46914137568624
 21
-51.32184477930002
 31
0.0
  0
LINE
  5
169
  8
0
  6
CONTINUOUS
 62
     7
 10
-30.61914137568623
 20
-54.65000000000824
 30
0.0
 11
-30.61914137568623
 21
-51.65000000000824
 31
0.0
  0
LINE
  5
16A
  8
0
  6
CONTINUOUS
 62
     7
 10
-41.81914137568624
 20
-51.65000000000287
 30
0.0
 11
-41.81914137568624
 21
-54.65000000000286
 31
0.0
  0
LINE
  5
16B
  8
0
  6
CONTINUOUS
 62
     7
 10
-48.21914137568624
 20
-51.65000000000003
 30
0.0
 11
-24.21914137567455
 21
-51.65000000001108
 31
0.0
  0
LINE
  5
16C
  8
0
  6
CONTINUOUS
 62
     7
 10
-26.16914137568622
 20
-51.22204627630003
 30
0.0
 11
-26.16914137568622
 21
-51.32184477930002
 31
0.0
  0
LINE
  5
16D
  8
0
  6
CONTINUOUS
 62
     7
 10
-41.96914137568624
 20
-51.32184477930002
 30
0.0
 11
-41.96914137568624
 21
-51.22204627630003
 31
0.0
  0
LINE
  5
16E
  8
0
  6
CONTINUOUS
 62
     7
 10
-33.46914137568624
 20
-51.32184477930002
 30
0.0
 11
-33.46914137568624
 21
-51.22204627630003
 31
0.0
  0
LINE
  5
16F
  8
0
  6
CONTINUOUS
 62
     7
 10
-34.66914137568623
 20
-51.22204627630003
 30
0.0
 11
-34.66914137568623
 21
-51.32184477930002
 31
0.0
  0
LINE
  5
170
  8
0
  6
CONTINUOUS
 62
     7
 10
-37.76914137568624
 20
42.02184477939997
 30
0.0
 11
-30.46914137568624
 21
42.02184477939997
 31
0.0
  0
LINE
  5
171
  8
0
  6
CONTINUOUS
 62
     7
 10
-38.96914137568624
 20
42.02184477939997
 30
0.0
 11
-46.26914137568624
 21
42.02184477939997
 31
0.0
  0
LINE
  5
172
  8
0
  6
CONTINUOUS
 62
     7
 10
-48.21914137568624
 20
42.34999999999998
 30
0.0
 11
-24.21914137568624
 21
42.34999999999998
 31
0.0
  0
LINE
  5
173
  8
0
  6
CONTINUOUS
 62
     7
 10
-30.46914137568624
 20
42.02184477939997
 30
0.0
 11
-30.46914137568624
 21
41.92204627639998
 31
0.0
  0
LINE
  5
174
  8
0
  6
CONTINUOUS
 62
     7
 10
-37.76914137568624
 20
41.92204627639998
 30
0.0
 11
-37.76914137568624
 21
42.02184477939997
 31
0.0
  0
LINE
  5
175
  8
0
  6
CONTINUOUS
 62
     7
 10
-46.26914137568624
 20
41.92204627639998
 30
0.0
 11
-46.26914137568624
 21
42.02184477939997
 31
0.0
  0
LINE
  5
176
  8
0
  6
CONTINUOUS
 62
     7
 10
-38.96914137568624
 20
42.02184477939997
 30
0.0
 11
-38.96914137568624
 21
41.92204627639998
 31
0.0
  0
LINE
  5
177
  8
0
  6
CONTINUOUS
 62
     7
 10
-31.76914137568624
 20
32.29999999999997
 30
0.0
 11
-31.76914137568624
 21
40.69999999999997
 31
0.0
  0
LINE
  5
178
  8
0
  6
CONTINUOUS
 62
     7
 10
-36.46914137568624
 20
40.69999999999997
 30
0.0
 11
-36.46914137568624
 21
32.29999999999997
 31
0.0
  0
LINE
  5
179
  8
0
  6
CONTINUOUS
 62
     7
 10
-31.76914137568624
 20
40.69999999999997
 30
0.0
 11
-36.46914137568624
 21
40.69999999999997
 31
0.0
  0
LINE
  5
17A
  8
0
  6
CONTINUOUS
 62
     7
 10
-32.16914137568623
 20
-41.60000000000002
 30
0.0
 11
-32.16914137568623
 21
-50.00000000000003
 31
0.0
  0
LINE
  5
17B
  8
0
  6
CONTINUOUS
 62
     7
 10
-27.46914137568623
 20
-50.00000000000003
 30
0.0
 11
-27.46914137568623
 21
-41.60000000000002
 31
0.0
  0
LINE
  5
17C
  8
0
  6
CONTINUOUS
 62
     7
 10
-32.16914137568623
 20
-50.00000000000003
 30
0.0
 11
-27.46914137568623
 21
-50.00000000000003
 31
0.0
  0
LINE
  5
17D
  8
0
  6
CONTINUOUS
 62
     7
 10
-40.26914137568624
 20
32.29999999999997
 30
0.0
 11
-40.26914137568624
 21
40.69999999999997
 31
0.0
  0
LINE
  5
17E
  8
0
  6
CONTINUOUS
 62
     7
 10
-44.96914137568624
 20
40.69999999999997
 30
0.0
 11
-44.96914137568624
 21
32.29999999999997
 31
0.0
  0
LINE
  5
17F
  8
0
  6
CONTINUOUS
 62
     7
 10
-40.26914137568624
 20
40.69999999999997
 30
0.0
 11
-44.96914137568624
 21
40.69999999999997
 31
0.0
  0
LINE
  5
180
  8
0
  6
CONTINUOUS
 62
     7
 10
-35.96914137568624
 20
-50.00000000000003
 30
0.0
 11
-35.96914137568624
 21
-41.60000000000002
 31
0.0
  0
LINE
  5
181
  8
0
  6
CONTINUOUS
 62
     7
 10
-40.66914137568623
 20
-41.60000000000002
 30
0.0
 11
-40.66914137568623
 21
-50.00000000000003
 31
0.0
  0
LINE
  5
182
  8
0
  6
CONTINUOUS
 62
     7
 10
-40.66914137568623
 20
-50.00000000000003
 30
0.0
 11
-35.96914137568624
 21
-50.00000000000003
 31
0.0
  0
LINE
  5
183
  8
0
  6
CONTINUOUS
 62
     7
 10
52.86548391711376
 20
42.34999999999998
 30
0.0
 11
52.86548391711376
 21
41.84992383599997
 31
0.0
  0
LINE
  5
184
  8
0
  6
CONTINUOUS
 62
     7
 10
48.36548391711376
 20
21.44999999999997
 30
0.0
 11
48.36548391711376
 21
26.44999999999997
 31
0.0
  0
LINE
  5
185
  8
0
  6
CONTINUOUS
 62
     7
 10
50.86548391711376
 20
21.44999999999997
 30
0.0
 11
48.36548391711376
 21
21.44999999999997
 31
0.0
  0
LINE
  5
186
  8
0
  6
CONTINUOUS
 62
     7
 10
50.86548391711376
 20
26.44999999999997
 30
0.0
 11
50.86548391711376
 21
21.44999999999997
 31
0.0
  0
LINE
  5
187
  8
0
  6
CONTINUOUS
 62
     7
 10
48.36548391711376
 20
26.44999999999997
 30
0.0
 11
50.86548391711376
 21
26.44999999999997
 31
0.0
  0
LINE
  5
188
  8
0
  6
CONTINUOUS
 62
     7
 10
48.36548391711376
 20
-35.75000000000002
 30
0.0
 11
48.36548391711376
 21
-30.75000000000002
 31
0.0
  0
LINE
  5
189
  8
0
  6
CONTINUOUS
 62
     7
 10
50.86548391711376
 20
-35.75000000000002
 30
0.0
 11
48.36548391711376
 21
-35.75000000000002
 31
0.0
  0
LINE
  5
18A
  8
0
  6
CONTINUOUS
 62
     7
 10
50.86548391711376
 20
-30.75000000000002
 30
0.0
 11
50.86548391711376
 21
-35.75000000000002
 31
0.0
  0
LINE
  5
18B
  8
0
  6
CONTINUOUS
 62
     7
 10
48.36548391711376
 20
-30.75000000000002
 30
0.0
 11
50.86548391711376
 21
-30.75000000000002
 31
0.0
  0
LINE
  5
18C
  8
0
  6
CONTINUOUS
 62
     7
 10
26.86548391711376
 20
-41.60000000000002
 30
0.0
 11
26.86548391711376
 21
-50.65000000000003
 31
0.0
  0
LINE
  5
18D
  8
0
  6
CONTINUOUS
 62
     7
 10
19.06548391711378
 20
-41.60000000000002
 30
0.0
 11
26.86548391711376
 21
-41.60000000000002
 31
0.0
  0
LINE
  5
18E
  8
0
  6
CONTINUOUS
 62
     7
 10
18.06548391711378
 20
-31.60000000000002
 30
0.0
 11
18.06548391711378
 21
-40.60000000000002
 31
0.0
  0
LINE
  5
18F
  8
0
  6
CONTINUOUS
 62
     7
 10
12.86548391711376
 20
-31.60000000000002
 30
0.0
 11
18.06548391711378
 21
-31.60000000000002
 31
0.0
  0
LINE
  5
190
  8
0
  6
CONTINUOUS
 62
     7
 10
12.86548391711376
 20
22.29999999999997
 30
0.0
 11
18.06548391711377
 21
22.29999999999997
 31
0.0
  0
LINE
  5
191
  8
0
  6
CONTINUOUS
 62
     7
 10
18.06548391711377
 20
22.29999999999997
 30
0.0
 11
18.06548391711377
 21
31.29999999999997
 31
0.0
  0
LINE
  5
192
  8
0
  6
CONTINUOUS
 62
     7
 10
19.06548391711377
 20
32.29999999999997
 30
0.0
 11
26.86548391711376
 21
32.29999999999997
 31
0.0
  0
LINE
  5
193
  8
0
  6
CONTINUOUS
 62
     7
 10
26.86548391711376
 20
32.29999999999997
 30
0.0
 11
26.86548391711376
 21
41.34999999999998
 31
0.0
  0
LINE
  5
194
  8
0
  6
CONTINUOUS
 62
     7
 10
52.86548391711376
 20
41.84992383599997
 30
0.0
 11
52.86548391711376
 21
13.79999999999997
 31
0.0
  0
LINE
  5
195
  8
0
  6
CONTINUOUS
 62
     7
 10
48.36548391711376
 20
13.79999999999997
 30
0.0
 11
52.86548391711376
 21
13.79999999999997
 31
0.0
  0
ARC
  5
196
  8
0
  6
CONTINUOUS
 62
     7
 10
48.36548391711376
 20
13.29999999999997
 30
0.0
 40
0.5
 50
90.0
 51
180.0
  0
LINE
  5
197
  8
0
  6
CONTINUOUS
 62
     7
 10
47.86548391711376
 20
-22.60000000000002
 30
0.0
 11
47.86548391711376
 21
13.29999999999997
 31
0.0
  0
ARC
  5
198
  8
0
  6
CONTINUOUS
 62
     7
 10
48.36548391711376
 20
-22.60000000000002
 30
0.0
 40
0.5
 50
180.0
 51
270.0
  0
LINE
  5
199
  8
0
  6
CONTINUOUS
 62
     7
 10
52.86548391711376
 20
-23.10000000000002
 30
0.0
 11
48.36548391711376
 21
-23.10000000000002
 31
0.0
  0
LINE
  5
19A
  8
0
  6
CONTINUOUS
 62
     7
 10
52.86548391711376
 20
-23.10000000000002
 30
0.0
 11
52.86548391711376
 21
-54.65000000000824
 31
0.0
  0
LINE
  5
19B
  8
0
  6
CONTINUOUS
 62
     7
 10
11.86548391711376
 20
-30.60000000000002
 30
0.0
 11
11.86548391711376
 21
21.29999999999997
 31
0.0
  0
ARC
  5
19C
  8
0
  6
CONTINUOUS
 62
     7
 10
12.86548391711376
 20
21.29999999999997
 30
0.0
 40
1.0
 50
90.0
 51
180.0
  0
ARC
  5
19D
  8
0
  6
CONTINUOUS
 62
     7
 10
19.06548391711377
 20
31.29999999999997
 30
0.0
 40
1.0
 50
90.0
 51
180.0
  0
ARC
  5
19E
  8
0
  6
CONTINUOUS
 62
     7
 10
27.86548391711376
 20
41.34999999999998
 30
0.0
 40
1.0
 50
90.0
 51
180.0
  0
ARC
  5
19F
  8
0
  6
CONTINUOUS
 62
     7
 10
12.86548391711376
 20
-30.60000000000002
 30
0.0
 40
1.0
 50
180.0
 51
270.0
  0
ARC
  5
1A0
  8
0
  6
CONTINUOUS
 62
     7
 10
19.06548391711378
 20
-40.60000000000002
 30
0.0
 40
1.0
 50
180.0
 51
270.0
  0
ARC
  5
1A1
  8
0
  6
CONTINUOUS
 62
     7
 10
27.86548391711376
 20
-50.65000000000003
 30
0.0
 40
1.0
 50
180.0
 51
270.0
  0
LINE
  5
1A2
  8
0
  6
CONTINUOUS
 62
     7
 10
-41.81914137568624
 20
-54.65000000000286
 30
0.0
 11
-30.61914137568623
 21
-54.65000000000824
 31
0.0
  0
LINE
  5
1A3
  8
0
  6
CONTINUOUS
 62
     7
 10
52.86548391711376
 20
42.34999999999998
 30
0.0
 11
27.86548391711376
 21
42.34999999999998
 31
0.0
  0
LINE
  5
1A4
  8
0
  6
CONTINUOUS
 62
     7
 10
52.86548391711376
 20
-51.65000000000003
 30
0.0
 11
27.86548391711376
 21
-51.65000000000003
 31
0.0
  0
LINE
  5
1A5
  8
0
  6
CONTINUOUS
 62
     7
 10
52.86548391711376
 20
-54.65000000000824
 30
0.0
 11
48.19293657884585
 21
-54.65000000000824
 31
0.0
  0
LINE
  5
1A6
  8
0
  6
CONTINUOUS
 62
     7
 10
48.16548391711375
 20
-51.65000000000003
 30
0.0
 11
48.16548391711375
 21
-54.65000000000824
 31
0.0
  0
LINE
  5
1A7
  8
0
  6
CONTINUOUS
 62
     7
 10
-40.81914137568624
 20
-53.65000000000335
 30
0.0
 11
-31.61914137568623
 21
-53.65000000000776
 31
0.0
  0
LINE
  5
1A8
  8
0
  6
CONTINUOUS
 62
     7
 10
-40.81914137568624
 20
-51.65000000000335
 30
0.0
 11
-40.81914137568624
 21
-53.65000000000335
 31
0.0
  0
LINE
  5
1A9
  8
0
  6
CONTINUOUS
 62
     7
 10
-31.61914137568623
 20
-51.65000000000784
 30
0.0
 11
-31.61914137568623
 21
-53.65000000000629
 31
0.0
  0
LINE
  5
1AA
  8
0
  6
CENTER
 62
   222
 10
-20.80438825056748
 20
-4.650000000007289
 30
0.0
 11
-51.63389450075822
 21
-4.650000000007289
 31
0.0
  0
LINE
  5
1AB
  8
0
  6
CENTER
 62
   222
 10
-36.21914137566285
 20
45.34999999999998
 30
0.0
 11
-36.21914137566285
 21
-57.65000000000556
 31
0.0
  0
LINE
  5
1AC
  8
0
  6
CENTER
 62
   222
 10
9.312934697663962
 20
-4.650000000007289
 30
0.0
 11
57.26689507970187
 21
-4.650000000007289
 31
0.0
  0
TEXT
  5
1AE
  8
LAYER0240
 62
     7
 10
129.9210320161503
 20
-98.95579251626593
 30
0.0
 40
6.0
  1
000
 41
0.5526315789473685
  7
DCSTYLE0
 72
     5
 11
138.9210320161503
 21
-98.95579251626593
 31
0.0
  0
VIEWPORT
  5
B2
 67
     1
  8
0
 10
39.89356875769602
 20
-26.80289625813299
 30
0.0
 40
549.1647795507255
 41
432.9173775487977
 68
     1
 69
     1
1001
ACAD
1000
MVIEW
1002
{
1070
    16
1010
0.0
1020
0.0
1030
0.0
1010
0.0
1020
0.0
1030
1.0
1040
0.0
1040
432.9173775487977
1040
39.89356875769602
1040
-26.80289625813299
1040
50.0
1040
0.0
1040
0.0
1070
     0
1070
   100
1070
     0
1070
     3
1070
     0
1070
     0
1070
     0
1070
     0
1040
0.0
1040
0.0
1040
0.0
1040
0.5
1040
0.5
1040
0.0
1040
0.0
1070
     0
1002
{
1002
}
1002
}
  0
ENDSEC
  0
EOF
